  0
SECTION
  2
HEADER
  9
$ACADVER
  1
AC1015
  9
$ACADMAINTVER
 70
     6
  9
$DWGCODEPAGE
  3
ANSI_1252
  9
$INSBASE
 10
0.0
 20
0.0
 30
0.0
  9
$EXTMIN
 10
0.0
 20
0.0
 30
0.0
  9
$EXTMAX
 10
3000.0
 20
4500.0
 30
0.0
  9
$LIMMIN
 10
0.0
 20
0.0
  9
$LIMMAX
 10
3000.0
 20
4500.0
  9
$ORTHOMODE
 70
     0
  9
$REGENMODE
 70
     1
  9
$FILLMODE
 70
     1
  9
$QTEXTMODE
 70
     0
  9
$MIRRTEXT
 70
     1
  9
$LTSCALE
 40
1.0
  9
$ATTMODE
 70
     1
  9
$TEXTSIZE
 40
2.5
  9
$TRACEWID
 40
1.0
  9
$TEXTSTYLE
  7
Standard
  9
$CLAYER
  8
0
  9
$CELTYPE
  6
ByLayer
  9
$CECOLOR
 62
   256
  9
$CELTSCALE
 40
1.0
  9
$DISPSILH
 70
     0
  9
$DIMSCALE
 40
1.0
  9
$DIMASZ
 40
2.5
  9
$DIMEXO
 40
0.625
  9
$DIMDLI
 40
3.75
  9
$DIMRND
 40
0.0
  9
$DIMDLE
 40
0.0
  9
$DIMEXE
 40
1.25
  9
$DIMTP
 40
0.0
  9
$DIMTM
 40
0.0
  9
$DIMTXT
 40
2.5
  9
$DIMCEN
 40
2.5
  9
$DIMTSZ
 40
0.0
  9
$DIMTOL
 70
     0
  9
$DIMLIM
 70
     0
  9
$DIMTIH
 70
     0
  9
$DIMTOH
 70
     0
  9
$DIMSE1
 70
     0
  9
$DIMSE2
 70
     0
  9
$DIMTAD
 70
     1
  9
$DIMZIN
 70
     8
  9
$DIMBLK
  1

  9
$DIMASO
 70
     1
  9
$DIMSHO
 70
     1
  9
$DIMPOST
  1

  9
$DIMAPOST
  1

  9
$DIMALT
 70
     0
  9
$DIMALTD
 70
     3
  9
$DIMALTF
 40
0.0393700787
  9
$DIMLFAC
 40
1.0
  9
$DIMTOFL
 70
     1
  9
$DIMTVP
 40
0.0
  9
$DIMTIX
 70
     0
  9
$DIMSOXD
 70
     0
  9
$DIMSAH
 70
     0
  9
$DIMBLK1
  1

  9
$DIMBLK2
  1

  9
$DIMSTYLE
  2
ISO-25
  9
$DIMCLRD
 70
     0
  9
$DIMCLRE
 70
     0
  9
$DIMCLRT
 70
     0
  9
$DIMTFAC
 40
1.0
  9
$DIMGAP
 40
0.625
  9
$DIMJUST
 70
     0
  9
$DIMSD1
 70
     0
  9
$DIMSD2
 70
     0
  9
$DIMTOLJ
 70
     0
  9
$DIMTZIN
 70
     8
  9
$DIMALTZ
 70
     0
  9
$DIMALTTZ
 70
     0
  9
$DIMUPT
 70
     0
  9
$DIMDEC
 70
     2
  9
$DIMTDEC
 70
     2
  9
$DIMALTU
 70
     2
  9
$DIMALTTD
 70
     3
  9
$DIMTXSTY
  7
Standard
  9
$DIMAUNIT
 70
     0
  9
$DIMADEC
 70
     0
  9
$DIMALTRND
 40
0.0
  9
$DIMAZIN
 70
     0
  9
$DIMDSEP
 70
    44
  9
$DIMATFIT
 70
     3
  9
$DIMFRAC
 70
     0
  9
$DIMLDRBLK
  1

  9
$DIMLUNIT
 70
     2
  9
$DIMLWD
 70
    -2
  9
$DIMLWE
 70
    -2
  9
$DIMTMOVE
 70
     0
  9
$LUNITS
 70
     2
  9
$LUPREC
 70
     4
  9
$SKETCHINC
 40
1.0
  9
$FILLETRAD
 40
10.0
  9
$AUNITS
 70
     0
  9
$AUPREC
 70
     0
  9
$MENU
  1
.
  9
$ELEVATION
 40
0.0
  9
$PELEVATION
 40
0.0
  9
$THICKNESS
 40
0.0
  9
$LIMCHECK
 70
     0
  9
$CHAMFERA
 40
10.0
  9
$CHAMFERB
 40
10.0
  9
$CHAMFERC
 40
20.0
  9
$CHAMFERD
 40
0.0
  9
$SKPOLY
 70
     0
  9
$TDCREATE
 40
2455856.444810949
  9
$TDUCREATE
 40
2455856.361477616
  9
$TDUPDATE
 40
2455856.44481096
  9
$TDUUPDATE
 40
2455856.361477627
  9
$TDINDWG
 40
0.0000000116
  9
$TDUSRTIMER
 40
0.0000000116
  9
$USRTIMER
 70
     1
  9
$ANGBASE
 50
0.0
  9
$ANGDIR
 70
     0
  9
$PDMODE
 70
     0
  9
$PDSIZE
 40
0.0
  9
$PLINEWID
 40
0.0
  9
$SPLFRAME
 70
     0
  9
$SPLINETYPE
 70
     6
  9
$SPLINESEGS
 70
     8
  9
$HANDSEED
  5
36A
  9
$SURFTAB1
 70
     6
  9
$SURFTAB2
 70
     6
  9
$SURFTYPE
 70
     6
  9
$SURFU
 70
     6
  9
$SURFV
 70
     6
  9
$UCSBASE
  2

  9
$UCSNAME
  2

  9
$UCSORG
 10
0.0
 20
0.0
 30
0.0
  9
$UCSXDIR
 10
1.0
 20
0.0
 30
0.0
  9
$UCSYDIR
 10
0.0
 20
1.0
 30
0.0
  9
$UCSORTHOREF
  2

  9
$UCSORTHOVIEW
 70
     0
  9
$UCSORGTOP
 10
0.0
 20
0.0
 30
0.0
  9
$UCSORGBOTTOM
 10
0.0
 20
0.0
 30
0.0
  9
$UCSORGLEFT
 10
0.0
 20
0.0
 30
0.0
  9
$UCSORGRIGHT
 10
0.0
 20
0.0
 30
0.0
  9
$UCSORGFRONT
 10
0.0
 20
0.0
 30
0.0
  9
$UCSORGBACK
 10
0.0
 20
0.0
 30
0.0
  9
$PUCSBASE
  2

  9
$PUCSNAME
  2

  9
$PUCSORG
 10
0.0
 20
0.0
 30
0.0
  9
$PUCSXDIR
 10
1.0
 20
0.0
 30
0.0
  9
$PUCSYDIR
 10
0.0
 20
1.0
 30
0.0
  9
$PUCSORTHOREF
  2

  9
$PUCSORTHOVIEW
 70
     0
  9
$PUCSORGTOP
 10
0.0
 20
0.0
 30
0.0
  9
$PUCSORGBOTTOM
 10
0.0
 20
0.0
 30
0.0
  9
$PUCSORGLEFT
 10
0.0
 20
0.0
 30
0.0
  9
$PUCSORGRIGHT
 10
0.0
 20
0.0
 30
0.0
  9
$PUCSORGFRONT
 10
0.0
 20
0.0
 30
0.0
  9
$PUCSORGBACK
 10
0.0
 20
0.0
 30
0.0
  9
$USERI1
 70
     0
  9
$USERI2
 70
     0
  9
$USERI3
 70
     0
  9
$USERI4
 70
     0
  9
$USERI5
 70
     0
  9
$USERR1
 40
0.0
  9
$USERR2
 40
0.0
  9
$USERR3
 40
0.0
  9
$USERR4
 40
0.0
  9
$USERR5
 40
0.0
  9
$WORLDVIEW
 70
     1
  9
$SHADEDGE
 70
     3
  9
$SHADEDIF
 70
    70
  9
$TILEMODE
 70
     1
  9
$MAXACTVP
 70
    64
  9
$PINSBASE
 10
0.0
 20
0.0
 30
0.0
  9
$PLIMCHECK
 70
     0
  9
$PEXTMIN
 10
0.0
 20
0.0
 30
0.0
  9
$PEXTMAX
 10
3000.0
 20
4500.0
 30
0.0
  9
$PLIMMIN
 10
0.0
 20
0.0
  9
$PLIMMAX
 10
3000.0
 20
4500.0
  9
$UNITMODE
 70
     0
  9
$VISRETAIN
 70
     1
  9
$PLINEGEN
 70
     0
  9
$PSLTSCALE
 70
     1
  9
$TREEDEPTH
 70
  3020
  9
$CMLSTYLE
  2
Standard
  9
$CMLJUST
 70
     0
  9
$CMLSCALE
 40
20.0
  9
$PROXYGRAPHICS
 70
     1
  9
$MEASUREMENT
 70
     1
  9
$CELWEIGHT
370
    -1
  9
$ENDCAPS
280
     0
  9
$JOINSTYLE
280
     0
  9
$LWDISPLAY
290
     0
  9
$INSUNITS
 70
     4
  9
$HYPERLINKBASE
  1

  9
$STYLESHEET
  1

  9
$XEDIT
290
     1
  9
$CEPSNTYPE
380
     0
  9
$PSTYLEMODE
290
     1
  9
$FINGERPRINTGUID
  2
{374B5BAC-4029-4B2B-B362-52F58A1D3B87}
  9
$VERSIONGUID
  2
{FAEB1C32-E019-11D5-929B-00C0DF256EC4}
  9
$EXTNAMES
290
     1
  9
$PSVPSCALE
 40
0.0
  9
$OLESTARTUP
290
     0
  0
ENDSEC
  0
SECTION
  2
CLASSES
  0
CLASS
  1
ACDBDICTIONARYWDFLT
  2
AcDbDictionaryWithDefault
  3
ObjectDBX Classes
 90
        0
280
     0
281
     0
  0
CLASS
  1
VISUALSTYLE
  2
AcDbVisualStyle
  3
ObjectDBX Classes
 90
     4095
280
     0
281
     0
  0
CLASS
  1
SCALE
  2
AcDbScale
  3
ObjectDBX Classes
 90
     1153
280
     0
281
     0
  0
CLASS
  1
DICTIONARYVAR
  2
AcDbDictionaryVar
  3
ObjectDBX Classes
 90
        0
280
     0
281
     0
  0
CLASS
  1
ACDBPLACEHOLDER
  2
AcDbPlaceHolder
  3
ObjectDBX Classes
 90
        0
280
     0
281
     0
  0
CLASS
  1
LAYOUT
  2
AcDbLayout
  3
ObjectDBX Classes
 90
        0
280
     0
281
     0
  0
ENDSEC
  0
SECTION
  2
TABLES
  0
TABLE
  2
VPORT
  5
8
330
0
100
AcDbSymbolTable
 70
     1
  0
VPORT
  5
29
330
8
100
AcDbSymbolTableRecord
100
AcDbViewportTableRecord
  2
*Active
 70
     0
 10
0.0
 20
0.0
 11
1.0
 21
1.0
 12
344.1869158879
 22
148.5
 13
0.0
 23
0.0
 14
10.0
 24
10.0
 15
10.0
 25
10.0
 16
0.0
 26
0.0
 36
1.0
 17
0.0
 27
0.0
 37
0.0
 40
297.0
 41
1.9729729729
 42
50.0
 43
0.0
 44
0.0
 50
0.0
 51
0.0
 71
     0
 72
   100
 73
     1
 74
     3
 75
     0
 76
     0
 77
     0
 78
     0
281
     0
 65
     1
110
0.0
120
0.0
130
0.0
111
1.0
121
0.0
131
0.0
112
0.0
122
1.0
132
0.0
 79
     0
146
0.0
  0
ENDTAB
  0
TABLE
  2
LTYPE
  5
5
330
0
100
AcDbSymbolTable
 70
     2
  0
LTYPE
  5
14
330
5
100
AcDbSymbolTableRecord
100
AcDbLinetypeTableRecord
  2
ByBlock
 70
     0
  3

 72
    65
 73
     0
 40
0.0
  0
LTYPE
  5
15
330
5
100
AcDbSymbolTableRecord
100
AcDbLinetypeTableRecord
  2
ByLayer
 70
     0
  3

 72
    65
 73
     0
 40
0.0
  0
LTYPE
  5
16
330
5
100
AcDbSymbolTableRecord
100
AcDbLinetypeTableRecord
  2
Continuous
 70
     0
  3
Solid line
 72
    65
 73
     0
 40
0.0
  0
LTYPE
  5
60
330
5
100
AcDbSymbolTableRecord
100
AcDbLinetypeTableRecord
  2
CENTER2
 70
     0
  3
Center (.5x) ___ _ ___ _ ___ _ ___ _ ___ _ ___
 72
    65
 73
     4
 40
28.575
 49
19.05
 74
     4
 75
     0
340
0
 46
0.0
 50
0.0
 44
0.0
 45
0.0
 49
-3.175
 74
     4
 75
     0
340
0
 46
0.0
 50
0.0
 44
0.0
 45
0.0
 49
3.175
 74
     4
 75
     0
340
0
 46
0.0
 50
0.0
 44
0.0
 45
0.0
 49
-3.175
 74
     4
 75
     0
340
0
 46
0.0
 50
0.0
 44
0.0
 45
0.0
  0
ENDTAB
  0
TABLE
  2
LAYER
  5
2
330
0
100
AcDbSymbolTable
 70
    11
  0
LAYER
  5
10
330
2
100
AcDbSymbolTableRecord
100
AcDbLayerTableRecord
  2
0
 70
     0
 62
     7
  6
Continuous
370
    -3
390
F
  0
LAYER
  5
5D
330
2
100
AcDbSymbolTableRecord
100
AcDbLayerTableRecord
  2
Default
 70
     0
 62
     7
  6
Continuous
370
    -3
390
F
  0
LAYER
  5
77
330
2
100
AcDbSymbolTableRecord
100
AcDbLayerTableRecord
  2
$DDT_AUDIT_GENERATED_(77)
 70
     0
 62
     7
  6
Continuous
370
    -3
390
F
  0
LAYER
  5
7F
330
2
100
AcDbSymbolTableRecord
100
AcDbLayerTableRecord
  2
$DDT_AUDIT_GENERATED_(7F)
 70
     0
 62
     7
  6
Continuous
370
    -3
390
F
  0
LAYER
  5
8F
330
2
100
AcDbSymbolTableRecord
100
AcDbLayerTableRecord
  2
$DDT_AUDIT_GENERATED_(8F)
 70
     0
 62
     7
  6
Continuous
370
    -3
390
F
  0
LAYER
  5
95
330
2
100
AcDbSymbolTableRecord
100
AcDbLayerTableRecord
  2
$DDT_AUDIT_GENERATED_(95)
 70
     0
 62
     7
  6
Continuous
370
    -3
390
F
  0
LAYER
  5
A2
330
2
100
AcDbSymbolTableRecord
100
AcDbLayerTableRecord
  2
$DDT_AUDIT_GENERATED_(A2)
 70
     0
 62
     7
  6
Continuous
370
    -3
390
F
  0
LAYER
  5
B7
330
2
100
AcDbSymbolTableRecord
100
AcDbLayerTableRecord
  2
$DDT_AUDIT_GENERATED_(B7)
 70
     0
 62
     7
  6
Continuous
370
    -3
390
F
  0
LAYER
  5
B9
330
2
100
AcDbSymbolTableRecord
100
AcDbLayerTableRecord
  2
$DDT_AUDIT_GENERATED_(B9)
 70
     0
 62
     7
  6
Continuous
370
    -3
390
F
  0
LAYER
  5
C2
330
2
100
AcDbSymbolTableRecord
100
AcDbLayerTableRecord
  2
$DDT_AUDIT_GENERATED_(C2)
 70
     0
 62
     7
  6
Continuous
370
    -3
390
F
  0
LAYER
  5
C6
330
2
100
AcDbSymbolTableRecord
100
AcDbLayerTableRecord
  2
$DDT_AUDIT_GENERATED_(C6)
 70
     0
 62
     7
  6
Continuous
370
    -3
390
F
  0
ENDTAB
  0
TABLE
  2
STYLE
  5
3
330
0
100
AcDbSymbolTable
 70
     2
  0
STYLE
  5
11
330
3
100
AcDbSymbolTableRecord
100
AcDbTextStyleTableRecord
  2
Standard
 70
     0
 40
0.0
 41
1.0
 50
0.0
 71
     0
 42
2.5
  3
txt
  4

  0
STYLE
  5
359
330
3
100
AcDbSymbolTableRecord
100
AcDbTextStyleTableRecord
  2
SEACAD_seiso_ttf
 70
     0
 40
0.0
 41
1.0
 50
0.0
 71
     0
 42
0.2
  3
seiso.ttf
  4

  0
ENDTAB
  0
TABLE
  2
VIEW
  5
6
330
0
100
AcDbSymbolTable
 70
     0
  0
ENDTAB
  0
TABLE
  2
UCS
  5
7
330
0
100
AcDbSymbolTable
 70
     0
  0
ENDTAB
  0
TABLE
  2
APPID
  5
9
330
0
100
AcDbSymbolTable
 70
     1
  0
APPID
  5
12
330
9
100
AcDbSymbolTableRecord
100
AcDbRegAppTableRecord
  2
ACAD
 70
     0
  0
ENDTAB
  0
TABLE
  2
DIMSTYLE
  5
A
330
0
100
AcDbSymbolTable
 70
     1
100
AcDbDimStyleTable
  0
DIMSTYLE
105
27
330
A
100
AcDbSymbolTableRecord
100
AcDbDimStyleTableRecord
  2
ISO-25
 70
     0
 41
2.5
 42
0.625
 43
3.75
 44
1.25
 73
     0
 74
     0
 77
     1
 78
     8
140
2.5
141
2.5
143
0.0393700787
147
0.625
171
     3
172
     1
271
     2
272
     2
274
     3
278
    44
283
     0
284
     8
340
11
  0
ENDTAB
  0
TABLE
  2
BLOCK_RECORD
  5
1
330
0
100
AcDbSymbolTable
 70
     7
  0
BLOCK_RECORD
  5
1F
330
1
100
AcDbSymbolTableRecord
100
AcDbBlockTableRecord
  2
*Model_Space
340
22
  0
BLOCK_RECORD
  5
1B
330
1
100
AcDbSymbolTableRecord
100
AcDbBlockTableRecord
  2
*Paper_Space
340
1E
  0
BLOCK_RECORD
  5
5E
330
1
100
AcDbSymbolTableRecord
100
AcDbBlockTableRecord
  2
SEANNOT_GROUP
340
0
102
{BLKREFS
331
5F
102
}
  0
BLOCK_RECORD
  5
65
330
1
100
AcDbSymbolTableRecord
100
AcDbBlockTableRecord
  2
SEANNOT_GROUP1
340
0
102
{BLKREFS
331
66
102
}
  0
BLOCK_RECORD
  5
6B
330
1
100
AcDbSymbolTableRecord
100
AcDbBlockTableRecord
  2
SEANNOT_GROUP2
340
0
102
{BLKREFS
331
6C
102
}
  0
BLOCK_RECORD
  5
75
330
1
100
AcDbSymbolTableRecord
100
AcDbBlockTableRecord
  2
SE
340
0
102
{BLKREFS
331
76
102
}
  0
BLOCK_RECORD
  5
D0
330
1
100
AcDbSymbolTableRecord
100
AcDbBlockTableRecord
  2
SE1
340
0
102
{BLKREFS
331
D1
102
}
  0
BLOCK_RECORD
  5
33B
330
1
100
AcDbSymbolTableRecord
100
AcDbBlockTableRecord
  2
SE2
340
0
102
{BLKREFS
331
33C
102
}
  0
ENDTAB
  0
ENDSEC
  0
SECTION
  2
BLOCKS
  0
BLOCK
  5
20
330
1F
100
AcDbEntity
  8
0
100
AcDbBlockBegin
  2
*Model_Space
 70
     0
 10
0.0
 20
0.0
 30
0.0
  3
*Model_Space
  1

  0
ENDBLK
  5
21
330
1F
100
AcDbEntity
  8
0
100
AcDbBlockEnd
  0
BLOCK
  5
1C
330
1B
100
AcDbEntity
 67
     1
  8
0
100
AcDbBlockBegin
  2
*Paper_Space
 70
     0
 10
0.0
 20
0.0
 30
0.0
  3
*Paper_Space
  1

  0
ENDBLK
  5
1D
330
1B
100
AcDbEntity
 67
     1
  8
0
100
AcDbBlockEnd
  0
BLOCK
  5
63
330
5E
100
AcDbEntity
  8
0
100
AcDbBlockBegin
  2
SEANNOT_GROUP
 70
     0
 10
0.0
 20
0.0
 30
0.0
  3
SEANNOT_GROUP
  1

  0
LINE
  5
61
330
5E
100
AcDbEntity
  8
Default
  6
CENTER2
 62
     7
100
AcDbLine
 10
172.3717328614
 20
385.6185759293
 30
0.0
 11
132.3717337555
 21
385.6185759293
 31
0.0
  0
LINE
  5
62
330
5E
100
AcDbEntity
  8
Default
  6
CENTER2
 62
     7
100
AcDbLine
 10
152.3717333084
 20
405.6185754823
 30
0.0
 11
152.3717333084
 21
365.6185763763
 31
0.0
  0
ENDBLK
  5
64
330
5E
100
AcDbEntity
  8
0
100
AcDbBlockEnd
  0
BLOCK
  5
69
330
65
100
AcDbEntity
  8
0
100
AcDbBlockBegin
  2
SEANNOT_GROUP1
 70
     0
 10
0.0
 20
0.0
 30
0.0
  3
SEANNOT_GROUP1
  1

  0
LINE
  5
67
330
65
100
AcDbEntity
  8
Default
  6
CENTER2
 62
     7
100
AcDbLine
 10
320.746485062
 20
385.6185759293
 30
0.0
 11
280.7464859561
 21
385.6185759293
 31
0.0
  0
LINE
  5
68
330
65
100
AcDbEntity
  8
Default
  6
CENTER2
 62
     7
100
AcDbLine
 10
300.746485509
 20
405.6185754823
 30
0.0
 11
300.746485509
 21
365.6185763763
 31
0.0
  0
ENDBLK
  5
6A
330
65
100
AcDbEntity
  8
0
100
AcDbBlockEnd
  0
BLOCK
  5
73
330
6B
100
AcDbEntity
  8
0
100
AcDbBlockBegin
  2
SEANNOT_GROUP2
 70
     0
 10
0.0
 20
0.0
 30
0.0
  3
SEANNOT_GROUP2
  1

  0
LINE
  5
6D
330
6B
100
AcDbEntity
  8
Default
  6
CENTER2
 62
     7
100
AcDbLine
 10
172.3717328614
 20
298.6189638006
 30
0.0
 11
132.3717337555
 21
298.6189638006
 31
0.0
  0
LINE
  5
6E
330
6B
100
AcDbEntity
  8
Default
  6
CENTER2
 62
     7
100
AcDbLine
 10
152.3717333084
 20
318.6189633536
 30
0.0
 11
152.3717333084
 21
278.6189642477
 31
0.0
  0
LINE
  5
6F
330
6B
100
AcDbEntity
  8
Default
  6
CENTER2
 62
     7
100
AcDbLine
 10
177.3717327497
 20
298.6189638006
 30
0.0
 11
184.8717333084
 21
298.6189638006
 31
0.0
  0
LINE
  5
70
330
6B
100
AcDbEntity
  8
Default
  6
CENTER2
 62
     7
100
AcDbLine
 10
152.3717333084
 20
323.6189632418
 30
0.0
 11
152.3717333084
 21
331.1189638006
 31
0.0
  0
LINE
  5
71
330
6B
100
AcDbEntity
  8
Default
  6
CENTER2
 62
     7
100
AcDbLine
 10
127.3717338672
 20
298.6189638006
 30
0.0
 11
119.8717333084
 21
298.6189638006
 31
0.0
  0
LINE
  5
72
330
6B
100
AcDbEntity
  8
Default
  6
CENTER2
 62
     7
100
AcDbLine
 10
152.3717333084
 20
273.6189643594
 30
0.0
 11
152.3717333084
 21
266.1189638006
 31
0.0
  0
ENDBLK
  5
74
330
6B
100
AcDbEntity
  8
0
100
AcDbBlockEnd
  0
BLOCK
  5
CE
330
75
100
AcDbEntity
  8
0
100
AcDbBlockBegin
  2
SE
 70
     0
 10
0.0
 20
0.0
 30
0.0
  3
SE
  1

  0
LINE
  5
78
330
75
100
AcDbEntity
  8
$DDT_AUDIT_GENERATED_(77)
  6
Continuous
 62
     7
100
AcDbLine
 10
329.746485509
 20
453.6185759293
 30
0.0
 11
271.746485509
 21
453.6185759293
 31
0.0
  0
LINE
  5
79
330
75
100
AcDbEntity
  8
$DDT_AUDIT_GENERATED_(77)
  6
Continuous
 62
     7
100
AcDbLine
 10
329.746485509
 20
385.6185759293
 30
0.0
 11
271.746485509
 21
385.6185759293
 31
0.0
  0
ARC
  5
7A
330
75
100
AcDbEntity
  8
$DDT_AUDIT_GENERATED_(77)
  6
Continuous
 62
     7
100
AcDbCircle
 10
242.8128993577
 20
446.8185759295
 30
0.0
 40
29.00262759774684
100
AcDbArc
 50
356.0457869831
 51
3.9542132731
  0
LINE
  5
7B
330
75
100
AcDbEntity
  8
$DDT_AUDIT_GENERATED_(77)
  6
Continuous
 62
     7
100
AcDbLine
 10
329.746485509
 20
385.6185759293
 30
0.0
 11
329.746485509
 21
415.3961766426
 31
0.0
  0
LINE
  5
7C
330
75
100
AcDbEntity
  8
$DDT_AUDIT_GENERATED_(77)
  6
Continuous
 62
     7
100
AcDbLine
 10
329.746485509
 20
437.3764819178
 30
0.0
 11
329.746485509
 21
453.6185759293
 31
0.0
  0
LINE
  5
7D
330
75
100
AcDbEntity
  8
$DDT_AUDIT_GENERATED_(77)
  6
Continuous
 62
     7
100
AcDbLine
 10
271.746485509
 20
444.8432297582
 30
0.0
 11
271.746485509
 21
385.6185759293
 31
0.0
  0
LINE
  5
7E
330
75
100
AcDbEntity
  8
$DDT_AUDIT_GENERATED_(77)
  6
Continuous
 62
     7
100
AcDbLine
 10
271.746485509
 20
453.6185759293
 30
0.0
 11
271.746485509
 21
448.8185759293
 31
0.0
  0
ARC
  5
80
330
75
100
AcDbEntity
  8
$DDT_AUDIT_GENERATED_(7F)
  6
Continuous
 62
     7
100
AcDbCircle
 10
535.4956336871
 20
428.0597217932
 30
0.0
 40
98.50106207840584
100
AcDbArc
 50
97.3789387552
 51
97.4704745851
  0
SPLINE
  5
81
330
75
100
AcDbEntity
  8
$DDT_AUDIT_GENERATED_(7F)
  6
Continuous
 62
     7
100
AcDbSpline
210
0.0
220
0.0
230
1.0
 70
     8
 71
     3
 72
    16
 73
    12
 74
     0
 42
0.0000000000495321
 43
0.0000000001
 40
0.0
 40
0.0
 40
0.0
 40
0.0
 40
0.1249999999999999
 40
0.1249999999999999
 40
0.2499999999999999
 40
0.2499999999999999
 40
0.4999999999999998
 40
0.4999999999999998
 40
0.7499999999999999
 40
0.7499999999999999
 40
1.0
 40
1.0
 40
1.0
 40
1.0
 10
507.8528844040794
 20
511.1944207507235
 30
0.0
 10
499.6145247004531
 20
509.4274946157022
 30
0.0
 10
491.4602397645667
 20
507.1811193964302
 30
0.0
 10
475.4342076226902
 20
501.943898192224
 30
0.0
 10
467.569704634604
 20
498.9588681687154
 30
0.0
 10
444.3279487234474
 20
489.1359141516604
 30
0.0
 10
429.2709090711242
 20
481.4216915343224
 30
0.0
 10
400.0801622285951
 20
464.7694759512927
 30
0.0
 10
385.8931679581181
 20
455.8044289195865
 30
0.0
 10
358.0144508418478
 20
437.0994462577598
 30
0.0
 10
344.325325461138
 20
427.355446702329
 30
0.0
 10
330.7878766083732
 20
417.3741380547636
 30
0.0
  0
SPLINE
  5
82
330
75
100
AcDbEntity
  8
$DDT_AUDIT_GENERATED_(7F)
  6
Continuous
 62
     7
100
AcDbSpline
210
0.0
220
0.0
230
1.0
 70
     8
 71
     3
 72
     8
 73
     4
 74
     0
 42
0.0000000007471604
 43
0.0000000001
 40
0.0
 40
0.0
 40
0.0
 40
0.0
 40
1.0
 40
1.0
 40
1.0
 40
1.0
 10
522.5305920556514
 20
526.7124893702721
 30
0.0
 10
526.9536470554796
 20
527.2947956135885
 30
0.0
 10
531.4089258060643
 20
527.5750911986137
 30
0.0
 10
535.8675993497952
 20
527.5600497668797
 30
0.0
  0
SPLINE
  5
83
330
75
100
AcDbEntity
  8
$DDT_AUDIT_GENERATED_(7F)
  6
Continuous
 62
     7
100
AcDbSpline
210
0.0
220
0.0
230
1.0
 70
     8
 71
     3
 72
    20
 73
    16
 74
     0
 42
0.0000000027779355
 43
0.0000000001
 40
0.0
 40
0.0
 40
0.0
 40
0.0
 40
0.2500000000000013
 40
0.2500000000000013
 40
0.3750000000000011
 40
0.3750000000000011
 40
0.5000000000000009
 40
0.5000000000000009
 40
0.6250000000000007
 40
0.6250000000000007
 40
0.7500000000000004
 40
0.7500000000000004
 40
0.8750000000000002
 40
0.8750000000000002
 40
1.0
 40
1.0
 40
1.0
 40
1.0
 10
538.337777651085
 20
525.3863794608588
 30
0.0
 10
538.2983632119954
 20
525.6857625877203
 30
0.0
 10
538.2064937792843
 20
525.9713920283776
 30
0.0
 10
537.9941361186151
 20
526.369460020148
 30
0.0
 10
537.9123908897374
 20
526.4940957709107
 30
0.0
 10
537.7276122995354
 20
526.7277234797499
 30
0.0
 10
537.6234365333779
 20
526.8376563879742
 30
0.0
 10
537.3983033987133
 20
527.0358022065243
 30
0.0
 10
537.2781266765054
 20
527.1237438974476
 30
0.0
 10
537.0228175203252
 20
527.2777518646701
 30
0.0
 10
536.8862067891912
 20
527.3442629546153
 30
0.0
 10
536.6064906701081
 20
527.4504371319982
 30
0.0
 10
536.4631609852719
 20
527.490594737698
 30
0.0
 10
536.1695994559716
 20
527.5452040194713
 30
0.0
 10
536.0185817301106
 20
527.5595404245502
 30
0.0
 10
535.8675993497952
 20
527.5600497668797
 30
0.0
  0
SPLINE
  5
84
330
75
100
AcDbEntity
  8
$DDT_AUDIT_GENERATED_(7F)
  6
Continuous
 62
     7
100
AcDbSpline
210
0.0
220
0.0
230
1.0
 70
     8
 71
     3
 72
    14
 73
    10
 74
     0
 42
0.0000000020003528
 43
0.0000000001
 40
0.0
 40
0.0
 40
0.0
 40
0.0
 40
0.25
 40
0.25
 40
0.5
 40
0.5
 40
0.75
 40
0.75
 40
1.0
 40
1.0
 40
1.0
 40
1.0
 10
326.5452616780507
 20
433.5878907377314
 30
0.0
 10
327.0367962428456
 20
434.1599967676382
 30
0.0
 10
327.4820401258932
 20
434.6826545660408
 30
0.0
 10
328.2708532828939
 20
435.6136200531509
 30
0.0
 10
328.6145455058282
 20
436.0220760112786
 30
0.0
 10
329.1837180415261
 20
436.7009020218641
 30
0.0
 10
329.4012122239411
 20
436.9616957408244
 30
0.0
 10
329.6948980324931
 20
437.3142743868217
 30
0.0
 10
329.7714876821693
 20
437.4065268990552
 30
0.0
 10
329.7714855089961
 20
437.4065300815399
 30
0.0
  0
ARC
  5
85
330
75
100
AcDbEntity
  8
$DDT_AUDIT_GENERATED_(7F)
  6
Continuous
 62
     7
100
AcDbCircle
 10
336.2020199228
 20
427.1869785363
 30
0.0
 40
11.58553653521495
100
AcDbArc
 50
146.4618809068
 51
191.5856804437
  0
ARC
  5
86
330
75
100
AcDbEntity
  8
$DDT_AUDIT_GENERATED_(7F)
  6
Continuous
 62
     7
100
AcDbCircle
 10
355.1259876581
 20
434.5153523171
 30
0.0
 40
31.77583415653238
100
AcDbArc
 50
197.6890771077
 51
217.0682801835
  0
SPLINE
  5
87
330
75
100
AcDbEntity
  8
$DDT_AUDIT_GENERATED_(7F)
  6
Continuous
 62
     7
100
AcDbSpline
210
0.0
220
0.0
230
1.0
 70
     8
 71
     3
 72
    18
 73
    14
 74
     0
 42
0.0000000000471937
 43
0.0000000001
 40
0.0
 40
0.0
 40
0.0
 40
0.0
 40
0.2499999999999999
 40
0.2499999999999999
 40
0.4999999999999999
 40
0.4999999999999999
 40
0.625
 40
0.625
 40
0.75
 40
0.75
 40
0.875
 40
0.875
 40
1.0
 40
1.0
 40
1.0
 40
1.0
 10
333.736143734416
 20
435.3805053327664
 30
0.0
 10
348.0475574690252
 20
445.7265437299712
 30
0.0
 10
362.5513518232217
 20
455.7952517993606
 30
0.0
 10
392.2232699856835
 20
474.9749898431759
 30
0.0
 10
407.3513418463875
 20
484.0651962043986
 30
0.0
 10
430.7547868894076
 20
496.4440664575171
 30
0.0
 10
438.6876477866495
 20
500.363609126176
 30
0.0
 10
454.7812651457691
 20
507.6235252079424
 30
0.0
 10
462.9458308495504
 20
510.9669028778648
 30
0.0
 10
479.5702120080522
 20
516.935121181727
 30
0.0
 10
488.0263847290083
 20
519.5553259104344
 30
0.0
 10
505.1106317103275
 20
523.8627969326521
 30
0.0
 10
513.758674669694
 20
525.557640301806
 30
0.0
 10
522.5305920556514
 20
526.7124893702721
 30
0.0
  0
ARC
  5
88
330
75
100
AcDbEntity
  8
$DDT_AUDIT_GENERATED_(7F)
  6
Continuous
 62
     7
100
AcDbCircle
 10
332.2714855091
 20
437.4065300817
 30
0.0
 40
2.500000000028956
100
AcDbArc
 50
180.0000000036
 51
305.8640009369
  0
ARC
  5
89
330
75
100
AcDbEntity
  8
$DDT_AUDIT_GENERATED_(7F)
  6
Continuous
 62
     7
100
AcDbCircle
 10
332.2714855084
 20
415.3619490395
 30
0.0
 40
2.499999999403784
100
AcDbArc
 50
126.401756374
 51
180.0000000009
  0
LINE
  5
8A
330
75
100
AcDbEntity
  8
$DDT_AUDIT_GENERATED_(7F)
  6
Continuous
 62
     7
100
AcDbLine
 10
539.7802381563
 20
514.4298034041
 30
0.0
 11
538.3377775555
 21
525.3863794482
 31
0.0
  0
SPLINE
  5
8B
330
75
100
AcDbEntity
  8
$DDT_AUDIT_GENERATED_(7F)
  6
Continuous
 62
     7
100
AcDbSpline
210
0.0
220
0.0
230
1.0
 70
     8
 71
     3
 72
    14
 73
    10
 74
     0
 42
0.0000000061303083
 43
0.0000000001
 40
0.0
 40
0.0
 40
0.0
 40
0.0
 40
0.2500000000000011
 40
0.2500000000000011
 40
0.5000000000000007
 40
0.5000000000000007
 40
0.7500000000000003
 40
0.7500000000000003
 40
1.0
 40
1.0
 40
1.0
 40
1.0
 10
509.0495237826524
 20
510.3777881780258
 30
0.0
 10
509.0276686940063
 20
510.5116506708289
 30
0.0
 10
508.9785025005345
 20
510.6400295241622
 30
0.0
 10
508.833858448074
 20
510.8672601350479
 30
0.0
 10
508.7375388033158
 20
510.9666532982437
 30
0.0
 10
508.5156530355787
 20
511.1182021371901
 30
0.0
 10
508.3879924554288
 20
511.1717685244629
 30
0.0
 10
508.1238100373444
 20
511.2238195262067
 30
0.0
 10
507.9861384922828
 20
511.2230004849807
 30
0.0
 10
507.8528844040794
 20
511.1944207507235
 30
0.0
  0
LINE
  5
8C
330
75
100
AcDbEntity
  8
$DDT_AUDIT_GENERATED_(7F)
  6
Continuous
 62
     7
100
AcDbLine
 10
539.6080544224
 20
514.2054091932
 30
0.0
 11
509.3080522267
 21
510.2163382274
 31
0.0
  0
ARC
  5
8D
330
75
100
AcDbEntity
  8
$DDT_AUDIT_GENERATED_(7F)
  6
Continuous
 62
     7
100
AcDbCircle
 10
509.2469103618
 20
510.4100145403
 30
0.0
 40
0.1999999999969317
100
AcDbArc
 50
189.2725966801
 51
277.4999999998
  0
ARC
  5
8E
330
75
100
AcDbEntity
  8
$DDT_AUDIT_GENERATED_(7F)
  6
Continuous
 62
     7
100
AcDbCircle
 10
539.5819491839
 20
514.4036981657
 30
0.0
 40
0.2000000001409664
100
AcDbArc
 50
277.4999999991
 51
7.4999999859
  0
LINE
  5
90
330
75
100
AcDbEntity
  8
$DDT_AUDIT_GENERATED_(8F)
  6
Continuous
 62
     7
100
AcDbLine
 10
536.455631583
 20
512.8826187885
 30
0.0
 11
512.66095491
 21
509.7499901753
 31
0.0
  0
LINE
  5
91
330
75
100
AcDbEntity
  8
$DDT_AUDIT_GENERATED_(8F)
  6
Continuous
 62
     7
100
AcDbLine
 10
509.8170079682
 20
510.2833435219
 30
0.0
 11
512.66095491
 21
509.7499901753
 31
0.0
  0
LINE
  5
92
330
75
100
AcDbEntity
  8
$DDT_AUDIT_GENERATED_(8F)
  6
Continuous
 62
     7
100
AcDbLine
 10
536.455631583
 20
512.8826187885
 30
0.0
 11
539.0646313788
 21
514.1338661923
 31
0.0
  0
LINE
  5
93
330
75
100
AcDbEntity
  8
$DDT_AUDIT_GENERATED_(8F)
  6
Continuous
 62
     7
100
AcDbLine
 10
534.9345829009
 20
512.1780544502
 30
0.0
 11
534.8693198048
 21
512.6737768809
 31
0.0
  0
LINE
  5
94
330
75
100
AcDbEntity
  8
$DDT_AUDIT_GENERATED_(8F)
  6
Continuous
 62
     7
100
AcDbLine
 10
514.2472666882
 20
509.9588320828
 30
0.0
 11
514.3125297843
 21
509.4631096521
 31
0.0
  0
LINE
  5
96
330
75
100
AcDbEntity
  8
$DDT_AUDIT_GENERATED_(95)
  6
Continuous
 62
     7
100
AcDbLine
 10
327.066065556
 20
478.254664957
 30
0.0
 11
274.4269054621
 21
478.254664957
 31
0.0
  0
LINE
  5
97
330
75
100
AcDbEntity
  8
$DDT_AUDIT_GENERATED_(95)
  6
Continuous
 62
     7
100
AcDbLine
 10
329.7464633694
 20
454.7185759293
 30
0.0
 11
271.7465076487
 21
454.7185759293
 31
0.0
  0
ARC
  5
98
330
75
100
AcDbEntity
  8
$DDT_AUDIT_GENERATED_(95)
  6
Continuous
 62
     7
100
AcDbCircle
 10
300.746485509
 20
490.1185759293
 30
0.0
 40
25.99999999999999
100
AcDbArc
 50
160.5428750375
 51
178.5
  0
ARC
  5
99
330
75
100
AcDbEntity
  8
$DDT_AUDIT_GENERATED_(95)
  6
Continuous
 62
     7
100
AcDbCircle
 10
300.746485509
 20
490.1185759293
 30
0.0
 40
26.00000000000001
100
AcDbArc
 50
1.5
 51
19.4619589169
  0
LINE
  5
9A
330
75
100
AcDbEntity
  8
$DDT_AUDIT_GENERATED_(95)
  6
Continuous
 62
     7
100
AcDbLine
 10
327.066065556
 20
478.254664957
 30
0.0
 11
326.7375759584
 21
490.7991765853
 31
0.0
  0
LINE
  5
9B
330
75
100
AcDbEntity
  8
$DDT_AUDIT_GENERATED_(95)
  6
Continuous
 62
     7
100
AcDbLine
 10
274.7553950597
 20
490.7991765853
 30
0.0
 11
274.4269054621
 21
478.254664957
 31
0.0
  0
ARC
  5
9C
330
75
100
AcDbEntity
  8
$DDT_AUDIT_GENERATED_(95)
  6
Continuous
 62
     7
100
AcDbCircle
 10
273.030185275
 20
461.0250438603
 30
0.0
 40
56.71627809438672
100
AcDbArc
 50
0.0
 51
17.6851520989
  0
ARC
  5
9D
330
75
100
AcDbEntity
  8
$DDT_AUDIT_GENERATED_(95)
  6
Continuous
 62
     7
100
AcDbCircle
 10
328.4627857431
 20
461.0250438603
 30
0.0
 40
56.71627809438672
100
AcDbArc
 50
162.3148479011
 51
180.0
  0
LINE
  5
9E
330
75
100
AcDbEntity
  8
$DDT_AUDIT_GENERATED_(95)
  6
Continuous
 62
     7
100
AcDbLine
 10
271.7465076487
 20
461.0250438603
 30
0.0
 11
271.7465076487
 21
454.7185759293
 31
0.0
  0
LINE
  5
9F
330
75
100
AcDbEntity
  8
$DDT_AUDIT_GENERATED_(95)
  6
Continuous
 62
     7
100
AcDbLine
 10
329.7464633694
 20
454.7185759293
 30
0.0
 11
329.7464633694
 21
461.0250438603
 31
0.0
  0
LINE
  5
A0
330
75
100
AcDbEntity
  8
$DDT_AUDIT_GENERATED_(95)
  6
Continuous
 62
     7
100
AcDbLine
 10
271.8465076487
 20
454.7185759293
 30
0.0
 11
272.3465076487
 21
454.2185759293
 31
0.0
  0
LINE
  5
A1
330
75
100
AcDbEntity
  8
$DDT_AUDIT_GENERATED_(95)
  6
Continuous
 62
     7
100
AcDbLine
 10
329.1464633694
 20
454.2185759293
 30
0.0
 11
329.6464633694
 21
454.7185759293
 31
0.0
  0
LINE
  5
A3
330
75
100
AcDbEntity
  8
$DDT_AUDIT_GENERATED_(A2)
  6
Continuous
 62
     7
100
AcDbLine
 10
330.5039047765
 20
521.0682209534
 30
0.0
 11
329.9129009673
 21
514.4832694634
 31
0.0
  0
ARC
  5
A4
330
75
100
AcDbEntity
  8
$DDT_AUDIT_GENERATED_(A2)
  6
Continuous
 62
     7
100
AcDbCircle
 10
366.0395541001
 20
416.2440134639
 30
0.0
 40
125.9514370683099
100
AcDbArc
 50
137.0394122498
 51
137.045745728
  0
LINE
  5
A5
330
75
100
AcDbEntity
  8
$DDT_AUDIT_GENERATED_(A2)
  6
Continuous
 62
     7
100
AcDbLine
 10
273.8559488047
 20
502.0691261409
 30
0.0
 11
273.6938642317
 21
501.5095221443
 31
0.0
  0
LINE
  5
A6
330
75
100
AcDbEntity
  8
$DDT_AUDIT_GENERATED_(A2)
  6
Continuous
 62
     7
100
AcDbLine
 10
329.1762384032
 20
507.7350247024
 30
0.0
 11
328.3008269569
 21
501.087136756
 31
0.0
  0
LINE
  5
A7
330
75
100
AcDbEntity
  8
$DDT_AUDIT_GENERATED_(A2)
  6
Continuous
 62
     7
100
AcDbLine
 10
329.9129009673
 20
514.4832694634
 30
0.0
 11
329.9129704512
 21
514.4827130112
 31
0.0
  0
ARC
  5
A8
330
75
100
AcDbEntity
  8
$DDT_AUDIT_GENERATED_(A2)
  6
Continuous
 62
     7
100
AcDbCircle
 10
364.5295057798
 20
507.2891165442
 30
0.0
 40
35.35607936817897
100
AcDbArc
 50
169.9542815727
 51
179.2773708704
  0
LINE
  5
A9
330
75
100
AcDbEntity
  8
$DDT_AUDIT_GENERATED_(A2)
  6
Continuous
 62
     7
100
AcDbLine
 10
300.7616383305
 20
498.7595726338
 30
0.0
 11
273.8104111469
 21
498.7595726321
 31
0.0
  0
LINE
  5
AA
330
75
100
AcDbEntity
  8
$DDT_AUDIT_GENERATED_(A2)
  6
Continuous
 62
     7
100
AcDbLine
 10
327.7312657319
 20
498.7595726338
 30
0.0
 11
300.7616383305
 21
498.7595726338
 31
0.0
  0
LINE
  5
AB
330
75
100
AcDbEntity
  8
$DDT_AUDIT_GENERATED_(A2)
  6
Continuous
 62
     7
100
AcDbLine
 10
273.5311622475
 20
499.3464680443
 30
0.0
 11
273.693860508
 21
501.5095196729
 31
0.0
  0
ARC
  5
AC
330
75
100
AcDbEntity
  8
$DDT_AUDIT_GENERATED_(A2)
  6
Continuous
 62
     7
100
AcDbCircle
 10
273.8104111579
 20
499.0595726219
 30
0.0
 40
0.2999999898532636
100
AcDbArc
 50
176.3442532186
 51
269.9999978883
  0
ARC
  5
AD
330
75
100
AcDbEntity
  8
$DDT_AUDIT_GENERATED_(A2)
  6
Continuous
 62
     7
100
AcDbCircle
 10
327.7312656635
 20
499.059572518
 30
0.0
 40
0.2999998841848934
100
AcDbArc
 50
270.0000130664
 51
351.7846247624
  0
LINE
  5
AE
330
75
100
AcDbEntity
  8
$DDT_AUDIT_GENERATED_(A2)
  6
Continuous
 62
     7
100
AcDbLine
 10
273.5213546427
 20
499.2385651626
 30
0.0
 11
273.511148009
 21
499.0787083855
 31
0.0
  0
SPLINE
  5
AF
330
75
100
AcDbEntity
  8
$DDT_AUDIT_GENERATED_(A2)
  6
Continuous
 62
     7
100
AcDbSpline
210
0.0
220
0.0
230
1.0
 70
     8
 71
     3
 72
    26
 73
    22
 74
     0
 42
0.0000000000726471
 43
0.0000000001
 40
0.0
 40
0.0
 40
0.0
 40
0.0
 40
0.0633734589752617
 40
0.1330972584163961
 40
0.2022776331337978
 40
0.2708133988344694
 40
0.3385070397126763
 40
0.4051195439579977
 40
0.4704203056705236
 40
0.5342319766338882
 40
0.5841532958870308
 40
0.6330778622740167
 40
0.6810757674240002
 40
0.7282781293336231
 40
0.774875413385065
 40
0.8134222862004546
 40
0.8518785579235011
 40
0.8904176781666889
 40
0.9292167092184821
 40
0.9684477940645465
 40
1.0
 40
1.0
 40
1.0
 40
1.0
 10
396.7097310414936
 20
539.695769344984
 30
0.0
 10
393.5464137998677
 20
540.1542318148457
 30
0.0
 10
387.9391237637126
 20
540.9530892377788
 30
0.0
 10
378.523971036618
 20
541.943163676715
 30
0.0
 10
369.08604899986
 20
542.6101200896118
 30
0.0
 10
359.6553274271047
 20
542.8959096478982
 30
0.0
 10
350.3557675271742
 20
542.7477521389212
 30
0.0
 10
341.219407579501
 20
542.1165196812769
 30
0.0
 10
332.3150004001029
 20
540.9519883025753
 30
0.0
 10
324.2618411976312
 20
539.319253413241
 30
0.0
 10
317.0728627565023
 20
537.3138426417695
 30
0.0
 10
310.7251457784565
 20
535.0507217340407
 30
0.0
 10
304.6833827772257
 20
532.3562561938486
 30
0.0
 10
298.9794110034413
 20
529.2194142941812
 30
0.0
 10
293.9355441341751
 20
525.8302655480177
 30
0.0
 10
289.5135689098595
 20
522.2756503895012
 30
0.0
 10
285.6585182676176
 20
518.6367027508938
 30
0.0
 10
282.0932626513501
 20
514.6833961515528
 30
0.0
 10
278.8612710545459
 20
510.4590620675926
 30
0.0
 10
276.0488385093408
 20
506.1566926691203
 30
0.0
 10
274.6347836803535
 20
503.489470857378
 30
0.0
 10
273.8961561321769
 20
502.0798668870175
 30
0.0
  0
LINE
  5
B0
330
75
100
AcDbEntity
  8
$DDT_AUDIT_GENERATED_(A2)
  6
Continuous
 62
     7
100
AcDbLine
 10
390.134724959
 20
532.3375503974
 30
0.0
 11
397.3456649267
 21
536.9405825615
 31
0.0
  0
ARC
  5
B1
330
75
100
AcDbEntity
  8
$DDT_AUDIT_GENERATED_(A2)
  6
Continuous
 62
     7
100
AcDbCircle
 10
367.6540965314
 20
430.1441173319
 30
0.0
 40
104.2712039315564
100
AcDbArc
 50
78.0557553214
 51
106.9419167969
  0
ARC
  5
B2
330
75
100
AcDbEntity
  8
$DDT_AUDIT_GENERATED_(A2)
  6
Continuous
 62
     7
100
AcDbCircle
 10
340.7539978375
 20
520.2500269602
 30
0.0
 40
10.28106418463069
100
AcDbArc
 50
109.8720948446
 51
175.4286089587
  0
LINE
  5
B3
330
75
100
AcDbEntity
  8
$DDT_AUDIT_GENERATED_(A2)
  6
Continuous
 62
     7
100
AcDbLine
 10
328.2257030252
 20
500.4150332907
 30
0.0
 11
328.318829765
 21
501.0724126872
 31
0.0
  0
LINE
  5
B4
330
75
100
AcDbEntity
  8
$DDT_AUDIT_GENERATED_(A2)
  6
Continuous
 62
     7
100
AcDbLine
 10
328.027617038
 20
499.0167491132
 30
0.0
 11
328.2257030252
 21
500.4150332907
 31
0.0
  0
ARC
  5
B5
330
75
100
AcDbEntity
  8
$DDT_AUDIT_GENERATED_(A2)
  6
Continuous
 62
     7
100
AcDbCircle
 10
389.50953602
 20
533.5317139584
 30
0.0
 40
1.343400471284028
100
AcDbArc
 50
258.5874840481
 51
303.0233416753
  0
SPLINE
  5
B6
330
75
100
AcDbEntity
  8
$DDT_AUDIT_GENERATED_(A2)
  6
Continuous
 62
     7
100
AcDbSpline
210
0.0
220
0.0
230
1.0
 70
     8
 71
     3
 72
    17
 73
    13
 74
     0
 42
0.0000000026449266
 43
0.0000000001
 40
0.0
 40
0.0
 40
0.0
 40
0.0
 40
0.0614449212784476
 40
0.1683026889895921
 40
0.2959827145632891
 40
0.4358687147543901
 40
0.5920330528142949
 40
0.7130594864735118
 40
0.8139920126494921
 40
0.899534435965114
 40
0.9700590774577691
 40
1.0
 40
1.0
 40
1.0
 40
1.0
 10
397.3389568886507
 20
536.950299234755
 30
0.0
 10
397.4126949794148
 20
536.9903743158305
 30
0.0
 10
397.5845656332087
 20
537.0864638971824
 30
0.0
 10
397.8326580560046
 20
537.3795501756438
 30
0.0
 10
398.0353645471745
 20
537.8006943953992
 30
0.0
 10
398.0934018303859
 20
538.3363158121427
 30
0.0
 10
397.9555919085187
 20
538.8495362577406
 30
0.0
 10
397.6834819544827
 20
539.240378073609
 30
0.0
 10
397.384229987387
 20
539.4856253655496
 30
0.0
 10
397.0975352248914
 20
539.6247007548096
 30
0.0
 10
396.8677095861719
 20
539.6894298904286
 30
0.0
 10
396.7511505066573
 20
539.6997156918746
 30
0.0
 10
396.7104037140652
 20
539.7030440202104
 30
0.0
  0
LINE
  5
B8
330
75
100
AcDbEntity
  8
$DDT_AUDIT_GENERATED_(B7)
  6
Continuous
 62
     7
100
AcDbLine
 10
329.9523074191
 20
514.5753851001
 30
0.0
 11
329.4875075087
 21
512.1841968545
 31
0.0
  0
LINE
  5
BA
330
75
100
AcDbEntity
  8
$DDT_AUDIT_GENERATED_(B9)
  6
Continuous
 62
     7
100
AcDbLine
 10
537.2526726547
 20
495.3365444261
 30
0.0
 11
516.4323305659
 21
492.5954943895
 31
0.0
  0
LINE
  5
BB
330
75
100
AcDbEntity
  8
$DDT_AUDIT_GENERATED_(B9)
  6
Continuous
 62
     7
100
AcDbLine
 10
513.370657166
 20
509.3391097695
 30
0.0
 11
535.8764555192
 21
512.3020543328
 31
0.0
  0
ARC
  5
BC
330
75
100
AcDbEntity
  8
$DDT_AUDIT_GENERATED_(B9)
  6
Continuous
 62
     7
100
AcDbCircle
 10
531.5456324596
 20
500.3793305818
 30
0.0
 40
16.99999999999982
100
AcDbArc
 50
187.4999999998
 51
207.2499227955
  0
ARC
  5
BD
330
75
100
AcDbEntity
  8
$DDT_AUDIT_GENERATED_(B9)
  6
Continuous
 62
     7
100
AcDbCircle
 10
520.6397389845
 20
498.9435424674
 30
0.0
 40
16.99999999999982
100
AcDbArc
 50
347.7500772042
 51
7.4999999998
  0
LINE
  5
BE
330
75
100
AcDbEntity
  8
$DDT_AUDIT_GENERATED_(B9)
  6
Continuous
 62
     7
100
AcDbLine
 10
537.4943016279
 20
501.1624877351
 30
0.0
 11
536.0447511772
 21
512.1729165325
 31
0.0
  0
LINE
  5
BF
330
75
100
AcDbEntity
  8
$DDT_AUDIT_GENERATED_(B9)
  6
Continuous
 62
     7
100
AcDbLine
 10
513.2415193656
 20
509.1708141115
 30
0.0
 11
514.6910698163
 21
498.1603853141
 31
0.0
  0
ARC
  5
C0
330
75
100
AcDbEntity
  8
$DDT_AUDIT_GENERATED_(B9)
  6
Continuous
 62
     7
100
AcDbCircle
 10
535.896034448
 20
512.1533376036
 30
0.0
 40
0.149999999999997
100
AcDbArc
 50
7.4999999998
 51
97.4999999998
  0
ARC
  5
C1
330
75
100
AcDbEntity
  8
$DDT_AUDIT_GENERATED_(B9)
  6
Continuous
 62
     7
100
AcDbCircle
 10
513.3902360948
 20
509.1903930403
 30
0.0
 40
0.1499999999999952
100
AcDbArc
 50
97.4999999998
 51
187.4999999998
  0
LINE
  5
C3
330
75
100
AcDbEntity
  8
$DDT_AUDIT_GENERATED_(C2)
  6
Continuous
 62
     7
100
AcDbLine
 10
535.8242421492
 20
494.6946049502
 30
0.0
 11
517.9782346444
 21
492.3451334902
 31
0.0
  0
LINE
  5
C4
330
75
100
AcDbEntity
  8
$DDT_AUDIT_GENERATED_(C2)
  6
Continuous
 62
     7
100
AcDbLine
 10
535.8242421492
 20
494.6946049502
 30
0.0
 11
535.7655053627
 21
495.1407551378
 31
0.0
  0
LINE
  5
C5
330
75
100
AcDbEntity
  8
$DDT_AUDIT_GENERATED_(C2)
  6
Continuous
 62
     7
100
AcDbLine
 10
517.9194978579
 20
492.7912836779
 30
0.0
 11
517.9782346444
 21
492.3451334902
 31
0.0
  0
LINE
  5
C7
330
75
100
AcDbEntity
  8
$DDT_AUDIT_GENERATED_(C6)
  6
Continuous
 62
     7
100
AcDbLine
 10
329.146485509
 20
454.2185759293
 30
0.0
 11
272.346485509
 21
454.2185759293
 31
0.0
  0
LINE
  5
C8
330
75
100
AcDbEntity
  8
$DDT_AUDIT_GENERATED_(C6)
  6
Continuous
 62
     7
100
AcDbLine
 10
329.246485509
 20
453.7185759293
 30
0.0
 11
329.246485509
 21
454.1185759293
 31
0.0
  0
LINE
  5
C9
330
75
100
AcDbEntity
  8
$DDT_AUDIT_GENERATED_(C6)
  6
Continuous
 62
     7
100
AcDbLine
 10
272.246485509
 20
454.1185759293
 30
0.0
 11
272.246485509
 21
453.7185759293
 31
0.0
  0
ARC
  5
CA
330
75
100
AcDbEntity
  8
$DDT_AUDIT_GENERATED_(C6)
  6
Continuous
 62
     7
100
AcDbCircle
 10
272.346485509
 20
454.1185759293
 30
0.0
 40
0.1000000000000029
100
AcDbArc
 50
90.0
 51
180.0
  0
ARC
  5
CB
330
75
100
AcDbEntity
  8
$DDT_AUDIT_GENERATED_(C6)
  6
Continuous
 62
     7
100
AcDbCircle
 10
329.146485509
 20
454.1185759293
 30
0.0
 40
0.0999999999999994
100
AcDbArc
 50
0.0
 51
90.0
  0
ARC
  5
CC
330
75
100
AcDbEntity
  8
$DDT_AUDIT_GENERATED_(C6)
  6
Continuous
 62
     7
100
AcDbCircle
 10
329.146485509
 20
453.7185759293
 30
0.0
 40
0.1000000000000029
100
AcDbArc
 50
270.0
 51
0.0
  0
ARC
  5
CD
330
75
100
AcDbEntity
  8
$DDT_AUDIT_GENERATED_(C6)
  6
Continuous
 62
     7
100
AcDbCircle
 10
272.346485509
 20
453.7185759293
 30
0.0
 40
0.0999999999999994
100
AcDbArc
 50
180.0
 51
270.0
  0
ENDBLK
  5
CF
330
75
100
AcDbEntity
  8
0
100
AcDbBlockEnd
  0
BLOCK
  5
339
330
D0
100
AcDbEntity
  8
0
100
AcDbBlockBegin
  2
SE1
 70
     0
 10
0.0
 20
0.0
 30
0.0
  3
SE1
  1

  0
LINE
  5
D2
330
D0
100
AcDbEntity
  8
$DDT_AUDIT_GENERATED_(77)
  6
Continuous
 62
     7
100
AcDbLine
 10
181.3717333084
 20
453.6185759293
 30
0.0
 11
167.8752832578
 21
453.6185759293
 31
0.0
  0
LINE
  5
D3
330
D0
100
AcDbEntity
  8
$DDT_AUDIT_GENERATED_(77)
  6
Continuous
 62
     7
100
AcDbLine
 10
136.8617346218
 20
453.6185759293
 30
0.0
 11
123.3717333084
 21
453.6185759293
 31
0.0
  0
LINE
  5
D4
330
D0
100
AcDbEntity
  8
$DDT_AUDIT_GENERATED_(77)
  6
Continuous
 62
     7
100
AcDbLine
 10
181.3717333084
 20
385.6185759293
 30
0.0
 11
123.3717333084
 21
385.6185759293
 31
0.0
  0
LINE
  5
D5
330
D0
100
AcDbEntity
  8
$DDT_AUDIT_GENERATED_(77)
  6
Continuous
 62
     7
100
AcDbLine
 10
181.3717333084
 20
385.6185759293
 30
0.0
 11
181.3717333084
 21
453.6185759293
 31
0.0
  0
LINE
  5
D6
330
D0
100
AcDbEntity
  8
$DDT_AUDIT_GENERATED_(77)
  6
Continuous
 62
     7
100
AcDbLine
 10
123.3717333084
 20
453.6185759293
 30
0.0
 11
123.3717333084
 21
385.6185759293
 31
0.0
  0
ARC
  5
D7
330
D0
100
AcDbEntity
  8
$DDT_AUDIT_GENERATED_(7F)
  6
Continuous
 62
     7
100
AcDbCircle
 10
138.504582154
 20
524.100119506
 30
0.0
 40
1.630587739464879
100
AcDbArc
 50
170.1499892355
 51
179.7995842031
  0
SPLINE
  5
D8
330
D0
100
AcDbEntity
  8
$DDT_AUDIT_GENERATED_(7F)
  6
Continuous
 62
     7
100
AcDbSpline
210
0.0
220
0.0
230
1.0
 70
     8
 71
     3
 72
     9
 73
     5
 74
     0
 42
0.0000000004720496
 43
0.0000000001
 40
0.8436578547339915
 40
0.8436578547339915
 40
0.8436578547339915
 40
0.8436578547339915
 40
0.8438425792288535
 40
0.8962269032427987
 40
0.8962269032427987
 40
0.8962269032427987
 40
0.8962269032427987
 10
149.0307700760312
 20
527.504540379291
 30
0.0
 10
149.0320641098334
 20
527.5045843746278
 30
0.0
 10
149.4003324461972
 20
527.5170978966257
 30
0.0
 10
149.7717649765162
 20
527.5277029167726
 30
0.0
 10
150.1439488259969
 20
527.5359127249501
 30
0.0
  0
ARC
  5
D9
330
D0
100
AcDbEntity
  8
$DDT_AUDIT_GENERATED_(7F)
  6
Continuous
 62
     7
100
AcDbCircle
 10
166.2390116822
 20
524.100119506
 30
0.0
 40
1.630587739464907
100
AcDbArc
 50
0.2004157969
 51
9.8500107645
  0
SPLINE
  5
DA
330
D0
100
AcDbEntity
  8
$DDT_AUDIT_GENERATED_(7F)
  6
Continuous
 62
     7
100
AcDbSpline
210
0.0
220
0.0
230
1.0
 70
    12
 71
     3
 72
    12
 73
     8
 74
     0
 42
0.0000000005751169
 43
0.0000000001
 40
0.311712530467217
 40
0.311712530467217
 40
0.311712530467217
 40
0.311712530467217
 40
0.5000075803235584
 40
0.5000075803235584
 40
0.7500113704853387
 40
0.7500113704853387
 40
0.8933653622622091
 40
0.8933653622622091
 40
0.8933653622622091
 40
0.8933653622622091
 10
164.6523732167574
 20
526.5940848118897
 30
0.0
 41
0.9999999999999849
 10
163.9530436132673
 20
526.7567810426834
 30
0.0
 41
0.9999999999999849
 10
163.0743963824814
 20
526.9057446760817
 30
0.0
 41
0.9999999999999849
 10
160.7318279463835
 20
527.2037427383904
 30
0.0
 41
0.9999999999999847
 10
159.1734624891412
 20
527.3369156112093
 30
0.0
 41
0.9999999999999847
 10
156.5708209626128
 20
527.4769415840559
 30
0.0
 41
0.9999999999999847
 10
155.5913193475554
 20
527.5135530472996
 30
0.0
 41
0.9999999999999847
 10
154.5991913902221
 20
527.5355032476605
 30
0.0
 41
0.9999999999999847
  0
ARC
  5
DB
330
D0
100
AcDbEntity
  8
$DDT_AUDIT_GENERATED_(7F)
  6
Continuous
 62
     7
100
AcDbCircle
 10
160.9835094043
 20
427.2132892662
 30
0.0
 40
7.912632723939673
100
AcDbArc
 50
342.699131722
 51
29.2489941178
  0
ARC
  5
DC
330
D0
100
AcDbEntity
  8
$DDT_AUDIT_GENERATED_(7F)
  6
Continuous
 62
     7
100
AcDbCircle
 10
143.7598045064
 20
427.2134297209
 30
0.0
 40
7.912398202714686
100
AcDbArc
 50
150.8260658268
 51
197.3019866443
  0
ARC
  5
DD
330
D0
100
AcDbEntity
  8
$DDT_AUDIT_GENERATED_(7F)
  6
Continuous
 62
     7
100
AcDbCircle
 10
153.177140017
 20
432.4982237571
 30
0.0
 40
17.1551902524622
100
AcDbArc
 50
267.3091524985
 51
333.5617145261
  0
ARC
  5
DE
330
D0
100
AcDbEntity
  8
$DDT_AUDIT_GENERATED_(7F)
  6
Continuous
 62
     7
100
AcDbCircle
 10
151.5661825061
 20
432.4977345538
 30
0.0
 40
17.15471060279132
100
AcDbArc
 50
206.4370232658
 51
272.6915647094
  0
ELLIPSE
  5
DF
330
D0
100
AcDbEntity
  8
$DDT_AUDIT_GENERATED_(7F)
  6
Continuous
 62
     7
100
AcDbEllipse
 10
152.3714609625
 20
512.4068938294
 30
0.0
 11
-15.49811222341744
 21
2.779788482731860E-7
 31
0.0
210
0.0
220
0.0
230
1.0
 40
0.1305261922
 41
3.137956948707266
 42
3.141592653589793
  0
ELLIPSE
  5
E0
330
D0
100
AcDbEntity
  8
$DDT_AUDIT_GENERATED_(7F)
  6
Continuous
 62
     7
100
AcDbEllipse
 10
152.3721328736
 20
512.2086048571
 30
0.0
 11
15.29811222341763
 21
0.0
 31
0.0
210
0.0
220
0.0
230
1.0
 40
0.1305261922
 41
1.570818570781066
 42
2.812021731269174
  0
ELLIPSE
  5
E1
330
D0
100
AcDbEntity
  8
$DDT_AUDIT_GENERATED_(7F)
  6
Continuous
 62
     7
100
AcDbEllipse
 10
152.3721328736
 20
512.2086048571
 30
0.0
 11
15.29811222341763
 21
0.0
 31
0.0
210
0.0
220
0.0
230
1.0
 40
0.1305261922
 41
3.708426029272662
 42
3.824084217858464
  0
ELLIPSE
  5
E2
330
D0
100
AcDbEntity
  8
$DDT_AUDIT_GENERATED_(7F)
  6
Continuous
 62
     7
100
AcDbEllipse
 10
152.3714609625
 20
512.2086048571
 30
0.0
 11
-15.29811222341763
 21
0.0
 31
0.0
210
0.0
220
0.0
230
1.0
 40
0.1305261922
 41
-3.823932597960968
 42
-3.501987175925663
  0
ELLIPSE
  5
E3
330
D0
100
AcDbEntity
  8
$DDT_AUDIT_GENERATED_(7F)
  6
Continuous
 62
     7
100
AcDbEllipse
 10
152.3714609625
 20
512.2086048571
 30
0.0
 11
-15.29811222341763
 21
0.0
 31
0.0
210
0.0
220
0.0
230
1.0
 40
0.1305261922
 41
3.452627626644063
 42
4.712367303192433
  0
ELLIPSE
  5
E4
330
D0
100
AcDbEntity
  8
$DDT_AUDIT_GENERATED_(7F)
  6
Continuous
 62
     7
100
AcDbEllipse
 10
152.3721328736
 20
512.4068938294
 30
0.0
 11
15.49811222341744
 21
2.779788482731860E-7
 31
0.0
210
0.0
220
0.0
230
1.0
 40
0.1305261922
 41
3.138532035210126
 42
3.141592653589793
  0
ELLIPSE
  5
E5
330
D0
100
AcDbEntity
  8
$DDT_AUDIT_GENERATED_(7F)
  6
Continuous
 62
     7
100
AcDbEllipse
 10
152.3721328736
 20
512.2086048571
 30
0.0
 11
14.90000000000001
 21
0.0
 31
0.0
210
0.0
220
0.0
230
1.0
 40
0.1305261922
 41
5.727174243805465
 42
6.283185307179586
  0
ELLIPSE
  5
E6
330
D0
100
AcDbEntity
  8
$DDT_AUDIT_GENERATED_(7F)
  6
Continuous
 62
     7
100
AcDbEllipse
 10
152.3721328736
 20
512.2086048571
 30
0.0
 11
14.90000000000001
 21
0.0
 31
0.0
210
0.0
220
0.0
230
1.0
 40
0.1305261922
 41
0.0
 42
3.697603716963914
  0
LINE
  5
E7
330
D0
100
AcDbEntity
  8
$DDT_AUDIT_GENERATED_(7F)
  6
Continuous
 62
     7
100
AcDbLine
 10
136.8740043624
 20
524.1256728561
 30
0.0
 11
136.8740206502
 21
512.4068931891
 31
0.0
  0
ARC
  5
E8
330
D0
100
AcDbEntity
  8
$DDT_AUDIT_GENERATED_(7F)
  6
Continuous
 62
     7
100
AcDbCircle
 10
152.1777129842
 20
449.6467394557
 30
0.0
 40
77.91310832637913
100
AcDbArc
 50
89.8573458245
 51
91.4932246831
  0
SPLINE
  5
E9
330
D0
100
AcDbEntity
  8
$DDT_AUDIT_GENERATED_(7F)
  6
Continuous
 62
     7
100
AcDbSpline
210
0.0
220
0.0
230
1.0
 70
     8
 71
     3
 72
    28
 73
    24
 74
     0
 42
0.0000000007529812
 43
0.0000000001
 40
0.0
 40
0.0
 40
0.0
 40
0.0
 40
0.0367070720120471
 40
0.0835749543686742
 40
0.1206902839493857
 40
0.1625792650828046
 40
0.2092751577836484
 40
0.2849449137420991
 40
0.3577877590107139
 40
0.4271044119061281
 40
0.4928450051692747
 40
0.5747850909842271
 40
0.650205530066874
 40
0.720200971242352
 40
0.7451722798523821
 40
0.7694636498664641
 40
0.7930874628609891
 40
0.8194667127245597
 40
0.8531185296899364
 40
0.8943750370016411
 40
0.9261936821073138
 40
0.9614360956683237
 40
1.0
 40
1.0
 40
1.0
 40
1.0
 10
149.1565786342302
 20
527.5086560274253
 30
0.0
 10
148.8969505744073
 20
527.4980230070161
 30
0.0
 10
148.3954344143725
 20
527.4773615365997
 30
0.0
 10
147.6089424024525
 20
527.4303137725325
 30
0.0
 10
146.8314196656717
 20
527.3807157050834
 30
0.0
 10
146.0706521060546
 20
527.3280608782526
 30
0.0
 10
145.1134980592517
 20
527.2563739894202
 30
0.0
 10
144.0358080727929
 20
527.1643879820782
 30
0.0
 10
142.9064771196801
 20
527.0437651804971
 30
0.0
 10
141.9100585686071
 20
526.9146910919737
 30
0.0
 10
140.9602014716331
 20
526.766888175859
 30
0.0
 10
140.0889711185058
 20
526.6002457822602
 30
0.0
 10
139.3378581235631
 20
526.420397517779
 30
0.0
 10
138.8320642917628
 20
526.2614738049333
 30
0.0
 10
138.5022197631417
 20
526.1334589946814
 30
0.0
 10
138.3065319724127
 20
526.0478304464516
 30
0.0
 10
138.1189203079632
 20
525.9556778549176
 30
0.0
 10
137.8936429523456
 20
525.8271085433817
 30
0.0
 10
137.6091170571502
 20
525.6247480469779
 30
0.0
 10
137.3428212382416
 20
525.3653003029852
 30
0.0
 10
137.1268850796487
 20
525.0648347146121
 30
0.0
 10
136.9679310688028
 20
524.7370209992997
 30
0.0
 10
136.9231171615194
 20
524.5161954163127
 30
0.0
 10
136.8972515044556
 20
524.378626102742
 30
0.0
  0
LINE
  5
EA
330
D0
100
AcDbEntity
  8
$DDT_AUDIT_GENERATED_(7F)
  6
Continuous
 62
     7
100
AcDbLine
 10
167.8695731859
 20
512.4068931891
 30
0.0
 11
167.8695894738
 21
524.1256728561
 31
0.0
  0
ARC
  5
EB
330
D0
100
AcDbEntity
  8
$DDT_AUDIT_GENERATED_(7F)
  6
Continuous
 62
     7
100
AcDbCircle
 10
152.565880852
 20
449.6467394557
 30
0.0
 40
77.91310832645472
100
AcDbArc
 50
88.5067753169
 51
90.1426541755
  0
SPLINE
  5
EC
330
D0
100
AcDbEntity
  8
$DDT_AUDIT_GENERATED_(7F)
  6
Continuous
 62
     7
100
AcDbSpline
210
0.0
220
0.0
230
1.0
 70
     8
 71
     3
 72
    28
 73
    24
 74
     0
 42
0.0000000007529812
 43
0.0000000001
 40
0.0
 40
0.0
 40
0.0
 40
0.0
 40
0.0385639043323383
 40
0.0738063178940548
 40
0.1056249630004796
 40
0.1468814703134006
 40
0.1805332872801078
 40
0.2069125371451263
 40
0.2305363501411273
 40
0.2548277201566262
 40
0.2797990287680171
 40
0.3497944699468504
 40
0.4252149090326119
 40
0.5071549948509265
 40
0.5728955881167705
 40
0.6422122410150187
 40
0.7150550862866292
 40
0.7907248422480129
 40
0.8374207349488866
 40
0.8793097160801314
 40
0.9164250456565047
 40
0.9632929280027182
 40
1.0
 40
1.0
 40
1.0
 40
1.0
 10
167.8463423317205
 20
524.378626102742
 30
0.0
 10
167.8204766746565
 20
524.5161954163135
 30
0.0
 10
167.7756627673728
 20
524.737020999302
 30
0.0
 10
167.6167087565244
 20
525.064834714617
 30
0.0
 10
167.4007725979271
 20
525.3653003029925
 30
0.0
 10
167.1344767790112
 20
525.6247480469896
 30
0.0
 10
166.8499508838052
 20
525.827108543397
 30
0.0
 10
166.6246735281755
 20
525.9556778549365
 30
0.0
 10
166.437061863712
 20
526.0478304464747
 30
0.0
 10
166.2413740729676
 20
526.1334589947082
 30
0.0
 10
165.9115295443208
 20
526.2614738049645
 30
0.0
 10
165.4057357124805
 20
526.4203975178157
 30
0.0
 10
164.6546227174781
 20
526.6002457823021
 30
0.0
 10
163.7833923642842
 20
526.7668881759039
 30
0.0
 10
162.8335352672387
 20
526.9146910920209
 30
0.0
 10
161.8371167160917
 20
527.0437651805446
 30
0.0
 10
160.7077857628994
 20
527.1643879821246
 30
0.0
 10
159.6300957763782
 20
527.2563739894638
 30
0.0
 10
158.6729417295493
 20
527.3280608782901
 30
0.0
 10
157.9121741699572
 20
527.3807157051142
 30
0.0
 10
157.1346514332701
 20
527.4303137725534
 30
0.0
 10
156.3481594215319
 20
527.4773615366091
 30
0.0
 10
155.8466432616466
 20
527.4980230070203
 30
0.0
 10
155.5870152019289
 20
527.5086560274259
 30
0.0
  0
SPLINE
  5
ED
330
D0
100
AcDbEntity
  8
$DDT_AUDIT_GENERATED_(7F)
  6
Continuous
 62
     7
100
AcDbSpline
210
0.0
220
0.0
230
1.0
 70
     8
 71
     3
 72
    51
 73
    47
 74
     0
 42
0.0000000001029349
 43
0.0000000001
 40
0.0
 40
0.0
 40
0.0
 40
0.0
 40
0.0027211081746729
 40
0.040439261394117
 40
0.0803997979970546
 40
0.1184447513701674
 40
0.1548393515337202
 40
0.189836379574036
 40
0.2236278879411056
 40
0.2564163130533563
 40
0.2878490571553859
 40
0.3180262035438353
 40
0.3471321793868704
 40
0.3753107449110803
 40
0.4026759850244797
 40
0.4293205966632481
 40
0.4553213993946555
 40
0.4807468382590129
 40
0.5054988049622059
 40
0.529505789788738
 40
0.5528446207819717
 40
0.5755803351259241
 40
0.597767554585343
 40
0.6194528646694656
 40
0.6406765448849596
 40
0.6614738459817067
 40
0.6818759519276316
 40
0.7019107173113399
 40
0.7215966786371956
 40
0.7408681427892467
 40
0.7597564790031566
 40
0.7783014741031856
 40
0.796526102036378
 40
0.8144514533271505
 40
0.8320970713694692
 40
0.8494811650661459
 40
0.8666207851758314
 40
0.8835319718048463
 40
0.900229878402939
 40
0.9167288763168986
 40
0.933042642876388
 40
0.9491842349780473
 40
0.9651662888122198
 40
0.9809821799208341
 40
0.9966455117209511
 40
1.0
 40
1.0
 40
1.0
 40
1.0
 10
167.8709919894451
 20
426.9527350977166
 30
0.0
 10
167.8709846230628
 20
427.0839010957569
 30
0.0
 10
167.8708905634973
 20
428.7621201955286
 30
0.0
 10
167.8708513427154
 20
432.3678120701767
 30
0.0
 10
167.8708744473025
 20
437.3094006182961
 30
0.0
 10
167.8710377545235
 20
442.2022556380215
 30
0.0
 10
167.8712846805082
 20
446.8209784780903
 30
0.0
 10
167.8715954615617
 20
451.2158312305114
 30
0.0
 10
167.8719494158717
 20
455.411233890338
 30
0.0
 10
167.8723271685039
 20
459.4118999569561
 30
0.0
 10
167.8727126100856
 20
463.2160447812546
 30
0.0
 10
167.8730925046474
 20
466.8227889482734
 30
0.0
 10
167.8734582100363
 20
470.2511021588865
 30
0.0
 10
167.8738031833021
 20
473.5200816598628
 30
0.0
 10
167.8741220078582
 20
476.6447786884789
 30
0.0
 10
167.8744099608555
 20
479.6373131946037
 30
0.0
 10
167.8746634331895
 20
482.5077335180949
 30
0.0
 10
167.8748772094743
 20
485.2590034338833
 30
0.0
 10
167.8750461340693
 20
487.8878905591902
 30
0.0
 10
167.8751715919962
 20
490.3920293883786
 30
0.0
 10
167.875254284296
 20
492.7751998156178
 30
0.0
 10
167.8752954122148
 20
495.0453823100627
 30
0.0
 10
167.8752959073326
 20
497.2092851458528
 30
0.0
 10
167.8752565840931
 20
499.2725797900649
 30
0.0
 10
167.8751781383517
 20
501.2401244596438
 30
0.0
 10
167.8750611826258
 20
503.1161244870905
 30
0.0
 10
167.8749062371239
 20
504.9042642335081
 30
0.0
 10
167.8747138457169
 20
506.6075795908547
 30
0.0
 10
167.8744846275183
 20
508.2264403087806
 30
0.0
 10
167.8742126774212
 20
509.7608890298515
 30
0.0
 10
167.8739091833192
 20
511.2119741576434
 30
0.0
 10
167.8735811381183
 20
512.5829846244811
 30
0.0
 10
167.8732355252925
 20
513.8767674414004
 30
0.0
 10
167.8728785791944
 20
515.0955506789945
 30
0.0
 10
167.8725160354822
 20
516.2413509296312
 30
0.0
 10
167.8721531372809
 20
517.3159996580785
 30
0.0
 10
167.8717947084351
 20
518.3211661360947
 30
0.0
 10
167.871445210769
 20
519.2583665903894
 30
0.0
 10
167.8711087496918
 20
520.1290080666612
 30
0.0
 10
167.8707892563096
 20
520.934292559367
 30
0.0
 10
167.870489991556
 20
521.6756230200637
 30
0.0
 10
167.8702155169467
 20
522.3531611326054
 30
0.0
 10
167.869964682549
 20
522.9709296905205
 30
0.0
 10
167.8697605958288
 20
523.5174420550009
 30
0.0
 10
167.8696299347233
 20
523.9029028968652
 30
0.0
 10
167.8695955565552
 20
524.0676813471836
 30
0.0
 10
167.8695885332272
 20
524.1015410573538
 30
0.0
  0
SPLINE
  5
EE
330
D0
100
AcDbEntity
  8
$DDT_AUDIT_GENERATED_(7F)
  6
Continuous
 62
     7
100
AcDbSpline
210
0.0
220
0.0
230
1.0
 70
     8
 71
     3
 72
    52
 73
    48
 74
     0
 42
0.0000000001029268
 43
0.0000000001
 40
0.0
 40
0.0
 40
0.0
 40
0.0
 40
0.0099331004717171
 40
0.0253505364105414
 40
0.0409035592406722
 40
0.0566038949228798
 40
0.0724821519947646
 40
0.0885164645666039
 40
0.1047184806520902
 40
0.1211000959552134
 40
0.1376737070597514
 40
0.1544522629696704
 40
0.1714493290903464
 40
0.1886791629352594
 40
0.2061568030987397
 40
0.2238981737464588
 40
0.241920207638411
 40
0.2602409916017881
 40
0.2788799395063415
 40
0.297853875737747
 40
0.3171698211672284
 40
0.3368513994243048
 40
0.3568630296058468
 40
0.3772274303043474
 40
0.3979688867921608
 40
0.4191142899190128
 40
0.4406936477153701
 40
0.4627407433541292
 40
0.4852939806021211
 40
0.5083974866378596
 40
0.5321025749309216
 40
0.5564732418802163
 40
0.5815702008028699
 40
0.6072259864199284
 40
0.6334640412871966
 40
0.6603454229211874
 40
0.6879411515450534
 40
0.7163355603217154
 40
0.745630348432957
 40
0.7759503917455135
 40
0.8074529449998866
 40
0.8402310907285899
 40
0.8739399038377157
 40
0.9087588126466167
 40
0.9448376538605437
 40
0.982367151884055
 40
1.0
 40
1.0
 40
1.0
 40
1.0
 10
136.8740029860006
 20
524.0960508068345
 30
0.0
 10
136.8739769280057
 20
523.9913720901155
 30
0.0
 10
136.8739195194081
 20
523.7636275167845
 30
0.0
 10
136.8737550200431
 20
523.2997208591075
 30
0.0
 10
136.8735348021441
 20
522.7375588967199
 30
0.0
 10
136.8732799709897
 20
522.1102982588653
 30
0.0
 10
136.8730021522757
 20
521.424599901633
 30
0.0
 10
136.8727020964349
 20
520.6777253718466
 30
0.0
 10
136.8723839270119
 20
519.8698534444121
 30
0.0
 10
136.8720509547327
 20
518.9999120433553
 30
0.0
 10
136.8717069406851
 20
518.0669377557936
 30
0.0
 10
136.871355838219
 20
517.0698251590087
 30
0.0
 10
136.8710019012038
 20
516.0073854103113
 30
0.0
 10
136.8706496991898
 20
514.878319904547
 30
0.0
 10
136.8703041593371
 20
513.6812152390946
 30
0.0
 10
136.869970626145
 20
512.4145301470796
 30
0.0
 10
136.8696548568083
 20
511.0765819713792
 30
0.0
 10
136.8693633053168
 20
509.6655299234993
 30
0.0
 10
136.8691023624302
 20
508.1794650689124
 30
0.0
 10
136.8688817297918
 20
506.6167235397675
 30
0.0
 10
136.8686952704201
 20
504.9756973863908
 30
0.0
 10
136.8685436619301
 20
503.25564908671
 30
0.0
 10
136.8684274655329
 20
501.4556300255335
 30
0.0
 10
136.8683471120389
 20
499.5747717627357
 30
0.0
 10
136.8683029277
 20
497.6102997816686
 30
0.0
 10
136.8682952762317
 20
495.5591219617247
 30
0.0
 10
136.8683245652906
 20
493.4177484565425
 30
0.0
 10
136.8683912530608
 20
491.1822106265403
 30
0.0
 10
136.8684958620717
 20
488.8479529665847
 30
0.0
 10
136.8686389804854
 20
486.4097071181081
 30
0.0
 10
136.8688213394395
 20
483.861135496414
 30
0.0
 10
136.8690436117942
 20
481.1953018907039
 30
0.0
 10
136.8692994794568
 20
478.4124369280501
 30
0.0
 10
136.8695857147605
 20
475.5142991328369
 30
0.0
 10
136.8698972341032
 20
472.5032572791271
 30
0.0
 10
136.8702293184239
 20
469.3727203581362
 30
0.0
 10
136.8705765745285
 20
466.113620382256
 30
0.0
 10
136.8709327306945
 20
462.7151046096741
 30
0.0
 10
136.8712903530836
 20
459.1640071601527
 30
0.0
 10
136.8716405229007
 20
455.4438746000527
 30
0.0
 10
136.8719718285611
 20
451.5388656100065
 30
0.0
 10
136.8722672838846
 20
447.4499419525386
 30
0.0
 10
136.8725092360743
 20
443.1817973338914
 30
0.0
 10
136.8726800781296
 20
438.7217655444967
 30
0.0
 10
136.8727492983093
 20
434.0956123088572
 30
0.0
 10
136.8727265469444
 20
430.0432765060382
 30
0.0
 10
136.8726254795226
 20
427.78770273904
 30
0.0
 10
136.8725867381341
 20
426.9396524120479
 30
0.0
  0
ARC
  5
EF
330
D0
100
AcDbEntity
  8
$DDT_AUDIT_GENERATED_(7F)
  6
Continuous
 62
     7
100
AcDbCircle
 10
141.8845346549
 20
523.5641547744
 30
0.0
 40
12.66536363936281
100
AcDbArc
 50
255.2374774392
 51
258.8172065202
  0
SPLINE
  5
F0
330
D0
100
AcDbEntity
  8
$DDT_AUDIT_GENERATED_(7F)
  6
Continuous
 62
     7
100
AcDbSpline
210
0.0
220
0.0
230
1.0
 70
     8
 71
     3
 72
    17
 73
    13
 74
     0
 42
0.0000000044899034
 43
0.0000000001
 40
0.0
 40
0.0
 40
0.0
 40
0.0
 40
0.0096931769309118
 40
0.1083848960345108
 40
0.207197283692942
 40
0.3157936722409624
 40
0.4407383357587359
 40
0.5760793460651352
 40
0.7108262880196411
 40
0.843269503952489
 40
0.974143143137255
 40
1.0
 40
1.0
 40
1.0
 40
1.0
 10
136.876441199618
 20
512.4173877424112
 30
0.0
 10
136.8754779895296
 20
512.4116749583238
 30
0.0
 10
136.8663226233967
 20
512.3568230141923
 30
0.0
 10
136.8986061693207
 20
512.2390949401967
 30
0.0
 10
136.9744876652001
 20
512.0967462273043
 30
0.0
 10
137.0998039053511
 20
511.962337282888
 30
0.0
 10
137.2774981371776
 20
511.8308005257142
 30
0.0
 10
137.5173484090121
 20
511.7002332841927
 30
0.0
 10
137.815535314207
 20
511.5733536497476
 30
0.0
 10
138.1634731458605
 20
511.4541509997131
 30
0.0
 10
138.4556019087924
 20
511.3664008879408
 30
0.0
 10
138.6246406436853
 20
511.3248612248245
 30
0.0
 10
138.6572315552946
 20
511.3168713686986
 30
0.0
  0
SPLINE
  5
F1
330
D0
100
AcDbEntity
  8
$DDT_AUDIT_GENERATED_(7F)
  6
Continuous
 62
     7
100
AcDbSpline
210
0.0
220
0.0
230
1.0
 70
     8
 71
     3
 72
    14
 73
    10
 74
     0
 42
0.0000000067053238
 43
0.0000000001
 40
0.0
 40
0.0
 40
0.0
 40
0.0
 40
0.0967255655086012
 40
0.270814227554229
 40
0.4471698602743754
 40
0.6267856527713852
 40
0.7764406225838513
 40
0.9069268761343876
 40
1.0
 40
1.0
 40
1.0
 40
1.0
 10
166.7667847802312
 20
511.5215368807571
 30
0.0
 10
166.8374656640505
 20
511.5457438970612
 30
0.0
 10
167.004469793612
 20
511.6034559086075
 30
0.0
 10
167.2509600265751
 20
511.712924185729
 30
0.0
 10
167.4886671478029
 20
511.8446514691698
 30
0.0
 10
167.6680816738201
 20
511.9827621945976
 30
0.0
 10
167.788372348396
 20
512.1251787597521
 30
0.0
 10
167.8577122420041
 20
512.2665239519482
 30
0.0
 10
167.8627543837726
 20
512.3521278825856
 30
0.0
 10
167.8647715682592
 20
512.3945301291652
 30
0.0
  0
ELLIPSE
  5
F2
330
D0
100
AcDbEntity
  8
$DDT_AUDIT_GENERATED_(8F)
  6
Continuous
 62
     7
100
AcDbEllipse
 10
152.3721328736
 20
511.3163044819
 30
0.0
 11
-12.0
 21
0.0
 31
0.0
210
0.0
220
0.0
230
1.0
 40
0.1305261922
 41
0.0
 42
0.302843116752514
  0
ELLIPSE
  5
F3
330
D0
100
AcDbEntity
  8
$DDT_AUDIT_GENERATED_(8F)
  6
Continuous
 62
     7
100
AcDbEllipse
 10
152.3721328736
 20
511.3163044819
 30
0.0
 11
-12.0
 21
0.0
 31
0.0
210
0.0
220
0.0
230
1.0
 40
0.1305261922
 41
2.841731160161648
 42
6.283185307179586
  0
ELLIPSE
  5
F4
330
D0
100
AcDbEntity
  8
$DDT_AUDIT_GENERATED_(8F)
  6
Continuous
 62
     7
100
AcDbEllipse
 10
152.3721328736
 20
512.2086048571
 30
0.0
 11
14.75000000000001
 21
0.0
 31
0.0
210
0.0
220
0.0
230
1.0
 40
0.1305261922
 41
0.0
 42
3.555589276025126
  0
ELLIPSE
  5
F5
330
D0
100
AcDbEntity
  8
$DDT_AUDIT_GENERATED_(8F)
  6
Continuous
 62
     7
100
AcDbEllipse
 10
152.3721328736
 20
512.2086048571
 30
0.0
 11
14.75000000000001
 21
0.0
 31
0.0
210
0.0
220
0.0
230
1.0
 40
0.1305261922
 41
5.869188684744258
 42
6.283185307179586
  0
ELLIPSE
  5
F6
330
D0
100
AcDbEntity
  8
$DDT_AUDIT_GENERATED_(8F)
  6
Continuous
 62
     7
100
AcDbEllipse
 10
152.3721328736
 20
511.3163044819
 30
0.0
 11
10.40000000000002
 21
0.0
 31
0.0
210
0.0
220
0.0
230
1.0
 40
0.1305261922
 41
0.0790564779473029
 42
3.062536175642457
  0
LINE
  5
F7
330
D0
100
AcDbEntity
  8
$DDT_AUDIT_GENERATED_(8F)
  6
Continuous
 62
     7
100
AcDbLine
 10
167.1221328736
 20
512.2086048571
 30
0.0
 11
167.1221328736
 21
512.4838728062
 31
0.0
  0
LINE
  5
F8
330
D0
100
AcDbEntity
  8
$DDT_AUDIT_GENERATED_(8F)
  6
Continuous
 62
     7
100
AcDbLine
 10
137.6221328736
 20
512.4838728062
 30
0.0
 11
137.6221328736
 21
512.2086048571
 31
0.0
  0
LINE
  5
F9
330
D0
100
AcDbEntity
  8
$DDT_AUDIT_GENERATED_(8F)
  6
Continuous
 62
     7
100
AcDbLine
 10
138.868206804
 20
511.4341270526
 30
0.0
 11
140.9139006534
 21
510.8264301084
 31
0.0
  0
LINE
  5
FA
330
D0
100
AcDbEntity
  8
$DDT_AUDIT_GENERATED_(8F)
  6
Continuous
 62
     7
100
AcDbLine
 10
163.8322976501
 20
510.8270041965
 30
0.0
 11
165.8760589433
 21
511.4341270526
 31
0.0
  0
LINE
  5
FB
330
D0
100
AcDbEntity
  8
$DDT_AUDIT_GENERATED_(95)
  6
Continuous
 62
     7
100
AcDbLine
 10
126.0521532615
 20
478.254664957
 30
0.0
 11
136.8516223124
 21
478.254664957
 31
0.0
  0
LINE
  5
FC
330
D0
100
AcDbEntity
  8
$DDT_AUDIT_GENERATED_(95)
  6
Continuous
 62
     7
100
AcDbLine
 10
167.8923884282
 20
478.254664957
 30
0.0
 11
178.6913133554
 21
478.254664957
 31
0.0
  0
LINE
  5
FD
330
D0
100
AcDbEntity
  8
$DDT_AUDIT_GENERATED_(95)
  6
Continuous
 62
     7
100
AcDbLine
 10
123.3717554481
 20
454.7185759293
 30
0.0
 11
136.8609664826
 21
454.7185759293
 31
0.0
  0
LINE
  5
FE
330
D0
100
AcDbEntity
  8
$DDT_AUDIT_GENERATED_(95)
  6
Continuous
 62
     7
100
AcDbLine
 10
167.8883211191
 20
454.7185759293
 30
0.0
 11
181.3717111688
 21
454.7185759293
 31
0.0
  0
ARC
  5
FF
330
D0
100
AcDbEntity
  8
$DDT_AUDIT_GENERATED_(95)
  6
Continuous
 62
     7
100
AcDbCircle
 10
152.3717333084
 20
490.1185759293
 30
0.0
 40
25.99999999999999
100
AcDbArc
 50
160.5709823461
 51
178.5
  0
ARC
  5
100
330
D0
100
AcDbEntity
  8
$DDT_AUDIT_GENERATED_(95)
  6
Continuous
 62
     7
100
AcDbCircle
 10
152.3717333084
 20
490.1185759293
 30
0.0
 40
26.00000000000001
100
AcDbArc
 50
1.5
 51
19.4352510244
  0
LINE
  5
101
330
D0
100
AcDbEntity
  8
$DDT_AUDIT_GENERATED_(95)
  6
Continuous
 62
     7
100
AcDbLine
 10
178.6913133554
 20
478.254664957
 30
0.0
 11
178.3628237578
 21
490.7991765853
 31
0.0
  0
LINE
  5
102
330
D0
100
AcDbEntity
  8
$DDT_AUDIT_GENERATED_(95)
  6
Continuous
 62
     7
100
AcDbLine
 10
126.3806428591
 20
490.7991765853
 30
0.0
 11
126.0521532615
 21
478.254664957
 31
0.0
  0
ARC
  5
103
330
D0
100
AcDbEntity
  8
$DDT_AUDIT_GENERATED_(95)
  6
Continuous
 62
     7
100
AcDbCircle
 10
124.6554330744
 20
461.0250438603
 30
0.0
 40
56.71627809438672
100
AcDbArc
 50
0.0
 51
17.6851520989
  0
ARC
  5
104
330
D0
100
AcDbEntity
  8
$DDT_AUDIT_GENERATED_(95)
  6
Continuous
 62
     7
100
AcDbCircle
 10
180.0880335425
 20
461.0250438603
 30
0.0
 40
56.71627809438672
100
AcDbArc
 50
162.3148479011
 51
180.0
  0
LINE
  5
105
330
D0
100
AcDbEntity
  8
$DDT_AUDIT_GENERATED_(95)
  6
Continuous
 62
     7
100
AcDbLine
 10
123.3717554481
 20
461.0250438603
 30
0.0
 11
123.3717554481
 21
454.7185759293
 31
0.0
  0
LINE
  5
106
330
D0
100
AcDbEntity
  8
$DDT_AUDIT_GENERATED_(95)
  6
Continuous
 62
     7
100
AcDbLine
 10
181.3717111688
 20
454.7185759293
 30
0.0
 11
181.3717111688
 21
461.0250438603
 31
0.0
  0
LINE
  5
107
330
D0
100
AcDbEntity
  8
$DDT_AUDIT_GENERATED_(95)
  6
Continuous
 62
     7
100
AcDbLine
 10
123.4717554481
 20
454.7185759293
 30
0.0
 11
123.9717554481
 21
454.2185759293
 31
0.0
  0
LINE
  5
108
330
D0
100
AcDbEntity
  8
$DDT_AUDIT_GENERATED_(95)
  6
Continuous
 62
     7
100
AcDbLine
 10
180.7717111688
 20
454.2185759293
 30
0.0
 11
181.2717111688
 21
454.7185759293
 31
0.0
  0
SPLINE
  5
109
330
D0
100
AcDbEntity
  8
$DDT_AUDIT_GENERATED_(A2)
  6
Continuous
 62
     7
100
AcDbSpline
210
0.0
220
0.0
230
1.0
 70
     8
 71
     3
 72
    10
 73
     6
 74
     0
 42
0.0000000021373967
 43
0.0000000001
 40
0.471202692335456
 40
0.471202692335456
 40
0.471202692335456
 40
0.471202692335456
 40
0.4999999999999993
 40
0.4999999999999993
 40
0.5051379723181028
 40
0.5051379723181028
 40
0.5051379723181028
 40
0.5051379723181028
 10
139.0023035940321
 20
541.4398378600252
 30
0.0
 10
139.0485664475039
 20
541.4497017239994
 30
0.0
 10
139.0932814266741
 20
541.4561632120796
 30
0.0
 10
139.1441452424497
 20
541.4599039357857
 30
0.0
 10
139.1517998102577
 20
541.4603654928075
 30
0.0
 10
139.1594088438005
 20
541.460722886087
 30
0.0
  0
SPLINE
  5
10A
330
D0
100
AcDbEntity
  8
$DDT_AUDIT_GENERATED_(A2)
  6
Continuous
 62
     7
100
AcDbSpline
210
0.0
220
0.0
230
1.0
 70
     8
 71
     3
 72
     8
 73
     4
 74
     0
 42
0.0000000020818865
 43
0.0000000001
 40
0.5012193162703708
 40
0.5012193162703708
 40
0.5012193162703708
 40
0.5012193162703708
 40
0.5307110218680873
 40
0.5307110218680873
 40
0.5307110218680873
 40
0.5307110218680873
 10
165.6552900650351
 20
541.455313686841
 30
0.0
 10
165.7002553273713
 20
541.4517237103864
 30
0.0
 10
165.7468679178841
 20
541.4446969502148
 30
0.0
 10
165.7951288794776
 20
541.4340986718173
 30
0.0
  0
ARC
  5
10B
330
D0
100
AcDbEntity
  8
$DDT_AUDIT_GENERATED_(A2)
  6
Continuous
 62
     7
100
AcDbCircle
 10
-54.3129432575
 20
498.6739870272
 30
0.0
 40
233.9346676165157
100
AcDbArc
 50
0.0945255217
 51
6.5164940976
  0
LINE
  5
10C
330
D0
100
AcDbEntity
  8
$DDT_AUDIT_GENERATED_(A2)
  6
Continuous
 62
     7
100
AcDbLine
 10
179.3214066888
 20
498.7595726321
 30
0.0
 11
167.8879706461
 21
498.7595726328
 31
0.0
  0
LINE
  5
10D
330
D0
100
AcDbEntity
  8
$DDT_AUDIT_GENERATED_(A2)
  6
Continuous
 62
     7
100
AcDbLine
 10
136.8572126856
 20
498.7595726338
 30
0.0
 11
125.42192807
 21
498.7595726338
 31
0.0
  0
ARC
  5
10E
330
D0
100
AcDbEntity
  8
$DDT_AUDIT_GENERATED_(A2)
  6
Continuous
 62
     7
100
AcDbCircle
 10
179.3214064487
 20
499.0595723939
 30
0.0
 40
0.2999997618202841
100
AcDbArc
 50
270.000045855
 51
0.0679077836
  0
ARC
  5
10F
330
D0
100
AcDbEntity
  8
$DDT_AUDIT_GENERATED_(A2)
  6
Continuous
 62
     7
100
AcDbCircle
 10
125.4219332687
 20
499.0595726046
 30
0.0
 40
0.2999999707117028
100
AcDbArc
 50
179.9321346544
 51
269.9999944537
  0
ARC
  5
110
330
D0
100
AcDbEntity
  8
$DDT_AUDIT_GENERATED_(A2)
  6
Continuous
 62
     7
100
AcDbCircle
 10
355.7754730153
 20
498.9589365526
 30
0.0
 40
230.6533693241851
100
AcDbArc
 50
173.5767407174
 51
179.8996387319
  0
ARC
  5
111
330
D0
100
AcDbEntity
  8
$DDT_AUDIT_GENERATED_(A2)
  6
Continuous
 62
     7
100
AcDbCircle
 10
152.3980138474
 20
477.4524082403
 30
0.0
 40
65.35983644542742
100
AcDbArc
 50
78.288668016
 51
101.6981312952
  0
ARC
  5
112
330
D0
100
AcDbEntity
  8
$DDT_AUDIT_GENERATED_(A2)
  6
Continuous
 62
     7
100
AcDbCircle
 10
-50.1514733366
 20
498.9600624051
 30
0.0
 40
229.769767671483
100
AcDbArc
 50
0.1377724575
 51
6.4611623256
  0
LINE
  5
113
330
D0
100
AcDbEntity
  8
$DDT_AUDIT_GENERATED_(A2)
  6
Continuous
 62
     7
100
AcDbLine
 10
125.1225133373
 20
499.3859172022
 30
0.0
 11
125.1220938638
 21
499.0599055561
 31
0.0
  0
ARC
  5
114
330
D0
100
AcDbEntity
  8
$DDT_AUDIT_GENERATED_(A2)
  6
Continuous
 62
     7
100
AcDbCircle
 10
170.0450045511
 20
524.0603257451
 30
0.0
 40
8.144387481938278
100
AcDbArc
 50
5.6454023669
 51
7.3482862726
  0
LINE
  5
115
330
D0
100
AcDbEntity
  8
$DDT_AUDIT_GENERATED_(A2)
  6
Continuous
 62
     7
100
AcDbLine
 10
126.6167650342
 20
525.1690157612
 30
0.0
 11
126.5729751763
 21
524.8421309061
 31
0.0
  0
ARC
  5
116
330
D0
100
AcDbEntity
  8
$DDT_AUDIT_GENERATED_(A2)
  6
Continuous
 62
     7
100
AcDbCircle
 10
164.830489816
 20
523.0726151098
 30
0.0
 40
13.45933407173237
100
AcDbArc
 50
9.553517247
 51
47.8546346786
  0
ARC
  5
117
330
D0
100
AcDbEntity
  8
$DDT_AUDIT_GENERATED_(A2)
  6
Continuous
 62
     7
100
AcDbCircle
 10
139.9881164479
 20
523.0009285102
 30
0.0
 40
13.55152343467243
100
AcDbArc
 50
131.598269925
 51
170.6189098697
  0
SPLINE
  5
118
330
D0
100
AcDbEntity
  8
$DDT_AUDIT_GENERATED_(A2)
  6
Continuous
 62
     7
100
AcDbSpline
210
0.0
220
0.0
230
1.0
 70
     8
 71
     3
 72
    20
 73
    16
 74
     0
 42
0.0000000018002441
 43
0.0000000001
 40
0.0
 40
0.0
 40
0.0
 40
0.0
 40
0.0164020856437641
 40
0.1001405650442976
 40
0.18447669038343
 40
0.2952872892879807
 40
0.3994344889223293
 40
0.4917965358375035
 40
0.5788833325860495
 40
0.6702272068181656
 40
0.7478151714042861
 40
0.8202188371194892
 40
0.8874881972791985
 40
0.9591910283738506
 40
0.9756071321690163
 40
0.9756071321690163
 40
0.9756071321690163
 40
0.9756071321690163
 10
173.867555304942
 20
533.0452183917051
 30
0.0
 10
173.8339805612092
 20
533.0783527774053
 30
0.0
 10
173.6582401991643
 20
533.2518737368525
 30
0.0
 10
173.3323457372231
 20
533.5651018376433
 30
0.0
 10
172.8566812726122
 20
534.0330541626334
 30
0.0
 10
172.3660573796389
 20
534.5116009341676
 30
0.0
 10
171.8924707276728
 20
534.9785590417072
 30
0.0
 10
171.4844094787053
 20
535.3872305907599
 30
0.0
 10
171.129241398335
 20
535.7521460280578
 30
0.0
 10
170.8308898023399
 20
536.0722420667553
 30
0.0
 10
170.588858559051
 20
536.3472528887174
 30
0.0
 10
170.4055745059549
 20
536.5707321665502
 30
0.0
 10
170.2675140618911
 20
536.755350770304
 30
0.0
 10
170.185303722698
 20
536.8767498181547
 30
0.0
 10
170.1424296885519
 20
536.9475536550221
 30
0.0
 10
170.1343177067801
 20
536.961149228923
 30
0.0
  0
SPLINE
  5
119
330
D0
100
AcDbEntity
  8
$DDT_AUDIT_GENERATED_(A2)
  6
Continuous
 62
     7
100
AcDbSpline
210
0.0
220
0.0
230
1.0
 70
     8
 71
     3
 72
    20
 73
    16
 74
     0
 42
0.0000000018050728
 43
0.0000000001
 40
0.0268656935732448
 40
0.0268656935732448
 40
0.0268656935732448
 40
0.0268656935732448
 40
0.0292326456452869
 40
0.1083876624627134
 40
0.1752721130238963
 40
0.245862004382324
 40
0.32192856317167
 40
0.4034451008044405
 40
0.4904546769344261
 40
0.583140324931551
 40
0.6799946498992
 40
0.7881415843427134
 40
0.9024988640062899
 40
0.9866877448664931
 40
1.0
 40
1.0
 40
1.0
 40
1.0
 10
134.719790355083
 20
537.0043252232999
 30
0.0
 10
134.7186629630169
 20
537.0024615895193
 30
0.0
 10
134.6797921828293
 20
536.9383735667705
 30
0.0
 10
134.6034874615656
 20
536.8236191460945
 30
0.0
 10
134.4682872711475
 20
536.6418435512592
 30
0.0
 10
134.2925022348388
 20
536.4267647426267
 30
0.0
 10
134.0684478220611
 20
536.1719340813291
 30
0.0
 10
133.7897394780008
 20
535.8724446576427
 30
0.0
 10
133.4549375259213
 20
535.5282477034268
 30
0.0
 10
133.0626772946324
 20
535.1370711795405
 30
0.0
 10
132.6092346530044
 20
534.6930418733176
 30
0.0
 10
132.0898300005323
 20
534.1917200862342
 30
0.0
 10
131.5655025854881
 20
533.6830596808069
 30
0.0
 10
131.1858642561308
 20
533.3233249994939
 30
0.0
 10
131.0128118353252
 20
533.1557150916698
 30
0.0
 10
130.9852845293425
 20
533.1290628687361
 30
0.0
  0
SPLINE
  5
11A
330
D0
100
AcDbEntity
  8
$DDT_AUDIT_GENERATED_(A2)
  6
Continuous
 62
     7
100
AcDbSpline
210
0.0
220
0.0
230
1.0
 70
     8
 71
     3
 72
    16
 73
    12
 74
     0
 42
0.0000000045373526
 43
0.0000000001
 40
0.0
 40
0.0
 40
0.0
 40
0.0
 40
0.0078142526811377
 40
0.1505027032059685
 40
0.2705000600563377
 40
0.3843601166058694
 40
0.4910208821718949
 40
0.5905078938115101
 40
0.6833837866329644
 40
0.7707014343734832
 40
0.8454892428987815
 40
0.8454892428987815
 40
0.8454892428987815
 40
0.8454892428987815
 10
164.8760269601555
 20
537.0384862646464
 30
0.0
 10
164.8814942124033
 20
537.0482515540824
 30
0.0
 10
164.9721808212241
 20
537.2102267230094
 30
0.0
 10
165.1204529973664
 20
537.4928508989357
 30
0.0
 10
165.3039380269587
 20
537.8439418838959
 30
0.0
 10
165.4477439891923
 20
538.1194900230412
 30
0.0
 10
165.5651933861313
 20
538.3358334880253
 30
0.0
 10
165.6578850354175
 20
538.4948745262453
 30
0.0
 10
165.7263195787982
 20
538.6006839539169
 30
0.0
 10
165.7683078367484
 20
538.6564263194849
 30
0.0
 10
165.7776536042042
 20
538.667155711079
 30
0.0
 10
165.7778280467456
 20
538.6671778165144
 30
0.0
  0
SPLINE
  5
11B
330
D0
100
AcDbEntity
  8
$DDT_AUDIT_GENERATED_(A2)
  6
Continuous
 62
     7
100
AcDbSpline
210
0.0
220
0.0
230
1.0
 70
     8
 71
     3
 72
    20
 73
    16
 74
     0
 42
0.0000000015603212
 43
0.0000000001
 40
0.0
 40
0.0
 40
0.0
 40
0.0
 40
0.0184286175463547
 40
0.0991372796727356
 40
0.1812093525749318
 40
0.2515853847037713
 40
0.3240941634448277
 40
0.4116771528696857
 40
0.501251431798821
 40
0.5933095229676407
 40
0.6880322576629675
 40
0.7850541155222759
 40
0.8689401728605434
 40
0.9434733020475498
 40
1.0
 40
1.0
 40
1.0
 40
1.0
 10
170.1450519542232
 20
536.9439494095103
 30
0.0
 10
170.1163459129984
 20
536.9999856733081
 30
0.0
 10
169.9840910342072
 20
537.2577640226585
 30
0.0
 10
169.7156607873619
 20
537.7211657517089
 30
0.0
 10
169.3791471073065
 20
538.2619005936951
 30
0.0
 10
169.0598819447443
 20
538.7308279355541
 30
0.0
 10
168.7354479930727
 20
539.1743963447718
 30
0.0
 10
168.387658343324
 20
539.6081182357224
 30
0.0
 10
168.0158652747104
 20
540.0236402455861
 30
0.0
 10
167.635573354676
 20
540.3978158764805
 30
0.0
 10
167.2429105955493
 20
540.7293727559359
 30
0.0
 10
166.8520031918547
 20
541.0017510488294
 30
0.0
 10
166.4754336744175
 20
541.2073050796947
 30
0.0
 10
166.1303198234206
 20
541.3509735378013
 30
0.0
 10
165.9202111420703
 20
541.4022661173441
 30
0.0
 10
165.8127532747417
 20
541.4278597098141
 30
0.0
  0
ARC
  5
11C
330
D0
100
AcDbEntity
  8
$DDT_AUDIT_GENERATED_(A2)
  6
Continuous
 62
     7
100
AcDbCircle
 10
152.3751468466
 20
551.0130801382
 30
0.0
 40
18.83906596354155
100
AcDbArc
 50
230.0923473743
 51
309.9269422328
  0
SPLINE
  5
11D
330
D0
100
AcDbEntity
  8
$DDT_AUDIT_GENERATED_(A2)
  6
Continuous
 62
     7
100
AcDbSpline
210
0.0
220
0.0
230
1.0
 70
     8
 71
     3
 72
    20
 73
    16
 74
     0
 42
0.0000000015748035
 43
0.0000000001
 40
0.0
 40
0.0
 40
0.0
 40
0.0
 40
0.0059876603950702
 40
0.0705706963549036
 40
0.1424200229220486
 40
0.2231897196649371
 40
0.3131173900276665
 40
0.4093979529869752
 40
0.5067655861185395
 40
0.6017433961060992
 40
0.6938673177367325
 40
0.7833731701884127
 40
0.8575466363426054
 40
0.9358006248865486
 40
1.0
 40
1.0
 40
1.0
 40
1.0
 10
138.9930118620851
 20
541.4363694030933
 30
0.0
 10
138.9810950986025
 20
541.4345466644952
 30
0.0
 10
138.8603149671286
 20
541.4159998214305
 30
0.0
 10
138.6185305375685
 20
541.3351763619685
 30
0.0
 10
138.2815662291511
 20
541.1949379926851
 30
0.0
 10
137.9259225176573
 20
540.9933010861771
 30
0.0
 10
137.5521279003442
 20
540.7300326840458
 30
0.0
 10
137.1646122444016
 20
540.400083411781
 30
0.0
 10
136.773216432923
 20
540.009651504084
 30
0.0
 10
136.3861041507049
 20
539.5681527386816
 30
0.0
 10
136.0060431301747
 20
539.0819073474282
 30
0.0
 10
135.6509140808238
 20
538.5794220208429
 30
0.0
 10
135.3097918322997
 20
538.0538706200314
 30
0.0
 10
134.9947247502756
 20
537.5265737755195
 30
0.0
 10
134.8091103686656
 20
537.1771651191331
 30
0.0
 10
134.7100616959803
 20
536.9898297163538
 30
0.0
  0
SPLINE
  5
11E
330
D0
100
AcDbEntity
  8
$DDT_AUDIT_GENERATED_(A2)
  6
Continuous
 62
     7
100
AcDbSpline
210
0.0
220
0.0
230
1.0
 70
     8
 71
     3
 72
    16
 73
    12
 74
     0
 42
0.0000000044808168
 43
0.0000000001
 40
0.1631057731097235
 40
0.1631057731097235
 40
0.1631057731097235
 40
0.1631057731097235
 40
0.2393801740183635
 40
0.3263251751719681
 40
0.4180315898810686
 40
0.5159775139578393
 40
0.6210524600892163
 40
0.7336736436133191
 40
0.853734106847626
 40
0.9804562270784178
 40
1.0
 40
1.0
 40
1.0
 40
1.0
 10
138.9853463080446
 20
538.6814710370537
 30
0.0
 10
138.9854733097587
 20
538.6815030626531
 30
0.0
 10
138.9956396711432
 20
538.6697948934471
 30
0.0
 10
139.0382323827946
 20
538.6114011504493
 30
0.0
 10
139.1064106864597
 20
538.5031482072544
 30
0.0
 10
139.197817133245
 20
538.3424243734115
 30
0.0
 10
139.3133999727986
 20
538.124798757784
 30
0.0
 10
139.4556694098029
 20
537.8467736193845
 30
0.0
 10
139.6301904821472
 20
537.5066461756587
 30
0.0
 10
139.7759363180919
 20
537.2249222257632
 30
0.0
 10
139.8631109246551
 20
537.0667257138501
 30
0.0
 10
139.8766969333676
 20
537.0420712488481
 30
0.0
  0
ARC
  5
11F
330
D0
100
AcDbEntity
  8
$DDT_AUDIT_GENERATED_(A2)
  6
Continuous
 62
     7
100
AcDbCircle
 10
163.5610564888
 20
537.7594846636
 30
0.0
 40
1.500000000000003
100
AcDbArc
 50
307.1905705386
 51
331.3208333456
  0
ARC
  5
120
330
D0
100
AcDbEntity
  8
$DDT_AUDIT_GENERATED_(A2)
  6
Continuous
 62
     7
100
AcDbCircle
 10
141.1947554126
 20
537.7565094982
 30
0.0
 40
1.499999999999994
100
AcDbArc
 50
208.3236641509
 51
232.8337688866
  0
ELLIPSE
  5
121
330
D0
100
AcDbEntity
  8
$DDT_AUDIT_GENERATED_(B9)
  6
Continuous
 62
     7
100
AcDbEllipse
 10
152.3721328736
 20
493.9660194078
 30
0.0
 11
10.5
 21
0.0
 31
0.0
210
0.0
220
0.0
230
1.0
 40
0.1305261922
 41
0.0
 42
3.74841739894674
  0
ELLIPSE
  5
122
330
D0
100
AcDbEntity
  8
$DDT_AUDIT_GENERATED_(B9)
  6
Continuous
 62
     7
100
AcDbEllipse
 10
152.3721328736
 20
493.9660194078
 30
0.0
 11
10.5
 21
0.0
 31
0.0
210
0.0
220
0.0
230
1.0
 40
0.1305261922
 41
5.676360561822644
 42
6.283185307179586
  0
ELLIPSE
  5
123
330
D0
100
AcDbEntity
  8
$DDT_AUDIT_GENERATED_(B9)
  6
Continuous
 62
     7
100
AcDbEllipse
 10
152.3721328736
 20
493.9660194078
 30
0.0
 11
-10.05
 21
0.0
 31
0.0
210
0.0
220
0.0
230
1.0
 40
0.1305261922
 41
2.662249831265158
 42
6.283185307179586
  0
ELLIPSE
  5
124
330
D0
100
AcDbEntity
  8
$DDT_AUDIT_GENERATED_(B9)
  6
Continuous
 62
     7
100
AcDbEllipse
 10
152.3721328736
 20
493.9660194078
 30
0.0
 11
-10.05
 21
0.0
 31
0.0
210
0.0
220
0.0
230
1.0
 40
0.1305261922
 41
0.0
 42
0.4793428223246352
  0
ELLIPSE
  5
125
330
D0
100
AcDbEntity
  8
$DDT_AUDIT_GENERATED_(B9)
  6
Continuous
 62
     7
100
AcDbEllipse
 10
152.3721328736
 20
510.671865322
 30
0.0
 11
11.49999999999999
 21
0.0
 31
0.0
210
0.0
220
0.0
230
1.0
 40
0.1305261922
 41
0.0
 42
0.0087326385282725
  0
ELLIPSE
  5
126
330
D0
100
AcDbEntity
  8
$DDT_AUDIT_GENERATED_(B9)
  6
Continuous
 62
     7
100
AcDbEllipse
 10
152.3721328736
 20
510.8205820512
 30
0.0
 11
-11.34999999999999
 21
0.0
 31
0.0
210
0.0
220
0.0
230
1.0
 40
0.1305261922
 41
3.469614094798108
 42
5.98849798170837
  0
ARC
  5
127
330
D0
100
AcDbEntity
  8
$DDT_AUDIT_GENERATED_(B9)
  6
Continuous
 62
     7
100
AcDbCircle
 10
157.685871952
 20
499.6408487192
 30
0.0
 40
16.81081125842852
100
AcDbArc
 50
179.9301196538
 51
199.9942780965
  0
ARC
  5
128
330
D0
100
AcDbEntity
  8
$DDT_AUDIT_GENERATED_(B9)
  6
Continuous
 62
     7
100
AcDbCircle
 10
147.0920302761
 20
499.6346408298
 30
0.0
 40
16.77716698132471
100
AcDbArc
 50
339.9954767061
 51
0.0893644372
  0
LINE
  5
129
330
D0
100
AcDbEntity
  8
$DDT_AUDIT_GENERATED_(B9)
  6
Continuous
 62
     7
100
AcDbLine
 10
163.8721328736
 20
499.6614365246
 30
0.0
 11
163.8721328736
 21
510.671865322
 31
0.0
  0
LINE
  5
12A
330
D0
100
AcDbEntity
  8
$DDT_AUDIT_GENERATED_(B9)
  6
Continuous
 62
     7
100
AcDbLine
 10
140.8721328736
 20
510.671865322
 30
0.0
 11
140.8721328736
 21
499.6614365246
 31
0.0
  0
SPLINE
  5
12B
330
D0
100
AcDbEntity
  8
$DDT_AUDIT_GENERATED_(B9)
  6
Continuous
 62
     7
100
AcDbSpline
210
0.0
220
0.0
230
1.0
 70
     8
 71
     3
 72
    12
 73
     8
 74
     0
 42
0.0000000117999313
 43
0.0000000001
 40
0.0
 40
0.0
 40
0.0
 40
0.0
 40
0.2095165719188185
 40
0.4605136678322135
 40
0.6795825394903602
 40
0.8648558095410392
 40
1.0
 40
1.0
 40
1.0
 40
1.0
 10
141.4387595627037
 20
511.2323103700152
 30
0.0
 10
141.3640533341415
 20
511.198706317355
 30
0.0
 10
141.2270659786914
 20
511.1356434014411
 30
0.0
 10
141.0627986007734
 20
511.0245984697056
 30
0.0
 10
140.9476494117916
 20
510.9071838047215
 30
0.0
 10
140.8825299086811
 20
510.7844518181485
 30
0.0
 10
140.8752651563879
 20
510.7095260088871
 30
0.0
 10
140.8721328736463
 20
510.6718653219748
 30
0.0
  0
SPLINE
  5
12C
330
D0
100
AcDbEntity
  8
$DDT_AUDIT_GENERATED_(B9)
  6
Continuous
 62
     7
100
AcDbSpline
210
0.0
220
0.0
230
1.0
 70
     8
 71
     3
 72
    13
 73
     9
 74
     0
 42
0.0000000102594977
 43
0.0000000001
 40
0.0
 40
0.0
 40
0.0
 40
0.0
 40
0.1331796511297917
 40
0.3011783842839711
 40
0.4891168214547421
 40
0.7084474101605635
 40
0.9400734416630269
 40
1.0
 40
1.0
 40
1.0
 40
1.0
 10
163.8667674084563
 20
510.6940156930452
 30
0.0
 10
163.8624682336986
 20
510.734667321629
 30
0.0
 10
163.8533495745769
 20
510.8118469639797
 30
0.0
 10
163.7782525078829
 20
510.9281414588895
 30
0.0
 10
163.6620307569951
 20
511.0398921235911
 30
0.0
 10
163.4877669971283
 20
511.1500736396603
 30
0.0
 10
163.3136506525532
 20
511.2359284034164
 30
0.0
 10
163.1951370157972
 20
511.278196020474
 30
0.0
 10
163.1665673634468
 20
511.2883292288415
 30
0.0
  0
ELLIPSE
  5
12D
330
D0
100
AcDbEntity
  8
$DDT_AUDIT_GENERATED_(C2)
  6
Continuous
 62
     7
100
AcDbEllipse
 10
152.3721328736
 20
494.0155916509
 30
0.0
 11
8.500000000000007
 21
0.0
 31
0.0
210
0.0
220
0.0
230
1.0
 40
0.1305261922
 41
3.366898544900478
 42
6.057879415868916
  0
ELLIPSE
  5
12E
330
D0
100
AcDbEntity
  8
$DDT_AUDIT_GENERATED_(C2)
  6
Continuous
 62
     7
100
AcDbEllipse
 10
152.3721328736
 20
493.5198692202
 30
0.0
 11
8.500000000000007
 21
0.0
 31
0.0
210
0.0
220
0.0
230
1.0
 40
0.1305261922
 41
0.0
 42
6.283185307179586
  0
ELLIPSE
  5
12F
330
D0
100
AcDbEntity
  8
$DDT_AUDIT_GENERATED_(C2)
  6
Continuous
 62
     7
100
AcDbEllipse
 10
152.3721328736
 20
493.5198692202
 30
0.0
 11
-9.000000000000005
 21
0.0
 31
0.0
210
0.0
220
0.0
230
1.0
 40
0.1305261922
 41
0.0
 42
6.283185307179586
  0
LINE
  5
130
330
D0
100
AcDbEntity
  8
$DDT_AUDIT_GENERATED_(C2)
  6
Continuous
 62
     7
100
AcDbLine
 10
151.8721328736
 20
494.1069599854
 30
0.0
 11
151.8721328736
 21
494.2374861777
 31
0.0
  0
LINE
  5
131
330
D0
100
AcDbEntity
  8
$DDT_AUDIT_GENERATED_(C2)
  6
Continuous
 62
     7
100
AcDbLine
 10
151.8721328736
 20
494.2374861777
 30
0.0
 11
152.8721328736
 21
494.2374861777
 31
0.0
  0
LINE
  5
132
330
D0
100
AcDbEntity
  8
$DDT_AUDIT_GENERATED_(C2)
  6
Continuous
 62
     7
100
AcDbLine
 10
152.8721328736
 20
494.1069599854
 30
0.0
 11
151.8721328736
 21
494.1069599854
 31
0.0
  0
LINE
  5
133
330
D0
100
AcDbEntity
  8
$DDT_AUDIT_GENERATED_(C2)
  6
Continuous
 62
     7
100
AcDbLine
 10
151.8721328736
 20
494.2635914161
 30
0.0
 11
151.8721328736
 21
494.3941176083
 31
0.0
  0
LINE
  5
134
330
D0
100
AcDbEntity
  8
$DDT_AUDIT_GENERATED_(C2)
  6
Continuous
 62
     7
100
AcDbLine
 10
151.8721328736
 20
494.3941176083
 30
0.0
 11
152.8721328736
 21
494.3941176083
 31
0.0
  0
LINE
  5
135
330
D0
100
AcDbEntity
  8
$DDT_AUDIT_GENERATED_(C2)
  6
Continuous
 62
     7
100
AcDbLine
 10
152.8721328736
 20
494.2635914161
 30
0.0
 11
151.8721328736
 21
494.2635914161
 31
0.0
  0
LINE
  5
136
330
D0
100
AcDbEntity
  8
$DDT_AUDIT_GENERATED_(C2)
  6
Continuous
 62
     7
100
AcDbLine
 10
151.8721328736
 20
494.4202228468
 30
0.0
 11
151.8721328736
 21
494.550749039
 31
0.0
  0
LINE
  5
137
330
D0
100
AcDbEntity
  8
$DDT_AUDIT_GENERATED_(C2)
  6
Continuous
 62
     7
100
AcDbLine
 10
151.8721328736
 20
494.550749039
 30
0.0
 11
152.8721328736
 21
494.550749039
 31
0.0
  0
LINE
  5
138
330
D0
100
AcDbEntity
  8
$DDT_AUDIT_GENERATED_(C2)
  6
Continuous
 62
     7
100
AcDbLine
 10
152.8721328736
 20
494.4202228468
 30
0.0
 11
151.8721328736
 21
494.4202228468
 31
0.0
  0
LINE
  5
139
330
D0
100
AcDbEntity
  8
$DDT_AUDIT_GENERATED_(C2)
  6
Continuous
 62
     7
100
AcDbLine
 10
151.8721328736
 20
494.5768542774
 30
0.0
 11
151.8721328736
 21
494.6274206879
 31
0.0
  0
LINE
  5
13A
330
D0
100
AcDbEntity
  8
$DDT_AUDIT_GENERATED_(C2)
  6
Continuous
 62
     7
100
AcDbLine
 10
152.8721328736
 20
494.5768542774
 30
0.0
 11
151.8721328736
 21
494.5768542774
 31
0.0
  0
LINE
  5
13B
330
D0
100
AcDbEntity
  8
$DDT_AUDIT_GENERATED_(C2)
  6
Continuous
 62
     7
100
AcDbLine
 10
150.6721328736
 20
493.9503285548
 30
0.0
 11
150.6721328736
 21
494.080854747
 31
0.0
  0
LINE
  5
13C
330
D0
100
AcDbEntity
  8
$DDT_AUDIT_GENERATED_(C2)
  6
Continuous
 62
     7
100
AcDbLine
 10
150.6721328736
 20
494.080854747
 30
0.0
 11
151.6721328736
 21
494.080854747
 31
0.0
  0
LINE
  5
13D
330
D0
100
AcDbEntity
  8
$DDT_AUDIT_GENERATED_(C2)
  6
Continuous
 62
     7
100
AcDbLine
 10
151.6721328736
 20
494.080854747
 30
0.0
 11
151.6721328736
 21
493.9503285548
 31
0.0
  0
LINE
  5
13E
330
D0
100
AcDbEntity
  8
$DDT_AUDIT_GENERATED_(C2)
  6
Continuous
 62
     7
100
AcDbLine
 10
150.6721328736
 20
494.1069599854
 30
0.0
 11
150.6721328736
 21
494.2374861777
 31
0.0
  0
LINE
  5
13F
330
D0
100
AcDbEntity
  8
$DDT_AUDIT_GENERATED_(C2)
  6
Continuous
 62
     7
100
AcDbLine
 10
150.6721328736
 20
494.2374861777
 30
0.0
 11
151.6721328736
 21
494.2374861777
 31
0.0
  0
LINE
  5
140
330
D0
100
AcDbEntity
  8
$DDT_AUDIT_GENERATED_(C2)
  6
Continuous
 62
     7
100
AcDbLine
 10
151.6721328736
 20
494.2374861777
 30
0.0
 11
151.6721328736
 21
494.1069599854
 31
0.0
  0
LINE
  5
141
330
D0
100
AcDbEntity
  8
$DDT_AUDIT_GENERATED_(C2)
  6
Continuous
 62
     7
100
AcDbLine
 10
151.6721328736
 20
494.1069599854
 30
0.0
 11
150.6721328736
 21
494.1069599854
 31
0.0
  0
LINE
  5
142
330
D0
100
AcDbEntity
  8
$DDT_AUDIT_GENERATED_(C2)
  6
Continuous
 62
     7
100
AcDbLine
 10
150.6721328736
 20
494.2635914161
 30
0.0
 11
150.6721328736
 21
494.3941176083
 31
0.0
  0
LINE
  5
143
330
D0
100
AcDbEntity
  8
$DDT_AUDIT_GENERATED_(C2)
  6
Continuous
 62
     7
100
AcDbLine
 10
150.6721328736
 20
494.3941176083
 30
0.0
 11
151.6721328736
 21
494.3941176083
 31
0.0
  0
LINE
  5
144
330
D0
100
AcDbEntity
  8
$DDT_AUDIT_GENERATED_(C2)
  6
Continuous
 62
     7
100
AcDbLine
 10
151.6721328736
 20
494.3941176083
 30
0.0
 11
151.6721328736
 21
494.2635914161
 31
0.0
  0
LINE
  5
145
330
D0
100
AcDbEntity
  8
$DDT_AUDIT_GENERATED_(C2)
  6
Continuous
 62
     7
100
AcDbLine
 10
151.6721328736
 20
494.2635914161
 30
0.0
 11
150.6721328736
 21
494.2635914161
 31
0.0
  0
LINE
  5
146
330
D0
100
AcDbEntity
  8
$DDT_AUDIT_GENERATED_(C2)
  6
Continuous
 62
     7
100
AcDbLine
 10
150.6721328736
 20
494.4202228468
 30
0.0
 11
150.6721328736
 21
494.550749039
 31
0.0
  0
LINE
  5
147
330
D0
100
AcDbEntity
  8
$DDT_AUDIT_GENERATED_(C2)
  6
Continuous
 62
     7
100
AcDbLine
 10
150.6721328736
 20
494.550749039
 30
0.0
 11
151.6721328736
 21
494.550749039
 31
0.0
  0
LINE
  5
148
330
D0
100
AcDbEntity
  8
$DDT_AUDIT_GENERATED_(C2)
  6
Continuous
 62
     7
100
AcDbLine
 10
151.6721328736
 20
494.550749039
 30
0.0
 11
151.6721328736
 21
494.4202228468
 31
0.0
  0
LINE
  5
149
330
D0
100
AcDbEntity
  8
$DDT_AUDIT_GENERATED_(C2)
  6
Continuous
 62
     7
100
AcDbLine
 10
151.6721328736
 20
494.4202228468
 30
0.0
 11
150.6721328736
 21
494.4202228468
 31
0.0
  0
LINE
  5
14A
330
D0
100
AcDbEntity
  8
$DDT_AUDIT_GENERATED_(C2)
  6
Continuous
 62
     7
100
AcDbLine
 10
150.6721328736
 20
494.5768542774
 30
0.0
 11
150.6721328736
 21
494.6069259548
 31
0.0
  0
LINE
  5
14B
330
D0
100
AcDbEntity
  8
$DDT_AUDIT_GENERATED_(C2)
  6
Continuous
 62
     7
100
AcDbLine
 10
151.6721328736
 20
494.6255732279
 30
0.0
 11
151.6721328736
 21
494.5768542774
 31
0.0
  0
LINE
  5
14C
330
D0
100
AcDbEntity
  8
$DDT_AUDIT_GENERATED_(C2)
  6
Continuous
 62
     7
100
AcDbLine
 10
151.6721328736
 20
494.5768542774
 30
0.0
 11
150.6721328736
 21
494.5768542774
 31
0.0
  0
LINE
  5
14D
330
D0
100
AcDbEntity
  8
$DDT_AUDIT_GENERATED_(C2)
  6
Continuous
 62
     7
100
AcDbLine
 10
149.4721328736
 20
493.9503285548
 30
0.0
 11
149.4721328736
 21
494.080854747
 31
0.0
  0
LINE
  5
14E
330
D0
100
AcDbEntity
  8
$DDT_AUDIT_GENERATED_(C2)
  6
Continuous
 62
     7
100
AcDbLine
 10
149.4721328736
 20
494.080854747
 30
0.0
 11
150.4721328736
 21
494.080854747
 31
0.0
  0
LINE
  5
14F
330
D0
100
AcDbEntity
  8
$DDT_AUDIT_GENERATED_(C2)
  6
Continuous
 62
     7
100
AcDbLine
 10
150.4721328736
 20
494.080854747
 30
0.0
 11
150.4721328736
 21
493.9503285548
 31
0.0
  0
LINE
  5
150
330
D0
100
AcDbEntity
  8
$DDT_AUDIT_GENERATED_(C2)
  6
Continuous
 62
     7
100
AcDbLine
 10
149.4721328736
 20
494.1069599854
 30
0.0
 11
149.4721328736
 21
494.2374861777
 31
0.0
  0
LINE
  5
151
330
D0
100
AcDbEntity
  8
$DDT_AUDIT_GENERATED_(C2)
  6
Continuous
 62
     7
100
AcDbLine
 10
149.4721328736
 20
494.2374861777
 30
0.0
 11
150.4721328736
 21
494.2374861777
 31
0.0
  0
LINE
  5
152
330
D0
100
AcDbEntity
  8
$DDT_AUDIT_GENERATED_(C2)
  6
Continuous
 62
     7
100
AcDbLine
 10
150.4721328736
 20
494.2374861777
 30
0.0
 11
150.4721328736
 21
494.1069599854
 31
0.0
  0
LINE
  5
153
330
D0
100
AcDbEntity
  8
$DDT_AUDIT_GENERATED_(C2)
  6
Continuous
 62
     7
100
AcDbLine
 10
150.4721328736
 20
494.1069599854
 30
0.0
 11
149.4721328736
 21
494.1069599854
 31
0.0
  0
LINE
  5
154
330
D0
100
AcDbEntity
  8
$DDT_AUDIT_GENERATED_(C2)
  6
Continuous
 62
     7
100
AcDbLine
 10
149.4721328736
 20
494.2635914161
 30
0.0
 11
149.4721328736
 21
494.3941176083
 31
0.0
  0
LINE
  5
155
330
D0
100
AcDbEntity
  8
$DDT_AUDIT_GENERATED_(C2)
  6
Continuous
 62
     7
100
AcDbLine
 10
149.4721328736
 20
494.3941176083
 30
0.0
 11
150.4721328736
 21
494.3941176083
 31
0.0
  0
LINE
  5
156
330
D0
100
AcDbEntity
  8
$DDT_AUDIT_GENERATED_(C2)
  6
Continuous
 62
     7
100
AcDbLine
 10
150.4721328736
 20
494.3941176083
 30
0.0
 11
150.4721328736
 21
494.2635914161
 31
0.0
  0
LINE
  5
157
330
D0
100
AcDbEntity
  8
$DDT_AUDIT_GENERATED_(C2)
  6
Continuous
 62
     7
100
AcDbLine
 10
150.4721328736
 20
494.2635914161
 30
0.0
 11
149.4721328736
 21
494.2635914161
 31
0.0
  0
LINE
  5
158
330
D0
100
AcDbEntity
  8
$DDT_AUDIT_GENERATED_(C2)
  6
Continuous
 62
     7
100
AcDbLine
 10
149.4721328736
 20
494.4202228468
 30
0.0
 11
149.4721328736
 21
494.550749039
 31
0.0
  0
LINE
  5
159
330
D0
100
AcDbEntity
  8
$DDT_AUDIT_GENERATED_(C2)
  6
Continuous
 62
     7
100
AcDbLine
 10
149.4721328736
 20
494.550749039
 30
0.0
 11
150.4721328736
 21
494.550749039
 31
0.0
  0
LINE
  5
15A
330
D0
100
AcDbEntity
  8
$DDT_AUDIT_GENERATED_(C2)
  6
Continuous
 62
     7
100
AcDbLine
 10
150.4721328736
 20
494.550749039
 30
0.0
 11
150.4721328736
 21
494.4202228468
 31
0.0
  0
LINE
  5
15B
330
D0
100
AcDbEntity
  8
$DDT_AUDIT_GENERATED_(C2)
  6
Continuous
 62
     7
100
AcDbLine
 10
150.4721328736
 20
494.4202228468
 30
0.0
 11
149.4721328736
 21
494.4202228468
 31
0.0
  0
LINE
  5
15C
330
D0
100
AcDbEntity
  8
$DDT_AUDIT_GENERATED_(C2)
  6
Continuous
 62
     7
100
AcDbLine
 10
150.4721328736
 20
494.601269073
 30
0.0
 11
150.4721328736
 21
494.5768542774
 31
0.0
  0
LINE
  5
15D
330
D0
100
AcDbEntity
  8
$DDT_AUDIT_GENERATED_(C2)
  6
Continuous
 62
     7
100
AcDbLine
 10
150.4721328736
 20
494.5768542774
 30
0.0
 11
149.7886493381
 21
494.5768542774
 31
0.0
  0
LINE
  5
15E
330
D0
100
AcDbEntity
  8
$DDT_AUDIT_GENERATED_(C2)
  6
Continuous
 62
     7
100
AcDbLine
 10
148.2721328736
 20
493.9503285548
 30
0.0
 11
148.2721328736
 21
494.080854747
 31
0.0
  0
LINE
  5
15F
330
D0
100
AcDbEntity
  8
$DDT_AUDIT_GENERATED_(C2)
  6
Continuous
 62
     7
100
AcDbLine
 10
148.2721328736
 20
494.080854747
 30
0.0
 11
149.2721328736
 21
494.080854747
 31
0.0
  0
LINE
  5
160
330
D0
100
AcDbEntity
  8
$DDT_AUDIT_GENERATED_(C2)
  6
Continuous
 62
     7
100
AcDbLine
 10
149.2721328736
 20
494.080854747
 30
0.0
 11
149.2721328736
 21
493.9503285548
 31
0.0
  0
LINE
  5
161
330
D0
100
AcDbEntity
  8
$DDT_AUDIT_GENERATED_(C2)
  6
Continuous
 62
     7
100
AcDbLine
 10
148.2721328736
 20
494.1069599854
 30
0.0
 11
148.2721328736
 21
494.2374861777
 31
0.0
  0
LINE
  5
162
330
D0
100
AcDbEntity
  8
$DDT_AUDIT_GENERATED_(C2)
  6
Continuous
 62
     7
100
AcDbLine
 10
148.2721328736
 20
494.2374861777
 30
0.0
 11
149.2721328736
 21
494.2374861777
 31
0.0
  0
LINE
  5
163
330
D0
100
AcDbEntity
  8
$DDT_AUDIT_GENERATED_(C2)
  6
Continuous
 62
     7
100
AcDbLine
 10
149.2721328736
 20
494.2374861777
 30
0.0
 11
149.2721328736
 21
494.1069599854
 31
0.0
  0
LINE
  5
164
330
D0
100
AcDbEntity
  8
$DDT_AUDIT_GENERATED_(C2)
  6
Continuous
 62
     7
100
AcDbLine
 10
149.2721328736
 20
494.1069599854
 30
0.0
 11
148.2721328736
 21
494.1069599854
 31
0.0
  0
LINE
  5
165
330
D0
100
AcDbEntity
  8
$DDT_AUDIT_GENERATED_(C2)
  6
Continuous
 62
     7
100
AcDbLine
 10
148.2721328736
 20
494.2635914161
 30
0.0
 11
148.2721328736
 21
494.3941176083
 31
0.0
  0
LINE
  5
166
330
D0
100
AcDbEntity
  8
$DDT_AUDIT_GENERATED_(C2)
  6
Continuous
 62
     7
100
AcDbLine
 10
148.2721328736
 20
494.3941176083
 30
0.0
 11
149.2721328736
 21
494.3941176083
 31
0.0
  0
LINE
  5
167
330
D0
100
AcDbEntity
  8
$DDT_AUDIT_GENERATED_(C2)
  6
Continuous
 62
     7
100
AcDbLine
 10
149.2721328736
 20
494.3941176083
 30
0.0
 11
149.2721328736
 21
494.2635914161
 31
0.0
  0
LINE
  5
168
330
D0
100
AcDbEntity
  8
$DDT_AUDIT_GENERATED_(C2)
  6
Continuous
 62
     7
100
AcDbLine
 10
149.2721328736
 20
494.2635914161
 30
0.0
 11
148.2721328736
 21
494.2635914161
 31
0.0
  0
LINE
  5
169
330
D0
100
AcDbEntity
  8
$DDT_AUDIT_GENERATED_(C2)
  6
Continuous
 62
     7
100
AcDbLine
 10
148.2721328736
 20
494.4202228468
 30
0.0
 11
148.2721328736
 21
494.4917416888
 31
0.0
  0
LINE
  5
16A
330
D0
100
AcDbEntity
  8
$DDT_AUDIT_GENERATED_(C2)
  6
Continuous
 62
     7
100
AcDbLine
 10
149.2299142305
 20
494.550749039
 30
0.0
 11
149.2721328736
 21
494.550749039
 31
0.0
  0
LINE
  5
16B
330
D0
100
AcDbEntity
  8
$DDT_AUDIT_GENERATED_(C2)
  6
Continuous
 62
     7
100
AcDbLine
 10
149.2721328736
 20
494.550749039
 30
0.0
 11
149.2721328736
 21
494.4202228468
 31
0.0
  0
LINE
  5
16C
330
D0
100
AcDbEntity
  8
$DDT_AUDIT_GENERATED_(C2)
  6
Continuous
 62
     7
100
AcDbLine
 10
149.2721328736
 20
494.4202228468
 30
0.0
 11
148.2721328736
 21
494.4202228468
 31
0.0
  0
LINE
  5
16D
330
D0
100
AcDbEntity
  8
$DDT_AUDIT_GENERATED_(C2)
  6
Continuous
 62
     7
100
AcDbLine
 10
147.0721328736
 20
493.9503285548
 30
0.0
 11
147.0721328736
 21
494.080854747
 31
0.0
  0
LINE
  5
16E
330
D0
100
AcDbEntity
  8
$DDT_AUDIT_GENERATED_(C2)
  6
Continuous
 62
     7
100
AcDbLine
 10
147.0721328736
 20
494.080854747
 30
0.0
 11
148.0721328736
 21
494.080854747
 31
0.0
  0
LINE
  5
16F
330
D0
100
AcDbEntity
  8
$DDT_AUDIT_GENERATED_(C2)
  6
Continuous
 62
     7
100
AcDbLine
 10
148.0721328736
 20
494.080854747
 30
0.0
 11
148.0721328736
 21
493.9503285548
 31
0.0
  0
LINE
  5
170
330
D0
100
AcDbEntity
  8
$DDT_AUDIT_GENERATED_(C2)
  6
Continuous
 62
     7
100
AcDbLine
 10
147.0721328736
 20
494.1069599854
 30
0.0
 11
147.0721328736
 21
494.2374861777
 31
0.0
  0
LINE
  5
171
330
D0
100
AcDbEntity
  8
$DDT_AUDIT_GENERATED_(C2)
  6
Continuous
 62
     7
100
AcDbLine
 10
147.0721328736
 20
494.2374861777
 30
0.0
 11
148.0721328736
 21
494.2374861777
 31
0.0
  0
LINE
  5
172
330
D0
100
AcDbEntity
  8
$DDT_AUDIT_GENERATED_(C2)
  6
Continuous
 62
     7
100
AcDbLine
 10
148.0721328736
 20
494.2374861777
 30
0.0
 11
148.0721328736
 21
494.1069599854
 31
0.0
  0
LINE
  5
173
330
D0
100
AcDbEntity
  8
$DDT_AUDIT_GENERATED_(C2)
  6
Continuous
 62
     7
100
AcDbLine
 10
148.0721328736
 20
494.1069599854
 30
0.0
 11
147.0721328736
 21
494.1069599854
 31
0.0
  0
LINE
  5
174
330
D0
100
AcDbEntity
  8
$DDT_AUDIT_GENERATED_(C2)
  6
Continuous
 62
     7
100
AcDbLine
 10
147.0721328736
 20
494.2635914161
 30
0.0
 11
147.0721328736
 21
494.3872548066
 31
0.0
  0
LINE
  5
175
330
D0
100
AcDbEntity
  8
$DDT_AUDIT_GENERATED_(C2)
  6
Continuous
 62
     7
100
AcDbLine
 10
147.1387359905
 20
494.3941176083
 30
0.0
 11
148.0721328736
 21
494.3941176083
 31
0.0
  0
LINE
  5
176
330
D0
100
AcDbEntity
  8
$DDT_AUDIT_GENERATED_(C2)
  6
Continuous
 62
     7
100
AcDbLine
 10
148.0721328736
 20
494.3941176083
 30
0.0
 11
148.0721328736
 21
494.2635914161
 31
0.0
  0
LINE
  5
177
330
D0
100
AcDbEntity
  8
$DDT_AUDIT_GENERATED_(C2)
  6
Continuous
 62
     7
100
AcDbLine
 10
148.0721328736
 20
494.2635914161
 30
0.0
 11
147.0721328736
 21
494.2635914161
 31
0.0
  0
LINE
  5
178
330
D0
100
AcDbEntity
  8
$DDT_AUDIT_GENERATED_(C2)
  6
Continuous
 62
     7
100
AcDbLine
 10
148.0721328736
 20
494.4769030698
 30
0.0
 11
148.0721328736
 21
494.4202228468
 31
0.0
  0
LINE
  5
179
330
D0
100
AcDbEntity
  8
$DDT_AUDIT_GENERATED_(C2)
  6
Continuous
 62
     7
100
AcDbLine
 10
148.0721328736
 20
494.4202228468
 30
0.0
 11
147.4053137594
 21
494.4202228468
 31
0.0
  0
LINE
  5
17A
330
D0
100
AcDbEntity
  8
$DDT_AUDIT_GENERATED_(C2)
  6
Continuous
 62
     7
100
AcDbLine
 10
145.8721328736
 20
493.9503285548
 30
0.0
 11
145.8721328736
 21
494.080854747
 31
0.0
  0
LINE
  5
17B
330
D0
100
AcDbEntity
  8
$DDT_AUDIT_GENERATED_(C2)
  6
Continuous
 62
     7
100
AcDbLine
 10
145.8721328736
 20
494.080854747
 30
0.0
 11
146.8721328736
 21
494.080854747
 31
0.0
  0
LINE
  5
17C
330
D0
100
AcDbEntity
  8
$DDT_AUDIT_GENERATED_(C2)
  6
Continuous
 62
     7
100
AcDbLine
 10
146.8721328736
 20
494.080854747
 30
0.0
 11
146.8721328736
 21
493.9503285548
 31
0.0
  0
LINE
  5
17D
330
D0
100
AcDbEntity
  8
$DDT_AUDIT_GENERATED_(C2)
  6
Continuous
 62
     7
100
AcDbLine
 10
145.8721328736
 20
494.1069599854
 30
0.0
 11
145.8721328736
 21
494.2347906184
 31
0.0
  0
LINE
  5
17E
330
D0
100
AcDbEntity
  8
$DDT_AUDIT_GENERATED_(C2)
  6
Continuous
 62
     7
100
AcDbLine
 10
145.8895910981
 20
494.2374861777
 30
0.0
 11
146.8721328736
 21
494.2374861777
 31
0.0
  0
LINE
  5
17F
330
D0
100
AcDbEntity
  8
$DDT_AUDIT_GENERATED_(C2)
  6
Continuous
 62
     7
100
AcDbLine
 10
146.8721328736
 20
494.2374861777
 30
0.0
 11
146.8721328736
 21
494.1069599854
 31
0.0
  0
LINE
  5
180
330
D0
100
AcDbEntity
  8
$DDT_AUDIT_GENERATED_(C2)
  6
Continuous
 62
     7
100
AcDbLine
 10
146.8721328736
 20
494.1069599854
 30
0.0
 11
145.8721328736
 21
494.1069599854
 31
0.0
  0
LINE
  5
181
330
D0
100
AcDbEntity
  8
$DDT_AUDIT_GENERATED_(C2)
  6
Continuous
 62
     7
100
AcDbLine
 10
146.8721328736
 20
494.3657756263
 30
0.0
 11
146.8721328736
 21
494.2635914161
 31
0.0
  0
LINE
  5
182
330
D0
100
AcDbEntity
  8
$DDT_AUDIT_GENERATED_(C2)
  6
Continuous
 62
     7
100
AcDbLine
 10
146.8721328736
 20
494.2635914161
 30
0.0
 11
146.0646613478
 21
494.2635914161
 31
0.0
  0
LINE
  5
183
330
D0
100
AcDbEntity
  8
$DDT_AUDIT_GENERATED_(C2)
  6
Continuous
 62
     7
100
AcDbLine
 10
144.6721328736
 20
493.9503285548
 30
0.0
 11
144.6721328736
 21
493.9897635122
 31
0.0
  0
LINE
  5
184
330
D0
100
AcDbEntity
  8
$DDT_AUDIT_GENERATED_(C2)
  6
Continuous
 62
     7
100
AcDbLine
 10
145.038767152
 20
494.080854747
 30
0.0
 11
145.6721328736
 21
494.080854747
 31
0.0
  0
LINE
  5
185
330
D0
100
AcDbEntity
  8
$DDT_AUDIT_GENERATED_(C2)
  6
Continuous
 62
     7
100
AcDbLine
 10
145.6721328736
 20
494.080854747
 30
0.0
 11
145.6721328736
 21
493.9503285548
 31
0.0
  0
LINE
  5
186
330
D0
100
AcDbEntity
  8
$DDT_AUDIT_GENERATED_(C2)
  6
Continuous
 62
     7
100
AcDbLine
 10
145.6721328736
 20
494.2026097978
 30
0.0
 11
145.6721328736
 21
494.1069599854
 31
0.0
  0
LINE
  5
187
330
D0
100
AcDbEntity
  8
$DDT_AUDIT_GENERATED_(C2)
  6
Continuous
 62
     7
100
AcDbLine
 10
145.6721328736
 20
494.1069599854
 30
0.0
 11
145.15970596
 21
494.1069599854
 31
0.0
  0
LINE
  5
188
330
D0
100
AcDbEntity
  8
$DDT_AUDIT_GENERATED_(C2)
  6
Continuous
 62
     7
100
AcDbLine
 10
151.8721328736
 20
494.080854747
 30
0.0
 11
152.8721328736
 21
494.080854747
 31
0.0
  0
LINE
  5
189
330
D0
100
AcDbEntity
  8
$DDT_AUDIT_GENERATED_(C2)
  6
Continuous
 62
     7
100
AcDbLine
 10
151.8721328736
 20
493.9503285548
 30
0.0
 11
151.8721328736
 21
494.080854747
 31
0.0
  0
LINE
  5
18A
330
D0
100
AcDbEntity
  8
$DDT_AUDIT_GENERATED_(C2)
  6
Continuous
 62
     7
100
AcDbLine
 10
153.0721328736
 20
494.080854747
 30
0.0
 11
154.0721328736
 21
494.080854747
 31
0.0
  0
LINE
  5
18B
330
D0
100
AcDbEntity
  8
$DDT_AUDIT_GENERATED_(C2)
  6
Continuous
 62
     7
100
AcDbLine
 10
154.0721328736
 20
494.080854747
 30
0.0
 11
154.0721328736
 21
493.9503285548
 31
0.0
  0
LINE
  5
18C
330
D0
100
AcDbEntity
  8
$DDT_AUDIT_GENERATED_(C2)
  6
Continuous
 62
     7
100
AcDbLine
 10
153.0721328736
 20
493.9503285548
 30
0.0
 11
153.0721328736
 21
494.080854747
 31
0.0
  0
LINE
  5
18D
330
D0
100
AcDbEntity
  8
$DDT_AUDIT_GENERATED_(C2)
  6
Continuous
 62
     7
100
AcDbLine
 10
154.2721328736
 20
494.080854747
 30
0.0
 11
155.2721328736
 21
494.080854747
 31
0.0
  0
LINE
  5
18E
330
D0
100
AcDbEntity
  8
$DDT_AUDIT_GENERATED_(C2)
  6
Continuous
 62
     7
100
AcDbLine
 10
155.2721328736
 20
494.080854747
 30
0.0
 11
155.2721328736
 21
493.9503285548
 31
0.0
  0
LINE
  5
18F
330
D0
100
AcDbEntity
  8
$DDT_AUDIT_GENERATED_(C2)
  6
Continuous
 62
     7
100
AcDbLine
 10
154.2721328736
 20
493.9503285548
 30
0.0
 11
154.2721328736
 21
494.080854747
 31
0.0
  0
LINE
  5
190
330
D0
100
AcDbEntity
  8
$DDT_AUDIT_GENERATED_(C2)
  6
Continuous
 62
     7
100
AcDbLine
 10
155.4721328736
 20
494.080854747
 30
0.0
 11
156.4721328736
 21
494.080854747
 31
0.0
  0
LINE
  5
191
330
D0
100
AcDbEntity
  8
$DDT_AUDIT_GENERATED_(C2)
  6
Continuous
 62
     7
100
AcDbLine
 10
156.4721328736
 20
494.080854747
 30
0.0
 11
156.4721328736
 21
493.9503285548
 31
0.0
  0
LINE
  5
192
330
D0
100
AcDbEntity
  8
$DDT_AUDIT_GENERATED_(C2)
  6
Continuous
 62
     7
100
AcDbLine
 10
155.4721328736
 20
493.9503285548
 30
0.0
 11
155.4721328736
 21
494.080854747
 31
0.0
  0
LINE
  5
193
330
D0
100
AcDbEntity
  8
$DDT_AUDIT_GENERATED_(C2)
  6
Continuous
 62
     7
100
AcDbLine
 10
156.6721328736
 20
494.080854747
 30
0.0
 11
157.6721328736
 21
494.080854747
 31
0.0
  0
LINE
  5
194
330
D0
100
AcDbEntity
  8
$DDT_AUDIT_GENERATED_(C2)
  6
Continuous
 62
     7
100
AcDbLine
 10
157.6721328736
 20
494.080854747
 30
0.0
 11
157.6721328736
 21
493.9503285548
 31
0.0
  0
LINE
  5
195
330
D0
100
AcDbEntity
  8
$DDT_AUDIT_GENERATED_(C2)
  6
Continuous
 62
     7
100
AcDbLine
 10
156.6721328736
 20
493.9503285548
 30
0.0
 11
156.6721328736
 21
494.080854747
 31
0.0
  0
LINE
  5
196
330
D0
100
AcDbEntity
  8
$DDT_AUDIT_GENERATED_(C2)
  6
Continuous
 62
     7
100
AcDbLine
 10
157.8721328736
 20
494.080854747
 30
0.0
 11
158.8721328736
 21
494.080854747
 31
0.0
  0
LINE
  5
197
330
D0
100
AcDbEntity
  8
$DDT_AUDIT_GENERATED_(C2)
  6
Continuous
 62
     7
100
AcDbLine
 10
158.8721328736
 20
494.080854747
 30
0.0
 11
158.8721328736
 21
493.9503285548
 31
0.0
  0
LINE
  5
198
330
D0
100
AcDbEntity
  8
$DDT_AUDIT_GENERATED_(C2)
  6
Continuous
 62
     7
100
AcDbLine
 10
157.8721328736
 20
493.9503285548
 30
0.0
 11
157.8721328736
 21
494.080854747
 31
0.0
  0
LINE
  5
199
330
D0
100
AcDbEntity
  8
$DDT_AUDIT_GENERATED_(C2)
  6
Continuous
 62
     7
100
AcDbLine
 10
159.0721328736
 20
494.080854747
 30
0.0
 11
159.7054985953
 21
494.080854747
 31
0.0
  0
LINE
  5
19A
330
D0
100
AcDbEntity
  8
$DDT_AUDIT_GENERATED_(C2)
  6
Continuous
 62
     7
100
AcDbLine
 10
160.0721328736
 20
493.9897635122
 30
0.0
 11
160.0721328736
 21
493.9503285548
 31
0.0
  0
LINE
  5
19B
330
D0
100
AcDbEntity
  8
$DDT_AUDIT_GENERATED_(C2)
  6
Continuous
 62
     7
100
AcDbLine
 10
159.0721328736
 20
493.9503285548
 30
0.0
 11
159.0721328736
 21
494.080854747
 31
0.0
  0
LINE
  5
19C
330
D0
100
AcDbEntity
  8
$DDT_AUDIT_GENERATED_(C2)
  6
Continuous
 62
     7
100
AcDbLine
 10
152.8721328736
 20
494.2374861777
 30
0.0
 11
152.8721328736
 21
494.1069599854
 31
0.0
  0
LINE
  5
19D
330
D0
100
AcDbEntity
  8
$DDT_AUDIT_GENERATED_(C2)
  6
Continuous
 62
     7
100
AcDbLine
 10
153.0721328736
 20
494.2374861777
 30
0.0
 11
154.0721328736
 21
494.2374861777
 31
0.0
  0
LINE
  5
19E
330
D0
100
AcDbEntity
  8
$DDT_AUDIT_GENERATED_(C2)
  6
Continuous
 62
     7
100
AcDbLine
 10
154.0721328736
 20
494.2374861777
 30
0.0
 11
154.0721328736
 21
494.1069599854
 31
0.0
  0
LINE
  5
19F
330
D0
100
AcDbEntity
  8
$DDT_AUDIT_GENERATED_(C2)
  6
Continuous
 62
     7
100
AcDbLine
 10
154.0721328736
 20
494.1069599854
 30
0.0
 11
153.0721328736
 21
494.1069599854
 31
0.0
  0
LINE
  5
1A0
330
D0
100
AcDbEntity
  8
$DDT_AUDIT_GENERATED_(C2)
  6
Continuous
 62
     7
100
AcDbLine
 10
153.0721328736
 20
494.1069599854
 30
0.0
 11
153.0721328736
 21
494.2374861777
 31
0.0
  0
LINE
  5
1A1
330
D0
100
AcDbEntity
  8
$DDT_AUDIT_GENERATED_(C2)
  6
Continuous
 62
     7
100
AcDbLine
 10
154.2721328736
 20
494.2374861777
 30
0.0
 11
155.2721328736
 21
494.2374861777
 31
0.0
  0
LINE
  5
1A2
330
D0
100
AcDbEntity
  8
$DDT_AUDIT_GENERATED_(C2)
  6
Continuous
 62
     7
100
AcDbLine
 10
155.2721328736
 20
494.2374861777
 30
0.0
 11
155.2721328736
 21
494.1069599854
 31
0.0
  0
LINE
  5
1A3
330
D0
100
AcDbEntity
  8
$DDT_AUDIT_GENERATED_(C2)
  6
Continuous
 62
     7
100
AcDbLine
 10
155.2721328736
 20
494.1069599854
 30
0.0
 11
154.2721328736
 21
494.1069599854
 31
0.0
  0
LINE
  5
1A4
330
D0
100
AcDbEntity
  8
$DDT_AUDIT_GENERATED_(C2)
  6
Continuous
 62
     7
100
AcDbLine
 10
154.2721328736
 20
494.1069599854
 30
0.0
 11
154.2721328736
 21
494.2374861777
 31
0.0
  0
LINE
  5
1A5
330
D0
100
AcDbEntity
  8
$DDT_AUDIT_GENERATED_(C2)
  6
Continuous
 62
     7
100
AcDbLine
 10
155.4721328736
 20
494.2374861777
 30
0.0
 11
156.4721328736
 21
494.2374861777
 31
0.0
  0
LINE
  5
1A6
330
D0
100
AcDbEntity
  8
$DDT_AUDIT_GENERATED_(C2)
  6
Continuous
 62
     7
100
AcDbLine
 10
156.4721328736
 20
494.2374861777
 30
0.0
 11
156.4721328736
 21
494.1069599854
 31
0.0
  0
LINE
  5
1A7
330
D0
100
AcDbEntity
  8
$DDT_AUDIT_GENERATED_(C2)
  6
Continuous
 62
     7
100
AcDbLine
 10
156.4721328736
 20
494.1069599854
 30
0.0
 11
155.4721328736
 21
494.1069599854
 31
0.0
  0
LINE
  5
1A8
330
D0
100
AcDbEntity
  8
$DDT_AUDIT_GENERATED_(C2)
  6
Continuous
 62
     7
100
AcDbLine
 10
155.4721328736
 20
494.1069599854
 30
0.0
 11
155.4721328736
 21
494.2374861777
 31
0.0
  0
LINE
  5
1A9
330
D0
100
AcDbEntity
  8
$DDT_AUDIT_GENERATED_(C2)
  6
Continuous
 62
     7
100
AcDbLine
 10
156.6721328736
 20
494.2374861777
 30
0.0
 11
157.6721328736
 21
494.2374861777
 31
0.0
  0
LINE
  5
1AA
330
D0
100
AcDbEntity
  8
$DDT_AUDIT_GENERATED_(C2)
  6
Continuous
 62
     7
100
AcDbLine
 10
157.6721328736
 20
494.2374861777
 30
0.0
 11
157.6721328736
 21
494.1069599854
 31
0.0
  0
LINE
  5
1AB
330
D0
100
AcDbEntity
  8
$DDT_AUDIT_GENERATED_(C2)
  6
Continuous
 62
     7
100
AcDbLine
 10
157.6721328736
 20
494.1069599854
 30
0.0
 11
156.6721328736
 21
494.1069599854
 31
0.0
  0
LINE
  5
1AC
330
D0
100
AcDbEntity
  8
$DDT_AUDIT_GENERATED_(C2)
  6
Continuous
 62
     7
100
AcDbLine
 10
156.6721328736
 20
494.1069599854
 30
0.0
 11
156.6721328736
 21
494.2374861777
 31
0.0
  0
LINE
  5
1AD
330
D0
100
AcDbEntity
  8
$DDT_AUDIT_GENERATED_(C2)
  6
Continuous
 62
     7
100
AcDbLine
 10
157.8721328736
 20
494.2374861777
 30
0.0
 11
158.8546746492
 21
494.2374861777
 31
0.0
  0
LINE
  5
1AE
330
D0
100
AcDbEntity
  8
$DDT_AUDIT_GENERATED_(C2)
  6
Continuous
 62
     7
100
AcDbLine
 10
158.8721328736
 20
494.2347906184
 30
0.0
 11
158.8721328736
 21
494.1069599854
 31
0.0
  0
LINE
  5
1AF
330
D0
100
AcDbEntity
  8
$DDT_AUDIT_GENERATED_(C2)
  6
Continuous
 62
     7
100
AcDbLine
 10
158.8721328736
 20
494.1069599854
 30
0.0
 11
157.8721328736
 21
494.1069599854
 31
0.0
  0
LINE
  5
1B0
330
D0
100
AcDbEntity
  8
$DDT_AUDIT_GENERATED_(C2)
  6
Continuous
 62
     7
100
AcDbLine
 10
157.8721328736
 20
494.1069599854
 30
0.0
 11
157.8721328736
 21
494.2374861777
 31
0.0
  0
LINE
  5
1B1
330
D0
100
AcDbEntity
  8
$DDT_AUDIT_GENERATED_(C2)
  6
Continuous
 62
     7
100
AcDbLine
 10
159.5845597873
 20
494.1069599854
 30
0.0
 11
159.0721328736
 21
494.1069599854
 31
0.0
  0
LINE
  5
1B2
330
D0
100
AcDbEntity
  8
$DDT_AUDIT_GENERATED_(C2)
  6
Continuous
 62
     7
100
AcDbLine
 10
159.0721328736
 20
494.1069599854
 30
0.0
 11
159.0721328736
 21
494.2026097978
 31
0.0
  0
LINE
  5
1B3
330
D0
100
AcDbEntity
  8
$DDT_AUDIT_GENERATED_(C2)
  6
Continuous
 62
     7
100
AcDbLine
 10
152.8721328736
 20
494.3941176083
 30
0.0
 11
152.8721328736
 21
494.2635914161
 31
0.0
  0
LINE
  5
1B4
330
D0
100
AcDbEntity
  8
$DDT_AUDIT_GENERATED_(C2)
  6
Continuous
 62
     7
100
AcDbLine
 10
153.0721328736
 20
494.3941176083
 30
0.0
 11
154.0721328736
 21
494.3941176083
 31
0.0
  0
LINE
  5
1B5
330
D0
100
AcDbEntity
  8
$DDT_AUDIT_GENERATED_(C2)
  6
Continuous
 62
     7
100
AcDbLine
 10
154.0721328736
 20
494.3941176083
 30
0.0
 11
154.0721328736
 21
494.2635914161
 31
0.0
  0
LINE
  5
1B6
330
D0
100
AcDbEntity
  8
$DDT_AUDIT_GENERATED_(C2)
  6
Continuous
 62
     7
100
AcDbLine
 10
154.0721328736
 20
494.2635914161
 30
0.0
 11
153.0721328736
 21
494.2635914161
 31
0.0
  0
LINE
  5
1B7
330
D0
100
AcDbEntity
  8
$DDT_AUDIT_GENERATED_(C2)
  6
Continuous
 62
     7
100
AcDbLine
 10
153.0721328736
 20
494.2635914161
 30
0.0
 11
153.0721328736
 21
494.3941176083
 31
0.0
  0
LINE
  5
1B8
330
D0
100
AcDbEntity
  8
$DDT_AUDIT_GENERATED_(C2)
  6
Continuous
 62
     7
100
AcDbLine
 10
154.2721328736
 20
494.3941176083
 30
0.0
 11
155.2721328736
 21
494.3941176083
 31
0.0
  0
LINE
  5
1B9
330
D0
100
AcDbEntity
  8
$DDT_AUDIT_GENERATED_(C2)
  6
Continuous
 62
     7
100
AcDbLine
 10
155.2721328736
 20
494.3941176083
 30
0.0
 11
155.2721328736
 21
494.2635914161
 31
0.0
  0
LINE
  5
1BA
330
D0
100
AcDbEntity
  8
$DDT_AUDIT_GENERATED_(C2)
  6
Continuous
 62
     7
100
AcDbLine
 10
155.2721328736
 20
494.2635914161
 30
0.0
 11
154.2721328736
 21
494.2635914161
 31
0.0
  0
LINE
  5
1BB
330
D0
100
AcDbEntity
  8
$DDT_AUDIT_GENERATED_(C2)
  6
Continuous
 62
     7
100
AcDbLine
 10
154.2721328736
 20
494.2635914161
 30
0.0
 11
154.2721328736
 21
494.3941176083
 31
0.0
  0
LINE
  5
1BC
330
D0
100
AcDbEntity
  8
$DDT_AUDIT_GENERATED_(C2)
  6
Continuous
 62
     7
100
AcDbLine
 10
155.4721328736
 20
494.3941176083
 30
0.0
 11
156.4721328736
 21
494.3941176083
 31
0.0
  0
LINE
  5
1BD
330
D0
100
AcDbEntity
  8
$DDT_AUDIT_GENERATED_(C2)
  6
Continuous
 62
     7
100
AcDbLine
 10
156.4721328736
 20
494.3941176083
 30
0.0
 11
156.4721328736
 21
494.2635914161
 31
0.0
  0
LINE
  5
1BE
330
D0
100
AcDbEntity
  8
$DDT_AUDIT_GENERATED_(C2)
  6
Continuous
 62
     7
100
AcDbLine
 10
156.4721328736
 20
494.2635914161
 30
0.0
 11
155.4721328736
 21
494.2635914161
 31
0.0
  0
LINE
  5
1BF
330
D0
100
AcDbEntity
  8
$DDT_AUDIT_GENERATED_(C2)
  6
Continuous
 62
     7
100
AcDbLine
 10
155.4721328736
 20
494.2635914161
 30
0.0
 11
155.4721328736
 21
494.3941176083
 31
0.0
  0
LINE
  5
1C0
330
D0
100
AcDbEntity
  8
$DDT_AUDIT_GENERATED_(C2)
  6
Continuous
 62
     7
100
AcDbLine
 10
156.6721328736
 20
494.3941176083
 30
0.0
 11
157.6055297568
 21
494.3941176083
 31
0.0
  0
LINE
  5
1C1
330
D0
100
AcDbEntity
  8
$DDT_AUDIT_GENERATED_(C2)
  6
Continuous
 62
     7
100
AcDbLine
 10
157.6721328736
 20
494.3872548066
 30
0.0
 11
157.6721328736
 21
494.2635914161
 31
0.0
  0
LINE
  5
1C2
330
D0
100
AcDbEntity
  8
$DDT_AUDIT_GENERATED_(C2)
  6
Continuous
 62
     7
100
AcDbLine
 10
157.6721328736
 20
494.2635914161
 30
0.0
 11
156.6721328736
 21
494.2635914161
 31
0.0
  0
LINE
  5
1C3
330
D0
100
AcDbEntity
  8
$DDT_AUDIT_GENERATED_(C2)
  6
Continuous
 62
     7
100
AcDbLine
 10
156.6721328736
 20
494.2635914161
 30
0.0
 11
156.6721328736
 21
494.3941176083
 31
0.0
  0
LINE
  5
1C4
330
D0
100
AcDbEntity
  8
$DDT_AUDIT_GENERATED_(C2)
  6
Continuous
 62
     7
100
AcDbLine
 10
158.6796043995
 20
494.2635914161
 30
0.0
 11
157.8721328736
 21
494.2635914161
 31
0.0
  0
LINE
  5
1C5
330
D0
100
AcDbEntity
  8
$DDT_AUDIT_GENERATED_(C2)
  6
Continuous
 62
     7
100
AcDbLine
 10
157.8721328736
 20
494.2635914161
 30
0.0
 11
157.8721328736
 21
494.3657756263
 31
0.0
  0
LINE
  5
1C6
330
D0
100
AcDbEntity
  8
$DDT_AUDIT_GENERATED_(C2)
  6
Continuous
 62
     7
100
AcDbLine
 10
152.8721328736
 20
494.550749039
 30
0.0
 11
152.8721328736
 21
494.4202228468
 31
0.0
  0
LINE
  5
1C7
330
D0
100
AcDbEntity
  8
$DDT_AUDIT_GENERATED_(C2)
  6
Continuous
 62
     7
100
AcDbLine
 10
153.0721328736
 20
494.550749039
 30
0.0
 11
154.0721328736
 21
494.550749039
 31
0.0
  0
LINE
  5
1C8
330
D0
100
AcDbEntity
  8
$DDT_AUDIT_GENERATED_(C2)
  6
Continuous
 62
     7
100
AcDbLine
 10
154.0721328736
 20
494.550749039
 30
0.0
 11
154.0721328736
 21
494.4202228468
 31
0.0
  0
LINE
  5
1C9
330
D0
100
AcDbEntity
  8
$DDT_AUDIT_GENERATED_(C2)
  6
Continuous
 62
     7
100
AcDbLine
 10
154.0721328736
 20
494.4202228468
 30
0.0
 11
153.0721328736
 21
494.4202228468
 31
0.0
  0
LINE
  5
1CA
330
D0
100
AcDbEntity
  8
$DDT_AUDIT_GENERATED_(C2)
  6
Continuous
 62
     7
100
AcDbLine
 10
153.0721328736
 20
494.4202228468
 30
0.0
 11
153.0721328736
 21
494.550749039
 31
0.0
  0
LINE
  5
1CB
330
D0
100
AcDbEntity
  8
$DDT_AUDIT_GENERATED_(C2)
  6
Continuous
 62
     7
100
AcDbLine
 10
154.2721328736
 20
494.550749039
 30
0.0
 11
155.2721328736
 21
494.550749039
 31
0.0
  0
LINE
  5
1CC
330
D0
100
AcDbEntity
  8
$DDT_AUDIT_GENERATED_(C2)
  6
Continuous
 62
     7
100
AcDbLine
 10
155.2721328736
 20
494.550749039
 30
0.0
 11
155.2721328736
 21
494.4202228468
 31
0.0
  0
LINE
  5
1CD
330
D0
100
AcDbEntity
  8
$DDT_AUDIT_GENERATED_(C2)
  6
Continuous
 62
     7
100
AcDbLine
 10
155.2721328736
 20
494.4202228468
 30
0.0
 11
154.2721328736
 21
494.4202228468
 31
0.0
  0
LINE
  5
1CE
330
D0
100
AcDbEntity
  8
$DDT_AUDIT_GENERATED_(C2)
  6
Continuous
 62
     7
100
AcDbLine
 10
154.2721328736
 20
494.4202228468
 30
0.0
 11
154.2721328736
 21
494.550749039
 31
0.0
  0
LINE
  5
1CF
330
D0
100
AcDbEntity
  8
$DDT_AUDIT_GENERATED_(C2)
  6
Continuous
 62
     7
100
AcDbLine
 10
155.4721328736
 20
494.550749039
 30
0.0
 11
155.5143515167
 21
494.550749039
 31
0.0
  0
LINE
  5
1D0
330
D0
100
AcDbEntity
  8
$DDT_AUDIT_GENERATED_(C2)
  6
Continuous
 62
     7
100
AcDbLine
 10
156.4721328736
 20
494.4917416888
 30
0.0
 11
156.4721328736
 21
494.4202228468
 31
0.0
  0
LINE
  5
1D1
330
D0
100
AcDbEntity
  8
$DDT_AUDIT_GENERATED_(C2)
  6
Continuous
 62
     7
100
AcDbLine
 10
156.4721328736
 20
494.4202228468
 30
0.0
 11
155.4721328736
 21
494.4202228468
 31
0.0
  0
LINE
  5
1D2
330
D0
100
AcDbEntity
  8
$DDT_AUDIT_GENERATED_(C2)
  6
Continuous
 62
     7
100
AcDbLine
 10
155.4721328736
 20
494.4202228468
 30
0.0
 11
155.4721328736
 21
494.550749039
 31
0.0
  0
LINE
  5
1D3
330
D0
100
AcDbEntity
  8
$DDT_AUDIT_GENERATED_(C2)
  6
Continuous
 62
     7
100
AcDbLine
 10
157.3389519879
 20
494.4202228468
 30
0.0
 11
156.6721328736
 21
494.4202228468
 31
0.0
  0
LINE
  5
1D4
330
D0
100
AcDbEntity
  8
$DDT_AUDIT_GENERATED_(C2)
  6
Continuous
 62
     7
100
AcDbLine
 10
156.6721328736
 20
494.4202228468
 30
0.0
 11
156.6721328736
 21
494.4769030698
 31
0.0
  0
LINE
  5
1D5
330
D0
100
AcDbEntity
  8
$DDT_AUDIT_GENERATED_(C2)
  6
Continuous
 62
     7
100
AcDbLine
 10
152.8721328736
 20
494.6274206879
 30
0.0
 11
152.8721328736
 21
494.5768542774
 31
0.0
  0
LINE
  5
1D6
330
D0
100
AcDbEntity
  8
$DDT_AUDIT_GENERATED_(C2)
  6
Continuous
 62
     7
100
AcDbLine
 10
154.0721328736
 20
494.6069259548
 30
0.0
 11
154.0721328736
 21
494.5768542774
 31
0.0
  0
LINE
  5
1D7
330
D0
100
AcDbEntity
  8
$DDT_AUDIT_GENERATED_(C2)
  6
Continuous
 62
     7
100
AcDbLine
 10
154.0721328736
 20
494.5768542774
 30
0.0
 11
153.0721328736
 21
494.5768542774
 31
0.0
  0
LINE
  5
1D8
330
D0
100
AcDbEntity
  8
$DDT_AUDIT_GENERATED_(C2)
  6
Continuous
 62
     7
100
AcDbLine
 10
153.0721328736
 20
494.5768542774
 30
0.0
 11
153.0721328736
 21
494.6255732279
 31
0.0
  0
LINE
  5
1D9
330
D0
100
AcDbEntity
  8
$DDT_AUDIT_GENERATED_(C2)
  6
Continuous
 62
     7
100
AcDbLine
 10
154.9556164092
 20
494.5768542774
 30
0.0
 11
154.2721328736
 21
494.5768542774
 31
0.0
  0
LINE
  5
1DA
330
D0
100
AcDbEntity
  8
$DDT_AUDIT_GENERATED_(C2)
  6
Continuous
 62
     7
100
AcDbLine
 10
154.2721328736
 20
494.5768542774
 30
0.0
 11
154.2721328736
 21
494.601269073
 31
0.0
  0
LINE
  5
1DB
330
D0
100
AcDbEntity
  8
$DDT_AUDIT_GENERATED_(C2)
  6
Continuous
 62
     7
100
AcDbLine
 10
152.8721328736
 20
494.080854747
 30
0.0
 11
152.8721328736
 21
493.9503285548
 31
0.0
  0
LINE
  5
1DC
330
D0
100
AcDbEntity
  8
$DDT_AUDIT_GENERATED_(C2)
  6
Continuous
 62
     7
100
AcDbLine
 10
152.8721328736
 20
493.9242233163
 30
0.0
 11
152.8721328736
 21
493.7936971241
 31
0.0
  0
LINE
  5
1DD
330
D0
100
AcDbEntity
  8
$DDT_AUDIT_GENERATED_(C2)
  6
Continuous
 62
     7
100
AcDbLine
 10
152.8721328736
 20
493.7936971241
 30
0.0
 11
151.8721328736
 21
493.7936971241
 31
0.0
  0
LINE
  5
1DE
330
D0
100
AcDbEntity
  8
$DDT_AUDIT_GENERATED_(C2)
  6
Continuous
 62
     7
100
AcDbLine
 10
151.8721328736
 20
493.9242233163
 30
0.0
 11
152.8721328736
 21
493.9242233163
 31
0.0
  0
LINE
  5
1DF
330
D0
100
AcDbEntity
  8
$DDT_AUDIT_GENERATED_(C2)
  6
Continuous
 62
     7
100
AcDbLine
 10
152.8721328736
 20
493.7675918857
 30
0.0
 11
152.8721328736
 21
493.6370656935
 31
0.0
  0
LINE
  5
1E0
330
D0
100
AcDbEntity
  8
$DDT_AUDIT_GENERATED_(C2)
  6
Continuous
 62
     7
100
AcDbLine
 10
152.8721328736
 20
493.6370656935
 30
0.0
 11
151.8721328736
 21
493.6370656935
 31
0.0
  0
LINE
  5
1E1
330
D0
100
AcDbEntity
  8
$DDT_AUDIT_GENERATED_(C2)
  6
Continuous
 62
     7
100
AcDbLine
 10
151.8721328736
 20
493.7675918857
 30
0.0
 11
152.8721328736
 21
493.7675918857
 31
0.0
  0
LINE
  5
1E2
330
D0
100
AcDbEntity
  8
$DDT_AUDIT_GENERATED_(C2)
  6
Continuous
 62
     7
100
AcDbLine
 10
152.8721328736
 20
493.610960455
 30
0.0
 11
152.8721328736
 21
493.4804342628
 31
0.0
  0
LINE
  5
1E3
330
D0
100
AcDbEntity
  8
$DDT_AUDIT_GENERATED_(C2)
  6
Continuous
 62
     7
100
AcDbLine
 10
152.8721328736
 20
493.4804342628
 30
0.0
 11
151.8721328736
 21
493.4804342628
 31
0.0
  0
LINE
  5
1E4
330
D0
100
AcDbEntity
  8
$DDT_AUDIT_GENERATED_(C2)
  6
Continuous
 62
     7
100
AcDbLine
 10
151.8721328736
 20
493.610960455
 30
0.0
 11
152.8721328736
 21
493.610960455
 31
0.0
  0
LINE
  5
1E5
330
D0
100
AcDbEntity
  8
$DDT_AUDIT_GENERATED_(C2)
  6
Continuous
 62
     7
100
AcDbLine
 10
152.8721328736
 20
493.4543290244
 30
0.0
 11
152.8721328736
 21
493.3238028321
 31
0.0
  0
LINE
  5
1E6
330
D0
100
AcDbEntity
  8
$DDT_AUDIT_GENERATED_(C2)
  6
Continuous
 62
     7
100
AcDbLine
 10
152.8721328736
 20
493.3238028321
 30
0.0
 11
151.8721328736
 21
493.3238028321
 31
0.0
  0
LINE
  5
1E7
330
D0
100
AcDbEntity
  8
$DDT_AUDIT_GENERATED_(C2)
  6
Continuous
 62
     7
100
AcDbLine
 10
151.8721328736
 20
493.4543290244
 30
0.0
 11
152.8721328736
 21
493.4543290244
 31
0.0
  0
LINE
  5
1E8
330
D0
100
AcDbEntity
  8
$DDT_AUDIT_GENERATED_(C2)
  6
Continuous
 62
     7
100
AcDbLine
 10
152.8721328736
 20
493.2976975937
 30
0.0
 11
152.8721328736
 21
493.1671714015
 31
0.0
  0
LINE
  5
1E9
330
D0
100
AcDbEntity
  8
$DDT_AUDIT_GENERATED_(C2)
  6
Continuous
 62
     7
100
AcDbLine
 10
152.8721328736
 20
493.1671714015
 30
0.0
 11
151.8721328736
 21
493.1671714015
 31
0.0
  0
LINE
  5
1EA
330
D0
100
AcDbEntity
  8
$DDT_AUDIT_GENERATED_(C2)
  6
Continuous
 62
     7
100
AcDbLine
 10
151.8721328736
 20
493.2976975937
 30
0.0
 11
152.8721328736
 21
493.2976975937
 31
0.0
  0
LINE
  5
1EB
330
D0
100
AcDbEntity
  8
$DDT_AUDIT_GENERATED_(C2)
  6
Continuous
 62
     7
100
AcDbLine
 10
152.8721328736
 20
493.141066163
 30
0.0
 11
152.8721328736
 21
493.0105399708
 31
0.0
  0
LINE
  5
1EC
330
D0
100
AcDbEntity
  8
$DDT_AUDIT_GENERATED_(C2)
  6
Continuous
 62
     7
100
AcDbLine
 10
152.8721328736
 20
493.0105399708
 30
0.0
 11
151.8721328736
 21
493.0105399708
 31
0.0
  0
LINE
  5
1ED
330
D0
100
AcDbEntity
  8
$DDT_AUDIT_GENERATED_(C2)
  6
Continuous
 62
     7
100
AcDbLine
 10
151.8721328736
 20
493.141066163
 30
0.0
 11
152.8721328736
 21
493.141066163
 31
0.0
  0
LINE
  5
1EE
330
D0
100
AcDbEntity
  8
$DDT_AUDIT_GENERATED_(C2)
  6
Continuous
 62
     7
100
AcDbLine
 10
154.0721328736
 20
493.9503285548
 30
0.0
 11
153.0721328736
 21
493.9503285548
 31
0.0
  0
LINE
  5
1EF
330
D0
100
AcDbEntity
  8
$DDT_AUDIT_GENERATED_(C2)
  6
Continuous
 62
     7
100
AcDbLine
 10
154.0721328736
 20
493.9242233163
 30
0.0
 11
154.0721328736
 21
493.7936971241
 31
0.0
  0
LINE
  5
1F0
330
D0
100
AcDbEntity
  8
$DDT_AUDIT_GENERATED_(C2)
  6
Continuous
 62
     7
100
AcDbLine
 10
154.0721328736
 20
493.7936971241
 30
0.0
 11
153.0721328736
 21
493.7936971241
 31
0.0
  0
LINE
  5
1F1
330
D0
100
AcDbEntity
  8
$DDT_AUDIT_GENERATED_(C2)
  6
Continuous
 62
     7
100
AcDbLine
 10
153.0721328736
 20
493.7936971241
 30
0.0
 11
153.0721328736
 21
493.9242233163
 31
0.0
  0
LINE
  5
1F2
330
D0
100
AcDbEntity
  8
$DDT_AUDIT_GENERATED_(C2)
  6
Continuous
 62
     7
100
AcDbLine
 10
153.0721328736
 20
493.9242233163
 30
0.0
 11
154.0721328736
 21
493.9242233163
 31
0.0
  0
LINE
  5
1F3
330
D0
100
AcDbEntity
  8
$DDT_AUDIT_GENERATED_(C2)
  6
Continuous
 62
     7
100
AcDbLine
 10
154.0721328736
 20
493.7675918857
 30
0.0
 11
154.0721328736
 21
493.6370656935
 31
0.0
  0
LINE
  5
1F4
330
D0
100
AcDbEntity
  8
$DDT_AUDIT_GENERATED_(C2)
  6
Continuous
 62
     7
100
AcDbLine
 10
154.0721328736
 20
493.6370656935
 30
0.0
 11
153.0721328736
 21
493.6370656935
 31
0.0
  0
LINE
  5
1F5
330
D0
100
AcDbEntity
  8
$DDT_AUDIT_GENERATED_(C2)
  6
Continuous
 62
     7
100
AcDbLine
 10
153.0721328736
 20
493.6370656935
 30
0.0
 11
153.0721328736
 21
493.7675918857
 31
0.0
  0
LINE
  5
1F6
330
D0
100
AcDbEntity
  8
$DDT_AUDIT_GENERATED_(C2)
  6
Continuous
 62
     7
100
AcDbLine
 10
153.0721328736
 20
493.7675918857
 30
0.0
 11
154.0721328736
 21
493.7675918857
 31
0.0
  0
LINE
  5
1F7
330
D0
100
AcDbEntity
  8
$DDT_AUDIT_GENERATED_(C2)
  6
Continuous
 62
     7
100
AcDbLine
 10
154.0721328736
 20
493.610960455
 30
0.0
 11
154.0721328736
 21
493.4804342628
 31
0.0
  0
LINE
  5
1F8
330
D0
100
AcDbEntity
  8
$DDT_AUDIT_GENERATED_(C2)
  6
Continuous
 62
     7
100
AcDbLine
 10
154.0721328736
 20
493.4804342628
 30
0.0
 11
153.0721328736
 21
493.4804342628
 31
0.0
  0
LINE
  5
1F9
330
D0
100
AcDbEntity
  8
$DDT_AUDIT_GENERATED_(C2)
  6
Continuous
 62
     7
100
AcDbLine
 10
153.0721328736
 20
493.4804342628
 30
0.0
 11
153.0721328736
 21
493.610960455
 31
0.0
  0
LINE
  5
1FA
330
D0
100
AcDbEntity
  8
$DDT_AUDIT_GENERATED_(C2)
  6
Continuous
 62
     7
100
AcDbLine
 10
153.0721328736
 20
493.610960455
 30
0.0
 11
154.0721328736
 21
493.610960455
 31
0.0
  0
LINE
  5
1FB
330
D0
100
AcDbEntity
  8
$DDT_AUDIT_GENERATED_(C2)
  6
Continuous
 62
     7
100
AcDbLine
 10
154.0721328736
 20
493.4543290244
 30
0.0
 11
154.0721328736
 21
493.3238028321
 31
0.0
  0
LINE
  5
1FC
330
D0
100
AcDbEntity
  8
$DDT_AUDIT_GENERATED_(C2)
  6
Continuous
 62
     7
100
AcDbLine
 10
154.0721328736
 20
493.3238028321
 30
0.0
 11
153.0721328736
 21
493.3238028321
 31
0.0
  0
LINE
  5
1FD
330
D0
100
AcDbEntity
  8
$DDT_AUDIT_GENERATED_(C2)
  6
Continuous
 62
     7
100
AcDbLine
 10
153.0721328736
 20
493.3238028321
 30
0.0
 11
153.0721328736
 21
493.4543290244
 31
0.0
  0
LINE
  5
1FE
330
D0
100
AcDbEntity
  8
$DDT_AUDIT_GENERATED_(C2)
  6
Continuous
 62
     7
100
AcDbLine
 10
153.0721328736
 20
493.4543290244
 30
0.0
 11
154.0721328736
 21
493.4543290244
 31
0.0
  0
LINE
  5
1FF
330
D0
100
AcDbEntity
  8
$DDT_AUDIT_GENERATED_(C2)
  6
Continuous
 62
     7
100
AcDbLine
 10
154.0721328736
 20
493.2976975937
 30
0.0
 11
154.0721328736
 21
493.1671714015
 31
0.0
  0
LINE
  5
200
330
D0
100
AcDbEntity
  8
$DDT_AUDIT_GENERATED_(C2)
  6
Continuous
 62
     7
100
AcDbLine
 10
154.0721328736
 20
493.1671714015
 30
0.0
 11
153.0721328736
 21
493.1671714015
 31
0.0
  0
LINE
  5
201
330
D0
100
AcDbEntity
  8
$DDT_AUDIT_GENERATED_(C2)
  6
Continuous
 62
     7
100
AcDbLine
 10
153.0721328736
 20
493.1671714015
 30
0.0
 11
153.0721328736
 21
493.2976975937
 31
0.0
  0
LINE
  5
202
330
D0
100
AcDbEntity
  8
$DDT_AUDIT_GENERATED_(C2)
  6
Continuous
 62
     7
100
AcDbLine
 10
153.0721328736
 20
493.2976975937
 30
0.0
 11
154.0721328736
 21
493.2976975937
 31
0.0
  0
LINE
  5
203
330
D0
100
AcDbEntity
  8
$DDT_AUDIT_GENERATED_(C2)
  6
Continuous
 62
     7
100
AcDbLine
 10
154.0721328736
 20
493.141066163
 30
0.0
 11
154.0721328736
 21
493.0105399708
 31
0.0
  0
LINE
  5
204
330
D0
100
AcDbEntity
  8
$DDT_AUDIT_GENERATED_(C2)
  6
Continuous
 62
     7
100
AcDbLine
 10
154.0721328736
 20
493.0105399708
 30
0.0
 11
153.0721328736
 21
493.0105399708
 31
0.0
  0
LINE
  5
205
330
D0
100
AcDbEntity
  8
$DDT_AUDIT_GENERATED_(C2)
  6
Continuous
 62
     7
100
AcDbLine
 10
153.0721328736
 20
493.0105399708
 30
0.0
 11
153.0721328736
 21
493.141066163
 31
0.0
  0
LINE
  5
206
330
D0
100
AcDbEntity
  8
$DDT_AUDIT_GENERATED_(C2)
  6
Continuous
 62
     7
100
AcDbLine
 10
153.0721328736
 20
493.141066163
 30
0.0
 11
154.0721328736
 21
493.141066163
 31
0.0
  0
LINE
  5
207
330
D0
100
AcDbEntity
  8
$DDT_AUDIT_GENERATED_(C2)
  6
Continuous
 62
     7
100
AcDbLine
 10
155.2721328736
 20
493.9503285548
 30
0.0
 11
154.2721328736
 21
493.9503285548
 31
0.0
  0
LINE
  5
208
330
D0
100
AcDbEntity
  8
$DDT_AUDIT_GENERATED_(C2)
  6
Continuous
 62
     7
100
AcDbLine
 10
155.2721328736
 20
493.9242233163
 30
0.0
 11
155.2721328736
 21
493.7936971241
 31
0.0
  0
LINE
  5
209
330
D0
100
AcDbEntity
  8
$DDT_AUDIT_GENERATED_(C2)
  6
Continuous
 62
     7
100
AcDbLine
 10
155.2721328736
 20
493.7936971241
 30
0.0
 11
154.2721328736
 21
493.7936971241
 31
0.0
  0
LINE
  5
20A
330
D0
100
AcDbEntity
  8
$DDT_AUDIT_GENERATED_(C2)
  6
Continuous
 62
     7
100
AcDbLine
 10
154.2721328736
 20
493.7936971241
 30
0.0
 11
154.2721328736
 21
493.9242233163
 31
0.0
  0
LINE
  5
20B
330
D0
100
AcDbEntity
  8
$DDT_AUDIT_GENERATED_(C2)
  6
Continuous
 62
     7
100
AcDbLine
 10
154.2721328736
 20
493.9242233163
 30
0.0
 11
155.2721328736
 21
493.9242233163
 31
0.0
  0
LINE
  5
20C
330
D0
100
AcDbEntity
  8
$DDT_AUDIT_GENERATED_(C2)
  6
Continuous
 62
     7
100
AcDbLine
 10
155.2721328736
 20
493.7675918857
 30
0.0
 11
155.2721328736
 21
493.6370656935
 31
0.0
  0
LINE
  5
20D
330
D0
100
AcDbEntity
  8
$DDT_AUDIT_GENERATED_(C2)
  6
Continuous
 62
     7
100
AcDbLine
 10
155.2721328736
 20
493.6370656935
 30
0.0
 11
154.2721328736
 21
493.6370656935
 31
0.0
  0
LINE
  5
20E
330
D0
100
AcDbEntity
  8
$DDT_AUDIT_GENERATED_(C2)
  6
Continuous
 62
     7
100
AcDbLine
 10
154.2721328736
 20
493.6370656935
 30
0.0
 11
154.2721328736
 21
493.7675918857
 31
0.0
  0
LINE
  5
20F
330
D0
100
AcDbEntity
  8
$DDT_AUDIT_GENERATED_(C2)
  6
Continuous
 62
     7
100
AcDbLine
 10
154.2721328736
 20
493.7675918857
 30
0.0
 11
155.2721328736
 21
493.7675918857
 31
0.0
  0
LINE
  5
210
330
D0
100
AcDbEntity
  8
$DDT_AUDIT_GENERATED_(C2)
  6
Continuous
 62
     7
100
AcDbLine
 10
155.2721328736
 20
493.610960455
 30
0.0
 11
155.2721328736
 21
493.4804342628
 31
0.0
  0
LINE
  5
211
330
D0
100
AcDbEntity
  8
$DDT_AUDIT_GENERATED_(C2)
  6
Continuous
 62
     7
100
AcDbLine
 10
155.2721328736
 20
493.4804342628
 30
0.0
 11
154.2721328736
 21
493.4804342628
 31
0.0
  0
LINE
  5
212
330
D0
100
AcDbEntity
  8
$DDT_AUDIT_GENERATED_(C2)
  6
Continuous
 62
     7
100
AcDbLine
 10
154.2721328736
 20
493.4804342628
 30
0.0
 11
154.2721328736
 21
493.610960455
 31
0.0
  0
LINE
  5
213
330
D0
100
AcDbEntity
  8
$DDT_AUDIT_GENERATED_(C2)
  6
Continuous
 62
     7
100
AcDbLine
 10
154.2721328736
 20
493.610960455
 30
0.0
 11
155.2721328736
 21
493.610960455
 31
0.0
  0
LINE
  5
214
330
D0
100
AcDbEntity
  8
$DDT_AUDIT_GENERATED_(C2)
  6
Continuous
 62
     7
100
AcDbLine
 10
155.2721328736
 20
493.4543290244
 30
0.0
 11
155.2721328736
 21
493.3238028321
 31
0.0
  0
LINE
  5
215
330
D0
100
AcDbEntity
  8
$DDT_AUDIT_GENERATED_(C2)
  6
Continuous
 62
     7
100
AcDbLine
 10
155.2721328736
 20
493.3238028321
 30
0.0
 11
154.2721328736
 21
493.3238028321
 31
0.0
  0
LINE
  5
216
330
D0
100
AcDbEntity
  8
$DDT_AUDIT_GENERATED_(C2)
  6
Continuous
 62
     7
100
AcDbLine
 10
154.2721328736
 20
493.3238028321
 30
0.0
 11
154.2721328736
 21
493.4543290244
 31
0.0
  0
LINE
  5
217
330
D0
100
AcDbEntity
  8
$DDT_AUDIT_GENERATED_(C2)
  6
Continuous
 62
     7
100
AcDbLine
 10
154.2721328736
 20
493.4543290244
 30
0.0
 11
155.2721328736
 21
493.4543290244
 31
0.0
  0
LINE
  5
218
330
D0
100
AcDbEntity
  8
$DDT_AUDIT_GENERATED_(C2)
  6
Continuous
 62
     7
100
AcDbLine
 10
155.2721328736
 20
493.2976975937
 30
0.0
 11
155.2721328736
 21
493.1671714015
 31
0.0
  0
LINE
  5
219
330
D0
100
AcDbEntity
  8
$DDT_AUDIT_GENERATED_(C2)
  6
Continuous
 62
     7
100
AcDbLine
 10
155.2721328736
 20
493.1671714015
 30
0.0
 11
154.2721328736
 21
493.1671714015
 31
0.0
  0
LINE
  5
21A
330
D0
100
AcDbEntity
  8
$DDT_AUDIT_GENERATED_(C2)
  6
Continuous
 62
     7
100
AcDbLine
 10
154.2721328736
 20
493.1671714015
 30
0.0
 11
154.2721328736
 21
493.2976975937
 31
0.0
  0
LINE
  5
21B
330
D0
100
AcDbEntity
  8
$DDT_AUDIT_GENERATED_(C2)
  6
Continuous
 62
     7
100
AcDbLine
 10
154.2721328736
 20
493.2976975937
 30
0.0
 11
155.2721328736
 21
493.2976975937
 31
0.0
  0
LINE
  5
21C
330
D0
100
AcDbEntity
  8
$DDT_AUDIT_GENERATED_(C2)
  6
Continuous
 62
     7
100
AcDbLine
 10
156.4721328736
 20
493.9503285548
 30
0.0
 11
155.4721328736
 21
493.9503285548
 31
0.0
  0
LINE
  5
21D
330
D0
100
AcDbEntity
  8
$DDT_AUDIT_GENERATED_(C2)
  6
Continuous
 62
     7
100
AcDbLine
 10
156.4721328736
 20
493.9242233163
 30
0.0
 11
156.4721328736
 21
493.7936971241
 31
0.0
  0
LINE
  5
21E
330
D0
100
AcDbEntity
  8
$DDT_AUDIT_GENERATED_(C2)
  6
Continuous
 62
     7
100
AcDbLine
 10
156.4721328736
 20
493.7936971241
 30
0.0
 11
155.4721328736
 21
493.7936971241
 31
0.0
  0
LINE
  5
21F
330
D0
100
AcDbEntity
  8
$DDT_AUDIT_GENERATED_(C2)
  6
Continuous
 62
     7
100
AcDbLine
 10
155.4721328736
 20
493.7936971241
 30
0.0
 11
155.4721328736
 21
493.9242233163
 31
0.0
  0
LINE
  5
220
330
D0
100
AcDbEntity
  8
$DDT_AUDIT_GENERATED_(C2)
  6
Continuous
 62
     7
100
AcDbLine
 10
155.4721328736
 20
493.9242233163
 30
0.0
 11
156.4721328736
 21
493.9242233163
 31
0.0
  0
LINE
  5
221
330
D0
100
AcDbEntity
  8
$DDT_AUDIT_GENERATED_(C2)
  6
Continuous
 62
     7
100
AcDbLine
 10
156.4721328736
 20
493.7675918857
 30
0.0
 11
156.4721328736
 21
493.6370656935
 31
0.0
  0
LINE
  5
222
330
D0
100
AcDbEntity
  8
$DDT_AUDIT_GENERATED_(C2)
  6
Continuous
 62
     7
100
AcDbLine
 10
156.4721328736
 20
493.6370656935
 30
0.0
 11
155.4721328736
 21
493.6370656935
 31
0.0
  0
LINE
  5
223
330
D0
100
AcDbEntity
  8
$DDT_AUDIT_GENERATED_(C2)
  6
Continuous
 62
     7
100
AcDbLine
 10
155.4721328736
 20
493.6370656935
 30
0.0
 11
155.4721328736
 21
493.7675918857
 31
0.0
  0
LINE
  5
224
330
D0
100
AcDbEntity
  8
$DDT_AUDIT_GENERATED_(C2)
  6
Continuous
 62
     7
100
AcDbLine
 10
155.4721328736
 20
493.7675918857
 30
0.0
 11
156.4721328736
 21
493.7675918857
 31
0.0
  0
LINE
  5
225
330
D0
100
AcDbEntity
  8
$DDT_AUDIT_GENERATED_(C2)
  6
Continuous
 62
     7
100
AcDbLine
 10
156.4721328736
 20
493.610960455
 30
0.0
 11
156.4721328736
 21
493.4804342628
 31
0.0
  0
LINE
  5
226
330
D0
100
AcDbEntity
  8
$DDT_AUDIT_GENERATED_(C2)
  6
Continuous
 62
     7
100
AcDbLine
 10
156.4721328736
 20
493.4804342628
 30
0.0
 11
155.4721328736
 21
493.4804342628
 31
0.0
  0
LINE
  5
227
330
D0
100
AcDbEntity
  8
$DDT_AUDIT_GENERATED_(C2)
  6
Continuous
 62
     7
100
AcDbLine
 10
155.4721328736
 20
493.4804342628
 30
0.0
 11
155.4721328736
 21
493.610960455
 31
0.0
  0
LINE
  5
228
330
D0
100
AcDbEntity
  8
$DDT_AUDIT_GENERATED_(C2)
  6
Continuous
 62
     7
100
AcDbLine
 10
155.4721328736
 20
493.610960455
 30
0.0
 11
156.4721328736
 21
493.610960455
 31
0.0
  0
LINE
  5
229
330
D0
100
AcDbEntity
  8
$DDT_AUDIT_GENERATED_(C2)
  6
Continuous
 62
     7
100
AcDbLine
 10
156.4721328736
 20
493.4543290244
 30
0.0
 11
156.4721328736
 21
493.3238028321
 31
0.0
  0
LINE
  5
22A
330
D0
100
AcDbEntity
  8
$DDT_AUDIT_GENERATED_(C2)
  6
Continuous
 62
     7
100
AcDbLine
 10
156.4721328736
 20
493.3238028321
 30
0.0
 11
155.4721328736
 21
493.3238028321
 31
0.0
  0
LINE
  5
22B
330
D0
100
AcDbEntity
  8
$DDT_AUDIT_GENERATED_(C2)
  6
Continuous
 62
     7
100
AcDbLine
 10
155.4721328736
 20
493.3238028321
 30
0.0
 11
155.4721328736
 21
493.4543290244
 31
0.0
  0
LINE
  5
22C
330
D0
100
AcDbEntity
  8
$DDT_AUDIT_GENERATED_(C2)
  6
Continuous
 62
     7
100
AcDbLine
 10
155.4721328736
 20
493.4543290244
 30
0.0
 11
156.4721328736
 21
493.4543290244
 31
0.0
  0
LINE
  5
22D
330
D0
100
AcDbEntity
  8
$DDT_AUDIT_GENERATED_(C2)
  6
Continuous
 62
     7
100
AcDbLine
 10
156.4721328736
 20
493.2976975937
 30
0.0
 11
156.4721328736
 21
493.1671714015
 31
0.0
  0
LINE
  5
22E
330
D0
100
AcDbEntity
  8
$DDT_AUDIT_GENERATED_(C2)
  6
Continuous
 62
     7
100
AcDbLine
 10
156.4721328736
 20
493.1671714015
 30
0.0
 11
155.4721328736
 21
493.1671714015
 31
0.0
  0
LINE
  5
22F
330
D0
100
AcDbEntity
  8
$DDT_AUDIT_GENERATED_(C2)
  6
Continuous
 62
     7
100
AcDbLine
 10
155.4721328736
 20
493.1671714015
 30
0.0
 11
155.4721328736
 21
493.2976975937
 31
0.0
  0
LINE
  5
230
330
D0
100
AcDbEntity
  8
$DDT_AUDIT_GENERATED_(C2)
  6
Continuous
 62
     7
100
AcDbLine
 10
155.4721328736
 20
493.2976975937
 30
0.0
 11
156.4721328736
 21
493.2976975937
 31
0.0
  0
LINE
  5
231
330
D0
100
AcDbEntity
  8
$DDT_AUDIT_GENERATED_(C2)
  6
Continuous
 62
     7
100
AcDbLine
 10
157.6721328736
 20
493.9503285548
 30
0.0
 11
156.6721328736
 21
493.9503285548
 31
0.0
  0
LINE
  5
232
330
D0
100
AcDbEntity
  8
$DDT_AUDIT_GENERATED_(C2)
  6
Continuous
 62
     7
100
AcDbLine
 10
157.6721328736
 20
493.9242233163
 30
0.0
 11
157.6721328736
 21
493.7936971241
 31
0.0
  0
LINE
  5
233
330
D0
100
AcDbEntity
  8
$DDT_AUDIT_GENERATED_(C2)
  6
Continuous
 62
     7
100
AcDbLine
 10
157.6721328736
 20
493.7936971241
 30
0.0
 11
156.6721328736
 21
493.7936971241
 31
0.0
  0
LINE
  5
234
330
D0
100
AcDbEntity
  8
$DDT_AUDIT_GENERATED_(C2)
  6
Continuous
 62
     7
100
AcDbLine
 10
156.6721328736
 20
493.7936971241
 30
0.0
 11
156.6721328736
 21
493.9242233163
 31
0.0
  0
LINE
  5
235
330
D0
100
AcDbEntity
  8
$DDT_AUDIT_GENERATED_(C2)
  6
Continuous
 62
     7
100
AcDbLine
 10
156.6721328736
 20
493.9242233163
 30
0.0
 11
157.6721328736
 21
493.9242233163
 31
0.0
  0
LINE
  5
236
330
D0
100
AcDbEntity
  8
$DDT_AUDIT_GENERATED_(C2)
  6
Continuous
 62
     7
100
AcDbLine
 10
157.6721328736
 20
493.7675918857
 30
0.0
 11
157.6721328736
 21
493.6370656935
 31
0.0
  0
LINE
  5
237
330
D0
100
AcDbEntity
  8
$DDT_AUDIT_GENERATED_(C2)
  6
Continuous
 62
     7
100
AcDbLine
 10
157.6721328736
 20
493.6370656935
 30
0.0
 11
156.6721328736
 21
493.6370656935
 31
0.0
  0
LINE
  5
238
330
D0
100
AcDbEntity
  8
$DDT_AUDIT_GENERATED_(C2)
  6
Continuous
 62
     7
100
AcDbLine
 10
156.6721328736
 20
493.6370656935
 30
0.0
 11
156.6721328736
 21
493.7675918857
 31
0.0
  0
LINE
  5
239
330
D0
100
AcDbEntity
  8
$DDT_AUDIT_GENERATED_(C2)
  6
Continuous
 62
     7
100
AcDbLine
 10
156.6721328736
 20
493.7675918857
 30
0.0
 11
157.6721328736
 21
493.7675918857
 31
0.0
  0
LINE
  5
23A
330
D0
100
AcDbEntity
  8
$DDT_AUDIT_GENERATED_(C2)
  6
Continuous
 62
     7
100
AcDbLine
 10
157.6721328736
 20
493.610960455
 30
0.0
 11
157.6721328736
 21
493.4804342628
 31
0.0
  0
LINE
  5
23B
330
D0
100
AcDbEntity
  8
$DDT_AUDIT_GENERATED_(C2)
  6
Continuous
 62
     7
100
AcDbLine
 10
157.6721328736
 20
493.4804342628
 30
0.0
 11
156.6721328736
 21
493.4804342628
 31
0.0
  0
LINE
  5
23C
330
D0
100
AcDbEntity
  8
$DDT_AUDIT_GENERATED_(C2)
  6
Continuous
 62
     7
100
AcDbLine
 10
156.6721328736
 20
493.4804342628
 30
0.0
 11
156.6721328736
 21
493.610960455
 31
0.0
  0
LINE
  5
23D
330
D0
100
AcDbEntity
  8
$DDT_AUDIT_GENERATED_(C2)
  6
Continuous
 62
     7
100
AcDbLine
 10
156.6721328736
 20
493.610960455
 30
0.0
 11
157.6721328736
 21
493.610960455
 31
0.0
  0
LINE
  5
23E
330
D0
100
AcDbEntity
  8
$DDT_AUDIT_GENERATED_(C2)
  6
Continuous
 62
     7
100
AcDbLine
 10
157.6721328736
 20
493.4543290244
 30
0.0
 11
157.6721328736
 21
493.3238028321
 31
0.0
  0
LINE
  5
23F
330
D0
100
AcDbEntity
  8
$DDT_AUDIT_GENERATED_(C2)
  6
Continuous
 62
     7
100
AcDbLine
 10
157.6721328736
 20
493.3238028321
 30
0.0
 11
156.6721328736
 21
493.3238028321
 31
0.0
  0
LINE
  5
240
330
D0
100
AcDbEntity
  8
$DDT_AUDIT_GENERATED_(C2)
  6
Continuous
 62
     7
100
AcDbLine
 10
156.6721328736
 20
493.3238028321
 30
0.0
 11
156.6721328736
 21
493.4543290244
 31
0.0
  0
LINE
  5
241
330
D0
100
AcDbEntity
  8
$DDT_AUDIT_GENERATED_(C2)
  6
Continuous
 62
     7
100
AcDbLine
 10
156.6721328736
 20
493.4543290244
 30
0.0
 11
157.6721328736
 21
493.4543290244
 31
0.0
  0
LINE
  5
242
330
D0
100
AcDbEntity
  8
$DDT_AUDIT_GENERATED_(C2)
  6
Continuous
 62
     7
100
AcDbLine
 10
158.8721328736
 20
493.9503285548
 30
0.0
 11
157.8721328736
 21
493.9503285548
 31
0.0
  0
LINE
  5
243
330
D0
100
AcDbEntity
  8
$DDT_AUDIT_GENERATED_(C2)
  6
Continuous
 62
     7
100
AcDbLine
 10
158.8721328736
 20
493.9242233163
 30
0.0
 11
158.8721328736
 21
493.7936971241
 31
0.0
  0
LINE
  5
244
330
D0
100
AcDbEntity
  8
$DDT_AUDIT_GENERATED_(C2)
  6
Continuous
 62
     7
100
AcDbLine
 10
158.8721328736
 20
493.7936971241
 30
0.0
 11
157.8721328736
 21
493.7936971241
 31
0.0
  0
LINE
  5
245
330
D0
100
AcDbEntity
  8
$DDT_AUDIT_GENERATED_(C2)
  6
Continuous
 62
     7
100
AcDbLine
 10
157.8721328736
 20
493.7936971241
 30
0.0
 11
157.8721328736
 21
493.9242233163
 31
0.0
  0
LINE
  5
246
330
D0
100
AcDbEntity
  8
$DDT_AUDIT_GENERATED_(C2)
  6
Continuous
 62
     7
100
AcDbLine
 10
157.8721328736
 20
493.9242233163
 30
0.0
 11
158.8721328736
 21
493.9242233163
 31
0.0
  0
LINE
  5
247
330
D0
100
AcDbEntity
  8
$DDT_AUDIT_GENERATED_(C2)
  6
Continuous
 62
     7
100
AcDbLine
 10
158.8721328736
 20
493.7675918857
 30
0.0
 11
158.8721328736
 21
493.6370656935
 31
0.0
  0
LINE
  5
248
330
D0
100
AcDbEntity
  8
$DDT_AUDIT_GENERATED_(C2)
  6
Continuous
 62
     7
100
AcDbLine
 10
158.8721328736
 20
493.6370656935
 30
0.0
 11
157.8721328736
 21
493.6370656935
 31
0.0
  0
LINE
  5
249
330
D0
100
AcDbEntity
  8
$DDT_AUDIT_GENERATED_(C2)
  6
Continuous
 62
     7
100
AcDbLine
 10
157.8721328736
 20
493.6370656935
 30
0.0
 11
157.8721328736
 21
493.7675918857
 31
0.0
  0
LINE
  5
24A
330
D0
100
AcDbEntity
  8
$DDT_AUDIT_GENERATED_(C2)
  6
Continuous
 62
     7
100
AcDbLine
 10
157.8721328736
 20
493.7675918857
 30
0.0
 11
158.8721328736
 21
493.7675918857
 31
0.0
  0
LINE
  5
24B
330
D0
100
AcDbEntity
  8
$DDT_AUDIT_GENERATED_(C2)
  6
Continuous
 62
     7
100
AcDbLine
 10
158.8721328736
 20
493.610960455
 30
0.0
 11
158.8721328736
 21
493.4804342628
 31
0.0
  0
LINE
  5
24C
330
D0
100
AcDbEntity
  8
$DDT_AUDIT_GENERATED_(C2)
  6
Continuous
 62
     7
100
AcDbLine
 10
158.8721328736
 20
493.4804342628
 30
0.0
 11
157.8721328736
 21
493.4804342628
 31
0.0
  0
LINE
  5
24D
330
D0
100
AcDbEntity
  8
$DDT_AUDIT_GENERATED_(C2)
  6
Continuous
 62
     7
100
AcDbLine
 10
157.8721328736
 20
493.4804342628
 30
0.0
 11
157.8721328736
 21
493.610960455
 31
0.0
  0
LINE
  5
24E
330
D0
100
AcDbEntity
  8
$DDT_AUDIT_GENERATED_(C2)
  6
Continuous
 62
     7
100
AcDbLine
 10
157.8721328736
 20
493.610960455
 30
0.0
 11
158.8721328736
 21
493.610960455
 31
0.0
  0
LINE
  5
24F
330
D0
100
AcDbEntity
  8
$DDT_AUDIT_GENERATED_(C2)
  6
Continuous
 62
     7
100
AcDbLine
 10
160.0721328736
 20
493.9503285548
 30
0.0
 11
159.0721328736
 21
493.9503285548
 31
0.0
  0
LINE
  5
250
330
D0
100
AcDbEntity
  8
$DDT_AUDIT_GENERATED_(C2)
  6
Continuous
 62
     7
100
AcDbLine
 10
160.0721328736
 20
493.9242233163
 30
0.0
 11
160.0721328736
 21
493.7936971241
 31
0.0
  0
LINE
  5
251
330
D0
100
AcDbEntity
  8
$DDT_AUDIT_GENERATED_(C2)
  6
Continuous
 62
     7
100
AcDbLine
 10
160.0721328736
 20
493.7936971241
 30
0.0
 11
159.0721328736
 21
493.7936971241
 31
0.0
  0
LINE
  5
252
330
D0
100
AcDbEntity
  8
$DDT_AUDIT_GENERATED_(C2)
  6
Continuous
 62
     7
100
AcDbLine
 10
159.0721328736
 20
493.7936971241
 30
0.0
 11
159.0721328736
 21
493.9242233163
 31
0.0
  0
LINE
  5
253
330
D0
100
AcDbEntity
  8
$DDT_AUDIT_GENERATED_(C2)
  6
Continuous
 62
     7
100
AcDbLine
 10
159.0721328736
 20
493.9242233163
 30
0.0
 11
160.0721328736
 21
493.9242233163
 31
0.0
  0
LINE
  5
254
330
D0
100
AcDbEntity
  8
$DDT_AUDIT_GENERATED_(C2)
  6
Continuous
 62
     7
100
AcDbLine
 10
160.0721328736
 20
493.7675918857
 30
0.0
 11
160.0721328736
 21
493.6370656935
 31
0.0
  0
LINE
  5
255
330
D0
100
AcDbEntity
  8
$DDT_AUDIT_GENERATED_(C2)
  6
Continuous
 62
     7
100
AcDbLine
 10
160.0721328736
 20
493.6370656935
 30
0.0
 11
159.0721328736
 21
493.6370656935
 31
0.0
  0
LINE
  5
256
330
D0
100
AcDbEntity
  8
$DDT_AUDIT_GENERATED_(C2)
  6
Continuous
 62
     7
100
AcDbLine
 10
159.0721328736
 20
493.6370656935
 30
0.0
 11
159.0721328736
 21
493.7675918857
 31
0.0
  0
LINE
  5
257
330
D0
100
AcDbEntity
  8
$DDT_AUDIT_GENERATED_(C2)
  6
Continuous
 62
     7
100
AcDbLine
 10
159.0721328736
 20
493.7675918857
 30
0.0
 11
160.0721328736
 21
493.7675918857
 31
0.0
  0
ELLIPSE
  5
258
330
D0
100
AcDbEntity
  8
$DDT_AUDIT_GENERATED_(C2)
  6
Continuous
 62
     7
100
AcDbEllipse
 10
152.3721328739
 20
494.0155916509
 30
0.0
 11
8.249999999789173
 21
3.816391647148976E-12
 31
0.0
210
0.0
220
0.0
230
1.0
 40
0.1305261922
 41
-0.2075474504858583
 42
-0.1640860757490774
  0
LINE
  5
259
330
D0
100
AcDbEntity
  8
$DDT_AUDIT_GENERATED_(C2)
  6
Continuous
 62
     7
100
AcDbLine
 10
160.4450815295
 20
493.7936971241
 30
0.0
 11
160.4450815295
 21
493.8671155049
 31
0.0
  0
LINE
  5
25A
330
D0
100
AcDbEntity
  8
$DDT_AUDIT_GENERATED_(C2)
  6
Continuous
 62
     7
100
AcDbLine
 10
160.4450815295
 20
493.7936971241
 30
0.0
 11
160.2721328736
 21
493.7936971241
 31
0.0
  0
LINE
  5
25B
330
D0
100
AcDbEntity
  8
$DDT_AUDIT_GENERATED_(C2)
  6
Continuous
 62
     7
100
AcDbLine
 10
160.2721328736
 20
493.7936971241
 30
0.0
 11
160.2721328736
 21
493.9242233163
 31
0.0
  0
LINE
  5
25C
330
D0
100
AcDbEntity
  8
$DDT_AUDIT_GENERATED_(C2)
  6
Continuous
 62
     7
100
AcDbLine
 10
160.2721328736
 20
493.9242233163
 30
0.0
 11
160.2875076432
 21
493.9242233163
 31
0.0
  0
ELLIPSE
  5
25D
330
D0
100
AcDbEntity
  8
$DDT_AUDIT_GENERATED_(C2)
  6
Continuous
 62
     7
100
AcDbEllipse
 10
152.3721328753
 20
494.0155916508
 30
0.0
 11
8.249999998297833
 21
5.211109321834329E-11
 31
0.0
210
0.0
220
0.0
230
1.0
 40
0.1305261922
 41
-0.2923273931842498
 42
-0.2323890725057263
  0
LINE
  5
25E
330
D0
100
AcDbEntity
  8
$DDT_AUDIT_GENERATED_(C2)
  6
Continuous
 62
     7
100
AcDbLine
 10
160.2721328736
 20
493.7052658005
 30
0.0
 11
160.2721328736
 21
493.7675918857
 31
0.0
  0
LINE
  5
25F
330
D0
100
AcDbEntity
  8
$DDT_AUDIT_GENERATED_(C2)
  6
Continuous
 62
     7
100
AcDbLine
 10
160.2721328736
 20
493.7675918857
 30
0.0
 11
160.4003643103
 21
493.7675918857
 31
0.0
  0
ELLIPSE
  5
260
330
D0
100
AcDbEntity
  8
$DDT_AUDIT_GENERATED_(C2)
  6
Continuous
 62
     7
100
AcDbEllipse
 10
152.3721328733
 20
494.0155916509
 30
0.0
 11
8.250000000352845
 21
-1.897093593328236E-11
 31
0.0
210
0.0
220
0.0
230
1.0
 40
0.1305261922
 41
-0.5201032032531563
 42
-0.3852141216541609
  0
LINE
  5
261
330
D0
100
AcDbEntity
  8
$DDT_AUDIT_GENERATED_(C2)
  6
Continuous
 62
     7
100
AcDbLine
 10
159.5312180107
 20
493.4804342628
 30
0.0
 11
159.5312180107
 21
493.610960455
 31
0.0
  0
LINE
  5
262
330
D0
100
AcDbEntity
  8
$DDT_AUDIT_GENERATED_(C2)
  6
Continuous
 62
     7
100
AcDbLine
 10
159.5312180107
 20
493.4804342628
 30
0.0
 11
159.0721328736
 21
493.4804342628
 31
0.0
  0
LINE
  5
263
330
D0
100
AcDbEntity
  8
$DDT_AUDIT_GENERATED_(C2)
  6
Continuous
 62
     7
100
AcDbLine
 10
159.0721328736
 20
493.4804342628
 30
0.0
 11
159.0721328736
 21
493.610960455
 31
0.0
  0
LINE
  5
264
330
D0
100
AcDbEntity
  8
$DDT_AUDIT_GENERATED_(C2)
  6
Continuous
 62
     7
100
AcDbLine
 10
159.0721328736
 20
493.610960455
 30
0.0
 11
160.0175563413
 21
493.610960455
 31
0.0
  0
ELLIPSE
  5
265
330
D0
100
AcDbEntity
  8
$DDT_AUDIT_GENERATED_(C2)
  6
Continuous
 62
     7
100
AcDbEllipse
 10
152.3721329075
 20
494.0155916473
 30
0.0
 11
8.249999965092716
 21
2.804506626929992E-9
 31
0.0
210
0.0
220
0.0
230
1.0
 40
0.1305261923
 41
-0.6976574542500238
 42
-0.6634394355288329
  0
LINE
  5
266
330
D0
100
AcDbEntity
  8
$DDT_AUDIT_GENERATED_(C2)
  6
Continuous
 62
     7
100
AcDbLine
 10
158.6945137543
 20
493.3238028321
 30
0.0
 11
158.6945137543
 21
493.4543290244
 31
0.0
  0
LINE
  5
267
330
D0
100
AcDbEntity
  8
$DDT_AUDIT_GENERATED_(C2)
  6
Continuous
 62
     7
100
AcDbLine
 10
158.6945137543
 20
493.3238028321
 30
0.0
 11
157.8721328736
 21
493.3238028321
 31
0.0
  0
LINE
  5
268
330
D0
100
AcDbEntity
  8
$DDT_AUDIT_GENERATED_(C2)
  6
Continuous
 62
     7
100
AcDbLine
 10
157.8721328736
 20
493.3238028321
 30
0.0
 11
157.8721328736
 21
493.4543290244
 31
0.0
  0
LINE
  5
269
330
D0
100
AcDbEntity
  8
$DDT_AUDIT_GENERATED_(C2)
  6
Continuous
 62
     7
100
AcDbLine
 10
157.8721328736
 20
493.4543290244
 30
0.0
 11
158.8721328736
 21
493.4543290244
 31
0.0
  0
LINE
  5
26A
330
D0
100
AcDbEntity
  8
$DDT_AUDIT_GENERATED_(C2)
  6
Continuous
 62
     7
100
AcDbLine
 10
158.8721328736
 20
493.4543290244
 30
0.0
 11
158.8721328736
 21
493.352440232
 31
0.0
  0
ELLIPSE
  5
26B
330
D0
100
AcDbEntity
  8
$DDT_AUDIT_GENERATED_(C2)
  6
Continuous
 62
     7
100
AcDbEllipse
 10
152.3721328762
 20
494.0155916507
 30
0.0
 11
8.249999997437284
 21
1.889322032155860E-10
 31
0.0
210
0.0
220
0.0
230
1.0
 40
0.1305261922
 41
-0.623017959917517
 42
-0.5482706341639325
  0
LINE
  5
26C
330
D0
100
AcDbEntity
  8
$DDT_AUDIT_GENERATED_(C2)
  6
Continuous
 62
     7
100
AcDbLine
 10
159.0721328736
 20
493.3872669775
 30
0.0
 11
159.0721328736
 21
493.4543290244
 31
0.0
  0
LINE
  5
26D
330
D0
100
AcDbEntity
  8
$DDT_AUDIT_GENERATED_(C2)
  6
Continuous
 62
     7
100
AcDbLine
 10
159.0721328736
 20
493.4543290244
 30
0.0
 11
159.4129069788
 21
493.4543290244
 31
0.0
  0
ELLIPSE
  5
26E
330
D0
100
AcDbEntity
  8
$DDT_AUDIT_GENERATED_(C2)
  6
Continuous
 62
     7
100
AcDbEllipse
 10
152.3721328784
 20
494.0155916501
 30
0.0
 11
8.249999994722923
 21
4.943823128655822E-10
 31
0.0
210
0.0
220
0.0
230
1.0
 40
0.1305261922
 41
-0.9073568928009959
 42
-0.8731388741544226
  0
LINE
  5
26F
330
D0
100
AcDbEntity
  8
$DDT_AUDIT_GENERATED_(C2)
  6
Continuous
 62
     7
100
AcDbLine
 10
157.4527332319
 20
493.1671714015
 30
0.0
 11
157.4527332319
 21
493.2976975937
 31
0.0
  0
LINE
  5
270
330
D0
100
AcDbEntity
  8
$DDT_AUDIT_GENERATED_(C2)
  6
Continuous
 62
     7
100
AcDbLine
 10
157.4527332319
 20
493.1671714015
 30
0.0
 11
156.6721328736
 21
493.1671714015
 31
0.0
  0
LINE
  5
271
330
D0
100
AcDbEntity
  8
$DDT_AUDIT_GENERATED_(C2)
  6
Continuous
 62
     7
100
AcDbLine
 10
156.6721328736
 20
493.1671714015
 30
0.0
 11
156.6721328736
 21
493.2976975937
 31
0.0
  0
LINE
  5
272
330
D0
100
AcDbEntity
  8
$DDT_AUDIT_GENERATED_(C2)
  6
Continuous
 62
     7
100
AcDbLine
 10
156.6721328736
 20
493.2976975937
 30
0.0
 11
157.6721328736
 21
493.2976975937
 31
0.0
  0
LINE
  5
273
330
D0
100
AcDbEntity
  8
$DDT_AUDIT_GENERATED_(C2)
  6
Continuous
 62
     7
100
AcDbLine
 10
157.6721328736
 20
493.2976975937
 30
0.0
 11
157.6721328736
 21
493.1903553488
 31
0.0
  0
ELLIPSE
  5
274
330
D0
100
AcDbEntity
  8
$DDT_AUDIT_GENERATED_(C2)
  6
Continuous
 62
     7
100
AcDbEllipse
 10
152.3721328736
 20
494.0155916509
 30
0.0
 11
8.250000000017289
 21
-4.024558464266192E-13
 31
0.0
210
0.0
220
0.0
230
1.0
 40
0.1305261922
 41
-0.8410686705671679
 42
-0.7297276562263839
  0
LINE
  5
275
330
D0
100
AcDbEntity
  8
$DDT_AUDIT_GENERATED_(C2)
  6
Continuous
 62
     7
100
AcDbLine
 10
157.8721328736
 20
493.2129616946
 30
0.0
 11
157.8721328736
 21
493.2976975937
 31
0.0
  0
LINE
  5
276
330
D0
100
AcDbEntity
  8
$DDT_AUDIT_GENERATED_(C2)
  6
Continuous
 62
     7
100
AcDbLine
 10
157.8721328736
 20
493.2976975937
 30
0.0
 11
158.5213198118
 21
493.2976975937
 31
0.0
  0
LINE
  5
277
330
D0
100
AcDbEntity
  8
$DDT_AUDIT_GENERATED_(C2)
  6
Continuous
 62
     7
100
AcDbLine
 10
155.2721328736
 20
493.141066163
 30
0.0
 11
155.2721328736
 21
493.0105399708
 31
0.0
  0
LINE
  5
278
330
D0
100
AcDbEntity
  8
$DDT_AUDIT_GENERATED_(C2)
  6
Continuous
 62
     7
100
AcDbLine
 10
155.2721328736
 20
493.0105399708
 30
0.0
 11
154.2721328736
 21
493.0105399708
 31
0.0
  0
LINE
  5
279
330
D0
100
AcDbEntity
  8
$DDT_AUDIT_GENERATED_(C2)
  6
Continuous
 62
     7
100
AcDbLine
 10
154.2721328736
 20
493.0105399708
 30
0.0
 11
154.2721328736
 21
493.141066163
 31
0.0
  0
LINE
  5
27A
330
D0
100
AcDbEntity
  8
$DDT_AUDIT_GENERATED_(C2)
  6
Continuous
 62
     7
100
AcDbLine
 10
154.2721328736
 20
493.141066163
 30
0.0
 11
155.2721328736
 21
493.141066163
 31
0.0
  0
ELLIPSE
  5
27B
330
D0
100
AcDbEntity
  8
$DDT_AUDIT_GENERATED_(C2)
  6
Continuous
 62
     7
100
AcDbEllipse
 10
152.3721328735
 20
494.0155916509
 30
0.0
 11
8.250000000138476
 21
-1.229571999772361E-11
 31
0.0
210
0.0
220
0.0
230
1.0
 40
0.1305261922
 41
-1.185582205126015
 42
-1.050693123525765
  0
LINE
  5
27C
330
D0
100
AcDbEntity
  8
$DDT_AUDIT_GENERATED_(C2)
  6
Continuous
 62
     7
100
AcDbLine
 10
155.4721328736
 20
493.0176636378
 30
0.0
 11
155.4721328736
 21
493.141066163
 31
0.0
  0
LINE
  5
27D
330
D0
100
AcDbEntity
  8
$DDT_AUDIT_GENERATED_(C2)
  6
Continuous
 62
     7
100
AcDbLine
 10
155.4721328736
 20
493.141066163
 30
0.0
 11
156.4721328736
 21
493.141066163
 31
0.0
  0
LINE
  5
27E
330
D0
100
AcDbEntity
  8
$DDT_AUDIT_GENERATED_(C2)
  6
Continuous
 62
     7
100
AcDbLine
 10
156.4721328736
 20
493.141066163
 30
0.0
 11
156.4721328736
 21
493.0811435282
 31
0.0
  0
ELLIPSE
  5
27F
330
D0
100
AcDbEntity
  8
$DDT_AUDIT_GENERATED_(C2)
  6
Continuous
 62
     7
100
AcDbEllipse
 10
152.3721328741
 20
494.0155916508
 30
0.0
 11
8.249999999468001
 21
4.640732242933154E-11
 31
0.0
210
0.0
220
0.0
230
1.0
 40
0.1305261922
 41
-1.022525692736113
 42
-0.9477783669925035
  0
LINE
  5
280
330
D0
100
AcDbEntity
  8
$DDT_AUDIT_GENERATED_(C2)
  6
Continuous
 62
     7
100
AcDbLine
 10
156.6721328736
 20
493.0965862167
 30
0.0
 11
156.6721328736
 21
493.141066163
 31
0.0
  0
LINE
  5
281
330
D0
100
AcDbEntity
  8
$DDT_AUDIT_GENERATED_(C2)
  6
Continuous
 62
     7
100
AcDbLine
 10
156.6721328736
 20
493.141066163
 30
0.0
 11
157.1859151703
 21
493.141066163
 31
0.0
  0
ARC
  5
282
330
D0
100
AcDbEntity
  8
$DDT_AUDIT_GENERATED_(C2)
  6
Continuous
 62
     7
100
AcDbCircle
 10
152.3721328736
 20
556.030247998
 30
0.0
 40
63.09149922450452
100
AcDbArc
 50
269.5459263135
 51
270.4540736865
  0
LINE
  5
283
330
D0
100
AcDbEntity
  8
$DDT_AUDIT_GENERATED_(C2)
  6
Continuous
 62
     7
100
AcDbLine
 10
151.8721328736
 20
492.9844347324
 30
0.0
 11
152.8721328736
 21
492.9844347324
 31
0.0
  0
LINE
  5
284
330
D0
100
AcDbEntity
  8
$DDT_AUDIT_GENERATED_(C2)
  6
Continuous
 62
     7
100
AcDbLine
 10
152.8721328736
 20
492.9844347324
 30
0.0
 11
152.8721328736
 21
492.9407300541
 31
0.0
  0
ELLIPSE
  5
285
330
D0
100
AcDbEntity
  8
$DDT_AUDIT_GENERATED_(C2)
  6
Continuous
 62
     7
100
AcDbEllipse
 10
152.3721328737
 20
494.0155916508
 30
0.0
 11
8.249999999794337
 21
8.132383655379272E-12
 31
0.0
210
0.0
220
0.0
230
1.0
 40
0.1305261922
 41
-1.48584570291457
 42
-1.363248876314135
  0
LINE
  5
286
330
D0
100
AcDbEntity
  8
$DDT_AUDIT_GENERATED_(C2)
  6
Continuous
 62
     7
100
AcDbLine
 10
153.0721328736
 20
492.9426337992
 30
0.0
 11
153.0721328736
 21
492.9844347324
 31
0.0
  0
LINE
  5
287
330
D0
100
AcDbEntity
  8
$DDT_AUDIT_GENERATED_(C2)
  6
Continuous
 62
     7
100
AcDbLine
 10
153.0721328736
 20
492.9844347324
 30
0.0
 11
154.0721328736
 21
492.9844347324
 31
0.0
  0
LINE
  5
288
330
D0
100
AcDbEntity
  8
$DDT_AUDIT_GENERATED_(C2)
  6
Continuous
 62
     7
100
AcDbLine
 10
154.0721328736
 20
492.9844347324
 30
0.0
 11
154.0721328736
 21
492.9618604029
 31
0.0
  0
ELLIPSE
  5
289
330
D0
100
AcDbEntity
  8
$DDT_AUDIT_GENERATED_(C2)
  6
Continuous
 62
     7
100
AcDbEllipse
 10
152.3721328724
 20
494.0155916515
 30
0.0
 11
8.250000002630472
 21
-1.665334536937735E-10
 31
0.0
210
0.0
220
0.0
230
1.0
 40
0.1305261923
 41
-1.338407254226248
 42
-1.278468933572004
  0
LINE
  5
28A
330
D0
100
AcDbEntity
  8
$DDT_AUDIT_GENERATED_(C2)
  6
Continuous
 62
     7
100
AcDbLine
 10
154.2721328736
 20
492.9676971712
 30
0.0
 11
154.2721328736
 21
492.9844347324
 31
0.0
  0
LINE
  5
28B
330
D0
100
AcDbEntity
  8
$DDT_AUDIT_GENERATED_(C2)
  6
Continuous
 62
     7
100
AcDbLine
 10
154.2721328736
 20
492.9844347324
 30
0.0
 11
154.7496315592
 21
492.9844347324
 31
0.0
  0
LINE
  5
28C
330
D0
100
AcDbEntity
  8
$DDT_AUDIT_GENERATED_(C2)
  6
Continuous
 62
     7
100
AcDbLine
 10
152.8721328736
 20
493.9503285548
 30
0.0
 11
151.8721328736
 21
493.9503285548
 31
0.0
  0
LINE
  5
28D
330
D0
100
AcDbEntity
  8
$DDT_AUDIT_GENERATED_(C2)
  6
Continuous
 62
     7
100
AcDbLine
 10
151.6721328736
 20
493.9503285548
 30
0.0
 11
150.6721328736
 21
493.9503285548
 31
0.0
  0
LINE
  5
28E
330
D0
100
AcDbEntity
  8
$DDT_AUDIT_GENERATED_(C2)
  6
Continuous
 62
     7
100
AcDbLine
 10
150.4721328736
 20
493.9503285548
 30
0.0
 11
149.4721328736
 21
493.9503285548
 31
0.0
  0
LINE
  5
28F
330
D0
100
AcDbEntity
  8
$DDT_AUDIT_GENERATED_(C2)
  6
Continuous
 62
     7
100
AcDbLine
 10
149.2721328736
 20
493.9503285548
 30
0.0
 11
148.2721328736
 21
493.9503285548
 31
0.0
  0
LINE
  5
290
330
D0
100
AcDbEntity
  8
$DDT_AUDIT_GENERATED_(C2)
  6
Continuous
 62
     7
100
AcDbLine
 10
148.0721328736
 20
493.9503285548
 30
0.0
 11
147.0721328736
 21
493.9503285548
 31
0.0
  0
LINE
  5
291
330
D0
100
AcDbEntity
  8
$DDT_AUDIT_GENERATED_(C2)
  6
Continuous
 62
     7
100
AcDbLine
 10
146.8721328736
 20
493.9503285548
 30
0.0
 11
145.8721328736
 21
493.9503285548
 31
0.0
  0
LINE
  5
292
330
D0
100
AcDbEntity
  8
$DDT_AUDIT_GENERATED_(C2)
  6
Continuous
 62
     7
100
AcDbLine
 10
145.6721328736
 20
493.9503285548
 30
0.0
 11
144.6721328736
 21
493.9503285548
 31
0.0
  0
LINE
  5
293
330
D0
100
AcDbEntity
  8
$DDT_AUDIT_GENERATED_(C2)
  6
Continuous
 62
     7
100
AcDbLine
 10
151.8721328736
 20
493.7936971241
 30
0.0
 11
151.8721328736
 21
493.9242233163
 31
0.0
  0
LINE
  5
294
330
D0
100
AcDbEntity
  8
$DDT_AUDIT_GENERATED_(C2)
  6
Continuous
 62
     7
100
AcDbLine
 10
151.6721328736
 20
493.7936971241
 30
0.0
 11
150.6721328736
 21
493.7936971241
 31
0.0
  0
LINE
  5
295
330
D0
100
AcDbEntity
  8
$DDT_AUDIT_GENERATED_(C2)
  6
Continuous
 62
     7
100
AcDbLine
 10
150.6721328736
 20
493.7936971241
 30
0.0
 11
150.6721328736
 21
493.9242233163
 31
0.0
  0
LINE
  5
296
330
D0
100
AcDbEntity
  8
$DDT_AUDIT_GENERATED_(C2)
  6
Continuous
 62
     7
100
AcDbLine
 10
150.6721328736
 20
493.9242233163
 30
0.0
 11
151.6721328736
 21
493.9242233163
 31
0.0
  0
LINE
  5
297
330
D0
100
AcDbEntity
  8
$DDT_AUDIT_GENERATED_(C2)
  6
Continuous
 62
     7
100
AcDbLine
 10
151.6721328736
 20
493.9242233163
 30
0.0
 11
151.6721328736
 21
493.7936971241
 31
0.0
  0
LINE
  5
298
330
D0
100
AcDbEntity
  8
$DDT_AUDIT_GENERATED_(C2)
  6
Continuous
 62
     7
100
AcDbLine
 10
150.4721328736
 20
493.7936971241
 30
0.0
 11
149.4721328736
 21
493.7936971241
 31
0.0
  0
LINE
  5
299
330
D0
100
AcDbEntity
  8
$DDT_AUDIT_GENERATED_(C2)
  6
Continuous
 62
     7
100
AcDbLine
 10
149.4721328736
 20
493.7936971241
 30
0.0
 11
149.4721328736
 21
493.9242233163
 31
0.0
  0
LINE
  5
29A
330
D0
100
AcDbEntity
  8
$DDT_AUDIT_GENERATED_(C2)
  6
Continuous
 62
     7
100
AcDbLine
 10
149.4721328736
 20
493.9242233163
 30
0.0
 11
150.4721328736
 21
493.9242233163
 31
0.0
  0
LINE
  5
29B
330
D0
100
AcDbEntity
  8
$DDT_AUDIT_GENERATED_(C2)
  6
Continuous
 62
     7
100
AcDbLine
 10
150.4721328736
 20
493.9242233163
 30
0.0
 11
150.4721328736
 21
493.7936971241
 31
0.0
  0
LINE
  5
29C
330
D0
100
AcDbEntity
  8
$DDT_AUDIT_GENERATED_(C2)
  6
Continuous
 62
     7
100
AcDbLine
 10
149.2721328736
 20
493.7936971241
 30
0.0
 11
148.2721328736
 21
493.7936971241
 31
0.0
  0
LINE
  5
29D
330
D0
100
AcDbEntity
  8
$DDT_AUDIT_GENERATED_(C2)
  6
Continuous
 62
     7
100
AcDbLine
 10
148.2721328736
 20
493.7936971241
 30
0.0
 11
148.2721328736
 21
493.9242233163
 31
0.0
  0
LINE
  5
29E
330
D0
100
AcDbEntity
  8
$DDT_AUDIT_GENERATED_(C2)
  6
Continuous
 62
     7
100
AcDbLine
 10
148.2721328736
 20
493.9242233163
 30
0.0
 11
149.2721328736
 21
493.9242233163
 31
0.0
  0
LINE
  5
29F
330
D0
100
AcDbEntity
  8
$DDT_AUDIT_GENERATED_(C2)
  6
Continuous
 62
     7
100
AcDbLine
 10
149.2721328736
 20
493.9242233163
 30
0.0
 11
149.2721328736
 21
493.7936971241
 31
0.0
  0
LINE
  5
2A0
330
D0
100
AcDbEntity
  8
$DDT_AUDIT_GENERATED_(C2)
  6
Continuous
 62
     7
100
AcDbLine
 10
148.0721328736
 20
493.7936971241
 30
0.0
 11
147.0721328736
 21
493.7936971241
 31
0.0
  0
LINE
  5
2A1
330
D0
100
AcDbEntity
  8
$DDT_AUDIT_GENERATED_(C2)
  6
Continuous
 62
     7
100
AcDbLine
 10
147.0721328736
 20
493.7936971241
 30
0.0
 11
147.0721328736
 21
493.9242233163
 31
0.0
  0
LINE
  5
2A2
330
D0
100
AcDbEntity
  8
$DDT_AUDIT_GENERATED_(C2)
  6
Continuous
 62
     7
100
AcDbLine
 10
147.0721328736
 20
493.9242233163
 30
0.0
 11
148.0721328736
 21
493.9242233163
 31
0.0
  0
LINE
  5
2A3
330
D0
100
AcDbEntity
  8
$DDT_AUDIT_GENERATED_(C2)
  6
Continuous
 62
     7
100
AcDbLine
 10
148.0721328736
 20
493.9242233163
 30
0.0
 11
148.0721328736
 21
493.7936971241
 31
0.0
  0
LINE
  5
2A4
330
D0
100
AcDbEntity
  8
$DDT_AUDIT_GENERATED_(C2)
  6
Continuous
 62
     7
100
AcDbLine
 10
146.8721328736
 20
493.7936971241
 30
0.0
 11
145.8721328736
 21
493.7936971241
 31
0.0
  0
LINE
  5
2A5
330
D0
100
AcDbEntity
  8
$DDT_AUDIT_GENERATED_(C2)
  6
Continuous
 62
     7
100
AcDbLine
 10
145.8721328736
 20
493.7936971241
 30
0.0
 11
145.8721328736
 21
493.9242233163
 31
0.0
  0
LINE
  5
2A6
330
D0
100
AcDbEntity
  8
$DDT_AUDIT_GENERATED_(C2)
  6
Continuous
 62
     7
100
AcDbLine
 10
145.8721328736
 20
493.9242233163
 30
0.0
 11
146.8721328736
 21
493.9242233163
 31
0.0
  0
LINE
  5
2A7
330
D0
100
AcDbEntity
  8
$DDT_AUDIT_GENERATED_(C2)
  6
Continuous
 62
     7
100
AcDbLine
 10
146.8721328736
 20
493.9242233163
 30
0.0
 11
146.8721328736
 21
493.7936971241
 31
0.0
  0
LINE
  5
2A8
330
D0
100
AcDbEntity
  8
$DDT_AUDIT_GENERATED_(C2)
  6
Continuous
 62
     7
100
AcDbLine
 10
145.6721328736
 20
493.7936971241
 30
0.0
 11
144.6721328736
 21
493.7936971241
 31
0.0
  0
LINE
  5
2A9
330
D0
100
AcDbEntity
  8
$DDT_AUDIT_GENERATED_(C2)
  6
Continuous
 62
     7
100
AcDbLine
 10
144.6721328736
 20
493.7936971241
 30
0.0
 11
144.6721328736
 21
493.9242233163
 31
0.0
  0
LINE
  5
2AA
330
D0
100
AcDbEntity
  8
$DDT_AUDIT_GENERATED_(C2)
  6
Continuous
 62
     7
100
AcDbLine
 10
144.6721328736
 20
493.9242233163
 30
0.0
 11
145.6721328736
 21
493.9242233163
 31
0.0
  0
LINE
  5
2AB
330
D0
100
AcDbEntity
  8
$DDT_AUDIT_GENERATED_(C2)
  6
Continuous
 62
     7
100
AcDbLine
 10
145.6721328736
 20
493.9242233163
 30
0.0
 11
145.6721328736
 21
493.7936971241
 31
0.0
  0
LINE
  5
2AC
330
D0
100
AcDbEntity
  8
$DDT_AUDIT_GENERATED_(C2)
  6
Continuous
 62
     7
100
AcDbLine
 10
151.8721328736
 20
493.6370656935
 30
0.0
 11
151.8721328736
 21
493.7675918857
 31
0.0
  0
LINE
  5
2AD
330
D0
100
AcDbEntity
  8
$DDT_AUDIT_GENERATED_(C2)
  6
Continuous
 62
     7
100
AcDbLine
 10
151.6721328736
 20
493.6370656935
 30
0.0
 11
150.6721328736
 21
493.6370656935
 31
0.0
  0
LINE
  5
2AE
330
D0
100
AcDbEntity
  8
$DDT_AUDIT_GENERATED_(C2)
  6
Continuous
 62
     7
100
AcDbLine
 10
150.6721328736
 20
493.6370656935
 30
0.0
 11
150.6721328736
 21
493.7675918857
 31
0.0
  0
LINE
  5
2AF
330
D0
100
AcDbEntity
  8
$DDT_AUDIT_GENERATED_(C2)
  6
Continuous
 62
     7
100
AcDbLine
 10
150.6721328736
 20
493.7675918857
 30
0.0
 11
151.6721328736
 21
493.7675918857
 31
0.0
  0
LINE
  5
2B0
330
D0
100
AcDbEntity
  8
$DDT_AUDIT_GENERATED_(C2)
  6
Continuous
 62
     7
100
AcDbLine
 10
151.6721328736
 20
493.7675918857
 30
0.0
 11
151.6721328736
 21
493.6370656935
 31
0.0
  0
LINE
  5
2B1
330
D0
100
AcDbEntity
  8
$DDT_AUDIT_GENERATED_(C2)
  6
Continuous
 62
     7
100
AcDbLine
 10
150.4721328736
 20
493.6370656935
 30
0.0
 11
149.4721328736
 21
493.6370656935
 31
0.0
  0
LINE
  5
2B2
330
D0
100
AcDbEntity
  8
$DDT_AUDIT_GENERATED_(C2)
  6
Continuous
 62
     7
100
AcDbLine
 10
149.4721328736
 20
493.6370656935
 30
0.0
 11
149.4721328736
 21
493.7675918857
 31
0.0
  0
LINE
  5
2B3
330
D0
100
AcDbEntity
  8
$DDT_AUDIT_GENERATED_(C2)
  6
Continuous
 62
     7
100
AcDbLine
 10
149.4721328736
 20
493.7675918857
 30
0.0
 11
150.4721328736
 21
493.7675918857
 31
0.0
  0
LINE
  5
2B4
330
D0
100
AcDbEntity
  8
$DDT_AUDIT_GENERATED_(C2)
  6
Continuous
 62
     7
100
AcDbLine
 10
150.4721328736
 20
493.7675918857
 30
0.0
 11
150.4721328736
 21
493.6370656935
 31
0.0
  0
LINE
  5
2B5
330
D0
100
AcDbEntity
  8
$DDT_AUDIT_GENERATED_(C2)
  6
Continuous
 62
     7
100
AcDbLine
 10
149.2721328736
 20
493.6370656935
 30
0.0
 11
148.2721328736
 21
493.6370656935
 31
0.0
  0
LINE
  5
2B6
330
D0
100
AcDbEntity
  8
$DDT_AUDIT_GENERATED_(C2)
  6
Continuous
 62
     7
100
AcDbLine
 10
148.2721328736
 20
493.6370656935
 30
0.0
 11
148.2721328736
 21
493.7675918857
 31
0.0
  0
LINE
  5
2B7
330
D0
100
AcDbEntity
  8
$DDT_AUDIT_GENERATED_(C2)
  6
Continuous
 62
     7
100
AcDbLine
 10
148.2721328736
 20
493.7675918857
 30
0.0
 11
149.2721328736
 21
493.7675918857
 31
0.0
  0
LINE
  5
2B8
330
D0
100
AcDbEntity
  8
$DDT_AUDIT_GENERATED_(C2)
  6
Continuous
 62
     7
100
AcDbLine
 10
149.2721328736
 20
493.7675918857
 30
0.0
 11
149.2721328736
 21
493.6370656935
 31
0.0
  0
LINE
  5
2B9
330
D0
100
AcDbEntity
  8
$DDT_AUDIT_GENERATED_(C2)
  6
Continuous
 62
     7
100
AcDbLine
 10
148.0721328736
 20
493.6370656935
 30
0.0
 11
147.0721328736
 21
493.6370656935
 31
0.0
  0
LINE
  5
2BA
330
D0
100
AcDbEntity
  8
$DDT_AUDIT_GENERATED_(C2)
  6
Continuous
 62
     7
100
AcDbLine
 10
147.0721328736
 20
493.6370656935
 30
0.0
 11
147.0721328736
 21
493.7675918857
 31
0.0
  0
LINE
  5
2BB
330
D0
100
AcDbEntity
  8
$DDT_AUDIT_GENERATED_(C2)
  6
Continuous
 62
     7
100
AcDbLine
 10
147.0721328736
 20
493.7675918857
 30
0.0
 11
148.0721328736
 21
493.7675918857
 31
0.0
  0
LINE
  5
2BC
330
D0
100
AcDbEntity
  8
$DDT_AUDIT_GENERATED_(C2)
  6
Continuous
 62
     7
100
AcDbLine
 10
148.0721328736
 20
493.7675918857
 30
0.0
 11
148.0721328736
 21
493.6370656935
 31
0.0
  0
LINE
  5
2BD
330
D0
100
AcDbEntity
  8
$DDT_AUDIT_GENERATED_(C2)
  6
Continuous
 62
     7
100
AcDbLine
 10
146.8721328736
 20
493.6370656935
 30
0.0
 11
145.8721328736
 21
493.6370656935
 31
0.0
  0
LINE
  5
2BE
330
D0
100
AcDbEntity
  8
$DDT_AUDIT_GENERATED_(C2)
  6
Continuous
 62
     7
100
AcDbLine
 10
145.8721328736
 20
493.6370656935
 30
0.0
 11
145.8721328736
 21
493.7675918857
 31
0.0
  0
LINE
  5
2BF
330
D0
100
AcDbEntity
  8
$DDT_AUDIT_GENERATED_(C2)
  6
Continuous
 62
     7
100
AcDbLine
 10
145.8721328736
 20
493.7675918857
 30
0.0
 11
146.8721328736
 21
493.7675918857
 31
0.0
  0
LINE
  5
2C0
330
D0
100
AcDbEntity
  8
$DDT_AUDIT_GENERATED_(C2)
  6
Continuous
 62
     7
100
AcDbLine
 10
146.8721328736
 20
493.7675918857
 30
0.0
 11
146.8721328736
 21
493.6370656935
 31
0.0
  0
LINE
  5
2C1
330
D0
100
AcDbEntity
  8
$DDT_AUDIT_GENERATED_(C2)
  6
Continuous
 62
     7
100
AcDbLine
 10
151.8721328736
 20
493.4804342628
 30
0.0
 11
151.8721328736
 21
493.610960455
 31
0.0
  0
LINE
  5
2C2
330
D0
100
AcDbEntity
  8
$DDT_AUDIT_GENERATED_(C2)
  6
Continuous
 62
     7
100
AcDbLine
 10
151.6721328736
 20
493.4804342628
 30
0.0
 11
150.6721328736
 21
493.4804342628
 31
0.0
  0
LINE
  5
2C3
330
D0
100
AcDbEntity
  8
$DDT_AUDIT_GENERATED_(C2)
  6
Continuous
 62
     7
100
AcDbLine
 10
150.6721328736
 20
493.4804342628
 30
0.0
 11
150.6721328736
 21
493.610960455
 31
0.0
  0
LINE
  5
2C4
330
D0
100
AcDbEntity
  8
$DDT_AUDIT_GENERATED_(C2)
  6
Continuous
 62
     7
100
AcDbLine
 10
150.6721328736
 20
493.610960455
 30
0.0
 11
151.6721328736
 21
493.610960455
 31
0.0
  0
LINE
  5
2C5
330
D0
100
AcDbEntity
  8
$DDT_AUDIT_GENERATED_(C2)
  6
Continuous
 62
     7
100
AcDbLine
 10
151.6721328736
 20
493.610960455
 30
0.0
 11
151.6721328736
 21
493.4804342628
 31
0.0
  0
LINE
  5
2C6
330
D0
100
AcDbEntity
  8
$DDT_AUDIT_GENERATED_(C2)
  6
Continuous
 62
     7
100
AcDbLine
 10
150.4721328736
 20
493.4804342628
 30
0.0
 11
149.4721328736
 21
493.4804342628
 31
0.0
  0
LINE
  5
2C7
330
D0
100
AcDbEntity
  8
$DDT_AUDIT_GENERATED_(C2)
  6
Continuous
 62
     7
100
AcDbLine
 10
149.4721328736
 20
493.4804342628
 30
0.0
 11
149.4721328736
 21
493.610960455
 31
0.0
  0
LINE
  5
2C8
330
D0
100
AcDbEntity
  8
$DDT_AUDIT_GENERATED_(C2)
  6
Continuous
 62
     7
100
AcDbLine
 10
149.4721328736
 20
493.610960455
 30
0.0
 11
150.4721328736
 21
493.610960455
 31
0.0
  0
LINE
  5
2C9
330
D0
100
AcDbEntity
  8
$DDT_AUDIT_GENERATED_(C2)
  6
Continuous
 62
     7
100
AcDbLine
 10
150.4721328736
 20
493.610960455
 30
0.0
 11
150.4721328736
 21
493.4804342628
 31
0.0
  0
LINE
  5
2CA
330
D0
100
AcDbEntity
  8
$DDT_AUDIT_GENERATED_(C2)
  6
Continuous
 62
     7
100
AcDbLine
 10
149.2721328736
 20
493.4804342628
 30
0.0
 11
148.2721328736
 21
493.4804342628
 31
0.0
  0
LINE
  5
2CB
330
D0
100
AcDbEntity
  8
$DDT_AUDIT_GENERATED_(C2)
  6
Continuous
 62
     7
100
AcDbLine
 10
148.2721328736
 20
493.4804342628
 30
0.0
 11
148.2721328736
 21
493.610960455
 31
0.0
  0
LINE
  5
2CC
330
D0
100
AcDbEntity
  8
$DDT_AUDIT_GENERATED_(C2)
  6
Continuous
 62
     7
100
AcDbLine
 10
148.2721328736
 20
493.610960455
 30
0.0
 11
149.2721328736
 21
493.610960455
 31
0.0
  0
LINE
  5
2CD
330
D0
100
AcDbEntity
  8
$DDT_AUDIT_GENERATED_(C2)
  6
Continuous
 62
     7
100
AcDbLine
 10
149.2721328736
 20
493.610960455
 30
0.0
 11
149.2721328736
 21
493.4804342628
 31
0.0
  0
LINE
  5
2CE
330
D0
100
AcDbEntity
  8
$DDT_AUDIT_GENERATED_(C2)
  6
Continuous
 62
     7
100
AcDbLine
 10
148.0721328736
 20
493.4804342628
 30
0.0
 11
147.0721328736
 21
493.4804342628
 31
0.0
  0
LINE
  5
2CF
330
D0
100
AcDbEntity
  8
$DDT_AUDIT_GENERATED_(C2)
  6
Continuous
 62
     7
100
AcDbLine
 10
147.0721328736
 20
493.4804342628
 30
0.0
 11
147.0721328736
 21
493.610960455
 31
0.0
  0
LINE
  5
2D0
330
D0
100
AcDbEntity
  8
$DDT_AUDIT_GENERATED_(C2)
  6
Continuous
 62
     7
100
AcDbLine
 10
147.0721328736
 20
493.610960455
 30
0.0
 11
148.0721328736
 21
493.610960455
 31
0.0
  0
LINE
  5
2D1
330
D0
100
AcDbEntity
  8
$DDT_AUDIT_GENERATED_(C2)
  6
Continuous
 62
     7
100
AcDbLine
 10
148.0721328736
 20
493.610960455
 30
0.0
 11
148.0721328736
 21
493.4804342628
 31
0.0
  0
LINE
  5
2D2
330
D0
100
AcDbEntity
  8
$DDT_AUDIT_GENERATED_(C2)
  6
Continuous
 62
     7
100
AcDbLine
 10
146.8721328736
 20
493.4804342628
 30
0.0
 11
145.8721328736
 21
493.4804342628
 31
0.0
  0
LINE
  5
2D3
330
D0
100
AcDbEntity
  8
$DDT_AUDIT_GENERATED_(C2)
  6
Continuous
 62
     7
100
AcDbLine
 10
145.8721328736
 20
493.4804342628
 30
0.0
 11
145.8721328736
 21
493.610960455
 31
0.0
  0
LINE
  5
2D4
330
D0
100
AcDbEntity
  8
$DDT_AUDIT_GENERATED_(C2)
  6
Continuous
 62
     7
100
AcDbLine
 10
145.8721328736
 20
493.610960455
 30
0.0
 11
146.8721328736
 21
493.610960455
 31
0.0
  0
LINE
  5
2D5
330
D0
100
AcDbEntity
  8
$DDT_AUDIT_GENERATED_(C2)
  6
Continuous
 62
     7
100
AcDbLine
 10
146.8721328736
 20
493.610960455
 30
0.0
 11
146.8721328736
 21
493.4804342628
 31
0.0
  0
LINE
  5
2D6
330
D0
100
AcDbEntity
  8
$DDT_AUDIT_GENERATED_(C2)
  6
Continuous
 62
     7
100
AcDbLine
 10
151.8721328736
 20
493.3238028321
 30
0.0
 11
151.8721328736
 21
493.4543290244
 31
0.0
  0
LINE
  5
2D7
330
D0
100
AcDbEntity
  8
$DDT_AUDIT_GENERATED_(C2)
  6
Continuous
 62
     7
100
AcDbLine
 10
151.6721328736
 20
493.3238028321
 30
0.0
 11
150.6721328736
 21
493.3238028321
 31
0.0
  0
LINE
  5
2D8
330
D0
100
AcDbEntity
  8
$DDT_AUDIT_GENERATED_(C2)
  6
Continuous
 62
     7
100
AcDbLine
 10
150.6721328736
 20
493.3238028321
 30
0.0
 11
150.6721328736
 21
493.4543290244
 31
0.0
  0
LINE
  5
2D9
330
D0
100
AcDbEntity
  8
$DDT_AUDIT_GENERATED_(C2)
  6
Continuous
 62
     7
100
AcDbLine
 10
150.6721328736
 20
493.4543290244
 30
0.0
 11
151.6721328736
 21
493.4543290244
 31
0.0
  0
LINE
  5
2DA
330
D0
100
AcDbEntity
  8
$DDT_AUDIT_GENERATED_(C2)
  6
Continuous
 62
     7
100
AcDbLine
 10
151.6721328736
 20
493.4543290244
 30
0.0
 11
151.6721328736
 21
493.3238028321
 31
0.0
  0
LINE
  5
2DB
330
D0
100
AcDbEntity
  8
$DDT_AUDIT_GENERATED_(C2)
  6
Continuous
 62
     7
100
AcDbLine
 10
150.4721328736
 20
493.3238028321
 30
0.0
 11
149.4721328736
 21
493.3238028321
 31
0.0
  0
LINE
  5
2DC
330
D0
100
AcDbEntity
  8
$DDT_AUDIT_GENERATED_(C2)
  6
Continuous
 62
     7
100
AcDbLine
 10
149.4721328736
 20
493.3238028321
 30
0.0
 11
149.4721328736
 21
493.4543290244
 31
0.0
  0
LINE
  5
2DD
330
D0
100
AcDbEntity
  8
$DDT_AUDIT_GENERATED_(C2)
  6
Continuous
 62
     7
100
AcDbLine
 10
149.4721328736
 20
493.4543290244
 30
0.0
 11
150.4721328736
 21
493.4543290244
 31
0.0
  0
LINE
  5
2DE
330
D0
100
AcDbEntity
  8
$DDT_AUDIT_GENERATED_(C2)
  6
Continuous
 62
     7
100
AcDbLine
 10
150.4721328736
 20
493.4543290244
 30
0.0
 11
150.4721328736
 21
493.3238028321
 31
0.0
  0
LINE
  5
2DF
330
D0
100
AcDbEntity
  8
$DDT_AUDIT_GENERATED_(C2)
  6
Continuous
 62
     7
100
AcDbLine
 10
149.2721328736
 20
493.3238028321
 30
0.0
 11
148.2721328736
 21
493.3238028321
 31
0.0
  0
LINE
  5
2E0
330
D0
100
AcDbEntity
  8
$DDT_AUDIT_GENERATED_(C2)
  6
Continuous
 62
     7
100
AcDbLine
 10
148.2721328736
 20
493.3238028321
 30
0.0
 11
148.2721328736
 21
493.4543290244
 31
0.0
  0
LINE
  5
2E1
330
D0
100
AcDbEntity
  8
$DDT_AUDIT_GENERATED_(C2)
  6
Continuous
 62
     7
100
AcDbLine
 10
148.2721328736
 20
493.4543290244
 30
0.0
 11
149.2721328736
 21
493.4543290244
 31
0.0
  0
LINE
  5
2E2
330
D0
100
AcDbEntity
  8
$DDT_AUDIT_GENERATED_(C2)
  6
Continuous
 62
     7
100
AcDbLine
 10
149.2721328736
 20
493.4543290244
 30
0.0
 11
149.2721328736
 21
493.3238028321
 31
0.0
  0
LINE
  5
2E3
330
D0
100
AcDbEntity
  8
$DDT_AUDIT_GENERATED_(C2)
  6
Continuous
 62
     7
100
AcDbLine
 10
148.0721328736
 20
493.3238028321
 30
0.0
 11
147.0721328736
 21
493.3238028321
 31
0.0
  0
LINE
  5
2E4
330
D0
100
AcDbEntity
  8
$DDT_AUDIT_GENERATED_(C2)
  6
Continuous
 62
     7
100
AcDbLine
 10
147.0721328736
 20
493.3238028321
 30
0.0
 11
147.0721328736
 21
493.4543290244
 31
0.0
  0
LINE
  5
2E5
330
D0
100
AcDbEntity
  8
$DDT_AUDIT_GENERATED_(C2)
  6
Continuous
 62
     7
100
AcDbLine
 10
147.0721328736
 20
493.4543290244
 30
0.0
 11
148.0721328736
 21
493.4543290244
 31
0.0
  0
LINE
  5
2E6
330
D0
100
AcDbEntity
  8
$DDT_AUDIT_GENERATED_(C2)
  6
Continuous
 62
     7
100
AcDbLine
 10
148.0721328736
 20
493.4543290244
 30
0.0
 11
148.0721328736
 21
493.3238028321
 31
0.0
  0
LINE
  5
2E7
330
D0
100
AcDbEntity
  8
$DDT_AUDIT_GENERATED_(C2)
  6
Continuous
 62
     7
100
AcDbLine
 10
151.8721328736
 20
493.1671714015
 30
0.0
 11
151.8721328736
 21
493.2976975937
 31
0.0
  0
LINE
  5
2E8
330
D0
100
AcDbEntity
  8
$DDT_AUDIT_GENERATED_(C2)
  6
Continuous
 62
     7
100
AcDbLine
 10
151.6721328736
 20
493.1671714015
 30
0.0
 11
150.6721328736
 21
493.1671714015
 31
0.0
  0
LINE
  5
2E9
330
D0
100
AcDbEntity
  8
$DDT_AUDIT_GENERATED_(C2)
  6
Continuous
 62
     7
100
AcDbLine
 10
150.6721328736
 20
493.1671714015
 30
0.0
 11
150.6721328736
 21
493.2976975937
 31
0.0
  0
LINE
  5
2EA
330
D0
100
AcDbEntity
  8
$DDT_AUDIT_GENERATED_(C2)
  6
Continuous
 62
     7
100
AcDbLine
 10
150.6721328736
 20
493.2976975937
 30
0.0
 11
151.6721328736
 21
493.2976975937
 31
0.0
  0
LINE
  5
2EB
330
D0
100
AcDbEntity
  8
$DDT_AUDIT_GENERATED_(C2)
  6
Continuous
 62
     7
100
AcDbLine
 10
151.6721328736
 20
493.2976975937
 30
0.0
 11
151.6721328736
 21
493.1671714015
 31
0.0
  0
LINE
  5
2EC
330
D0
100
AcDbEntity
  8
$DDT_AUDIT_GENERATED_(C2)
  6
Continuous
 62
     7
100
AcDbLine
 10
150.4721328736
 20
493.1671714015
 30
0.0
 11
149.4721328736
 21
493.1671714015
 31
0.0
  0
LINE
  5
2ED
330
D0
100
AcDbEntity
  8
$DDT_AUDIT_GENERATED_(C2)
  6
Continuous
 62
     7
100
AcDbLine
 10
149.4721328736
 20
493.1671714015
 30
0.0
 11
149.4721328736
 21
493.2976975937
 31
0.0
  0
LINE
  5
2EE
330
D0
100
AcDbEntity
  8
$DDT_AUDIT_GENERATED_(C2)
  6
Continuous
 62
     7
100
AcDbLine
 10
149.4721328736
 20
493.2976975937
 30
0.0
 11
150.4721328736
 21
493.2976975937
 31
0.0
  0
LINE
  5
2EF
330
D0
100
AcDbEntity
  8
$DDT_AUDIT_GENERATED_(C2)
  6
Continuous
 62
     7
100
AcDbLine
 10
150.4721328736
 20
493.2976975937
 30
0.0
 11
150.4721328736
 21
493.1671714015
 31
0.0
  0
LINE
  5
2F0
330
D0
100
AcDbEntity
  8
$DDT_AUDIT_GENERATED_(C2)
  6
Continuous
 62
     7
100
AcDbLine
 10
149.2721328736
 20
493.1671714015
 30
0.0
 11
148.2721328736
 21
493.1671714015
 31
0.0
  0
LINE
  5
2F1
330
D0
100
AcDbEntity
  8
$DDT_AUDIT_GENERATED_(C2)
  6
Continuous
 62
     7
100
AcDbLine
 10
148.2721328736
 20
493.1671714015
 30
0.0
 11
148.2721328736
 21
493.2976975937
 31
0.0
  0
LINE
  5
2F2
330
D0
100
AcDbEntity
  8
$DDT_AUDIT_GENERATED_(C2)
  6
Continuous
 62
     7
100
AcDbLine
 10
148.2721328736
 20
493.2976975937
 30
0.0
 11
149.2721328736
 21
493.2976975937
 31
0.0
  0
LINE
  5
2F3
330
D0
100
AcDbEntity
  8
$DDT_AUDIT_GENERATED_(C2)
  6
Continuous
 62
     7
100
AcDbLine
 10
149.2721328736
 20
493.2976975937
 30
0.0
 11
149.2721328736
 21
493.1671714015
 31
0.0
  0
LINE
  5
2F4
330
D0
100
AcDbEntity
  8
$DDT_AUDIT_GENERATED_(C2)
  6
Continuous
 62
     7
100
AcDbLine
 10
151.8721328736
 20
493.0105399708
 30
0.0
 11
151.8721328736
 21
493.141066163
 31
0.0
  0
LINE
  5
2F5
330
D0
100
AcDbEntity
  8
$DDT_AUDIT_GENERATED_(C2)
  6
Continuous
 62
     7
100
AcDbLine
 10
151.6721328736
 20
493.0105399708
 30
0.0
 11
150.6721328736
 21
493.0105399708
 31
0.0
  0
LINE
  5
2F6
330
D0
100
AcDbEntity
  8
$DDT_AUDIT_GENERATED_(C2)
  6
Continuous
 62
     7
100
AcDbLine
 10
150.6721328736
 20
493.0105399708
 30
0.0
 11
150.6721328736
 21
493.141066163
 31
0.0
  0
LINE
  5
2F7
330
D0
100
AcDbEntity
  8
$DDT_AUDIT_GENERATED_(C2)
  6
Continuous
 62
     7
100
AcDbLine
 10
150.6721328736
 20
493.141066163
 30
0.0
 11
151.6721328736
 21
493.141066163
 31
0.0
  0
LINE
  5
2F8
330
D0
100
AcDbEntity
  8
$DDT_AUDIT_GENERATED_(C2)
  6
Continuous
 62
     7
100
AcDbLine
 10
151.6721328736
 20
493.141066163
 30
0.0
 11
151.6721328736
 21
493.0105399708
 31
0.0
  0
LINE
  5
2F9
330
D0
100
AcDbEntity
  8
$DDT_AUDIT_GENERATED_(C2)
  6
Continuous
 62
     7
100
AcDbLine
 10
150.4721328736
 20
493.0105399708
 30
0.0
 11
149.4721328736
 21
493.0105399708
 31
0.0
  0
LINE
  5
2FA
330
D0
100
AcDbEntity
  8
$DDT_AUDIT_GENERATED_(C2)
  6
Continuous
 62
     7
100
AcDbLine
 10
149.4721328736
 20
493.0105399708
 30
0.0
 11
149.4721328736
 21
493.141066163
 31
0.0
  0
LINE
  5
2FB
330
D0
100
AcDbEntity
  8
$DDT_AUDIT_GENERATED_(C2)
  6
Continuous
 62
     7
100
AcDbLine
 10
149.4721328736
 20
493.141066163
 30
0.0
 11
150.4721328736
 21
493.141066163
 31
0.0
  0
LINE
  5
2FC
330
D0
100
AcDbEntity
  8
$DDT_AUDIT_GENERATED_(C2)
  6
Continuous
 62
     7
100
AcDbLine
 10
150.4721328736
 20
493.141066163
 30
0.0
 11
150.4721328736
 21
493.0105399708
 31
0.0
  0
LINE
  5
2FD
330
D0
100
AcDbEntity
  8
$DDT_AUDIT_GENERATED_(C2)
  6
Continuous
 62
     7
100
AcDbLine
 10
151.8721328736
 20
492.9407300541
 30
0.0
 11
151.8721328736
 21
492.9844347324
 31
0.0
  0
ELLIPSE
  5
2FE
330
D0
100
AcDbEntity
  8
$DDT_AUDIT_GENERATED_(C2)
  6
Continuous
 62
     7
100
AcDbEllipse
 10
152.3721328736
 20
494.0155916509
 30
0.0
 11
-8.249999999986919
 21
6.800116025829084E-13
 31
0.0
210
0.0
220
0.0
230
1.0
 40
0.1305261922
 41
1.363248876312029
 42
1.485845702909574
  0
LINE
  5
2FF
330
D0
100
AcDbEntity
  8
$DDT_AUDIT_GENERATED_(C2)
  6
Continuous
 62
     7
100
AcDbLine
 10
150.6721328736
 20
492.9618604029
 30
0.0
 11
150.6721328736
 21
492.9844347324
 31
0.0
  0
LINE
  5
300
330
D0
100
AcDbEntity
  8
$DDT_AUDIT_GENERATED_(C2)
  6
Continuous
 62
     7
100
AcDbLine
 10
150.6721328736
 20
492.9844347324
 30
0.0
 11
151.6721328736
 21
492.9844347324
 31
0.0
  0
LINE
  5
301
330
D0
100
AcDbEntity
  8
$DDT_AUDIT_GENERATED_(C2)
  6
Continuous
 62
     7
100
AcDbLine
 10
151.6721328736
 20
492.9844347324
 30
0.0
 11
151.6721328736
 21
492.9426337992
 31
0.0
  0
ELLIPSE
  5
302
330
D0
100
AcDbEntity
  8
$DDT_AUDIT_GENERATED_(C2)
  6
Continuous
 62
     7
100
AcDbEllipse
 10
152.3721328732
 20
494.0155916507
 30
0.0
 11
-8.249999999086334
 21
5.463685059936552E-11
 31
0.0
210
0.0
220
0.0
230
1.0
 40
0.1305261922
 41
1.278468933664057
 42
1.338407254342477
  0
LINE
  5
303
330
D0
100
AcDbEntity
  8
$DDT_AUDIT_GENERATED_(C2)
  6
Continuous
 62
     7
100
AcDbLine
 10
149.9946341881
 20
492.9844347324
 30
0.0
 11
150.4721328736
 21
492.9844347324
 31
0.0
  0
LINE
  5
304
330
D0
100
AcDbEntity
  8
$DDT_AUDIT_GENERATED_(C2)
  6
Continuous
 62
     7
100
AcDbLine
 10
150.4721328736
 20
492.9844347324
 30
0.0
 11
150.4721328736
 21
492.9676971712
 31
0.0
  0
ELLIPSE
  5
305
330
D0
100
AcDbEntity
  8
$DDT_AUDIT_GENERATED_(C2)
  6
Continuous
 62
     7
100
AcDbEllipse
 10
152.3721328737
 20
494.0155916509
 30
0.0
 11
-8.250000000114849
 21
-1.014466288751237E-11
 31
0.0
210
0.0
220
0.0
230
1.0
 40
0.1305261922
 41
1.050693123526639
 42
1.185582205127237
  0
LINE
  5
306
330
D0
100
AcDbEntity
  8
$DDT_AUDIT_GENERATED_(C2)
  6
Continuous
 62
     7
100
AcDbLine
 10
148.2721328736
 20
493.0811435282
 30
0.0
 11
148.2721328736
 21
493.141066163
 31
0.0
  0
LINE
  5
307
330
D0
100
AcDbEntity
  8
$DDT_AUDIT_GENERATED_(C2)
  6
Continuous
 62
     7
100
AcDbLine
 10
148.2721328736
 20
493.141066163
 30
0.0
 11
149.2721328736
 21
493.141066163
 31
0.0
  0
LINE
  5
308
330
D0
100
AcDbEntity
  8
$DDT_AUDIT_GENERATED_(C2)
  6
Continuous
 62
     7
100
AcDbLine
 10
149.2721328736
 20
493.141066163
 30
0.0
 11
149.2721328736
 21
493.0176636378
 31
0.0
  0
ELLIPSE
  5
309
330
D0
100
AcDbEntity
  8
$DDT_AUDIT_GENERATED_(C2)
  6
Continuous
 62
     7
100
AcDbEllipse
 10
152.372132846
 20
494.0155916464
 30
0.0
 11
-8.249999969274334
 21
2.856603842360528E-9
 31
0.0
210
0.0
220
0.0
230
1.0
 40
0.1305261921
 41
0.8731388752264156
 42
0.907356893948863
  0
LINE
  5
30A
330
D0
100
AcDbEntity
  8
$DDT_AUDIT_GENERATED_(C2)
  6
Continuous
 62
     7
100
AcDbLine
 10
147.0721328736
 20
493.1903553488
 30
0.0
 11
147.0721328736
 21
493.2976975937
 31
0.0
  0
LINE
  5
30B
330
D0
100
AcDbEntity
  8
$DDT_AUDIT_GENERATED_(C2)
  6
Continuous
 62
     7
100
AcDbLine
 10
147.0721328736
 20
493.2976975937
 30
0.0
 11
148.0721328736
 21
493.2976975937
 31
0.0
  0
LINE
  5
30C
330
D0
100
AcDbEntity
  8
$DDT_AUDIT_GENERATED_(C2)
  6
Continuous
 62
     7
100
AcDbLine
 10
148.0721328736
 20
493.2976975937
 30
0.0
 11
148.0721328736
 21
493.1671714015
 31
0.0
  0
LINE
  5
30D
330
D0
100
AcDbEntity
  8
$DDT_AUDIT_GENERATED_(C2)
  6
Continuous
 62
     7
100
AcDbLine
 10
148.0721328736
 20
493.1671714015
 30
0.0
 11
147.2915325154
 21
493.1671714015
 31
0.0
  0
LINE
  5
30E
330
D0
100
AcDbEntity
  8
$DDT_AUDIT_GENERATED_(C2)
  6
Continuous
 62
     7
100
AcDbLine
 10
147.2915325154
 20
493.1671714015
 30
0.0
 11
147.2915325154
 21
493.2976975937
 31
0.0
  0
ELLIPSE
  5
30F
330
D0
100
AcDbEntity
  8
$DDT_AUDIT_GENERATED_(C2)
  6
Continuous
 62
     7
100
AcDbEllipse
 10
152.3721328739
 20
494.0155916509
 30
0.0
 11
-8.250000000279288
 21
-2.622901895676932E-11
 31
0.0
210
0.0
220
0.0
230
1.0
 40
0.1305261922
 41
0.9477783669603685
 42
1.022525692698318
  0
LINE
  5
310
330
D0
100
AcDbEntity
  8
$DDT_AUDIT_GENERATED_(C2)
  6
Continuous
 62
     7
100
AcDbLine
 10
147.5583505769
 20
493.141066163
 30
0.0
 11
148.0721328736
 21
493.141066163
 31
0.0
  0
LINE
  5
311
330
D0
100
AcDbEntity
  8
$DDT_AUDIT_GENERATED_(C2)
  6
Continuous
 62
     7
100
AcDbLine
 10
148.0721328736
 20
493.141066163
 30
0.0
 11
148.0721328736
 21
493.0965862167
 31
0.0
  0
ELLIPSE
  5
312
330
D0
100
AcDbEntity
  8
$DDT_AUDIT_GENERATED_(C2)
  6
Continuous
 62
     7
100
AcDbEllipse
 10
152.3721328406
 20
494.0155916474
 30
0.0
 11
-8.249999965862852
 21
2.777875152126796E-9
 31
0.0
210
0.0
220
0.0
230
1.0
 40
0.1305261923
 41
0.6634394354958978
 42
0.6976574542152206
  0
LINE
  5
313
330
D0
100
AcDbEntity
  8
$DDT_AUDIT_GENERATED_(C2)
  6
Continuous
 62
     7
100
AcDbLine
 10
145.8721328736
 20
493.352440232
 30
0.0
 11
145.8721328736
 21
493.4543290244
 31
0.0
  0
LINE
  5
314
330
D0
100
AcDbEntity
  8
$DDT_AUDIT_GENERATED_(C2)
  6
Continuous
 62
     7
100
AcDbLine
 10
145.8721328736
 20
493.4543290244
 30
0.0
 11
146.8721328736
 21
493.4543290244
 31
0.0
  0
LINE
  5
315
330
D0
100
AcDbEntity
  8
$DDT_AUDIT_GENERATED_(C2)
  6
Continuous
 62
     7
100
AcDbLine
 10
146.8721328736
 20
493.4543290244
 30
0.0
 11
146.8721328736
 21
493.3238028321
 31
0.0
  0
LINE
  5
316
330
D0
100
AcDbEntity
  8
$DDT_AUDIT_GENERATED_(C2)
  6
Continuous
 62
     7
100
AcDbLine
 10
146.8721328736
 20
493.3238028321
 30
0.0
 11
146.049751993
 21
493.3238028321
 31
0.0
  0
LINE
  5
317
330
D0
100
AcDbEntity
  8
$DDT_AUDIT_GENERATED_(C2)
  6
Continuous
 62
     7
100
AcDbLine
 10
146.049751993
 20
493.3238028321
 30
0.0
 11
146.049751993
 21
493.4543290244
 31
0.0
  0
ELLIPSE
  5
318
330
D0
100
AcDbEntity
  8
$DDT_AUDIT_GENERATED_(C2)
  6
Continuous
 62
     7
100
AcDbEllipse
 10
152.3721328736
 20
494.0155916509
 30
0.0
 11
-8.249999999972372
 21
3.524958103184872E-12
 31
0.0
210
0.0
220
0.0
230
1.0
 40
0.1305261922
 41
0.7297276562279404
 42
0.8410686705691413
  0
LINE
  5
319
330
D0
100
AcDbEntity
  8
$DDT_AUDIT_GENERATED_(C2)
  6
Continuous
 62
     7
100
AcDbLine
 10
146.2229459355
 20
493.2976975937
 30
0.0
 11
146.8721328736
 21
493.2976975937
 31
0.0
  0
LINE
  5
31A
330
D0
100
AcDbEntity
  8
$DDT_AUDIT_GENERATED_(C2)
  6
Continuous
 62
     7
100
AcDbLine
 10
146.8721328736
 20
493.2976975937
 30
0.0
 11
146.8721328736
 21
493.2129616946
 31
0.0
  0
LINE
  5
31B
330
D0
100
AcDbEntity
  8
$DDT_AUDIT_GENERATED_(C2)
  6
Continuous
 62
     7
100
AcDbLine
 10
145.6721328736
 20
493.6370656935
 30
0.0
 11
144.6721328736
 21
493.6370656935
 31
0.0
  0
LINE
  5
31C
330
D0
100
AcDbEntity
  8
$DDT_AUDIT_GENERATED_(C2)
  6
Continuous
 62
     7
100
AcDbLine
 10
144.6721328736
 20
493.6370656935
 30
0.0
 11
144.6721328736
 21
493.7675918857
 31
0.0
  0
LINE
  5
31D
330
D0
100
AcDbEntity
  8
$DDT_AUDIT_GENERATED_(C2)
  6
Continuous
 62
     7
100
AcDbLine
 10
144.6721328736
 20
493.7675918857
 30
0.0
 11
145.6721328736
 21
493.7675918857
 31
0.0
  0
LINE
  5
31E
330
D0
100
AcDbEntity
  8
$DDT_AUDIT_GENERATED_(C2)
  6
Continuous
 62
     7
100
AcDbLine
 10
145.6721328736
 20
493.7675918857
 30
0.0
 11
145.6721328736
 21
493.6370656935
 31
0.0
  0
ELLIPSE
  5
31F
330
D0
100
AcDbEntity
  8
$DDT_AUDIT_GENERATED_(C2)
  6
Continuous
 62
     7
100
AcDbEllipse
 10
152.3721328736
 20
494.0155916509
 30
0.0
 11
-8.249999999989447
 21
-6.938893903907228E-13
 31
0.0
210
0.0
220
0.0
230
1.0
 40
0.1305261922
 41
0.3852141216624174
 42
0.5201032032647019
  0
LINE
  5
320
330
D0
100
AcDbEntity
  8
$DDT_AUDIT_GENERATED_(C2)
  6
Continuous
 62
     7
100
AcDbLine
 10
144.726709406
 20
493.610960455
 30
0.0
 11
145.6721328736
 21
493.610960455
 31
0.0
  0
LINE
  5
321
330
D0
100
AcDbEntity
  8
$DDT_AUDIT_GENERATED_(C2)
  6
Continuous
 62
     7
100
AcDbLine
 10
145.6721328736
 20
493.610960455
 30
0.0
 11
145.6721328736
 21
493.4804342628
 31
0.0
  0
LINE
  5
322
330
D0
100
AcDbEntity
  8
$DDT_AUDIT_GENERATED_(C2)
  6
Continuous
 62
     7
100
AcDbLine
 10
145.6721328736
 20
493.4804342628
 30
0.0
 11
145.2130477366
 21
493.4804342628
 31
0.0
  0
LINE
  5
323
330
D0
100
AcDbEntity
  8
$DDT_AUDIT_GENERATED_(C2)
  6
Continuous
 62
     7
100
AcDbLine
 10
145.2130477366
 20
493.4804342628
 30
0.0
 11
145.2130477366
 21
493.610960455
 31
0.0
  0
ELLIPSE
  5
324
330
D0
100
AcDbEntity
  8
$DDT_AUDIT_GENERATED_(C2)
  6
Continuous
 62
     7
100
AcDbEllipse
 10
152.3721328716
 20
494.0155916507
 30
0.0
 11
-8.24999999794894
 21
1.476735400629536E-10
 31
0.0
210
0.0
220
0.0
230
1.0
 40
0.1305261922
 41
0.5482706341479766
 42
0.6230179598988035
  0
LINE
  5
325
330
D0
100
AcDbEntity
  8
$DDT_AUDIT_GENERATED_(C2)
  6
Continuous
 62
     7
100
AcDbLine
 10
145.3313587685
 20
493.4543290244
 30
0.0
 11
145.6721328736
 21
493.4543290244
 31
0.0
  0
LINE
  5
326
330
D0
100
AcDbEntity
  8
$DDT_AUDIT_GENERATED_(C2)
  6
Continuous
 62
     7
100
AcDbLine
 10
145.6721328736
 20
493.4543290244
 30
0.0
 11
145.6721328736
 21
493.3872669775
 31
0.0
  0
ELLIPSE
  5
327
330
D0
100
AcDbEntity
  8
$DDT_AUDIT_GENERATED_(C2)
  6
Continuous
 62
     7
100
AcDbEllipse
 10
152.3721328734
 20
494.0155916509
 30
0.0
 11
-8.249999999780073
 21
3.982925100842749E-12
 31
0.0
210
0.0
220
0.0
230
1.0
 40
0.1305261922
 41
0.164086075749189
 42
0.2075474504859728
  0
LINE
  5
328
330
D0
100
AcDbEntity
  8
$DDT_AUDIT_GENERATED_(C2)
  6
Continuous
 62
     7
100
AcDbLine
 10
144.4567581041
 20
493.9242233163
 30
0.0
 11
144.4721328736
 21
493.9242233163
 31
0.0
  0
LINE
  5
329
330
D0
100
AcDbEntity
  8
$DDT_AUDIT_GENERATED_(C2)
  6
Continuous
 62
     7
100
AcDbLine
 10
144.4721328736
 20
493.9242233163
 30
0.0
 11
144.4721328736
 21
493.7936971241
 31
0.0
  0
LINE
  5
32A
330
D0
100
AcDbEntity
  8
$DDT_AUDIT_GENERATED_(C2)
  6
Continuous
 62
     7
100
AcDbLine
 10
144.4721328736
 20
493.7936971241
 30
0.0
 11
144.2991842178
 21
493.7936971241
 31
0.0
  0
LINE
  5
32B
330
D0
100
AcDbEntity
  8
$DDT_AUDIT_GENERATED_(C2)
  6
Continuous
 62
     7
100
AcDbLine
 10
144.2991842178
 20
493.7936971241
 30
0.0
 11
144.2991842178
 21
493.8671155049
 31
0.0
  0
ELLIPSE
  5
32C
330
D0
100
AcDbEntity
  8
$DDT_AUDIT_GENERATED_(C2)
  6
Continuous
 62
     7
100
AcDbEllipse
 10
152.3721328719
 20
494.0155916508
 30
0.0
 11
-8.249999998282686
 21
6.783462680459706E-11
 31
0.0
210
0.0
220
0.0
230
1.0
 40
0.1305261922
 41
0.2323890725060718
 42
0.2923273931846967
  0
LINE
  5
32D
330
D0
100
AcDbEntity
  8
$DDT_AUDIT_GENERATED_(C2)
  6
Continuous
 62
     7
100
AcDbLine
 10
144.343901437
 20
493.7675918857
 30
0.0
 11
144.4721328736
 21
493.7675918857
 31
0.0
  0
LINE
  5
32E
330
D0
100
AcDbEntity
  8
$DDT_AUDIT_GENERATED_(C2)
  6
Continuous
 62
     7
100
AcDbLine
 10
144.4721328736
 20
493.7675918857
 30
0.0
 11
144.4721328736
 21
493.7052658005
 31
0.0
  0
LINE
  5
32F
330
D0
100
AcDbEntity
  8
$DDT_AUDIT_GENERATED_(C2)
  6
Continuous
 62
     7
100
AcDbLine
 10
161.3721328736
 20
493.5198692202
 30
0.0
 11
161.3721328736
 21
494.5497867671
 31
0.0
  0
LINE
  5
330
330
D0
100
AcDbEntity
  8
$DDT_AUDIT_GENERATED_(C2)
  6
Continuous
 62
     7
100
AcDbLine
 10
143.3721328736
 20
494.5497867671
 30
0.0
 11
143.3721328736
 21
493.5198692202
 31
0.0
  0
LINE
  5
331
330
D0
100
AcDbEntity
  8
$DDT_AUDIT_GENERATED_(C6)
  6
Continuous
 62
     7
100
AcDbLine
 10
123.9717333084
 20
454.2185759293
 30
0.0
 11
136.8606305662
 21
454.2185759293
 31
0.0
  0
LINE
  5
332
330
D0
100
AcDbEntity
  8
$DDT_AUDIT_GENERATED_(C6)
  6
Continuous
 62
     7
100
AcDbLine
 10
167.8829126482
 20
454.2185759293
 30
0.0
 11
180.7717333084
 21
454.2185759293
 31
0.0
  0
LINE
  5
333
330
D0
100
AcDbEntity
  8
$DDT_AUDIT_GENERATED_(C6)
  6
Continuous
 62
     7
100
AcDbLine
 10
180.8717333084
 20
453.7185759293
 30
0.0
 11
180.8717333084
 21
454.1185759293
 31
0.0
  0
LINE
  5
334
330
D0
100
AcDbEntity
  8
$DDT_AUDIT_GENERATED_(C6)
  6
Continuous
 62
     7
100
AcDbLine
 10
123.8717333084
 20
454.1185759293
 30
0.0
 11
123.8717333084
 21
453.7185759293
 31
0.0
  0
ARC
  5
335
330
D0
100
AcDbEntity
  8
$DDT_AUDIT_GENERATED_(C6)
  6
Continuous
 62
     7
100
AcDbCircle
 10
123.9717333084
 20
454.1185759293
 30
0.0
 40
0.1000000000000029
100
AcDbArc
 50
90.0
 51
180.0
  0
ARC
  5
336
330
D0
100
AcDbEntity
  8
$DDT_AUDIT_GENERATED_(C6)
  6
Continuous
 62
     7
100
AcDbCircle
 10
180.7717333084
 20
454.1185759293
 30
0.0
 40
0.0999999999999994
100
AcDbArc
 50
0.0
 51
90.0
  0
ARC
  5
337
330
D0
100
AcDbEntity
  8
$DDT_AUDIT_GENERATED_(C6)
  6
Continuous
 62
     7
100
AcDbCircle
 10
180.7717333084
 20
453.7185759293
 30
0.0
 40
0.1000000000000029
100
AcDbArc
 50
270.0
 51
0.0
  0
ARC
  5
338
330
D0
100
AcDbEntity
  8
$DDT_AUDIT_GENERATED_(C6)
  6
Continuous
 62
     7
100
AcDbCircle
 10
123.9717333084
 20
453.7185759293
 30
0.0
 40
0.0999999999999994
100
AcDbArc
 50
180.0
 51
270.0
  0
ENDBLK
  5
33A
330
D0
100
AcDbEntity
  8
0
100
AcDbBlockEnd
  0
BLOCK
  5
357
330
33B
100
AcDbEntity
  8
0
100
AcDbBlockBegin
  2
SE2
 70
     0
 10
0.0
 20
0.0
 30
0.0
  3
SE2
  1

  0
ARC
  5
33D
330
33B
100
AcDbEntity
  8
$DDT_AUDIT_GENERATED_(77)
  6
Continuous
 62
     7
100
AcDbCircle
 10
152.3717333084
 20
298.6189638006
 30
0.0
 40
29.00000000000001
100
AcDbArc
 50
314.0983011959
 51
0.0
  0
ARC
  5
33E
330
33B
100
AcDbEntity
  8
$DDT_AUDIT_GENERATED_(77)
  6
Continuous
 62
     7
100
AcDbCircle
 10
152.3717333084
 20
298.6189638006
 30
0.0
 40
29.00000000000001
100
AcDbArc
 50
0.0
 51
226.047464451
  0
ARC
  5
33F
330
33B
100
AcDbEntity
  8
$DDT_AUDIT_GENERATED_(7F)
  6
Continuous
 62
     7
100
AcDbCircle
 10
152.3578616042
 20
76.539469191
 30
0.0
 40
15.51180379194109
100
AcDbArc
 50
358.5042781303
 51
359.8207041562
  0
ELLIPSE
  5
340
330
33B
100
AcDbEntity
  8
$DDT_AUDIT_GENERATED_(7F)
  6
Continuous
 62
     7
100
AcDbEllipse
 10
152.3714609625
 20
74.9507348746
 30
0.0
 11
-15.49811222341739
 21
2.111461782245116E-6
 31
0.0
210
0.0
220
0.0
230
0.9999999999999999
 40
0.9914448614
 41
1.570818139061534
 42
3.141582321098404
  0
ELLIPSE
  5
341
330
33B
100
AcDbEntity
  8
$DDT_AUDIT_GENERATED_(7F)
  6
Continuous
 62
     7
100
AcDbEllipse
 10
152.3721328736
 20
74.9507348746
 30
0.0
 11
15.49811222341725
 21
2.111458897563223E-6
 31
0.0
210
0.0
220
0.0
230
0.9999999999999999
 40
0.9914448614
 41
3.141602985253787
 42
4.712367168118235
  0
LINE
  5
342
330
33B
100
AcDbEntity
  8
$DDT_AUDIT_GENERATED_(7F)
  6
Continuous
 62
     7
100
AcDbLine
 10
136.8740043632
 20
76.4933806199
 30
0.0
 11
136.8740206511
 21
74.9505740081
 31
0.0
  0
ARC
  5
343
330
33B
100
AcDbEntity
  8
$DDT_AUDIT_GENERATED_(7F)
  6
Continuous
 62
     7
100
AcDbCircle
 10
139.9079618111
 20
76.1848745936
 30
0.0
 40
3.030069169204515
100
AcDbArc
 50
173.5198841274
 51
181.3884222137
  0
LINE
  5
344
330
33B
100
AcDbEntity
  8
$DDT_AUDIT_GENERATED_(7F)
  6
Continuous
 62
     7
100
AcDbLine
 10
167.8695731851
 20
74.9505740081
 30
0.0
 11
167.869589473
 21
76.4933806199
 31
0.0
  0
ARC
  5
345
330
33B
100
AcDbEntity
  8
$DDT_AUDIT_GENERATED_(7F)
  6
Continuous
 62
     7
100
AcDbCircle
 10
164.8356320249
 20
76.1848745936
 30
0.0
 40
3.030069169405415
100
AcDbArc
 50
358.6115777862
 51
6.4801158724
  0
SPLINE
  5
346
330
33B
100
AcDbEntity
  8
$DDT_AUDIT_GENERATED_(7F)
  6
Continuous
 62
     7
100
AcDbSpline
210
0.0
220
0.0
230
1.0
 70
     8
 71
     3
 72
    48
 73
    44
 74
     0
 42
0.0000000000503566
 43
0.0000000001
 40
0.0
 40
0.0
 40
0.0
 40
0.0
 40
0.0146676281278002
 40
0.0301337986010441
 40
0.0457360858469785
 40
0.061489434100249
 40
0.0774135711884338
 40
0.0934969701431077
 40
0.1097514220964152
 40
0.1261890170018315
 40
0.1428223456077068
 40
0.1596645597621061
 40
0.1767294429465483
 40
0.1940314917994021
 40
0.2115860108301273
 40
0.2294092230541924
 40
0.247518399971394
 40
0.2659320152144914
 40
0.2846699273868484
 40
0.3037421210532611
 40
0.323175560940087
 40
0.3429520498985973
 40
0.3630653633801552
 40
0.3835385180538009
 40
0.4043965279486765
 40
0.4256671533047388
 40
0.4473814532229174
 40
0.4695744938656271
 40
0.4922862625070188
 40
0.5155628656528163
 40
0.5394581270965266
 40
0.5640434412077396
 40
0.5893224438262255
 40
0.6151443916770941
 40
0.6415662488685099
 40
0.6686514671502363
 40
0.6964747021910983
 40
0.725124988221424
 40
0.7547102445753698
 40
0.7853637828913489
 40
0.8172554008914629
 40
0.8502981261192867
 40
0.8763113138453665
 40
0.8763113138453665
 40
0.8763113138453665
 40
0.8763113138453665
 10
167.8695843829872
 20
76.4922777946292
 30
0.0
 10
167.8696282646706
 20
77.67128784250306
 30
0.0
 10
167.8697059147789
 20
79.71334117902173
 30
0.0
 10
167.8699005342546
 20
83.11261605456556
 30
0.0
 10
167.8701332954524
 20
86.49713433149057
 30
0.0
 10
167.8703949251749
 20
89.92863176794745
 30
0.0
 10
167.8706799120601
 20
93.3781375930577
 30
0.0
 10
167.8709857485414
 20
96.85423731105895
 30
0.0
 10
167.8713087668339
 20
100.3546984589792
 30
0.0
 10
167.8716454667723
 20
103.8818167544442
 30
0.0
 10
167.8719920484245
 20
107.4372124069336
 30
0.0
 10
167.8723444675312
 20
111.0228208699289
 30
0.0
 10
167.8726983805183
 20
114.6406422644909
 30
0.0
 10
167.8730491145423
 20
118.292828834087
 30
0.0
 10
167.873391622072
 20
121.9816832695822
 30
0.0
 10
167.8737204405814
 20
125.7096854291023
 30
0.0
 10
167.8740296090406
 20
129.4795147160485
 30
0.0
 10
167.8743127097168
 20
133.2940835917618
 30
0.0
 10
167.8745623340707
 20
137.1557697905344
 30
0.0
 10
167.8747716593624
 20
141.0675678130696
 30
0.0
 10
167.874947999596
 20
145.0298372973292
 30
0.0
 10
167.875088912432
 20
149.0416779259108
 30
0.0
 10
167.8751943632294
 20
153.1020349720552
 30
0.0
 10
167.8752638505306
 20
157.2127883214527
 30
0.0
 10
167.8752970741561
 20
161.378081500053
 30
0.0
 10
167.8752936478919
 20
165.6025560049667
 30
0.0
 10
167.8752531495217
 20
169.8914785944019
 30
0.0
 10
167.8751751128045
 20
174.2508757718346
 30
0.0
 10
167.8750589544296
 20
178.6877076981678
 30
0.0
 10
167.8749042135644
 20
183.2100999465588
 30
0.0
 10
167.8747095173608
 20
187.8281350192225
 30
0.0
 10
167.8744766458427
 20
192.5491305504914
 30
0.0
 10
167.87421123414
 20
197.3667857509151
 30
0.0
 10
167.873916857441
 20
202.2741365329501
 30
0.0
 10
167.873598648327
 20
207.2682792583262
 30
0.0
 10
167.8732614096829
 20
212.3605513232665
 30
0.0
 10
167.8729107859332
 20
217.564202054948
 30
0.0
 10
167.8725533536083
 20
222.8951533174782
 30
0.0
 10
167.872196996788
 20
228.3728008529027
 30
0.0
 10
167.8718510160985
 20
234.0215219156891
 30
0.0
 10
167.8715288535262
 20
239.853088471284
 30
0.0
 10
167.8712701983691
 20
245.3753083055669
 30
0.0
 10
167.8711372519508
 20
248.9434622618356
 30
0.0
 10
167.8710861871556
 20
250.5135368617391
 30
0.0
  0
SPLINE
  5
347
330
33B
100
AcDbEntity
  8
$DDT_AUDIT_GENERATED_(7F)
  6
Continuous
 62
     7
100
AcDbSpline
210
0.0
220
0.0
230
1.0
 70
     8
 71
     3
 72
    47
 73
    43
 74
     0
 42
0.0000000000503711
 43
0.0000000001
 40
0.1204662396828951
 40
0.1204662396828951
 40
0.1204662396828951
 40
0.1204662396828951
 40
0.1549070981251701
 40
0.1898996105592314
 40
0.2236870607536052
 40
0.2564713376803924
 40
0.2879002448810463
 40
0.3180739899437856
 40
0.3471768960637485
 40
0.3753526484763235
 40
0.402715277868634
 40
0.4293574404830065
 40
0.455355924312335
 40
0.4807791530576609
 40
0.5055290152386368
 40
0.529534251414195
 40
0.5528714071506861
 40
0.5756055002902223
 40
0.5977911386374611
 40
0.619474895551254
 40
0.640697039482804
 40
0.6614928106898926
 40
0.6818933827690834
 40
0.701926599656219
 40
0.7216109826538726
 40
0.740880335685484
 40
0.7597684618551084
 40
0.7783132441322702
 40
0.7965376538563417
 40
0.8144627894058922
 40
0.8321082026939983
 40
0.8494921122492798
 40
0.8666315802033657
 40
0.8835426606611488
 40
0.9002405249560869
 40
0.9167395680802451
 40
0.9330534996663873
 40
0.9491954222045531
 40
0.9651780392580406
 40
0.9810007946938386
 40
0.9966704793432705
 40
1.0
 40
1.0
 40
1.0
 40
1.0
 10
136.8725264389236
 20
251.1012097232843
 30
0.0
 10
136.8724611628944
 20
249.0223053250276
 30
0.0
 10
136.8723031103887
 20
244.8270648170299
 30
0.0
 10
136.8719980555194
 20
238.5535729980864
 30
0.0
 10
136.8716440892811
 20
232.3494682163676
 30
0.0
 10
136.8712663437752
 20
226.3306840621736
 30
0.0
 10
136.8708809212713
 20
220.501690379955
 30
0.0
 10
136.8705010522498
 20
214.8683342275769
 30
0.0
 10
136.8701353755915
 20
209.4059297484951
 30
0.0
 10
136.8697904329042
 20
204.0885983343648
 30
0.0
 10
136.8694716396745
 20
198.895909083031
 30
0.0
 10
136.8691837182129
 20
193.8114099998216
 30
0.0
 10
136.8689302760308
 20
188.8213264684848
 30
0.0
 10
136.86871653118
 20
183.9240215765663
 30
0.0
 10
136.8685476334362
 20
179.1269110274185
 30
0.0
 10
136.8684221988138
 20
174.4372185734285
 30
0.0
 10
136.8683395267101
 20
169.8518139823095
 30
0.0
 10
136.8682984163939
 20
165.359277275737
 30
0.0
 10
136.8682979362029
 20
160.9500172061435
 30
0.0
 10
136.8683372715313
 20
156.6159584766925
 30
0.0
 10
136.8684157262759
 20
152.3502130591926
 30
0.0
 10
136.8685326875621
 20
148.1468361770309
 30
0.0
 10
136.8686876347774
 20
144.0006471341241
 30
0.0
 10
136.8688800232901
 20
139.9075258023028
 30
0.0
 10
136.8691092319293
 20
135.8699996298985
 30
0.0
 10
136.8693811710373
 20
131.8900274162232
 30
0.0
 10
136.86968465756
 20
127.9684089846931
 30
0.0
 10
136.8700127051596
 20
124.0997566095812
 30
0.0
 10
136.8703583199268
 20
120.2794953651651
 30
0.0
 10
136.8707152674015
 20
116.504279992154
 30
0.0
 10
136.8710778119635
 20
112.771061189277
 30
0.0
 10
136.871440710604
 20
109.0770426512896
 30
0.0
 10
136.8717991396697
 20
105.4196392381706
 30
0.0
 10
136.8721486375795
 20
101.796479417224
 30
0.0
 10
136.87248509929
 20
98.2052701159312
 30
0.0
 10
136.872804593915
 20
94.64418519348374
 30
0.0
 10
136.8731038615771
 20
91.11035060978661
 30
0.0
 10
136.8733783389995
 20
87.60531691789309
 30
0.0
 10
136.8736292162413
 20
84.11577881004885
 30
0.0
 10
136.8738333398075
 20
80.68723558772169
 30
0.0
 10
136.8739639836993
 20
78.0680961210981
 30
0.0
 10
136.8739983087136
 20
76.75829061862231
 30
0.0
 10
136.8740052758777
 20
76.49031423278034
 30
0.0
  0
ARC
  5
348
330
33B
100
AcDbEntity
  8
$DDT_AUDIT_GENERATED_(95)
  6
Continuous
 62
     7
100
AcDbCircle
 10
152.3717333084
 20
298.6189638006
 30
0.0
 40
28.9999778603596
100
AcDbArc
 50
0.0
 51
226.1728835128
  0
ARC
  5
349
330
33B
100
AcDbEntity
  8
$DDT_AUDIT_GENERATED_(95)
  6
Continuous
 62
     7
100
AcDbCircle
 10
152.3717333084
 20
298.6189638006
 30
0.0
 40
28.9999778603596
100
AcDbArc
 50
314.1072750666
 51
0.0
  0
ARC
  5
34A
330
33B
100
AcDbEntity
  8
$DDT_AUDIT_GENERATED_(A2)
  6
Continuous
 62
     7
100
AcDbCircle
 10
152.365980217
 20
298.5813050294
 30
0.0
 40
27.24405615978918
100
AcDbArc
 50
179.9522749342
 51
180.9599193267
  0
ARC
  5
34B
330
33B
100
AcDbEntity
  8
$DDT_AUDIT_GENERATED_(A2)
  6
Continuous
 62
     7
100
AcDbCircle
 10
152.393488603
 20
298.5828666546
 30
0.0
 40
27.27156328150934
100
AcDbArc
 50
89.9767490354
 51
179.9556039455
  0
ARC
  5
34C
330
33B
100
AcDbEntity
  8
$DDT_AUDIT_GENERATED_(A2)
  6
Continuous
 62
     7
100
AcDbCircle
 10
152.377335955
 20
298.581339221
 30
0.0
 40
27.24410402899323
100
AcDbArc
 50
358.9023227276
 51
359.9095018982
  0
ARC
  5
34D
330
33B
100
AcDbEntity
  8
$DDT_AUDIT_GENERATED_(A2)
  6
Continuous
 62
     7
100
AcDbCircle
 10
152.353658647
 20
298.586684924
 30
0.0
 40
27.26779026764997
100
AcDbArc
 50
359.8983479658
 51
89.8930540326
  0
ARC
  5
34E
330
33B
100
AcDbEntity
  8
$DDT_AUDIT_GENERATED_(A2)
  6
Continuous
 62
     7
100
AcDbCircle
 10
158.1279634279
 20
298.6889004115
 30
0.0
 40
33.00549750529378
100
AcDbArc
 50
180.9791047867
 51
217.0649996275
  0
ARC
  5
34F
330
33B
100
AcDbEntity
  8
$DDT_AUDIT_GENERATED_(A2)
  6
Continuous
 62
     7
100
AcDbCircle
 10
146.6921485955
 20
298.6696661269
 30
0.0
 40
32.92847773201872
100
AcDbArc
 50
323.0915953429
 51
358.9380369611
  0
ARC
  5
350
330
33B
100
AcDbEntity
  8
$DDT_AUDIT_GENERATED_(A2)
  6
Continuous
 62
     7
100
AcDbCircle
 10
199.3699686885
 20
265.6622045968
 30
0.0
 40
29.49134256161939
100
AcDbArc
 50
149.8266643365
 51
170.3166547855
  0
ARC
  5
351
330
33B
100
AcDbEntity
  8
$DDT_AUDIT_GENERATED_(A2)
  6
Continuous
 62
     7
100
AcDbCircle
 10
106.1629061601
 20
265.6861897681
 30
0.0
 40
28.79576460821801
100
AcDbArc
 50
9.567869216
 51
30.5039304575
  0
ARC
  5
352
330
33B
100
AcDbEntity
  8
$DDT_AUDIT_GENERATED_(A2)
  6
Continuous
 62
     7
100
AcDbCircle
 10
717.1573889794
 20
193.6330960733
 30
0.0
 40
552.243561991131
100
AcDbArc
 50
171.9862698975
 51
178.707243562
  0
SPLINE
  5
353
330
33B
100
AcDbEntity
  8
$DDT_AUDIT_GENERATED_(A2)
  6
Continuous
 62
     7
100
AcDbSpline
210
0.0
220
0.0
230
1.0
 70
     8
 71
     3
 72
    29
 73
    25
 74
     0
 42
0.000000000154775
 43
0.0000000001
 40
0.0
 40
0.0
 40
0.0
 40
0.0
 40
0.0367047833617746
 40
0.0749948870414737
 40
0.1137479234883758
 40
0.1529969039324513
 40
0.1925101903836193
 40
0.2326270763242898
 40
0.2733686047724888
 40
0.3147561025645968
 40
0.3568072041617774
 40
0.3995348949584974
 40
0.4429463076495175
 40
0.4870412850705104
 40
0.5318250632145248
 40
0.5774602851178054
 40
0.6262141132879001
 40
0.6769812879986231
 40
0.7299917253259154
 40
0.785390788901003
 40
0.8431937797798061
 40
0.9031505623580169
 40
0.9645927614206344
 40
1.0
 40
1.0
 40
1.0
 40
1.0
 10
134.5502225711947
 20
270.4730807292215
 30
0.0
 10
134.6610885069482
 20
269.6302410715506
 30
0.0
 10
134.8519034382223
 20
268.177821350494
 30
0.0
 10
135.170209925109
 20
265.7399431111228
 30
0.0
 10
135.4836595876007
 20
263.2987373516048
 30
0.0
 10
135.7923492393299
 20
260.8038682135087
 30
0.0
 10
136.0936321184424
 20
258.2749905771784
 30
0.0
 10
136.3868582272976
 20
255.7044391474259
 30
0.0
 10
136.6712200450625
 20
253.0865539529174
 30
0.0
 10
136.9451326391946
 20
250.4204678855294
 30
0.0
 10
137.2068069025393
 20
247.706035967845
 30
0.0
 10
137.4543348123192
 20
244.9432590831673
 30
0.0
 10
137.6854787299465
 20
242.1325475343447
 30
0.0
 10
137.8984058220255
 20
239.2744957827781
 30
0.0
 10
138.0891874717046
 20
236.3662003683815
 30
0.0
 10
138.2660221419553
 20
233.3563013874895
 30
0.0
 10
138.4343439560227
 20
230.2171723648106
 30
0.0
 10
138.5981651089752
 20
226.919937030405
 30
0.0
 10
138.7610911840323
 20
223.4808761024225
 30
0.0
 10
138.9291917741295
 20
219.895253741207
 30
0.0
 10
139.1100749983462
 20
216.1561632909
 30
0.0
 10
139.3113143791581
 20
212.3240056505713
 30
0.0
 10
139.5109115618407
 20
208.8709552042678
 30
0.0
 10
139.6448961840912
 20
206.9326533550351
 30
0.0
 10
139.7028451801821
 20
206.0975796586061
 30
0.0
  0
ARC
  5
354
330
33B
100
AcDbEntity
  8
$DDT_AUDIT_GENERATED_(A2)
  6
Continuous
 62
     7
100
AcDbCircle
 10
163.5610564888
 20
206.1954488236
 30
0.0
 40
1.499999999999964
100
AcDbArc
 50
301.806075378
 51
356.0320288251
  0
ARC
  5
355
330
33B
100
AcDbEntity
  8
$DDT_AUDIT_GENERATED_(A2)
  6
Continuous
 62
     7
100
AcDbCircle
 10
141.1947554126
 20
206.1990068209
 30
0.0
 40
1.49999999999999
100
AcDbArc
 50
183.915220045
 51
238.1782809328
  0
ARC
  5
356
330
33B
100
AcDbEntity
  8
$DDT_AUDIT_GENERATED_(A2)
  6
Continuous
 62
     7
100
AcDbCircle
 10
152.3754854993
 20
222.8797423685
 30
0.0
 40
21.58108967895438
100
AcDbArc
 50
236.3050201051
 51
303.6978949436
  0
ENDBLK
  5
358
330
33B
100
AcDbEntity
  8
0
100
AcDbBlockEnd
  0
ENDSEC
  0
SECTION
  2
ENTITIES
  0
INSERT
  5
5F
330
1F
100
AcDbEntity
  8
Default
100
AcDbBlockReference
  2
SEANNOT_GROUP
 10
0.0
 20
0.0
 30
0.0
  0
INSERT
  5
66
330
1F
100
AcDbEntity
  8
Default
100
AcDbBlockReference
  2
SEANNOT_GROUP1
 10
0.0
 20
0.0
 30
0.0
  0
INSERT
  5
6C
330
1F
100
AcDbEntity
  8
Default
100
AcDbBlockReference
  2
SEANNOT_GROUP2
 10
0.0
 20
0.0
 30
0.0
  0
INSERT
  5
76
330
1F
100
AcDbEntity
  8
Default
100
AcDbBlockReference
  2
SE
 10
0.0
 20
0.0
 30
0.0
  0
INSERT
  5
D1
330
1F
100
AcDbEntity
  8
Default
100
AcDbBlockReference
  2
SE1
 10
0.0
 20
0.0
 30
0.0
  0
INSERT
  5
33C
330
1F
100
AcDbEntity
  8
Default
100
AcDbBlockReference
  2
SE2
 10
0.0
 20
0.0
 30
0.0
  0
TEXT
  5
35A
330
1F
100
AcDbEntity
  8
Default
  6
Continuous
 62
     7
100
AcDbText
 10
5.9362635081
 20
53.4225120485
 30
0.0
 40
10.0
  1
Grohe AG^J
  7
SEACAD_seiso_ttf
 11
5.9362635081
 21
63.4225120485
 31
0.0
100
AcDbText
 73
     3
  0
TEXT
  5
35B
330
1F
100
AcDbEntity
  8
Default
  6
Continuous
 62
     7
100
AcDbText
 10
5.9362635081
 20
37.0588756849
 30
0.0
 40
10.0
  1
 
  7
SEACAD_seiso_ttf
 11
5.9362635081
 21
47.0588756849
 31
0.0
100
AcDbText
 73
     3
  0
TEXT
  5
35C
330
1F
100
AcDbEntity
  8
Default
  6
Continuous
 62
     7
100
AcDbText
 10
5.9362635081
 20
20.6952393213
 30
0.0
 40
10.0
  1
ecn:
  7
SEACAD_seiso_ttf
 11
5.9362635081
 21
30.6952393213
 31
0.0
100
AcDbText
 73
     3
  0
TEXT
  5
35D
330
1F
100
AcDbEntity
  8
Default
  6
Continuous
 62
     7
100
AcDbText
 10
5.9362635081
 20
4.3316029576
 30
0.0
 40
10.0
  1
unit: mm
  7
SEACAD_seiso_ttf
 11
5.9362635081
 21
14.3316029576
 31
0.0
100
AcDbText
 73
     3
  0
LINE
  5
35E
330
1F
100
AcDbEntity
  8
Default
  6
Continuous
 62
     7
100
AcDbLine
 10
0.0
 20
0.0
 30
0.0
 11
100.0
 21
0.0
 31
0.0
  0
LINE
  5
35F
330
1F
100
AcDbEntity
  8
Default
  6
Continuous
 62
     7
100
AcDbLine
 10
0.0
 20
0.0
 30
0.0
 11
0.0
 21
100.0
 31
0.0
  0
TEXT
  5
360
330
1F
100
AcDbEntity
  8
Default
  6
Continuous
 62
     7
100
AcDbText
 10
24.3923665681
 20
-18.2375342018
 30
0.0
 40
10.0
  1
100 mm
  7
SEACAD_seiso_ttf
 11
24.3923665681
 21
-8.2375342018
 31
0.0
100
AcDbText
 73
     3
  0
TEXT
  5
361
330
1F
100
AcDbEntity
  8
Default
  6
Continuous
 62
     7
100
AcDbText
 10
-7.6150308803
 20
24.6231930421
 30
0.0
 40
10.0
  1
100 mm
 50
90.0
  7
SEACAD_seiso_ttf
 11
-17.6150308803
 21
24.6231930421
 31
0.0
100
AcDbText
 73
     3
  0
TEXT
  5
362
330
1F
100
AcDbEntity
  8
Default
  6
Continuous
 62
     7
100
AcDbText
 10
28.4878128572
 20
20.0907663715
 30
0.0
 40
10.0
  1
222116
  7
SEACAD_seiso_ttf
 11
28.4878128572
 21
30.0907663715
 31
0.0
100
AcDbText
 73
     3
  0
TEXT
  5
363
330
1F
100
AcDbEntity
  8
Default
  6
Continuous
 62
     7
100
AcDbText
 10
5.9012241913
 20
36.7242780188
 30
0.0
 40
10.0
  1
31321001
  7
SEACAD_seiso_ttf
 11
5.9012241913
 21
46.7242780188
 31
0.0
100
AcDbText
 73
     3
  0
ENDSEC
  0
SECTION
  2
OBJECTS
  0
DICTIONARY
  5
C
330
0
100
AcDbDictionary
281
     1
  3
ACAD_GROUP
350
D
  3
ACAD_LAYOUT
350
1A
  3
ACAD_MLEADERSTYLE
350
367
  3
ACAD_MLINESTYLE
350
17
  3
ACAD_PLOTSETTINGS
350
19
  3
ACAD_PLOTSTYLENAME
350
E
  3
ACAD_SCALELIST
350
3B
  3
ACAD_TABLESTYLE
350
366
  3
ACAD_VISUALSTYLE
350
2A
  3
AcDbVariableDictionary
350
364
  0
DICTIONARY
  5
D
102
{ACAD_REACTORS
330
C
102
}
330
C
100
AcDbDictionary
281
     1
  0
DICTIONARY
  5
1A
102
{ACAD_REACTORS
330
C
102
}
330
C
100
AcDbDictionary
281
     1
  3
Layout1
350
1E
  3
Model
350
22
  0
DICTIONARY
  5
367
102
{ACAD_REACTORS
330
C
102
}
330
C
100
AcDbDictionary
281
     1
  0
DICTIONARY
  5
17
102
{ACAD_REACTORS
330
C
102
}
330
C
100
AcDbDictionary
281
     1
  3
Standard
350
18
  0
DICTIONARY
  5
19
102
{ACAD_REACTORS
330
C
102
}
330
C
100
AcDbDictionary
281
     1
  0
ACDBDICTIONARYWDFLT
  5
E
102
{ACAD_REACTORS
330
C
102
}
330
C
100
AcDbDictionary
281
     1
  3
Normal
350
F
100
AcDbDictionaryWithDefault
340
F
  0
DICTIONARY
  5
3B
102
{ACAD_REACTORS
330
C
102
}
330
C
100
AcDbDictionary
281
     1
  3
A0
350
3C
  3
A1
350
3D
  3
A2
350
3E
  3
A3
350
3F
  3
A4
350
40
  3
A5
350
41
  3
A6
350
42
  3
A7
350
43
  3
A8
350
44
  3
A9
350
45
  3
B0
350
46
  3
B1
350
47
  3
B2
350
48
  3
B3
350
49
  3
B4
350
4A
  3
B5
350
4B
  3
B6
350
4C
  3
B7
350
4D
  3
B8
350
4E
  3
B9
350
4F
  3
C0
350
50
  3
C1
350
51
  3
C2
350
52
  3
C3
350
53
  3
C4
350
54
  3
C5
350
55
  3
C6
350
56
  3
C7
350
57
  3
C8
350
58
  3
C9
350
59
  3
D0
350
5A
  3
D1
350
5B
  3
D2
350
5C
  0
DICTIONARY
  5
366
102
{ACAD_REACTORS
330
C
102
}
330
C
100
AcDbDictionary
281
     1
  0
DICTIONARY
  5
2A
102
{ACAD_REACTORS
330
C
102
}
330
C
100
AcDbDictionary
281
     1
  3
2dWireframe
350
2F
  3
3D Hidden
350
31
  3
3dWireframe
350
30
  3
Basic
350
32
  3
Brighten
350
36
  3
ColorChange
350
3A
  3
Conceptual
350
34
  3
Dim
350
35
  3
Facepattern
350
39
  3
Flat
350
2B
  3
FlatWithEdges
350
2C
  3
Gouraud
350
2D
  3
GouraudWithEdges
350
2E
  3
Linepattern
350
38
  3
Realistic
350
33
  3
Thicken
350
37
  0
DICTIONARY
  5
364
102
{ACAD_REACTORS
330
C
102
}
330
C
100
AcDbDictionary
281
     1
  3
CANNOSCALE
350
365
  3
PSOLHEIGHT
350
369
  3
PSOLWIDTH
350
368
  0
LAYOUT
  5
1E
102
{ACAD_REACTORS
330
1A
102
}
330
1A
100
AcDbPlotSettings
  1

  2
none_device
  4

  6

 40
0.0
 41
0.0
 42
0.0
 43
0.0
 44
0.0
 45
0.0
 46
0.0
 47
0.0
 48
0.0
 49
0.0
140
0.0
141
0.0
142
1.0
143
1.0
 70
   688
 72
     0
 73
     0
 74
     5
  7

 75
    16
147
1.0
148
0.0
149
0.0
100
AcDbLayout
  1
Layout1
 70
     1
 71
     1
 10
0.0
 20
0.0
 11
3000.0
 21
4500.0
 12
0.0
 22
0.0
 32
0.0
 14
0.0
 24
0.0
 34
0.0
 15
3000.0
 25
4500.0
 35
0.0
146
0.0
 13
0.0
 23
0.0
 33
0.0
 16
1.0
 26
0.0
 36
0.0
 17
0.0
 27
1.0
 37
0.0
 76
     0
330
1B
  0
LAYOUT
  5
22
102
{ACAD_REACTORS
330
1A
102
}
330
1A
100
AcDbPlotSettings
  1

  2
none_device
  4

  6

 40
0.0
 41
0.0
 42
0.0
 43
0.0
 44
0.0
 45
0.0
 46
0.0
 47
0.0
 48
0.0
 49
0.0
140
0.0
141
0.0
142
1.0
143
1.0
 70
  1712
 72
     0
 73
     0
 74
     0
  7

 75
     0
147
1.0
148
0.0
149
0.0
100
AcDbLayout
  1
Model
 70
     1
 71
     0
 10
0.0
 20
0.0
 11
3000.0
 21
4500.0
 12
0.0
 22
0.0
 32
0.0
 14
0.0
 24
0.0
 34
0.0
 15
3000.0
 25
4500.0
 35
0.0
146
0.0
 13
0.0
 23
0.0
 33
0.0
 16
1.0
 26
0.0
 36
0.0
 17
0.0
 27
1.0
 37
0.0
 76
     0
330
1F
331
29
  0
MLINESTYLE
  5
18
102
{ACAD_REACTORS
330
17
102
}
330
17
100
AcDbMlineStyle
  2
Standard
 70
     0
  3

 62
   256
 51
90.0
 52
90.0
 71
     2
 49
0.5
 62
   256
  6
BYLAYER
 49
-0.5
 62
   256
  6
BYLAYER
  0
ACDBPLACEHOLDER
  5
F
102
{ACAD_REACTORS
330
E
102
}
330
E
  0
SCALE
  5
3C
102
{ACAD_REACTORS
330
3B
102
}
330
3B
100
AcDbScale
 70
     0
300
1:1
140
1.0
141
1.0
290
     1
  0
SCALE
  5
3D
102
{ACAD_REACTORS
330
3B
102
}
330
3B
100
AcDbScale
 70
     0
300
1:2
140
1.0
141
2.0
290
     0
  0
SCALE
  5
3E
102
{ACAD_REACTORS
330
3B
102
}
330
3B
100
AcDbScale
 70
     0
300
1:4
140
1.0
141
4.0
290
     0
  0
SCALE
  5
3F
102
{ACAD_REACTORS
330
3B
102
}
330
3B
100
AcDbScale
 70
     0
300
1:5
140
1.0
141
5.0
290
     0
  0
SCALE
  5
40
102
{ACAD_REACTORS
330
3B
102
}
330
3B
100
AcDbScale
 70
     0
300
1:8
140
1.0
141
8.0
290
     0
  0
SCALE
  5
41
102
{ACAD_REACTORS
330
3B
102
}
330
3B
100
AcDbScale
 70
     0
300
1:10
140
1.0
141
10.0
290
     0
  0
SCALE
  5
42
102
{ACAD_REACTORS
330
3B
102
}
330
3B
100
AcDbScale
 70
     0
300
1:16
140
1.0
141
16.0
290
     0
  0
SCALE
  5
43
102
{ACAD_REACTORS
330
3B
102
}
330
3B
100
AcDbScale
 70
     0
300
1:20
140
1.0
141
20.0
290
     0
  0
SCALE
  5
44
102
{ACAD_REACTORS
330
3B
102
}
330
3B
100
AcDbScale
 70
     0
300
1:30
140
1.0
141
30.0
290
     0
  0
SCALE
  5
45
102
{ACAD_REACTORS
330
3B
102
}
330
3B
100
AcDbScale
 70
     0
300
1:40
140
1.0
141
40.0
290
     0
  0
SCALE
  5
46
102
{ACAD_REACTORS
330
3B
102
}
330
3B
100
AcDbScale
 70
     0
300
1:50
140
1.0
141
50.0
290
     0
  0
SCALE
  5
47
102
{ACAD_REACTORS
330
3B
102
}
330
3B
100
AcDbScale
 70
     0
300
1:100
140
1.0
141
100.0
290
     0
  0
SCALE
  5
48
102
{ACAD_REACTORS
330
3B
102
}
330
3B
100
AcDbScale
 70
     0
300
2:1
140
2.0
141
1.0
290
     0
  0
SCALE
  5
49
102
{ACAD_REACTORS
330
3B
102
}
330
3B
100
AcDbScale
 70
     0
300
4:1
140
4.0
141
1.0
290
     0
  0
SCALE
  5
4A
102
{ACAD_REACTORS
330
3B
102
}
330
3B
100
AcDbScale
 70
     0
300
8:1
140
8.0
141
1.0
290
     0
  0
SCALE
  5
4B
102
{ACAD_REACTORS
330
3B
102
}
330
3B
100
AcDbScale
 70
     0
300
10:1
140
10.0
141
1.0
290
     0
  0
SCALE
  5
4C
102
{ACAD_REACTORS
330
3B
102
}
330
3B
100
AcDbScale
 70
     0
300
100:1
140
100.0
141
1.0
290
     0
  0
SCALE
  5
4D
102
{ACAD_REACTORS
330
3B
102
}
330
3B
100
AcDbScale
 70
     0
300
1/128" = 1'-0"
140
0.0078125
141
12.0
290
     0
  0
SCALE
  5
4E
102
{ACAD_REACTORS
330
3B
102
}
330
3B
100
AcDbScale
 70
     0
300
1/64" = 1'-0"
140
0.015625
141
12.0
290
     0
  0
SCALE
  5
4F
102
{ACAD_REACTORS
330
3B
102
}
330
3B
100
AcDbScale
 70
     0
300
1/32" = 1'-0"
140
0.03125
141
12.0
290
     0
  0
SCALE
  5
50
102
{ACAD_REACTORS
330
3B
102
}
330
3B
100
AcDbScale
 70
     0
300
1/16" = 1'-0"
140
0.0625
141
12.0
290
     0
  0
SCALE
  5
51
102
{ACAD_REACTORS
330
3B
102
}
330
3B
100
AcDbScale
 70
     0
300
3/32" = 1'-0"
140
0.09375
141
12.0
290
     0
  0
SCALE
  5
52
102
{ACAD_REACTORS
330
3B
102
}
330
3B
100
AcDbScale
 70
     0
300
1/8" = 1'-0"
140
0.125
141
12.0
290
     0
  0
SCALE
  5
53
102
{ACAD_REACTORS
330
3B
102
}
330
3B
100
AcDbScale
 70
     0
300
3/16" = 1'-0"
140
0.1875
141
12.0
290
     0
  0
SCALE
  5
54
102
{ACAD_REACTORS
330
3B
102
}
330
3B
100
AcDbScale
 70
     0
300
1/4" = 1'-0"
140
0.25
141
12.0
290
     0
  0
SCALE
  5
55
102
{ACAD_REACTORS
330
3B
102
}
330
3B
100
AcDbScale
 70
     0
300
3/8" = 1'-0"
140
0.375
141
12.0
290
     0
  0
SCALE
  5
56
102
{ACAD_REACTORS
330
3B
102
}
330
3B
100
AcDbScale
 70
     0
300
1/2" = 1'-0"
140
0.5
141
12.0
290
     0
  0
SCALE
  5
57
102
{ACAD_REACTORS
330
3B
102
}
330
3B
100
AcDbScale
 70
     0
300
3/4" = 1'-0"
140
0.75
141
12.0
290
     0
  0
SCALE
  5
58
102
{ACAD_REACTORS
330
3B
102
}
330
3B
100
AcDbScale
 70
     0
300
1" = 1'-0"
140
1.0
141
12.0
290
     0
  0
SCALE
  5
59
102
{ACAD_REACTORS
330
3B
102
}
330
3B
100
AcDbScale
 70
     0
300
1-1/2" = 1'-0"
140
1.5
141
12.0
290
     0
  0
SCALE
  5
5A
102
{ACAD_REACTORS
330
3B
102
}
330
3B
100
AcDbScale
 70
     0
300
3" = 1'-0"
140
3.0
141
12.0
290
     0
  0
SCALE
  5
5B
102
{ACAD_REACTORS
330
3B
102
}
330
3B
100
AcDbScale
 70
     0
300
6" = 1'-0"
140
6.0
141
12.0
290
     0
  0
SCALE
  5
5C
102
{ACAD_REACTORS
330
3B
102
}
330
3B
100
AcDbScale
 70
     0
300
1'-0" = 1'-0"
140
12.0
141
12.0
290
     0
  0
VISUALSTYLE
  5
2F
102
{ACAD_REACTORS
330
2A
102
}
330
2A
100
AcDbVisualStyle
  2
2dWireframe
 70
     4
 71
     0
 72
     2
 73
     0
 90
        0
 40
-0.6
 41
-30.0
 62
     5
 63
     7
 74
     1
 91
        4
 64
     7
 65
   257
 75
     1
175
     1
 42
1.0
 92
        0
 66
   257
 43
1.0
 76
     1
 77
     6
 78
     2
 67
     7
 79
     5
170
     0
171
     0
290
     0
174
     0
 93
        1
 44
0.0
173
     0
291
     0
 45
0.0
1001
ACAD
1000
AcDbSavedByObjectVersion
1070
     0
  0
VISUALSTYLE
  5
31
102
{ACAD_REACTORS
330
2A
102
}
330
2A
100
AcDbVisualStyle
  2
3D Hidden
 70
     6
 71
     1
 72
     2
 73
     2
 90
        0
 40
-0.6
 41
-30.0
 62
     5
 63
     7
 74
     2
 91
        2
 64
     7
 65
   257
 75
     2
175
     1
 42
40.0
 92
        0
 66
   257
 43
1.0
 76
     1
 77
     6
 78
     2
 67
     7
 79
     3
170
     0
171
     0
290
     0
174
     0
 93
        1
 44
0.0
173
     0
291
     0
 45
0.0
1001
ACAD
1000
AcDbSavedByObjectVersion
1070
     0
  0
VISUALSTYLE
  5
30
102
{ACAD_REACTORS
330
2A
102
}
330
2A
100
AcDbVisualStyle
  2
3dWireframe
 70
     5
 71
     0
 72
     2
 73
     0
 90
        0
 40
-0.6
 41
-30.0
 62
     5
 63
     7
 74
     1
 91
        4
 64
     7
 65
   257
 75
     1
175
     1
 42
1.0
 92
        0
 66
   257
 43
1.0
 76
     1
 77
     6
 78
     2
 67
     7
 79
     5
170
     0
171
     0
290
     0
174
     0
 93
        1
 44
0.0
173
     0
291
     0
 45
0.0
1001
ACAD
1000
AcDbSavedByObjectVersion
1070
     0
  0
VISUALSTYLE
  5
32
102
{ACAD_REACTORS
330
2A
102
}
330
2A
100
AcDbVisualStyle
  2
Basic
 70
     7
 71
     1
 72
     0
 73
     1
 90
        0
 40
-0.6
 41
-30.0
 62
     5
 63
     7
 74
     0
 91
        4
 64
     7
 65
   257
 75
     1
175
     1
 42
1.0
 92
        8
 66
     7
 43
1.0
 76
     1
 77
     6
 78
     2
 67
     7
 79
     5
170
     0
171
     0
290
     0
174
     0
 93
        1
 44
0.0
173
     0
291
     1
 45
0.0
1001
ACAD
1000
AcDbSavedByObjectVersion
1070
     0
  0
VISUALSTYLE
  5
36
102
{ACAD_REACTORS
330
2A
102
}
330
2A
100
AcDbVisualStyle
  2
Brighten
 70
    12
 71
     2
 72
     2
 73
     0
 90
        0
 40
-0.6
 41
-30.0
 62
     5
 63
     7
 74
     1
 91
        4
 64
     7
 65
   257
 75
     1
175
     1
 42
1.0
 92
        8
 66
     7
 43
1.0
 76
     1
 77
     6
 78
     2
 67
     7
 79
     5
170
     0
171
     0
290
     0
174
     0
 93
        1
 44
50.0
173
     0
291
     1
 45
0.0
1001
ACAD
1000
AcDbSavedByObjectVersion
1070
     0
  0
VISUALSTYLE
  5
3A
102
{ACAD_REACTORS
330
2A
102
}
330
2A
100
AcDbVisualStyle
  2
ColorChange
 70
    16
 71
     2
 72
     2
 73
     3
 90
        0
 40
-0.6
 41
-30.0
 62
     5
 63
     8
 74
     1
 91
        4
 64
     7
 65
   257
 75
     1
175
     1
 42
1.0
 92
        8
 66
     8
 43
1.0
 76
     1
 77
     6
 78
     2
 67
     7
 79
     5
170
     0
171
     0
290
     0
174
     0
 93
        1
 44
0.0
173
     0
291
     1
 45
0.0
1001
ACAD
1000
AcDbSavedByObjectVersion
1070
     0
  0
VISUALSTYLE
  5
34
102
{ACAD_REACTORS
330
2A
102
}
330
2A
100
AcDbVisualStyle
  2
Conceptual
 70
     9
 71
     3
 72
     2
 73
     0
 90
        0
 40
-0.6
 41
-30.0
 62
     5
 63
     7
 74
     2
 91
        2
 64
     7
 65
   257
 75
     1
175
     1
 42
40.0
 92
        8
 66
     7
 43
1.0
 76
     1
 77
     6
 78
     2
 67
     7
 79
     3
170
     0
171
     0
290
     0
174
     0
 93
        1
 44
0.0
173
     0
291
     0
 45
0.0
1001
ACAD
1000
AcDbSavedByObjectVersion
1070
     0
  0
VISUALSTYLE
  5
35
102
{ACAD_REACTORS
330
2A
102
}
330
2A
100
AcDbVisualStyle
  2
Dim
 70
    11
 71
     2
 72
     2
 73
     0
 90
        0
 40
-0.6
 41
-30.0
 62
     5
 63
     7
 74
     1
 91
        4
 64
     7
 65
   257
 75
     1
175
     1
 42
1.0
 92
        8
 66
     7
 43
1.0
 76
     1
 77
     6
 78
     2
 67
     7
 79
     5
170
     0
171
     0
290
     0
174
     0
 93
        1
 44
-50.0
173
     0
291
     1
 45
0.0
1001
ACAD
1000
AcDbSavedByObjectVersion
1070
     0
  0
VISUALSTYLE
  5
39
102
{ACAD_REACTORS
330
2A
102
}
330
2A
100
AcDbVisualStyle
  2
Facepattern
 70
    15
 71
     2
 72
     2
 73
     0
 90
        0
 40
-0.6
 41
-30.0
 62
     5
 63
     7
 74
     1
 91
        4
 64
     7
 65
   257
 75
     1
175
     1
 42
1.0
 92
        8
 66
     7
 43
1.0
 76
     1
 77
     6
 78
     2
 67
     7
 79
     5
170
     0
171
     0
290
     0
174
     0
 93
        1
 44
0.0
173
     0
291
     1
 45
0.0
1001
ACAD
1000
AcDbSavedByObjectVersion
1070
     0
  0
VISUALSTYLE
  5
2B
102
{ACAD_REACTORS
330
2A
102
}
330
2A
100
AcDbVisualStyle
  2
Flat
 70
     0
 71
     2
 72
     1
 73
     1
 90
        2
 40
-0.6
 41
30.0
 62
     5
 63
     7
 74
     0
 91
        4
 64
     7
 65
   257
 75
     1
175
     1
 42
1.0
 92
        8
 66
     7
 43
1.0
 76
     1
 77
     6
 78
     2
 67
     7
 79
     5
170
     0
171
     0
290
     0
174
     0
 93
       13
 44
0.0
173
     0
291
     1
 45
0.0
1001
ACAD
1000
AcDbSavedByObjectVersion
1070
     0
  0
VISUALSTYLE
  5
2C
102
{ACAD_REACTORS
330
2A
102
}
330
2A
100
AcDbVisualStyle
  2
FlatWithEdges
 70
     1
 71
     2
 72
     1
 73
     1
 90
        2
 40
-0.6
 41
30.0
 62
     5
 63
     7
 74
     1
 91
        4
 64
     7
 65
   257
 75
     1
175
     1
 42
1.0
 92
        0
 66
   257
 43
1.0
 76
     1
 77
     6
 78
     2
 67
     7
 79
     5
170
     0
171
     0
290
     0
174
     0
 93
       13
 44
0.0
173
     0
291
     1
 45
0.0
1001
ACAD
1000
AcDbSavedByObjectVersion
1070
     0
  0
VISUALSTYLE
  5
2D
102
{ACAD_REACTORS
330
2A
102
}
330
2A
100
AcDbVisualStyle
  2
Gouraud
 70
     2
 71
     2
 72
     2
 73
     1
 90
        2
 40
-0.6
 41
30.0
 62
     5
 63
     7
 74
     0
 91
        4
 64
     7
 65
   257
 75
     1
175
     1
 42
1.0
 92
        0
 66
     7
 43
1.0
 76
     1
 77
     6
 78
     2
 67
     7
 79
     5
170
     0
171
     0
290
     0
174
     0
 93
       13
 44
0.0
173
     0
291
     1
 45
0.0
1001
ACAD
1000
AcDbSavedByObjectVersion
1070
     0
  0
VISUALSTYLE
  5
2E
102
{ACAD_REACTORS
330
2A
102
}
330
2A
100
AcDbVisualStyle
  2
GouraudWithEdges
 70
     3
 71
     2
 72
     2
 73
     1
 90
        2
 40
-0.6
 41
30.0
 62
     5
 63
     7
 74
     1
 91
        4
 64
     7
 65
   257
 75
     1
175
     1
 42
1.0
 92
        0
 66
   257
 43
1.0
 76
     1
 77
     6
 78
     2
 67
     7
 79
     5
170
     0
171
     0
290
     0
174
     0
 93
       13
 44
0.0
173
     0
291
     1
 45
0.0
1001
ACAD
1000
AcDbSavedByObjectVersion
1070
     0
  0
VISUALSTYLE
  5
38
102
{ACAD_REACTORS
330
2A
102
}
330
2A
100
AcDbVisualStyle
  2
Linepattern
 70
    14
 71
     2
 72
     2
 73
     0
 90
        0
 40
-0.6
 41
-30.0
 62
     5
 63
     7
 74
     1
 91
        4
 64
     7
 65
   257
 75
     7
175
     7
 42
1.0
 92
        8
 66
     7
 43
1.0
 76
     1
 77
     6
 78
     2
 67
     7
 79
     5
170
     0
171
     0
290
     0
174
     0
 93
        1
 44
0.0
173
     0
291
     1
 45
0.0
1001
ACAD
1000
AcDbSavedByObjectVersion
1070
     0
  0
VISUALSTYLE
  5
33
102
{ACAD_REACTORS
330
2A
102
}
330
2A
100
AcDbVisualStyle
  2
Realistic
 70
     8
 71
     2
 72
     2
 73
     0
 90
        0
 40
-0.6
 41
-30.0
 62
     5
 63
     7
 74
     1
 91
        0
 64
     7
 65
   257
 75
     1
175
     1
 42
1.0
 92
        8
 66
     8
 43
1.0
 76
     1
 77
     6
 78
     2
 67
     7
 79
     5
170
     0
171
     0
290
     0
174
     0
 93
       13
 44
0.0
173
     0
291
     0
 45
0.0
1001
ACAD
1000
AcDbSavedByObjectVersion
1070
     0
  0
VISUALSTYLE
  5
37
102
{ACAD_REACTORS
330
2A
102
}
330
2A
100
AcDbVisualStyle
  2
Thicken
 70
    13
 71
     2
 72
     2
 73
     0
 90
        0
 40
-0.6
 41
-30.0
 62
     5
 63
     7
 74
     1
 91
        4
 64
     7
 65
   257
 75
     1
175
     1
 42
1.0
 92
       12
 66
     7
 43
1.0
 76
     1
 77
     6
 78
     2
 67
     7
 79
     5
170
     0
171
     0
290
     0
174
     0
 93
        1
 44
0.0
173
     0
291
     1
 45
0.0
1001
ACAD
1000
AcDbSavedByObjectVersion
1070
     0
  0
DICTIONARYVAR
  5
365
102
{ACAD_REACTORS
330
364
102
}
330
364
100
DictionaryVariables
280
     0
  1
1:1
  0
DICTIONARYVAR
  5
369
102
{ACAD_REACTORS
330
364
102
}
330
364
100
DictionaryVariables
280
     0
  1
80.000000
  0
DICTIONARYVAR
  5
368
102
{ACAD_REACTORS
330
364
102
}
330
364
100
DictionaryVariables
280
     0
  1
5.000000
  0
ENDSEC
  0
EOF
