  0
SECTION
  2
HEADER
  9
$ACADVER
  1
AC1009
  9
$DWGCODEPAGE
  3
ansi_1252
  9
$INSBASE
 10
0.0
 20
0.0
 30
0.0
  9
$EXTMIN
 10
1.000000000000000E+20
 20
1.000000000000000E+20
 30
1.000000000000000E+20
  9
$EXTMAX
 10
-1.000000000000000E+20
 20
-1.000000000000000E+20
 30
-1.000000000000000E+20
  9
$LIMMIN
 10
0.0
 20
0.0
  9
$LIMMAX
 10
12.0
 20
9.0
  9
$ORTHOMODE
 70
     0
  9
$REGENMODE
 70
     1
  9
$FILLMODE
 70
     1
  9
$QTEXTMODE
 70
     0
  9
$MIRRTEXT
 70
     1
  9
$DRAGMODE
 70
     2
  9
$LTSCALE
 40
1.0
  9
$OSMODE
 70
    37
  9
$ATTMODE
 70
     1
  9
$TEXTSIZE
 40
0.2
  9
$TRACEWID
 40
0.05
  9
$TEXTSTYLE
  7
STANDARD
  9
$CLAYER
  8
0
  9
$CELTYPE
  6
BYLAYER
  9
$CECOLOR
 62
   256
  9
$DIMSCALE
 40
1.0
  9
$DIMASZ
 40
0.18
  9
$DIMEXO
 40
0.0625
  9
$DIMDLI
 40
0.38
  9
$DIMRND
 40
0.0
  9
$DIMDLE
 40
0.0
  9
$DIMEXE
 40
0.18
  9
$DIMTP
 40
0.0
  9
$DIMTM
 40
0.0
  9
$DIMTXT
 40
0.18
  9
$DIMCEN
 40
0.09
  9
$DIMTSZ
 40
0.0
  9
$DIMTOL
 70
     0
  9
$DIMLIM
 70
     0
  9
$DIMTIH
 70
     1
  9
$DIMTOH
 70
     1
  9
$DIMSE1
 70
     0
  9
$DIMSE2
 70
     0
  9
$DIMTAD
 70
     0
  9
$DIMZIN
 70
     0
  9
$DIMBLK
  1

  9
$DIMASO
 70
     1
  9
$DIMSHO
 70
     1
  9
$DIMPOST
  1

  9
$DIMAPOST
  1

  9
$DIMALT
 70
     0
  9
$DIMALTD
 70
     2
  9
$DIMALTF
 40
25.4
  9
$DIMLFAC
 40
1.0
  9
$DIMTOFL
 70
     0
  9
$DIMTVP
 40
0.0
  9
$DIMTIX
 70
     0
  9
$DIMSOXD
 70
     0
  9
$DIMSAH
 70
     0
  9
$DIMBLK1
  1

  9
$DIMBLK2
  1

  9
$DIMSTYLE
  2
STANDARD
  9
$DIMCLRD
 70
     0
  9
$DIMCLRE
 70
     0
  9
$DIMCLRT
 70
     0
  9
$DIMTFAC
 40
1.0
  9
$DIMGAP
 40
0.09
  9
$LUNITS
 70
     2
  9
$LUPREC
 70
     4
  9
$SKETCHINC
 40
0.1
  9
$FILLETRAD
 40
0.5
  9
$AUNITS
 70
     0
  9
$AUPREC
 70
     0
  9
$MENU
  1
.
  9
$ELEVATION
 40
0.0
  9
$PELEVATION
 40
0.0
  9
$THICKNESS
 40
0.0
  9
$LIMCHECK
 70
     0
  9
$CHAMFERA
 40
0.5
  9
$CHAMFERB
 40
0.5
  9
$SKPOLY
 70
     0
  9
$TDCREATE
 40
2455853.4665189
  9
$TDUPDATE
 40
2455853.4665189
  9
$TDINDWG
 40
0.0000000116
  9
$TDUSRTIMER
 40
0.0000000116
  9
$USRTIMER
 70
     1
  9
$ANGBASE
 50
0.0
  9
$ANGDIR
 70
     0
  9
$PDMODE
 70
     0
  9
$PDSIZE
 40
0.0
  9
$PLINEWID
 40
0.0
  9
$COORDS
 70
     1
  9
$SPLFRAME
 70
     0
  9
$SPLINETYPE
 70
     6
  9
$SPLINESEGS
 70
     8
  9
$ATTDIA
 70
     0
  9
$ATTREQ
 70
     1
  9
$HANDLING
 70
     1
  9
$HANDSEED
  5
76A
  9
$SURFTAB1
 70
     6
  9
$SURFTAB2
 70
     6
  9
$SURFTYPE
 70
     6
  9
$SURFU
 70
     6
  9
$SURFV
 70
     6
  9
$UCSNAME
  2

  9
$UCSORG
 10
0.0
 20
0.0
 30
0.0
  9
$UCSXDIR
 10
1.0
 20
0.0
 30
0.0
  9
$UCSYDIR
 10
0.0
 20
1.0
 30
0.0
  9
$PUCSNAME
  2

  9
$PUCSORG
 10
0.0
 20
0.0
 30
0.0
  9
$PUCSXDIR
 10
1.0
 20
0.0
 30
0.0
  9
$PUCSYDIR
 10
0.0
 20
1.0
 30
0.0
  9
$USERI1
 70
     0
  9
$USERI2
 70
     0
  9
$USERI3
 70
     0
  9
$USERI4
 70
     0
  9
$USERI5
 70
     0
  9
$USERR1
 40
0.0
  9
$USERR2
 40
0.0
  9
$USERR3
 40
0.0
  9
$USERR4
 40
0.0
  9
$USERR5
 40
0.0
  9
$WORLDVIEW
 70
     1
  9
$SHADEDGE
 70
     3
  9
$SHADEDIF
 70
    70
  9
$TILEMODE
 70
     1
  9
$MAXACTVP
 70
    64
  9
$PLIMCHECK
 70
     0
  9
$PEXTMIN
 10
1.000000000000000E+20
 20
1.000000000000000E+20
 30
1.000000000000000E+20
  9
$PEXTMAX
 10
-1.000000000000000E+20
 20
-1.000000000000000E+20
 30
-1.000000000000000E+20
  9
$PLIMMIN
 10
0.0
 20
0.0
  9
$PLIMMAX
 10
12.0
 20
9.0
  9
$UNITMODE
 70
     0
  9
$VISRETAIN
 70
     1
  9
$PLINEGEN
 70
     0
  9
$PSLTSCALE
 70
     1
  0
ENDSEC
  0
SECTION
  2
TABLES
  0
TABLE
  2
VPORT
 70
     1
  0
VPORT
  2
*ACTIVE
 70
     0
 10
0.0
 20
0.0
 11
1.0
 21
1.0
 12
0.0
 22
0.0
 13
0.0
 23
0.0
 14
0.5
 24
0.5
 15
0.5
 25
0.5
 16
457.2884521484375
 26
-426.4285888671875
 36
179.2911376953125
 17
59.56304931640625
 27
25.163330078125
 37
115.94091796875
 40
330.625505023763
 41
1.972972972850329
 42
50.0
 43
0.0
 44
0.0
 50
0.0
 51
0.0
 71
     0
 72
   100
 73
     1
 74
     3
 75
     0
 76
     0
 77
     0
 78
     0
  0
ENDTAB
  0
TABLE
  2
LTYPE
 70
     1
  0
LTYPE
  2
CONTINUOUS
 70
     0
  3
Solid line
 72
    65
 73
     0
 40
0.0
  0
ENDTAB
  0
TABLE
  2
LAYER
 70
     2
  0
LAYER
  2
0
 70
     0
 62
     7
  6
CONTINUOUS
  0
LAYER
  2
LAYER_1
 70
     0
 62
     7
  6
CONTINUOUS
  0
ENDTAB
  0
TABLE
  2
STYLE
 70
     1
  0
STYLE
  2
STANDARD
 70
     0
 40
0.0
 41
1.0
 50
0.0
 71
     0
 42
0.2
  3
txt
  4

  0
ENDTAB
  0
TABLE
  2
VIEW
 70
     0
  0
ENDTAB
  0
TABLE
  2
UCS
 70
     0
  0
ENDTAB
  0
TABLE
  2
APPID
 70
     1
  0
APPID
  2
ACAD
 70
     0
  0
ENDTAB
  0
TABLE
  2
DIMSTYLE
 70
     1
  0
DIMSTYLE
  2
STANDARD
 70
     0
  3

  4

  5

  6

  7

 40
1.0
 41
0.18
 42
0.0625
 43
0.38
 44
0.18
 45
0.0
 46
0.0
 47
0.0
 48
0.0
140
0.18
141
0.09
142
0.0
143
25.4
144
1.0
145
0.0
146
1.0
147
0.09
 71
     0
 72
     0
 73
     1
 74
     1
 75
     0
 76
     0
 77
     0
 78
     0
170
     0
171
     2
172
     0
173
     0
174
     0
175
     0
176
     0
177
     0
178
     0
  0
ENDTAB
  0
ENDSEC
  0
SECTION
  2
BLOCKS
  0
BLOCK
  8
0
  2
$MODEL_SPACE
 70
     0
 10
0.0
 20
0.0
 30
0.0
  3
$MODEL_SPACE
  1

  0
ENDBLK
  5
21
  8
0
  0
BLOCK
 67
     1
  8
0
  2
$PAPER_SPACE
 70
     0
 10
0.0
 20
0.0
 30
0.0
  3
$PAPER_SPACE
  1

  0
ENDBLK
  5
1D
 67
     1
  8
0
  0
BLOCK
  8
0
  2
38
 70
     0
 10
0.0
 20
0.0
 30
0.0
  3
38
  1

  0
POLYLINE
  5
3C
  8
0
 62
   123
 66
     1
 10
0.0
 20
0.0
 30
0.0
 70
    64
 71
    66
 72
   106
  0
VERTEX
  5
3D
  8
0
 10
140.9954071044922
 20
-5.375229835510254
 30
215.3687744140625
 70
   192
  0
VERTEX
  5
3E
  8
0
 10
140.0132904052734
 20
-5.898683071136475
 30
215.8589477539062
 70
   192
  0
VERTEX
  5
3F
  8
0
 10
141.8783111572266
 20
-8.350543022155762
 30
216.0879516601562
 70
   192
  0
VERTEX
  5
40
  8
0
 10
143.3823547363281
 20
-8.237671852111816
 30
215.6618499755859
 70
   192
  0
VERTEX
  5
41
  8
0
 10
139.7303009033203
 20
-1.873608946800232
 30
215.2134399414062
 70
   192
  0
VERTEX
  5
42
  8
0
 10
138.8486633300781
 20
-3.049629926681519
 30
215.7159576416016
 70
   192
  0
VERTEX
  5
43
  8
0
 10
144.3022308349609
 20
-10.2234468460083
 30
216.3855743408203
 70
   192
  0
VERTEX
  5
44
  8
0
 10
147.1258239746094
 20
-11.40278911590576
 30
216.7322540283203
 70
   192
  0
VERTEX
  5
45
  8
0
 10
146.5873413085938
 20
-10.10179710388184
 30
216.0553741455078
 70
   192
  0
VERTEX
  5
46
  8
0
 10
150.2359008789062
 20
-10.74870491027832
 30
216.5033569335938
 70
   192
  0
VERTEX
  5
47
  8
0
 10
150.1620178222656
 20
-11.79999923706055
 30
217.1050567626953
 70
   192
  0
VERTEX
  5
48
  8
0
 10
139.7281341552734
 20
1.866058588027954
 30
215.2131652832031
 70
   192
  0
VERTEX
  5
49
  8
0
 10
138.4499664306641
 20
0.0000007906817245
 30
215.6669921875
 70
   192
  0
VERTEX
  5
4A
  8
0
 10
140.9932861328125
 20
5.370070457458496
 30
215.3685150146484
 70
   192
  0
VERTEX
  5
4B
  8
0
 10
138.8561706542969
 20
3.06221866607666
 30
215.7168731689453
 70
   192
  0
VERTEX
  5
4C
  8
0
 10
141.8906402587891
 20
8.34127140045166
 30
216.0894622802734
 70
   192
  0
VERTEX
  5
4D
  8
0
 10
140.0321960449219
 20
5.90416145324707
 30
215.8612670898438
 70
   192
  0
VERTEX
  5
4E
  8
0
 10
143.375244140625
 20
8.233149528503418
 30
215.6609802246094
 70
   192
  0
VERTEX
  5
4F
  8
0
 10
144.3187255859375
 20
10.21696472167969
 30
216.3875885009766
 70
   192
  0
VERTEX
  5
50
  8
0
 10
146.5811157226562
 20
10.09949398040771
 30
216.0546112060547
 70
   192
  0
VERTEX
  5
51
  8
0
 10
147.1399078369141
 20
11.393630027771
 30
216.7339935302734
 70
   192
  0
VERTEX
  5
52
  8
0
 10
150.2359008789062
 20
10.75000095367432
 30
216.5033569335938
 70
   192
  0
VERTEX
  5
53
  8
0
 10
150.1620178222656
 20
11.80000114440918
 30
217.1050567626953
 70
   192
  0
VERTEX
  5
54
  8
0
 10
137.8941497802734
 20
-3.062217235565186
 30
223.5518188476562
 70
   192
  0
VERTEX
  5
55
  8
0
 10
137.4879608154297
 20
0.0000007906817245
 30
223.5019378662109
 70
   192
  0
VERTEX
  5
56
  8
0
 10
139.0701751708984
 20
-5.904160022735596
 30
223.6962127685547
 70
   192
  0
VERTEX
  5
57
  8
0
 10
140.9286346435547
 20
-8.341270446777344
 30
223.9244079589844
 70
   192
  0
VERTEX
  5
58
  8
0
 10
143.3567047119141
 20
-10.21696281433105
 30
224.2225341796875
 70
   192
  0
VERTEX
  5
59
  8
0
 10
146.1779022216797
 20
-11.39362812042236
 30
224.5689392089844
 70
   192
  0
VERTEX
  5
5A
  8
0
 10
149.2000122070312
 20
-11.79999923706055
 30
224.9400024414062
 70
   192
  0
VERTEX
  5
5B
  8
0
 10
137.8866577148438
 20
3.049631595611572
 30
223.5508880615234
 70
   192
  0
VERTEX
  5
5C
  8
0
 10
139.05126953125
 20
5.898684978485107
 30
223.6938934326172
 70
   192
  0
VERTEX
  5
5D
  8
0
 10
140.9163055419922
 20
8.350544929504395
 30
223.9228973388672
 70
   192
  0
VERTEX
  5
5E
  8
0
 10
143.3402252197266
 20
10.22344875335693
 30
224.2205047607422
 70
   192
  0
VERTEX
  5
5F
  8
0
 10
146.163818359375
 20
11.40279102325439
 30
224.5671997070312
 70
   192
  0
VERTEX
  5
60
  8
0
 10
149.2000122070312
 20
11.80000114440918
 30
224.9400024414062
 70
   192
  0
VERTEX
  5
61
  8
0
 10
152.2362060546875
 20
-11.40278911590576
 30
225.3128051757812
 70
   192
  0
VERTEX
  5
62
  8
0
 10
153.1982116699219
 20
-11.40278911590576
 30
217.4778594970703
 70
   192
  0
VERTEX
  5
63
  8
0
 10
160.5133666992188
 20
-3.049629926681519
 30
226.3291015625
 70
   192
  0
VERTEX
  5
64
  8
0
 10
160.3107452392578
 20
-5.898683071136475
 30
218.3511657714844
 70
   192
  0
VERTEX
  5
65
  8
0
 10
159.3487396240234
 20
-5.898683071136475
 30
226.1861114501953
 70
   192
  0
VERTEX
  5
66
  8
0
 10
156.0217895507812
 20
-10.2234468460083
 30
217.8245544433594
 70
   192
  0
VERTEX
  5
67
  8
0
 10
155.0597839355469
 20
-10.2234468460083
 30
225.6594848632812
 70
   192
  0
VERTEX
  5
68
  8
0
 10
157.4837036132812
 20
-8.350543022155762
 30
225.9571075439453
 70
   192
  0
VERTEX
  5
69
  8
0
 10
160.505859375
 20
3.06221866607666
 30
226.3281860351562
 70
   192
  0
VERTEX
  5
6A
  8
0
 10
159.329833984375
 20
5.90416145324707
 30
226.1837921142578
 70
   192
  0
VERTEX
  5
6B
  8
0
 10
161.4678649902344
 20
3.06221866607666
 30
218.4932403564453
 70
   192
  0
VERTEX
  5
6C
  8
0
 10
161.4753723144531
 20
-3.049629926681519
 30
218.4941558837891
 70
   192
  0
VERTEX
  5
6D
  8
0
 10
160.9120483398438
 20
0.0000007906817245
 30
226.3780517578125
 70
   192
  0
VERTEX
  5
6E
  8
0
 10
161.8740539550781
 20
0.0000007906817245
 30
218.5431213378906
 70
   192
  0
VERTEX
  5
6F
  8
0
 10
157.4713745117188
 20
8.34127140045166
 30
225.9555969238281
 70
   192
  0
VERTEX
  5
70
  8
0
 10
155.0433044433594
 20
10.21696472167969
 30
225.657470703125
 70
   192
  0
VERTEX
  5
71
  8
0
 10
158.4333801269531
 20
8.34127140045166
 30
218.1206512451172
 70
   192
  0
VERTEX
  5
72
  8
0
 10
160.2918395996094
 20
5.90416145324707
 30
218.3488464355469
 70
   192
  0
VERTEX
  5
73
  8
0
 10
152.2221069335938
 20
11.393630027771
 30
225.3110656738281
 70
   192
  0
VERTEX
  5
74
  8
0
 10
156.0053100585938
 20
10.21696472167969
 30
217.8225250244141
 70
   192
  0
VERTEX
  5
75
  8
0
 10
153.1841125488281
 20
11.393630027771
 30
217.4761199951172
 70
   192
  0
VERTEX
  5
76
  8
0
 10
158.4457092285156
 20
-8.350543022155762
 30
218.1221618652344
 70
   192
  0
VERTEX
  5
77
  8
0
 10
153.8847198486328
 20
-10.10187530517578
 30
216.9513854980469
 70
   192
  0
VERTEX
  5
78
  8
0
 10
159.4770202636719
 20
-5.373193740844727
 30
217.6380310058594
 70
   192
  0
VERTEX
  5
79
  8
0
 10
157.0965881347656
 20
-8.232474327087402
 30
217.3457489013672
 70
   192
  0
VERTEX
  5
7A
  8
0
 10
159.4729309082031
 20
5.379635334014893
 30
217.6375274658203
 70
   192
  0
VERTEX
  5
7B
  8
0
 10
160.7437286376953
 20
1.866496920585632
 30
217.7935638427734
 70
   192
  0
VERTEX
  5
7C
  8
0
 10
160.7440948486328
 20
-1.861173152923584
 30
217.7936096191406
 70
   192
  0
VERTEX
  5
7D
  8
0
 10
157.0916442871094
 20
8.237018585205078
 30
217.3451385498047
 70
   192
  0
VERTEX
  5
7E
  8
0
 10
153.8783874511719
 20
10.10350227355957
 30
216.9505920410156
 70
   192
  0
VERTEX
  5
7F
  8
0
 62
   123
 10
0.0
 20
0.0
 30
0.0
 70
   128
 71
     3
 72
     2
 73
     1
  0
VERTEX
  5
80
  8
0
 62
   123
 10
0.0
 20
0.0
 30
0.0
 70
   128
 71
     4
 72
     3
 73
     1
  0
VERTEX
  5
81
  8
0
 62
   123
 10
0.0
 20
0.0
 30
0.0
 70
   128
 71
     6
 72
     5
 73
     1
  0
VERTEX
  5
82
  8
0
 62
   123
 10
0.0
 20
0.0
 30
0.0
 70
   128
 71
     6
 72
     1
 73
     2
  0
VERTEX
  5
83
  8
0
 62
   123
 10
0.0
 20
0.0
 30
0.0
 70
   128
 71
     9
 72
     8
 73
     7
  0
VERTEX
  5
84
  8
0
 62
   123
 10
0.0
 20
0.0
 30
0.0
 70
   128
 71
     9
 72
     7
 73
     4
  0
VERTEX
  5
85
  8
0
 62
   123
 10
0.0
 20
0.0
 30
0.0
 70
   128
 71
     8
 72
     9
 73
    10
  0
VERTEX
  5
86
  8
0
 62
   123
 10
0.0
 20
0.0
 30
0.0
 70
   128
 71
    11
 72
     8
 73
    10
  0
VERTEX
  5
87
  8
0
 62
   123
 10
0.0
 20
0.0
 30
0.0
 70
   128
 71
     4
 72
     7
 73
     3
  0
VERTEX
  5
88
  8
0
 62
   123
 10
0.0
 20
0.0
 30
0.0
 70
   128
 71
    13
 72
    12
 73
     5
  0
VERTEX
  5
89
  8
0
 62
   123
 10
0.0
 20
0.0
 30
0.0
 70
   128
 71
     5
 72
     6
 73
    13
  0
VERTEX
  5
8A
  8
0
 62
   123
 10
0.0
 20
0.0
 30
0.0
 70
   128
 71
    12
 72
    15
 73
    14
  0
VERTEX
  5
8B
  8
0
 62
   123
 10
0.0
 20
0.0
 30
0.0
 70
   128
 71
    15
 72
    12
 73
    13
  0
VERTEX
  5
8C
  8
0
 62
   123
 10
0.0
 20
0.0
 30
0.0
 70
   128
 71
    14
 72
    17
 73
    16
  0
VERTEX
  5
8D
  8
0
 62
   123
 10
0.0
 20
0.0
 30
0.0
 70
   128
 71
    15
 72
    17
 73
    14
  0
VERTEX
  5
8E
  8
0
 62
   123
 10
0.0
 20
0.0
 30
0.0
 70
   128
 71
    19
 72
    18
 73
    16
  0
VERTEX
  5
8F
  8
0
 62
   123
 10
0.0
 20
0.0
 30
0.0
 70
   128
 71
    14
 72
    16
 73
    18
  0
VERTEX
  5
90
  8
0
 62
   123
 10
0.0
 20
0.0
 30
0.0
 70
   128
 71
    19
 72
    21
 73
    20
  0
VERTEX
  5
91
  8
0
 62
   123
 10
0.0
 20
0.0
 30
0.0
 70
   128
 71
    20
 72
    18
 73
    19
  0
VERTEX
  5
92
  8
0
 62
   123
 10
0.0
 20
0.0
 30
0.0
 70
   128
 71
    21
 72
    22
 73
    20
  0
VERTEX
  5
93
  8
0
 62
   123
 10
0.0
 20
0.0
 30
0.0
 70
   128
 71
    21
 72
    23
 73
    22
  0
VERTEX
  5
94
  8
0
 62
   123
 10
0.0
 20
0.0
 30
0.0
 70
   128
 71
    25
 72
    13
 73
    24
  0
VERTEX
  5
95
  8
0
 62
   123
 10
0.0
 20
0.0
 30
0.0
 70
   128
 71
    26
 72
    24
 73
     6
  0
VERTEX
  5
96
  8
0
 62
   123
 10
0.0
 20
0.0
 30
0.0
 70
   128
 71
    13
 72
     6
 73
    24
  0
VERTEX
  5
97
  8
0
 62
   123
 10
0.0
 20
0.0
 30
0.0
 70
   128
 71
     2
 72
    27
 73
    26
  0
VERTEX
  5
98
  8
0
 62
   123
 10
0.0
 20
0.0
 30
0.0
 70
   128
 71
    26
 72
     6
 73
     2
  0
VERTEX
  5
99
  8
0
 62
   123
 10
0.0
 20
0.0
 30
0.0
 70
   128
 71
    27
 72
     3
 73
    28
  0
VERTEX
  5
9A
  8
0
 62
   123
 10
0.0
 20
0.0
 30
0.0
 70
   128
 71
     3
 72
    27
 73
     2
  0
VERTEX
  5
9B
  8
0
 62
   123
 10
0.0
 20
0.0
 30
0.0
 70
   128
 71
    29
 72
    28
 73
     7
  0
VERTEX
  5
9C
  8
0
 62
   123
 10
0.0
 20
0.0
 30
0.0
 70
   128
 71
     3
 72
     7
 73
    28
  0
VERTEX
  5
9D
  8
0
 62
   123
 10
0.0
 20
0.0
 30
0.0
 70
   128
 71
     8
 72
    30
 73
    29
  0
VERTEX
  5
9E
  8
0
 62
   123
 10
0.0
 20
0.0
 30
0.0
 70
   128
 71
    29
 72
     7
 73
     8
  0
VERTEX
  5
9F
  8
0
 62
   123
 10
0.0
 20
0.0
 30
0.0
 70
   128
 71
    11
 72
    30
 73
     8
  0
VERTEX
  5
A0
  8
0
 62
   123
 10
0.0
 20
0.0
 30
0.0
 70
   128
 71
    15
 72
    13
 73
    25
  0
VERTEX
  5
A1
  8
0
 62
   123
 10
0.0
 20
0.0
 30
0.0
 70
   128
 71
    31
 72
    17
 73
    15
  0
VERTEX
  5
A2
  8
0
 62
   123
 10
0.0
 20
0.0
 30
0.0
 70
   128
 71
    15
 72
    25
 73
    31
  0
VERTEX
  5
A3
  8
0
 62
   123
 10
0.0
 20
0.0
 30
0.0
 70
   128
 71
    17
 72
    32
 73
    16
  0
VERTEX
  5
A4
  8
0
 62
   123
 10
0.0
 20
0.0
 30
0.0
 70
   128
 71
    32
 72
    17
 73
    31
  0
VERTEX
  5
A5
  8
0
 62
   123
 10
0.0
 20
0.0
 30
0.0
 70
   128
 71
    19
 72
    16
 73
    33
  0
VERTEX
  5
A6
  8
0
 62
   123
 10
0.0
 20
0.0
 30
0.0
 70
   128
 71
    32
 72
    33
 73
    16
  0
VERTEX
  5
A7
  8
0
 62
   123
 10
0.0
 20
0.0
 30
0.0
 70
   128
 71
    34
 72
    21
 73
    19
  0
VERTEX
  5
A8
  8
0
 62
   123
 10
0.0
 20
0.0
 30
0.0
 70
   128
 71
    19
 72
    33
 73
    34
  0
VERTEX
  5
A9
  8
0
 62
   123
 10
0.0
 20
0.0
 30
0.0
 70
   128
 71
    21
 72
    35
 73
    23
  0
VERTEX
  5
AA
  8
0
 62
   123
 10
0.0
 20
0.0
 30
0.0
 70
   128
 71
    35
 72
    21
 73
    34
  0
VERTEX
  5
AB
  8
0
 62
   123
 10
0.0
 20
0.0
 30
0.0
 70
   128
 71
    35
 72
    36
 73
    23
  0
VERTEX
  5
AC
  8
0
 62
   123
 10
0.0
 20
0.0
 30
0.0
 70
   128
 71
    11
 72
    38
 73
    37
  0
VERTEX
  5
AD
  8
0
 62
   123
 10
0.0
 20
0.0
 30
0.0
 70
   128
 71
    41
 72
    40
 73
    39
  0
VERTEX
  5
AE
  8
0
 62
   123
 10
0.0
 20
0.0
 30
0.0
 70
   128
 71
    44
 72
    43
 73
    42
  0
VERTEX
  5
AF
  8
0
 62
   123
 10
0.0
 20
0.0
 30
0.0
 70
   128
 71
    47
 72
    46
 73
    45
  0
VERTEX
  5
B0
  8
0
 62
   123
 10
0.0
 20
0.0
 30
0.0
 70
   128
 71
    50
 72
    49
 73
    48
  0
VERTEX
  5
B1
  8
0
 62
   123
 10
0.0
 20
0.0
 30
0.0
 70
   128
 71
    53
 72
    52
 73
    51
  0
VERTEX
  5
B2
  8
0
 62
   123
 10
0.0
 20
0.0
 30
0.0
 70
   128
 71
    51
 72
    46
 73
    54
  0
VERTEX
  5
B3
  8
0
 62
   123
 10
0.0
 20
0.0
 30
0.0
 70
   128
 71
    52
 72
    56
 73
    55
  0
VERTEX
  5
B4
  8
0
 62
   123
 10
0.0
 20
0.0
 30
0.0
 70
   128
 71
    56
 72
    52
 73
    53
  0
VERTEX
  5
B5
  8
0
 62
   123
 10
0.0
 20
0.0
 30
0.0
 70
   128
 71
    36
 72
    55
 73
    57
  0
VERTEX
  5
B6
  8
0
 62
   123
 10
0.0
 20
0.0
 30
0.0
 70
   128
 71
    56
 72
    57
 73
    55
  0
VERTEX
  5
B7
  8
0
 62
   123
 10
0.0
 20
0.0
 30
0.0
 70
   128
 71
    36
 72
    57
 73
    23
  0
VERTEX
  5
B8
  8
0
 62
   123
 10
0.0
 20
0.0
 30
0.0
 70
   128
 71
    46
 72
    47
 73
    54
  0
VERTEX
  5
B9
  8
0
 62
   123
 10
0.0
 20
0.0
 30
0.0
 70
   128
 71
    53
 72
    51
 73
    54
  0
VERTEX
  5
BA
  8
0
 62
   123
 10
0.0
 20
0.0
 30
0.0
 70
   128
 71
    50
 72
    45
 73
    49
  0
VERTEX
  5
BB
  8
0
 62
   123
 10
0.0
 20
0.0
 30
0.0
 70
   128
 71
    47
 72
    45
 73
    50
  0
VERTEX
  5
BC
  8
0
 62
   123
 10
0.0
 20
0.0
 30
0.0
 70
   128
 71
    40
 72
    48
 73
    39
  0
VERTEX
  5
BD
  8
0
 62
   123
 10
0.0
 20
0.0
 30
0.0
 70
   128
 71
    48
 72
    49
 73
    39
  0
VERTEX
  5
BE
  8
0
 62
   123
 10
0.0
 20
0.0
 30
0.0
 70
   128
 71
    44
 72
    58
 73
    41
  0
VERTEX
  5
BF
  8
0
 62
   123
 10
0.0
 20
0.0
 30
0.0
 70
   128
 71
    58
 72
    40
 73
    41
  0
VERTEX
  5
C0
  8
0
 62
   123
 10
0.0
 20
0.0
 30
0.0
 70
   128
 71
    43
 72
    38
 73
    42
  0
VERTEX
  5
C1
  8
0
 62
   123
 10
0.0
 20
0.0
 30
0.0
 70
   128
 71
    44
 72
    42
 73
    58
  0
VERTEX
  5
C2
  8
0
 62
   123
 10
0.0
 20
0.0
 30
0.0
 70
   128
 71
    37
 72
    30
 73
    11
  0
VERTEX
  5
C3
  8
0
 62
   123
 10
0.0
 20
0.0
 30
0.0
 70
   128
 71
    43
 72
    37
 73
    38
  0
VERTEX
  5
C4
  8
0
 62
   123
 10
0.0
 20
0.0
 30
0.0
 70
   128
 71
    10
 72
    59
 73
    38
  0
VERTEX
  5
C5
  8
0
 62
   123
 10
0.0
 20
0.0
 30
0.0
 70
   128
 71
    58
 72
    61
 73
    60
  0
VERTEX
  5
C6
  8
0
 62
   123
 10
0.0
 20
0.0
 30
0.0
 70
   128
 71
    54
 72
    47
 73
    62
  0
VERTEX
  5
C7
  8
0
 62
   123
 10
0.0
 20
0.0
 30
0.0
 70
   128
 71
    64
 72
    63
 73
    50
  0
VERTEX
  5
C8
  8
0
 62
   123
 10
0.0
 20
0.0
 30
0.0
 70
   128
 71
    66
 72
    56
 73
    65
  0
VERTEX
  5
C9
  8
0
 62
   123
 10
0.0
 20
0.0
 30
0.0
 70
   128
 71
    53
 72
    65
 73
    56
  0
VERTEX
  5
CA
  8
0
 62
   123
 10
0.0
 20
0.0
 30
0.0
 70
   128
 71
    66
 72
    22
 73
    57
  0
VERTEX
  5
CB
  8
0
 62
   123
 10
0.0
 20
0.0
 30
0.0
 70
   128
 71
    57
 72
    56
 73
    66
  0
VERTEX
  5
CC
  8
0
 62
   123
 10
0.0
 20
0.0
 30
0.0
 70
   128
 71
    22
 72
    23
 73
    57
  0
VERTEX
  5
CD
  8
0
 62
   123
 10
0.0
 20
0.0
 30
0.0
 70
   128
 71
    62
 72
    53
 73
    54
  0
VERTEX
  5
CE
  8
0
 62
   123
 10
0.0
 20
0.0
 30
0.0
 70
   128
 71
    65
 72
    53
 73
    62
  0
VERTEX
  5
CF
  8
0
 62
   123
 10
0.0
 20
0.0
 30
0.0
 70
   128
 71
    58
 72
    60
 73
    40
  0
VERTEX
  5
D0
  8
0
 62
   123
 10
0.0
 20
0.0
 30
0.0
 70
   128
 71
    50
 72
    63
 73
    47
  0
VERTEX
  5
D1
  8
0
 62
   123
 10
0.0
 20
0.0
 30
0.0
 70
   128
 71
    62
 72
    47
 73
    63
  0
VERTEX
  5
D2
  8
0
 62
   123
 10
0.0
 20
0.0
 30
0.0
 70
   128
 71
    50
 72
    48
 73
    64
  0
VERTEX
  5
D3
  8
0
 62
   123
 10
0.0
 20
0.0
 30
0.0
 70
   128
 71
    40
 72
    60
 73
    48
  0
VERTEX
  5
D4
  8
0
 62
   123
 10
0.0
 20
0.0
 30
0.0
 70
   128
 71
    60
 72
    64
 73
    48
  0
VERTEX
  5
D5
  8
0
 62
   123
 10
0.0
 20
0.0
 30
0.0
 70
   128
 71
    61
 72
    58
 73
    42
  0
VERTEX
  5
D6
  8
0
 62
   123
 10
0.0
 20
0.0
 30
0.0
 70
   128
 71
    42
 72
    59
 73
    61
  0
VERTEX
  5
D7
  8
0
 62
   123
 10
0.0
 20
0.0
 30
0.0
 70
   128
 71
    38
 72
    11
 73
    10
  0
VERTEX
  5
D8
  8
0
 62
   123
 10
0.0
 20
0.0
 30
0.0
 70
   128
 71
    42
 72
    38
 73
    59
  0
VERTEX
  5
D9
  8
0
 62
   123
 10
0.0
 20
0.0
 30
0.0
 70
   128
 71
    64
 72
    10
 73
    63
  0
VERTEX
  5
DA
  8
0
 62
   123
 10
0.0
 20
0.0
 30
0.0
 70
   128
 71
    66
 72
    65
 73
     1
  0
VERTEX
  5
DB
  8
0
 62
   123
 10
0.0
 20
0.0
 30
0.0
 70
   128
 71
    64
 72
    60
 73
    59
  0
VERTEX
  5
DC
  8
0
 62
   123
 10
0.0
 20
0.0
 30
0.0
 70
   128
 71
    64
 72
    59
 73
    10
  0
VERTEX
  5
DD
  8
0
 62
   123
 10
0.0
 20
0.0
 30
0.0
 70
   128
 71
    59
 72
    60
 73
    61
  0
VERTEX
  5
DE
  8
0
 62
   123
 10
0.0
 20
0.0
 30
0.0
 70
   128
 71
     9
 72
    62
 73
    63
  0
VERTEX
  5
DF
  8
0
 62
   123
 10
0.0
 20
0.0
 30
0.0
 70
   128
 71
    10
 72
     9
 73
    63
  0
VERTEX
  5
E0
  8
0
 62
   123
 10
0.0
 20
0.0
 30
0.0
 70
   128
 71
     9
 72
     4
 73
    62
  0
VERTEX
  5
E1
  8
0
 62
   123
 10
0.0
 20
0.0
 30
0.0
 70
   128
 71
     1
 72
    65
 73
     4
  0
VERTEX
  5
E2
  8
0
 62
   123
 10
0.0
 20
0.0
 30
0.0
 70
   128
 71
    62
 72
     4
 73
    65
  0
VERTEX
  5
E3
  8
0
 62
   123
 10
0.0
 20
0.0
 30
0.0
 70
   128
 71
    66
 72
     1
 73
     5
  0
VERTEX
  5
E4
  8
0
 62
   123
 10
0.0
 20
0.0
 30
0.0
 70
   128
 71
     5
 72
    12
 73
    22
  0
VERTEX
  5
E5
  8
0
 62
   123
 10
0.0
 20
0.0
 30
0.0
 70
   128
 71
    22
 72
    66
 73
     5
  0
VERTEX
  5
E6
  8
0
 62
   123
 10
0.0
 20
0.0
 30
0.0
 70
   128
 71
    14
 72
    20
 73
    12
  0
VERTEX
  5
E7
  8
0
 62
   123
 10
0.0
 20
0.0
 30
0.0
 70
   128
 71
    20
 72
    22
 73
    12
  0
VERTEX
  5
E8
  8
0
 62
   123
 10
0.0
 20
0.0
 30
0.0
 70
   128
 71
    18
 72
    20
 73
    14
  0
SEQEND
  5
E9
  8
0
 62
   123
  0
ENDBLK
  5
ED
  8
0
  0
BLOCK
  8
0
  2
39
 70
     0
 10
0.0
 20
0.0
 30
0.0
  3
39
  1

  0
POLYLINE
  5
EF
  8
0
 62
   123
 66
     1
 10
0.0
 20
0.0
 30
0.0
 70
    64
 71
    66
 72
    96
  0
VERTEX
  5
F0
  8
0
 10
17.65092658996582
 20
-3.52798056602478
 30
100.3000030517578
 70
   192
  0
VERTEX
  5
F1
  8
0
 10
18.0
 20
0.0000000000001315
 30
100.3000030517578
 70
   192
  0
VERTEX
  5
F2
  8
0
 10
17.9228630065918
 20
-1.662440776824951
 30
98.0
 70
   192
  0
VERTEX
  5
F3
  8
0
 10
17.31191825866699
 20
-4.926403045654297
 30
98.0
 70
   192
  0
VERTEX
  5
F4
  8
0
 10
16.62979507446289
 20
-6.88828706741333
 30
100.3000030517578
 70
   192
  0
VERTEX
  5
F5
  8
0
 10
16.11104774475098
 20
-8.02377986907959
 30
98.0
 70
   192
  0
VERTEX
  5
F6
  8
0
 10
14.97574806213379
 20
-9.986430168151855
 30
100.3000030517578
 70
   192
  0
VERTEX
  5
F7
  8
0
 10
12.7279224395752
 20
-12.7279224395752
 30
100.3000030517578
 70
   192
  0
VERTEX
  5
F8
  8
0
 10
14.36380958557129
 20
-10.84512424468994
 30
98.0
 70
   192
  0
VERTEX
  5
F9
  8
0
 10
12.1239595413208
 20
-13.2977819442749
 30
98.0
 70
   192
  0
VERTEX
  5
FA
  8
0
 10
9.986430168151855
 20
-14.97574806213379
 30
100.3000030517578
 70
   192
  0
VERTEX
  5
FB
  8
0
 10
9.469493865966797
 20
-15.29506778717041
 30
98.0
 70
   192
  0
VERTEX
  5
FC
  8
0
 10
6.88828706741333
 20
-16.62979507446289
 30
100.3000030517578
 70
   192
  0
VERTEX
  5
FD
  8
0
 10
3.52798056602478
 20
-17.65092658996582
 30
100.3000030517578
 70
   192
  0
VERTEX
  5
FE
  8
0
 10
6.498031616210938
 20
-16.77548027038574
 30
98.0
 70
   192
  0
VERTEX
  5
FF
  8
0
 10
3.305030584335327
 20
-17.69260787963867
 30
98.0
 70
   192
  0
VERTEX
  5
100
  8
0
 10
-0.0000000000000753
 20
-18.0
 30
100.3000030517578
 70
   192
  0
VERTEX
  5
101
  8
0
 10
-0.0000000000000722
 20
-18.0
 30
98.0
 70
   192
  0
VERTEX
  5
102
  8
0
 10
17.92335510253906
 20
1.658171892166138
 30
98.0
 70
   192
  0
VERTEX
  5
103
  8
0
 10
17.65092658996582
 20
3.52798056602478
 30
100.3000030517578
 70
   192
  0
VERTEX
  5
104
  8
0
 10
17.31355667114258
 20
4.924338340759277
 30
98.0
 70
   192
  0
VERTEX
  5
105
  8
0
 10
16.1153678894043
 20
8.0197114944458
 30
98.0
 70
   192
  0
VERTEX
  5
106
  8
0
 10
16.62979507446289
 20
6.88828706741333
 30
100.3000030517578
 70
   192
  0
VERTEX
  5
107
  8
0
 10
14.97574806213379
 20
9.986430168151855
 30
100.3000030517578
 70
   192
  0
VERTEX
  5
108
  8
0
 10
14.36737442016602
 20
10.84550857543945
 30
98.0
 70
   192
  0
VERTEX
  5
109
  8
0
 10
12.7279224395752
 20
12.7279224395752
 30
100.3000030517578
 70
   192
  0
VERTEX
  5
10A
  8
0
 10
12.13161563873291
 20
13.29934692382812
 30
98.0
 70
   192
  0
VERTEX
  5
10B
  8
0
 10
9.453851699829102
 20
15.2575216293335
 30
98.0
 70
   192
  0
VERTEX
  5
10C
  8
0
 10
9.986430168151855
 20
14.97574806213379
 30
100.3000030517578
 70
   192
  0
VERTEX
  5
10D
  8
0
 10
6.88828706741333
 20
16.62979507446289
 30
100.3000030517578
 70
   192
  0
VERTEX
  5
10E
  8
0
 10
6.512604713439941
 20
16.79656982421875
 30
98.0
 70
   192
  0
VERTEX
  5
10F
  8
0
 10
3.52798056602478
 20
17.65092658996582
 30
100.3000030517578
 70
   192
  0
VERTEX
  5
110
  8
0
 10
3.310806751251221
 20
17.69421768188477
 30
98.0
 70
   192
  0
VERTEX
  5
111
  8
0
 10
-0.0000000000000775
 20
18.0
 30
100.3000030517578
 70
   192
  0
VERTEX
  5
112
  8
0
 10
-0.0000000000000744
 20
18.0
 30
98.0
 70
   192
  0
VERTEX
  5
113
  8
0
 10
-3.310806751251221
 20
-17.69421768188477
 30
98.0
 70
   192
  0
VERTEX
  5
114
  8
0
 10
-3.52798056602478
 20
-17.65092658996582
 30
100.3000030517578
 70
   192
  0
VERTEX
  5
115
  8
0
 10
-14.36737442016602
 20
-10.84550857543945
 30
98.0
 70
   192
  0
VERTEX
  5
116
  8
0
 10
-12.7279224395752
 20
-12.7279224395752
 30
100.3000030517578
 70
   192
  0
VERTEX
  5
117
  8
0
 10
-12.13161563873291
 20
-13.29934692382812
 30
98.0
 70
   192
  0
VERTEX
  5
118
  8
0
 10
-6.88828706741333
 20
-16.62979507446289
 30
100.3000030517578
 70
   192
  0
VERTEX
  5
119
  8
0
 10
-6.512604713439941
 20
-16.79656982421875
 30
98.0
 70
   192
  0
VERTEX
  5
11A
  8
0
 10
-9.453851699829102
 20
-15.2575216293335
 30
98.0
 70
   192
  0
VERTEX
  5
11B
  8
0
 10
-17.65092658996582
 20
-3.52798056602478
 30
100.3000030517578
 70
   192
  0
VERTEX
  5
11C
  8
0
 10
-17.92335510253906
 20
-1.658171892166138
 30
98.0
 70
   192
  0
VERTEX
  5
11D
  8
0
 10
-18.0
 20
0.0000000000001226
 30
100.3000030517578
 70
   192
  0
VERTEX
  5
11E
  8
0
 10
-16.62979507446289
 20
-6.88828706741333
 30
100.3000030517578
 70
   192
  0
VERTEX
  5
11F
  8
0
 10
-16.1153678894043
 20
-8.0197114944458
 30
98.0
 70
   192
  0
VERTEX
  5
120
  8
0
 10
-17.31355667114258
 20
-4.924338340759277
 30
98.0
 70
   192
  0
VERTEX
  5
121
  8
0
 10
-14.97574806213379
 20
9.986430168151855
 30
100.3000030517578
 70
   192
  0
VERTEX
  5
122
  8
0
 10
-16.62979507446289
 20
6.88828706741333
 30
100.3000030517578
 70
   192
  0
VERTEX
  5
123
  8
0
 10
-16.11104774475098
 20
8.02377986907959
 30
98.0
 70
   192
  0
VERTEX
  5
124
  8
0
 10
-17.31191825866699
 20
4.926403045654297
 30
98.0
 70
   192
  0
VERTEX
  5
125
  8
0
 10
-17.65092658996582
 20
3.52798056602478
 30
100.3000030517578
 70
   192
  0
VERTEX
  5
126
  8
0
 10
-17.9228630065918
 20
1.662440776824951
 30
98.0
 70
   192
  0
VERTEX
  5
127
  8
0
 10
-9.986430168151855
 20
14.97574806213379
 30
100.3000030517578
 70
   192
  0
VERTEX
  5
128
  8
0
 10
-12.7279224395752
 20
12.7279224395752
 30
100.3000030517578
 70
   192
  0
VERTEX
  5
129
  8
0
 10
-12.1239595413208
 20
13.2977819442749
 30
98.0
 70
   192
  0
VERTEX
  5
12A
  8
0
 10
-14.36380958557129
 20
10.84512424468994
 30
98.0
 70
   192
  0
VERTEX
  5
12B
  8
0
 10
-9.469493865966797
 20
15.29506778717041
 30
98.0
 70
   192
  0
VERTEX
  5
12C
  8
0
 10
-6.88828706741333
 20
16.62979507446289
 30
100.3000030517578
 70
   192
  0
VERTEX
  5
12D
  8
0
 10
-6.498031616210938
 20
16.77548027038574
 30
98.0
 70
   192
  0
VERTEX
  5
12E
  8
0
 10
-3.52798056602478
 20
17.65092658996582
 30
100.3000030517578
 70
   192
  0
VERTEX
  5
12F
  8
0
 10
-3.305030584335327
 20
17.69260787963867
 30
98.0
 70
   192
  0
VERTEX
  5
130
  8
0
 10
-14.97574806213379
 20
-9.986430168151855
 30
100.3000030517578
 70
   192
  0
VERTEX
  5
131
  8
0
 10
-9.986430168151855
 20
-14.97574806213379
 30
100.3000030517578
 70
   192
  0
VERTEX
  5
132
  8
0
 62
   123
 10
0.0
 20
0.0
 30
0.0
 70
   128
 71
     3
 72
     2
 73
     1
  0
VERTEX
  5
133
  8
0
 62
   123
 10
0.0
 20
0.0
 30
0.0
 70
   128
 71
     5
 72
     4
 73
     1
  0
VERTEX
  5
134
  8
0
 62
   123
 10
0.0
 20
0.0
 30
0.0
 70
   128
 71
     3
 72
     1
 73
     4
  0
VERTEX
  5
135
  8
0
 62
   123
 10
0.0
 20
0.0
 30
0.0
 70
   128
 71
     5
 72
     7
 73
     6
  0
VERTEX
  5
136
  8
0
 62
   123
 10
0.0
 20
0.0
 30
0.0
 70
   128
 71
     6
 72
     4
 73
     5
  0
VERTEX
  5
137
  8
0
 62
   123
 10
0.0
 20
0.0
 30
0.0
 70
   128
 71
     9
 72
     7
 73
     8
  0
VERTEX
  5
138
  8
0
 62
   123
 10
0.0
 20
0.0
 30
0.0
 70
   128
 71
     7
 72
     9
 73
     6
  0
VERTEX
  5
139
  8
0
 62
   123
 10
0.0
 20
0.0
 30
0.0
 70
   128
 71
    11
 72
    10
 73
     8
  0
VERTEX
  5
13A
  8
0
 62
   123
 10
0.0
 20
0.0
 30
0.0
 70
   128
 71
     9
 72
     8
 73
    10
  0
VERTEX
  5
13B
  8
0
 62
   123
 10
0.0
 20
0.0
 30
0.0
 70
   128
 71
    11
 72
    13
 73
    12
  0
VERTEX
  5
13C
  8
0
 62
   123
 10
0.0
 20
0.0
 30
0.0
 70
   128
 71
    12
 72
    10
 73
    11
  0
VERTEX
  5
13D
  8
0
 62
   123
 10
0.0
 20
0.0
 30
0.0
 70
   128
 71
    15
 72
    13
 73
    14
  0
VERTEX
  5
13E
  8
0
 62
   123
 10
0.0
 20
0.0
 30
0.0
 70
   128
 71
    13
 72
    15
 73
    12
  0
VERTEX
  5
13F
  8
0
 62
   123
 10
0.0
 20
0.0
 30
0.0
 70
   128
 71
    17
 72
    16
 73
    14
  0
VERTEX
  5
140
  8
0
 62
   123
 10
0.0
 20
0.0
 30
0.0
 70
   128
 71
    15
 72
    14
 73
    16
  0
VERTEX
  5
141
  8
0
 62
   123
 10
0.0
 20
0.0
 30
0.0
 70
   128
 71
    18
 72
    16
 73
    17
  0
VERTEX
  5
142
  8
0
 62
   123
 10
0.0
 20
0.0
 30
0.0
 70
   128
 71
     2
 72
     3
 73
    19
  0
VERTEX
  5
143
  8
0
 62
   123
 10
0.0
 20
0.0
 30
0.0
 70
   128
 71
    19
 72
    21
 73
    20
  0
VERTEX
  5
144
  8
0
 62
   123
 10
0.0
 20
0.0
 30
0.0
 70
   128
 71
    20
 72
     2
 73
    19
  0
VERTEX
  5
145
  8
0
 62
   123
 10
0.0
 20
0.0
 30
0.0
 70
   128
 71
    23
 72
    21
 73
    22
  0
VERTEX
  5
146
  8
0
 62
   123
 10
0.0
 20
0.0
 30
0.0
 70
   128
 71
    21
 72
    23
 73
    20
  0
VERTEX
  5
147
  8
0
 62
   123
 10
0.0
 20
0.0
 30
0.0
 70
   128
 71
    25
 72
    24
 73
    22
  0
VERTEX
  5
148
  8
0
 62
   123
 10
0.0
 20
0.0
 30
0.0
 70
   128
 71
    23
 72
    22
 73
    24
  0
VERTEX
  5
149
  8
0
 62
   123
 10
0.0
 20
0.0
 30
0.0
 70
   128
 71
    25
 72
    27
 73
    26
  0
VERTEX
  5
14A
  8
0
 62
   123
 10
0.0
 20
0.0
 30
0.0
 70
   128
 71
    26
 72
    24
 73
    25
  0
VERTEX
  5
14B
  8
0
 62
   123
 10
0.0
 20
0.0
 30
0.0
 70
   128
 71
    29
 72
    27
 73
    28
  0
VERTEX
  5
14C
  8
0
 62
   123
 10
0.0
 20
0.0
 30
0.0
 70
   128
 71
    27
 72
    29
 73
    26
  0
VERTEX
  5
14D
  8
0
 62
   123
 10
0.0
 20
0.0
 30
0.0
 70
   128
 71
    31
 72
    30
 73
    28
  0
VERTEX
  5
14E
  8
0
 62
   123
 10
0.0
 20
0.0
 30
0.0
 70
   128
 71
    29
 72
    28
 73
    30
  0
VERTEX
  5
14F
  8
0
 62
   123
 10
0.0
 20
0.0
 30
0.0
 70
   128
 71
    31
 72
    33
 73
    32
  0
VERTEX
  5
150
  8
0
 62
   123
 10
0.0
 20
0.0
 30
0.0
 70
   128
 71
    32
 72
    30
 73
    31
  0
VERTEX
  5
151
  8
0
 62
   123
 10
0.0
 20
0.0
 30
0.0
 70
   128
 71
    33
 72
    34
 73
    32
  0
VERTEX
  5
152
  8
0
 62
   123
 10
0.0
 20
0.0
 30
0.0
 70
   128
 71
    33
 72
    35
 73
    34
  0
VERTEX
  5
153
  8
0
 62
   123
 10
0.0
 20
0.0
 30
0.0
 70
   128
 71
    17
 72
    37
 73
    36
  0
VERTEX
  5
154
  8
0
 62
   123
 10
0.0
 20
0.0
 30
0.0
 70
   128
 71
    40
 72
    39
 73
    38
  0
VERTEX
  5
155
  8
0
 62
   123
 10
0.0
 20
0.0
 30
0.0
 70
   128
 71
    43
 72
    42
 73
    41
  0
VERTEX
  5
156
  8
0
 62
   123
 10
0.0
 20
0.0
 30
0.0
 70
   128
 71
    46
 72
    45
 73
    44
  0
VERTEX
  5
157
  8
0
 62
   123
 10
0.0
 20
0.0
 30
0.0
 70
   128
 71
    49
 72
    48
 73
    47
  0
VERTEX
  5
158
  8
0
 62
   123
 10
0.0
 20
0.0
 30
0.0
 70
   128
 71
    52
 72
    51
 73
    50
  0
VERTEX
  5
159
  8
0
 62
   123
 10
0.0
 20
0.0
 30
0.0
 70
   128
 71
    55
 72
    54
 73
    53
  0
VERTEX
  5
15A
  8
0
 62
   123
 10
0.0
 20
0.0
 30
0.0
 70
   128
 71
    58
 72
    57
 73
    56
  0
VERTEX
  5
15B
  8
0
 62
   123
 10
0.0
 20
0.0
 30
0.0
 70
   128
 71
    50
 72
    57
 73
    59
  0
VERTEX
  5
15C
  8
0
 62
   123
 10
0.0
 20
0.0
 30
0.0
 70
   128
 71
    61
 72
    60
 73
    56
  0
VERTEX
  5
15D
  8
0
 62
   123
 10
0.0
 20
0.0
 30
0.0
 70
   128
 71
    58
 72
    56
 73
    60
  0
VERTEX
  5
15E
  8
0
 62
   123
 10
0.0
 20
0.0
 30
0.0
 70
   128
 71
    61
 72
    63
 73
    62
  0
VERTEX
  5
15F
  8
0
 62
   123
 10
0.0
 20
0.0
 30
0.0
 70
   128
 71
    62
 72
    60
 73
    61
  0
VERTEX
  5
160
  8
0
 62
   123
 10
0.0
 20
0.0
 30
0.0
 70
   128
 71
    64
 72
    63
 73
    34
  0
VERTEX
  5
161
  8
0
 62
   123
 10
0.0
 20
0.0
 30
0.0
 70
   128
 71
    63
 72
    64
 73
    62
  0
VERTEX
  5
162
  8
0
 62
   123
 10
0.0
 20
0.0
 30
0.0
 70
   128
 71
    64
 72
    34
 73
    35
  0
VERTEX
  5
163
  8
0
 62
   123
 10
0.0
 20
0.0
 30
0.0
 70
   128
 71
    52
 72
    50
 73
    59
  0
VERTEX
  5
164
  8
0
 62
   123
 10
0.0
 20
0.0
 30
0.0
 70
   128
 71
    59
 72
    57
 73
    58
  0
VERTEX
  5
165
  8
0
 62
   123
 10
0.0
 20
0.0
 30
0.0
 70
   128
 71
    53
 72
    54
 73
    51
  0
VERTEX
  5
166
  8
0
 62
   123
 10
0.0
 20
0.0
 30
0.0
 70
   128
 71
    53
 72
    51
 73
    52
  0
VERTEX
  5
167
  8
0
 62
   123
 10
0.0
 20
0.0
 30
0.0
 70
   128
 71
    55
 72
    45
 73
    46
  0
VERTEX
  5
168
  8
0
 62
   123
 10
0.0
 20
0.0
 30
0.0
 70
   128
 71
    55
 72
    46
 73
    54
  0
VERTEX
  5
169
  8
0
 62
   123
 10
0.0
 20
0.0
 30
0.0
 70
   128
 71
    44
 72
    49
 73
    47
  0
VERTEX
  5
16A
  8
0
 62
   123
 10
0.0
 20
0.0
 30
0.0
 70
   128
 71
    45
 72
    49
 73
    44
  0
VERTEX
  5
16B
  8
0
 62
   123
 10
0.0
 20
0.0
 30
0.0
 70
   128
 71
    65
 72
    48
 73
    38
  0
VERTEX
  5
16C
  8
0
 62
   123
 10
0.0
 20
0.0
 30
0.0
 70
   128
 71
    47
 72
    48
 73
    65
  0
VERTEX
  5
16D
  8
0
 62
   123
 10
0.0
 20
0.0
 30
0.0
 70
   128
 71
    66
 72
    39
 73
    40
  0
VERTEX
  5
16E
  8
0
 62
   123
 10
0.0
 20
0.0
 30
0.0
 70
   128
 71
    39
 72
    65
 73
    38
  0
VERTEX
  5
16F
  8
0
 62
   123
 10
0.0
 20
0.0
 30
0.0
 70
   128
 71
    66
 72
    43
 73
    41
  0
VERTEX
  5
170
  8
0
 62
   123
 10
0.0
 20
0.0
 30
0.0
 70
   128
 71
    43
 72
    66
 73
    40
  0
VERTEX
  5
171
  8
0
 62
   123
 10
0.0
 20
0.0
 30
0.0
 70
   128
 71
    42
 72
    36
 73
    37
  0
VERTEX
  5
172
  8
0
 62
   123
 10
0.0
 20
0.0
 30
0.0
 70
   128
 71
    42
 72
    37
 73
    41
  0
VERTEX
  5
173
  8
0
 62
   123
 10
0.0
 20
0.0
 30
0.0
 70
   128
 71
    36
 72
    18
 73
    17
  0
VERTEX
  5
174
  8
0
 62
   123
 10
0.0
 20
0.0
 30
0.0
 70
   128
 71
     8
 72
     7
 73
    11
  0
VERTEX
  5
175
  8
0
 62
   123
 10
0.0
 20
0.0
 30
0.0
 70
   128
 71
    65
 72
    30
 73
    47
  0
VERTEX
  5
176
  8
0
 62
   123
 10
0.0
 20
0.0
 30
0.0
 70
   128
 71
     5
 72
    13
 73
    11
  0
VERTEX
  5
177
  8
0
 62
   123
 10
0.0
 20
0.0
 30
0.0
 70
   128
 71
    11
 72
     7
 73
     5
  0
VERTEX
  5
178
  8
0
 62
   123
 10
0.0
 20
0.0
 30
0.0
 70
   128
 71
    13
 72
     1
 73
    14
  0
VERTEX
  5
179
  8
0
 62
   123
 10
0.0
 20
0.0
 30
0.0
 70
   128
 71
     1
 72
    13
 73
     5
  0
VERTEX
  5
17A
  8
0
 62
   123
 10
0.0
 20
0.0
 30
0.0
 70
   128
 71
    14
 72
     1
 73
     2
  0
VERTEX
  5
17B
  8
0
 62
   123
 10
0.0
 20
0.0
 30
0.0
 70
   128
 71
     2
 72
    20
 73
    17
  0
VERTEX
  5
17C
  8
0
 62
   123
 10
0.0
 20
0.0
 30
0.0
 70
   128
 71
    17
 72
    14
 73
     2
  0
VERTEX
  5
17D
  8
0
 62
   123
 10
0.0
 20
0.0
 30
0.0
 70
   128
 71
    66
 72
    24
 73
    26
  0
VERTEX
  5
17E
  8
0
 62
   123
 10
0.0
 20
0.0
 30
0.0
 70
   128
 71
    37
 72
    23
 73
    41
  0
VERTEX
  5
17F
  8
0
 62
   123
 10
0.0
 20
0.0
 30
0.0
 70
   128
 71
    30
 72
    32
 73
    47
  0
VERTEX
  5
180
  8
0
 62
   123
 10
0.0
 20
0.0
 30
0.0
 70
   128
 71
    29
 72
    65
 73
    39
  0
VERTEX
  5
181
  8
0
 62
   123
 10
0.0
 20
0.0
 30
0.0
 70
   128
 71
    61
 72
    54
 73
    63
  0
VERTEX
  5
182
  8
0
 62
   123
 10
0.0
 20
0.0
 30
0.0
 70
   128
 71
    46
 72
    44
 73
    34
  0
VERTEX
  5
183
  8
0
 62
   123
 10
0.0
 20
0.0
 30
0.0
 70
   128
 71
    51
 72
    56
 73
    50
  0
VERTEX
  5
184
  8
0
 62
   123
 10
0.0
 20
0.0
 30
0.0
 70
   128
 71
    61
 72
    56
 73
    51
  0
VERTEX
  5
185
  8
0
 62
   123
 10
0.0
 20
0.0
 30
0.0
 70
   128
 71
    57
 72
    50
 73
    56
  0
VERTEX
  5
186
  8
0
 62
   123
 10
0.0
 20
0.0
 30
0.0
 70
   128
 71
    46
 72
    63
 73
    54
  0
VERTEX
  5
187
  8
0
 62
   123
 10
0.0
 20
0.0
 30
0.0
 70
   128
 71
    54
 72
    61
 73
    51
  0
VERTEX
  5
188
  8
0
 62
   123
 10
0.0
 20
0.0
 30
0.0
 70
   128
 71
    44
 72
    32
 73
    34
  0
VERTEX
  5
189
  8
0
 62
   123
 10
0.0
 20
0.0
 30
0.0
 70
   128
 71
    46
 72
    34
 73
    63
  0
VERTEX
  5
18A
  8
0
 62
   123
 10
0.0
 20
0.0
 30
0.0
 70
   128
 71
    65
 72
    29
 73
    30
  0
VERTEX
  5
18B
  8
0
 62
   123
 10
0.0
 20
0.0
 30
0.0
 70
   128
 71
    44
 72
    47
 73
    32
  0
VERTEX
  5
18C
  8
0
 62
   123
 10
0.0
 20
0.0
 30
0.0
 70
   128
 71
    26
 72
    39
 73
    66
  0
VERTEX
  5
18D
  8
0
 62
   123
 10
0.0
 20
0.0
 30
0.0
 70
   128
 71
    26
 72
    29
 73
    39
  0
VERTEX
  5
18E
  8
0
 62
   123
 10
0.0
 20
0.0
 30
0.0
 70
   128
 71
    66
 72
    41
 73
    24
  0
VERTEX
  5
18F
  8
0
 62
   123
 10
0.0
 20
0.0
 30
0.0
 70
   128
 71
    20
 72
    23
 73
    37
  0
VERTEX
  5
190
  8
0
 62
   123
 10
0.0
 20
0.0
 30
0.0
 70
   128
 71
    23
 72
    24
 73
    41
  0
VERTEX
  5
191
  8
0
 62
   123
 10
0.0
 20
0.0
 30
0.0
 70
   128
 71
    37
 72
    17
 73
    20
  0
SEQEND
  5
192
  8
0
 62
   123
  0
ENDBLK
  5
195
  8
0
  0
BLOCK
  8
0
  2
1
 70
     0
 10
0.0
 20
0.0
 30
0.0
  3
1
  1

  0
POLYLINE
  5
197
  8
0
 62
     9
 66
     1
 10
0.0
 20
0.0
 30
0.0
 70
    64
 71
    72
 72
   138
  0
VERTEX
  5
198
  8
0
 10
66.50215911865234
 20
16.0
 30
227.8786163330078
 70
   192
  0
VERTEX
  5
199
  8
0
 10
75.31059265136719
 20
16.0
 30
214.8552703857422
 70
   192
  0
VERTEX
  5
19A
  8
0
 10
82.7950210571289
 20
16.0
 30
229.8791656494141
 70
   192
  0
VERTEX
  5
19B
  8
0
 10
50.20928955078125
 20
16.0
 30
225.8780822753906
 70
   192
  0
VERTEX
  5
19C
  8
0
 10
60.20226287841797
 20
16.0
 30
212.9940185546875
 70
   192
  0
VERTEX
  5
19D
  8
0
 10
90.41974639892578
 20
16.0
 30
216.7104187011719
 70
   192
  0
VERTEX
  5
19E
  8
0
 10
45.0952033996582
 20
16.0
 30
211.1233520507812
 70
   192
  0
VERTEX
  5
19F
  8
0
 10
34.02792358398438
 20
16.0
 30
223.4361877441406
 70
   192
  0
VERTEX
  5
1A0
  8
0
 10
30.6099681854248
 20
16.0
 30
207.9052124023438
 70
   192
  0
VERTEX
  5
1A1
  8
0
 10
17.45611381530762
 20
16.0
 30
201.8076629638672
 70
   192
  0
VERTEX
  5
1A2
  8
0
 10
18.14124488830566
 20
16.0
 30
219.8278656005859
 70
   192
  0
VERTEX
  5
1A3
  8
0
 10
4.712414264678955
 20
16.0
 30
212.5522918701172
 70
   192
  0
VERTEX
  5
1A4
  8
0
 10
7.411935806274414
 20
16.0
 30
192.6769409179688
 70
   192
  0
VERTEX
  5
1A5
  8
0
 10
6.67061710357666
 20
16.0
 30
146.014892578125
 70
   192
  0
VERTEX
  5
1A6
  8
0
 10
6.858596324920654
 20
16.0
 30
161.2106475830078
 70
   192
  0
VERTEX
  5
1A7
  8
0
 10
-7.084458827972412
 20
16.0
 30
149.5479278564453
 70
   192
  0
VERTEX
  5
1A8
  8
0
 10
-4.138086318969727
 20
16.0
 30
198.9469757080078
 70
   192
  0
VERTEX
  5
1A9
  8
0
 10
-8.465384483337402
 20
16.0
 30
183.0878753662109
 70
   192
  0
VERTEX
  5
1AA
  8
0
 10
-7.000420570373535
 20
16.0
 30
116.7152252197266
 70
   192
  0
VERTEX
  5
1AB
  8
0
 10
6.999578475952148
 20
16.0
 30
130.7452392578125
 70
   192
  0
VERTEX
  5
1AC
  8
0
 10
-7.019628047943115
 20
16.0
 30
133.1309661865234
 70
   192
  0
VERTEX
  5
1AD
  8
0
 10
-7.000422954559326
 20
16.0
 30
100.3000030517578
 70
   192
  0
VERTEX
  5
1AE
  8
0
 10
6.999577045440674
 20
16.0
 30
100.3000030517578
 70
   192
  0
VERTEX
  5
1AF
  8
0
 10
6.999577522277832
 20
16.0
 30
115.5226211547852
 70
   192
  0
VERTEX
  5
1B0
  8
0
 10
-7.788773059844971
 20
16.0
 30
166.2876892089844
 70
   192
  0
VERTEX
  5
1B1
  8
0
 10
5.091055870056152
 20
16.0
 30
178.414794921875
 70
   192
  0
VERTEX
  5
1B2
  8
0
 10
105.5289077758789
 20
16.0
 30
218.5655822753906
 70
   192
  0
VERTEX
  5
1B3
  8
0
 10
99.087890625
 20
16.0
 30
231.8796997070312
 70
   192
  0
VERTEX
  5
1B4
  8
0
 10
120.6380615234375
 20
16.0
 30
220.4207305908203
 70
   192
  0
VERTEX
  5
1B5
  8
0
 10
115.3807601928711
 20
16.0
 30
233.8802337646484
 70
   192
  0
VERTEX
  5
1B6
  8
0
 10
131.6736297607422
 20
16.0
 30
235.8807830810547
 70
   192
  0
VERTEX
  5
1B7
  8
0
 10
135.7472229003906
 20
16.0
 30
222.2758941650391
 70
   192
  0
VERTEX
  5
1B8
  8
0
 10
150.8563690185547
 20
16.0
 30
224.1310577392578
 70
   192
  0
VERTEX
  5
1B9
  8
0
 10
147.9664916992188
 20
16.0
 30
237.8813171386719
 70
   192
  0
VERTEX
  5
1BA
  8
0
 10
164.2593536376953
 20
16.0
 30
239.8818511962891
 70
   192
  0
VERTEX
  5
1BB
  8
0
 10
165.9655303955078
 20
16.0
 30
225.9862060546875
 70
   192
  0
VERTEX
  5
1BC
  8
0
 10
-7.000420570373535
 20
-16.0
 30
116.7182235717773
 70
   192
  0
VERTEX
  5
1BD
  8
0
 10
-7.000422954559326
 20
-16.0
 30
100.3000030517578
 70
   192
  0
VERTEX
  5
1BE
  8
0
 10
-7.785438060760498
 20
-16.0
 30
166.2990264892578
 70
   192
  0
VERTEX
  5
1BF
  8
0
 10
-7.019958972930908
 20
-16.0
 30
133.1372222900391
 70
   192
  0
VERTEX
  5
1C0
  8
0
 10
4.703668117523193
 20
-16.0
 30
212.5596008300781
 70
   192
  0
VERTEX
  5
1C1
  8
0
 10
-4.13261079788208
 20
-16.0
 30
198.9583129882812
 70
   192
  0
VERTEX
  5
1C2
  8
0
 10
-8.453409194946289
 20
-16.0
 30
183.0978088378906
 70
   192
  0
VERTEX
  5
1C3
  8
0
 10
50.19934844970703
 20
-16.0
 30
225.7872924804688
 70
   192
  0
VERTEX
  5
1C4
  8
0
 10
34.01658248901367
 20
-16.0
 30
223.3495483398438
 70
   192
  0
VERTEX
  5
1C5
  8
0
 10
18.1285514831543
 20
-16.0
 30
219.7906036376953
 70
   192
  0
VERTEX
  5
1C6
  8
0
 10
99.08221435546875
 20
-16.0
 30
231.8278198242188
 70
   192
  0
VERTEX
  5
1C7
  8
0
 10
82.78792572021484
 20
-16.0
 30
229.8143157958984
 70
   192
  0
VERTEX
  5
1C8
  8
0
 10
66.49363708496094
 20
-16.0
 30
227.8007965087891
 70
   192
  0
VERTEX
  5
1C9
  8
0
 10
115.3764953613281
 20
-16.0
 30
233.8413238525391
 70
   192
  0
VERTEX
  5
1CA
  8
0
 10
131.6707916259766
 20
-16.0
 30
235.8548431396484
 70
   192
  0
VERTEX
  5
1CB
  8
0
 10
147.9650726318359
 20
-16.0
 30
237.8683471679688
 70
   192
  0
VERTEX
  5
1CC
  8
0
 10
164.2593536376953
 20
-16.0
 30
239.8818511962891
 70
   192
  0
VERTEX
  5
1CD
  8
0
 10
-7.085906028747559
 20
-16.0
 30
149.5580444335938
 70
   192
  0
VERTEX
  5
1CE
  8
0
 10
6.999577522277832
 20
-16.0
 30
115.5214080810547
 70
   192
  0
VERTEX
  5
1CF
  8
0
 10
6.999577045440674
 20
-16.0
 30
100.3000030517578
 70
   192
  0
VERTEX
  5
1D0
  8
0
 10
105.5337295532227
 20
-16.0
 30
218.5659942626953
 70
   192
  0
VERTEX
  5
1D1
  8
0
 10
90.42578125
 20
-16.0
 30
216.7109375
 70
   192
  0
VERTEX
  5
1D2
  8
0
 10
6.999579429626465
 20
-16.0
 30
161.1856536865234
 70
   192
  0
VERTEX
  5
1D3
  8
0
 10
6.999578475952148
 20
-16.0
 30
145.9642333984375
 70
   192
  0
VERTEX
  5
1D4
  8
0
 10
6.99957799911499
 20
-16.0
 30
130.7428283691406
 70
   192
  0
VERTEX
  5
1D5
  8
0
 10
9.030220031738281
 20
-16.0
 30
191.3296356201172
 70
   192
  0
VERTEX
  5
1D6
  8
0
 10
7.645267009735107
 20
-16.0
 30
176.3120422363281
 70
   192
  0
VERTEX
  5
1D7
  8
0
 10
15.28374099731445
 20
-16.0
 30
202.7821502685547
 70
   192
  0
VERTEX
  5
1D8
  8
0
 10
44.71864318847656
 20
-16.0
 30
211.9858551025391
 70
   192
  0
VERTEX
  5
1D9
  8
0
 10
120.6416778564453
 20
-16.0
 30
220.4210510253906
 70
   192
  0
VERTEX
  5
1DA
  8
0
 10
135.7496337890625
 20
-16.0
 30
222.2761077880859
 70
   192
  0
VERTEX
  5
1DB
  8
0
 10
150.8575744628906
 20
-16.0
 30
224.1311645507812
 70
   192
  0
VERTEX
  5
1DC
  8
0
 10
165.9655303955078
 20
-16.0
 30
225.9862060546875
 70
   192
  0
VERTEX
  5
1DD
  8
0
 10
75.31783294677734
 20
-16.0
 30
214.8558959960938
 70
   192
  0
VERTEX
  5
1DE
  8
0
 10
59.76762390136719
 20
-16.0
 30
213.9701538085938
 70
   192
  0
VERTEX
  5
1DF
  8
0
 10
28.7347412109375
 20
-16.0
 30
208.7730560302734
 70
   192
  0
VERTEX
  5
1E0
  8
0
 62
     9
 10
0.0
 20
0.0
 30
0.0
 70
   128
 71
     3
 72
     2
 73
     1
  0
VERTEX
  5
1E1
  8
0
 62
     9
 10
0.0
 20
0.0
 30
0.0
 70
   128
 71
     1
 72
     5
 73
     4
  0
VERTEX
  5
1E2
  8
0
 62
     9
 10
0.0
 20
0.0
 30
0.0
 70
   128
 71
     6
 72
     2
 73
     3
  0
VERTEX
  5
1E3
  8
0
 62
     9
 10
0.0
 20
0.0
 30
0.0
 70
   128
 71
     7
 72
     4
 73
     5
  0
VERTEX
  5
1E4
  8
0
 62
     9
 10
0.0
 20
0.0
 30
0.0
 70
   128
 71
     8
 72
     4
 73
     7
  0
VERTEX
  5
1E5
  8
0
 62
     9
 10
0.0
 20
0.0
 30
0.0
 70
   128
 71
     7
 72
     9
 73
     8
  0
VERTEX
  5
1E6
  8
0
 62
     9
 10
0.0
 20
0.0
 30
0.0
 70
   128
 71
     2
 72
     5
 73
     1
  0
VERTEX
  5
1E7
  8
0
 62
     9
 10
0.0
 20
0.0
 30
0.0
 70
   128
 71
    11
 72
     9
 73
    10
  0
VERTEX
  5
1E8
  8
0
 62
     9
 10
0.0
 20
0.0
 30
0.0
 70
   128
 71
     9
 72
    11
 73
     8
  0
VERTEX
  5
1E9
  8
0
 62
     9
 10
0.0
 20
0.0
 30
0.0
 70
   128
 71
    10
 72
    12
 73
    11
  0
VERTEX
  5
1EA
  8
0
 62
     9
 10
0.0
 20
0.0
 30
0.0
 70
   128
 71
    10
 72
    13
 73
    12
  0
VERTEX
  5
1EB
  8
0
 62
     9
 10
0.0
 20
0.0
 30
0.0
 70
   128
 71
    16
 72
    15
 73
    14
  0
VERTEX
  5
1EC
  8
0
 62
     9
 10
0.0
 20
0.0
 30
0.0
 70
   128
 71
    18
 72
    17
 73
    13
  0
VERTEX
  5
1ED
  8
0
 62
     9
 10
0.0
 20
0.0
 30
0.0
 70
   128
 71
    21
 72
    20
 73
    19
  0
VERTEX
  5
1EE
  8
0
 62
     9
 10
0.0
 20
0.0
 30
0.0
 70
   128
 71
    24
 72
    23
 73
    22
  0
VERTEX
  5
1EF
  8
0
 62
     9
 10
0.0
 20
0.0
 30
0.0
 70
   128
 71
    19
 72
    20
 73
    24
  0
VERTEX
  5
1F0
  8
0
 62
     9
 10
0.0
 20
0.0
 30
0.0
 70
   128
 71
    19
 72
    24
 73
    22
  0
VERTEX
  5
1F1
  8
0
 62
     9
 10
0.0
 20
0.0
 30
0.0
 70
   128
 71
    21
 72
    14
 73
    20
  0
VERTEX
  5
1F2
  8
0
 62
     9
 10
0.0
 20
0.0
 30
0.0
 70
   128
 71
    15
 72
    16
 73
    25
  0
VERTEX
  5
1F3
  8
0
 62
     9
 10
0.0
 20
0.0
 30
0.0
 70
   128
 71
    14
 72
    21
 73
    16
  0
VERTEX
  5
1F4
  8
0
 62
     9
 10
0.0
 20
0.0
 30
0.0
 70
   128
 71
    25
 72
    18
 73
    26
  0
VERTEX
  5
1F5
  8
0
 62
     9
 10
0.0
 20
0.0
 30
0.0
 70
   128
 71
    26
 72
    15
 73
    25
  0
VERTEX
  5
1F6
  8
0
 62
     9
 10
0.0
 20
0.0
 30
0.0
 70
   128
 71
    12
 72
    13
 73
    17
  0
VERTEX
  5
1F7
  8
0
 62
     9
 10
0.0
 20
0.0
 30
0.0
 70
   128
 71
    18
 72
    13
 73
    26
  0
VERTEX
  5
1F8
  8
0
 62
     9
 10
0.0
 20
0.0
 30
0.0
 70
   128
 71
    28
 72
    27
 73
     6
  0
VERTEX
  5
1F9
  8
0
 62
     9
 10
0.0
 20
0.0
 30
0.0
 70
   128
 71
     6
 72
     3
 73
    28
  0
VERTEX
  5
1FA
  8
0
 62
     9
 10
0.0
 20
0.0
 30
0.0
 70
   128
 71
    27
 72
    30
 73
    29
  0
VERTEX
  5
1FB
  8
0
 62
     9
 10
0.0
 20
0.0
 30
0.0
 70
   128
 71
    30
 72
    27
 73
    28
  0
VERTEX
  5
1FC
  8
0
 62
     9
 10
0.0
 20
0.0
 30
0.0
 70
   128
 71
    32
 72
    29
 73
    31
  0
VERTEX
  5
1FD
  8
0
 62
     9
 10
0.0
 20
0.0
 30
0.0
 70
   128
 71
    30
 72
    31
 73
    29
  0
VERTEX
  5
1FE
  8
0
 62
     9
 10
0.0
 20
0.0
 30
0.0
 70
   128
 71
    34
 72
    33
 73
    32
  0
VERTEX
  5
1FF
  8
0
 62
     9
 10
0.0
 20
0.0
 30
0.0
 70
   128
 71
    32
 72
    31
 73
    34
  0
VERTEX
  5
200
  8
0
 62
     9
 10
0.0
 20
0.0
 30
0.0
 70
   128
 71
    35
 72
    33
 73
    34
  0
VERTEX
  5
201
  8
0
 62
     9
 10
0.0
 20
0.0
 30
0.0
 70
   128
 71
    35
 72
    36
 73
    33
  0
VERTEX
  5
202
  8
0
 62
     9
 10
0.0
 20
0.0
 30
0.0
 70
   128
 71
    22
 72
    38
 73
    37
  0
VERTEX
  5
203
  8
0
 62
     9
 10
0.0
 20
0.0
 30
0.0
 70
   128
 71
    16
 72
    39
 73
    25
  0
VERTEX
  5
204
  8
0
 62
     9
 10
0.0
 20
0.0
 30
0.0
 70
   128
 71
    21
 72
    19
 73
    40
  0
VERTEX
  5
205
  8
0
 62
     9
 10
0.0
 20
0.0
 30
0.0
 70
   128
 71
    42
 72
    41
 73
    12
  0
VERTEX
  5
206
  8
0
 62
     9
 10
0.0
 20
0.0
 30
0.0
 70
   128
 71
    43
 72
    17
 73
    18
  0
VERTEX
  5
207
  8
0
 62
     9
 10
0.0
 20
0.0
 30
0.0
 70
   128
 71
     4
 72
     8
 73
    44
  0
VERTEX
  5
208
  8
0
 62
     9
 10
0.0
 20
0.0
 30
0.0
 70
   128
 71
    11
 72
    46
 73
    45
  0
VERTEX
  5
209
  8
0
 62
     9
 10
0.0
 20
0.0
 30
0.0
 70
   128
 71
     3
 72
    48
 73
    47
  0
VERTEX
  5
20A
  8
0
 62
     9
 10
0.0
 20
0.0
 30
0.0
 70
   128
 71
     4
 72
    49
 73
     1
  0
VERTEX
  5
20B
  8
0
 62
     9
 10
0.0
 20
0.0
 30
0.0
 70
   128
 71
    30
 72
    28
 73
    50
  0
VERTEX
  5
20C
  8
0
 62
     9
 10
0.0
 20
0.0
 30
0.0
 70
   128
 71
    47
 72
    50
 73
    28
  0
VERTEX
  5
20D
  8
0
 62
     9
 10
0.0
 20
0.0
 30
0.0
 70
   128
 71
    51
 72
    31
 73
    30
  0
VERTEX
  5
20E
  8
0
 62
     9
 10
0.0
 20
0.0
 30
0.0
 70
   128
 71
    30
 72
    50
 73
    51
  0
VERTEX
  5
20F
  8
0
 62
     9
 10
0.0
 20
0.0
 30
0.0
 70
   128
 71
    31
 72
    52
 73
    34
  0
VERTEX
  5
210
  8
0
 62
     9
 10
0.0
 20
0.0
 30
0.0
 70
   128
 71
    52
 72
    31
 73
    51
  0
VERTEX
  5
211
  8
0
 62
     9
 10
0.0
 20
0.0
 30
0.0
 70
   128
 71
    35
 72
    34
 73
    53
  0
VERTEX
  5
212
  8
0
 62
     9
 10
0.0
 20
0.0
 30
0.0
 70
   128
 71
    52
 72
    53
 73
    34
  0
VERTEX
  5
213
  8
0
 62
     9
 10
0.0
 20
0.0
 30
0.0
 70
   128
 71
     1
 72
    48
 73
     3
  0
VERTEX
  5
214
  8
0
 62
     9
 10
0.0
 20
0.0
 30
0.0
 70
   128
 71
     3
 72
    47
 73
    28
  0
VERTEX
  5
215
  8
0
 62
     9
 10
0.0
 20
0.0
 30
0.0
 70
   128
 71
     4
 72
    44
 73
    49
  0
VERTEX
  5
216
  8
0
 62
     9
 10
0.0
 20
0.0
 30
0.0
 70
   128
 71
     1
 72
    49
 73
    48
  0
VERTEX
  5
217
  8
0
 62
     9
 10
0.0
 20
0.0
 30
0.0
 70
   128
 71
     8
 72
    11
 73
    45
  0
VERTEX
  5
218
  8
0
 62
     9
 10
0.0
 20
0.0
 30
0.0
 70
   128
 71
     8
 72
    45
 73
    44
  0
VERTEX
  5
219
  8
0
 62
     9
 10
0.0
 20
0.0
 30
0.0
 70
   128
 71
    41
 72
    11
 73
    12
  0
VERTEX
  5
21A
  8
0
 62
     9
 10
0.0
 20
0.0
 30
0.0
 70
   128
 71
    46
 72
    11
 73
    41
  0
VERTEX
  5
21B
  8
0
 62
     9
 10
0.0
 20
0.0
 30
0.0
 70
   128
 71
    43
 72
    42
 73
    17
  0
VERTEX
  5
21C
  8
0
 62
     9
 10
0.0
 20
0.0
 30
0.0
 70
   128
 71
    42
 72
    12
 73
    17
  0
VERTEX
  5
21D
  8
0
 62
     9
 10
0.0
 20
0.0
 30
0.0
 70
   128
 71
    39
 72
    43
 73
    25
  0
VERTEX
  5
21E
  8
0
 62
     9
 10
0.0
 20
0.0
 30
0.0
 70
   128
 71
    43
 72
    18
 73
    25
  0
VERTEX
  5
21F
  8
0
 62
     9
 10
0.0
 20
0.0
 30
0.0
 70
   128
 71
    21
 72
    54
 73
    16
  0
VERTEX
  5
220
  8
0
 62
     9
 10
0.0
 20
0.0
 30
0.0
 70
   128
 71
    54
 72
    39
 73
    16
  0
VERTEX
  5
221
  8
0
 62
     9
 10
0.0
 20
0.0
 30
0.0
 70
   128
 71
    19
 72
    37
 73
    40
  0
VERTEX
  5
222
  8
0
 62
     9
 10
0.0
 20
0.0
 30
0.0
 70
   128
 71
    21
 72
    40
 73
    54
  0
VERTEX
  5
223
  8
0
 62
     9
 10
0.0
 20
0.0
 30
0.0
 70
   128
 71
    37
 72
    19
 73
    22
  0
VERTEX
  5
224
  8
0
 62
     9
 10
0.0
 20
0.0
 30
0.0
 70
   128
 71
    56
 72
    55
 73
    38
  0
VERTEX
  5
225
  8
0
 62
     9
 10
0.0
 20
0.0
 30
0.0
 70
   128
 71
    58
 72
    57
 73
    47
  0
VERTEX
  5
226
  8
0
 62
     9
 10
0.0
 20
0.0
 30
0.0
 70
   128
 71
    54
 72
    60
 73
    59
  0
VERTEX
  5
227
  8
0
 62
     9
 10
0.0
 20
0.0
 30
0.0
 70
   128
 71
    37
 72
    61
 73
    40
  0
VERTEX
  5
228
  8
0
 62
     9
 10
0.0
 20
0.0
 30
0.0
 70
   128
 71
    43
 72
    62
 73
    42
  0
VERTEX
  5
229
  8
0
 62
     9
 10
0.0
 20
0.0
 30
0.0
 70
   128
 71
    63
 72
    43
 73
    39
  0
VERTEX
  5
22A
  8
0
 62
     9
 10
0.0
 20
0.0
 30
0.0
 70
   128
 71
    43
 72
    63
 73
    62
  0
VERTEX
  5
22B
  8
0
 62
     9
 10
0.0
 20
0.0
 30
0.0
 70
   128
 71
    62
 72
    64
 73
    42
  0
VERTEX
  5
22C
  8
0
 62
     9
 10
0.0
 20
0.0
 30
0.0
 70
   128
 71
    45
 72
    65
 73
    44
  0
VERTEX
  5
22D
  8
0
 62
     9
 10
0.0
 20
0.0
 30
0.0
 70
   128
 71
    46
 72
    41
 73
    64
  0
VERTEX
  5
22E
  8
0
 62
     9
 10
0.0
 20
0.0
 30
0.0
 70
   128
 71
    57
 72
    66
 73
    50
  0
VERTEX
  5
22F
  8
0
 62
     9
 10
0.0
 20
0.0
 30
0.0
 70
   128
 71
    57
 72
    50
 73
    47
  0
VERTEX
  5
230
  8
0
 62
     9
 10
0.0
 20
0.0
 30
0.0
 70
   128
 71
    67
 72
    52
 73
    51
  0
VERTEX
  5
231
  8
0
 62
     9
 10
0.0
 20
0.0
 30
0.0
 70
   128
 71
    51
 72
    66
 73
    67
  0
VERTEX
  5
232
  8
0
 62
     9
 10
0.0
 20
0.0
 30
0.0
 70
   128
 71
    52
 72
    68
 73
    53
  0
VERTEX
  5
233
  8
0
 62
     9
 10
0.0
 20
0.0
 30
0.0
 70
   128
 71
    68
 72
    52
 73
    67
  0
VERTEX
  5
234
  8
0
 62
     9
 10
0.0
 20
0.0
 30
0.0
 70
   128
 71
    66
 72
    51
 73
    50
  0
VERTEX
  5
235
  8
0
 62
     9
 10
0.0
 20
0.0
 30
0.0
 70
   128
 71
    68
 72
    69
 73
    53
  0
VERTEX
  5
236
  8
0
 62
     9
 10
0.0
 20
0.0
 30
0.0
 70
   128
 71
    58
 72
    48
 73
    70
  0
VERTEX
  5
237
  8
0
 62
     9
 10
0.0
 20
0.0
 30
0.0
 70
   128
 71
    48
 72
    58
 73
    47
  0
VERTEX
  5
238
  8
0
 62
     9
 10
0.0
 20
0.0
 30
0.0
 70
   128
 71
    71
 72
    70
 73
    49
  0
VERTEX
  5
239
  8
0
 62
     9
 10
0.0
 20
0.0
 30
0.0
 70
   128
 71
    48
 72
    49
 73
    70
  0
VERTEX
  5
23A
  8
0
 62
     9
 10
0.0
 20
0.0
 30
0.0
 70
   128
 71
    44
 72
    65
 73
    71
  0
VERTEX
  5
23B
  8
0
 62
     9
 10
0.0
 20
0.0
 30
0.0
 70
   128
 71
    71
 72
    49
 73
    44
  0
VERTEX
  5
23C
  8
0
 62
     9
 10
0.0
 20
0.0
 30
0.0
 70
   128
 71
    72
 72
    65
 73
    45
  0
VERTEX
  5
23D
  8
0
 62
     9
 10
0.0
 20
0.0
 30
0.0
 70
   128
 71
    72
 72
    46
 73
    64
  0
VERTEX
  5
23E
  8
0
 62
     9
 10
0.0
 20
0.0
 30
0.0
 70
   128
 71
    46
 72
    72
 73
    45
  0
VERTEX
  5
23F
  8
0
 62
     9
 10
0.0
 20
0.0
 30
0.0
 70
   128
 71
    42
 72
    64
 73
    41
  0
VERTEX
  5
240
  8
0
 62
     9
 10
0.0
 20
0.0
 30
0.0
 70
   128
 71
    39
 72
    59
 73
    63
  0
VERTEX
  5
241
  8
0
 62
     9
 10
0.0
 20
0.0
 30
0.0
 70
   128
 71
    54
 72
    59
 73
    39
  0
VERTEX
  5
242
  8
0
 62
     9
 10
0.0
 20
0.0
 30
0.0
 70
   128
 71
    40
 72
    60
 73
    54
  0
VERTEX
  5
243
  8
0
 62
     9
 10
0.0
 20
0.0
 30
0.0
 70
   128
 71
    37
 72
    55
 73
    61
  0
VERTEX
  5
244
  8
0
 62
     9
 10
0.0
 20
0.0
 30
0.0
 70
   128
 71
    40
 72
    61
 73
    60
  0
VERTEX
  5
245
  8
0
 62
     9
 10
0.0
 20
0.0
 30
0.0
 70
   128
 71
    55
 72
    37
 73
    38
  0
VERTEX
  5
246
  8
0
 62
     9
 10
0.0
 20
0.0
 30
0.0
 70
   128
 71
    36
 72
    69
 73
    68
  0
VERTEX
  5
247
  8
0
 62
     9
 10
0.0
 20
0.0
 30
0.0
 70
   128
 71
    29
 72
    66
 73
    57
  0
VERTEX
  5
248
  8
0
 62
     9
 10
0.0
 20
0.0
 30
0.0
 70
   128
 71
    32
 72
    33
 73
    67
  0
VERTEX
  5
249
  8
0
 62
     9
 10
0.0
 20
0.0
 30
0.0
 70
   128
 71
     2
 72
    70
 73
     5
  0
VERTEX
  5
24A
  8
0
 62
     9
 10
0.0
 20
0.0
 30
0.0
 70
   128
 71
    58
 72
     2
 73
     6
  0
VERTEX
  5
24B
  8
0
 62
     9
 10
0.0
 20
0.0
 30
0.0
 70
   128
 71
    64
 72
     9
 73
    72
  0
VERTEX
  5
24C
  8
0
 62
     9
 10
0.0
 20
0.0
 30
0.0
 70
   128
 71
    65
 72
     7
 73
    71
  0
VERTEX
  5
24D
  8
0
 62
     9
 10
0.0
 20
0.0
 30
0.0
 70
   128
 71
    15
 72
    26
 73
    63
  0
VERTEX
  5
24E
  8
0
 62
     9
 10
0.0
 20
0.0
 30
0.0
 70
   128
 71
    10
 72
    62
 73
    13
  0
VERTEX
  5
24F
  8
0
 62
     9
 10
0.0
 20
0.0
 30
0.0
 70
   128
 71
    60
 72
    14
 73
    59
  0
VERTEX
  5
250
  8
0
 62
     9
 10
0.0
 20
0.0
 30
0.0
 70
   128
 71
    15
 72
    59
 73
    14
  0
VERTEX
  5
251
  8
0
 62
     9
 10
0.0
 20
0.0
 30
0.0
 70
   128
 71
    61
 72
    20
 73
    14
  0
VERTEX
  5
252
  8
0
 62
     9
 10
0.0
 20
0.0
 30
0.0
 70
   128
 71
    14
 72
    60
 73
    61
  0
VERTEX
  5
253
  8
0
 62
     9
 10
0.0
 20
0.0
 30
0.0
 70
   128
 71
    20
 72
    55
 73
    24
  0
VERTEX
  5
254
  8
0
 62
     9
 10
0.0
 20
0.0
 30
0.0
 70
   128
 71
    55
 72
    20
 73
    61
  0
VERTEX
  5
255
  8
0
 62
     9
 10
0.0
 20
0.0
 30
0.0
 70
   128
 71
    23
 72
    24
 73
    56
  0
VERTEX
  5
256
  8
0
 62
     9
 10
0.0
 20
0.0
 30
0.0
 70
   128
 71
    55
 72
    56
 73
    24
  0
VERTEX
  5
257
  8
0
 62
     9
 10
0.0
 20
0.0
 30
0.0
 70
   128
 71
    13
 72
    63
 73
    26
  0
VERTEX
  5
258
  8
0
 62
     9
 10
0.0
 20
0.0
 30
0.0
 70
   128
 71
    15
 72
    63
 73
    59
  0
VERTEX
  5
259
  8
0
 62
     9
 10
0.0
 20
0.0
 30
0.0
 70
   128
 71
    10
 72
    64
 73
    62
  0
VERTEX
  5
25A
  8
0
 62
     9
 10
0.0
 20
0.0
 30
0.0
 70
   128
 71
    13
 72
    62
 73
    63
  0
VERTEX
  5
25B
  8
0
 62
     9
 10
0.0
 20
0.0
 30
0.0
 70
   128
 71
    72
 72
     9
 73
    65
  0
VERTEX
  5
25C
  8
0
 62
     9
 10
0.0
 20
0.0
 30
0.0
 70
   128
 71
    10
 72
     9
 73
    64
  0
VERTEX
  5
25D
  8
0
 62
     9
 10
0.0
 20
0.0
 30
0.0
 70
   128
 71
    71
 72
     7
 73
     5
  0
VERTEX
  5
25E
  8
0
 62
     9
 10
0.0
 20
0.0
 30
0.0
 70
   128
 71
    65
 72
     9
 73
     7
  0
VERTEX
  5
25F
  8
0
 62
     9
 10
0.0
 20
0.0
 30
0.0
 70
   128
 71
    58
 72
    70
 73
     2
  0
VERTEX
  5
260
  8
0
 62
     9
 10
0.0
 20
0.0
 30
0.0
 70
   128
 71
    70
 72
    71
 73
     5
  0
VERTEX
  5
261
  8
0
 62
     9
 10
0.0
 20
0.0
 30
0.0
 70
   128
 71
    57
 72
    58
 73
    27
  0
VERTEX
  5
262
  8
0
 62
     9
 10
0.0
 20
0.0
 30
0.0
 70
   128
 71
    58
 72
     6
 73
    27
  0
VERTEX
  5
263
  8
0
 62
     9
 10
0.0
 20
0.0
 30
0.0
 70
   128
 71
    32
 72
    66
 73
    29
  0
VERTEX
  5
264
  8
0
 62
     9
 10
0.0
 20
0.0
 30
0.0
 70
   128
 71
    29
 72
    57
 73
    27
  0
VERTEX
  5
265
  8
0
 62
     9
 10
0.0
 20
0.0
 30
0.0
 70
   128
 71
    33
 72
    68
 73
    67
  0
VERTEX
  5
266
  8
0
 62
     9
 10
0.0
 20
0.0
 30
0.0
 70
   128
 71
    32
 72
    67
 73
    66
  0
VERTEX
  5
267
  8
0
 62
     9
 10
0.0
 20
0.0
 30
0.0
 70
   128
 71
    68
 72
    33
 73
    36
  0
VERTEX
  5
268
  8
0
 62
     9
 10
0.0
 20
0.0
 30
0.0
 70
   128
 71
    35
 72
    53
 73
    69
  0
VERTEX
  5
269
  8
0
 62
     9
 10
0.0
 20
0.0
 30
0.0
 70
   128
 71
    69
 72
    36
 73
    35
  0
SEQEND
  5
26A
  8
0
 62
     9
  0
ENDBLK
  5
26D
  8
0
  0
BLOCK
  8
0
  2
1_1_
 70
     0
 10
0.0
 20
0.0
 30
0.0
  3
1_1_
  1

  0
POLYLINE
  5
26F
  8
0
 62
     9
 66
     1
 10
0.0
 20
0.0
 30
0.0
 70
    64
 71
    16
 72
    26
  0
VERTEX
  5
270
  8
0
 10
20.0
 20
20.0
 30
63.0
 70
   192
  0
VERTEX
  5
271
  8
0
 10
-20.0
 20
20.0
 30
63.0
 70
   192
  0
VERTEX
  5
272
  8
0
 10
-20.0
 20
45.0
 30
63.0
 70
   192
  0
VERTEX
  5
273
  8
0
 10
20.0
 20
45.0
 30
63.0
 70
   192
  0
VERTEX
  5
274
  8
0
 10
-20.0
 20
45.0
 30
23.0
 70
   192
  0
VERTEX
  5
275
  8
0
 10
20.0
 20
45.0
 30
23.0
 70
   192
  0
VERTEX
  5
276
  8
0
 10
-20.0
 20
20.0
 30
100.0
 70
   192
  0
VERTEX
  5
277
  8
0
 10
20.0
 20
20.0
 30
100.0
 70
   192
  0
VERTEX
  5
278
  8
0
 10
20.0
 20
-20.0
 30
100.0
 70
   192
  0
VERTEX
  5
279
  8
0
 10
-20.0
 20
-20.0
 30
100.0
 70
   192
  0
VERTEX
  5
27A
  8
0
 10
20.0
 20
20.0
 30
23.0
 70
   192
  0
VERTEX
  5
27B
  8
0
 10
-20.0
 20
20.0
 30
23.0
 70
   192
  0
VERTEX
  5
27C
  8
0
 10
-20.0
 20
20.0
 30
-0.0000000000000764
 70
   192
  0
VERTEX
  5
27D
  8
0
 10
20.0
 20
20.0
 30
-0.0000000000000178
 70
   192
  0
VERTEX
  5
27E
  8
0
 10
20.0
 20
-20.0
 30
0.0
 70
   192
  0
VERTEX
  5
27F
  8
0
 10
-20.0
 20
-20.0
 30
-0.0000000000000568
 70
   192
  0
VERTEX
  5
280
  8
0
 62
     9
 10
0.0
 20
0.0
 30
0.0
 70
   128
 71
     3
 72
     2
 73
     1
  0
VERTEX
  5
281
  8
0
 62
     9
 10
0.0
 20
0.0
 30
0.0
 70
   128
 71
     1
 72
     4
 73
     3
  0
VERTEX
  5
282
  8
0
 62
     9
 10
0.0
 20
0.0
 30
0.0
 70
   128
 71
     4
 72
     6
 73
     5
  0
VERTEX
  5
283
  8
0
 62
     9
 10
0.0
 20
0.0
 30
0.0
 70
   128
 71
     5
 72
     3
 73
     4
  0
VERTEX
  5
284
  8
0
 62
     9
 10
0.0
 20
0.0
 30
0.0
 70
   128
 71
     9
 72
     8
 73
     7
  0
VERTEX
  5
285
  8
0
 62
     9
 10
0.0
 20
0.0
 30
0.0
 70
   128
 71
     7
 72
    10
 73
     9
  0
VERTEX
  5
286
  8
0
 62
     9
 10
0.0
 20
0.0
 30
0.0
 70
   128
 71
    13
 72
    12
 73
    11
  0
VERTEX
  5
287
  8
0
 62
     9
 10
0.0
 20
0.0
 30
0.0
 70
   128
 71
    11
 72
    14
 73
    13
  0
VERTEX
  5
288
  8
0
 62
     9
 10
0.0
 20
0.0
 30
0.0
 70
   128
 71
    11
 72
    12
 73
     6
  0
VERTEX
  5
289
  8
0
 62
     9
 10
0.0
 20
0.0
 30
0.0
 70
   128
 71
    12
 72
     5
 73
     6
  0
VERTEX
  5
28A
  8
0
 62
     9
 10
0.0
 20
0.0
 30
0.0
 70
   128
 71
     1
 72
     2
 73
     8
  0
VERTEX
  5
28B
  8
0
 62
     9
 10
0.0
 20
0.0
 30
0.0
 70
   128
 71
     2
 72
     7
 73
     8
  0
VERTEX
  5
28C
  8
0
 62
     9
 10
0.0
 20
0.0
 30
0.0
 70
   128
 71
    16
 72
    15
 73
    10
  0
VERTEX
  5
28D
  8
0
 62
     9
 10
0.0
 20
0.0
 30
0.0
 70
   128
 71
    15
 72
     9
 73
    10
  0
VERTEX
  5
28E
  8
0
 62
     9
 10
0.0
 20
0.0
 30
0.0
 70
   128
 71
     5
 72
    12
 73
     2
  0
VERTEX
  5
28F
  8
0
 62
     9
 10
0.0
 20
0.0
 30
0.0
 70
   128
 71
    10
 72
     7
 73
     2
  0
VERTEX
  5
290
  8
0
 62
     9
 10
0.0
 20
0.0
 30
0.0
 70
   128
 71
     3
 72
     5
 73
     2
  0
VERTEX
  5
291
  8
0
 62
     9
 10
0.0
 20
0.0
 30
0.0
 70
   128
 71
     2
 72
    12
 73
    16
  0
VERTEX
  5
292
  8
0
 62
     9
 10
0.0
 20
0.0
 30
0.0
 70
   128
 71
    16
 72
    12
 73
    13
  0
VERTEX
  5
293
  8
0
 62
     9
 10
0.0
 20
0.0
 30
0.0
 70
   128
 71
     2
 72
    16
 73
    10
  0
VERTEX
  5
294
  8
0
 62
     9
 10
0.0
 20
0.0
 30
0.0
 70
   128
 71
     1
 72
    15
 73
    11
  0
VERTEX
  5
295
  8
0
 62
     9
 10
0.0
 20
0.0
 30
0.0
 70
   128
 71
    11
 72
     6
 73
     4
  0
VERTEX
  5
296
  8
0
 62
     9
 10
0.0
 20
0.0
 30
0.0
 70
   128
 71
     4
 72
     1
 73
    11
  0
VERTEX
  5
297
  8
0
 62
     9
 10
0.0
 20
0.0
 30
0.0
 70
   128
 71
    15
 72
     1
 73
     9
  0
VERTEX
  5
298
  8
0
 62
     9
 10
0.0
 20
0.0
 30
0.0
 70
   128
 71
     8
 72
     9
 73
     1
  0
VERTEX
  5
299
  8
0
 62
     9
 10
0.0
 20
0.0
 30
0.0
 70
   128
 71
    15
 72
    14
 73
    11
  0
SEQEND
  5
29A
  8
0
 62
     9
  0
ENDBLK
  5
29D
  8
0
  0
BLOCK
  8
0
  2
401813038
 70
     0
 10
0.0
 20
0.0
 30
0.0
  3
401813038
  1

  0
POLYLINE
  5
29F
  8
0
 66
     1
 10
0.0
 20
0.0
 30
0.0
 70
    64
 71
   207
 72
   414
  0
VERTEX
  5
2A0
  8
0
 10
-16.26772689819336
 20
47.04340744018555
 30
53.68436431884766
 70
   192
  0
VERTEX
  5
2A1
  8
0
 10
-7.409986972808838
 20
47.16149520874023
 30
69.77537536621094
 70
   192
  0
VERTEX
  5
2A2
  8
0
 10
-16.57194519042969
 20
47.2182731628418
 30
53.93171691894531
 70
   192
  0
VERTEX
  5
2A3
  8
0
 10
-7.085679531097412
 20
46.99280548095703
 30
69.588134765625
 70
   192
  0
VERTEX
  5
2A4
  8
0
 10
17.7607479095459
 20
47.2182731628418
 30
34.10972595214844
 70
   192
  0
VERTEX
  5
2A5
  8
0
 10
27.00619888305664
 20
47.55374908447266
 30
49.90489196777344
 70
   192
  0
VERTEX
  5
2A6
  8
0
 10
17.3944263458252
 20
47.04340744018555
 30
34.24951171875
 70
   192
  0
VERTEX
  5
2A7
  8
0
 10
40.67005157470703
 20
76.19304656982422
 30
97.41874694824219
 70
   192
  0
VERTEX
  5
2A8
  8
0
 10
26.62595748901367
 20
76.05756378173828
 30
105.1258239746094
 70
   192
  0
VERTEX
  5
2A9
  8
0
 10
26.79809379577637
 20
76.19312286376953
 30
105.4273834228516
 70
   192
  0
VERTEX
  5
2AA
  8
0
 10
40.4119758605957
 20
75.71928405761719
 30
96.9852523803711
 70
   192
  0
VERTEX
  5
2AB
  8
0
 10
26.55109596252441
 20
75.71946716308594
 30
104.9878463745117
 70
   192
  0
VERTEX
  5
2AC
  8
0
 10
40.49395751953125
 20
76.05706024169922
 30
97.11859130859375
 70
   192
  0
VERTEX
  5
2AD
  8
0
 10
24.78177642822266
 20
72.00183868408203
 30
53.16087341308594
 70
   192
  0
VERTEX
  5
2AE
  8
0
 10
25.22435188293457
 20
72.28521728515625
 30
52.89192962646484
 70
   192
  0
VERTEX
  5
2AF
  8
0
 10
29.95364570617676
 20
75.771240234375
 30
61.93936538696289
 70
   192
  0
VERTEX
  5
2B0
  8
0
 10
25.19417572021484
 20
72.55886840820312
 30
52.9068603515625
 70
   192
  0
VERTEX
  5
2B1
  8
0
 10
21.87497520446777
 20
75.74015808105469
 30
47.93906402587891
 70
   192
  0
VERTEX
  5
2B2
  8
0
 10
23.84345436096191
 20
70.62019348144531
 30
50.09142303466797
 70
   192
  0
VERTEX
  5
2B3
  8
0
 10
23.85735511779785
 20
68.766357421875
 30
49.66009902954102
 70
   192
  0
VERTEX
  5
2B4
  8
0
 10
24.32821273803711
 20
72.03096771240234
 30
51.27748870849609
 70
   192
  0
VERTEX
  5
2B5
  8
0
 10
13.80309677124023
 20
75.64517211914062
 30
33.93483734130859
 70
   192
  0
VERTEX
  5
2B6
  8
0
 10
17.93387031555176
 20
47.55374908447266
 30
34.19115829467773
 70
   192
  0
VERTEX
  5
2B7
  8
0
 10
6.90483283996582
 20
57.3011360168457
 30
17.48196220397949
 70
   192
  0
VERTEX
  5
2B8
  8
0
 10
5.738012790679932
 20
75.48628997802734
 30
19.92668342590332
 70
   192
  0
VERTEX
  5
2B9
  8
0
 10
54.59414672851562
 20
72.01156616210938
 30
103.694709777832
 70
   192
  0
VERTEX
  5
2BA
  8
0
 10
38.03911209106445
 20
75.73843383789062
 30
75.93574523925781
 70
   192
  0
VERTEX
  5
2BB
  8
0
 10
46.13137054443359
 20
75.6417236328125
 30
89.92820739746094
 70
   192
  0
VERTEX
  5
2BC
  8
0
 10
54.23042678833008
 20
75.48112487792969
 30
103.9167327880859
 70
   192
  0
VERTEX
  5
2BD
  8
0
 10
46.2388801574707
 20
75.94734954833984
 30
90.43446350097656
 70
   192
  0
VERTEX
  5
2BE
  8
0
 10
53.81673431396484
 20
75.9199447631836
 30
104.1688919067383
 70
   192
  0
VERTEX
  5
2BF
  8
0
 10
54.09335327148438
 20
75.7906494140625
 30
104.0003280639648
 70
   192
  0
VERTEX
  5
2C0
  8
0
 10
21.83304786682129
 20
76.05046844482422
 30
48.18764877319336
 70
   192
  0
VERTEX
  5
2C1
  8
0
 10
13.382004737854
 20
76.08407592773438
 30
34.17419052124023
 70
   192
  0
VERTEX
  5
2C2
  8
0
 10
21.45536231994629
 20
76.17906951904297
 30
48.18098068237305
 70
   192
  0
VERTEX
  5
2C3
  8
0
 10
29.53551292419434
 20
76.21015167236328
 30
62.18384552001953
 70
   192
  0
VERTEX
  5
2C4
  8
0
 10
29.96145248413086
 20
76.08077239990234
 30
62.27389907836914
 70
   192
  0
VERTEX
  5
2C5
  8
0
 10
13.71151733398438
 20
75.95548248291016
 30
34.09741973876953
 70
   192
  0
VERTEX
  5
2C6
  8
0
 10
38.09672927856445
 20
76.04640197753906
 30
76.35617065429688
 70
   192
  0
VERTEX
  5
2C7
  8
0
 10
37.62245941162109
 20
76.17733001708984
 30
76.18278503417969
 70
   192
  0
VERTEX
  5
2C8
  8
0
 10
45.7161979675293
 20
76.0805892944336
 30
90.17780303955078
 70
   192
  0
VERTEX
  5
2C9
  8
0
 10
5.440896987915039
 20
75.49800109863281
 30
19.69793319702148
 70
   192
  0
VERTEX
  5
2CA
  8
0
 10
6.237778663635254
 20
57.28377151489258
 30
17.29190063476562
 70
   192
  0
VERTEX
  5
2CB
  8
0
 10
5.0693039894104
 20
75.46888732910156
 30
19.73710060119629
 70
   192
  0
VERTEX
  5
2CC
  8
0
 10
6.608386039733887
 20
57.31272125244141
 30
17.25375175476074
 70
   192
  0
VERTEX
  5
2CD
  8
0
 10
6.523222923278809
 20
57.03940200805664
 30
17.27477264404297
 70
   192
  0
VERTEX
  5
2CE
  8
0
 10
6.3653883934021
 20
56.79079437255859
 30
17.54031753540039
 70
   192
  0
VERTEX
  5
2CF
  8
0
 10
6.301634788513184
 20
57.03726959228516
 30
17.41620445251465
 70
   192
  0
VERTEX
  5
2D0
  8
0
 10
6.715266704559326
 20
56.94943618774414
 30
17.40192222595215
 70
   192
  0
VERTEX
  5
2D1
  8
0
 10
-9.549426078796387
 20
56.90807723999023
 30
26.45108032226562
 70
   192
  0
VERTEX
  5
2D2
  8
0
 10
-9.692343711853027
 20
57.40105438232422
 30
26.21157646179199
 70
   192
  0
VERTEX
  5
2D3
  8
0
 10
-25.29950523376465
 20
57.03738784790039
 30
35.66086196899414
 70
   192
  0
VERTEX
  5
2D4
  8
0
 10
-25.22389984130859
 20
56.79090881347656
 30
35.77813339233398
 70
   192
  0
VERTEX
  5
2D5
  8
0
 10
-25.37511253356934
 20
57.28381729125977
 30
35.54358673095703
 70
   192
  0
VERTEX
  5
2D6
  8
0
 10
-22.67344284057617
 20
75.4691162109375
 30
35.75436019897461
 70
   192
  0
VERTEX
  5
2D7
  8
0
 10
-8.890274047851562
 20
75.65921020507812
 30
27.59295654296875
 70
   192
  0
VERTEX
  5
2D8
  8
0
 10
-8.894485473632812
 20
75.98223876953125
 30
27.77795219421387
 70
   192
  0
VERTEX
  5
2D9
  8
0
 10
-22.42713356018066
 20
75.92537689208984
 30
36.1805305480957
 70
   192
  0
VERTEX
  5
2DA
  8
0
 10
-8.647956848144531
 20
76.1156005859375
 30
28.02129936218262
 70
   192
  0
VERTEX
  5
2DB
  8
0
 10
-22.59778213500977
 20
75.79203796386719
 30
35.89335632324219
 70
   192
  0
VERTEX
  5
2DC
  8
0
 10
24.33336448669434
 20
71.71589660644531
 30
51.51504135131836
 70
   192
  0
VERTEX
  5
2DD
  8
0
 10
24.04818725585938
 20
71.54718780517578
 30
51.74032592773438
 70
   192
  0
VERTEX
  5
2DE
  8
0
 10
23.66335296630859
 20
70.31171417236328
 30
50.73667144775391
 70
   192
  0
VERTEX
  5
2DF
  8
0
 10
23.89150428771973
 20
70.45105743408203
 30
50.40390396118164
 70
   192
  0
VERTEX
  5
2E0
  8
0
 10
23.90674209594727
 20
68.77803039550781
 30
50.03120040893555
 70
   192
  0
VERTEX
  5
2E1
  8
0
 10
23.68738174438477
 20
68.74900817871094
 30
50.3332405090332
 70
   192
  0
VERTEX
  5
2E2
  8
0
 10
26.83773612976074
 20
47.53642654418945
 30
50.57730484008789
 70
   192
  0
VERTEX
  5
2E3
  8
0
 10
27.05587387084961
 20
47.5653190612793
 30
50.27507781982422
 70
   192
  0
VERTEX
  5
2E4
  8
0
 10
-25.1480770111084
 20
56.7083854675293
 30
35.92972564697266
 70
   192
  0
VERTEX
  5
2E5
  8
0
 10
-22.48209953308105
 20
53.80685424804688
 30
41.25986099243164
 70
   192
  0
VERTEX
  5
2E6
  8
0
 10
-15.49666309356689
 20
46.99280548095703
 30
53.35899353027344
 70
   192
  0
VERTEX
  5
2E7
  8
0
 10
-15.71959400177002
 20
47.21026611328125
 30
52.97286605834961
 70
   192
  0
VERTEX
  5
2E8
  8
0
 10
16.66760635375977
 20
47.04340744018555
 30
34.66913986206055
 70
   192
  0
VERTEX
  5
2E9
  8
0
 10
-25.45660972595215
 20
56.7083854675293
 30
36.10786056518555
 70
   192
  0
VERTEX
  5
2EA
  8
0
 10
6.458633422851562
 20
56.7083854675293
 30
17.68158531188965
 70
   192
  0
VERTEX
  5
2EB
  8
0
 10
6.759535312652588
 20
56.7083854675293
 30
17.50785827636719
 70
   192
  0
VERTEX
  5
2EC
  8
0
 10
9.660477638244629
 20
53.87861633300781
 30
22.53243827819824
 70
   192
  0
VERTEX
  5
2ED
  8
0
 10
-7.51545524597168
 20
47.55373764038086
 30
69.83628845214844
 70
   192
  0
VERTEX
  5
2EE
  8
0
 10
-16.58791923522949
 20
47.55373764038086
 30
54.12232208251953
 70
   192
  0
VERTEX
  5
2EF
  8
0
 10
-25.53278350830078
 20
57.03951644897461
 30
35.78204727172852
 70
   192
  0
VERTEX
  5
2F0
  8
0
 10
-25.51869201660156
 20
56.94955062866211
 30
36.01194000244141
 70
   192
  0
VERTEX
  5
2F1
  8
0
 10
-25.59370803833008
 20
57.31284713745117
 30
35.84567642211914
 70
   192
  0
VERTEX
  5
2F2
  8
0
 10
-25.54410171508789
 20
57.30117416381836
 30
36.21608734130859
 70
   192
  0
VERTEX
  5
2F3
  8
0
 10
-4.291084289550781
 20
72.00463104248047
 30
68.863525390625
 70
   192
  0
VERTEX
  5
2F4
  8
0
 10
-5.000784397125244
 20
72.01126861572266
 30
68.1858139038086
 70
   192
  0
VERTEX
  5
2F5
  8
0
 10
-4.767797946929932
 20
71.72057342529297
 30
68.34146118164062
 70
   192
  0
VERTEX
  5
2F6
  8
0
 10
-5.78023099899292
 20
70.61182403564453
 30
67.17899322509766
 70
   192
  0
VERTEX
  5
2F7
  8
0
 10
-4.507791519165039
 20
71.48619842529297
 30
68.13897705078125
 70
   192
  0
VERTEX
  5
2F8
  8
0
 10
-3.581361770629883
 20
71.99788665771484
 30
69.54130554199219
 70
   192
  0
VERTEX
  5
2F9
  8
0
 10
-5.50950288772583
 20
70.4704360961914
 30
67.39940643310547
 70
   192
  0
VERTEX
  5
2FA
  8
0
 10
-5.856551170349121
 20
68.77781677246094
 30
67.2152328491211
 70
   192
  0
VERTEX
  5
2FB
  8
0
 10
-6.153347492218018
 20
68.76608276367188
 30
66.98641967773438
 70
   192
  0
VERTEX
  5
2FC
  8
0
 10
-5.106327056884766
 20
70.45317840576172
 30
67.3848876953125
 70
   192
  0
VERTEX
  5
2FD
  8
0
 10
-5.484968662261963
 20
68.74876403808594
 30
67.1761703491211
 70
   192
  0
VERTEX
  5
2FE
  8
0
 10
-6.65239143371582
 20
75.7403335571289
 30
64.4089584350586
 70
   192
  0
VERTEX
  5
2FF
  8
0
 10
-14.74453926086426
 20
75.64534759521484
 30
50.41627883911133
 70
   192
  0
VERTEX
  5
300
  8
0
 10
9.511517524719238
 20
75.73860931396484
 30
92.40609741210938
 70
   192
  0
VERTEX
  5
301
  8
0
 10
1.432960748672485
 20
75.77141571044922
 30
78.40557098388672
 70
   192
  0
VERTEX
  5
302
  8
0
 10
25.27406120300293
 20
72.01134490966797
 30
120.6229248046875
 70
   192
  0
VERTEX
  5
303
  8
0
 10
25.64824676513672
 20
75.4813003540039
 30
120.4189224243164
 70
   192
  0
VERTEX
  5
304
  8
0
 10
17.58328056335449
 20
75.64189910888672
 30
106.4105453491211
 70
   192
  0
VERTEX
  5
305
  8
0
 10
-14.32742881774902
 20
76.08424377441406
 30
50.17059707641602
 70
   192
  0
VERTEX
  5
306
  8
0
 10
-6.234485149383545
 20
76.17923736572266
 30
64.16465759277344
 70
   192
  0
VERTEX
  5
307
  8
0
 10
16.09915733337402
 20
76.32658386230469
 30
86.90737915039062
 70
   192
  0
VERTEX
  5
308
  8
0
 10
29.96850395202637
 20
76.32667541503906
 30
78.89856719970703
 70
   192
  0
VERTEX
  5
309
  8
0
 10
15.11395168304443
 20
76.2782211303711
 30
90.57727813720703
 70
   192
  0
VERTEX
  5
30A
  8
0
 10
14.86584758758545
 20
76.29828643798828
 30
88.54006958007812
 70
   192
  0
VERTEX
  5
30B
  8
0
 10
1.851663112640381
 20
76.21033477783203
 30
78.16264343261719
 70
   192
  0
VERTEX
  5
30C
  8
0
 10
18.00357246398926
 20
76.08081817626953
 30
106.1703720092773
 70
   192
  0
VERTEX
  5
30D
  8
0
 10
9.931015968322754
 20
76.17752838134766
 30
92.16454315185547
 70
   192
  0
VERTEX
  5
30E
  8
0
 10
26.07233047485352
 20
75.92012023925781
 30
120.1873397827148
 70
   192
  0
VERTEX
  5
30F
  8
0
 10
40.03838348388672
 20
76.1102294921875
 30
112.3406677246094
 70
   192
  0
VERTEX
  5
310
  8
0
 10
32.6598014831543
 20
76.28947448730469
 30
78.89791870117188
 70
   192
  0
VERTEX
  5
311
  8
0
 10
31.3160285949707
 20
76.30780792236328
 30
78.55418395996094
 70
   192
  0
VERTEX
  5
312
  8
0
 10
41.64698791503906
 20
76.1788558959961
 30
96.43775939941406
 70
   192
  0
VERTEX
  5
313
  8
0
 10
33.64712905883789
 20
76.2781982421875
 30
79.87577056884766
 70
   192
  0
VERTEX
  5
314
  8
0
 10
41.65114593505859
 20
76.17828369140625
 30
93.74577331542969
 70
   192
  0
VERTEX
  5
315
  8
0
 10
42.00720977783203
 20
76.1728515625
 30
95.09938049316406
 70
   192
  0
VERTEX
  5
316
  8
0
 10
23.12538146972656
 20
76.17828369140625
 30
104.4466323852539
 70
   192
  0
VERTEX
  5
317
  8
0
 10
24.10489273071289
 20
76.17276000976562
 30
105.4238662719727
 70
   192
  0
VERTEX
  5
318
  8
0
 10
25.44429588317871
 20
76.17870330810547
 30
105.7851257324219
 70
   192
  0
VERTEX
  5
319
  8
0
 10
40.03892135620117
 20
71.80182647705078
 30
112.3403625488281
 70
   192
  0
VERTEX
  5
31A
  8
0
 10
25.78882598876953
 20
75.79046630859375
 30
120.3421936035156
 70
   192
  0
VERTEX
  5
31B
  8
0
 10
9.365029335021973
 20
70.12849426269531
 30
59.21167755126953
 70
   192
  0
VERTEX
  5
31C
  8
0
 10
9.917474746704102
 20
71.34700775146484
 30
60.16854476928711
 70
   192
  0
VERTEX
  5
31D
  8
0
 10
9.214452743530273
 20
68.54080963134766
 30
58.95085525512695
 70
   192
  0
VERTEX
  5
31E
  8
0
 10
10.70484161376953
 20
71.80183410644531
 30
61.54132843017578
 70
   192
  0
VERTEX
  5
31F
  8
0
 10
40.5826301574707
 20
71.84882354736328
 30
97.25873565673828
 70
   192
  0
VERTEX
  5
320
  8
0
 10
33.49817657470703
 20
71.88282775878906
 30
79.97420501708984
 70
   192
  0
VERTEX
  5
321
  8
0
 10
31.97500419616699
 20
71.87191772460938
 30
78.80388641357422
 70
   192
  0
VERTEX
  5
322
  8
0
 10
15.02326393127441
 20
71.87191009521484
 30
88.59247589111328
 70
   192
  0
VERTEX
  5
323
  8
0
 10
16.1864185333252
 20
71.84882354736328
 30
87.06804656982422
 70
   192
  0
VERTEX
  5
324
  8
0
 10
30.06684494018555
 20
71.84877014160156
 30
79.05453491210938
 70
   192
  0
VERTEX
  5
325
  8
0
 10
26.70216178894043
 20
71.84877014160156
 30
105.2722702026367
 70
   192
  0
VERTEX
  5
326
  8
0
 10
15.27122592926025
 20
71.88282775878906
 30
90.49674987792969
 70
   192
  0
VERTEX
  5
327
  8
0
 10
23.27084922790527
 20
71.88282775878906
 30
104.3526306152344
 70
   192
  0
VERTEX
  5
328
  8
0
 10
24.79402160644531
 20
71.87191772460938
 30
105.5229263305664
 70
   192
  0
VERTEX
  5
329
  8
0
 10
41.49777984619141
 20
71.88282775878906
 30
93.8300552368164
 70
   192
  0
VERTEX
  5
32A
  8
0
 10
41.74574279785156
 20
71.87191009521484
 30
95.73429870605469
 70
   192
  0
VERTEX
  5
32B
  8
0
 10
23.56071853637695
 20
75.70452880859375
 30
104.1859817504883
 70
   192
  0
VERTEX
  5
32C
  8
0
 10
15.71031093597412
 20
72.408935546875
 30
90.24324798583984
 70
   192
  0
VERTEX
  5
32D
  8
0
 10
15.55622482299805
 20
75.80438232421875
 30
90.33226013183594
 70
   192
  0
VERTEX
  5
32E
  8
0
 10
23.7100715637207
 20
72.408935546875
 30
104.099235534668
 70
   192
  0
VERTEX
  5
32F
  8
0
 10
23.42794418334961
 20
76.04373931884766
 30
104.27197265625
 70
   192
  0
VERTEX
  5
330
  8
0
 10
15.42061519622803
 20
76.14308166503906
 30
90.41222381591797
 70
   192
  0
VERTEX
  5
331
  8
0
 10
15.18458938598633
 20
76.16368103027344
 30
88.62154388427734
 70
   192
  0
VERTEX
  5
332
  8
0
 10
15.36620998382568
 20
75.82559204101562
 30
88.67278289794922
 70
   192
  0
VERTEX
  5
333
  8
0
 10
16.27132987976074
 20
76.18861389160156
 30
87.20460510253906
 70
   192
  0
VERTEX
  5
334
  8
0
 10
16.35254859924316
 20
75.852783203125
 30
87.33611297607422
 70
   192
  0
VERTEX
  5
335
  8
0
 10
16.44974517822266
 20
72.37470245361328
 30
87.49041748046875
 70
   192
  0
VERTEX
  5
336
  8
0
 10
15.50953102111816
 20
72.39785766601562
 30
88.71334838867188
 70
   192
  0
VERTEX
  5
337
  8
0
 10
15.58968448638916
 20
72.03580474853516
 30
90.3128890991211
 70
   192
  0
VERTEX
  5
338
  8
0
 10
15.37648010253906
 20
72.02455139160156
 30
88.67100524902344
 70
   192
  0
VERTEX
  5
339
  8
0
 10
16.37836074829102
 20
72.00572967529297
 30
87.37519073486328
 70
   192
  0
VERTEX
  5
33A
  8
0
 10
30.24152755737305
 20
72.00589752197266
 30
79.37149810791016
 70
   192
  0
VERTEX
  5
33B
  8
0
 10
30.30550765991211
 20
72.37483978271484
 30
79.49078369140625
 70
   192
  0
VERTEX
  5
33C
  8
0
 10
30.21440124511719
 20
75.85285186767578
 30
79.3329086303711
 70
   192
  0
VERTEX
  5
33D
  8
0
 10
30.1410026550293
 20
76.18827056884766
 30
79.19749450683594
 70
   192
  0
VERTEX
  5
33E
  8
0
 10
33.34674835205078
 20
76.14310455322266
 30
80.05528259277344
 70
   192
  0
VERTEX
  5
33F
  8
0
 10
31.30663299560547
 20
76.17316436767578
 30
78.8818130493164
 70
   192
  0
VERTEX
  5
340
  8
0
 10
32.49427032470703
 20
76.15461730957031
 30
79.20104217529297
 70
   192
  0
VERTEX
  5
341
  8
0
 10
32.40959930419922
 20
75.81647491455078
 30
79.35050201416016
 70
   192
  0
VERTEX
  5
342
  8
0
 10
31.32522392272949
 20
75.83386993408203
 30
79.0563735961914
 70
   192
  0
VERTEX
  5
343
  8
0
 10
33.2098274230957
 20
75.80441284179688
 30
80.13310241699219
 70
   192
  0
VERTEX
  5
344
  8
0
 10
33.05902481079102
 20
72.4090576171875
 30
80.22770690917969
 70
   192
  0
VERTEX
  5
345
  8
0
 10
31.83481407165527
 20
72.39811706542969
 30
79.28848266601562
 70
   192
  0
VERTEX
  5
346
  8
0
 10
31.87440872192383
 20
72.02494812011719
 30
79.15496826171875
 70
   192
  0
VERTEX
  5
347
  8
0
 10
33.17966079711914
 20
72.03580474853516
 30
80.15808868408203
 70
   192
  0
VERTEX
  5
348
  8
0
 10
17.96790313720703
 20
75.94744110107422
 30
106.7568664550781
 70
   192
  0
VERTEX
  5
349
  8
0
 10
1.71878719329834
 20
76.08086395263672
 30
78.57980346679688
 70
   192
  0
VERTEX
  5
34A
  8
0
 10
-6.416093826293945
 20
76.0505599975586
 30
64.49722290039062
 70
   192
  0
VERTEX
  5
34B
  8
0
 10
-14.55785655975342
 20
75.95557403564453
 30
50.41859817504883
 70
   192
  0
VERTEX
  5
34C
  8
0
 10
9.846786499023438
 20
76.04649353027344
 30
92.66635131835938
 70
   192
  0
VERTEX
  5
34D
  8
0
 10
-15.13544940948486
 20
46.99280548095703
 30
53.98463439941406
 70
   192
  0
VERTEX
  5
34E
  8
0
 10
9.880316734313965
 20
46.99280548095703
 30
60.11320114135742
 70
   192
  0
VERTEX
  5
34F
  8
0
 10
17.10474014282227
 20
46.99280548095703
 30
35.42627716064453
 70
   192
  0
VERTEX
  5
350
  8
0
 10
25.8607006072998
 20
46.99280548095703
 30
50.59335708618164
 70
   192
  0
VERTEX
  5
351
  8
0
 10
25.09189224243164
 20
46.99280548095703
 30
51.06500244140625
 70
   192
  0
VERTEX
  5
352
  8
0
 10
-5.561440467834473
 20
46.99280548095703
 30
68.76271057128906
 70
   192
  0
VERTEX
  5
353
  8
0
 10
-6.354885578155518
 20
46.99280548095703
 30
69.1930160522461
 70
   192
  0
VERTEX
  5
354
  8
0
 10
10.13318824768066
 20
47.53638458251953
 30
60.5423583984375
 70
   192
  0
VERTEX
  5
355
  8
0
 10
-6.84904956817627
 20
47.53638458251953
 30
70.02643585205078
 70
   192
  0
VERTEX
  5
356
  8
0
 10
-6.910551071166992
 20
47.15501022338867
 30
69.91252136230469
 70
   192
  0
VERTEX
  5
357
  8
0
 10
10.16950798034668
 20
47.15501403808594
 30
60.37189102172852
 70
   192
  0
VERTEX
  5
358
  8
0
 10
-7.219690799713135
 20
47.56531524658203
 30
70.06444549560547
 70
   192
  0
VERTEX
  5
359
  8
0
 10
-7.25652027130127
 20
47.28152847290039
 30
70.00787353515625
 70
   192
  0
VERTEX
  5
35A
  8
0
 10
24.37282562255859
 20
75.69918060302734
 30
104.9913101196289
 70
   192
  0
VERTEX
  5
35B
  8
0
 10
26.46345329284668
 20
72.37483978271484
 30
104.8360443115234
 70
   192
  0
VERTEX
  5
35C
  8
0
 10
24.93428421020508
 20
72.39810943603516
 30
105.0383453369141
 70
   192
  0
VERTEX
  5
35D
  8
0
 10
25.46463775634766
 20
75.70531463623047
 30
105.2798233032227
 70
   192
  0
VERTEX
  5
35E
  8
0
 10
23.58942031860352
 20
72.03582763671875
 30
104.1687469482422
 70
   192
  0
VERTEX
  5
35F
  8
0
 10
26.52754402160645
 20
72.00579071044922
 30
104.9554214477539
 70
   192
  0
VERTEX
  5
360
  8
0
 10
24.89462471008301
 20
72.02494812011719
 30
105.1718444824219
 70
   192
  0
VERTEX
  5
361
  8
0
 10
41.17930221557617
 20
72.03579711914062
 30
94.01392364501953
 70
   192
  0
VERTEX
  5
362
  8
0
 10
41.05868148803711
 20
72.408935546875
 30
94.08353424072266
 70
   192
  0
VERTEX
  5
363
  8
0
 10
41.39253234863281
 20
72.02455139160156
 30
95.65577697753906
 70
   192
  0
VERTEX
  5
364
  8
0
 10
40.39068603515625
 20
72.00572967529297
 30
96.95159149169922
 70
   192
  0
VERTEX
  5
365
  8
0
 10
41.2596435546875
 20
72.39781951904297
 30
95.61287689208984
 70
   192
  0
VERTEX
  5
366
  8
0
 10
40.31927490234375
 20
72.37458038330078
 30
96.83633422851562
 70
   192
  0
VERTEX
  5
367
  8
0
 10
41.21245574951172
 20
75.70482635498047
 30
96.17562103271484
 70
   192
  0
VERTEX
  5
368
  8
0
 10
41.50059509277344
 20
75.69883728027344
 30
95.08374786376953
 70
   192
  0
VERTEX
  5
369
  8
0
 10
41.20823669433594
 20
75.70441436767578
 30
93.99715423583984
 70
   192
  0
VERTEX
  5
36A
  8
0
 10
41.34503936767578
 20
76.04496002197266
 30
96.2666015625
 70
   192
  0
VERTEX
  5
36B
  8
0
 10
41.65991973876953
 20
76.03890991210938
 30
95.08247375488281
 70
   192
  0
VERTEX
  5
36C
  8
0
 10
41.3465690612793
 20
76.04380798339844
 30
93.92063903808594
 70
   192
  0
VERTEX
  5
36D
  8
0
 10
24.27838706970215
 20
76.0390853881836
 30
105.1220932006836
 70
   192
  0
VERTEX
  5
36E
  8
0
 10
25.46246910095215
 20
76.04517364501953
 30
105.4393310546875
 70
   192
  0
VERTEX
  5
36F
  8
0
 62
   253
 10
0.0
 20
0.0
 30
0.0
 70
   128
 71
     3
 72
     2
 73
     1
  0
VERTEX
  5
370
  8
0
 62
   253
 10
0.0
 20
0.0
 30
0.0
 70
   128
 71
     4
 72
     1
 73
     2
  0
VERTEX
  5
371
  8
0
 62
   253
 10
0.0
 20
0.0
 30
0.0
 70
   128
 71
     7
 72
     6
 73
     5
  0
VERTEX
  5
372
  8
0
 62
   253
 10
0.0
 20
0.0
 30
0.0
 70
   128
 71
    10
 72
     9
 73
     8
  0
VERTEX
  5
373
  8
0
 62
   253
 10
0.0
 20
0.0
 30
0.0
 70
   128
 71
    13
 72
    12
 73
    11
  0
VERTEX
  5
374
  8
0
 62
   253
 10
0.0
 20
0.0
 30
0.0
 70
   128
 71
     9
 72
    13
 73
     8
  0
VERTEX
  5
375
  8
0
 62
   253
 10
0.0
 20
0.0
 30
0.0
 70
   128
 71
    12
 72
    13
 73
     9
  0
VERTEX
  5
376
  8
0
 62
   253
 10
0.0
 20
0.0
 30
0.0
 70
   128
 71
    16
 72
    15
 73
    14
  0
VERTEX
  5
377
  8
0
 62
   253
 10
0.0
 20
0.0
 30
0.0
 70
   128
 71
    15
 72
    16
 73
    17
  0
VERTEX
  5
378
  8
0
 62
   253
 10
0.0
 20
0.0
 30
0.0
 70
   128
 71
    20
 72
    19
 73
    18
  0
VERTEX
  5
379
  8
0
 62
   253
 10
0.0
 20
0.0
 30
0.0
 70
   128
 71
    18
 72
    19
 73
    21
  0
VERTEX
  5
37A
  8
0
 62
   253
 10
0.0
 20
0.0
 30
0.0
 70
   128
 71
    18
 72
    22
 73
    20
  0
VERTEX
  5
37B
  8
0
 62
   253
 10
0.0
 20
0.0
 30
0.0
 70
   128
 71
    23
 72
     6
 73
    20
  0
VERTEX
  5
37C
  8
0
 62
   253
 10
0.0
 20
0.0
 30
0.0
 70
   128
 71
    23
 72
    20
 73
    22
  0
VERTEX
  5
37D
  8
0
 62
   253
 10
0.0
 20
0.0
 30
0.0
 70
   128
 71
    22
 72
    25
 73
    24
  0
VERTEX
  5
37E
  8
0
 62
   253
 10
0.0
 20
0.0
 30
0.0
 70
   128
 71
    24
 72
    23
 73
    22
  0
VERTEX
  5
37F
  8
0
 62
   253
 10
0.0
 20
0.0
 30
0.0
 70
   128
 71
    16
 72
    18
 73
    17
  0
VERTEX
  5
380
  8
0
 62
   253
 10
0.0
 20
0.0
 30
0.0
 70
   128
 71
    21
 72
    17
 73
    18
  0
VERTEX
  5
381
  8
0
 62
   253
 10
0.0
 20
0.0
 30
0.0
 70
   128
 71
    27
 72
    14
 73
    26
  0
VERTEX
  5
382
  8
0
 62
   253
 10
0.0
 20
0.0
 30
0.0
 70
   128
 71
    27
 72
    16
 73
    14
  0
VERTEX
  5
383
  8
0
 62
   253
 10
0.0
 20
0.0
 30
0.0
 70
   128
 71
    28
 72
    27
 73
    26
  0
VERTEX
  5
384
  8
0
 62
   253
 10
0.0
 20
0.0
 30
0.0
 70
   128
 71
    29
 72
    28
 73
    26
  0
VERTEX
  5
385
  8
0
 62
   253
 10
0.0
 20
0.0
 30
0.0
 70
   128
 71
    32
 72
    31
 73
    30
  0
VERTEX
  5
386
  8
0
 62
   253
 10
0.0
 20
0.0
 30
0.0
 70
   128
 71
    35
 72
    34
 73
    33
  0
VERTEX
  5
387
  8
0
 62
   253
 10
0.0
 20
0.0
 30
0.0
 70
   128
 71
    33
 72
    36
 73
    35
  0
VERTEX
  5
388
  8
0
 62
   253
 10
0.0
 20
0.0
 30
0.0
 70
   128
 71
    33
 72
    37
 73
    36
  0
VERTEX
  5
389
  8
0
 62
   253
 10
0.0
 20
0.0
 30
0.0
 70
   128
 71
    34
 72
    38
 73
    33
  0
VERTEX
  5
38A
  8
0
 62
   253
 10
0.0
 20
0.0
 30
0.0
 70
   128
 71
    25
 72
    38
 73
    34
  0
VERTEX
  5
38B
  8
0
 62
   253
 10
0.0
 20
0.0
 30
0.0
 70
   128
 71
    40
 72
    37
 73
    39
  0
VERTEX
  5
38C
  8
0
 62
   253
 10
0.0
 20
0.0
 30
0.0
 70
   128
 71
    37
 72
    40
 73
    36
  0
VERTEX
  5
38D
  8
0
 62
   253
 10
0.0
 20
0.0
 30
0.0
 70
   128
 71
    39
 72
    30
 73
    41
  0
VERTEX
  5
38E
  8
0
 62
   253
 10
0.0
 20
0.0
 30
0.0
 70
   128
 71
    30
 72
    39
 73
    28
  0
VERTEX
  5
38F
  8
0
 62
   253
 10
0.0
 20
0.0
 30
0.0
 70
   128
 71
    28
 72
    39
 73
    27
  0
VERTEX
  5
390
  8
0
 62
   253
 10
0.0
 20
0.0
 30
0.0
 70
   128
 71
    28
 72
    29
 73
    30
  0
VERTEX
  5
391
  8
0
 62
   253
 10
0.0
 20
0.0
 30
0.0
 70
   128
 71
    41
 72
    30
 73
    31
  0
VERTEX
  5
392
  8
0
 62
   253
 10
0.0
 20
0.0
 30
0.0
 70
   128
 71
    32
 72
    30
 73
    29
  0
VERTEX
  5
393
  8
0
 62
   253
 10
0.0
 20
0.0
 30
0.0
 70
   128
 71
    37
 72
    16
 73
    27
  0
VERTEX
  5
394
  8
0
 62
   253
 10
0.0
 20
0.0
 30
0.0
 70
   128
 71
    40
 72
    39
 73
    41
  0
VERTEX
  5
395
  8
0
 62
   253
 10
0.0
 20
0.0
 30
0.0
 70
   128
 71
    39
 72
    37
 73
    27
  0
VERTEX
  5
396
  8
0
 62
   253
 10
0.0
 20
0.0
 30
0.0
 70
   128
 71
    33
 72
    18
 73
    16
  0
VERTEX
  5
397
  8
0
 62
   253
 10
0.0
 20
0.0
 30
0.0
 70
   128
 71
    37
 72
    33
 73
    16
  0
VERTEX
  5
398
  8
0
 62
   253
 10
0.0
 20
0.0
 30
0.0
 70
   128
 71
    38
 72
    22
 73
    18
  0
VERTEX
  5
399
  8
0
 62
   253
 10
0.0
 20
0.0
 30
0.0
 70
   128
 71
    33
 72
    38
 73
    18
  0
VERTEX
  5
39A
  8
0
 62
   253
 10
0.0
 20
0.0
 30
0.0
 70
   128
 71
    25
 72
    22
 73
    38
  0
VERTEX
  5
39B
  8
0
 62
   253
 10
0.0
 20
0.0
 30
0.0
 70
   128
 71
    44
 72
    43
 73
    42
  0
VERTEX
  5
39C
  8
0
 62
   253
 10
0.0
 20
0.0
 30
0.0
 70
   128
 71
    45
 72
    24
 73
    25
  0
VERTEX
  5
39D
  8
0
 62
   253
 10
0.0
 20
0.0
 30
0.0
 70
   128
 71
    45
 72
    42
 73
    43
  0
VERTEX
  5
39E
  8
0
 62
   253
 10
0.0
 20
0.0
 30
0.0
 70
   128
 71
    42
 72
    45
 73
    25
  0
VERTEX
  5
39F
  8
0
 62
   253
 10
0.0
 20
0.0
 30
0.0
 70
   128
 71
    46
 72
    45
 73
    43
  0
VERTEX
  5
3A0
  8
0
 62
   253
 10
0.0
 20
0.0
 30
0.0
 70
   128
 71
    46
 72
    48
 73
    47
  0
VERTEX
  5
3A1
  8
0
 62
   253
 10
0.0
 20
0.0
 30
0.0
 70
   128
 71
    45
 72
    49
 73
    24
  0
VERTEX
  5
3A2
  8
0
 62
   253
 10
0.0
 20
0.0
 30
0.0
 70
   128
 71
    43
 72
    48
 73
    46
  0
VERTEX
  5
3A3
  8
0
 62
   253
 10
0.0
 20
0.0
 30
0.0
 70
   128
 71
    46
 72
    49
 73
    45
  0
VERTEX
  5
3A4
  8
0
 62
   253
 10
0.0
 20
0.0
 30
0.0
 70
   128
 71
    49
 72
    46
 73
    47
  0
VERTEX
  5
3A5
  8
0
 62
   253
 10
0.0
 20
0.0
 30
0.0
 70
   128
 71
    51
 72
    50
 73
    48
  0
VERTEX
  5
3A6
  8
0
 62
   253
 10
0.0
 20
0.0
 30
0.0
 70
   128
 71
    48
 72
    50
 73
    47
  0
VERTEX
  5
3A7
  8
0
 62
   253
 10
0.0
 20
0.0
 30
0.0
 70
   128
 71
    53
 72
    50
 73
    52
  0
VERTEX
  5
3A8
  8
0
 62
   253
 10
0.0
 20
0.0
 30
0.0
 70
   128
 71
    52
 72
    51
 73
    54
  0
VERTEX
  5
3A9
  8
0
 62
   253
 10
0.0
 20
0.0
 30
0.0
 70
   128
 71
    43
 72
    51
 73
    48
  0
VERTEX
  5
3AA
  8
0
 62
   253
 10
0.0
 20
0.0
 30
0.0
 70
   128
 71
    50
 72
    51
 73
    52
  0
VERTEX
  5
3AB
  8
0
 62
     9
 10
0.0
 20
0.0
 30
0.0
 70
   128
 71
    51
 72
    56
 73
    55
  0
VERTEX
  5
3AC
  8
0
 62
     9
 10
0.0
 20
0.0
 30
0.0
 70
   128
 71
    44
 72
    51
 73
    43
  0
VERTEX
  5
3AD
  8
0
 62
     9
 10
0.0
 20
0.0
 30
0.0
 70
   128
 71
    54
 72
    51
 73
    55
  0
VERTEX
  5
3AE
  8
0
 62
     9
 10
0.0
 20
0.0
 30
0.0
 70
   128
 71
    56
 72
    51
 73
    44
  0
VERTEX
  5
3AF
  8
0
 62
   253
 10
0.0
 20
0.0
 30
0.0
 70
   128
 71
    59
 72
    58
 73
    57
  0
VERTEX
  5
3B0
  8
0
 62
   253
 10
0.0
 20
0.0
 30
0.0
 70
   128
 71
    56
 72
    44
 73
    57
  0
VERTEX
  5
3B1
  8
0
 62
   253
 10
0.0
 20
0.0
 30
0.0
 70
   128
 71
    57
 72
    44
 73
    42
  0
VERTEX
  5
3B2
  8
0
 62
   253
 10
0.0
 20
0.0
 30
0.0
 70
   128
 71
    59
 72
    42
 73
    25
  0
VERTEX
  5
3B3
  8
0
 62
   253
 10
0.0
 20
0.0
 30
0.0
 70
   128
 71
    42
 72
    59
 73
    57
  0
VERTEX
  5
3B4
  8
0
 62
   253
 10
0.0
 20
0.0
 30
0.0
 70
   128
 71
    55
 72
    56
 73
    60
  0
VERTEX
  5
3B5
  8
0
 62
   253
 10
0.0
 20
0.0
 30
0.0
 70
   128
 71
    57
 72
    60
 73
    56
  0
VERTEX
  5
3B6
  8
0
 62
   253
 10
0.0
 20
0.0
 30
0.0
 70
   128
 71
    60
 72
    57
 73
    58
  0
VERTEX
  5
3B7
  8
0
 62
   253
 10
0.0
 20
0.0
 30
0.0
 70
   128
 71
    19
 72
    61
 73
    21
  0
VERTEX
  5
3B8
  8
0
 62
   253
 10
0.0
 20
0.0
 30
0.0
 70
   128
 71
    14
 72
    15
 73
    61
  0
VERTEX
  5
3B9
  8
0
 62
   253
 10
0.0
 20
0.0
 30
0.0
 70
   128
 71
    15
 72
    17
 73
    21
  0
VERTEX
  5
3BA
  8
0
 62
   253
 10
0.0
 20
0.0
 30
0.0
 70
   128
 71
    64
 72
    63
 73
    62
  0
VERTEX
  5
3BB
  8
0
 62
   253
 10
0.0
 20
0.0
 30
0.0
 70
   128
 71
    61
 72
    64
 73
    62
  0
VERTEX
  5
3BC
  8
0
 62
   253
 10
0.0
 20
0.0
 30
0.0
 70
   128
 71
    66
 72
    63
 73
    65
  0
VERTEX
  5
3BD
  8
0
 62
   253
 10
0.0
 20
0.0
 30
0.0
 70
   128
 71
    64
 72
    61
 73
    19
  0
VERTEX
  5
3BE
  8
0
 62
   253
 10
0.0
 20
0.0
 30
0.0
 70
   128
 71
    19
 72
    20
 73
    64
  0
VERTEX
  5
3BF
  8
0
 62
   253
 10
0.0
 20
0.0
 30
0.0
 70
   128
 71
    21
 72
    61
 73
    15
  0
VERTEX
  5
3C0
  8
0
 62
   253
 10
0.0
 20
0.0
 30
0.0
 70
   128
 71
    61
 72
    62
 73
    14
  0
VERTEX
  5
3C1
  8
0
 62
   253
 10
0.0
 20
0.0
 30
0.0
 70
   128
 71
    64
 72
    65
 73
    63
  0
VERTEX
  5
3C2
  8
0
 62
   253
 10
0.0
 20
0.0
 30
0.0
 70
   128
 71
    65
 72
    64
 73
    20
  0
VERTEX
  5
3C3
  8
0
 62
   253
 10
0.0
 20
0.0
 30
0.0
 70
   128
 71
    67
 72
    66
 73
    65
  0
VERTEX
  5
3C4
  8
0
 62
   253
 10
0.0
 20
0.0
 30
0.0
 70
   128
 71
    65
 72
    20
 73
     6
  0
VERTEX
  5
3C5
  8
0
 62
   253
 10
0.0
 20
0.0
 30
0.0
 70
   128
 71
    65
 72
    68
 73
    67
  0
VERTEX
  5
3C6
  8
0
 62
   253
 10
0.0
 20
0.0
 30
0.0
 70
   128
 71
     6
 72
    68
 73
    65
  0
VERTEX
  5
3C7
  8
0
 62
   253
 10
0.0
 20
0.0
 30
0.0
 70
   128
 71
     5
 72
     6
 73
    23
  0
VERTEX
  5
3C8
  8
0
 62
     9
 10
0.0
 20
0.0
 30
0.0
 70
   128
 71
    70
 72
    50
 73
    69
  0
VERTEX
  5
3C9
  8
0
 62
     9
 10
0.0
 20
0.0
 30
0.0
 70
   128
 71
    72
 72
     1
 73
    71
  0
VERTEX
  5
3CA
  8
0
 62
     9
 10
0.0
 20
0.0
 30
0.0
 70
   128
 71
     1
 72
    72
 73
    70
  0
VERTEX
  5
3CB
  8
0
 62
     9
 10
0.0
 20
0.0
 30
0.0
 70
   128
 71
    72
 72
    71
 73
    73
  0
VERTEX
  5
3CC
  8
0
 62
     9
 10
0.0
 20
0.0
 30
0.0
 70
   128
 71
    50
 72
    70
 73
    72
  0
VERTEX
  5
3CD
  8
0
 62
     9
 10
0.0
 20
0.0
 30
0.0
 70
   128
 71
    69
 72
    74
 73
    70
  0
VERTEX
  5
3CE
  8
0
 62
     9
 10
0.0
 20
0.0
 30
0.0
 70
   128
 71
    69
 72
    50
 73
    53
  0
VERTEX
  5
3CF
  8
0
 62
     9
 10
0.0
 20
0.0
 30
0.0
 70
   128
 71
    73
 72
    50
 73
    72
  0
VERTEX
  5
3D0
  8
0
 62
     9
 10
0.0
 20
0.0
 30
0.0
 70
   128
 71
    50
 72
    75
 73
    47
  0
VERTEX
  5
3D1
  8
0
 62
     9
 10
0.0
 20
0.0
 30
0.0
 70
   128
 71
    77
 72
    76
 73
    75
  0
VERTEX
  5
3D2
  8
0
 62
     9
 10
0.0
 20
0.0
 30
0.0
 70
   128
 71
    50
 72
    77
 73
    75
  0
VERTEX
  5
3D3
  8
0
 62
     9
 10
0.0
 20
0.0
 30
0.0
 70
   128
 71
    50
 72
    73
 73
    77
  0
VERTEX
  5
3D4
  8
0
 62
     9
 10
0.0
 20
0.0
 30
0.0
 70
   128
 71
     7
 72
    77
 73
    73
  0
VERTEX
  5
3D5
  8
0
 62
   253
 10
0.0
 20
0.0
 30
0.0
 70
   128
 71
    76
 72
    47
 73
    75
  0
VERTEX
  5
3D6
  8
0
 62
   253
 10
0.0
 20
0.0
 30
0.0
 70
   128
 71
     5
 72
    24
 73
    49
  0
VERTEX
  5
3D7
  8
0
 62
   253
 10
0.0
 20
0.0
 30
0.0
 70
   128
 71
    47
 72
    76
 73
    49
  0
VERTEX
  5
3D8
  8
0
 62
   253
 10
0.0
 20
0.0
 30
0.0
 70
   128
 71
    24
 72
     5
 73
    23
  0
VERTEX
  5
3D9
  8
0
 62
   253
 10
0.0
 20
0.0
 30
0.0
 70
   128
 71
    76
 72
     5
 73
    49
  0
VERTEX
  5
3DA
  8
0
 62
   253
 10
0.0
 20
0.0
 30
0.0
 70
   128
 71
    76
 72
     7
 73
     5
  0
VERTEX
  5
3DB
  8
0
 62
   253
 10
0.0
 20
0.0
 30
0.0
 70
   128
 71
    77
 72
     7
 73
    76
  0
VERTEX
  5
3DC
  8
0
 62
   253
 10
0.0
 20
0.0
 30
0.0
 70
   128
 71
    79
 72
    78
 73
     3
  0
VERTEX
  5
3DD
  8
0
 62
   253
 10
0.0
 20
0.0
 30
0.0
 70
   128
 71
     2
 72
     3
 73
    78
  0
VERTEX
  5
3DE
  8
0
 62
   253
 10
0.0
 20
0.0
 30
0.0
 70
   128
 71
    81
 72
    53
 73
    80
  0
VERTEX
  5
3DF
  8
0
 62
   253
 10
0.0
 20
0.0
 30
0.0
 70
   128
 71
    80
 72
    52
 73
    54
  0
VERTEX
  5
3E0
  8
0
 62
   253
 10
0.0
 20
0.0
 30
0.0
 70
   128
 71
    82
 72
    80
 73
    54
  0
VERTEX
  5
3E1
  8
0
 62
   253
 10
0.0
 20
0.0
 30
0.0
 70
   128
 71
    82
 72
    83
 73
    81
  0
VERTEX
  5
3E2
  8
0
 62
   253
 10
0.0
 20
0.0
 30
0.0
 70
   128
 71
    52
 72
    80
 73
    53
  0
VERTEX
  5
3E3
  8
0
 62
   253
 10
0.0
 20
0.0
 30
0.0
 70
   128
 71
    80
 72
    82
 73
    81
  0
VERTEX
  5
3E4
  8
0
 62
   253
 10
0.0
 20
0.0
 30
0.0
 70
   128
 71
    54
 72
    55
 73
    60
  0
VERTEX
  5
3E5
  8
0
 62
   253
 10
0.0
 20
0.0
 30
0.0
 70
   128
 71
    60
 72
    58
 73
    83
  0
VERTEX
  5
3E6
  8
0
 62
   253
 10
0.0
 20
0.0
 30
0.0
 70
   128
 71
    60
 72
    82
 73
    54
  0
VERTEX
  5
3E7
  8
0
 62
   253
 10
0.0
 20
0.0
 30
0.0
 70
   128
 71
    83
 72
    82
 73
    60
  0
VERTEX
  5
3E8
  8
0
 62
   253
 10
0.0
 20
0.0
 30
0.0
 70
   128
 71
    86
 72
    85
 73
    84
  0
VERTEX
  5
3E9
  8
0
 62
   253
 10
0.0
 20
0.0
 30
0.0
 70
   128
 71
    86
 72
    87
 73
    85
  0
VERTEX
  5
3EA
  8
0
 62
   253
 10
0.0
 20
0.0
 30
0.0
 70
   128
 71
    89
 72
    88
 73
    84
  0
VERTEX
  5
3EB
  8
0
 62
   253
 10
0.0
 20
0.0
 30
0.0
 70
   128
 71
    86
 72
    88
 73
    90
  0
VERTEX
  5
3EC
  8
0
 62
   253
 10
0.0
 20
0.0
 30
0.0
 70
   128
 71
    92
 72
    90
 73
    91
  0
VERTEX
  5
3ED
  8
0
 62
   253
 10
0.0
 20
0.0
 30
0.0
 70
   128
 71
    94
 72
    91
 73
    93
  0
VERTEX
  5
3EE
  8
0
 62
   253
 10
0.0
 20
0.0
 30
0.0
 70
   128
 71
    90
 72
    93
 73
    91
  0
VERTEX
  5
3EF
  8
0
 62
   253
 10
0.0
 20
0.0
 30
0.0
 70
   128
 71
    93
 72
    90
 73
    88
  0
VERTEX
  5
3F0
  8
0
 62
   253
 10
0.0
 20
0.0
 30
0.0
 70
   128
 71
    86
 72
    84
 73
    88
  0
VERTEX
  5
3F1
  8
0
 62
   253
 10
0.0
 20
0.0
 30
0.0
 70
   128
 71
    90
 72
    87
 73
    86
  0
VERTEX
  5
3F2
  8
0
 62
   253
 10
0.0
 20
0.0
 30
0.0
 70
   128
 71
    92
 72
    87
 73
    90
  0
VERTEX
  5
3F3
  8
0
 62
   253
 10
0.0
 20
0.0
 30
0.0
 70
   128
 71
    74
 72
    53
 73
    81
  0
VERTEX
  5
3F4
  8
0
 62
   253
 10
0.0
 20
0.0
 30
0.0
 70
   128
 71
    74
 72
     1
 73
    70
  0
VERTEX
  5
3F5
  8
0
 62
   253
 10
0.0
 20
0.0
 30
0.0
 70
   128
 71
    53
 72
    74
 73
    69
  0
VERTEX
  5
3F6
  8
0
 62
   253
 10
0.0
 20
0.0
 30
0.0
 70
   128
 71
    83
 72
    79
 73
     3
  0
VERTEX
  5
3F7
  8
0
 62
   253
 10
0.0
 20
0.0
 30
0.0
 70
   128
 71
     3
 72
     1
 73
    74
  0
VERTEX
  5
3F8
  8
0
 62
   253
 10
0.0
 20
0.0
 30
0.0
 70
   128
 71
    83
 72
     3
 73
    81
  0
VERTEX
  5
3F9
  8
0
 62
   253
 10
0.0
 20
0.0
 30
0.0
 70
   128
 71
    74
 72
    81
 73
     3
  0
VERTEX
  5
3FA
  8
0
 62
   253
 10
0.0
 20
0.0
 30
0.0
 70
   128
 71
    96
 72
    95
 73
    92
  0
VERTEX
  5
3FB
  8
0
 62
   253
 10
0.0
 20
0.0
 30
0.0
 70
   128
 71
    96
 72
    92
 73
    79
  0
VERTEX
  5
3FC
  8
0
 62
   253
 10
0.0
 20
0.0
 30
0.0
 70
   128
 71
    78
 72
    79
 73
    92
  0
VERTEX
  5
3FD
  8
0
 62
   253
 10
0.0
 20
0.0
 30
0.0
 70
   128
 71
    83
 72
    58
 73
    96
  0
VERTEX
  5
3FE
  8
0
 62
   253
 10
0.0
 20
0.0
 30
0.0
 70
   128
 71
    96
 72
    79
 73
    83
  0
VERTEX
  5
3FF
  8
0
 62
   253
 10
0.0
 20
0.0
 30
0.0
 70
   128
 71
    85
 72
    98
 73
    97
  0
VERTEX
  5
400
  8
0
 62
   253
 10
0.0
 20
0.0
 30
0.0
 70
   128
 71
    99
 72
    85
 73
    97
  0
VERTEX
  5
401
  8
0
 62
   253
 10
0.0
 20
0.0
 30
0.0
 70
   128
 71
    99
 72
   101
 73
   100
  0
VERTEX
  5
402
  8
0
 62
   253
 10
0.0
 20
0.0
 30
0.0
 70
   128
 71
    99
 72
    97
 73
   101
  0
VERTEX
  5
403
  8
0
 62
   253
 10
0.0
 20
0.0
 30
0.0
 70
   128
 71
    87
 72
    95
 73
    85
  0
VERTEX
  5
404
  8
0
 62
   253
 10
0.0
 20
0.0
 30
0.0
 70
   128
 71
    87
 72
    92
 73
    95
  0
VERTEX
  5
405
  8
0
 62
   253
 10
0.0
 20
0.0
 30
0.0
 70
   128
 71
    85
 72
    95
 73
    98
  0
VERTEX
  5
406
  8
0
 62
   253
 10
0.0
 20
0.0
 30
0.0
 70
   128
 71
   102
 72
    58
 73
    59
  0
VERTEX
  5
407
  8
0
 62
   253
 10
0.0
 20
0.0
 30
0.0
 70
   128
 71
    59
 72
   104
 73
   103
  0
VERTEX
  5
408
  8
0
 62
   253
 10
0.0
 20
0.0
 30
0.0
 70
   128
 71
   105
 72
   104
 73
    59
  0
VERTEX
  5
409
  8
0
 62
   253
 10
0.0
 20
0.0
 30
0.0
 70
   128
 71
   108
 72
   107
 73
   106
  0
VERTEX
  5
40A
  8
0
 62
   253
 10
0.0
 20
0.0
 30
0.0
 70
   128
 71
    59
 72
    25
 73
    34
  0
VERTEX
  5
40B
  8
0
 62
   253
 10
0.0
 20
0.0
 30
0.0
 70
   128
 71
    35
 72
    59
 73
    34
  0
VERTEX
  5
40C
  8
0
 62
   253
 10
0.0
 20
0.0
 30
0.0
 70
   128
 71
   108
 72
   104
 73
   107
  0
VERTEX
  5
40D
  8
0
 62
   253
 10
0.0
 20
0.0
 30
0.0
 70
   128
 71
   110
 72
   106
 73
   109
  0
VERTEX
  5
40E
  8
0
 62
   253
 10
0.0
 20
0.0
 30
0.0
 70
   128
 71
   104
 72
   108
 73
   103
  0
VERTEX
  5
40F
  8
0
 62
   253
 10
0.0
 20
0.0
 30
0.0
 70
   128
 71
    10
 72
   112
 73
   111
  0
VERTEX
  5
410
  8
0
 62
   253
 10
0.0
 20
0.0
 30
0.0
 70
   128
 71
   114
 72
    36
 73
   113
  0
VERTEX
  5
411
  8
0
 62
   253
 10
0.0
 20
0.0
 30
0.0
 70
   128
 71
   106
 72
   110
 73
   108
  0
VERTEX
  5
412
  8
0
 62
   253
 10
0.0
 20
0.0
 30
0.0
 70
   128
 71
   114
 72
   105
 73
    36
  0
VERTEX
  5
413
  8
0
 62
   253
 10
0.0
 20
0.0
 30
0.0
 70
   128
 71
    36
 72
   105
 73
    35
  0
VERTEX
  5
414
  8
0
 62
   253
 10
0.0
 20
0.0
 30
0.0
 70
   128
 71
     8
 72
   115
 73
    31
  0
VERTEX
  5
415
  8
0
 62
   253
 10
0.0
 20
0.0
 30
0.0
 70
   128
 71
   116
 72
   113
 73
    40
  0
VERTEX
  5
416
  8
0
 62
   253
 10
0.0
 20
0.0
 30
0.0
 70
   128
 71
    40
 72
   113
 73
    36
  0
VERTEX
  5
417
  8
0
 62
   253
 10
0.0
 20
0.0
 30
0.0
 70
   128
 71
   117
 72
   116
 73
    41
  0
VERTEX
  5
418
  8
0
 62
   253
 10
0.0
 20
0.0
 30
0.0
 70
   128
 71
    41
 72
   116
 73
    40
  0
VERTEX
  5
419
  8
0
 62
   253
 10
0.0
 20
0.0
 30
0.0
 70
   128
 71
    31
 72
   117
 73
    41
  0
VERTEX
  5
41A
  8
0
 62
   253
 10
0.0
 20
0.0
 30
0.0
 70
   128
 71
   115
 72
   118
 73
    31
  0
VERTEX
  5
41B
  8
0
 62
   253
 10
0.0
 20
0.0
 30
0.0
 70
   128
 71
   118
 72
   117
 73
    31
  0
VERTEX
  5
41C
  8
0
 62
   253
 10
0.0
 20
0.0
 30
0.0
 70
   128
 71
     8
 72
    31
 73
   112
  0
VERTEX
  5
41D
  8
0
 62
   253
 10
0.0
 20
0.0
 30
0.0
 70
   128
 71
     8
 72
   112
 73
    10
  0
VERTEX
  5
41E
  8
0
 62
   253
 10
0.0
 20
0.0
 30
0.0
 70
   128
 71
   120
 72
   111
 73
   119
  0
VERTEX
  5
41F
  8
0
 62
   253
 10
0.0
 20
0.0
 30
0.0
 70
   128
 71
   120
 72
   121
 73
   111
  0
VERTEX
  5
420
  8
0
 62
   253
 10
0.0
 20
0.0
 30
0.0
 70
   128
 71
   121
 72
    10
 73
   111
  0
VERTEX
  5
421
  8
0
 62
   253
 10
0.0
 20
0.0
 30
0.0
 70
   128
 71
   119
 72
   111
 73
   109
  0
VERTEX
  5
422
  8
0
 62
   253
 10
0.0
 20
0.0
 30
0.0
 70
   128
 71
   119
 72
   109
 73
   106
  0
VERTEX
  5
423
  8
0
 62
   253
 10
0.0
 20
0.0
 30
0.0
 70
   128
 71
    35
 72
   105
 73
    59
  0
VERTEX
  5
424
  8
0
 62
   253
 10
0.0
 20
0.0
 30
0.0
 70
   128
 71
   103
 72
   102
 73
    59
  0
VERTEX
  5
425
  8
0
 62
   253
 10
0.0
 20
0.0
 30
0.0
 70
   128
 71
    31
 72
    32
 73
    29
  0
VERTEX
  5
426
  8
0
 62
   253
 10
0.0
 20
0.0
 30
0.0
 70
   128
 71
    29
 72
    26
 73
    31
  0
VERTEX
  5
427
  8
0
 62
   253
 10
0.0
 20
0.0
 30
0.0
 70
   128
 71
    31
 72
    26
 73
   122
  0
VERTEX
  5
428
  8
0
 62
   253
 10
0.0
 20
0.0
 30
0.0
 70
   128
 71
   111
 72
   112
 73
   122
  0
VERTEX
  5
429
  8
0
 62
   253
 10
0.0
 20
0.0
 30
0.0
 70
   128
 71
   122
 72
   112
 73
    31
  0
VERTEX
  5
42A
  8
0
 62
   253
 10
0.0
 20
0.0
 30
0.0
 70
   128
 71
   123
 72
   111
 73
   100
  0
VERTEX
  5
42B
  8
0
 62
   253
 10
0.0
 20
0.0
 30
0.0
 70
   128
 71
    99
 72
   111
 73
   122
  0
VERTEX
  5
42C
  8
0
 62
   253
 10
0.0
 20
0.0
 30
0.0
 70
   128
 71
    99
 72
   100
 73
   111
  0
VERTEX
  5
42D
  8
0
 62
   253
 10
0.0
 20
0.0
 30
0.0
 70
   128
 71
   125
 72
   124
 73
    93
  0
VERTEX
  5
42E
  8
0
 62
   253
 10
0.0
 20
0.0
 30
0.0
 70
   128
 71
    63
 72
    66
 73
   126
  0
VERTEX
  5
42F
  8
0
 62
   253
 10
0.0
 20
0.0
 30
0.0
 70
   128
 71
    62
 72
   124
 73
   125
  0
VERTEX
  5
430
  8
0
 62
   253
 10
0.0
 20
0.0
 30
0.0
 70
   128
 71
    14
 72
   125
 73
   127
  0
VERTEX
  5
431
  8
0
 62
   253
 10
0.0
 20
0.0
 30
0.0
 70
   128
 71
    88
 72
    89
 73
   125
  0
VERTEX
  5
432
  8
0
 62
   253
 10
0.0
 20
0.0
 30
0.0
 70
   128
 71
    93
 72
    88
 73
   125
  0
VERTEX
  5
433
  8
0
 62
   253
 10
0.0
 20
0.0
 30
0.0
 70
   128
 71
    62
 72
    63
 73
   124
  0
VERTEX
  5
434
  8
0
 62
   253
 10
0.0
 20
0.0
 30
0.0
 70
   128
 71
    94
 72
   124
 73
   126
  0
VERTEX
  5
435
  8
0
 62
   253
 10
0.0
 20
0.0
 30
0.0
 70
   128
 71
    93
 72
   124
 73
    94
  0
VERTEX
  5
436
  8
0
 62
   253
 10
0.0
 20
0.0
 30
0.0
 70
   128
 71
   124
 72
    63
 73
   126
  0
VERTEX
  5
437
  8
0
 62
   253
 10
0.0
 20
0.0
 30
0.0
 70
   128
 71
    62
 72
   125
 73
    14
  0
VERTEX
  5
438
  8
0
 62
   253
 10
0.0
 20
0.0
 30
0.0
 70
   128
 71
   127
 72
   125
 73
    89
  0
VERTEX
  5
439
  8
0
 62
   253
 10
0.0
 20
0.0
 30
0.0
 70
   128
 71
   122
 72
    26
 73
   128
  0
VERTEX
  5
43A
  8
0
 62
   253
 10
0.0
 20
0.0
 30
0.0
 70
   128
 71
    84
 72
    85
 73
    99
  0
VERTEX
  5
43B
  8
0
 62
   253
 10
0.0
 20
0.0
 30
0.0
 70
   128
 71
    99
 72
    89
 73
    84
  0
VERTEX
  5
43C
  8
0
 62
   253
 10
0.0
 20
0.0
 30
0.0
 70
   128
 71
   130
 72
   129
 73
    14
  0
VERTEX
  5
43D
  8
0
 62
   253
 10
0.0
 20
0.0
 30
0.0
 70
   128
 71
   132
 72
    89
 73
   131
  0
VERTEX
  5
43E
  8
0
 62
   253
 10
0.0
 20
0.0
 30
0.0
 70
   128
 71
    14
 72
   133
 73
   130
  0
VERTEX
  5
43F
  8
0
 62
   253
 10
0.0
 20
0.0
 30
0.0
 70
   128
 71
   129
 72
    26
 73
    14
  0
VERTEX
  5
440
  8
0
 62
   253
 10
0.0
 20
0.0
 30
0.0
 70
   128
 71
   127
 72
   133
 73
    14
  0
VERTEX
  5
441
  8
0
 62
   253
 10
0.0
 20
0.0
 30
0.0
 70
   128
 71
   132
 72
   127
 73
    89
  0
VERTEX
  5
442
  8
0
 62
   253
 10
0.0
 20
0.0
 30
0.0
 70
   128
 71
   127
 72
   132
 73
   133
  0
VERTEX
  5
443
  8
0
 62
   253
 10
0.0
 20
0.0
 30
0.0
 70
   128
 71
   122
 72
   134
 73
    99
  0
VERTEX
  5
444
  8
0
 62
   253
 10
0.0
 20
0.0
 30
0.0
 70
   128
 71
   136
 72
   135
 73
    89
  0
VERTEX
  5
445
  8
0
 62
   253
 10
0.0
 20
0.0
 30
0.0
 70
   128
 71
   135
 72
   131
 73
    89
  0
VERTEX
  5
446
  8
0
 62
   253
 10
0.0
 20
0.0
 30
0.0
 70
   128
 71
    99
 72
   136
 73
    89
  0
VERTEX
  5
447
  8
0
 62
   253
 10
0.0
 20
0.0
 30
0.0
 70
   128
 71
   134
 72
   137
 73
    99
  0
VERTEX
  5
448
  8
0
 62
   253
 10
0.0
 20
0.0
 30
0.0
 70
   128
 71
   137
 72
   136
 73
    99
  0
VERTEX
  5
449
  8
0
 62
   253
 10
0.0
 20
0.0
 30
0.0
 70
   128
 71
   134
 72
   122
 73
   128
  0
VERTEX
  5
44A
  8
0
 62
   253
 10
0.0
 20
0.0
 30
0.0
 70
   128
 71
   139
 72
    26
 73
   138
  0
VERTEX
  5
44B
  8
0
 62
   253
 10
0.0
 20
0.0
 30
0.0
 70
   128
 71
   139
 72
   128
 73
    26
  0
VERTEX
  5
44C
  8
0
 62
   253
 10
0.0
 20
0.0
 30
0.0
 70
   128
 71
   138
 72
    26
 73
   129
  0
VERTEX
  5
44D
  8
0
 62
   253
 10
0.0
 20
0.0
 30
0.0
 70
   128
 71
   142
 72
   141
 73
   140
  0
VERTEX
  5
44E
  8
0
 62
   253
 10
0.0
 20
0.0
 30
0.0
 70
   128
 71
   141
 72
   143
 73
   140
  0
VERTEX
  5
44F
  8
0
 62
   253
 10
0.0
 20
0.0
 30
0.0
 70
   128
 71
   145
 72
   144
 73
   106
  0
VERTEX
  5
450
  8
0
 62
   253
 10
0.0
 20
0.0
 30
0.0
 70
   128
 71
   106
 72
   144
 73
   119
  0
VERTEX
  5
451
  8
0
 62
   253
 10
0.0
 20
0.0
 30
0.0
 70
   128
 71
   144
 72
   145
 73
   140
  0
VERTEX
  5
452
  8
0
 62
   253
 10
0.0
 20
0.0
 30
0.0
 70
   128
 71
   142
 72
   140
 73
   145
  0
VERTEX
  5
453
  8
0
 62
   253
 10
0.0
 20
0.0
 30
0.0
 70
   128
 71
   147
 72
   145
 73
   146
  0
VERTEX
  5
454
  8
0
 62
   253
 10
0.0
 20
0.0
 30
0.0
 70
   128
 71
   107
 72
   146
 73
   106
  0
VERTEX
  5
455
  8
0
 62
   253
 10
0.0
 20
0.0
 30
0.0
 70
   128
 71
   107
 72
   104
 73
   148
  0
VERTEX
  5
456
  8
0
 62
   253
 10
0.0
 20
0.0
 30
0.0
 70
   128
 71
   145
 72
   147
 73
   142
  0
VERTEX
  5
457
  8
0
 62
   253
 10
0.0
 20
0.0
 30
0.0
 70
   128
 71
   146
 72
   145
 73
   106
  0
VERTEX
  5
458
  8
0
 62
   253
 10
0.0
 20
0.0
 30
0.0
 70
   128
 71
   146
 72
   148
 73
   149
  0
VERTEX
  5
459
  8
0
 62
   253
 10
0.0
 20
0.0
 30
0.0
 70
   128
 71
   147
 72
   146
 73
   149
  0
VERTEX
  5
45A
  8
0
 62
   253
 10
0.0
 20
0.0
 30
0.0
 70
   128
 71
   146
 72
   107
 73
   148
  0
VERTEX
  5
45B
  8
0
 62
   253
 10
0.0
 20
0.0
 30
0.0
 70
   128
 71
   147
 72
   149
 73
   150
  0
VERTEX
  5
45C
  8
0
 62
   253
 10
0.0
 20
0.0
 30
0.0
 70
   128
 71
   151
 72
   141
 73
   142
  0
VERTEX
  5
45D
  8
0
 62
   253
 10
0.0
 20
0.0
 30
0.0
 70
   128
 71
   147
 72
   151
 73
   142
  0
VERTEX
  5
45E
  8
0
 62
   253
 10
0.0
 20
0.0
 30
0.0
 70
   128
 71
   151
 72
   147
 73
   150
  0
VERTEX
  5
45F
  8
0
 62
   253
 10
0.0
 20
0.0
 30
0.0
 70
   128
 71
   135
 72
   152
 73
   131
  0
VERTEX
  5
460
  8
0
 62
   253
 10
0.0
 20
0.0
 30
0.0
 70
   128
 71
   152
 72
   153
 73
   131
  0
VERTEX
  5
461
  8
0
 62
   253
 10
0.0
 20
0.0
 30
0.0
 70
   128
 71
   153
 72
   151
 73
   154
  0
VERTEX
  5
462
  8
0
 62
   253
 10
0.0
 20
0.0
 30
0.0
 70
   128
 71
   154
 72
   151
 73
   150
  0
VERTEX
  5
463
  8
0
 62
   253
 10
0.0
 20
0.0
 30
0.0
 70
   128
 71
   153
 72
   154
 73
   132
  0
VERTEX
  5
464
  8
0
 62
   253
 10
0.0
 20
0.0
 30
0.0
 70
   128
 71
   153
 72
   152
 73
   141
  0
VERTEX
  5
465
  8
0
 62
   253
 10
0.0
 20
0.0
 30
0.0
 70
   128
 71
   141
 72
   151
 73
   153
  0
VERTEX
  5
466
  8
0
 62
   253
 10
0.0
 20
0.0
 30
0.0
 70
   128
 71
   131
 72
   153
 73
   132
  0
VERTEX
  5
467
  8
0
 62
   253
 10
0.0
 20
0.0
 30
0.0
 70
   128
 71
   154
 72
   155
 73
   132
  0
VERTEX
  5
468
  8
0
 62
   253
 10
0.0
 20
0.0
 30
0.0
 70
   128
 71
   132
 72
   155
 73
   133
  0
VERTEX
  5
469
  8
0
 62
   253
 10
0.0
 20
0.0
 30
0.0
 70
   128
 71
   155
 72
   154
 73
   156
  0
VERTEX
  5
46A
  8
0
 62
   253
 10
0.0
 20
0.0
 30
0.0
 70
   128
 71
   150
 72
   156
 73
   154
  0
VERTEX
  5
46B
  8
0
 62
   253
 10
0.0
 20
0.0
 30
0.0
 70
   128
 71
   157
 72
   156
 73
   150
  0
VERTEX
  5
46C
  8
0
 62
   253
 10
0.0
 20
0.0
 30
0.0
 70
   128
 71
   149
 72
   157
 73
   150
  0
VERTEX
  5
46D
  8
0
 62
   253
 10
0.0
 20
0.0
 30
0.0
 70
   128
 71
   148
 72
   104
 73
   105
  0
VERTEX
  5
46E
  8
0
 62
   253
 10
0.0
 20
0.0
 30
0.0
 70
   128
 71
   158
 72
   148
 73
   105
  0
VERTEX
  5
46F
  8
0
 62
   253
 10
0.0
 20
0.0
 30
0.0
 70
   128
 71
   158
 72
   149
 73
   148
  0
VERTEX
  5
470
  8
0
 62
   253
 10
0.0
 20
0.0
 30
0.0
 70
   128
 71
   157
 72
   149
 73
   158
  0
VERTEX
  5
471
  8
0
 62
   253
 10
0.0
 20
0.0
 30
0.0
 70
   128
 71
   116
 72
   159
 73
   113
  0
VERTEX
  5
472
  8
0
 62
   253
 10
0.0
 20
0.0
 30
0.0
 70
   128
 71
   160
 72
   158
 73
   105
  0
VERTEX
  5
473
  8
0
 62
   253
 10
0.0
 20
0.0
 30
0.0
 70
   128
 71
   114
 72
   161
 73
   160
  0
VERTEX
  5
474
  8
0
 62
   253
 10
0.0
 20
0.0
 30
0.0
 70
   128
 71
   160
 72
   161
 73
   162
  0
VERTEX
  5
475
  8
0
 62
   253
 10
0.0
 20
0.0
 30
0.0
 70
   128
 71
   162
 72
   163
 73
   160
  0
VERTEX
  5
476
  8
0
 62
   253
 10
0.0
 20
0.0
 30
0.0
 70
   128
 71
   163
 72
   157
 73
   158
  0
VERTEX
  5
477
  8
0
 62
   253
 10
0.0
 20
0.0
 30
0.0
 70
   128
 71
   161
 72
   114
 73
   113
  0
VERTEX
  5
478
  8
0
 62
   253
 10
0.0
 20
0.0
 30
0.0
 70
   128
 71
   164
 72
   161
 73
   159
  0
VERTEX
  5
479
  8
0
 62
   253
 10
0.0
 20
0.0
 30
0.0
 70
   128
 71
   162
 72
   161
 73
   164
  0
VERTEX
  5
47A
  8
0
 62
   253
 10
0.0
 20
0.0
 30
0.0
 70
   128
 71
   161
 72
   113
 73
   159
  0
VERTEX
  5
47B
  8
0
 62
   253
 10
0.0
 20
0.0
 30
0.0
 70
   128
 71
   114
 72
   160
 73
   105
  0
VERTEX
  5
47C
  8
0
 62
   253
 10
0.0
 20
0.0
 30
0.0
 70
   128
 71
   160
 72
   163
 73
   158
  0
VERTEX
  5
47D
  8
0
 62
   253
 10
0.0
 20
0.0
 30
0.0
 70
   128
 71
   162
 72
   164
 73
   165
  0
VERTEX
  5
47E
  8
0
 62
   253
 10
0.0
 20
0.0
 30
0.0
 70
   128
 71
   163
 72
   166
 73
   156
  0
VERTEX
  5
47F
  8
0
 62
   253
 10
0.0
 20
0.0
 30
0.0
 70
   128
 71
   162
 72
   166
 73
   163
  0
VERTEX
  5
480
  8
0
 62
   253
 10
0.0
 20
0.0
 30
0.0
 70
   128
 71
   166
 72
   162
 73
   165
  0
VERTEX
  5
481
  8
0
 62
   253
 10
0.0
 20
0.0
 30
0.0
 70
   128
 71
   157
 72
   163
 73
   156
  0
VERTEX
  5
482
  8
0
 62
   253
 10
0.0
 20
0.0
 30
0.0
 70
   128
 71
   133
 72
   155
 73
   130
  0
VERTEX
  5
483
  8
0
 62
   253
 10
0.0
 20
0.0
 30
0.0
 70
   128
 71
   130
 72
   167
 73
   129
  0
VERTEX
  5
484
  8
0
 62
   253
 10
0.0
 20
0.0
 30
0.0
 70
   128
 71
   168
 72
   167
 73
   166
  0
VERTEX
  5
485
  8
0
 62
   253
 10
0.0
 20
0.0
 30
0.0
 70
   128
 71
   166
 72
   165
 73
   168
  0
VERTEX
  5
486
  8
0
 62
   253
 10
0.0
 20
0.0
 30
0.0
 70
   128
 71
   167
 72
   168
 73
   129
  0
VERTEX
  5
487
  8
0
 62
   253
 10
0.0
 20
0.0
 30
0.0
 70
   128
 71
   155
 72
   156
 73
   167
  0
VERTEX
  5
488
  8
0
 62
   253
 10
0.0
 20
0.0
 30
0.0
 70
   128
 71
   166
 72
   167
 73
   156
  0
VERTEX
  5
489
  8
0
 62
   253
 10
0.0
 20
0.0
 30
0.0
 70
   128
 71
   167
 72
   130
 73
   155
  0
VERTEX
  5
48A
  8
0
 62
   253
 10
0.0
 20
0.0
 30
0.0
 70
   128
 71
   100
 72
   101
 73
   169
  0
VERTEX
  5
48B
  8
0
 62
   253
 10
0.0
 20
0.0
 30
0.0
 70
   128
 71
    98
 72
   171
 73
   170
  0
VERTEX
  5
48C
  8
0
 62
   253
 10
0.0
 20
0.0
 30
0.0
 70
   128
 71
   172
 72
    95
 73
    96
  0
VERTEX
  5
48D
  8
0
 62
   253
 10
0.0
 20
0.0
 30
0.0
 70
   128
 71
   171
 72
    98
 73
    95
  0
VERTEX
  5
48E
  8
0
 62
   253
 10
0.0
 20
0.0
 30
0.0
 70
   128
 71
   171
 72
    95
 73
   172
  0
VERTEX
  5
48F
  8
0
 62
   253
 10
0.0
 20
0.0
 30
0.0
 70
   128
 71
   172
 72
    96
 73
    58
  0
VERTEX
  5
490
  8
0
 62
   253
 10
0.0
 20
0.0
 30
0.0
 70
   128
 71
   173
 72
    97
 73
   170
  0
VERTEX
  5
491
  8
0
 62
   253
 10
0.0
 20
0.0
 30
0.0
 70
   128
 71
   101
 72
   173
 73
   169
  0
VERTEX
  5
492
  8
0
 62
   253
 10
0.0
 20
0.0
 30
0.0
 70
   128
 71
    98
 72
   170
 73
    97
  0
VERTEX
  5
493
  8
0
 62
   253
 10
0.0
 20
0.0
 30
0.0
 70
   128
 71
   169
 72
   123
 73
   100
  0
VERTEX
  5
494
  8
0
 62
   253
 10
0.0
 20
0.0
 30
0.0
 70
   128
 71
   173
 72
   101
 73
    97
  0
VERTEX
  5
495
  8
0
 62
   253
 10
0.0
 20
0.0
 30
0.0
 70
   128
 71
   109
 72
   111
 73
   169
  0
VERTEX
  5
496
  8
0
 62
   253
 10
0.0
 20
0.0
 30
0.0
 70
   128
 71
   123
 72
   169
 73
   111
  0
VERTEX
  5
497
  8
0
 62
   253
 10
0.0
 20
0.0
 30
0.0
 70
   128
 71
   110
 72
   109
 73
   173
  0
VERTEX
  5
498
  8
0
 62
   253
 10
0.0
 20
0.0
 30
0.0
 70
   128
 71
   169
 72
   173
 73
   109
  0
VERTEX
  5
499
  8
0
 62
   253
 10
0.0
 20
0.0
 30
0.0
 70
   128
 71
   108
 72
   110
 73
   170
  0
VERTEX
  5
49A
  8
0
 62
   253
 10
0.0
 20
0.0
 30
0.0
 70
   128
 71
   173
 72
   170
 73
   110
  0
VERTEX
  5
49B
  8
0
 62
   253
 10
0.0
 20
0.0
 30
0.0
 70
   128
 71
   103
 72
   108
 73
   171
  0
VERTEX
  5
49C
  8
0
 62
   253
 10
0.0
 20
0.0
 30
0.0
 70
   128
 71
   170
 72
   171
 73
   108
  0
VERTEX
  5
49D
  8
0
 62
   253
 10
0.0
 20
0.0
 30
0.0
 70
   128
 71
   103
 72
   171
 73
   102
  0
VERTEX
  5
49E
  8
0
 62
   253
 10
0.0
 20
0.0
 30
0.0
 70
   128
 71
   172
 72
   102
 73
   171
  0
VERTEX
  5
49F
  8
0
 62
   253
 10
0.0
 20
0.0
 30
0.0
 70
   128
 71
   102
 72
   172
 73
    58
  0
VERTEX
  5
4A0
  8
0
 62
     9
 10
0.0
 20
0.0
 30
0.0
 70
   128
 71
   174
 72
     1
 73
     4
  0
VERTEX
  5
4A1
  8
0
 62
     9
 10
0.0
 20
0.0
 30
0.0
 70
   128
 71
    73
 72
    71
 73
   175
  0
VERTEX
  5
4A2
  8
0
 62
     9
 10
0.0
 20
0.0
 30
0.0
 70
   128
 71
   175
 72
   176
 73
    73
  0
VERTEX
  5
4A3
  8
0
 62
     9
 10
0.0
 20
0.0
 30
0.0
 70
   128
 71
     7
 72
    73
 73
   176
  0
VERTEX
  5
4A4
  8
0
 62
     9
 10
0.0
 20
0.0
 30
0.0
 70
   128
 71
   176
 72
     6
 73
     7
  0
VERTEX
  5
4A5
  8
0
 62
     9
 10
0.0
 20
0.0
 30
0.0
 70
   128
 71
   176
 72
   177
 73
     6
  0
VERTEX
  5
4A6
  8
0
 62
     9
 10
0.0
 20
0.0
 30
0.0
 70
   128
 71
   176
 72
   178
 73
   177
  0
VERTEX
  5
4A7
  8
0
 62
     9
 10
0.0
 20
0.0
 30
0.0
 70
   128
 71
   174
 72
   175
 73
    71
  0
VERTEX
  5
4A8
  8
0
 62
     9
 10
0.0
 20
0.0
 30
0.0
 70
   128
 71
   176
 72
   175
 73
   178
  0
VERTEX
  5
4A9
  8
0
 62
     9
 10
0.0
 20
0.0
 30
0.0
 70
   128
 71
   179
 72
   175
 73
   174
  0
VERTEX
  5
4AA
  8
0
 62
     9
 10
0.0
 20
0.0
 30
0.0
 70
   128
 71
   180
 72
   179
 73
   174
  0
VERTEX
  5
4AB
  8
0
 62
     9
 10
0.0
 20
0.0
 30
0.0
 70
   128
 71
     4
 72
   180
 73
   174
  0
VERTEX
  5
4AC
  8
0
 62
     9
 10
0.0
 20
0.0
 30
0.0
 70
   128
 71
    71
 72
     1
 73
   174
  0
VERTEX
  5
4AD
  8
0
 62
   253
 10
0.0
 20
0.0
 30
0.0
 70
   128
 71
   183
 72
   182
 73
   181
  0
VERTEX
  5
4AE
  8
0
 62
   253
 10
0.0
 20
0.0
 30
0.0
 70
   128
 71
    68
 72
   177
 73
   184
  0
VERTEX
  5
4AF
  8
0
 62
   253
 10
0.0
 20
0.0
 30
0.0
 70
   128
 71
   177
 72
   178
 73
   175
  0
VERTEX
  5
4B0
  8
0
 62
   253
 10
0.0
 20
0.0
 30
0.0
 70
   128
 71
   184
 72
   181
 73
    67
  0
VERTEX
  5
4B1
  8
0
 62
   253
 10
0.0
 20
0.0
 30
0.0
 70
   128
 71
   181
 72
   184
 73
   183
  0
VERTEX
  5
4B2
  8
0
 62
   253
 10
0.0
 20
0.0
 30
0.0
 70
   128
 71
   177
 72
    68
 73
     6
  0
VERTEX
  5
4B3
  8
0
 62
   253
 10
0.0
 20
0.0
 30
0.0
 70
   128
 71
   180
 72
   183
 73
   184
  0
VERTEX
  5
4B4
  8
0
 62
   253
 10
0.0
 20
0.0
 30
0.0
 70
   128
 71
   180
 72
   184
 73
   175
  0
VERTEX
  5
4B5
  8
0
 62
   253
 10
0.0
 20
0.0
 30
0.0
 70
   128
 71
   180
 72
     4
 73
   183
  0
VERTEX
  5
4B6
  8
0
 62
   253
 10
0.0
 20
0.0
 30
0.0
 70
   128
 71
   179
 72
   180
 73
   175
  0
VERTEX
  5
4B7
  8
0
 62
   253
 10
0.0
 20
0.0
 30
0.0
 70
   128
 71
   175
 72
   184
 73
   177
  0
VERTEX
  5
4B8
  8
0
 62
   253
 10
0.0
 20
0.0
 30
0.0
 70
   128
 71
    68
 72
   184
 73
    67
  0
VERTEX
  5
4B9
  8
0
 62
   253
 10
0.0
 20
0.0
 30
0.0
 70
   128
 71
   181
 72
   126
 73
    66
  0
VERTEX
  5
4BA
  8
0
 62
   253
 10
0.0
 20
0.0
 30
0.0
 70
   128
 71
    94
 72
   181
 73
   182
  0
VERTEX
  5
4BB
  8
0
 62
   253
 10
0.0
 20
0.0
 30
0.0
 70
   128
 71
   181
 72
    94
 73
   126
  0
VERTEX
  5
4BC
  8
0
 62
   253
 10
0.0
 20
0.0
 30
0.0
 70
   128
 71
    66
 72
    67
 73
   181
  0
VERTEX
  5
4BD
  8
0
 62
   253
 10
0.0
 20
0.0
 30
0.0
 70
   128
 71
   186
 72
   185
 73
   182
  0
VERTEX
  5
4BE
  8
0
 62
   253
 10
0.0
 20
0.0
 30
0.0
 70
   128
 71
   183
 72
     4
 73
     2
  0
VERTEX
  5
4BF
  8
0
 62
   253
 10
0.0
 20
0.0
 30
0.0
 70
   128
 71
    78
 72
   185
 73
   186
  0
VERTEX
  5
4C0
  8
0
 62
   253
 10
0.0
 20
0.0
 30
0.0
 70
   128
 71
   186
 72
     2
 73
    78
  0
VERTEX
  5
4C1
  8
0
 62
   253
 10
0.0
 20
0.0
 30
0.0
 70
   128
 71
   186
 72
   183
 73
     2
  0
VERTEX
  5
4C2
  8
0
 62
   253
 10
0.0
 20
0.0
 30
0.0
 70
   128
 71
   183
 72
   186
 73
   182
  0
VERTEX
  5
4C3
  8
0
 62
   253
 10
0.0
 20
0.0
 30
0.0
 70
   128
 71
   185
 72
    78
 73
    92
  0
VERTEX
  5
4C4
  8
0
 62
   253
 10
0.0
 20
0.0
 30
0.0
 70
   128
 71
    91
 72
    94
 73
   182
  0
VERTEX
  5
4C5
  8
0
 62
   253
 10
0.0
 20
0.0
 30
0.0
 70
   128
 71
   185
 72
    91
 73
   182
  0
VERTEX
  5
4C6
  8
0
 62
   253
 10
0.0
 20
0.0
 30
0.0
 70
   128
 71
    91
 72
   185
 73
    92
  0
VERTEX
  5
4C7
  8
0
 62
   253
 10
0.0
 20
0.0
 30
0.0
 70
   128
 71
   187
 72
   140
 73
   143
  0
VERTEX
  5
4C8
  8
0
 62
   253
 10
0.0
 20
0.0
 30
0.0
 70
   128
 71
   190
 72
   189
 73
   188
  0
VERTEX
  5
4C9
  8
0
 62
   253
 10
0.0
 20
0.0
 30
0.0
 70
   128
 71
   189
 72
   187
 73
   143
  0
VERTEX
  5
4CA
  8
0
 62
   253
 10
0.0
 20
0.0
 30
0.0
 70
   128
 71
    12
 72
   190
 73
   188
  0
VERTEX
  5
4CB
  8
0
 62
   253
 10
0.0
 20
0.0
 30
0.0
 70
   128
 71
   190
 72
   187
 73
   189
  0
VERTEX
  5
4CC
  8
0
 62
   253
 10
0.0
 20
0.0
 30
0.0
 70
   128
 71
   191
 72
   152
 73
   136
  0
VERTEX
  5
4CD
  8
0
 62
   253
 10
0.0
 20
0.0
 30
0.0
 70
   128
 71
   136
 72
   152
 73
   135
  0
VERTEX
  5
4CE
  8
0
 62
   253
 10
0.0
 20
0.0
 30
0.0
 70
   128
 71
   152
 72
   191
 73
   141
  0
VERTEX
  5
4CF
  8
0
 62
   253
 10
0.0
 20
0.0
 30
0.0
 70
   128
 71
   143
 72
   141
 73
   191
  0
VERTEX
  5
4D0
  8
0
 62
   253
 10
0.0
 20
0.0
 30
0.0
 70
   128
 71
   134
 72
   192
 73
   137
  0
VERTEX
  5
4D1
  8
0
 62
   253
 10
0.0
 20
0.0
 30
0.0
 70
   128
 71
   137
 72
   193
 73
   136
  0
VERTEX
  5
4D2
  8
0
 62
   253
 10
0.0
 20
0.0
 30
0.0
 70
   128
 71
   191
 72
   193
 73
   189
  0
VERTEX
  5
4D3
  8
0
 62
   253
 10
0.0
 20
0.0
 30
0.0
 70
   128
 71
   189
 72
   143
 73
   191
  0
VERTEX
  5
4D4
  8
0
 62
   253
 10
0.0
 20
0.0
 30
0.0
 70
   128
 71
   193
 72
   191
 73
   136
  0
VERTEX
  5
4D5
  8
0
 62
   253
 10
0.0
 20
0.0
 30
0.0
 70
   128
 71
   192
 72
   188
 73
   193
  0
VERTEX
  5
4D6
  8
0
 62
   253
 10
0.0
 20
0.0
 30
0.0
 70
   128
 71
   189
 72
   193
 73
   188
  0
VERTEX
  5
4D7
  8
0
 62
   253
 10
0.0
 20
0.0
 30
0.0
 70
   128
 71
   193
 72
   137
 73
   192
  0
VERTEX
  5
4D8
  8
0
 62
   253
 10
0.0
 20
0.0
 30
0.0
 70
   128
 71
   168
 72
   194
 73
   129
  0
VERTEX
  5
4D9
  8
0
 62
   253
 10
0.0
 20
0.0
 30
0.0
 70
   128
 71
   129
 72
   194
 73
   138
  0
VERTEX
  5
4DA
  8
0
 62
   253
 10
0.0
 20
0.0
 30
0.0
 70
   128
 71
   194
 72
   168
 73
   195
  0
VERTEX
  5
4DB
  8
0
 62
   253
 10
0.0
 20
0.0
 30
0.0
 70
   128
 71
   165
 72
   195
 73
   168
  0
VERTEX
  5
4DC
  8
0
 62
   253
 10
0.0
 20
0.0
 30
0.0
 70
   128
 71
   138
 72
   194
 73
   139
  0
VERTEX
  5
4DD
  8
0
 62
   253
 10
0.0
 20
0.0
 30
0.0
 70
   128
 71
   194
 72
   196
 73
   139
  0
VERTEX
  5
4DE
  8
0
 62
   253
 10
0.0
 20
0.0
 30
0.0
 70
   128
 71
   196
 72
   198
 73
   197
  0
VERTEX
  5
4DF
  8
0
 62
   253
 10
0.0
 20
0.0
 30
0.0
 70
   128
 71
   197
 72
   198
 73
   199
  0
VERTEX
  5
4E0
  8
0
 62
   253
 10
0.0
 20
0.0
 30
0.0
 70
   128
 71
   196
 72
   197
 73
   128
  0
VERTEX
  5
4E1
  8
0
 62
   253
 10
0.0
 20
0.0
 30
0.0
 70
   128
 71
   196
 72
   194
 73
   195
  0
VERTEX
  5
4E2
  8
0
 62
   253
 10
0.0
 20
0.0
 30
0.0
 70
   128
 71
   195
 72
   198
 73
   196
  0
VERTEX
  5
4E3
  8
0
 62
   253
 10
0.0
 20
0.0
 30
0.0
 70
   128
 71
   139
 72
   196
 73
   128
  0
VERTEX
  5
4E4
  8
0
 62
   253
 10
0.0
 20
0.0
 30
0.0
 70
   128
 71
   134
 72
   197
 73
   192
  0
VERTEX
  5
4E5
  8
0
 62
   253
 10
0.0
 20
0.0
 30
0.0
 70
   128
 71
   192
 72
   199
 73
   188
  0
VERTEX
  5
4E6
  8
0
 62
   253
 10
0.0
 20
0.0
 30
0.0
 70
   128
 71
   128
 72
   197
 73
   134
  0
VERTEX
  5
4E7
  8
0
 62
   253
 10
0.0
 20
0.0
 30
0.0
 70
   128
 71
   199
 72
   192
 73
   197
  0
VERTEX
  5
4E8
  8
0
 62
   253
 10
0.0
 20
0.0
 30
0.0
 70
   128
 71
   188
 72
    11
 73
    12
  0
VERTEX
  5
4E9
  8
0
 62
   253
 10
0.0
 20
0.0
 30
0.0
 70
   128
 71
    11
 72
   188
 73
   199
  0
VERTEX
  5
4EA
  8
0
 62
   253
 10
0.0
 20
0.0
 30
0.0
 70
   128
 71
   200
 72
    11
 73
   199
  0
VERTEX
  5
4EB
  8
0
 62
   253
 10
0.0
 20
0.0
 30
0.0
 70
   128
 71
   201
 72
   198
 73
   195
  0
VERTEX
  5
4EC
  8
0
 62
   253
 10
0.0
 20
0.0
 30
0.0
 70
   128
 71
   200
 72
   198
 73
   201
  0
VERTEX
  5
4ED
  8
0
 62
   253
 10
0.0
 20
0.0
 30
0.0
 70
   128
 71
   198
 72
   200
 73
   199
  0
VERTEX
  5
4EE
  8
0
 62
   253
 10
0.0
 20
0.0
 30
0.0
 70
   128
 71
   202
 72
   201
 73
   195
  0
VERTEX
  5
4EF
  8
0
 62
   253
 10
0.0
 20
0.0
 30
0.0
 70
   128
 71
   204
 72
   118
 73
   203
  0
VERTEX
  5
4F0
  8
0
 62
   253
 10
0.0
 20
0.0
 30
0.0
 70
   128
 71
   204
 72
   205
 73
   117
  0
VERTEX
  5
4F1
  8
0
 62
   253
 10
0.0
 20
0.0
 30
0.0
 70
   128
 71
   204
 72
   203
 73
   200
  0
VERTEX
  5
4F2
  8
0
 62
   253
 10
0.0
 20
0.0
 30
0.0
 70
   128
 71
   115
 72
     8
 73
    13
  0
VERTEX
  5
4F3
  8
0
 62
   253
 10
0.0
 20
0.0
 30
0.0
 70
   128
 71
   200
 72
   201
 73
   204
  0
VERTEX
  5
4F4
  8
0
 62
   253
 10
0.0
 20
0.0
 30
0.0
 70
   128
 71
   205
 72
   201
 73
   202
  0
VERTEX
  5
4F5
  8
0
 62
   253
 10
0.0
 20
0.0
 30
0.0
 70
   128
 71
   118
 72
   115
 73
   203
  0
VERTEX
  5
4F6
  8
0
 62
   253
 10
0.0
 20
0.0
 30
0.0
 70
   128
 71
    13
 72
    11
 73
   203
  0
VERTEX
  5
4F7
  8
0
 62
   253
 10
0.0
 20
0.0
 30
0.0
 70
   128
 71
   200
 72
   203
 73
    11
  0
VERTEX
  5
4F8
  8
0
 62
   253
 10
0.0
 20
0.0
 30
0.0
 70
   128
 71
   203
 72
   115
 73
    13
  0
VERTEX
  5
4F9
  8
0
 62
   253
 10
0.0
 20
0.0
 30
0.0
 70
   128
 71
   118
 72
   204
 73
   117
  0
VERTEX
  5
4FA
  8
0
 62
   253
 10
0.0
 20
0.0
 30
0.0
 70
   128
 71
   204
 72
   201
 73
   205
  0
VERTEX
  5
4FB
  8
0
 62
   253
 10
0.0
 20
0.0
 30
0.0
 70
   128
 71
   116
 72
   117
 73
   205
  0
VERTEX
  5
4FC
  8
0
 62
   253
 10
0.0
 20
0.0
 30
0.0
 70
   128
 71
   159
 72
   116
 73
   205
  0
VERTEX
  5
4FD
  8
0
 62
   253
 10
0.0
 20
0.0
 30
0.0
 70
   128
 71
   205
 72
   164
 73
   159
  0
VERTEX
  5
4FE
  8
0
 62
   253
 10
0.0
 20
0.0
 30
0.0
 70
   128
 71
   202
 72
   164
 73
   205
  0
VERTEX
  5
4FF
  8
0
 62
   253
 10
0.0
 20
0.0
 30
0.0
 70
   128
 71
   202
 72
   195
 73
   164
  0
VERTEX
  5
500
  8
0
 62
   253
 10
0.0
 20
0.0
 30
0.0
 70
   128
 71
   195
 72
   165
 73
   164
  0
VERTEX
  5
501
  8
0
 62
   253
 10
0.0
 20
0.0
 30
0.0
 70
   128
 71
   207
 72
   121
 73
   206
  0
VERTEX
  5
502
  8
0
 62
   253
 10
0.0
 20
0.0
 30
0.0
 70
   128
 71
   207
 72
     9
 73
    10
  0
VERTEX
  5
503
  8
0
 62
   253
 10
0.0
 20
0.0
 30
0.0
 70
   128
 71
   207
 72
   206
 73
   187
  0
VERTEX
  5
504
  8
0
 62
   253
 10
0.0
 20
0.0
 30
0.0
 70
   128
 71
   120
 72
   119
 73
   144
  0
VERTEX
  5
505
  8
0
 62
   253
 10
0.0
 20
0.0
 30
0.0
 70
   128
 71
   187
 72
   190
 73
   207
  0
VERTEX
  5
506
  8
0
 62
   253
 10
0.0
 20
0.0
 30
0.0
 70
   128
 71
     9
 72
   190
 73
    12
  0
VERTEX
  5
507
  8
0
 62
   253
 10
0.0
 20
0.0
 30
0.0
 70
   128
 71
   121
 72
   120
 73
   206
  0
VERTEX
  5
508
  8
0
 62
   253
 10
0.0
 20
0.0
 30
0.0
 70
   128
 71
   144
 72
   140
 73
   206
  0
VERTEX
  5
509
  8
0
 62
   253
 10
0.0
 20
0.0
 30
0.0
 70
   128
 71
   187
 72
   206
 73
   140
  0
VERTEX
  5
50A
  8
0
 62
   253
 10
0.0
 20
0.0
 30
0.0
 70
   128
 71
   206
 72
   120
 73
   144
  0
VERTEX
  5
50B
  8
0
 62
   253
 10
0.0
 20
0.0
 30
0.0
 70
   128
 71
   121
 72
   207
 73
    10
  0
VERTEX
  5
50C
  8
0
 62
   253
 10
0.0
 20
0.0
 30
0.0
 70
   128
 71
   207
 72
   190
 73
     9
  0
SEQEND
  5
50D
  8
0
  0
ENDBLK
  5
510
  8
0
  0
BLOCK
  8
0
  2
43
 70
     0
 10
0.0
 20
0.0
 30
0.0
  3
43
  1

  0
POLYLINE
  5
512
  8
0
 62
     9
 66
     1
 10
0.0
 20
0.0
 30
0.0
 70
    64
 71
   105
 72
   198
  0
VERTEX
  5
513
  8
0
 10
-44.83946228027344
 20
1.736973524093628
 30
59.66426086425781
 70
   192
  0
VERTEX
  5
514
  8
0
 10
-33.46909332275391
 20
1.009989738464355
 30
60.41034698486328
 70
   192
  0
VERTEX
  5
515
  8
0
 10
-44.83946228027344
 20
0.968660295009613
 30
60.42121505737305
 70
   192
  0
VERTEX
  5
516
  8
0
 10
-33.46909332275391
 20
2.0
 30
58.67621231079102
 70
   192
  0
VERTEX
  5
517
  8
0
 10
-44.83946228027344
 20
1.745004415512085
 30
57.70755004882812
 70
   192
  0
VERTEX
  5
518
  8
0
 10
-33.46909332275391
 20
1.718164563179016
 30
57.67056655883789
 70
   192
  0
VERTEX
  5
519
  8
0
 10
-33.46909332275391
 20
-0.0000000000000597
 30
60.67621231079102
 70
   192
  0
VERTEX
  5
51A
  8
0
 10
-44.83946228027344
 20
-0.0000000000000597
 30
60.67621231079102
 70
   192
  0
VERTEX
  5
51B
  8
0
 10
-33.46909332275391
 20
1.732784867286682
 30
59.67082214355469
 70
   192
  0
VERTEX
  5
51C
  8
0
 10
-44.83946228027344
 20
2.0
 30
58.67621231079102
 70
   192
  0
VERTEX
  5
51D
  8
0
 10
-33.46909332275391
 20
0.9862242937088013
 30
56.94702529907227
 70
   192
  0
VERTEX
  5
51E
  8
0
 10
-44.83946228027344
 20
0.9880486726760864
 30
56.93923568725586
 70
   192
  0
VERTEX
  5
51F
  8
0
 10
-33.46909332275391
 20
-0.0000000000000599
 30
56.67621231079102
 70
   192
  0
VERTEX
  5
520
  8
0
 10
-44.83946228027344
 20
-0.0000000000000599
 30
56.67621231079102
 70
   192
  0
VERTEX
  5
521
  8
0
 10
-30.45954895019531
 20
1.855999946594238
 30
57.86277008056641
 70
   192
  0
VERTEX
  5
522
  8
0
 10
-31.67830085754395
 20
1.811692357063293
 30
56.977294921875
 70
   192
  0
VERTEX
  5
523
  8
0
 10
-30.61592102050781
 20
2.0
 30
56.6032600402832
 70
   192
  0
VERTEX
  5
524
  8
0
 10
-32.26047515869141
 20
0.9862242937088013
 30
56.06891250610352
 70
   192
  0
VERTEX
  5
525
  8
0
 10
-32.46292495727539
 20
0.9304615259170532
 30
56.40723419189453
 70
   192
  0
VERTEX
  5
526
  8
0
 10
-32.69966888427734
 20
-0.0000000000000597
 30
56.23522567749023
 70
   192
  0
VERTEX
  5
527
  8
0
 10
-29.66999053955078
 20
1.732784867286682
 30
56.91061401367188
 70
   192
  0
VERTEX
  5
528
  8
0
 10
-28.96666145324707
 20
1.009989738464355
 30
57.13913726806641
 70
   192
  0
VERTEX
  5
529
  8
0
 10
-29.61717414855957
 20
0.9698461294174194
 30
58.47479248046875
 70
   192
  0
VERTEX
  5
52A
  8
0
 10
-28.71380805969238
 20
-0.0000000000000599
 30
57.22129440307617
 70
   192
  0
VERTEX
  5
52B
  8
0
 10
-29.42400741577148
 20
-0.0000000000000599
 30
58.61513519287109
 70
   192
  0
VERTEX
  5
52C
  8
0
 10
-30.64907455444336
 20
0.8577597141265869
 30
59.55763244628906
 70
   192
  0
VERTEX
  5
52D
  8
0
 10
-30.53016471862793
 20
-0.0000000000000599
 30
59.72129440307617
 70
   192
  0
VERTEX
  5
52E
  8
0
 10
-31.57234573364258
 20
1.718164563179016
 30
56.29249954223633
 70
   192
  0
VERTEX
  5
52F
  8
0
 10
-31.96271133422852
 20
1.949759006500244
 30
57.74956512451172
 70
   192
  0
VERTEX
  5
530
  8
0
 10
-32.43613815307617
 20
1.567879319190979
 30
57.09794616699219
 70
   192
  0
VERTEX
  5
531
  8
0
 10
-32.88130569458008
 20
-0.0000000000000597
 30
56.48522567749023
 70
   192
  0
VERTEX
  5
532
  8
0
 10
-32.76776123046875
 20
0.8750741481781006
 30
56.64151000976562
 70
   192
  0
VERTEX
  5
533
  8
0
 10
-32.51803588867188
 20
-0.0000000000000597
 30
55.98522567749023
 70
   192
  0
VERTEX
  5
534
  8
0
 10
-31.43899154663086
 20
1.943439602851868
 30
58.47040176391602
 70
   192
  0
VERTEX
  5
535
  8
0
 10
-30.97167015075684
 20
1.549447774887085
 30
59.11361694335938
 70
   192
  0
VERTEX
  5
536
  8
0
 10
-32.31954956054688
 20
1.855999946594238
 30
59.21414184570312
 70
   192
  0
VERTEX
  5
537
  8
0
 10
-32.78507232666016
 20
1.811692357063293
 30
57.78141021728516
 70
   192
  0
VERTEX
  5
538
  8
0
 10
-33.08477020263672
 20
0.9304615259170532
 30
56.85903167724609
 70
   192
  0
VERTEX
  5
539
  8
0
 10
-33.17519760131836
 20
-0.0000000000000597
 30
56.58071899414062
 70
   192
  0
VERTEX
  5
53A
  8
0
 10
-31.99778938293457
 20
0.9698461294174194
 30
60.20441055297852
 70
   192
  0
VERTEX
  5
53B
  8
0
 10
-31.92400741577148
 20
-0.0000000000000599
 30
60.43149185180664
 70
   192
  0
VERTEX
  5
53C
  8
0
 10
-30.97167015075684
 20
-1.549447774887085
 30
59.11361694335938
 70
   192
  0
VERTEX
  5
53D
  8
0
 10
-31.99931144714355
 20
-0.9304615259170532
 30
60.19972610473633
 70
   192
  0
VERTEX
  5
53E
  8
0
 10
-30.64907455444336
 20
-0.8577597141265869
 30
59.55763244628906
 70
   192
  0
VERTEX
  5
53F
  8
0
 10
-32.29901123046875
 20
-1.811692357063293
 30
59.27734756469727
 70
   192
  0
VERTEX
  5
540
  8
0
 10
-32.76453399658203
 20
-1.855999946594238
 30
57.84461975097656
 70
   192
  0
VERTEX
  5
541
  8
0
 10
-33.46909332275391
 20
-2.0
 30
58.67621231079102
 70
   192
  0
VERTEX
  5
542
  8
0
 10
-33.46909332275391
 20
-1.009989738464355
 30
60.41034698486328
 70
   192
  0
VERTEX
  5
543
  8
0
 10
-33.0862922668457
 20
-0.9698461294174194
 30
56.85435104370117
 70
   192
  0
VERTEX
  5
544
  8
0
 10
-32.76776123046875
 20
-0.8750741481781006
 30
56.64151000976562
 70
   192
  0
VERTEX
  5
545
  8
0
 10
-32.43613815307617
 20
-1.567879319190979
 30
57.09794616699219
 70
   192
  0
VERTEX
  5
546
  8
0
 10
-31.43899154663086
 20
-1.943439602851868
 30
58.47040176391602
 70
   192
  0
VERTEX
  5
547
  8
0
 10
-31.96271133422852
 20
-1.949759006500244
 30
57.74956512451172
 70
   192
  0
VERTEX
  5
548
  8
0
 10
-33.46909332275391
 20
-0.9862242937088013
 30
56.94702529907227
 70
   192
  0
VERTEX
  5
549
  8
0
 10
-33.46909332275391
 20
-1.718164563179016
 30
57.67056655883789
 70
   192
  0
VERTEX
  5
54A
  8
0
 10
-33.46909332275391
 20
-1.732784867286682
 30
59.67082214355469
 70
   192
  0
VERTEX
  5
54B
  8
0
 10
-11.60196685791016
 20
1.895292162895203
 30
0.1036066710948944
 70
   192
  0
VERTEX
  5
54C
  8
0
 10
-12.77725601196289
 20
1.900953054428101
 30
-0.2782679498195648
 70
   192
  0
VERTEX
  5
54D
  8
0
 10
-10.65797710418701
 20
1.159116983413696
 30
0.4103274941444397
 70
   192
  0
VERTEX
  5
54E
  8
0
 10
-10.29330539703369
 20
-0.0000000000000597
 30
0.5288164615631104
 70
   192
  0
VERTEX
  5
54F
  8
0
 10
-13.73539543151855
 20
1.185255765914917
 30
-0.5895861387252808
 70
   192
  0
VERTEX
  5
550
  8
0
 10
-14.09753227233887
 20
-0.0000000000000599
 30
-0.7072514891624451
 70
   192
  0
VERTEX
  5
551
  8
0
 10
-46.54098892211914
 20
-0.5130799412727356
 30
57.78546524047852
 70
   192
  0
VERTEX
  5
552
  8
0
 10
-46.54098892211914
 20
-0.890746533870697
 30
58.16313171386719
 70
   192
  0
VERTEX
  5
553
  8
0
 10
-45.87432098388672
 20
-1.464575886726379
 30
57.83259963989258
 70
   192
  0
VERTEX
  5
554
  8
0
 10
-44.83946228027344
 20
-1.010265946388245
 30
56.94210815429688
 70
   192
  0
VERTEX
  5
555
  8
0
 10
-45.87432098388672
 20
-0.843612015247345
 30
57.21163558959961
 70
   192
  0
VERTEX
  5
556
  8
0
 10
-44.83946228027344
 20
-1.730574727058411
 30
57.68133163452148
 70
   192
  0
VERTEX
  5
557
  8
0
 10
-46.83946228027344
 20
-0.0000000000000562
 30
58.67621231079102
 70
   192
  0
VERTEX
  5
558
  8
0
 10
-46.57643890380859
 20
-0.0000000000244032
 30
57.68815994262695
 70
   192
  0
VERTEX
  5
559
  8
0
 10
-44.83946228027344
 20
-2.0
 30
58.67621231079102
 70
   192
  0
VERTEX
  5
55A
  8
0
 10
-45.82751083374023
 20
-1.736973524093628
 30
58.67621231079102
 70
   192
  0
VERTEX
  5
55B
  8
0
 10
-45.80812454223633
 20
-0.0000000000213248
 30
56.93120574951172
 70
   192
  0
VERTEX
  5
55C
  8
0
 10
-46.58446884155273
 20
-0.968660295009613
 30
58.67621231079102
 70
   192
  0
VERTEX
  5
55D
  8
0
 10
-46.54098892211914
 20
0.890746533870697
 30
58.16313171386719
 70
   192
  0
VERTEX
  5
55E
  8
0
 10
-46.54098892211914
 20
0.5130799412727356
 30
57.78546524047852
 70
   192
  0
VERTEX
  5
55F
  8
0
 10
-45.87432098388672
 20
0.843612015247345
 30
57.21163558959961
 70
   192
  0
VERTEX
  5
560
  8
0
 10
-45.87432098388672
 20
1.464575886726379
 30
57.83259963989258
 70
   192
  0
VERTEX
  5
561
  8
0
 10
-46.57643890380859
 20
0.9880486726760864
 30
58.67621231079102
 70
   192
  0
VERTEX
  5
562
  8
0
 10
-45.80812454223633
 20
1.745004415512085
 30
58.67621231079102
 70
   192
  0
VERTEX
  5
563
  8
0
 10
-46.54098892211914
 20
0.5130799412727356
 30
59.56695556640625
 70
   192
  0
VERTEX
  5
564
  8
0
 10
-46.54098892211914
 20
0.890746533870697
 30
59.18928909301758
 70
   192
  0
VERTEX
  5
565
  8
0
 10
-45.87432098388672
 20
1.464575886726379
 30
59.51982116699219
 70
   192
  0
VERTEX
  5
566
  8
0
 10
-45.87432098388672
 20
0.843612015247345
 30
60.14078521728516
 70
   192
  0
VERTEX
  5
567
  8
0
 10
-46.57643890380859
 20
-0.000000000024501
 30
59.66426086425781
 70
   192
  0
VERTEX
  5
568
  8
0
 10
-45.80812454223633
 20
-0.0000000000217444
 30
60.42121505737305
 70
   192
  0
VERTEX
  5
569
  8
0
 10
-45.87432098388672
 20
-0.843612015247345
 30
60.14078521728516
 70
   192
  0
VERTEX
  5
56A
  8
0
 10
-46.54098892211914
 20
-0.890746533870697
 30
59.18928909301758
 70
   192
  0
VERTEX
  5
56B
  8
0
 10
-46.54098892211914
 20
-0.5130799412727356
 30
59.56695556640625
 70
   192
  0
VERTEX
  5
56C
  8
0
 10
-45.87432098388672
 20
-1.464575886726379
 30
59.51982116699219
 70
   192
  0
VERTEX
  5
56D
  8
0
 10
-44.83946228027344
 20
-0.9862242937088013
 30
60.4053955078125
 70
   192
  0
VERTEX
  5
56E
  8
0
 10
-44.83946228027344
 20
-1.718164563179016
 30
59.68185424804688
 70
   192
  0
VERTEX
  5
56F
  8
0
 10
-28.96666145324707
 20
-1.009989738464355
 30
57.13913726806641
 70
   192
  0
VERTEX
  5
570
  8
0
 10
-31.57234573364258
 20
-1.718164563179016
 30
56.29249954223633
 70
   192
  0
VERTEX
  5
571
  8
0
 10
-30.61592102050781
 20
-2.0
 30
56.6032600402832
 70
   192
  0
VERTEX
  5
572
  8
0
 10
-12.7888708114624
 20
-1.895292162895203
 30
-0.2820416986942291
 70
   192
  0
VERTEX
  5
573
  8
0
 10
-29.66999053955078
 20
-1.732784867286682
 30
56.91061401367188
 70
   192
  0
VERTEX
  5
574
  8
0
 10
-11.61358165740967
 20
-1.900953054428101
 30
0.0998329222202301
 70
   192
  0
VERTEX
  5
575
  8
0
 10
-32.26047515869141
 20
-0.9862242937088013
 30
56.06891250610352
 70
   192
  0
VERTEX
  5
576
  8
0
 10
-13.73286056518555
 20
-1.159116983413696
 30
-0.5887625217437744
 70
   192
  0
VERTEX
  5
577
  8
0
 10
-10.655442237854
 20
-1.185255765914917
 30
0.411151111125946
 70
   192
  0
VERTEX
  5
578
  8
0
 10
-30.4057788848877
 20
-1.811692357063293
 30
57.90183639526367
 70
   192
  0
VERTEX
  5
579
  8
0
 10
-29.62115859985352
 20
-0.9304615259170532
 30
58.47189712524414
 70
   192
  0
VERTEX
  5
57A
  8
0
 10
-31.62453269958496
 20
-1.855999946594238
 30
57.01636123657227
 70
   192
  0
VERTEX
  5
57B
  8
0
 10
-32.4669075012207
 20
-0.9698461294174194
 30
56.40433883666992
 70
   192
  0
VERTEX
  5
57C
  8
0
 62
     9
 10
0.0
 20
0.0
 30
0.0
 70
   128
 71
     3
 72
     2
 73
     1
  0
VERTEX
  5
57D
  8
0
 62
     9
 10
0.0
 20
0.0
 30
0.0
 70
   128
 71
     6
 72
     5
 73
     4
  0
VERTEX
  5
57E
  8
0
 62
     9
 10
0.0
 20
0.0
 30
0.0
 70
   128
 71
     7
 72
     2
 73
     3
  0
VERTEX
  5
57F
  8
0
 62
     9
 10
0.0
 20
0.0
 30
0.0
 70
   128
 71
     8
 72
     7
 73
     3
  0
VERTEX
  5
580
  8
0
 62
     9
 10
0.0
 20
0.0
 30
0.0
 70
   128
 71
     2
 72
     9
 73
     1
  0
VERTEX
  5
581
  8
0
 62
     9
 10
0.0
 20
0.0
 30
0.0
 70
   128
 71
    10
 72
     9
 73
     4
  0
VERTEX
  5
582
  8
0
 62
     9
 10
0.0
 20
0.0
 30
0.0
 70
   128
 71
     9
 72
    10
 73
     1
  0
VERTEX
  5
583
  8
0
 62
     9
 10
0.0
 20
0.0
 30
0.0
 70
   128
 71
    12
 72
     6
 73
    11
  0
VERTEX
  5
584
  8
0
 62
     9
 10
0.0
 20
0.0
 30
0.0
 70
   128
 71
    14
 72
    11
 73
    13
  0
VERTEX
  5
585
  8
0
 62
     9
 10
0.0
 20
0.0
 30
0.0
 70
   128
 71
     5
 72
     6
 73
    12
  0
VERTEX
  5
586
  8
0
 62
     9
 10
0.0
 20
0.0
 30
0.0
 70
   128
 71
    14
 72
    12
 73
    11
  0
VERTEX
  5
587
  8
0
 62
     9
 10
0.0
 20
0.0
 30
0.0
 70
   128
 71
     5
 72
    10
 73
     4
  0
VERTEX
  5
588
  8
0
 62
     9
 10
0.0
 20
0.0
 30
0.0
 70
   128
 71
    17
 72
    16
 73
    15
  0
VERTEX
  5
589
  8
0
 62
     9
 10
0.0
 20
0.0
 30
0.0
 70
   128
 71
    20
 72
    19
 73
    18
  0
VERTEX
  5
58A
  8
0
 62
     9
 10
0.0
 20
0.0
 30
0.0
 70
   128
 71
    15
 72
    22
 73
    21
  0
VERTEX
  5
58B
  8
0
 62
     9
 10
0.0
 20
0.0
 30
0.0
 70
   128
 71
    17
 72
    15
 73
    21
  0
VERTEX
  5
58C
  8
0
 62
     9
 10
0.0
 20
0.0
 30
0.0
 70
   128
 71
    24
 72
    22
 73
    23
  0
VERTEX
  5
58D
  8
0
 62
     9
 10
0.0
 20
0.0
 30
0.0
 70
   128
 71
    23
 72
    26
 73
    25
  0
VERTEX
  5
58E
  8
0
 62
     9
 10
0.0
 20
0.0
 30
0.0
 70
   128
 71
    23
 72
    25
 73
    24
  0
VERTEX
  5
58F
  8
0
 62
     9
 10
0.0
 20
0.0
 30
0.0
 70
   128
 71
    27
 72
    25
 73
    26
  0
VERTEX
  5
590
  8
0
 62
     9
 10
0.0
 20
0.0
 30
0.0
 70
   128
 71
    17
 72
    28
 73
    16
  0
VERTEX
  5
591
  8
0
 62
     9
 10
0.0
 20
0.0
 30
0.0
 70
   128
 71
    16
 72
    29
 73
    15
  0
VERTEX
  5
592
  8
0
 62
     9
 10
0.0
 20
0.0
 30
0.0
 70
   128
 71
    29
 72
    16
 73
    30
  0
VERTEX
  5
593
  8
0
 62
     9
 10
0.0
 20
0.0
 30
0.0
 70
   128
 71
    28
 72
    19
 73
    16
  0
VERTEX
  5
594
  8
0
 62
     9
 10
0.0
 20
0.0
 30
0.0
 70
   128
 71
    20
 72
    31
 73
    19
  0
VERTEX
  5
595
  8
0
 62
     9
 10
0.0
 20
0.0
 30
0.0
 70
   128
 71
    32
 72
    19
 73
    31
  0
VERTEX
  5
596
  8
0
 62
     9
 10
0.0
 20
0.0
 30
0.0
 70
   128
 71
    33
 72
    20
 73
    18
  0
VERTEX
  5
597
  8
0
 62
     9
 10
0.0
 20
0.0
 30
0.0
 70
   128
 71
    19
 72
    32
 73
    30
  0
VERTEX
  5
598
  8
0
 62
     9
 10
0.0
 20
0.0
 30
0.0
 70
   128
 71
    18
 72
    19
 73
    28
  0
VERTEX
  5
599
  8
0
 62
     9
 10
0.0
 20
0.0
 30
0.0
 70
   128
 71
    16
 72
    19
 73
    30
  0
VERTEX
  5
59A
  8
0
 62
     9
 10
0.0
 20
0.0
 30
0.0
 70
   128
 71
    34
 72
    15
 73
    29
  0
VERTEX
  5
59B
  8
0
 62
     9
 10
0.0
 20
0.0
 30
0.0
 70
   128
 71
    35
 72
    15
 73
    34
  0
VERTEX
  5
59C
  8
0
 62
     9
 10
0.0
 20
0.0
 30
0.0
 70
   128
 71
    26
 72
    23
 73
    35
  0
VERTEX
  5
59D
  8
0
 62
     9
 10
0.0
 20
0.0
 30
0.0
 70
   128
 71
    23
 72
    15
 73
    35
  0
VERTEX
  5
59E
  8
0
 62
     9
 10
0.0
 20
0.0
 30
0.0
 70
   128
 71
    15
 72
    23
 73
    22
  0
VERTEX
  5
59F
  8
0
 62
     9
 10
0.0
 20
0.0
 30
0.0
 70
   128
 71
    34
 72
    37
 73
    36
  0
VERTEX
  5
5A0
  8
0
 62
     9
 10
0.0
 20
0.0
 30
0.0
 70
   128
 71
    39
 72
    38
 73
    32
  0
VERTEX
  5
5A1
  8
0
 62
     9
 10
0.0
 20
0.0
 30
0.0
 70
   128
 71
    26
 72
    35
 73
    40
  0
VERTEX
  5
5A2
  8
0
 62
     9
 10
0.0
 20
0.0
 30
0.0
 70
   128
 71
    35
 72
    36
 73
    40
  0
VERTEX
  5
5A3
  8
0
 62
     9
 10
0.0
 20
0.0
 30
0.0
 70
   128
 71
    27
 72
    40
 73
    41
  0
VERTEX
  5
5A4
  8
0
 62
     9
 10
0.0
 20
0.0
 30
0.0
 70
   128
 71
    26
 72
    40
 73
    27
  0
VERTEX
  5
5A5
  8
0
 62
     9
 10
0.0
 20
0.0
 30
0.0
 70
   128
 71
     7
 72
    41
 73
     2
  0
VERTEX
  5
5A6
  8
0
 62
     9
 10
0.0
 20
0.0
 30
0.0
 70
   128
 71
    34
 72
    29
 73
    37
  0
VERTEX
  5
5A7
  8
0
 62
     9
 10
0.0
 20
0.0
 30
0.0
 70
   128
 71
    35
 72
    34
 73
    36
  0
VERTEX
  5
5A8
  8
0
 62
     9
 10
0.0
 20
0.0
 30
0.0
 70
   128
 71
    37
 72
    30
 73
    38
  0
VERTEX
  5
5A9
  8
0
 62
     9
 10
0.0
 20
0.0
 30
0.0
 70
   128
 71
     9
 72
    36
 73
     4
  0
VERTEX
  5
5AA
  8
0
 62
     9
 10
0.0
 20
0.0
 30
0.0
 70
   128
 71
    39
 72
    13
 73
    38
  0
VERTEX
  5
5AB
  8
0
 62
     9
 10
0.0
 20
0.0
 30
0.0
 70
   128
 71
    30
 72
    37
 73
    29
  0
VERTEX
  5
5AC
  8
0
 62
     9
 10
0.0
 20
0.0
 30
0.0
 70
   128
 71
    11
 72
    38
 73
    13
  0
VERTEX
  5
5AD
  8
0
 62
     9
 10
0.0
 20
0.0
 30
0.0
 70
   128
 71
    31
 72
    39
 73
    32
  0
VERTEX
  5
5AE
  8
0
 62
     9
 10
0.0
 20
0.0
 30
0.0
 70
   128
 71
    11
 72
     6
 73
    37
  0
VERTEX
  5
5AF
  8
0
 62
     9
 10
0.0
 20
0.0
 30
0.0
 70
   128
 71
    32
 72
    38
 73
    30
  0
VERTEX
  5
5B0
  8
0
 62
     9
 10
0.0
 20
0.0
 30
0.0
 70
   128
 71
    37
 72
    38
 73
    11
  0
VERTEX
  5
5B1
  8
0
 62
     9
 10
0.0
 20
0.0
 30
0.0
 70
   128
 71
    37
 72
     6
 73
     4
  0
VERTEX
  5
5B2
  8
0
 62
     9
 10
0.0
 20
0.0
 30
0.0
 70
   128
 71
    36
 72
    37
 73
     4
  0
VERTEX
  5
5B3
  8
0
 62
     9
 10
0.0
 20
0.0
 30
0.0
 70
   128
 71
     2
 72
    40
 73
     9
  0
VERTEX
  5
5B4
  8
0
 62
     9
 10
0.0
 20
0.0
 30
0.0
 70
   128
 71
    40
 72
    36
 73
     9
  0
VERTEX
  5
5B5
  8
0
 62
     9
 10
0.0
 20
0.0
 30
0.0
 70
   128
 71
    40
 72
     2
 73
    41
  0
VERTEX
  5
5B6
  8
0
 62
     9
 10
0.0
 20
0.0
 30
0.0
 70
   128
 71
    44
 72
    43
 73
    42
  0
VERTEX
  5
5B7
  8
0
 62
     9
 10
0.0
 20
0.0
 30
0.0
 70
   128
 71
    43
 72
    45
 73
    42
  0
VERTEX
  5
5B8
  8
0
 62
     9
 10
0.0
 20
0.0
 30
0.0
 70
   128
 71
    47
 72
    46
 73
    45
  0
VERTEX
  5
5B9
  8
0
 62
     9
 10
0.0
 20
0.0
 30
0.0
 70
   128
 71
     7
 72
    48
 73
    41
  0
VERTEX
  5
5BA
  8
0
 62
     9
 10
0.0
 20
0.0
 30
0.0
 70
   128
 71
    50
 72
    49
 73
    39
  0
VERTEX
  5
5BB
  8
0
 62
     9
 10
0.0
 20
0.0
 30
0.0
 70
   128
 71
    46
 72
    49
 73
    51
  0
VERTEX
  5
5BC
  8
0
 62
     9
 10
0.0
 20
0.0
 30
0.0
 70
   128
 71
    49
 72
    13
 73
    39
  0
VERTEX
  5
5BD
  8
0
 62
     9
 10
0.0
 20
0.0
 30
0.0
 70
   128
 71
    53
 72
    52
 73
    46
  0
VERTEX
  5
5BE
  8
0
 62
     9
 10
0.0
 20
0.0
 30
0.0
 70
   128
 71
    31
 72
    50
 73
    39
  0
VERTEX
  5
5BF
  8
0
 62
     9
 10
0.0
 20
0.0
 30
0.0
 70
   128
 71
    54
 72
    13
 73
    49
  0
VERTEX
  5
5C0
  8
0
 62
     9
 10
0.0
 20
0.0
 30
0.0
 70
   128
 71
    46
 72
    47
 73
    55
  0
VERTEX
  5
5C1
  8
0
 62
     9
 10
0.0
 20
0.0
 30
0.0
 70
   128
 71
    46
 72
    52
 73
    45
  0
VERTEX
  5
5C2
  8
0
 62
     9
 10
0.0
 20
0.0
 30
0.0
 70
   128
 71
    41
 72
    48
 73
    43
  0
VERTEX
  5
5C3
  8
0
 62
     9
 10
0.0
 20
0.0
 30
0.0
 70
   128
 71
    45
 72
    43
 73
    56
  0
VERTEX
  5
5C4
  8
0
 62
     9
 10
0.0
 20
0.0
 30
0.0
 70
   128
 71
    43
 72
    27
 73
    41
  0
VERTEX
  5
5C5
  8
0
 62
     9
 10
0.0
 20
0.0
 30
0.0
 70
   128
 71
    44
 72
    27
 73
    43
  0
VERTEX
  5
5C6
  8
0
 62
     9
 10
0.0
 20
0.0
 30
0.0
 70
   128
 71
    56
 72
    43
 73
    48
  0
VERTEX
  5
5C7
  8
0
 62
     9
 10
0.0
 20
0.0
 30
0.0
 70
   128
 71
    45
 72
    56
 73
    47
  0
VERTEX
  5
5C8
  8
0
 62
     9
 10
0.0
 20
0.0
 30
0.0
 70
   128
 71
    45
 72
    52
 73
    42
  0
VERTEX
  5
5C9
  8
0
 62
     9
 10
0.0
 20
0.0
 30
0.0
 70
   128
 71
    46
 72
    55
 73
    54
  0
VERTEX
  5
5CA
  8
0
 62
     9
 10
0.0
 20
0.0
 30
0.0
 70
   128
 71
    53
 72
    46
 73
    51
  0
VERTEX
  5
5CB
  8
0
 62
     9
 10
0.0
 20
0.0
 30
0.0
 70
   128
 71
    54
 72
    49
 73
    46
  0
VERTEX
  5
5CC
  8
0
 62
     9
 10
0.0
 20
0.0
 30
0.0
 70
   128
 71
    49
 72
    50
 73
    51
  0
VERTEX
  5
5CD
  8
0
 62
     9
 10
0.0
 20
0.0
 30
0.0
 70
   128
 71
    58
 72
    17
 73
    57
  0
VERTEX
  5
5CE
  8
0
 62
     9
 10
0.0
 20
0.0
 30
0.0
 70
   128
 71
    59
 72
    57
 73
    21
  0
VERTEX
  5
5CF
  8
0
 62
     9
 10
0.0
 20
0.0
 30
0.0
 70
   128
 71
    17
 72
    21
 73
    57
  0
VERTEX
  5
5D0
  8
0
 62
     9
 10
0.0
 20
0.0
 30
0.0
 70
   128
 71
    22
 72
    60
 73
    59
  0
VERTEX
  5
5D1
  8
0
 62
     9
 10
0.0
 20
0.0
 30
0.0
 70
   128
 71
    59
 72
    21
 73
    22
  0
VERTEX
  5
5D2
  8
0
 62
     9
 10
0.0
 20
0.0
 30
0.0
 70
   128
 71
    24
 72
    60
 73
    22
  0
VERTEX
  5
5D3
  8
0
 62
     9
 10
0.0
 20
0.0
 30
0.0
 70
   128
 71
    28
 72
    17
 73
    58
  0
VERTEX
  5
5D4
  8
0
 62
     9
 10
0.0
 20
0.0
 30
0.0
 70
   128
 71
    61
 72
    18
 73
    28
  0
VERTEX
  5
5D5
  8
0
 62
     9
 10
0.0
 20
0.0
 30
0.0
 70
   128
 71
    28
 72
    58
 73
    61
  0
VERTEX
  5
5D6
  8
0
 62
     9
 10
0.0
 20
0.0
 30
0.0
 70
   128
 71
    62
 72
    18
 73
    61
  0
VERTEX
  5
5D7
  8
0
 62
     9
 10
0.0
 20
0.0
 30
0.0
 70
   128
 71
    62
 72
    33
 73
    18
  0
VERTEX
  5
5D8
  8
0
 62
     9
 10
0.0
 20
0.0
 30
0.0
 70
   128
 71
    65
 72
    64
 73
    63
  0
VERTEX
  5
5D9
  8
0
 62
     9
 10
0.0
 20
0.0
 30
0.0
 70
   128
 71
    68
 72
    67
 73
    66
  0
VERTEX
  5
5DA
  8
0
 62
     9
 10
0.0
 20
0.0
 30
0.0
 70
   128
 71
    70
 72
    63
 73
    69
  0
VERTEX
  5
5DB
  8
0
 62
     9
 10
0.0
 20
0.0
 30
0.0
 70
   128
 71
    72
 72
    65
 73
    71
  0
VERTEX
  5
5DC
  8
0
 62
     9
 10
0.0
 20
0.0
 30
0.0
 70
   128
 71
    64
 72
    69
 73
    63
  0
VERTEX
  5
5DD
  8
0
 62
     9
 10
0.0
 20
0.0
 30
0.0
 70
   128
 71
    66
 72
    73
 73
    14
  0
VERTEX
  5
5DE
  8
0
 62
     9
 10
0.0
 20
0.0
 30
0.0
 70
   128
 71
    67
 72
    68
 73
    65
  0
VERTEX
  5
5DF
  8
0
 62
     9
 10
0.0
 20
0.0
 30
0.0
 70
   128
 71
    70
 72
    73
 73
    67
  0
VERTEX
  5
5E0
  8
0
 62
     9
 10
0.0
 20
0.0
 30
0.0
 70
   128
 71
    65
 72
    63
 73
    67
  0
VERTEX
  5
5E1
  8
0
 62
     9
 10
0.0
 20
0.0
 30
0.0
 70
   128
 71
    74
 72
    64
 73
    72
  0
VERTEX
  5
5E2
  8
0
 62
     9
 10
0.0
 20
0.0
 30
0.0
 70
   128
 71
    64
 72
    74
 73
    69
  0
VERTEX
  5
5E3
  8
0
 62
     9
 10
0.0
 20
0.0
 30
0.0
 70
   128
 71
    67
 72
    63
 73
    70
  0
VERTEX
  5
5E4
  8
0
 62
     9
 10
0.0
 20
0.0
 30
0.0
 70
   128
 71
    66
 72
    67
 73
    73
  0
VERTEX
  5
5E5
  8
0
 62
     9
 10
0.0
 20
0.0
 30
0.0
 70
   128
 71
    65
 72
    68
 73
    71
  0
VERTEX
  5
5E6
  8
0
 62
     9
 10
0.0
 20
0.0
 30
0.0
 70
   128
 71
    65
 72
    72
 73
    64
  0
VERTEX
  5
5E7
  8
0
 62
     9
 10
0.0
 20
0.0
 30
0.0
 70
   128
 71
    77
 72
    76
 73
    75
  0
VERTEX
  5
5E8
  8
0
 62
     9
 10
0.0
 20
0.0
 30
0.0
 70
   128
 71
    12
 72
    78
 73
     5
  0
VERTEX
  5
5E9
  8
0
 62
     9
 10
0.0
 20
0.0
 30
0.0
 70
   128
 71
    79
 72
    75
 73
    69
  0
VERTEX
  5
5EA
  8
0
 62
     9
 10
0.0
 20
0.0
 30
0.0
 70
   128
 71
    73
 72
    77
 73
    14
  0
VERTEX
  5
5EB
  8
0
 62
     9
 10
0.0
 20
0.0
 30
0.0
 70
   128
 71
    76
 72
    69
 73
    75
  0
VERTEX
  5
5EC
  8
0
 62
     9
 10
0.0
 20
0.0
 30
0.0
 70
   128
 71
     5
 72
    80
 73
    10
  0
VERTEX
  5
5ED
  8
0
 62
     9
 10
0.0
 20
0.0
 30
0.0
 70
   128
 71
    78
 72
    12
 73
    77
  0
VERTEX
  5
5EE
  8
0
 62
     9
 10
0.0
 20
0.0
 30
0.0
 70
   128
 71
    79
 72
    80
 73
    78
  0
VERTEX
  5
5EF
  8
0
 62
     9
 10
0.0
 20
0.0
 30
0.0
 70
   128
 71
    77
 72
    75
 73
    78
  0
VERTEX
  5
5F0
  8
0
 62
     9
 10
0.0
 20
0.0
 30
0.0
 70
   128
 71
    70
 72
    76
 73
    73
  0
VERTEX
  5
5F1
  8
0
 62
     9
 10
0.0
 20
0.0
 30
0.0
 70
   128
 71
    76
 72
    70
 73
    69
  0
VERTEX
  5
5F2
  8
0
 62
     9
 10
0.0
 20
0.0
 30
0.0
 70
   128
 71
    78
 72
    75
 73
    79
  0
VERTEX
  5
5F3
  8
0
 62
     9
 10
0.0
 20
0.0
 30
0.0
 70
   128
 71
     5
 72
    78
 73
    80
  0
VERTEX
  5
5F4
  8
0
 62
     9
 10
0.0
 20
0.0
 30
0.0
 70
   128
 71
    77
 72
    12
 73
    14
  0
VERTEX
  5
5F5
  8
0
 62
     9
 10
0.0
 20
0.0
 30
0.0
 70
   128
 71
    77
 72
    73
 73
    76
  0
VERTEX
  5
5F6
  8
0
 62
     9
 10
0.0
 20
0.0
 30
0.0
 70
   128
 71
    83
 72
    82
 73
    81
  0
VERTEX
  5
5F7
  8
0
 62
     9
 10
0.0
 20
0.0
 30
0.0
 70
   128
 71
     1
 72
    84
 73
     3
  0
VERTEX
  5
5F8
  8
0
 62
     9
 10
0.0
 20
0.0
 30
0.0
 70
   128
 71
    85
 72
    81
 73
    69
  0
VERTEX
  5
5F9
  8
0
 62
     9
 10
0.0
 20
0.0
 30
0.0
 70
   128
 71
    80
 72
    83
 73
    10
  0
VERTEX
  5
5FA
  8
0
 62
     9
 10
0.0
 20
0.0
 30
0.0
 70
   128
 71
    82
 72
    69
 73
    81
  0
VERTEX
  5
5FB
  8
0
 62
     9
 10
0.0
 20
0.0
 30
0.0
 70
   128
 71
     3
 72
    86
 73
     8
  0
VERTEX
  5
5FC
  8
0
 62
     9
 10
0.0
 20
0.0
 30
0.0
 70
   128
 71
    84
 72
     1
 73
    83
  0
VERTEX
  5
5FD
  8
0
 62
     9
 10
0.0
 20
0.0
 30
0.0
 70
   128
 71
    85
 72
    86
 73
    84
  0
VERTEX
  5
5FE
  8
0
 62
     9
 10
0.0
 20
0.0
 30
0.0
 70
   128
 71
    83
 72
    81
 73
    84
  0
VERTEX
  5
5FF
  8
0
 62
     9
 10
0.0
 20
0.0
 30
0.0
 70
   128
 71
    79
 72
    82
 73
    80
  0
VERTEX
  5
600
  8
0
 62
     9
 10
0.0
 20
0.0
 30
0.0
 70
   128
 71
    82
 72
    79
 73
    69
  0
VERTEX
  5
601
  8
0
 62
     9
 10
0.0
 20
0.0
 30
0.0
 70
   128
 71
    84
 72
    81
 73
    85
  0
VERTEX
  5
602
  8
0
 62
     9
 10
0.0
 20
0.0
 30
0.0
 70
   128
 71
     3
 72
    84
 73
    86
  0
VERTEX
  5
603
  8
0
 62
     9
 10
0.0
 20
0.0
 30
0.0
 70
   128
 71
    83
 72
     1
 73
    10
  0
VERTEX
  5
604
  8
0
 62
     9
 10
0.0
 20
0.0
 30
0.0
 70
   128
 71
    83
 72
    80
 73
    82
  0
VERTEX
  5
605
  8
0
 62
     9
 10
0.0
 20
0.0
 30
0.0
 70
   128
 71
    89
 72
    88
 73
    87
  0
VERTEX
  5
606
  8
0
 62
     9
 10
0.0
 20
0.0
 30
0.0
 70
   128
 71
    91
 72
    87
 73
    90
  0
VERTEX
  5
607
  8
0
 62
     9
 10
0.0
 20
0.0
 30
0.0
 70
   128
 71
     8
 72
    86
 73
    87
  0
VERTEX
  5
608
  8
0
 62
     9
 10
0.0
 20
0.0
 30
0.0
 70
   128
 71
    71
 72
    92
 73
    72
  0
VERTEX
  5
609
  8
0
 62
     9
 10
0.0
 20
0.0
 30
0.0
 70
   128
 71
    74
 72
    88
 73
    69
  0
VERTEX
  5
60A
  8
0
 62
     9
 10
0.0
 20
0.0
 30
0.0
 70
   128
 71
    92
 72
    91
 73
    90
  0
VERTEX
  5
60B
  8
0
 62
     9
 10
0.0
 20
0.0
 30
0.0
 70
   128
 71
    88
 72
    89
 73
    69
  0
VERTEX
  5
60C
  8
0
 62
     9
 10
0.0
 20
0.0
 30
0.0
 70
   128
 71
    74
 72
    72
 73
    90
  0
VERTEX
  5
60D
  8
0
 62
     9
 10
0.0
 20
0.0
 30
0.0
 70
   128
 71
    87
 72
    88
 73
    90
  0
VERTEX
  5
60E
  8
0
 62
     9
 10
0.0
 20
0.0
 30
0.0
 70
   128
 71
    85
 72
    89
 73
    86
  0
VERTEX
  5
60F
  8
0
 62
     9
 10
0.0
 20
0.0
 30
0.0
 70
   128
 71
    89
 72
    85
 73
    69
  0
VERTEX
  5
610
  8
0
 62
     9
 10
0.0
 20
0.0
 30
0.0
 70
   128
 71
    90
 72
    88
 73
    74
  0
VERTEX
  5
611
  8
0
 62
     9
 10
0.0
 20
0.0
 30
0.0
 70
   128
 71
    92
 72
    90
 73
    72
  0
VERTEX
  5
612
  8
0
 62
     9
 10
0.0
 20
0.0
 30
0.0
 70
   128
 71
    87
 72
    91
 73
     8
  0
VERTEX
  5
613
  8
0
 62
     9
 10
0.0
 20
0.0
 30
0.0
 70
   128
 71
    87
 72
    86
 73
    89
  0
VERTEX
  5
614
  8
0
 62
     9
 10
0.0
 20
0.0
 30
0.0
 70
   128
 71
    60
 72
    24
 73
    93
  0
VERTEX
  5
615
  8
0
 62
     9
 10
0.0
 20
0.0
 30
0.0
 70
   128
 71
    96
 72
    95
 73
    94
  0
VERTEX
  5
616
  8
0
 62
     9
 10
0.0
 20
0.0
 30
0.0
 70
   128
 71
    98
 72
    97
 73
    95
  0
VERTEX
  5
617
  8
0
 62
     9
 10
0.0
 20
0.0
 30
0.0
 70
   128
 71
    62
 72
   100
 73
    99
  0
VERTEX
  5
618
  8
0
 62
     9
 10
0.0
 20
0.0
 30
0.0
 70
   128
 71
    94
 72
    99
 73
   100
  0
VERTEX
  5
619
  8
0
 62
     9
 10
0.0
 20
0.0
 30
0.0
 70
   128
 71
    62
 72
    99
 73
    33
  0
VERTEX
  5
61A
  8
0
 62
     9
 10
0.0
 20
0.0
 30
0.0
 70
   128
 71
    95
 72
    96
 73
    98
  0
VERTEX
  5
61B
  8
0
 62
     9
 10
0.0
 20
0.0
 30
0.0
 70
   128
 71
    96
 72
    94
 73
   100
  0
VERTEX
  5
61C
  8
0
 62
     9
 10
0.0
 20
0.0
 30
0.0
 70
   128
 71
   101
 72
    93
 73
    97
  0
VERTEX
  5
61D
  8
0
 62
     9
 10
0.0
 20
0.0
 30
0.0
 70
   128
 71
   101
 72
    97
 73
    98
  0
VERTEX
  5
61E
  8
0
 62
     9
 10
0.0
 20
0.0
 30
0.0
 70
   128
 71
    93
 72
   101
 73
    60
  0
VERTEX
  5
61F
  8
0
 62
     9
 10
0.0
 20
0.0
 30
0.0
 70
   128
 71
    42
 72
    52
 73
   102
  0
VERTEX
  5
620
  8
0
 62
     9
 10
0.0
 20
0.0
 30
0.0
 70
   128
 71
   103
 72
   102
 73
    93
  0
VERTEX
  5
621
  8
0
 62
     9
 10
0.0
 20
0.0
 30
0.0
 70
   128
 71
    51
 72
   104
 73
    53
  0
VERTEX
  5
622
  8
0
 62
     9
 10
0.0
 20
0.0
 30
0.0
 70
   128
 71
    27
 72
    44
 73
    25
  0
VERTEX
  5
623
  8
0
 62
     9
 10
0.0
 20
0.0
 30
0.0
 70
   128
 71
    33
 72
    99
 73
    20
  0
VERTEX
  5
624
  8
0
 62
     9
 10
0.0
 20
0.0
 30
0.0
 70
   128
 71
    94
 72
    95
 73
   104
  0
VERTEX
  5
625
  8
0
 62
     9
 10
0.0
 20
0.0
 30
0.0
 70
   128
 71
    20
 72
   105
 73
    31
  0
VERTEX
  5
626
  8
0
 62
     9
 10
0.0
 20
0.0
 30
0.0
 70
   128
 71
   105
 72
    20
 73
    99
  0
VERTEX
  5
627
  8
0
 62
     9
 10
0.0
 20
0.0
 30
0.0
 70
   128
 71
    95
 72
   102
 73
   104
  0
VERTEX
  5
628
  8
0
 62
     9
 10
0.0
 20
0.0
 30
0.0
 70
   128
 71
   105
 72
    94
 73
   104
  0
VERTEX
  5
629
  8
0
 62
     9
 10
0.0
 20
0.0
 30
0.0
 70
   128
 71
    94
 72
   105
 73
    99
  0
VERTEX
  5
62A
  8
0
 62
     9
 10
0.0
 20
0.0
 30
0.0
 70
   128
 71
    42
 72
   102
 73
   103
  0
VERTEX
  5
62B
  8
0
 62
     9
 10
0.0
 20
0.0
 30
0.0
 70
   128
 71
   102
 72
    95
 73
    97
  0
VERTEX
  5
62C
  8
0
 62
     9
 10
0.0
 20
0.0
 30
0.0
 70
   128
 71
    24
 72
    25
 73
   103
  0
VERTEX
  5
62D
  8
0
 62
     9
 10
0.0
 20
0.0
 30
0.0
 70
   128
 71
    25
 72
    44
 73
   103
  0
VERTEX
  5
62E
  8
0
 62
     9
 10
0.0
 20
0.0
 30
0.0
 70
   128
 71
    93
 72
    24
 73
   103
  0
VERTEX
  5
62F
  8
0
 62
     9
 10
0.0
 20
0.0
 30
0.0
 70
   128
 71
    42
 72
   103
 73
    44
  0
VERTEX
  5
630
  8
0
 62
     9
 10
0.0
 20
0.0
 30
0.0
 70
   128
 71
    52
 72
    53
 73
   102
  0
VERTEX
  5
631
  8
0
 62
     9
 10
0.0
 20
0.0
 30
0.0
 70
   128
 71
   102
 72
    97
 73
    93
  0
VERTEX
  5
632
  8
0
 62
     9
 10
0.0
 20
0.0
 30
0.0
 70
   128
 71
   104
 72
   102
 73
    53
  0
VERTEX
  5
633
  8
0
 62
     9
 10
0.0
 20
0.0
 30
0.0
 70
   128
 71
    51
 72
    50
 73
   105
  0
VERTEX
  5
634
  8
0
 62
     9
 10
0.0
 20
0.0
 30
0.0
 70
   128
 71
   105
 72
   104
 73
    51
  0
VERTEX
  5
635
  8
0
 62
     9
 10
0.0
 20
0.0
 30
0.0
 70
   128
 71
    50
 72
    31
 73
   105
  0
VERTEX
  5
636
  8
0
 62
     9
 10
0.0
 20
0.0
 30
0.0
 70
   128
 71
     8
 72
    91
 73
    48
  0
VERTEX
  5
637
  8
0
 62
     9
 10
0.0
 20
0.0
 30
0.0
 70
   128
 71
    55
 72
    71
 73
    68
  0
VERTEX
  5
638
  8
0
 62
     9
 10
0.0
 20
0.0
 30
0.0
 70
   128
 71
    47
 72
    56
 73
    92
  0
VERTEX
  5
639
  8
0
 62
     9
 10
0.0
 20
0.0
 30
0.0
 70
   128
 71
    13
 72
    54
 73
    66
  0
VERTEX
  5
63A
  8
0
 62
     9
 10
0.0
 20
0.0
 30
0.0
 70
   128
 71
    68
 72
    66
 73
    54
  0
VERTEX
  5
63B
  8
0
 62
     9
 10
0.0
 20
0.0
 30
0.0
 70
   128
 71
    13
 72
    66
 73
    14
  0
VERTEX
  5
63C
  8
0
 62
     9
 10
0.0
 20
0.0
 30
0.0
 70
   128
 71
    71
 72
    55
 73
    47
  0
VERTEX
  5
63D
  8
0
 62
     9
 10
0.0
 20
0.0
 30
0.0
 70
   128
 71
    55
 72
    68
 73
    54
  0
VERTEX
  5
63E
  8
0
 62
     9
 10
0.0
 20
0.0
 30
0.0
 70
   128
 71
    56
 72
    91
 73
    92
  0
VERTEX
  5
63F
  8
0
 62
     9
 10
0.0
 20
0.0
 30
0.0
 70
   128
 71
    47
 72
    92
 73
    71
  0
VERTEX
  5
640
  8
0
 62
     9
 10
0.0
 20
0.0
 30
0.0
 70
   128
 71
    48
 72
     7
 73
     8
  0
VERTEX
  5
641
  8
0
 62
     9
 10
0.0
 20
0.0
 30
0.0
 70
   128
 71
    56
 72
    48
 73
    91
  0
SEQEND
  5
642
  8
0
 62
     9
  0
ENDBLK
  5
645
  8
0
  0
BLOCK
  8
0
  2
44
 70
     0
 10
0.0
 20
0.0
 30
0.0
  3
44
  1

  0
POLYLINE
  5
647
  8
0
 62
     9
 66
     1
 10
0.0
 20
0.0
 30
0.0
 70
    64
 71
     8
 72
    12
  0
VERTEX
  5
648
  8
0
 10
-26.0
 20
-26.0
 30
0.0000000000000009
 70
   192
  0
VERTEX
  5
649
  8
0
 10
26.0
 20
-26.0
 30
-8.0
 70
   192
  0
VERTEX
  5
64A
  8
0
 10
26.0
 20
-26.0
 30
0.0000000000000009
 70
   192
  0
VERTEX
  5
64B
  8
0
 10
-26.0
 20
-26.0
 30
-8.0
 70
   192
  0
VERTEX
  5
64C
  8
0
 10
26.0
 20
26.0
 30
-8.0
 70
   192
  0
VERTEX
  5
64D
  8
0
 10
26.0
 20
26.0
 30
0.0000000000000009
 70
   192
  0
VERTEX
  5
64E
  8
0
 10
-26.0
 20
26.0
 30
-8.0
 70
   192
  0
VERTEX
  5
64F
  8
0
 10
-26.0
 20
26.0
 30
0.0000000000000009
 70
   192
  0
VERTEX
  5
650
  8
0
 62
     9
 10
0.0
 20
0.0
 30
0.0
 70
   128
 71
     3
 72
     2
 73
     1
  0
VERTEX
  5
651
  8
0
 62
     9
 10
0.0
 20
0.0
 30
0.0
 70
   128
 71
     4
 72
     1
 73
     2
  0
VERTEX
  5
652
  8
0
 62
     9
 10
0.0
 20
0.0
 30
0.0
 70
   128
 71
     3
 72
     6
 73
     5
  0
VERTEX
  5
653
  8
0
 62
     9
 10
0.0
 20
0.0
 30
0.0
 70
   128
 71
     2
 72
     3
 73
     5
  0
VERTEX
  5
654
  8
0
 62
     9
 10
0.0
 20
0.0
 30
0.0
 70
   128
 71
     6
 72
     8
 73
     7
  0
VERTEX
  5
655
  8
0
 62
     9
 10
0.0
 20
0.0
 30
0.0
 70
   128
 71
     5
 72
     6
 73
     7
  0
VERTEX
  5
656
  8
0
 62
     9
 10
0.0
 20
0.0
 30
0.0
 70
   128
 71
     8
 72
     1
 73
     7
  0
VERTEX
  5
657
  8
0
 62
     9
 10
0.0
 20
0.0
 30
0.0
 70
   128
 71
     4
 72
     7
 73
     1
  0
VERTEX
  5
658
  8
0
 62
     9
 10
0.0
 20
0.0
 30
0.0
 70
   128
 71
     6
 72
     3
 73
     8
  0
VERTEX
  5
659
  8
0
 62
     9
 10
0.0
 20
0.0
 30
0.0
 70
   128
 71
     1
 72
     8
 73
     3
  0
VERTEX
  5
65A
  8
0
 62
     9
 10
0.0
 20
0.0
 30
0.0
 70
   128
 71
     7
 72
     4
 73
     5
  0
VERTEX
  5
65B
  8
0
 62
     9
 10
0.0
 20
0.0
 30
0.0
 70
   128
 71
     2
 72
     5
 73
     4
  0
SEQEND
  5
65C
  8
0
 62
     9
  0
ENDBLK
  5
65F
  8
0
  0
BLOCK
  8
0
  2
45
 70
     0
 10
0.0
 20
0.0
 30
0.0
  3
45
  1

  0
POLYLINE
  5
661
  8
0
 62
     9
 66
     1
 10
0.0
 20
0.0
 30
0.0
 70
    64
 71
    93
 72
   164
  0
VERTEX
  5
662
  8
0
 10
5.415536880493164
 20
55.82952880859375
 30
42.05276870727539
 70
   192
  0
VERTEX
  5
663
  8
0
 10
5.497752666473389
 20
55.82952880859375
 30
43.0
 70
   192
  0
VERTEX
  5
664
  8
0
 10
-0.0000000000000832
 20
56.59999847412109
 30
43.0
 70
   192
  0
VERTEX
  5
665
  8
0
 10
1.855664372444153
 20
53.45230102539062
 30
32.3907356262207
 70
   192
  0
VERTEX
  5
666
  8
0
 10
0.9472304582595825
 20
55.82952880859375
 30
37.58446502685547
 70
   192
  0
VERTEX
  5
667
  8
0
 10
-0.0000000000206617
 20
53.45230102539062
 30
32.22967147827148
 70
   192
  0
VERTEX
  5
668
  8
0
 10
2.499340057373047
 20
55.82952880859375
 30
38.10320663452148
 70
   192
  0
VERTEX
  5
669
  8
0
 10
3.887498140335083
 20
55.82952880859375
 30
39.11250305175781
 70
   192
  0
VERTEX
  5
66A
  8
0
 10
-0.0000000000000439
 20
45.0
 30
24.84951782226562
 70
   192
  0
VERTEX
  5
66B
  8
0
 10
2.608912467956543
 20
49.66574478149414
 30
28.0842399597168
 70
   192
  0
VERTEX
  5
66C
  8
0
 10
-0.0000000000145327
 20
49.66574478149414
 30
27.85779762268066
 70
   192
  0
VERTEX
  5
66D
  8
0
 10
4.896793365478516
 20
55.82952880859375
 30
40.50065994262695
 70
   192
  0
VERTEX
  5
66E
  8
0
 10
4.896312713623047
 20
53.45230102539062
 30
33.40697479248047
 70
   192
  0
VERTEX
  5
66F
  8
0
 10
7.61577320098877
 20
53.45230102539062
 30
35.38422775268555
 70
   192
  0
VERTEX
  5
670
  8
0
 10
13.48700904846191
 20
49.66574478149414
 30
36.11618423461914
 70
   192
  0
VERTEX
  5
671
  8
0
 10
17.34485244750977
 20
45.0
 30
37.67933654785156
 70
   192
  0
VERTEX
  5
672
  8
0
 10
14.9157600402832
 20
49.66574478149414
 30
40.39108657836914
 70
   192
  0
VERTEX
  5
673
  8
0
 10
10.60926532745361
 20
53.45230102539062
 30
41.14433670043945
 70
   192
  0
VERTEX
  5
674
  8
0
 10
18.15048217773438
 20
45.0
 30
43.0
 70
   192
  0
VERTEX
  5
675
  8
0
 10
14.7742280960083
 20
45.0
 30
32.45953369140625
 70
   192
  0
VERTEX
  5
676
  8
0
 10
10.77032947540283
 20
53.45230102539062
 30
43.0
 70
   192
  0
VERTEX
  5
677
  8
0
 10
9.593024253845215
 20
53.45230102539062
 30
38.10368728637695
 70
   192
  0
VERTEX
  5
678
  8
0
 10
-0.0000000000158444
 20
55.82952880859375
 30
37.50224685668945
 70
   192
  0
VERTEX
  5
679
  8
0
 10
15.14220333099365
 20
49.66574478149414
 30
43.0
 70
   192
  0
VERTEX
  5
67A
  8
0
 10
10.70715427398682
 20
49.66574478149414
 30
32.2928466796875
 70
   192
  0
VERTEX
  5
67B
  8
0
 10
6.883815288543701
 20
49.66574478149414
 30
29.51299095153809
 70
   192
  0
VERTEX
  5
67C
  8
0
 10
10.55613613128662
 20
45.0
 30
28.23606300354004
 70
   192
  0
VERTEX
  5
67D
  8
0
 10
5.345027446746826
 20
45.0
 30
25.64980506896973
 70
   192
  0
VERTEX
  5
67E
  8
0
 10
0.9472304582595825
 20
55.82952880859375
 30
48.41553497314453
 70
   192
  0
VERTEX
  5
67F
  8
0
 10
-0.0000000001180501
 20
55.82952880859375
 30
48.49775314331055
 70
   192
  0
VERTEX
  5
680
  8
0
 10
10.60926532745361
 20
53.45230102539062
 30
44.85566329956055
 70
   192
  0
VERTEX
  5
681
  8
0
 10
5.415536880493164
 20
55.82952880859375
 30
43.94723129272461
 70
   192
  0
VERTEX
  5
682
  8
0
 10
4.896793365478516
 20
55.82952880859375
 30
45.49934005737305
 70
   192
  0
VERTEX
  5
683
  8
0
 10
3.887498140335083
 20
55.82952880859375
 30
46.88749694824219
 70
   192
  0
VERTEX
  5
684
  8
0
 10
14.9157600402832
 20
49.66574478149414
 30
45.60891342163086
 70
   192
  0
VERTEX
  5
685
  8
0
 10
2.499340057373047
 20
55.82952880859375
 30
47.89679336547852
 70
   192
  0
VERTEX
  5
686
  8
0
 10
9.593024253845215
 20
53.45230102539062
 30
47.89631271362305
 70
   192
  0
VERTEX
  5
687
  8
0
 10
7.61577320098877
 20
53.45230102539062
 30
50.61577224731445
 70
   192
  0
VERTEX
  5
688
  8
0
 10
6.883815288543701
 20
49.66574478149414
 30
56.48700714111328
 70
   192
  0
VERTEX
  5
689
  8
0
 10
5.32066535949707
 20
45.0
 30
60.34485244750977
 70
   192
  0
VERTEX
  5
68A
  8
0
 10
2.608912467956543
 20
49.66574478149414
 30
57.9157600402832
 70
   192
  0
VERTEX
  5
68B
  8
0
 10
1.855664372444153
 20
53.45230102539062
 30
53.6092643737793
 70
   192
  0
VERTEX
  5
68C
  8
0
 10
-0.0000000000001007
 20
45.0
 30
61.15048217773438
 70
   192
  0
VERTEX
  5
68D
  8
0
 10
10.54046821594238
 20
45.0
 30
57.77422714233398
 70
   192
  0
VERTEX
  5
68E
  8
0
 10
-0.0000000001541589
 20
53.45230102539062
 30
53.77032852172852
 70
   192
  0
VERTEX
  5
68F
  8
0
 10
4.896312713623047
 20
53.45230102539062
 30
52.59302520751953
 70
   192
  0
VERTEX
  5
690
  8
0
 10
-0.0000000001084017
 20
49.66574478149414
 30
58.14220428466797
 70
   192
  0
VERTEX
  5
691
  8
0
 10
10.70715427398682
 20
49.66574478149414
 30
53.7071533203125
 70
   192
  0
VERTEX
  5
692
  8
0
 10
13.48700904846191
 20
49.66574478149414
 30
49.88381576538086
 70
   192
  0
VERTEX
  5
693
  8
0
 10
14.76393699645996
 20
45.0
 30
53.55613708496094
 70
   192
  0
VERTEX
  5
694
  8
0
 10
17.35019493103027
 20
45.0
 30
48.34502792358398
 70
   192
  0
VERTEX
  5
695
  8
0
 10
-5.415536880493164
 20
55.82952880859375
 30
43.94723129272461
 70
   192
  0
VERTEX
  5
696
  8
0
 10
-5.497752666473389
 20
55.82952880859375
 30
43.0
 70
   192
  0
VERTEX
  5
697
  8
0
 10
-1.855664372444153
 20
53.45230102539062
 30
53.6092643737793
 70
   192
  0
VERTEX
  5
698
  8
0
 10
-0.9472304582595825
 20
55.82952880859375
 30
48.41553497314453
 70
   192
  0
VERTEX
  5
699
  8
0
 10
-2.499340057373047
 20
55.82952880859375
 30
47.89679336547852
 70
   192
  0
VERTEX
  5
69A
  8
0
 10
-3.887498140335083
 20
55.82952880859375
 30
46.88749694824219
 70
   192
  0
VERTEX
  5
69B
  8
0
 10
-2.608912467956543
 20
49.66574478149414
 30
57.9157600402832
 70
   192
  0
VERTEX
  5
69C
  8
0
 10
-4.896793365478516
 20
55.82952880859375
 30
45.49934005737305
 70
   192
  0
VERTEX
  5
69D
  8
0
 10
-4.896312713623047
 20
53.45230102539062
 30
52.59302520751953
 70
   192
  0
VERTEX
  5
69E
  8
0
 10
-7.61577320098877
 20
53.45230102539062
 30
50.61577224731445
 70
   192
  0
VERTEX
  5
69F
  8
0
 10
-13.48700904846191
 20
49.66574478149414
 30
49.88381576538086
 70
   192
  0
VERTEX
  5
6A0
  8
0
 10
-17.34485244750977
 20
45.0
 30
48.32066345214844
 70
   192
  0
VERTEX
  5
6A1
  8
0
 10
-14.9157600402832
 20
49.66574478149414
 30
45.60891342163086
 70
   192
  0
VERTEX
  5
6A2
  8
0
 10
-10.60926532745361
 20
53.45230102539062
 30
44.85566329956055
 70
   192
  0
VERTEX
  5
6A3
  8
0
 10
-18.15048217773438
 20
45.0
 30
43.0
 70
   192
  0
VERTEX
  5
6A4
  8
0
 10
-14.7742280960083
 20
45.0
 30
53.54046630859375
 70
   192
  0
VERTEX
  5
6A5
  8
0
 10
-10.77032947540283
 20
53.45230102539062
 30
43.0
 70
   192
  0
VERTEX
  5
6A6
  8
0
 10
-9.593024253845215
 20
53.45230102539062
 30
47.89631271362305
 70
   192
  0
VERTEX
  5
6A7
  8
0
 10
-15.14220333099365
 20
49.66574478149414
 30
43.0
 70
   192
  0
VERTEX
  5
6A8
  8
0
 10
-10.70715427398682
 20
49.66574478149414
 30
53.7071533203125
 70
   192
  0
VERTEX
  5
6A9
  8
0
 10
-6.883815288543701
 20
49.66574478149414
 30
56.48700714111328
 70
   192
  0
VERTEX
  5
6AA
  8
0
 10
-10.55613613128662
 20
45.0
 30
57.76393508911133
 70
   192
  0
VERTEX
  5
6AB
  8
0
 10
-5.345027446746826
 20
45.0
 30
60.35019302368164
 70
   192
  0
VERTEX
  5
6AC
  8
0
 10
-2.608912467956543
 20
49.66574478149414
 30
28.0842399597168
 70
   192
  0
VERTEX
  5
6AD
  8
0
 10
-1.855664372444153
 20
53.45230102539062
 30
32.3907356262207
 70
   192
  0
VERTEX
  5
6AE
  8
0
 10
-6.883815288543701
 20
49.66574478149414
 30
29.51299095153809
 70
   192
  0
VERTEX
  5
6AF
  8
0
 10
-3.887498140335083
 20
55.82952880859375
 30
39.11250305175781
 70
   192
  0
VERTEX
  5
6B0
  8
0
 10
-4.896793365478516
 20
55.82952880859375
 30
40.50065994262695
 70
   192
  0
VERTEX
  5
6B1
  8
0
 10
-9.593024253845215
 20
53.45230102539062
 30
38.10368728637695
 70
   192
  0
VERTEX
  5
6B2
  8
0
 10
-10.54046821594238
 20
45.0
 30
28.22577095031738
 70
   192
  0
VERTEX
  5
6B3
  8
0
 10
-5.32066535949707
 20
45.0
 30
25.65514755249023
 70
   192
  0
VERTEX
  5
6B4
  8
0
 10
-7.61577320098877
 20
53.45230102539062
 30
35.38422775268555
 70
   192
  0
VERTEX
  5
6B5
  8
0
 10
-2.499340057373047
 20
55.82952880859375
 30
38.10320663452148
 70
   192
  0
VERTEX
  5
6B6
  8
0
 10
-14.9157600402832
 20
49.66574478149414
 30
40.39108657836914
 70
   192
  0
VERTEX
  5
6B7
  8
0
 10
-10.60926532745361
 20
53.45230102539062
 30
41.14433670043945
 70
   192
  0
VERTEX
  5
6B8
  8
0
 10
-5.415536880493164
 20
55.82952880859375
 30
42.05276870727539
 70
   192
  0
VERTEX
  5
6B9
  8
0
 10
-0.9472304582595825
 20
55.82952880859375
 30
37.58446502685547
 70
   192
  0
VERTEX
  5
6BA
  8
0
 10
-4.896312713623047
 20
53.45230102539062
 30
33.40697479248047
 70
   192
  0
VERTEX
  5
6BB
  8
0
 10
-10.70715427398682
 20
49.66574478149414
 30
32.2928466796875
 70
   192
  0
VERTEX
  5
6BC
  8
0
 10
-13.48700904846191
 20
49.66574478149414
 30
36.11618423461914
 70
   192
  0
VERTEX
  5
6BD
  8
0
 10
-14.76393699645996
 20
45.0
 30
32.44386291503906
 70
   192
  0
VERTEX
  5
6BE
  8
0
 10
-17.35019493103027
 20
45.0
 30
37.65497207641602
 70
   192
  0
VERTEX
  5
6BF
  8
0
 62
     9
 10
0.0
 20
0.0
 30
0.0
 70
   128
 71
     3
 72
     2
 73
     1
  0
VERTEX
  5
6C0
  8
0
 62
     9
 10
0.0
 20
0.0
 30
0.0
 70
   128
 71
     6
 72
     5
 73
     4
  0
VERTEX
  5
6C1
  8
0
 62
     9
 10
0.0
 20
0.0
 30
0.0
 70
   128
 71
     3
 72
     8
 73
     7
  0
VERTEX
  5
6C2
  8
0
 62
     9
 10
0.0
 20
0.0
 30
0.0
 70
   128
 71
    11
 72
    10
 73
     9
  0
VERTEX
  5
6C3
  8
0
 62
     9
 10
0.0
 20
0.0
 30
0.0
 70
   128
 71
     1
 72
    12
 73
     3
  0
VERTEX
  5
6C4
  8
0
 62
     9
 10
0.0
 20
0.0
 30
0.0
 70
   128
 71
     8
 72
    13
 73
     7
  0
VERTEX
  5
6C5
  8
0
 62
     9
 10
0.0
 20
0.0
 30
0.0
 70
   128
 71
    12
 72
    14
 73
     8
  0
VERTEX
  5
6C6
  8
0
 62
     9
 10
0.0
 20
0.0
 30
0.0
 70
   128
 71
    13
 72
    10
 73
     4
  0
VERTEX
  5
6C7
  8
0
 62
     9
 10
0.0
 20
0.0
 30
0.0
 70
   128
 71
    17
 72
    16
 73
    15
  0
VERTEX
  5
6C8
  8
0
 62
     9
 10
0.0
 20
0.0
 30
0.0
 70
   128
 71
    15
 72
    18
 73
    17
  0
VERTEX
  5
6C9
  8
0
 62
     9
 10
0.0
 20
0.0
 30
0.0
 70
   128
 71
    17
 72
    19
 73
    16
  0
VERTEX
  5
6CA
  8
0
 62
     9
 10
0.0
 20
0.0
 30
0.0
 70
   128
 71
    15
 72
    16
 73
    20
  0
VERTEX
  5
6CB
  8
0
 62
     9
 10
0.0
 20
0.0
 30
0.0
 70
   128
 71
     2
 72
    21
 73
    18
  0
VERTEX
  5
6CC
  8
0
 62
     9
 10
0.0
 20
0.0
 30
0.0
 70
   128
 71
     8
 72
     3
 73
    12
  0
VERTEX
  5
6CD
  8
0
 62
     9
 10
0.0
 20
0.0
 30
0.0
 70
   128
 71
     2
 72
    18
 73
     1
  0
VERTEX
  5
6CE
  8
0
 62
     9
 10
0.0
 20
0.0
 30
0.0
 70
   128
 71
    14
 72
    12
 73
    22
  0
VERTEX
  5
6CF
  8
0
 62
     9
 10
0.0
 20
0.0
 30
0.0
 70
   128
 71
    14
 72
    13
 73
     8
  0
VERTEX
  5
6D0
  8
0
 62
     9
 10
0.0
 20
0.0
 30
0.0
 70
   128
 71
     3
 72
     5
 73
    23
  0
VERTEX
  5
6D1
  8
0
 62
     9
 10
0.0
 20
0.0
 30
0.0
 70
   128
 71
     5
 72
     3
 73
     7
  0
VERTEX
  5
6D2
  8
0
 62
     9
 10
0.0
 20
0.0
 30
0.0
 70
   128
 71
     7
 72
    13
 73
     4
  0
VERTEX
  5
6D3
  8
0
 62
     9
 10
0.0
 20
0.0
 30
0.0
 70
   128
 71
    23
 72
     5
 73
     6
  0
VERTEX
  5
6D4
  8
0
 62
     9
 10
0.0
 20
0.0
 30
0.0
 70
   128
 71
    22
 72
     1
 73
    18
  0
VERTEX
  5
6D5
  8
0
 62
     9
 10
0.0
 20
0.0
 30
0.0
 70
   128
 71
    24
 72
    17
 73
    21
  0
VERTEX
  5
6D6
  8
0
 62
     9
 10
0.0
 20
0.0
 30
0.0
 70
   128
 71
    22
 72
    25
 73
    14
  0
VERTEX
  5
6D7
  8
0
 62
     9
 10
0.0
 20
0.0
 30
0.0
 70
   128
 71
    22
 72
    12
 73
     1
  0
VERTEX
  5
6D8
  8
0
 62
     9
 10
0.0
 20
0.0
 30
0.0
 70
   128
 71
    15
 72
    25
 73
    22
  0
VERTEX
  5
6D9
  8
0
 62
     9
 10
0.0
 20
0.0
 30
0.0
 70
   128
 71
    14
 72
    26
 73
    13
  0
VERTEX
  5
6DA
  8
0
 62
     9
 10
0.0
 20
0.0
 30
0.0
 70
   128
 71
    14
 72
    25
 73
    26
  0
VERTEX
  5
6DB
  8
0
 62
     9
 10
0.0
 20
0.0
 30
0.0
 70
   128
 71
     5
 72
     7
 73
     4
  0
VERTEX
  5
6DC
  8
0
 62
     9
 10
0.0
 20
0.0
 30
0.0
 70
   128
 71
    13
 72
    26
 73
    10
  0
VERTEX
  5
6DD
  8
0
 62
     9
 10
0.0
 20
0.0
 30
0.0
 70
   128
 71
     6
 72
     4
 73
    11
  0
VERTEX
  5
6DE
  8
0
 62
     9
 10
0.0
 20
0.0
 30
0.0
 70
   128
 71
    17
 72
    18
 73
    21
  0
VERTEX
  5
6DF
  8
0
 62
     9
 10
0.0
 20
0.0
 30
0.0
 70
   128
 71
    17
 72
    24
 73
    19
  0
VERTEX
  5
6E0
  8
0
 62
     9
 10
0.0
 20
0.0
 30
0.0
 70
   128
 71
    27
 72
    25
 73
    20
  0
VERTEX
  5
6E1
  8
0
 62
     9
 10
0.0
 20
0.0
 30
0.0
 70
   128
 71
    15
 72
    22
 73
    18
  0
VERTEX
  5
6E2
  8
0
 62
     9
 10
0.0
 20
0.0
 30
0.0
 70
   128
 71
    25
 72
    15
 73
    20
  0
VERTEX
  5
6E3
  8
0
 62
     9
 10
0.0
 20
0.0
 30
0.0
 70
   128
 71
    28
 72
    26
 73
    27
  0
VERTEX
  5
6E4
  8
0
 62
     9
 10
0.0
 20
0.0
 30
0.0
 70
   128
 71
    26
 72
    25
 73
    27
  0
VERTEX
  5
6E5
  8
0
 62
     9
 10
0.0
 20
0.0
 30
0.0
 70
   128
 71
    10
 72
    11
 73
     4
  0
VERTEX
  5
6E6
  8
0
 62
     9
 10
0.0
 20
0.0
 30
0.0
 70
   128
 71
    28
 72
    10
 73
    26
  0
VERTEX
  5
6E7
  8
0
 62
     9
 10
0.0
 20
0.0
 30
0.0
 70
   128
 71
    10
 72
    28
 73
     9
  0
VERTEX
  5
6E8
  8
0
 62
     9
 10
0.0
 20
0.0
 30
0.0
 70
   128
 71
     3
 72
    30
 73
    29
  0
VERTEX
  5
6E9
  8
0
 62
     9
 10
0.0
 20
0.0
 30
0.0
 70
   128
 71
    21
 72
    32
 73
    31
  0
VERTEX
  5
6EA
  8
0
 62
     9
 10
0.0
 20
0.0
 30
0.0
 70
   128
 71
     3
 72
    34
 73
    33
  0
VERTEX
  5
6EB
  8
0
 62
     9
 10
0.0
 20
0.0
 30
0.0
 70
   128
 71
    24
 72
    35
 73
    19
  0
VERTEX
  5
6EC
  8
0
 62
     9
 10
0.0
 20
0.0
 30
0.0
 70
   128
 71
    29
 72
    36
 73
     3
  0
VERTEX
  5
6ED
  8
0
 62
     9
 10
0.0
 20
0.0
 30
0.0
 70
   128
 71
    34
 72
    37
 73
    33
  0
VERTEX
  5
6EE
  8
0
 62
     9
 10
0.0
 20
0.0
 30
0.0
 70
   128
 71
    36
 72
    38
 73
    34
  0
VERTEX
  5
6EF
  8
0
 62
     9
 10
0.0
 20
0.0
 30
0.0
 70
   128
 71
    37
 72
    35
 73
    31
  0
VERTEX
  5
6F0
  8
0
 62
     9
 10
0.0
 20
0.0
 30
0.0
 70
   128
 71
    41
 72
    40
 73
    39
  0
VERTEX
  5
6F1
  8
0
 62
     9
 10
0.0
 20
0.0
 30
0.0
 70
   128
 71
    39
 72
    42
 73
    41
  0
VERTEX
  5
6F2
  8
0
 62
     9
 10
0.0
 20
0.0
 30
0.0
 70
   128
 71
    41
 72
    43
 73
    40
  0
VERTEX
  5
6F3
  8
0
 62
     9
 10
0.0
 20
0.0
 30
0.0
 70
   128
 71
    39
 72
    40
 73
    44
  0
VERTEX
  5
6F4
  8
0
 62
     9
 10
0.0
 20
0.0
 30
0.0
 70
   128
 71
    30
 72
    45
 73
    42
  0
VERTEX
  5
6F5
  8
0
 62
     9
 10
0.0
 20
0.0
 30
0.0
 70
   128
 71
    34
 72
     3
 73
    36
  0
VERTEX
  5
6F6
  8
0
 62
     9
 10
0.0
 20
0.0
 30
0.0
 70
   128
 71
    30
 72
    42
 73
    29
  0
VERTEX
  5
6F7
  8
0
 62
     9
 10
0.0
 20
0.0
 30
0.0
 70
   128
 71
    38
 72
    36
 73
    46
  0
VERTEX
  5
6F8
  8
0
 62
     9
 10
0.0
 20
0.0
 30
0.0
 70
   128
 71
    38
 72
    37
 73
    34
  0
VERTEX
  5
6F9
  8
0
 62
     9
 10
0.0
 20
0.0
 30
0.0
 70
   128
 71
     3
 72
    32
 73
     2
  0
VERTEX
  5
6FA
  8
0
 62
     9
 10
0.0
 20
0.0
 30
0.0
 70
   128
 71
    32
 72
     3
 73
    33
  0
VERTEX
  5
6FB
  8
0
 62
     9
 10
0.0
 20
0.0
 30
0.0
 70
   128
 71
    33
 72
    37
 73
    31
  0
VERTEX
  5
6FC
  8
0
 62
     9
 10
0.0
 20
0.0
 30
0.0
 70
   128
 71
     2
 72
    32
 73
    21
  0
VERTEX
  5
6FD
  8
0
 62
     9
 10
0.0
 20
0.0
 30
0.0
 70
   128
 71
    46
 72
    29
 73
    42
  0
VERTEX
  5
6FE
  8
0
 62
     9
 10
0.0
 20
0.0
 30
0.0
 70
   128
 71
    47
 72
    41
 73
    45
  0
VERTEX
  5
6FF
  8
0
 62
     9
 10
0.0
 20
0.0
 30
0.0
 70
   128
 71
    46
 72
    48
 73
    38
  0
VERTEX
  5
700
  8
0
 62
     9
 10
0.0
 20
0.0
 30
0.0
 70
   128
 71
    46
 72
    36
 73
    29
  0
VERTEX
  5
701
  8
0
 62
     9
 10
0.0
 20
0.0
 30
0.0
 70
   128
 71
    39
 72
    48
 73
    46
  0
VERTEX
  5
702
  8
0
 62
     9
 10
0.0
 20
0.0
 30
0.0
 70
   128
 71
    38
 72
    49
 73
    37
  0
VERTEX
  5
703
  8
0
 62
     9
 10
0.0
 20
0.0
 30
0.0
 70
   128
 71
    38
 72
    48
 73
    49
  0
VERTEX
  5
704
  8
0
 62
     9
 10
0.0
 20
0.0
 30
0.0
 70
   128
 71
    32
 72
    33
 73
    31
  0
VERTEX
  5
705
  8
0
 62
     9
 10
0.0
 20
0.0
 30
0.0
 70
   128
 71
    37
 72
    49
 73
    35
  0
VERTEX
  5
706
  8
0
 62
     9
 10
0.0
 20
0.0
 30
0.0
 70
   128
 71
    21
 72
    31
 73
    24
  0
VERTEX
  5
707
  8
0
 62
     9
 10
0.0
 20
0.0
 30
0.0
 70
   128
 71
    41
 72
    42
 73
    45
  0
VERTEX
  5
708
  8
0
 62
     9
 10
0.0
 20
0.0
 30
0.0
 70
   128
 71
    41
 72
    47
 73
    43
  0
VERTEX
  5
709
  8
0
 62
     9
 10
0.0
 20
0.0
 30
0.0
 70
   128
 71
    50
 72
    48
 73
    44
  0
VERTEX
  5
70A
  8
0
 62
     9
 10
0.0
 20
0.0
 30
0.0
 70
   128
 71
    39
 72
    46
 73
    42
  0
VERTEX
  5
70B
  8
0
 62
     9
 10
0.0
 20
0.0
 30
0.0
 70
   128
 71
    48
 72
    39
 73
    44
  0
VERTEX
  5
70C
  8
0
 62
     9
 10
0.0
 20
0.0
 30
0.0
 70
   128
 71
    51
 72
    49
 73
    50
  0
VERTEX
  5
70D
  8
0
 62
     9
 10
0.0
 20
0.0
 30
0.0
 70
   128
 71
    49
 72
    48
 73
    50
  0
VERTEX
  5
70E
  8
0
 62
     9
 10
0.0
 20
0.0
 30
0.0
 70
   128
 71
    35
 72
    24
 73
    31
  0
VERTEX
  5
70F
  8
0
 62
     9
 10
0.0
 20
0.0
 30
0.0
 70
   128
 71
    51
 72
    35
 73
    49
  0
VERTEX
  5
710
  8
0
 62
     9
 10
0.0
 20
0.0
 30
0.0
 70
   128
 71
    35
 72
    51
 73
    19
  0
VERTEX
  5
711
  8
0
 62
     9
 10
0.0
 20
0.0
 30
0.0
 70
   128
 71
     3
 72
    53
 73
    52
  0
VERTEX
  5
712
  8
0
 62
     9
 10
0.0
 20
0.0
 30
0.0
 70
   128
 71
    45
 72
    55
 73
    54
  0
VERTEX
  5
713
  8
0
 62
     9
 10
0.0
 20
0.0
 30
0.0
 70
   128
 71
     3
 72
    57
 73
    56
  0
VERTEX
  5
714
  8
0
 62
     9
 10
0.0
 20
0.0
 30
0.0
 70
   128
 71
    47
 72
    58
 73
    43
  0
VERTEX
  5
715
  8
0
 62
     9
 10
0.0
 20
0.0
 30
0.0
 70
   128
 71
    52
 72
    59
 73
     3
  0
VERTEX
  5
716
  8
0
 62
     9
 10
0.0
 20
0.0
 30
0.0
 70
   128
 71
    57
 72
    60
 73
    56
  0
VERTEX
  5
717
  8
0
 62
     9
 10
0.0
 20
0.0
 30
0.0
 70
   128
 71
    59
 72
    61
 73
    57
  0
VERTEX
  5
718
  8
0
 62
     9
 10
0.0
 20
0.0
 30
0.0
 70
   128
 71
    60
 72
    58
 73
    54
  0
VERTEX
  5
719
  8
0
 62
     9
 10
0.0
 20
0.0
 30
0.0
 70
   128
 71
    64
 72
    63
 73
    62
  0
VERTEX
  5
71A
  8
0
 62
     9
 10
0.0
 20
0.0
 30
0.0
 70
   128
 71
    62
 72
    65
 73
    64
  0
VERTEX
  5
71B
  8
0
 62
     9
 10
0.0
 20
0.0
 30
0.0
 70
   128
 71
    64
 72
    66
 73
    63
  0
VERTEX
  5
71C
  8
0
 62
     9
 10
0.0
 20
0.0
 30
0.0
 70
   128
 71
    62
 72
    63
 73
    67
  0
VERTEX
  5
71D
  8
0
 62
     9
 10
0.0
 20
0.0
 30
0.0
 70
   128
 71
    53
 72
    68
 73
    65
  0
VERTEX
  5
71E
  8
0
 62
     9
 10
0.0
 20
0.0
 30
0.0
 70
   128
 71
    57
 72
     3
 73
    59
  0
VERTEX
  5
71F
  8
0
 62
     9
 10
0.0
 20
0.0
 30
0.0
 70
   128
 71
    53
 72
    65
 73
    52
  0
VERTEX
  5
720
  8
0
 62
     9
 10
0.0
 20
0.0
 30
0.0
 70
   128
 71
    61
 72
    59
 73
    69
  0
VERTEX
  5
721
  8
0
 62
     9
 10
0.0
 20
0.0
 30
0.0
 70
   128
 71
    61
 72
    60
 73
    57
  0
VERTEX
  5
722
  8
0
 62
     9
 10
0.0
 20
0.0
 30
0.0
 70
   128
 71
     3
 72
    55
 73
    30
  0
VERTEX
  5
723
  8
0
 62
     9
 10
0.0
 20
0.0
 30
0.0
 70
   128
 71
    55
 72
     3
 73
    56
  0
VERTEX
  5
724
  8
0
 62
     9
 10
0.0
 20
0.0
 30
0.0
 70
   128
 71
    56
 72
    60
 73
    54
  0
VERTEX
  5
725
  8
0
 62
     9
 10
0.0
 20
0.0
 30
0.0
 70
   128
 71
    30
 72
    55
 73
    45
  0
VERTEX
  5
726
  8
0
 62
     9
 10
0.0
 20
0.0
 30
0.0
 70
   128
 71
    69
 72
    52
 73
    65
  0
VERTEX
  5
727
  8
0
 62
     9
 10
0.0
 20
0.0
 30
0.0
 70
   128
 71
    70
 72
    64
 73
    68
  0
VERTEX
  5
728
  8
0
 62
     9
 10
0.0
 20
0.0
 30
0.0
 70
   128
 71
    69
 72
    71
 73
    61
  0
VERTEX
  5
729
  8
0
 62
     9
 10
0.0
 20
0.0
 30
0.0
 70
   128
 71
    69
 72
    59
 73
    52
  0
VERTEX
  5
72A
  8
0
 62
     9
 10
0.0
 20
0.0
 30
0.0
 70
   128
 71
    62
 72
    71
 73
    69
  0
VERTEX
  5
72B
  8
0
 62
     9
 10
0.0
 20
0.0
 30
0.0
 70
   128
 71
    61
 72
    72
 73
    60
  0
VERTEX
  5
72C
  8
0
 62
     9
 10
0.0
 20
0.0
 30
0.0
 70
   128
 71
    61
 72
    71
 73
    72
  0
VERTEX
  5
72D
  8
0
 62
     9
 10
0.0
 20
0.0
 30
0.0
 70
   128
 71
    55
 72
    56
 73
    54
  0
VERTEX
  5
72E
  8
0
 62
     9
 10
0.0
 20
0.0
 30
0.0
 70
   128
 71
    60
 72
    72
 73
    58
  0
VERTEX
  5
72F
  8
0
 62
     9
 10
0.0
 20
0.0
 30
0.0
 70
   128
 71
    45
 72
    54
 73
    47
  0
VERTEX
  5
730
  8
0
 62
     9
 10
0.0
 20
0.0
 30
0.0
 70
   128
 71
    64
 72
    65
 73
    68
  0
VERTEX
  5
731
  8
0
 62
     9
 10
0.0
 20
0.0
 30
0.0
 70
   128
 71
    64
 72
    70
 73
    66
  0
VERTEX
  5
732
  8
0
 62
     9
 10
0.0
 20
0.0
 30
0.0
 70
   128
 71
    73
 72
    71
 73
    67
  0
VERTEX
  5
733
  8
0
 62
     9
 10
0.0
 20
0.0
 30
0.0
 70
   128
 71
    62
 72
    69
 73
    65
  0
VERTEX
  5
734
  8
0
 62
     9
 10
0.0
 20
0.0
 30
0.0
 70
   128
 71
    71
 72
    62
 73
    67
  0
VERTEX
  5
735
  8
0
 62
     9
 10
0.0
 20
0.0
 30
0.0
 70
   128
 71
    74
 72
    72
 73
    73
  0
VERTEX
  5
736
  8
0
 62
     9
 10
0.0
 20
0.0
 30
0.0
 70
   128
 71
    72
 72
    71
 73
    73
  0
VERTEX
  5
737
  8
0
 62
     9
 10
0.0
 20
0.0
 30
0.0
 70
   128
 71
    58
 72
    47
 73
    54
  0
VERTEX
  5
738
  8
0
 62
     9
 10
0.0
 20
0.0
 30
0.0
 70
   128
 71
    74
 72
    58
 73
    72
  0
VERTEX
  5
739
  8
0
 62
     9
 10
0.0
 20
0.0
 30
0.0
 70
   128
 71
    58
 72
    74
 73
    43
  0
VERTEX
  5
73A
  8
0
 62
     9
 10
0.0
 20
0.0
 30
0.0
 70
   128
 71
    77
 72
    76
 73
    75
  0
VERTEX
  5
73B
  8
0
 62
     9
 10
0.0
 20
0.0
 30
0.0
 70
   128
 71
    80
 72
    79
 73
    78
  0
VERTEX
  5
73C
  8
0
 62
     9
 10
0.0
 20
0.0
 30
0.0
 70
   128
 71
    77
 72
    82
 73
    81
  0
VERTEX
  5
73D
  8
0
 62
     9
 10
0.0
 20
0.0
 30
0.0
 70
   128
 71
    82
 72
    77
 73
    75
  0
VERTEX
  5
73E
  8
0
 62
     9
 10
0.0
 20
0.0
 30
0.0
 70
   128
 71
    78
 72
    84
 73
    83
  0
VERTEX
  5
73F
  8
0
 62
     9
 10
0.0
 20
0.0
 30
0.0
 70
   128
 71
    82
 72
    75
 73
     9
  0
VERTEX
  5
740
  8
0
 62
     9
 10
0.0
 20
0.0
 30
0.0
 70
   128
 71
    85
 72
    66
 73
    70
  0
VERTEX
  5
741
  8
0
 62
     9
 10
0.0
 20
0.0
 30
0.0
 70
   128
 71
    87
 72
    86
 73
    68
  0
VERTEX
  5
742
  8
0
 62
     9
 10
0.0
 20
0.0
 30
0.0
 70
   128
 71
     3
 72
    78
 73
    79
  0
VERTEX
  5
743
  8
0
 62
     9
 10
0.0
 20
0.0
 30
0.0
 70
   128
 71
    85
 72
    86
 73
    80
  0
VERTEX
  5
744
  8
0
 62
     9
 10
0.0
 20
0.0
 30
0.0
 70
   128
 71
     3
 72
    88
 73
    84
  0
VERTEX
  5
745
  8
0
 62
     9
 10
0.0
 20
0.0
 30
0.0
 70
   128
 71
    88
 72
    23
 73
    76
  0
VERTEX
  5
746
  8
0
 62
     9
 10
0.0
 20
0.0
 30
0.0
 70
   128
 71
    23
 72
    88
 73
     3
  0
VERTEX
  5
747
  8
0
 62
     9
 10
0.0
 20
0.0
 30
0.0
 70
   128
 71
    23
 72
     6
 73
    76
  0
VERTEX
  5
748
  8
0
 62
     9
 10
0.0
 20
0.0
 30
0.0
 70
   128
 71
    78
 72
     3
 73
    84
  0
VERTEX
  5
749
  8
0
 62
     9
 10
0.0
 20
0.0
 30
0.0
 70
   128
 71
    83
 72
    84
 73
    89
  0
VERTEX
  5
74A
  8
0
 62
     9
 10
0.0
 20
0.0
 30
0.0
 70
   128
 71
    83
 72
    80
 73
    78
  0
VERTEX
  5
74B
  8
0
 62
     9
 10
0.0
 20
0.0
 30
0.0
 70
   128
 71
     3
 72
    87
 73
    53
  0
VERTEX
  5
74C
  8
0
 62
     9
 10
0.0
 20
0.0
 30
0.0
 70
   128
 71
    87
 72
     3
 73
    79
  0
VERTEX
  5
74D
  8
0
 62
     9
 10
0.0
 20
0.0
 30
0.0
 70
   128
 71
    79
 72
    80
 73
    86
  0
VERTEX
  5
74E
  8
0
 62
     9
 10
0.0
 20
0.0
 30
0.0
 70
   128
 71
    53
 72
    87
 73
    68
  0
VERTEX
  5
74F
  8
0
 62
     9
 10
0.0
 20
0.0
 30
0.0
 70
   128
 71
    89
 72
    88
 73
    76
  0
VERTEX
  5
750
  8
0
 62
     9
 10
0.0
 20
0.0
 30
0.0
 70
   128
 71
    11
 72
    75
 73
     6
  0
VERTEX
  5
751
  8
0
 62
     9
 10
0.0
 20
0.0
 30
0.0
 70
   128
 71
    89
 72
    90
 73
    83
  0
VERTEX
  5
752
  8
0
 62
     9
 10
0.0
 20
0.0
 30
0.0
 70
   128
 71
    89
 72
    84
 73
    88
  0
VERTEX
  5
753
  8
0
 62
     9
 10
0.0
 20
0.0
 30
0.0
 70
   128
 71
    77
 72
    90
 73
    89
  0
VERTEX
  5
754
  8
0
 62
     9
 10
0.0
 20
0.0
 30
0.0
 70
   128
 71
    83
 72
    91
 73
    80
  0
VERTEX
  5
755
  8
0
 62
     9
 10
0.0
 20
0.0
 30
0.0
 70
   128
 71
    83
 72
    90
 73
    91
  0
VERTEX
  5
756
  8
0
 62
     9
 10
0.0
 20
0.0
 30
0.0
 70
   128
 71
    87
 72
    79
 73
    86
  0
VERTEX
  5
757
  8
0
 62
     9
 10
0.0
 20
0.0
 30
0.0
 70
   128
 71
    80
 72
    91
 73
    85
  0
VERTEX
  5
758
  8
0
 62
     9
 10
0.0
 20
0.0
 30
0.0
 70
   128
 71
    68
 72
    86
 73
    70
  0
VERTEX
  5
759
  8
0
 62
     9
 10
0.0
 20
0.0
 30
0.0
 70
   128
 71
    75
 72
    76
 73
     6
  0
VERTEX
  5
75A
  8
0
 62
     9
 10
0.0
 20
0.0
 30
0.0
 70
   128
 71
    75
 72
    11
 73
     9
  0
VERTEX
  5
75B
  8
0
 62
     9
 10
0.0
 20
0.0
 30
0.0
 70
   128
 71
    92
 72
    90
 73
    81
  0
VERTEX
  5
75C
  8
0
 62
     9
 10
0.0
 20
0.0
 30
0.0
 70
   128
 71
    77
 72
    89
 73
    76
  0
VERTEX
  5
75D
  8
0
 62
     9
 10
0.0
 20
0.0
 30
0.0
 70
   128
 71
    90
 72
    77
 73
    81
  0
VERTEX
  5
75E
  8
0
 62
     9
 10
0.0
 20
0.0
 30
0.0
 70
   128
 71
    93
 72
    91
 73
    92
  0
VERTEX
  5
75F
  8
0
 62
     9
 10
0.0
 20
0.0
 30
0.0
 70
   128
 71
    91
 72
    90
 73
    92
  0
VERTEX
  5
760
  8
0
 62
     9
 10
0.0
 20
0.0
 30
0.0
 70
   128
 71
    85
 72
    70
 73
    86
  0
VERTEX
  5
761
  8
0
 62
     9
 10
0.0
 20
0.0
 30
0.0
 70
   128
 71
    93
 72
    85
 73
    91
  0
VERTEX
  5
762
  8
0
 62
     9
 10
0.0
 20
0.0
 30
0.0
 70
   128
 71
    85
 72
    93
 73
    66
  0
SEQEND
  5
763
  8
0
 62
     9
  0
ENDBLK
  5
766
  8
0
  0
ENDSEC
  0
SECTION
  2
ENTITIES
  0
INSERT
  5
EA
  8
LAYER_1
  2
38
 10
0.0
 20
0.0
 30
0.0
  0
INSERT
  5
193
  8
LAYER_1
  2
39
 10
0.0
 20
0.0
 30
0.0
  0
INSERT
  5
26B
  8
LAYER_1
  2
1
 10
0.0
 20
0.0
 30
0.0
  0
INSERT
  5
29B
  8
LAYER_1
  2
1_1_
 10
0.0
 20
0.0
 30
0.0
  0
INSERT
  5
50E
  8
LAYER_1
  2
401813038
 10
0.0
 20
0.0
 30
0.0
  0
INSERT
  5
643
  8
LAYER_1
  2
43
 10
0.0
 20
0.0
 30
0.0
  0
INSERT
  5
65D
  8
LAYER_1
  2
44
 10
0.0
 20
0.0
 30
0.0
  0
INSERT
  5
764
  8
LAYER_1
  2
45
 10
0.0
 20
0.0
 30
0.0
  0
ENDSEC
  0
EOF
