  0
SECTION
  2
HEADER
  9
$ACADVER
  1
AC1009
  9
$DWGCODEPAGE
  3
ansi_1252
  9
$INSBASE
 10
0.0
 20
0.0
 30
0.0
  9
$EXTMIN
 10
1.000000000000000E+20
 20
1.000000000000000E+20
 30
1.000000000000000E+20
  9
$EXTMAX
 10
-1.000000000000000E+20
 20
-1.000000000000000E+20
 30
-1.000000000000000E+20
  9
$LIMMIN
 10
0.0
 20
0.0
  9
$LIMMAX
 10
12.0
 20
9.0
  9
$ORTHOMODE
 70
     0
  9
$REGENMODE
 70
     1
  9
$FILLMODE
 70
     1
  9
$QTEXTMODE
 70
     0
  9
$MIRRTEXT
 70
     1
  9
$DRAGMODE
 70
     2
  9
$LTSCALE
 40
1.0
  9
$OSMODE
 70
    37
  9
$ATTMODE
 70
     1
  9
$TEXTSIZE
 40
0.2
  9
$TRACEWID
 40
0.05
  9
$TEXTSTYLE
  7
STANDARD
  9
$CLAYER
  8
0
  9
$CELTYPE
  6
BYLAYER
  9
$CECOLOR
 62
   256
  9
$DIMSCALE
 40
1.0
  9
$DIMASZ
 40
0.18
  9
$DIMEXO
 40
0.0625
  9
$DIMDLI
 40
0.38
  9
$DIMRND
 40
0.0
  9
$DIMDLE
 40
0.0
  9
$DIMEXE
 40
0.18
  9
$DIMTP
 40
0.0
  9
$DIMTM
 40
0.0
  9
$DIMTXT
 40
0.18
  9
$DIMCEN
 40
0.09
  9
$DIMTSZ
 40
0.0
  9
$DIMTOL
 70
     0
  9
$DIMLIM
 70
     0
  9
$DIMTIH
 70
     1
  9
$DIMTOH
 70
     1
  9
$DIMSE1
 70
     0
  9
$DIMSE2
 70
     0
  9
$DIMTAD
 70
     0
  9
$DIMZIN
 70
     0
  9
$DIMBLK
  1

  9
$DIMASO
 70
     1
  9
$DIMSHO
 70
     1
  9
$DIMPOST
  1

  9
$DIMAPOST
  1

  9
$DIMALT
 70
     0
  9
$DIMALTD
 70
     2
  9
$DIMALTF
 40
25.4
  9
$DIMLFAC
 40
1.0
  9
$DIMTOFL
 70
     0
  9
$DIMTVP
 40
0.0
  9
$DIMTIX
 70
     0
  9
$DIMSOXD
 70
     0
  9
$DIMSAH
 70
     0
  9
$DIMBLK1
  1

  9
$DIMBLK2
  1

  9
$DIMSTYLE
  2
STANDARD
  9
$DIMCLRD
 70
     0
  9
$DIMCLRE
 70
     0
  9
$DIMCLRT
 70
     0
  9
$DIMTFAC
 40
1.0
  9
$DIMGAP
 40
0.09
  9
$LUNITS
 70
     2
  9
$LUPREC
 70
     4
  9
$SKETCHINC
 40
0.1
  9
$FILLETRAD
 40
0.5
  9
$AUNITS
 70
     0
  9
$AUPREC
 70
     0
  9
$MENU
  1
.
  9
$ELEVATION
 40
0.0
  9
$PELEVATION
 40
0.0
  9
$THICKNESS
 40
0.0
  9
$LIMCHECK
 70
     0
  9
$CHAMFERA
 40
0.5
  9
$CHAMFERB
 40
0.5
  9
$SKPOLY
 70
     0
  9
$TDCREATE
 40
2455842.349545949
  9
$TDUPDATE
 40
2455842.349545949
  9
$TDINDWG
 40
0.0000000116
  9
$TDUSRTIMER
 40
0.0000000116
  9
$USRTIMER
 70
     1
  9
$ANGBASE
 50
0.0
  9
$ANGDIR
 70
     0
  9
$PDMODE
 70
     0
  9
$PDSIZE
 40
0.0
  9
$PLINEWID
 40
0.0
  9
$COORDS
 70
     1
  9
$SPLFRAME
 70
     0
  9
$SPLINETYPE
 70
     6
  9
$SPLINESEGS
 70
     8
  9
$ATTDIA
 70
     0
  9
$ATTREQ
 70
     1
  9
$HANDLING
 70
     1
  9
$HANDSEED
  5
64E
  9
$SURFTAB1
 70
     6
  9
$SURFTAB2
 70
     6
  9
$SURFTYPE
 70
     6
  9
$SURFU
 70
     6
  9
$SURFV
 70
     6
  9
$UCSNAME
  2

  9
$UCSORG
 10
0.0
 20
0.0
 30
0.0
  9
$UCSXDIR
 10
1.0
 20
0.0
 30
0.0
  9
$UCSYDIR
 10
0.0
 20
1.0
 30
0.0
  9
$PUCSNAME
  2

  9
$PUCSORG
 10
0.0
 20
0.0
 30
0.0
  9
$PUCSXDIR
 10
1.0
 20
0.0
 30
0.0
  9
$PUCSYDIR
 10
0.0
 20
1.0
 30
0.0
  9
$USERI1
 70
     0
  9
$USERI2
 70
     0
  9
$USERI3
 70
     0
  9
$USERI4
 70
     0
  9
$USERI5
 70
     0
  9
$USERR1
 40
0.0
  9
$USERR2
 40
0.0
  9
$USERR3
 40
0.0
  9
$USERR4
 40
0.0
  9
$USERR5
 40
0.0
  9
$WORLDVIEW
 70
     1
  9
$SHADEDGE
 70
     3
  9
$SHADEDIF
 70
    70
  9
$TILEMODE
 70
     1
  9
$MAXACTVP
 70
    64
  9
$PLIMCHECK
 70
     0
  9
$PEXTMIN
 10
1.000000000000000E+20
 20
1.000000000000000E+20
 30
1.000000000000000E+20
  9
$PEXTMAX
 10
-1.000000000000000E+20
 20
-1.000000000000000E+20
 30
-1.000000000000000E+20
  9
$PLIMMIN
 10
0.0
 20
0.0
  9
$PLIMMAX
 10
12.0
 20
9.0
  9
$UNITMODE
 70
     0
  9
$VISRETAIN
 70
     1
  9
$PLINEGEN
 70
     0
  9
$PSLTSCALE
 70
     1
  0
ENDSEC
  0
SECTION
  2
TABLES
  0
TABLE
  2
VPORT
 70
     1
  0
VPORT
  2
*ACTIVE
 70
     0
 10
0.0
 20
0.0
 11
1.0
 21
1.0
 12
0.0
 22
0.0
 13
0.0
 23
0.0
 14
0.5
 24
0.5
 15
0.5
 25
0.5
 16
271.1640319824219
 26
-370.6280212402344
 36
160.5215759277344
 17
88.67391967773438
 27
-105.2446899414062
 37
4.839859008789062
 40
197.3724411342457
 41
1.972972972850329
 42
50.0
 43
0.0
 44
0.0
 50
0.0
 51
0.0
 71
     0
 72
   100
 73
     1
 74
     3
 75
     0
 76
     0
 77
     0
 78
     0
  0
ENDTAB
  0
TABLE
  2
LTYPE
 70
     1
  0
LTYPE
  2
CONTINUOUS
 70
     0
  3
Solid line
 72
    65
 73
     0
 40
0.0
  0
ENDTAB
  0
TABLE
  2
LAYER
 70
     2
  0
LAYER
  2
0
 70
     0
 62
     7
  6
CONTINUOUS
  0
LAYER
  2
LAYER_1
 70
     0
 62
     7
  6
CONTINUOUS
  0
ENDTAB
  0
TABLE
  2
STYLE
 70
     1
  0
STYLE
  2
STANDARD
 70
     0
 40
0.0
 41
1.0
 50
0.0
 71
     0
 42
0.2
  3
txt
  4

  0
ENDTAB
  0
TABLE
  2
VIEW
 70
     0
  0
ENDTAB
  0
TABLE
  2
UCS
 70
     0
  0
ENDTAB
  0
TABLE
  2
APPID
 70
     1
  0
APPID
  2
ACAD
 70
     0
  0
ENDTAB
  0
TABLE
  2
DIMSTYLE
 70
     1
  0
DIMSTYLE
  2
STANDARD
 70
     0
  3

  4

  5

  6

  7

 40
1.0
 41
0.18
 42
0.0625
 43
0.38
 44
0.18
 45
0.0
 46
0.0
 47
0.0
 48
0.0
140
0.18
141
0.09
142
0.0
143
25.4
144
1.0
145
0.0
146
1.0
147
0.09
 71
     0
 72
     0
 73
     1
 74
     1
 75
     0
 76
     0
 77
     0
 78
     0
170
     0
171
     2
172
     0
173
     0
174
     0
175
     0
176
     0
177
     0
178
     0
  0
ENDTAB
  0
ENDSEC
  0
SECTION
  2
BLOCKS
  0
BLOCK
  8
0
  2
$MODEL_SPACE
 70
     0
 10
0.0
 20
0.0
 30
0.0
  3
$MODEL_SPACE
  1

  0
ENDBLK
  5
21
  8
0
  0
BLOCK
 67
     1
  8
0
  2
$PAPER_SPACE
 70
     0
 10
0.0
 20
0.0
 30
0.0
  3
$PAPER_SPACE
  1

  0
ENDBLK
  5
1D
 67
     1
  8
0
  0
BLOCK
  8
0
  2
100716_VERIS_THM_HANDLE05_
 70
     0
 10
0.0
 20
0.0
 30
0.0
  3
100716_VERIS_THM_HANDLE05_
  1

  0
POLYLINE
  5
3F
  8
0
 66
     1
 10
0.0
 20
0.0
 30
0.0
 70
    64
 71
    54
 72
    81
  0
VERTEX
  5
40
  8
0
 10
87.40526580810547
 20
1.476347804069519
 30
-14.84996032714844
 70
   192
  0
VERTEX
  5
41
  8
0
 10
83.65275573730469
 20
-1.291254281997681
 30
-29.5745849609375
 70
   192
  0
VERTEX
  5
42
  8
0
 10
85.43907928466797
 20
-9.637840270996094
 30
-27.91202735900879
 70
   192
  0
VERTEX
  5
43
  8
0
 10
85.44043731689453
 20
-21.3001880645752
 30
-19.51802635192871
 70
   192
  0
VERTEX
  5
44
  8
0
 10
87.4452896118164
 20
-10.68735313415527
 30
-9.7931547164917
 70
   192
  0
VERTEX
  5
45
  8
0
 10
83.65275573730469
 20
-17.17824935913086
 30
-24.10873603820801
 70
   192
  0
VERTEX
  5
46
  8
0
 10
87.40755462646484
 20
-6.274665355682373
 30
-13.5361967086792
 70
   192
  0
VERTEX
  5
47
  8
0
 10
83.65275573730469
 20
5.11382007598877
 30
-29.14557075500488
 70
   192
  0
VERTEX
  5
48
  8
0
 10
83.65275573730469
 20
12.02958583831787
 30
-27.03047370910645
 70
   192
  0
VERTEX
  5
49
  8
0
 10
87.40101623535156
 20
10.09169864654541
 30
-10.98327827453613
 70
   192
  0
VERTEX
  5
4A
  8
0
 10
85.42756652832031
 20
18.78144073486328
 30
-22.80183219909668
 70
   192
  0
VERTEX
  5
4B
  8
0
 10
85.42276763916016
 20
25.60685920715332
 30
-14.73152160644531
 70
   192
  0
VERTEX
  5
4C
  8
0
 10
85.42618560791016
 20
21.1006908416748
 30
-20.67273902893066
 70
   192
  0
VERTEX
  5
4D
  8
0
 10
87.39677429199219
 20
14.6563892364502
 30
-2.739671468734741
 70
   192
  0
VERTEX
  5
4E
  8
0
 10
85.41693115234375
 20
29.53487586975098
 30
-0.4977391064167023
 70
   192
  0
VERTEX
  5
4F
  8
0
 10
85.41962432861328
 20
28.47883033752441
 30
-7.865328788757324
 70
   192
  0
VERTEX
  5
50
  8
0
 10
85.41357421875
 20
26.0782356262207
 30
13.88476085662842
 70
   192
  0
VERTEX
  5
51
  8
0
 10
85.41487121582031
 20
28.72222328186035
 30
6.907757759094238
 70
   192
  0
VERTEX
  5
52
  8
0
 10
87.39449310302734
 20
14.02642059326172
 30
5.074181079864502
 70
   192
  0
VERTEX
  5
53
  8
0
 10
87.40209197998047
 20
10.93469524383545
 30
10.01980209350586
 70
   192
  0
VERTEX
  5
54
  8
0
 10
88.07621002197266
 20
0.0021363678388298
 30
0.0019576204940677
 70
   192
  0
VERTEX
  5
55
  8
0
 10
85.41313934326172
 20
21.78446960449219
 30
19.96178817749023
 70
   192
  0
VERTEX
  5
56
  8
0
 10
85.4390869140625
 20
-28.67051887512207
 30
-7.16140604019165
 70
   192
  0
VERTEX
  5
57
  8
0
 10
83.65275573730469
 20
-28.72549629211426
 30
-7.15326976776123
 70
   192
  0
VERTEX
  5
58
  8
0
 10
83.65275573730469
 20
-29.5745849609375
 30
1.291254281997681
 70
   192
  0
VERTEX
  5
59
  8
0
 10
83.65275573730469
 20
-25.5141773223877
 30
-15.01166725158691
 70
   192
  0
VERTEX
  5
5A
  8
0
 10
83.65275573730469
 20
26.14788627624512
 30
13.8989782333374
 70
   192
  0
VERTEX
  5
5B
  8
0
 10
83.65275573730469
 20
21.8254451751709
 30
19.99933433532715
 70
   192
  0
VERTEX
  5
5C
  8
0
 10
83.65275573730469
 20
28.7926197052002
 30
6.91938304901123
 70
   192
  0
VERTEX
  5
5D
  8
0
 10
83.65275573730469
 20
29.60373497009277
 30
-0.4933118224143982
 70
   192
  0
VERTEX
  5
5E
  8
0
 10
85.41362762451172
 20
16.09534072875977
 30
24.77190017700195
 70
   192
  0
VERTEX
  5
5F
  8
0
 10
83.65275573730469
 20
28.5277271270752
 30
-7.892768383026123
 70
   192
  0
VERTEX
  5
60
  8
0
 10
83.65275573730469
 20
25.6494026184082
 30
-14.77795219421387
 70
   192
  0
VERTEX
  5
61
  8
0
 10
83.65275573730469
 20
16.13722610473633
 30
24.80609130859375
 70
   192
  0
VERTEX
  5
62
  8
0
 10
85.4149169921875
 20
9.392999649047852
 30
28.00998497009277
 70
   192
  0
VERTEX
  5
63
  8
0
 10
85.41687774658203
 20
2.08429217338562
 30
29.46770477294922
 70
   192
  0
VERTEX
  5
64
  8
0
 10
83.65275573730469
 20
9.422544479370117
 30
28.04961967468262
 70
   192
  0
VERTEX
  5
65
  8
0
 10
85.41952514648438
 20
-5.354958534240723
 30
29.04979133605957
 70
   192
  0
VERTEX
  5
66
  8
0
 10
83.65275573730469
 20
2.094933271408081
 30
29.5195198059082
 70
   192
  0
VERTEX
  5
67
  8
0
 10
83.65275573730469
 20
-5.348654270172119
 30
29.11129951477051
 70
   192
  0
VERTEX
  5
68
  8
0
 10
85.42283630371094
 20
-12.44350528717041
 30
26.79193115234375
 70
   192
  0
VERTEX
  5
69
  8
0
 10
83.65275573730469
 20
-12.46267414093018
 30
26.85054779052734
 70
   192
  0
VERTEX
  5
6A
  8
0
 10
85.42626190185547
 20
-18.75311851501465
 30
22.82005310058594
 70
   192
  0
VERTEX
  5
6B
  8
0
 10
83.65275573730469
 20
-25.88905906677246
 30
14.37755489349365
 70
   192
  0
VERTEX
  5
6C
  8
0
 10
85.42767333984375
 20
-21.07785797119141
 30
20.69660758972168
 70
   192
  0
VERTEX
  5
6D
  8
0
 10
85.43099212646484
 20
-25.45470809936523
 30
14.99226474761963
 70
   192
  0
VERTEX
  5
6E
  8
0
 10
85.4340591430664
 20
-28.32261085510254
 30
8.398070335388184
 70
   192
  0
VERTEX
  5
6F
  8
0
 10
83.65275573730469
 20
-28.60840606689453
 30
7.661698818206787
 70
   192
  0
VERTEX
  5
70
  8
0
 10
83.65275573730469
 20
-9.62964153289795
 30
-27.99273872375488
 70
   192
  0
VERTEX
  5
71
  8
0
 10
87.39678192138672
 20
-1.472547292709351
 30
14.85344314575195
 70
   192
  0
VERTEX
  5
72
  8
0
 10
87.39449310302734
 20
6.27846622467041
 30
13.53967952728271
 70
   192
  0
VERTEX
  5
73
  8
0
 10
87.40103149414062
 20
-10.08789825439453
 30
10.98676109313965
 70
   192
  0
VERTEX
  5
74
  8
0
 10
87.40526580810547
 20
-14.65258884429932
 30
2.743154048919678
 70
   192
  0
VERTEX
  5
75
  8
0
 10
87.40754699707031
 20
-14.02262020111084
 30
-5.070698738098145
 70
   192
  0
VERTEX
  5
76
  8
0
 62
     9
 10
0.0
 20
0.0
 30
0.0
 70
   128
 71
     3
 72
     2
 73
     1
  0
VERTEX
  5
77
  8
0
 62
     9
 10
0.0
 20
0.0
 30
0.0
 70
   128
 71
     6
 72
     5
 73
     4
  0
VERTEX
  5
78
  8
0
 62
     9
 10
0.0
 20
0.0
 30
0.0
 70
   128
 71
     3
 72
     7
 73
     6
  0
VERTEX
  5
79
  8
0
 62
     9
 10
0.0
 20
0.0
 30
0.0
 70
   128
 71
     2
 72
     8
 73
     1
  0
VERTEX
  5
7A
  8
0
 62
     9
 10
0.0
 20
0.0
 30
0.0
 70
   128
 71
    11
 72
    10
 73
     9
  0
VERTEX
  5
7B
  8
0
 62
     9
 10
0.0
 20
0.0
 30
0.0
 70
   128
 71
     1
 72
     8
 73
     9
  0
VERTEX
  5
7C
  8
0
 62
     9
 10
0.0
 20
0.0
 30
0.0
 70
   128
 71
    10
 72
    13
 73
    12
  0
VERTEX
  5
7D
  8
0
 62
     9
 10
0.0
 20
0.0
 30
0.0
 70
   128
 71
    10
 72
    11
 73
    13
  0
VERTEX
  5
7E
  8
0
 62
     9
 10
0.0
 20
0.0
 30
0.0
 70
   128
 71
    12
 72
    14
 73
    10
  0
VERTEX
  5
7F
  8
0
 62
     9
 10
0.0
 20
0.0
 30
0.0
 70
   128
 71
    14
 72
    16
 73
    15
  0
VERTEX
  5
80
  8
0
 62
     9
 10
0.0
 20
0.0
 30
0.0
 70
   128
 71
    12
 72
    16
 73
    14
  0
VERTEX
  5
81
  8
0
 62
     9
 10
0.0
 20
0.0
 30
0.0
 70
   128
 71
    19
 72
    18
 73
    17
  0
VERTEX
  5
82
  8
0
 62
     9
 10
0.0
 20
0.0
 30
0.0
 70
   128
 71
    18
 72
    19
 73
    15
  0
VERTEX
  5
83
  8
0
 62
     9
 10
0.0
 20
0.0
 30
0.0
 70
   128
 71
    19
 72
    17
 73
    20
  0
VERTEX
  5
84
  8
0
 62
     9
 10
0.0
 20
0.0
 30
0.0
 70
   128
 71
    20
 72
    21
 73
    19
  0
VERTEX
  5
85
  8
0
 62
     9
 10
0.0
 20
0.0
 30
0.0
 70
   128
 71
    20
 72
    17
 73
    22
  0
VERTEX
  5
86
  8
0
 62
     9
 10
0.0
 20
0.0
 30
0.0
 70
   128
 71
    19
 72
    14
 73
    15
  0
VERTEX
  5
87
  8
0
 62
     9
 10
0.0
 20
0.0
 30
0.0
 70
   128
 71
    14
 72
    19
 73
    21
  0
VERTEX
  5
88
  8
0
 62
     9
 10
0.0
 20
0.0
 30
0.0
 70
   128
 71
     1
 72
     9
 73
    10
  0
VERTEX
  5
89
  8
0
 62
     9
 10
0.0
 20
0.0
 30
0.0
 70
   128
 71
    10
 72
    14
 73
    21
  0
VERTEX
  5
8A
  8
0
 62
     9
 10
0.0
 20
0.0
 30
0.0
 70
   128
 71
    21
 72
     5
 73
     7
  0
VERTEX
  5
8B
  8
0
 62
     9
 10
0.0
 20
0.0
 30
0.0
 70
   128
 71
     1
 72
    10
 73
    21
  0
VERTEX
  5
8C
  8
0
 62
     9
 10
0.0
 20
0.0
 30
0.0
 70
   128
 71
     1
 72
    21
 73
     7
  0
VERTEX
  5
8D
  8
0
 62
     9
 10
0.0
 20
0.0
 30
0.0
 70
   128
 71
     7
 72
     5
 73
     6
  0
VERTEX
  5
8E
  8
0
 62
     9
 10
0.0
 20
0.0
 30
0.0
 70
   128
 71
     1
 72
     7
 73
     3
  0
VERTEX
  5
8F
  8
0
 62
     9
 10
0.0
 20
0.0
 30
0.0
 70
   128
 71
    25
 72
    24
 73
    23
  0
VERTEX
  5
90
  8
0
 62
     9
 10
0.0
 20
0.0
 30
0.0
 70
   128
 71
    26
 72
    23
 73
    24
  0
VERTEX
  5
91
  8
0
 62
     9
 10
0.0
 20
0.0
 30
0.0
 70
   128
 71
    17
 72
    27
 73
    22
  0
VERTEX
  5
92
  8
0
 62
     9
 10
0.0
 20
0.0
 30
0.0
 70
   128
 71
    22
 72
    27
 73
    28
  0
VERTEX
  5
93
  8
0
 62
     9
 10
0.0
 20
0.0
 30
0.0
 70
   128
 71
    17
 72
    18
 73
    29
  0
VERTEX
  5
94
  8
0
 62
     9
 10
0.0
 20
0.0
 30
0.0
 70
   128
 71
    29
 72
    27
 73
    17
  0
VERTEX
  5
95
  8
0
 62
     9
 10
0.0
 20
0.0
 30
0.0
 70
   128
 71
    29
 72
    18
 73
    30
  0
VERTEX
  5
96
  8
0
 62
     9
 10
0.0
 20
0.0
 30
0.0
 70
   128
 71
    15
 72
    30
 73
    18
  0
VERTEX
  5
97
  8
0
 62
     9
 10
0.0
 20
0.0
 30
0.0
 70
   128
 71
    28
 72
    31
 73
    22
  0
VERTEX
  5
98
  8
0
 62
     9
 10
0.0
 20
0.0
 30
0.0
 70
   128
 71
    16
 72
    32
 73
    15
  0
VERTEX
  5
99
  8
0
 62
     9
 10
0.0
 20
0.0
 30
0.0
 70
   128
 71
    30
 72
    15
 73
    32
  0
VERTEX
  5
9A
  8
0
 62
     9
 10
0.0
 20
0.0
 30
0.0
 70
   128
 71
    16
 72
    12
 73
    33
  0
VERTEX
  5
9B
  8
0
 62
     9
 10
0.0
 20
0.0
 30
0.0
 70
   128
 71
    33
 72
    32
 73
    16
  0
VERTEX
  5
9C
  8
0
 62
     9
 10
0.0
 20
0.0
 30
0.0
 70
   128
 71
    28
 72
    34
 73
    31
  0
VERTEX
  5
9D
  8
0
 62
     9
 10
0.0
 20
0.0
 30
0.0
 70
   128
 71
    31
 72
    34
 73
    35
  0
VERTEX
  5
9E
  8
0
 62
     9
 10
0.0
 20
0.0
 30
0.0
 70
   128
 71
    33
 72
    12
 73
    13
  0
VERTEX
  5
9F
  8
0
 62
     9
 10
0.0
 20
0.0
 30
0.0
 70
   128
 71
    37
 72
    36
 73
    35
  0
VERTEX
  5
A0
  8
0
 62
     9
 10
0.0
 20
0.0
 30
0.0
 70
   128
 71
    35
 72
    34
 73
    37
  0
VERTEX
  5
A1
  8
0
 62
     9
 10
0.0
 20
0.0
 30
0.0
 70
   128
 71
    36
 72
    39
 73
    38
  0
VERTEX
  5
A2
  8
0
 62
     9
 10
0.0
 20
0.0
 30
0.0
 70
   128
 71
    39
 72
    36
 73
    37
  0
VERTEX
  5
A3
  8
0
 62
     9
 10
0.0
 20
0.0
 30
0.0
 70
   128
 71
    41
 72
    38
 73
    40
  0
VERTEX
  5
A4
  8
0
 62
     9
 10
0.0
 20
0.0
 30
0.0
 70
   128
 71
    39
 72
    40
 73
    38
  0
VERTEX
  5
A5
  8
0
 62
     9
 10
0.0
 20
0.0
 30
0.0
 70
   128
 71
    43
 72
    41
 73
    42
  0
VERTEX
  5
A6
  8
0
 62
     9
 10
0.0
 20
0.0
 30
0.0
 70
   128
 71
    41
 72
    40
 73
    42
  0
VERTEX
  5
A7
  8
0
 62
     9
 10
0.0
 20
0.0
 30
0.0
 70
   128
 71
    46
 72
    45
 73
    44
  0
VERTEX
  5
A8
  8
0
 62
     9
 10
0.0
 20
0.0
 30
0.0
 70
   128
 71
    44
 72
    48
 73
    47
  0
VERTEX
  5
A9
  8
0
 62
     9
 10
0.0
 20
0.0
 30
0.0
 70
   128
 71
    46
 72
    44
 73
    47
  0
VERTEX
  5
AA
  8
0
 62
     9
 10
0.0
 20
0.0
 30
0.0
 70
   128
 71
    48
 72
    25
 73
    47
  0
VERTEX
  5
AB
  8
0
 62
     9
 10
0.0
 20
0.0
 30
0.0
 70
   128
 71
     4
 72
    26
 73
     6
  0
VERTEX
  5
AC
  8
0
 62
     9
 10
0.0
 20
0.0
 30
0.0
 70
   128
 71
     2
 72
     3
 73
    49
  0
VERTEX
  5
AD
  8
0
 62
     9
 10
0.0
 20
0.0
 30
0.0
 70
   128
 71
     6
 72
    49
 73
     3
  0
VERTEX
  5
AE
  8
0
 62
     9
 10
0.0
 20
0.0
 30
0.0
 70
   128
 71
    35
 72
    36
 73
    50
  0
VERTEX
  5
AF
  8
0
 62
     9
 10
0.0
 20
0.0
 30
0.0
 70
   128
 71
    31
 72
    20
 73
    22
  0
VERTEX
  5
B0
  8
0
 62
     9
 10
0.0
 20
0.0
 30
0.0
 70
   128
 71
    50
 72
    51
 73
    35
  0
VERTEX
  5
B1
  8
0
 62
     9
 10
0.0
 20
0.0
 30
0.0
 70
   128
 71
    36
 72
    38
 73
    50
  0
VERTEX
  5
B2
  8
0
 62
     9
 10
0.0
 20
0.0
 30
0.0
 70
   128
 71
    43
 72
    52
 73
    41
  0
VERTEX
  5
B3
  8
0
 62
     9
 10
0.0
 20
0.0
 30
0.0
 70
   128
 71
    50
 72
    38
 73
    41
  0
VERTEX
  5
B4
  8
0
 62
     9
 10
0.0
 20
0.0
 30
0.0
 70
   128
 71
    52
 72
    43
 73
    45
  0
VERTEX
  5
B5
  8
0
 62
     9
 10
0.0
 20
0.0
 30
0.0
 70
   128
 71
    45
 72
    46
 73
    52
  0
VERTEX
  5
B6
  8
0
 62
     9
 10
0.0
 20
0.0
 30
0.0
 70
   128
 71
    53
 72
    52
 73
    46
  0
VERTEX
  5
B7
  8
0
 62
     9
 10
0.0
 20
0.0
 30
0.0
 70
   128
 71
    47
 72
    53
 73
    46
  0
VERTEX
  5
B8
  8
0
 62
     9
 10
0.0
 20
0.0
 30
0.0
 70
   128
 71
    23
 72
    54
 73
    25
  0
VERTEX
  5
B9
  8
0
 62
     9
 10
0.0
 20
0.0
 30
0.0
 70
   128
 71
    25
 72
    53
 73
    47
  0
VERTEX
  5
BA
  8
0
 62
     9
 10
0.0
 20
0.0
 30
0.0
 70
   128
 71
    26
 72
    54
 73
    23
  0
VERTEX
  5
BB
  8
0
 62
     9
 10
0.0
 20
0.0
 30
0.0
 70
   128
 71
    26
 72
     5
 73
    54
  0
VERTEX
  5
BC
  8
0
 62
     9
 10
0.0
 20
0.0
 30
0.0
 70
   128
 71
    21
 72
    54
 73
     5
  0
VERTEX
  5
BD
  8
0
 62
     9
 10
0.0
 20
0.0
 30
0.0
 70
   128
 71
    26
 72
     4
 73
     5
  0
VERTEX
  5
BE
  8
0
 62
     9
 10
0.0
 20
0.0
 30
0.0
 70
   128
 71
    54
 72
    53
 73
    25
  0
VERTEX
  5
BF
  8
0
 62
     9
 10
0.0
 20
0.0
 30
0.0
 70
   128
 71
    53
 72
    54
 73
    21
  0
VERTEX
  5
C0
  8
0
 62
     9
 10
0.0
 20
0.0
 30
0.0
 70
   128
 71
    50
 72
    41
 73
    52
  0
VERTEX
  5
C1
  8
0
 62
     9
 10
0.0
 20
0.0
 30
0.0
 70
   128
 71
    52
 72
    53
 73
    21
  0
VERTEX
  5
C2
  8
0
 62
     9
 10
0.0
 20
0.0
 30
0.0
 70
   128
 71
    21
 72
    20
 73
    51
  0
VERTEX
  5
C3
  8
0
 62
     9
 10
0.0
 20
0.0
 30
0.0
 70
   128
 71
    50
 72
    52
 73
    21
  0
VERTEX
  5
C4
  8
0
 62
     9
 10
0.0
 20
0.0
 30
0.0
 70
   128
 71
    51
 72
    31
 73
    35
  0
VERTEX
  5
C5
  8
0
 62
     9
 10
0.0
 20
0.0
 30
0.0
 70
   128
 71
    51
 72
    50
 73
    21
  0
VERTEX
  5
C6
  8
0
 62
     9
 10
0.0
 20
0.0
 30
0.0
 70
   128
 71
    31
 72
    51
 73
    20
  0
SEQEND
  5
C7
  8
0
  0
ENDBLK
  5
CB
  8
0
  0
BLOCK
  8
0
  2
100622_ESCUTCHEON_COSMO01
 70
     0
 10
0.0
 20
0.0
 30
0.0
  3
100622_ESCUTCHEON_COSMO01
  1

  0
POLYLINE
  5
CD
  8
0
 66
     1
 10
0.0
 20
0.0
 30
0.0
 70
    64
 71
   117
 72
   197
  0
VERTEX
  5
CE
  8
0
 10
7.142856121063232
 20
-29.19606399536133
 30
77.09242248535156
 70
   192
  0
VERTEX
  5
CF
  8
0
 10
7.142856121063232
 20
9.984580039978027
 30
81.82715606689453
 70
   192
  0
VERTEX
  5
D0
  8
0
 10
7.142856121063232
 20
-80.03346252441406
 30
19.75856018066406
 70
   192
  0
VERTEX
  5
D1
  8
0
 10
7.142856121063232
 20
-80.04541015625
 30
-19.71660232543945
 70
   192
  0
VERTEX
  5
D2
  8
0
 10
7.142856121063232
 20
-61.68126678466797
 30
54.69152450561523
 70
   192
  0
VERTEX
  5
D3
  8
0
 10
7.142856121063232
 20
-61.72053909301758
 30
-54.64680099487305
 70
   192
  0
VERTEX
  5
D4
  8
0
 10
7.142856121063232
 20
46.8555908203125
 30
67.82482147216797
 70
   192
  0
VERTEX
  5
D5
  8
0
 10
7.142856121063232
 20
73.01358032226562
 30
38.26352691650391
 70
   192
  0
VERTEX
  5
D6
  8
0
 10
7.142856121063232
 20
-29.22683334350586
 30
-77.08366394042969
 70
   192
  0
VERTEX
  5
D7
  8
0
 10
7.142856121063232
 20
82.43766784667969
 30
-0.0000000000000284
 70
   192
  0
VERTEX
  5
D8
  8
0
 10
7.142856121063232
 20
72.9694595336914
 30
-38.34739303588867
 70
   192
  0
VERTEX
  5
D9
  8
0
 10
7.142856121063232
 20
46.84068298339844
 30
-67.8379135131836
 70
   192
  0
VERTEX
  5
DA
  8
0
 10
7.142856121063232
 20
9.905655860900879
 30
-81.83673095703125
 70
   192
  0
VERTEX
  5
DB
  8
0
 10
0.0000000000002575
 20
-16.59700965881348
 30
83.36383056640625
 70
   192
  0
VERTEX
  5
DC
  8
0
 10
0.0000000000002508
 20
0.0000000000000284
 30
85.0
 70
   192
  0
VERTEX
  5
DD
  8
0
 10
10.0
 20
-0.0000000000512479
 30
85.0
 70
   192
  0
VERTEX
  5
DE
  8
0
 10
10.0
 20
-16.6118106842041
 30
83.35587310791016
 70
   192
  0
VERTEX
  5
DF
  8
0
 10
0.0000000000002544
 20
-32.50637817382812
 30
78.53872680664062
 70
   192
  0
VERTEX
  5
E0
  8
0
 10
10.0
 20
-32.53501892089844
 30
78.52526092529297
 70
   192
  0
VERTEX
  5
E1
  8
0
 10
0.0000000000002415
 20
-47.24067687988281
 30
70.66342163085938
 70
   192
  0
VERTEX
  5
E2
  8
0
 10
0.0000000000002193
 20
-60.10401153564453
 30
60.10401153564453
 70
   192
  0
VERTEX
  5
E3
  8
0
 10
10.0
 20
-47.25773620605469
 30
70.64183807373047
 70
   192
  0
VERTEX
  5
E4
  8
0
 10
10.0
 20
-60.09177398681641
 30
60.08779907226562
 70
   192
  0
VERTEX
  5
E5
  8
0
 10
0.0000000000001887
 20
-70.66342163085938
 30
47.24067687988281
 70
   192
  0
VERTEX
  5
E6
  8
0
 10
10.0
 20
-70.72820281982422
 30
47.03092956542969
 70
   192
  0
VERTEX
  5
E7
  8
0
 10
0.0000000000001508
 20
-78.53872680664062
 30
32.50637817382812
 70
   192
  0
VERTEX
  5
E8
  8
0
 10
0.0000000000001072
 20
-83.36383056640625
 30
16.59700965881348
 70
   192
  0
VERTEX
  5
E9
  8
0
 10
10.0
 20
-78.56147766113281
 30
32.31485748291016
 70
   192
  0
VERTEX
  5
EA
  8
0
 10
10.0
 20
-83.3653793334961
 30
16.40732192993164
 70
   192
  0
VERTEX
  5
EB
  8
0
 10
0.0000000000000605
 20
-85.0
 30
0.0000000000000156
 70
   192
  0
VERTEX
  5
EC
  8
0
 10
10.0
 20
-85.0
 30
-0.0000000000000197
 70
   192
  0
VERTEX
  5
ED
  8
0
 10
10.0
 20
14.75909805297852
 30
83.70987701416016
 70
   192
  0
VERTEX
  5
EE
  8
0
 10
0.0000000000002343
 20
16.59700965881348
 30
83.36383056640625
 70
   192
  0
VERTEX
  5
EF
  8
0
 10
10.0
 20
29.06753540039062
 30
79.87627410888672
 70
   192
  0
VERTEX
  5
F0
  8
0
 10
10.0
 20
42.51134872436523
 30
73.61174011230469
 70
   192
  0
VERTEX
  5
F1
  8
0
 10
0.000000000000209
 20
32.50637817382812
 30
78.53872680664062
 70
   192
  0
VERTEX
  5
F2
  8
0
 10
0.0000000000001755
 20
47.24067687988281
 30
70.66342163085938
 70
   192
  0
VERTEX
  5
F3
  8
0
 10
10.0
 20
54.65177154541016
 30
65.10801696777344
 70
   192
  0
VERTEX
  5
F4
  8
0
 10
0.0000000000001353
 20
60.10401153564453
 30
60.10401153564453
 70
   192
  0
VERTEX
  5
F5
  8
0
 10
10.0
 20
65.10597229003906
 30
54.64740371704102
 70
   192
  0
VERTEX
  5
F6
  8
0
 10
10.0
 20
73.30282592773438
 30
42.32839584350586
 70
   192
  0
VERTEX
  5
F7
  8
0
 10
0.00000000000009
 20
70.66342163085938
 30
47.24067687988281
 70
   192
  0
VERTEX
  5
F8
  8
0
 10
0.000000000000041
 20
78.53872680664062
 30
32.50637817382812
 70
   192
  0
VERTEX
  5
F9
  8
0
 10
10.0
 20
79.98851776123047
 30
28.93476486206055
 70
   192
  0
VERTEX
  5
FA
  8
0
 10
-0.0000000000000093
 20
83.36383056640625
 30
16.59700965881348
 70
   192
  0
VERTEX
  5
FB
  8
0
 10
10.0
 20
83.7835693359375
 30
14.60748672485352
 70
   192
  0
VERTEX
  5
FC
  8
0
 10
-0.0000000000000605
 20
85.0
 30
-0.0000000000000052
 70
   192
  0
VERTEX
  5
FD
  8
0
 10
10.0
 20
85.0
 30
-0.0000000000000347
 70
   192
  0
VERTEX
  5
FE
  8
0
 10
10.0
 20
-54.65177154541016
 30
-65.10801696777344
 70
   192
  0
VERTEX
  5
FF
  8
0
 10
11.7166748046875
 20
-18.81718826293945
 30
-25.86701774597168
 70
   192
  0
VERTEX
  5
100
  8
0
 10
10.0
 20
-42.51134872436523
 30
-73.61174011230469
 70
   192
  0
VERTEX
  5
101
  8
0
 10
10.0
 20
-65.10597229003906
 30
-54.64740371704102
 70
   192
  0
VERTEX
  5
102
  8
0
 10
11.7166748046875
 20
-25.90538597106934
 30
-18.78946876525879
 70
   192
  0
VERTEX
  5
103
  8
0
 10
11.7166748046875
 20
-9.913546562194824
 30
-30.41704940795898
 70
   192
  0
VERTEX
  5
104
  8
0
 10
10.0
 20
-29.06753540039062
 30
-79.87627410888672
 70
   192
  0
VERTEX
  5
105
  8
0
 10
11.7166748046875
 20
-0.000000000051291
 30
-32.0
 70
   192
  0
VERTEX
  5
106
  8
0
 10
10.0
 20
-14.75909805297852
 30
-83.70987701416016
 70
   192
  0
VERTEX
  5
107
  8
0
 10
10.0
 20
-0.0000000000512966
 30
-85.0
 70
   192
  0
VERTEX
  5
108
  8
0
 10
10.0
 20
-73.30282592773438
 30
-42.32839584350586
 70
   192
  0
VERTEX
  5
109
  8
0
 10
11.7166748046875
 20
-30.25785446166992
 30
-9.845160484313965
 70
   192
  0
VERTEX
  5
10A
  8
0
 10
10.0
 20
-79.98851776123047
 30
-28.93476486206055
 70
   192
  0
VERTEX
  5
10B
  8
0
 10
10.0
 20
-83.7835693359375
 30
-14.60748672485352
 70
   192
  0
VERTEX
  5
10C
  8
0
 10
9.21628189086914
 20
-32.0
 30
-0.0000000000000213
 70
   192
  0
VERTEX
  5
10D
  8
0
 10
11.7166748046875
 20
-25.88849639892578
 30
18.82730293273926
 70
   192
  0
VERTEX
  5
10E
  8
0
 10
11.7166748046875
 20
-18.79817962646484
 30
25.90607070922852
 70
   192
  0
VERTEX
  5
10F
  8
0
 10
11.7166748046875
 20
-30.32177734375
 30
9.898327827453613
 70
   192
  0
VERTEX
  5
110
  8
0
 10
11.7166748046875
 20
-9.868289947509766
 30
30.43763160705566
 70
   192
  0
VERTEX
  5
111
  8
0
 10
11.7166748046875
 20
-0.0000000000512634
 30
32.0
 70
   192
  0
VERTEX
  5
112
  8
0
 10
11.7166748046875
 20
18.81718826293945
 30
25.86701774597168
 70
   192
  0
VERTEX
  5
113
  8
0
 10
11.7166748046875
 20
25.90538597106934
 30
18.78946876525879
 70
   192
  0
VERTEX
  5
114
  8
0
 10
11.7166748046875
 20
9.913546562194824
 30
30.41704940795898
 70
   192
  0
VERTEX
  5
115
  8
0
 10
11.7166748046875
 20
30.25785446166992
 30
9.845160484313965
 70
   192
  0
VERTEX
  5
116
  8
0
 10
9.21628189086914
 20
32.0
 30
-0.0000000000000291
 70
   192
  0
VERTEX
  5
117
  8
0
 10
9.21628189086914
 20
-0.0000000000000052
 30
-32.0
 70
   192
  0
VERTEX
  5
118
  8
0
 10
9.21628189086914
 20
9.913546562194824
 30
-30.41704940795898
 70
   192
  0
VERTEX
  5
119
  8
0
 10
9.21628189086914
 20
-9.868026733398438
 30
-30.4383373260498
 70
   192
  0
VERTEX
  5
11A
  8
0
 10
9.21628189086914
 20
-18.79820442199707
 30
-25.90600395202637
 70
   192
  0
VERTEX
  5
11B
  8
0
 10
9.21628189086914
 20
-25.88849639892578
 30
-18.82730293273926
 70
   192
  0
VERTEX
  5
11C
  8
0
 10
9.21628189086914
 20
-30.32177734375
 30
-9.898327827453613
 70
   192
  0
VERTEX
  5
11D
  8
0
 10
11.7166748046875
 20
9.423489570617676
 30
-30.58906364440918
 70
   192
  0
VERTEX
  5
11E
  8
0
 10
9.21628189086914
 20
18.81718826293945
 30
-25.86701774597168
 70
   192
  0
VERTEX
  5
11F
  8
0
 10
11.7166748046875
 20
18.61087417602539
 30
-26.02939033508301
 70
   192
  0
VERTEX
  5
120
  8
0
 10
9.21628189086914
 20
25.90538597106934
 30
-18.78946876525879
 70
   192
  0
VERTEX
  5
121
  8
0
 10
11.7166748046875
 20
26.04753494262695
 30
-18.583251953125
 70
   192
  0
VERTEX
  5
122
  8
0
 10
9.21628189086914
 20
30.25785446166992
 30
-9.845160484313965
 70
   192
  0
VERTEX
  5
123
  8
0
 10
11.7166748046875
 20
30.57964134216309
 30
-9.380537986755371
 70
   192
  0
VERTEX
  5
124
  8
0
 10
9.21628189086914
 20
0.0000000000000044
 30
32.0
 70
   192
  0
VERTEX
  5
125
  8
0
 10
9.21628189086914
 20
-9.913546562194824
 30
30.41704940795898
 70
   192
  0
VERTEX
  5
126
  8
0
 10
9.21628189086914
 20
9.868026733398438
 30
30.4383373260498
 70
   192
  0
VERTEX
  5
127
  8
0
 10
9.21628189086914
 20
18.79820442199707
 30
25.90600395202637
 70
   192
  0
VERTEX
  5
128
  8
0
 10
9.21628189086914
 20
25.88849639892578
 30
18.82730293273926
 70
   192
  0
VERTEX
  5
129
  8
0
 10
9.21628189086914
 20
30.32177734375
 30
9.898327827453613
 70
   192
  0
VERTEX
  5
12A
  8
0
 10
9.21628189086914
 20
-18.81718826293945
 30
25.86701774597168
 70
   192
  0
VERTEX
  5
12B
  8
0
 10
9.21628189086914
 20
-25.90538597106934
 30
18.78946876525879
 70
   192
  0
VERTEX
  5
12C
  8
0
 10
9.21628189086914
 20
-30.25785446166992
 30
9.845160484313965
 70
   192
  0
VERTEX
  5
12D
  8
0
 10
10.0
 20
16.6118106842041
 30
-83.35587310791016
 70
   192
  0
VERTEX
  5
12E
  8
0
 10
10.0
 20
32.53501892089844
 30
-78.52526092529297
 70
   192
  0
VERTEX
  5
12F
  8
0
 10
10.0
 20
47.25773620605469
 30
-70.64183807373047
 70
   192
  0
VERTEX
  5
130
  8
0
 10
10.0
 20
78.56147766113281
 30
-32.31485748291016
 70
   192
  0
VERTEX
  5
131
  8
0
 10
10.0
 20
70.72820281982422
 30
-47.03092956542969
 70
   192
  0
VERTEX
  5
132
  8
0
 10
10.0
 20
60.09177398681641
 30
-60.08779907226562
 70
   192
  0
VERTEX
  5
133
  8
0
 10
10.0
 20
83.3653793334961
 30
-16.40732192993164
 70
   192
  0
VERTEX
  5
134
  8
0
 10
0.0000000000000093
 20
-83.36383056640625
 30
-16.59700965881348
 70
   192
  0
VERTEX
  5
135
  8
0
 10
-0.0000000000001353
 20
-60.10401153564453
 30
-60.10401153564453
 70
   192
  0
VERTEX
  5
136
  8
0
 10
-0.000000000000041
 20
-78.53872680664062
 30
-32.50637817382812
 70
   192
  0
VERTEX
  5
137
  8
0
 10
-0.0000000000002343
 20
-16.59700965881348
 30
-83.36383056640625
 70
   192
  0
VERTEX
  5
138
  8
0
 10
-0.0000000000002508
 20
-0.0000000000000213
 30
-85.0
 70
   192
  0
VERTEX
  5
139
  8
0
 10
-0.000000000000209
 20
-32.50637817382812
 30
-78.53872680664062
 70
   192
  0
VERTEX
  5
13A
  8
0
 10
-0.0000000000002415
 20
47.24067687988281
 30
-70.66342163085938
 70
   192
  0
VERTEX
  5
13B
  8
0
 10
-0.0000000000002544
 20
32.50637817382812
 30
-78.53872680664062
 70
   192
  0
VERTEX
  5
13C
  8
0
 10
-0.0000000000002575
 20
16.59700965881348
 30
-83.36383056640625
 70
   192
  0
VERTEX
  5
13D
  8
0
 10
-0.0000000000001887
 20
70.66342163085938
 30
-47.24067687988281
 70
   192
  0
VERTEX
  5
13E
  8
0
 10
-0.0000000000002193
 20
60.10401153564453
 30
-60.10401153564453
 70
   192
  0
VERTEX
  5
13F
  8
0
 10
-0.0000000000001508
 20
78.53872680664062
 30
-32.50637817382812
 70
   192
  0
VERTEX
  5
140
  8
0
 10
-0.0000000000001072
 20
83.36383056640625
 30
-16.59700965881348
 70
   192
  0
VERTEX
  5
141
  8
0
 10
-0.0000000000001755
 20
-47.24067687988281
 30
-70.66342163085938
 70
   192
  0
VERTEX
  5
142
  8
0
 10
-0.00000000000009
 20
-70.66342163085938
 30
-47.24067687988281
 70
   192
  0
VERTEX
  5
143
  8
0
 62
   250
 10
0.0
 20
0.0
 30
0.0
 70
   128
 71
     3
 72
     2
 73
     1
  0
VERTEX
  5
144
  8
0
 62
   250
 10
0.0
 20
0.0
 30
0.0
 70
   128
 71
     4
 72
     2
 73
     3
  0
VERTEX
  5
145
  8
0
 62
   250
 10
0.0
 20
0.0
 30
0.0
 70
   128
 71
     3
 72
     1
 73
     5
  0
VERTEX
  5
146
  8
0
 62
   250
 10
0.0
 20
0.0
 30
0.0
 70
   128
 71
     7
 72
     4
 73
     6
  0
VERTEX
  5
147
  8
0
 62
   250
 10
0.0
 20
0.0
 30
0.0
 70
   128
 71
     4
 72
     7
 73
     2
  0
VERTEX
  5
148
  8
0
 62
   250
 10
0.0
 20
0.0
 30
0.0
 70
   128
 71
     9
 72
     8
 73
     6
  0
VERTEX
  5
149
  8
0
 62
   250
 10
0.0
 20
0.0
 30
0.0
 70
   128
 71
     7
 72
     6
 73
     8
  0
VERTEX
  5
14A
  8
0
 62
   250
 10
0.0
 20
0.0
 30
0.0
 70
   128
 71
     9
 72
    10
 73
     8
  0
VERTEX
  5
14B
  8
0
 62
   250
 10
0.0
 20
0.0
 30
0.0
 70
   128
 71
    13
 72
    12
 73
    11
  0
VERTEX
  5
14C
  8
0
 62
   250
 10
0.0
 20
0.0
 30
0.0
 70
   128
 71
     9
 72
    13
 73
    10
  0
VERTEX
  5
14D
  8
0
 62
   250
 10
0.0
 20
0.0
 30
0.0
 70
   128
 71
    11
 72
    10
 73
    13
  0
VERTEX
  5
14E
  8
0
 62
     9
 10
0.0
 20
0.0
 30
0.0
 70
   128
 71
    16
 72
    15
 73
    14
  0
VERTEX
  5
14F
  8
0
 62
     9
 10
0.0
 20
0.0
 30
0.0
 70
   128
 71
    18
 72
    17
 73
    14
  0
VERTEX
  5
150
  8
0
 62
     9
 10
0.0
 20
0.0
 30
0.0
 70
   128
 71
    16
 72
    14
 73
    17
  0
VERTEX
  5
151
  8
0
 62
     9
 10
0.0
 20
0.0
 30
0.0
 70
   128
 71
    18
 72
    20
 73
    19
  0
VERTEX
  5
152
  8
0
 62
     9
 10
0.0
 20
0.0
 30
0.0
 70
   128
 71
    19
 72
    17
 73
    18
  0
VERTEX
  5
153
  8
0
 62
     9
 10
0.0
 20
0.0
 30
0.0
 70
   128
 71
    22
 72
    20
 73
    21
  0
VERTEX
  5
154
  8
0
 62
     9
 10
0.0
 20
0.0
 30
0.0
 70
   128
 71
    20
 72
    22
 73
    19
  0
VERTEX
  5
155
  8
0
 62
     9
 10
0.0
 20
0.0
 30
0.0
 70
   128
 71
    24
 72
    23
 73
    21
  0
VERTEX
  5
156
  8
0
 62
     9
 10
0.0
 20
0.0
 30
0.0
 70
   128
 71
    22
 72
    21
 73
    23
  0
VERTEX
  5
157
  8
0
 62
     9
 10
0.0
 20
0.0
 30
0.0
 70
   128
 71
    24
 72
    26
 73
    25
  0
VERTEX
  5
158
  8
0
 62
     9
 10
0.0
 20
0.0
 30
0.0
 70
   128
 71
    25
 72
    23
 73
    24
  0
VERTEX
  5
159
  8
0
 62
     9
 10
0.0
 20
0.0
 30
0.0
 70
   128
 71
    28
 72
    26
 73
    27
  0
VERTEX
  5
15A
  8
0
 62
     9
 10
0.0
 20
0.0
 30
0.0
 70
   128
 71
    26
 72
    28
 73
    25
  0
VERTEX
  5
15B
  8
0
 62
     9
 10
0.0
 20
0.0
 30
0.0
 70
   128
 71
    30
 72
    29
 73
    27
  0
VERTEX
  5
15C
  8
0
 62
     9
 10
0.0
 20
0.0
 30
0.0
 70
   128
 71
    28
 72
    27
 73
    29
  0
VERTEX
  5
15D
  8
0
 62
     9
 10
0.0
 20
0.0
 30
0.0
 70
   128
 71
    31
 72
    29
 73
    30
  0
VERTEX
  5
15E
  8
0
 62
     9
 10
0.0
 20
0.0
 30
0.0
 70
   128
 71
    15
 72
    16
 73
    32
  0
VERTEX
  5
15F
  8
0
 62
     9
 10
0.0
 20
0.0
 30
0.0
 70
   128
 71
    32
 72
    34
 73
    33
  0
VERTEX
  5
160
  8
0
 62
     9
 10
0.0
 20
0.0
 30
0.0
 70
   128
 71
    33
 72
    15
 73
    32
  0
VERTEX
  5
161
  8
0
 62
     9
 10
0.0
 20
0.0
 30
0.0
 70
   128
 71
    36
 72
    34
 73
    35
  0
VERTEX
  5
162
  8
0
 62
     9
 10
0.0
 20
0.0
 30
0.0
 70
   128
 71
    34
 72
    36
 73
    33
  0
VERTEX
  5
163
  8
0
 62
     9
 10
0.0
 20
0.0
 30
0.0
 70
   128
 71
    38
 72
    37
 73
    35
  0
VERTEX
  5
164
  8
0
 62
     9
 10
0.0
 20
0.0
 30
0.0
 70
   128
 71
    36
 72
    35
 73
    37
  0
VERTEX
  5
165
  8
0
 62
     9
 10
0.0
 20
0.0
 30
0.0
 70
   128
 71
    38
 72
    40
 73
    39
  0
VERTEX
  5
166
  8
0
 62
     9
 10
0.0
 20
0.0
 30
0.0
 70
   128
 71
    39
 72
    37
 73
    38
  0
VERTEX
  5
167
  8
0
 62
     9
 10
0.0
 20
0.0
 30
0.0
 70
   128
 71
    42
 72
    40
 73
    41
  0
VERTEX
  5
168
  8
0
 62
     9
 10
0.0
 20
0.0
 30
0.0
 70
   128
 71
    40
 72
    42
 73
    39
  0
VERTEX
  5
169
  8
0
 62
     9
 10
0.0
 20
0.0
 30
0.0
 70
   128
 71
    44
 72
    43
 73
    41
  0
VERTEX
  5
16A
  8
0
 62
     9
 10
0.0
 20
0.0
 30
0.0
 70
   128
 71
    42
 72
    41
 73
    43
  0
VERTEX
  5
16B
  8
0
 62
     9
 10
0.0
 20
0.0
 30
0.0
 70
   128
 71
    44
 72
    46
 73
    45
  0
VERTEX
  5
16C
  8
0
 62
     9
 10
0.0
 20
0.0
 30
0.0
 70
   128
 71
    45
 72
    43
 73
    44
  0
VERTEX
  5
16D
  8
0
 62
     9
 10
0.0
 20
0.0
 30
0.0
 70
   128
 71
    46
 72
    47
 73
    45
  0
VERTEX
  5
16E
  8
0
 62
     9
 10
0.0
 20
0.0
 30
0.0
 70
   128
 71
    46
 72
    48
 73
    47
  0
VERTEX
  5
16F
  8
0
 62
     9
 10
0.0
 20
0.0
 30
0.0
 70
   128
 71
    51
 72
    50
 73
    49
  0
VERTEX
  5
170
  8
0
 62
     9
 10
0.0
 20
0.0
 30
0.0
 70
   128
 71
    49
 72
    53
 73
    52
  0
VERTEX
  5
171
  8
0
 62
     9
 10
0.0
 20
0.0
 30
0.0
 70
   128
 71
    49
 72
    50
 73
    53
  0
VERTEX
  5
172
  8
0
 62
     9
 10
0.0
 20
0.0
 30
0.0
 70
   128
 71
    51
 72
    54
 73
    50
  0
VERTEX
  5
173
  8
0
 62
     9
 10
0.0
 20
0.0
 30
0.0
 70
   128
 71
    54
 72
    51
 73
    55
  0
VERTEX
  5
174
  8
0
 62
     9
 10
0.0
 20
0.0
 30
0.0
 70
   128
 71
    54
 72
    57
 73
    56
  0
VERTEX
  5
175
  8
0
 62
     9
 10
0.0
 20
0.0
 30
0.0
 70
   128
 71
    54
 72
    55
 73
    57
  0
VERTEX
  5
176
  8
0
 62
     9
 10
0.0
 20
0.0
 30
0.0
 70
   128
 71
    58
 72
    56
 73
    57
  0
VERTEX
  5
177
  8
0
 62
     9
 10
0.0
 20
0.0
 30
0.0
 70
   128
 71
    52
 72
    53
 73
    59
  0
VERTEX
  5
178
  8
0
 62
     9
 10
0.0
 20
0.0
 30
0.0
 70
   128
 71
    53
 72
    60
 73
    59
  0
VERTEX
  5
179
  8
0
 62
     9
 10
0.0
 20
0.0
 30
0.0
 70
   128
 71
    60
 72
    62
 73
    61
  0
VERTEX
  5
17A
  8
0
 62
     9
 10
0.0
 20
0.0
 30
0.0
 70
   128
 71
    59
 72
    60
 73
    61
  0
VERTEX
  5
17B
  8
0
 62
     9
 10
0.0
 20
0.0
 30
0.0
 70
   128
 71
    63
 72
    62
 73
    60
  0
VERTEX
  5
17C
  8
0
 62
     9
 10
0.0
 20
0.0
 30
0.0
 70
   128
 71
    63
 72
    31
 73
    62
  0
VERTEX
  5
17D
  8
0
 62
     9
 10
0.0
 20
0.0
 30
0.0
 70
   128
 71
    23
 72
    25
 73
    64
  0
VERTEX
  5
17E
  8
0
 62
     9
 10
0.0
 20
0.0
 30
0.0
 70
   128
 71
    23
 72
    64
 73
    65
  0
VERTEX
  5
17F
  8
0
 62
     9
 10
0.0
 20
0.0
 30
0.0
 70
   128
 71
    28
 72
    66
 73
    64
  0
VERTEX
  5
180
  8
0
 62
     9
 10
0.0
 20
0.0
 30
0.0
 70
   128
 71
    28
 72
    64
 73
    25
  0
VERTEX
  5
181
  8
0
 62
     9
 10
0.0
 20
0.0
 30
0.0
 70
   128
 71
    29
 72
    63
 73
    66
  0
VERTEX
  5
182
  8
0
 62
     9
 10
0.0
 20
0.0
 30
0.0
 70
   128
 71
    28
 72
    29
 73
    66
  0
VERTEX
  5
183
  8
0
 62
     9
 10
0.0
 20
0.0
 30
0.0
 70
   128
 71
    65
 72
    22
 73
    23
  0
VERTEX
  5
184
  8
0
 62
     9
 10
0.0
 20
0.0
 30
0.0
 70
   128
 71
    31
 72
    63
 73
    29
  0
VERTEX
  5
185
  8
0
 62
     9
 10
0.0
 20
0.0
 30
0.0
 70
   128
 71
    67
 72
    22
 73
    65
  0
VERTEX
  5
186
  8
0
 62
     9
 10
0.0
 20
0.0
 30
0.0
 70
   128
 71
    67
 72
    17
 73
    19
  0
VERTEX
  5
187
  8
0
 62
     9
 10
0.0
 20
0.0
 30
0.0
 70
   128
 71
    22
 72
    67
 73
    19
  0
VERTEX
  5
188
  8
0
 62
     9
 10
0.0
 20
0.0
 30
0.0
 70
   128
 71
    68
 72
    17
 73
    67
  0
VERTEX
  5
189
  8
0
 62
     9
 10
0.0
 20
0.0
 30
0.0
 70
   128
 71
    68
 72
    16
 73
    17
  0
VERTEX
  5
18A
  8
0
 62
     9
 10
0.0
 20
0.0
 30
0.0
 70
   128
 71
    35
 72
    69
 73
    38
  0
VERTEX
  5
18B
  8
0
 62
     9
 10
0.0
 20
0.0
 30
0.0
 70
   128
 71
    38
 72
    70
 73
    40
  0
VERTEX
  5
18C
  8
0
 62
     9
 10
0.0
 20
0.0
 30
0.0
 70
   128
 71
    38
 72
    69
 73
    70
  0
VERTEX
  5
18D
  8
0
 62
     9
 10
0.0
 20
0.0
 30
0.0
 70
   128
 71
    35
 72
    71
 73
    69
  0
VERTEX
  5
18E
  8
0
 62
     9
 10
0.0
 20
0.0
 30
0.0
 70
   128
 71
    71
 72
    35
 73
    34
  0
VERTEX
  5
18F
  8
0
 62
     9
 10
0.0
 20
0.0
 30
0.0
 70
   128
 71
    71
 72
    32
 73
    68
  0
VERTEX
  5
190
  8
0
 62
     9
 10
0.0
 20
0.0
 30
0.0
 70
   128
 71
    71
 72
    34
 73
    32
  0
VERTEX
  5
191
  8
0
 62
     9
 10
0.0
 20
0.0
 30
0.0
 70
   128
 71
    16
 72
    68
 73
    32
  0
VERTEX
  5
192
  8
0
 62
     9
 10
0.0
 20
0.0
 30
0.0
 70
   128
 71
    40
 72
    70
 73
    41
  0
VERTEX
  5
193
  8
0
 62
     9
 10
0.0
 20
0.0
 30
0.0
 70
   128
 71
    70
 72
    72
 73
    41
  0
VERTEX
  5
194
  8
0
 62
     9
 10
0.0
 20
0.0
 30
0.0
 70
   128
 71
    72
 72
    46
 73
    44
  0
VERTEX
  5
195
  8
0
 62
     9
 10
0.0
 20
0.0
 30
0.0
 70
   128
 71
    41
 72
    72
 73
    44
  0
VERTEX
  5
196
  8
0
 62
     9
 10
0.0
 20
0.0
 30
0.0
 70
   128
 71
    73
 72
    46
 73
    72
  0
VERTEX
  5
197
  8
0
 62
     9
 10
0.0
 20
0.0
 30
0.0
 70
   128
 71
    73
 72
    48
 73
    46
  0
VERTEX
  5
198
  8
0
 62
     9
 10
0.0
 20
0.0
 30
0.0
 70
   128
 71
    75
 72
    74
 73
    56
  0
VERTEX
  5
199
  8
0
 62
     9
 10
0.0
 20
0.0
 30
0.0
 70
   128
 71
    74
 72
    54
 73
    56
  0
VERTEX
  5
19A
  8
0
 62
     9
 10
0.0
 20
0.0
 30
0.0
 70
   128
 71
    54
 72
    74
 73
    76
  0
VERTEX
  5
19B
  8
0
 62
     9
 10
0.0
 20
0.0
 30
0.0
 70
   128
 71
    50
 72
    77
 73
    53
  0
VERTEX
  5
19C
  8
0
 62
     9
 10
0.0
 20
0.0
 30
0.0
 70
   128
 71
    76
 72
    77
 73
    50
  0
VERTEX
  5
19D
  8
0
 62
     9
 10
0.0
 20
0.0
 30
0.0
 70
   128
 71
    53
 72
    77
 73
    78
  0
VERTEX
  5
19E
  8
0
 62
     9
 10
0.0
 20
0.0
 30
0.0
 70
   128
 71
    50
 72
    54
 73
    76
  0
VERTEX
  5
19F
  8
0
 62
     9
 10
0.0
 20
0.0
 30
0.0
 70
   128
 71
    53
 72
    78
 73
    60
  0
VERTEX
  5
1A0
  8
0
 62
     9
 10
0.0
 20
0.0
 30
0.0
 70
   128
 71
    78
 72
    79
 73
    60
  0
VERTEX
  5
1A1
  8
0
 62
     9
 10
0.0
 20
0.0
 30
0.0
 70
   128
 71
    63
 72
    60
 73
    79
  0
VERTEX
  5
1A2
  8
0
 62
     9
 10
0.0
 20
0.0
 30
0.0
 70
   128
 71
    75
 72
    56
 73
    80
  0
VERTEX
  5
1A3
  8
0
 62
     9
 10
0.0
 20
0.0
 30
0.0
 70
   128
 71
    80
 72
    82
 73
    81
  0
VERTEX
  5
1A4
  8
0
 62
     9
 10
0.0
 20
0.0
 30
0.0
 70
   128
 71
    81
 72
    75
 73
    80
  0
VERTEX
  5
1A5
  8
0
 62
     9
 10
0.0
 20
0.0
 30
0.0
 70
   128
 71
    82
 72
    83
 73
    81
  0
VERTEX
  5
1A6
  8
0
 62
     9
 10
0.0
 20
0.0
 30
0.0
 70
   128
 71
    82
 72
    84
 73
    83
  0
VERTEX
  5
1A7
  8
0
 62
     9
 10
0.0
 20
0.0
 30
0.0
 70
   128
 71
    86
 72
    85
 73
    84
  0
VERTEX
  5
1A8
  8
0
 62
     9
 10
0.0
 20
0.0
 30
0.0
 70
   128
 71
    83
 72
    84
 73
    85
  0
VERTEX
  5
1A9
  8
0
 62
     9
 10
0.0
 20
0.0
 30
0.0
 70
   128
 71
    73
 72
    85
 73
    86
  0
VERTEX
  5
1AA
  8
0
 62
     9
 10
0.0
 20
0.0
 30
0.0
 70
   128
 71
    88
 72
    87
 73
    68
  0
VERTEX
  5
1AB
  8
0
 62
     9
 10
0.0
 20
0.0
 30
0.0
 70
   128
 71
    87
 72
    71
 73
    68
  0
VERTEX
  5
1AC
  8
0
 62
     9
 10
0.0
 20
0.0
 30
0.0
 70
   128
 71
    71
 72
    87
 73
    89
  0
VERTEX
  5
1AD
  8
0
 62
     9
 10
0.0
 20
0.0
 30
0.0
 70
   128
 71
    69
 72
    90
 73
    70
  0
VERTEX
  5
1AE
  8
0
 62
     9
 10
0.0
 20
0.0
 30
0.0
 70
   128
 71
    89
 72
    90
 73
    69
  0
VERTEX
  5
1AF
  8
0
 62
     9
 10
0.0
 20
0.0
 30
0.0
 70
   128
 71
    70
 72
    90
 73
    91
  0
VERTEX
  5
1B0
  8
0
 62
     9
 10
0.0
 20
0.0
 30
0.0
 70
   128
 71
    69
 72
    71
 73
    89
  0
VERTEX
  5
1B1
  8
0
 62
     9
 10
0.0
 20
0.0
 30
0.0
 70
   128
 71
    70
 72
    91
 73
    72
  0
VERTEX
  5
1B2
  8
0
 62
     9
 10
0.0
 20
0.0
 30
0.0
 70
   128
 71
    91
 72
    92
 73
    72
  0
VERTEX
  5
1B3
  8
0
 62
     9
 10
0.0
 20
0.0
 30
0.0
 70
   128
 71
    73
 72
    72
 73
    92
  0
VERTEX
  5
1B4
  8
0
 62
     9
 10
0.0
 20
0.0
 30
0.0
 70
   128
 71
    88
 72
    68
 73
    67
  0
VERTEX
  5
1B5
  8
0
 62
     9
 10
0.0
 20
0.0
 30
0.0
 70
   128
 71
    67
 72
    65
 73
    93
  0
VERTEX
  5
1B6
  8
0
 62
     9
 10
0.0
 20
0.0
 30
0.0
 70
   128
 71
    93
 72
    88
 73
    67
  0
VERTEX
  5
1B7
  8
0
 62
     9
 10
0.0
 20
0.0
 30
0.0
 70
   128
 71
    65
 72
    94
 73
    93
  0
VERTEX
  5
1B8
  8
0
 62
     9
 10
0.0
 20
0.0
 30
0.0
 70
   128
 71
    65
 72
    64
 73
    94
  0
VERTEX
  5
1B9
  8
0
 62
     9
 10
0.0
 20
0.0
 30
0.0
 70
   128
 71
    66
 72
    95
 73
    64
  0
VERTEX
  5
1BA
  8
0
 62
     9
 10
0.0
 20
0.0
 30
0.0
 70
   128
 71
    94
 72
    64
 73
    95
  0
VERTEX
  5
1BB
  8
0
 62
     9
 10
0.0
 20
0.0
 30
0.0
 70
   128
 71
    63
 72
    95
 73
    66
  0
VERTEX
  5
1BC
  8
0
 62
     9
 10
0.0
 20
0.0
 30
0.0
 70
   128
 71
    97
 72
    80
 73
    96
  0
VERTEX
  5
1BD
  8
0
 62
     9
 10
0.0
 20
0.0
 30
0.0
 70
   128
 71
    80
 72
    98
 73
    82
  0
VERTEX
  5
1BE
  8
0
 62
     9
 10
0.0
 20
0.0
 30
0.0
 70
   128
 71
    58
 72
    96
 73
    56
  0
VERTEX
  5
1BF
  8
0
 62
     9
 10
0.0
 20
0.0
 30
0.0
 70
   128
 71
    84
 72
    99
 73
    86
  0
VERTEX
  5
1C0
  8
0
 62
     9
 10
0.0
 20
0.0
 30
0.0
 70
   128
 71
   101
 72
   100
 73
    84
  0
VERTEX
  5
1C1
  8
0
 62
     9
 10
0.0
 20
0.0
 30
0.0
 70
   128
 71
    73
 72
    86
 73
   102
  0
VERTEX
  5
1C2
  8
0
 62
     9
 10
0.0
 20
0.0
 30
0.0
 70
   128
 71
    99
 72
   102
 73
    86
  0
VERTEX
  5
1C3
  8
0
 62
     9
 10
0.0
 20
0.0
 30
0.0
 70
   128
 71
    73
 72
   102
 73
    48
  0
VERTEX
  5
1C4
  8
0
 62
     9
 10
0.0
 20
0.0
 30
0.0
 70
   128
 71
    84
 72
   100
 73
    99
  0
VERTEX
  5
1C5
  8
0
 62
     9
 10
0.0
 20
0.0
 30
0.0
 70
   128
 71
    97
 72
    98
 73
    80
  0
VERTEX
  5
1C6
  8
0
 62
     9
 10
0.0
 20
0.0
 30
0.0
 70
   128
 71
    56
 72
    96
 73
    80
  0
VERTEX
  5
1C7
  8
0
 62
     9
 10
0.0
 20
0.0
 30
0.0
 70
   128
 71
    82
 72
    98
 73
   101
  0
VERTEX
  5
1C8
  8
0
 62
     9
 10
0.0
 20
0.0
 30
0.0
 70
   128
 71
    82
 72
   101
 73
    84
  0
VERTEX
  5
1C9
  8
0
 62
     9
 10
0.0
 20
0.0
 30
0.0
 70
   128
 71
    30
 72
   103
 73
    62
  0
VERTEX
  5
1CA
  8
0
 62
     9
 10
0.0
 20
0.0
 30
0.0
 70
   128
 71
    52
 72
   104
 73
    49
  0
VERTEX
  5
1CB
  8
0
 62
     9
 10
0.0
 20
0.0
 30
0.0
 70
   128
 71
    59
 72
    61
 73
   105
  0
VERTEX
  5
1CC
  8
0
 62
     9
 10
0.0
 20
0.0
 30
0.0
 70
   128
 71
   107
 72
    57
 73
   106
  0
VERTEX
  5
1CD
  8
0
 62
     9
 10
0.0
 20
0.0
 30
0.0
 70
   128
 71
    55
 72
    51
 73
   108
  0
VERTEX
  5
1CE
  8
0
 62
     9
 10
0.0
 20
0.0
 30
0.0
 70
   128
 71
    97
 72
   110
 73
   109
  0
VERTEX
  5
1CF
  8
0
 62
     9
 10
0.0
 20
0.0
 30
0.0
 70
   128
 71
    58
 72
   111
 73
    96
  0
VERTEX
  5
1D0
  8
0
 62
     9
 10
0.0
 20
0.0
 30
0.0
 70
   128
 71
   101
 72
   113
 73
   112
  0
VERTEX
  5
1D1
  8
0
 62
     9
 10
0.0
 20
0.0
 30
0.0
 70
   128
 71
   109
 72
   113
 73
    98
  0
VERTEX
  5
1D2
  8
0
 62
     9
 10
0.0
 20
0.0
 30
0.0
 70
   128
 71
   114
 72
   100
 73
   112
  0
VERTEX
  5
1D3
  8
0
 62
     9
 10
0.0
 20
0.0
 30
0.0
 70
   128
 71
   101
 72
   112
 73
   100
  0
VERTEX
  5
1D4
  8
0
 62
     9
 10
0.0
 20
0.0
 30
0.0
 70
   128
 71
   114
 72
   115
 73
    99
  0
VERTEX
  5
1D5
  8
0
 62
     9
 10
0.0
 20
0.0
 30
0.0
 70
   128
 71
    99
 72
   100
 73
   114
  0
VERTEX
  5
1D6
  8
0
 62
     9
 10
0.0
 20
0.0
 30
0.0
 70
   128
 71
   102
 72
   115
 73
    47
  0
VERTEX
  5
1D7
  8
0
 62
     9
 10
0.0
 20
0.0
 30
0.0
 70
   128
 71
   115
 72
   102
 73
    99
  0
VERTEX
  5
1D8
  8
0
 62
     9
 10
0.0
 20
0.0
 30
0.0
 70
   128
 71
   102
 72
    47
 73
    48
  0
VERTEX
  5
1D9
  8
0
 62
     9
 10
0.0
 20
0.0
 30
0.0
 70
   128
 71
    97
 72
   109
 73
    98
  0
VERTEX
  5
1DA
  8
0
 62
     9
 10
0.0
 20
0.0
 30
0.0
 70
   128
 71
    98
 72
   113
 73
   101
  0
VERTEX
  5
1DB
  8
0
 62
     9
 10
0.0
 20
0.0
 30
0.0
 70
   128
 71
    96
 72
   111
 73
   110
  0
VERTEX
  5
1DC
  8
0
 62
     9
 10
0.0
 20
0.0
 30
0.0
 70
   128
 71
    96
 72
   110
 73
    97
  0
VERTEX
  5
1DD
  8
0
 62
     9
 10
0.0
 20
0.0
 30
0.0
 70
   128
 71
    58
 72
    57
 73
   107
  0
VERTEX
  5
1DE
  8
0
 62
     9
 10
0.0
 20
0.0
 30
0.0
 70
   128
 71
    58
 72
   107
 73
   111
  0
VERTEX
  5
1DF
  8
0
 62
     9
 10
0.0
 20
0.0
 30
0.0
 70
   128
 71
   106
 72
    55
 73
   108
  0
VERTEX
  5
1E0
  8
0
 62
     9
 10
0.0
 20
0.0
 30
0.0
 70
   128
 71
    57
 72
    55
 73
   106
  0
VERTEX
  5
1E1
  8
0
 62
     9
 10
0.0
 20
0.0
 30
0.0
 70
   128
 71
   116
 72
    51
 73
    49
  0
VERTEX
  5
1E2
  8
0
 62
     9
 10
0.0
 20
0.0
 30
0.0
 70
   128
 71
   108
 72
    51
 73
   116
  0
VERTEX
  5
1E3
  8
0
 62
     9
 10
0.0
 20
0.0
 30
0.0
 70
   128
 71
   117
 72
   104
 73
    52
  0
VERTEX
  5
1E4
  8
0
 62
     9
 10
0.0
 20
0.0
 30
0.0
 70
   128
 71
   104
 72
   116
 73
    49
  0
VERTEX
  5
1E5
  8
0
 62
     9
 10
0.0
 20
0.0
 30
0.0
 70
   128
 71
   117
 72
    59
 73
   105
  0
VERTEX
  5
1E6
  8
0
 62
     9
 10
0.0
 20
0.0
 30
0.0
 70
   128
 71
    59
 72
   117
 73
    52
  0
VERTEX
  5
1E7
  8
0
 62
     9
 10
0.0
 20
0.0
 30
0.0
 70
   128
 71
    61
 72
    62
 73
   103
  0
VERTEX
  5
1E8
  8
0
 62
     9
 10
0.0
 20
0.0
 30
0.0
 70
   128
 71
    61
 72
   103
 73
   105
  0
VERTEX
  5
1E9
  8
0
 62
     9
 10
0.0
 20
0.0
 30
0.0
 70
   128
 71
    62
 72
    31
 73
    30
  0
VERTEX
  5
1EA
  8
0
 62
   250
 10
0.0
 20
0.0
 30
0.0
 70
   128
 71
   112
 72
    18
 73
   114
  0
VERTEX
  5
1EB
  8
0
 62
   250
 10
0.0
 20
0.0
 30
0.0
 70
   128
 71
   109
 72
    24
 73
    21
  0
VERTEX
  5
1EC
  8
0
 62
   250
 10
0.0
 20
0.0
 30
0.0
 70
   128
 71
    45
 72
    47
 73
    33
  0
VERTEX
  5
1ED
  8
0
 62
   250
 10
0.0
 20
0.0
 30
0.0
 70
   128
 71
   115
 72
    14
 73
    15
  0
VERTEX
  5
1EE
  8
0
 62
   250
 10
0.0
 20
0.0
 30
0.0
 70
   128
 71
    43
 72
    36
 73
    37
  0
VERTEX
  5
1EF
  8
0
 62
   250
 10
0.0
 20
0.0
 30
0.0
 70
   128
 71
    43
 72
    37
 73
    42
  0
VERTEX
  5
1F0
  8
0
 62
   250
 10
0.0
 20
0.0
 30
0.0
 70
   128
 71
    42
 72
    37
 73
    39
  0
VERTEX
  5
1F1
  8
0
 62
   250
 10
0.0
 20
0.0
 30
0.0
 70
   128
 71
    45
 72
    33
 73
    36
  0
VERTEX
  5
1F2
  8
0
 62
   250
 10
0.0
 20
0.0
 30
0.0
 70
   128
 71
    43
 72
    45
 73
    36
  0
VERTEX
  5
1F3
  8
0
 62
   250
 10
0.0
 20
0.0
 30
0.0
 70
   128
 71
    47
 72
   115
 73
    15
  0
VERTEX
  5
1F4
  8
0
 62
   250
 10
0.0
 20
0.0
 30
0.0
 70
   128
 71
    33
 72
    47
 73
    15
  0
VERTEX
  5
1F5
  8
0
 62
   250
 10
0.0
 20
0.0
 30
0.0
 70
   128
 71
    14
 72
   114
 73
    18
  0
VERTEX
  5
1F6
  8
0
 62
   250
 10
0.0
 20
0.0
 30
0.0
 70
   128
 71
    14
 72
   115
 73
   114
  0
VERTEX
  5
1F7
  8
0
 62
   250
 10
0.0
 20
0.0
 30
0.0
 70
   128
 71
   112
 72
    20
 73
    18
  0
VERTEX
  5
1F8
  8
0
 62
   250
 10
0.0
 20
0.0
 30
0.0
 70
   128
 71
    20
 72
   112
 73
   113
  0
VERTEX
  5
1F9
  8
0
 62
   250
 10
0.0
 20
0.0
 30
0.0
 70
   128
 71
   113
 72
   109
 73
    21
  0
VERTEX
  5
1FA
  8
0
 62
   250
 10
0.0
 20
0.0
 30
0.0
 70
   128
 71
    21
 72
    20
 73
   113
  0
VERTEX
  5
1FB
  8
0
 62
   250
 10
0.0
 20
0.0
 30
0.0
 70
   128
 71
   110
 72
    24
 73
   109
  0
VERTEX
  5
1FC
  8
0
 62
   250
 10
0.0
 20
0.0
 30
0.0
 70
   128
 71
    26
 72
   110
 73
   111
  0
VERTEX
  5
1FD
  8
0
 62
   250
 10
0.0
 20
0.0
 30
0.0
 70
   128
 71
   110
 72
    26
 73
    24
  0
VERTEX
  5
1FE
  8
0
 62
   250
 10
0.0
 20
0.0
 30
0.0
 70
   128
 71
   107
 72
    27
 73
   111
  0
VERTEX
  5
1FF
  8
0
 62
   250
 10
0.0
 20
0.0
 30
0.0
 70
   128
 71
    26
 72
   111
 73
    27
  0
VERTEX
  5
200
  8
0
 62
   250
 10
0.0
 20
0.0
 30
0.0
 70
   128
 71
    30
 72
    27
 73
   107
  0
VERTEX
  5
201
  8
0
 62
   250
 10
0.0
 20
0.0
 30
0.0
 70
   128
 71
   108
 72
   105
 73
   103
  0
VERTEX
  5
202
  8
0
 62
   250
 10
0.0
 20
0.0
 30
0.0
 70
   128
 71
   107
 72
   106
 73
    30
  0
VERTEX
  5
203
  8
0
 62
   250
 10
0.0
 20
0.0
 30
0.0
 70
   128
 71
   105
 72
   116
 73
   117
  0
VERTEX
  5
204
  8
0
 62
   250
 10
0.0
 20
0.0
 30
0.0
 70
   128
 71
   104
 72
   117
 73
   116
  0
VERTEX
  5
205
  8
0
 62
   250
 10
0.0
 20
0.0
 30
0.0
 70
   128
 71
   106
 72
   108
 73
   103
  0
VERTEX
  5
206
  8
0
 62
   250
 10
0.0
 20
0.0
 30
0.0
 70
   128
 71
   108
 72
   116
 73
   105
  0
VERTEX
  5
207
  8
0
 62
   250
 10
0.0
 20
0.0
 30
0.0
 70
   128
 71
   103
 72
    30
 73
   106
  0
SEQEND
  5
208
  8
0
  0
ENDBLK
  5
20B
  8
0
  0
BLOCK
  8
0
  2
41
 70
     0
 10
0.0
 20
0.0
 30
0.0
  3
41
  1

  0
POLYLINE
  5
20D
  8
0
 62
     9
 66
     1
 10
0.0
 20
0.0
 30
0.0
 70
    64
 71
   326
 72
   513
  0
VERTEX
  5
20E
  8
0
 10
53.72966766357422
 20
-4.934443950653076
 30
27.0828971862793
 70
   192
  0
VERTEX
  5
20F
  8
0
 10
46.59999847412109
 20
-11.44891834259033
 30
25.15072822570801
 70
   192
  0
VERTEX
  5
210
  8
0
 10
56.23886489868164
 20
-11.66573143005371
 30
24.88640594482422
 70
   192
  0
VERTEX
  5
211
  8
0
 10
62.76910400390625
 20
-14.743971824646
 30
23.06046485900879
 70
   192
  0
VERTEX
  5
212
  8
0
 10
46.59999847412109
 20
-18.33573341369629
 30
20.67022323608398
 70
   192
  0
VERTEX
  5
213
  8
0
 10
46.59999847412109
 20
12.49126815795898
 30
24.68129539489746
 70
   192
  0
VERTEX
  5
214
  8
0
 10
56.24079513549805
 20
11.6679105758667
 30
24.88534736633301
 70
   192
  0
VERTEX
  5
215
  8
0
 10
62.76910400390625
 20
14.743971824646
 30
23.06046485900879
 70
   192
  0
VERTEX
  5
216
  8
0
 10
61.39999771118164
 20
24.98000144958496
 30
11.24624538421631
 70
   192
  0
VERTEX
  5
217
  8
0
 10
77.83489990234375
 20
26.08423614501953
 30
7.379411697387695
 70
   192
  0
VERTEX
  5
218
  8
0
 10
46.59999847412109
 20
27.08114433288574
 30
5.673245429992676
 70
   192
  0
VERTEX
  5
219
  8
0
 10
46.59999847412109
 20
24.20895767211914
 30
13.39216804504395
 70
   192
  0
VERTEX
  5
21A
  8
0
 10
61.39999771118164
 20
22.22953414916992
 30
16.01019287109375
 70
   192
  0
VERTEX
  5
21B
  8
0
 10
77.83489990234375
 20
24.85715484619141
 30
10.81503772735596
 70
   192
  0
VERTEX
  5
21C
  8
0
 10
46.59999847412109
 20
19.20691299438477
 30
19.91391944885254
 70
   192
  0
VERTEX
  5
21D
  8
0
 10
77.83489990234375
 20
15.03401565551758
 30
22.55707168579102
 70
   192
  0
VERTEX
  5
21E
  8
0
 10
77.83489990234375
 20
21.79467391967773
 30
16.11940765380859
 70
   192
  0
VERTEX
  5
21F
  8
0
 10
46.59999847412109
 20
4.682372570037842
 30
27.25090408325195
 70
   192
  0
VERTEX
  5
220
  8
0
 10
46.59999847412109
 20
-3.544920682907104
 30
27.42122650146484
 70
   192
  0
VERTEX
  5
221
  8
0
 10
53.72966766357422
 20
4.934443950653076
 30
27.0828971862793
 70
   192
  0
VERTEX
  5
222
  8
0
 10
77.83489990234375
 20
-15.03401565551758
 30
22.55707168579102
 70
   192
  0
VERTEX
  5
223
  8
0
 10
77.83489990234375
 20
-21.69497680664062
 30
16.25334167480469
 70
   192
  0
VERTEX
  5
224
  8
0
 10
52.59999847412109
 20
-22.36394119262695
 30
16.08639907836914
 70
   192
  0
VERTEX
  5
225
  8
0
 10
77.83489990234375
 20
-26.08423614501953
 30
7.379411697387695
 70
   192
  0
VERTEX
  5
226
  8
0
 10
77.83489990234375
 20
-24.92329597473145
 30
10.66173076629639
 70
   192
  0
VERTEX
  5
227
  8
0
 10
52.59999847412109
 20
-25.11319923400879
 30
11.32454109191895
 70
   192
  0
VERTEX
  5
228
  8
0
 10
46.59999847412109
 20
-23.60418510437012
 30
14.36897850036621
 70
   192
  0
VERTEX
  5
229
  8
0
 10
46.59999847412109
 20
-26.78884887695312
 30
6.79994535446167
 70
   192
  0
VERTEX
  5
22A
  8
0
 10
52.59999847412109
 20
-16.08639907836914
 30
-22.36394119262695
 70
   192
  0
VERTEX
  5
22B
  8
0
 10
46.59999847412109
 20
-16.97864723205566
 30
-21.84509086608887
 70
   192
  0
VERTEX
  5
22C
  8
0
 10
77.83489990234375
 20
-16.25334167480469
 30
-21.69497680664062
 70
   192
  0
VERTEX
  5
22D
  8
0
 10
52.59999847412109
 20
25.11319923400879
 30
-11.32454109191895
 70
   192
  0
VERTEX
  5
22E
  8
0
 10
77.83489990234375
 20
26.08423614501953
 30
-7.379411697387695
 70
   192
  0
VERTEX
  5
22F
  8
0
 10
46.59999847412109
 20
26.78884887695312
 30
-6.79994535446167
 70
   192
  0
VERTEX
  5
230
  8
0
 10
46.59999847412109
 20
-23.15337944030762
 30
-15.14497375488281
 70
   192
  0
VERTEX
  5
231
  8
0
 10
77.83489990234375
 20
-26.08423614501953
 30
-7.379411697387695
 70
   192
  0
VERTEX
  5
232
  8
0
 10
77.83489990234375
 20
-22.77412605285645
 30
-14.70313930511475
 70
   192
  0
VERTEX
  5
233
  8
0
 10
46.59999847412109
 20
23.12905311584473
 30
-15.12305736541748
 70
   192
  0
VERTEX
  5
234
  8
0
 10
77.83489990234375
 20
-10.66173076629639
 30
-24.92329597473145
 70
   192
  0
VERTEX
  5
235
  8
0
 10
77.83489990234375
 20
-1.928564071655273
 30
-27.03775787353516
 70
   192
  0
VERTEX
  5
236
  8
0
 10
46.59999847412109
 20
-8.962234497070312
 30
-26.16155815124512
 70
   192
  0
VERTEX
  5
237
  8
0
 10
46.59999847412109
 20
-0.0015223424416035
 30
-27.6531982421875
 70
   192
  0
VERTEX
  5
238
  8
0
 10
46.59999847412109
 20
8.986170768737793
 30
-26.13735961914062
 70
   192
  0
VERTEX
  5
239
  8
0
 10
77.83489990234375
 20
7.016329765319824
 30
-26.18470764160156
 70
   192
  0
VERTEX
  5
23A
  8
0
 10
52.59999847412109
 20
22.36394119262695
 30
-16.08639907836914
 70
   192
  0
VERTEX
  5
23B
  8
0
 10
46.59999847412109
 20
16.97816276550293
 30
-21.79759979248047
 70
   192
  0
VERTEX
  5
23C
  8
0
 10
77.83489990234375
 20
21.69497680664062
 30
-16.25334167480469
 70
   192
  0
VERTEX
  5
23D
  8
0
 10
77.83489990234375
 20
15.19227123260498
 30
-22.4550895690918
 70
   192
  0
VERTEX
  5
23E
  8
0
 10
77.83489990234375
 20
24.92329597473145
 30
-10.66173076629639
 70
   192
  0
VERTEX
  5
23F
  8
0
 10
52.59999847412109
 20
-11.32454109191895
 30
-25.11319923400879
 70
   192
  0
VERTEX
  5
240
  8
0
 10
46.59999847412109
 20
-26.81912994384766
 30
-6.807593822479248
 70
   192
  0
VERTEX
  5
241
  8
0
 10
48.59999847412109
 20
-28.63372421264648
 30
5.72316837310791
 70
   192
  0
VERTEX
  5
242
  8
0
 10
48.59999847412109
 20
-29.20000076293945
 30
0.0000000000005258
 70
   192
  0
VERTEX
  5
243
  8
0
 10
46.79999923706055
 20
-29.07486724853516
 30
2.696848392486572
 70
   192
  0
VERTEX
  5
244
  8
0
 10
46.79999923706055
 20
-28.08377838134766
 30
7.991720199584961
 70
   192
  0
VERTEX
  5
245
  8
0
 10
48.59999847412109
 20
-26.97722434997559
 30
11.17433261871338
 70
   192
  0
VERTEX
  5
246
  8
0
 10
46.79999923706055
 20
-26.13570022583008
 30
13.01635456085205
 70
   192
  0
VERTEX
  5
247
  8
0
 10
48.59999847412109
 20
-24.29399108886719
 30
16.20020866394043
 70
   192
  0
VERTEX
  5
248
  8
0
 10
48.59999847412109
 20
-20.64751815795898
 30
20.64751815795898
 70
   192
  0
VERTEX
  5
249
  8
0
 10
46.79999923706055
 20
-23.30129051208496
 30
17.59320259094238
 70
   192
  0
VERTEX
  5
24A
  8
0
 10
46.79999923706055
 20
-19.66775703430176
 30
21.57195854187012
 70
   192
  0
VERTEX
  5
24B
  8
0
 10
48.59999847412109
 20
-16.20020866394043
 30
24.29399108886719
 70
   192
  0
VERTEX
  5
24C
  8
0
 10
46.79999923706055
 20
-15.36162376403809
 30
24.8120002746582
 70
   192
  0
VERTEX
  5
24D
  8
0
 10
48.59999847412109
 20
-11.17433261871338
 30
26.97722434997559
 70
   192
  0
VERTEX
  5
24E
  8
0
 10
48.59999847412109
 20
-5.72316837310791
 30
28.63372421264648
 70
   192
  0
VERTEX
  5
24F
  8
0
 10
46.79999923706055
 20
-10.54125118255615
 30
27.21355628967285
 70
   192
  0
VERTEX
  5
250
  8
0
 10
46.79999923706055
 20
-5.361494064331055
 30
28.70134162902832
 70
   192
  0
VERTEX
  5
251
  8
0
 10
48.59999847412109
 20
0.0000000000000087
 30
29.20000076293945
 70
   192
  0
VERTEX
  5
252
  8
0
 10
46.79999923706055
 20
0.000000000000008
 30
29.20000076293945
 70
   192
  0
VERTEX
  5
253
  8
0
 10
46.79999923706055
 20
-29.07566452026367
 30
-2.689923286437988
 70
   192
  0
VERTEX
  5
254
  8
0
 10
48.59999847412109
 20
-28.63372421264648
 30
-5.72316837310791
 70
   192
  0
VERTEX
  5
255
  8
0
 10
46.79999923706055
 20
-28.0864372253418
 30
-7.988370895385742
 70
   192
  0
VERTEX
  5
256
  8
0
 10
46.79999923706055
 20
-26.14270782470703
 30
-13.0097541809082
 70
   192
  0
VERTEX
  5
257
  8
0
 10
48.59999847412109
 20
-26.97722434997559
 30
-11.17433261871338
 70
   192
  0
VERTEX
  5
258
  8
0
 10
48.59999847412109
 20
-24.29399108886719
 30
-16.20020866394043
 70
   192
  0
VERTEX
  5
259
  8
0
 10
46.79999923706055
 20
-23.30707359313965
 30
-17.59382629394531
 70
   192
  0
VERTEX
  5
25A
  8
0
 10
48.59999847412109
 20
-20.64751815795898
 30
-20.64751815795898
 70
   192
  0
VERTEX
  5
25B
  8
0
 10
46.79999923706055
 20
-19.68017578125
 30
-21.57449531555176
 70
   192
  0
VERTEX
  5
25C
  8
0
 10
46.79999923706055
 20
-15.33624744415283
 30
-24.75108909606934
 70
   192
  0
VERTEX
  5
25D
  8
0
 10
48.59999847412109
 20
-16.20020866394043
 30
-24.29399108886719
 70
   192
  0
VERTEX
  5
25E
  8
0
 10
48.59999847412109
 20
-11.17433261871338
 30
-26.97722434997559
 70
   192
  0
VERTEX
  5
25F
  8
0
 10
46.79999923706055
 20
-10.56489181518555
 30
-27.24777030944824
 70
   192
  0
VERTEX
  5
260
  8
0
 10
48.59999847412109
 20
-5.72316837310791
 30
-28.63372421264648
 70
   192
  0
VERTEX
  5
261
  8
0
 10
46.79999923706055
 20
-5.370864391326904
 30
-28.70395278930664
 70
   192
  0
VERTEX
  5
262
  8
0
 10
48.59999847412109
 20
0.0000000000000641
 30
-29.20000076293945
 70
   192
  0
VERTEX
  5
263
  8
0
 10
46.79999923706055
 20
0.0000000000000635
 30
-29.20000076293945
 70
   192
  0
VERTEX
  5
264
  8
0
 10
66.742431640625
 20
7.47012186050415
 30
19.75
 70
   192
  0
VERTEX
  5
265
  8
0
 10
64.90592956542969
 20
9.32613754272461
 30
30.15398406982422
 70
   192
  0
VERTEX
  5
266
  8
0
 10
66.72598266601562
 20
7.502510547637939
 30
30.63571357727051
 70
   192
  0
VERTEX
  5
267
  8
0
 10
64.82164764404297
 20
9.362510681152344
 30
19.75
 70
   192
  0
VERTEX
  5
268
  8
0
 10
62.39999771118164
 20
10.0
 30
29.97006034851074
 70
   192
  0
VERTEX
  5
269
  8
0
 10
62.39999771118164
 20
10.0
 30
19.75
 70
   192
  0
VERTEX
  5
26A
  8
0
 10
67.4000015258789
 20
5.0
 30
31.13912010192871
 70
   192
  0
VERTEX
  5
26B
  8
0
 10
67.4000015258789
 20
5.0
 30
19.75
 70
   192
  0
VERTEX
  5
26C
  8
0
 10
85.4000015258789
 20
29.75
 30
0.0000000000006253
 70
   192
  0
VERTEX
  5
26D
  8
0
 10
82.29999542236328
 20
29.11999702453613
 30
-5.820362091064453
 70
   192
  0
VERTEX
  5
26E
  8
0
 10
82.29999542236328
 20
29.69588851928711
 30
0.0000000000006324
 70
   192
  0
VERTEX
  5
26F
  8
0
 10
82.29999542236328
 20
27.43536567687988
 30
-11.36410045623779
 70
   192
  0
VERTEX
  5
270
  8
0
 10
85.4000015258789
 20
29.17305755615234
 30
-5.830967903137207
 70
   192
  0
VERTEX
  5
271
  8
0
 10
85.4000015258789
 20
27.4853572845459
 30
-11.38480758666992
 70
   192
  0
VERTEX
  5
272
  8
0
 10
82.29999542236328
 20
24.70656394958496
 30
-16.4753303527832
 70
   192
  0
VERTEX
  5
273
  8
0
 10
85.4000015258789
 20
24.75158309936523
 30
-16.50535011291504
 70
   192
  0
VERTEX
  5
274
  8
0
 10
82.29999542236328
 20
20.99816513061523
 30
-20.99816513061523
 70
   192
  0
VERTEX
  5
275
  8
0
 10
85.4000015258789
 20
21.03642654418945
 30
-21.03642654418945
 70
   192
  0
VERTEX
  5
276
  8
0
 10
85.4000015258789
 20
16.50535011291504
 30
-24.75158309936523
 70
   192
  0
VERTEX
  5
277
  8
0
 10
85.4000015258789
 20
11.38480758666992
 30
-27.4853572845459
 70
   192
  0
VERTEX
  5
278
  8
0
 10
82.29999542236328
 20
16.4753303527832
 30
-24.70656394958496
 70
   192
  0
VERTEX
  5
279
  8
0
 10
82.29999542236328
 20
5.820362091064453
 30
-29.11999702453613
 70
   192
  0
VERTEX
  5
27A
  8
0
 10
82.29999542236328
 20
11.36410045623779
 30
-27.43536567687988
 70
   192
  0
VERTEX
  5
27B
  8
0
 10
82.29999542236328
 20
0.0000000000000708
 30
-29.69588851928711
 70
   192
  0
VERTEX
  5
27C
  8
0
 10
85.4000015258789
 20
5.830967903137207
 30
-29.17305755615234
 70
   192
  0
VERTEX
  5
27D
  8
0
 10
85.4000015258789
 20
0.000000000000072
 30
-29.75
 70
   192
  0
VERTEX
  5
27E
  8
0
 10
85.4000015258789
 20
29.17305755615234
 30
5.830967903137207
 70
   192
  0
VERTEX
  5
27F
  8
0
 10
82.29999542236328
 20
29.11999702453613
 30
5.820362091064453
 70
   192
  0
VERTEX
  5
280
  8
0
 10
85.4000015258789
 20
27.4853572845459
 30
11.38480758666992
 70
   192
  0
VERTEX
  5
281
  8
0
 10
85.4000015258789
 20
24.75158309936523
 30
16.50535011291504
 70
   192
  0
VERTEX
  5
282
  8
0
 10
82.29999542236328
 20
27.43536567687988
 30
11.36410045623779
 70
   192
  0
VERTEX
  5
283
  8
0
 10
82.29999542236328
 20
24.70656394958496
 30
16.4753303527832
 70
   192
  0
VERTEX
  5
284
  8
0
 10
85.4000015258789
 20
21.03642654418945
 30
21.03642654418945
 70
   192
  0
VERTEX
  5
285
  8
0
 10
82.29999542236328
 20
16.4753303527832
 30
24.70656394958496
 70
   192
  0
VERTEX
  5
286
  8
0
 10
82.29999542236328
 20
20.99816513061523
 30
20.99816513061523
 70
   192
  0
VERTEX
  5
287
  8
0
 10
85.4000015258789
 20
16.50535011291504
 30
24.75158309936523
 70
   192
  0
VERTEX
  5
288
  8
0
 10
82.29999542236328
 20
11.36410045623779
 30
27.43536567687988
 70
   192
  0
VERTEX
  5
289
  8
0
 10
85.4000015258789
 20
11.38480758666992
 30
27.4853572845459
 70
   192
  0
VERTEX
  5
28A
  8
0
 10
85.4000015258789
 20
5.830967903137207
 30
29.17305755615234
 70
   192
  0
VERTEX
  5
28B
  8
0
 10
82.29999542236328
 20
5.820362091064453
 30
29.11999702453613
 70
   192
  0
VERTEX
  5
28C
  8
0
 10
85.4000015258789
 20
0.0000000000000279
 30
29.75
 70
   192
  0
VERTEX
  5
28D
  8
0
 10
82.29999542236328
 20
0.0000000000000268
 30
29.69588851928711
 70
   192
  0
VERTEX
  5
28E
  8
0
 10
48.59999847412109
 20
-24.34212875366211
 30
20.37911224365234
 70
   192
  0
VERTEX
  5
28F
  8
0
 10
85.4000015258789
 20
-23.99427223205566
 30
20.15191459655762
 70
   192
  0
VERTEX
  5
290
  8
0
 10
85.4000015258789
 20
-27.13056945800781
 30
15.67732429504395
 70
   192
  0
VERTEX
  5
291
  8
0
 10
48.59999847412109
 20
-27.51211929321289
 30
15.84474086761475
 70
   192
  0
VERTEX
  5
292
  8
0
 10
85.4000015258789
 20
-29.44216346740723
 30
10.72493648529053
 70
   192
  0
VERTEX
  5
293
  8
0
 10
48.59999847412109
 20
-20.40894889831543
 30
24.32032775878906
 70
   192
  0
VERTEX
  5
294
  8
0
 10
48.59999847412109
 20
-15.86325931549072
 30
27.50444793701172
 70
   192
  0
VERTEX
  5
295
  8
0
 10
85.4000015258789
 20
-20.12938499450684
 30
24.01276016235352
 70
   192
  0
VERTEX
  5
296
  8
0
 10
85.4000015258789
 20
-15.65419292449951
 30
27.14293479919434
 70
   192
  0
VERTEX
  5
297
  8
0
 10
48.59999847412109
 20
-10.87297821044922
 30
29.82984924316406
 70
   192
  0
VERTEX
  5
298
  8
0
 10
58.05854797363281
 20
-7.4787278175354
 30
30.74924850463867
 70
   192
  0
VERTEX
  5
299
  8
0
 10
59.86654281616211
 20
-9.305231094360352
 30
30.22709274291992
 70
   192
  0
VERTEX
  5
29A
  8
0
 10
85.4000015258789
 20
-10.70541381835938
 30
29.44808387756348
 70
   192
  0
VERTEX
  5
29B
  8
0
 10
62.3984375
 20
-10.0
 30
29.97007942199707
 70
   192
  0
VERTEX
  5
29C
  8
0
 10
64.90528869628906
 20
-9.326725006103516
 30
30.1538200378418
 70
   192
  0
VERTEX
  5
29D
  8
0
 10
66.72473907470703
 20
-7.504154682159424
 30
30.63530349731445
 70
   192
  0
VERTEX
  5
29E
  8
0
 10
67.4000015258789
 20
-5.0
 30
31.13912010192871
 70
   192
  0
VERTEX
  5
29F
  8
0
 10
85.4000015258789
 20
-5.445516586303711
 30
30.85812759399414
 70
   192
  0
VERTEX
  5
2A0
  8
0
 10
85.4000015258789
 20
0.0000000000000154
 30
31.33499908447266
 70
   192
  0
VERTEX
  5
2A1
  8
0
 10
67.4000015258789
 20
0.0000000000000085
 30
31.53798866271973
 70
   192
  0
VERTEX
  5
2A2
  8
0
 10
48.59999847412109
 20
-31.26349830627441
 30
5.531525135040283
 70
   192
  0
VERTEX
  5
2A3
  8
0
 10
85.4000015258789
 20
-30.85812759399414
 30
5.445516586303711
 70
   192
  0
VERTEX
  5
2A4
  8
0
 10
85.4000015258789
 20
-31.33499908447266
 30
0.0000000000005434
 70
   192
  0
VERTEX
  5
2A5
  8
0
 10
57.39999771118164
 20
-5.0
 30
31.25333023071289
 70
   192
  0
VERTEX
  5
2A6
  8
0
 10
48.59999847412109
 20
0.0000000000000014
 30
31.75
 70
   192
  0
VERTEX
  5
2A7
  8
0
 10
57.39999771118164
 20
0.0000000000000047
 30
31.65076065063477
 70
   192
  0
VERTEX
  5
2A8
  8
0
 10
48.59999847412109
 20
-29.8358154296875
 30
10.85857486724854
 70
   192
  0
VERTEX
  5
2A9
  8
0
 10
48.59999847412109
 20
-5.546130180358887
 30
31.26122665405273
 70
   192
  0
VERTEX
  5
2AA
  8
0
 10
48.59999847412109
 20
-31.75
 30
0.0000000000005226
 70
   192
  0
VERTEX
  5
2AB
  8
0
 10
85.4000015258789
 20
-30.8592700958252
 30
-5.433915615081787
 70
   192
  0
VERTEX
  5
2AC
  8
0
 10
48.59999847412109
 20
-31.26122665405273
 30
-5.546130180358887
 70
   192
  0
VERTEX
  5
2AD
  8
0
 10
85.4000015258789
 20
-29.44808387756348
 30
-10.70541381835938
 70
   192
  0
VERTEX
  5
2AE
  8
0
 10
48.59999847412109
 20
-29.82984924316406
 30
-10.87297821044922
 70
   192
  0
VERTEX
  5
2AF
  8
0
 10
48.59999847412109
 20
-27.50444793701172
 30
-15.86325931549072
 70
   192
  0
VERTEX
  5
2B0
  8
0
 10
85.4000015258789
 20
-27.14293479919434
 30
-15.65419292449951
 70
   192
  0
VERTEX
  5
2B1
  8
0
 10
85.4000015258789
 20
-24.01276016235352
 30
-20.12938499450684
 70
   192
  0
VERTEX
  5
2B2
  8
0
 10
48.59999847412109
 20
-24.32032775878906
 30
-20.40894889831543
 70
   192
  0
VERTEX
  5
2B3
  8
0
 10
85.4000015258789
 20
-20.15191459655762
 30
-23.99427223205566
 70
   192
  0
VERTEX
  5
2B4
  8
0
 10
48.59999847412109
 20
-20.37911224365234
 30
-24.34212875366211
 70
   192
  0
VERTEX
  5
2B5
  8
0
 10
48.59999847412109
 20
-15.84474086761475
 30
-27.51211929321289
 70
   192
  0
VERTEX
  5
2B6
  8
0
 10
85.4000015258789
 20
-15.67732429504395
 30
-27.13056945800781
 70
   192
  0
VERTEX
  5
2B7
  8
0
 10
85.4000015258789
 20
-10.72493648529053
 30
-29.44216346740723
 70
   192
  0
VERTEX
  5
2B8
  8
0
 10
48.59999847412109
 20
-10.85857486724854
 30
-29.8358154296875
 70
   192
  0
VERTEX
  5
2B9
  8
0
 10
85.4000015258789
 20
-5.445516586303711
 30
-30.85812759399414
 70
   192
  0
VERTEX
  5
2BA
  8
0
 10
48.59999847412109
 20
-5.546130180358887
 30
-31.26122665405273
 70
   192
  0
VERTEX
  5
2BB
  8
0
 10
85.4000015258789
 20
0.0000000000000771
 30
-31.33499908447266
 70
   192
  0
VERTEX
  5
2BC
  8
0
 10
48.59999847412109
 20
0.000000000000064
 30
-31.75
 70
   192
  0
VERTEX
  5
2BD
  8
0
 10
85.4000015258789
 20
-15.62511539459229
 30
-25.21729278564453
 70
   192
  0
VERTEX
  5
2BE
  8
0
 10
85.4000015258789
 20
-26.62798309326172
 30
13.26152515411377
 70
   192
  0
VERTEX
  5
2BF
  8
0
 10
85.4000015258789
 20
-23.74018478393555
 30
17.92458152770996
 70
   192
  0
VERTEX
  5
2C0
  8
0
 10
85.4000015258789
 20
-20.03821182250977
 30
21.97827911376953
 70
   192
  0
VERTEX
  5
2C1
  8
0
 10
85.4000015258789
 20
-28.61275482177734
 30
8.14224910736084
 70
   192
  0
VERTEX
  5
2C2
  8
0
 10
85.4000015258789
 20
-15.65096855163574
 30
25.27934837341309
 70
   192
  0
VERTEX
  5
2C3
  8
0
 10
85.4000015258789
 20
-29.62251091003418
 30
2.747645139694214
 70
   192
  0
VERTEX
  5
2C4
  8
0
 10
85.4000015258789
 20
-10.73980236053467
 30
27.72614097595215
 70
   192
  0
VERTEX
  5
2C5
  8
0
 10
85.4000015258789
 20
-5.462481498718262
 30
29.2419490814209
 70
   192
  0
VERTEX
  5
2C6
  8
0
 10
85.4000015258789
 20
-29.62332153320312
 30
-2.740589618682861
 70
   192
  0
VERTEX
  5
2C7
  8
0
 10
85.4000015258789
 20
5.437567710876465
 30
30.85795211791992
 70
   192
  0
VERTEX
  5
2C8
  8
0
 10
85.4000015258789
 20
-28.6154613494873
 30
-8.138836860656738
 70
   192
  0
VERTEX
  5
2C9
  8
0
 10
85.4000015258789
 20
-10.76388835906982
 30
-27.7609977722168
 70
   192
  0
VERTEX
  5
2CA
  8
0
 10
85.4000015258789
 20
5.446597099304199
 30
-30.85986137390137
 70
   192
  0
VERTEX
  5
2CB
  8
0
 10
85.4000015258789
 20
29.4478588104248
 30
-10.71126365661621
 70
   192
  0
VERTEX
  5
2CC
  8
0
 10
85.4000015258789
 20
27.14006805419922
 30
-15.66524219512939
 70
   192
  0
VERTEX
  5
2CD
  8
0
 10
85.4000015258789
 20
30.8574275970459
 30
5.444780349731445
 70
   192
  0
VERTEX
  5
2CE
  8
0
 10
85.4000015258789
 20
20.15121650695801
 30
-23.99834632873535
 70
   192
  0
VERTEX
  5
2CF
  8
0
 10
85.4000015258789
 20
24.01138687133789
 30
-20.13678741455078
 70
   192
  0
VERTEX
  5
2D0
  8
0
 10
85.4000015258789
 20
30.85977363586426
 30
-5.436881065368652
 70
   192
  0
VERTEX
  5
2D1
  8
0
 10
85.4000015258789
 20
31.33499908447266
 30
0.0000000000006203
 70
   192
  0
VERTEX
  5
2D2
  8
0
 10
85.4000015258789
 20
15.60342693328857
 30
-27.02207183837891
 70
   192
  0
VERTEX
  5
2D3
  8
0
 10
85.4000015258789
 20
10.73846817016602
 30
-29.46975517272949
 70
   192
  0
VERTEX
  5
2D4
  8
0
 10
85.4000015258789
 20
29.44293594360352
 30
10.71855354309082
 70
   192
  0
VERTEX
  5
2D5
  8
0
 10
85.4000015258789
 20
27.13579368591309
 30
15.66403865814209
 70
   192
  0
VERTEX
  5
2D6
  8
0
 10
85.4000015258789
 20
24.00211715698242
 30
20.14132308959961
 70
   192
  0
VERTEX
  5
2D7
  8
0
 10
85.4000015258789
 20
-5.472027778625488
 30
-29.24460792541504
 70
   192
  0
VERTEX
  5
2D8
  8
0
 10
85.4000015258789
 20
20.13604164123535
 30
23.99223136901855
 70
   192
  0
VERTEX
  5
2D9
  8
0
 10
85.4000015258789
 20
15.65849494934082
 30
27.12003326416016
 70
   192
  0
VERTEX
  5
2DA
  8
0
 10
85.4000015258789
 20
10.70939159393311
 30
29.43124771118164
 70
   192
  0
VERTEX
  5
2DB
  8
0
 10
85.4000015258789
 20
-20.05086517333984
 30
-21.98086547851562
 70
   192
  0
VERTEX
  5
2DC
  8
0
 10
85.4000015258789
 20
-26.63512229919434
 30
-13.25480079650879
 70
   192
  0
VERTEX
  5
2DD
  8
0
 10
85.4000015258789
 20
-23.7460765838623
 30
-17.92521667480469
 70
   192
  0
VERTEX
  5
2DE
  8
0
 10
48.59999847412109
 20
15.84474086761475
 30
27.51211929321289
 70
   192
  0
VERTEX
  5
2DF
  8
0
 10
48.59999847412109
 20
29.82984924316406
 30
10.87297821044922
 70
   192
  0
VERTEX
  5
2E0
  8
0
 10
48.59999847412109
 20
24.32032775878906
 30
20.40894889831543
 70
   192
  0
VERTEX
  5
2E1
  8
0
 10
48.59999847412109
 20
31.26349830627441
 30
-5.531525135040283
 70
   192
  0
VERTEX
  5
2E2
  8
0
 10
48.59999847412109
 20
29.8358154296875
 30
-10.85857486724854
 70
   192
  0
VERTEX
  5
2E3
  8
0
 10
48.59999847412109
 20
31.75
 30
0.0000000000005929
 70
   192
  0
VERTEX
  5
2E4
  8
0
 10
48.59999847412109
 20
24.34212875366211
 30
-20.37911224365234
 70
   192
  0
VERTEX
  5
2E5
  8
0
 10
48.59999847412109
 20
27.51211929321289
 30
-15.84474086761475
 70
   192
  0
VERTEX
  5
2E6
  8
0
 10
48.59999847412109
 20
20.40894889831543
 30
-24.32032775878906
 70
   192
  0
VERTEX
  5
2E7
  8
0
 10
48.59999847412109
 20
15.86325931549072
 30
-27.50444793701172
 70
   192
  0
VERTEX
  5
2E8
  8
0
 10
48.59999847412109
 20
10.87297821044922
 30
-29.82984924316406
 70
   192
  0
VERTEX
  5
2E9
  8
0
 10
48.59999847412109
 20
5.546130180358887
 30
-31.26122665405273
 70
   192
  0
VERTEX
  5
2EA
  8
0
 10
48.59999847412109
 20
31.26122665405273
 30
5.546130180358887
 70
   192
  0
VERTEX
  5
2EB
  8
0
 10
48.59999847412109
 20
27.50444793701172
 30
15.86325931549072
 70
   192
  0
VERTEX
  5
2EC
  8
0
 10
48.59999847412109
 20
20.37911224365234
 30
24.34212875366211
 70
   192
  0
VERTEX
  5
2ED
  8
0
 10
48.59999847412109
 20
10.85857486724854
 30
29.8358154296875
 70
   192
  0
VERTEX
  5
2EE
  8
0
 10
58.07613754272461
 20
7.505520343780518
 30
30.73541259765625
 70
   192
  0
VERTEX
  5
2EF
  8
0
 10
57.39999771118164
 20
5.0
 30
31.25333023071289
 70
   192
  0
VERTEX
  5
2F0
  8
0
 10
48.59999847412109
 20
5.546130180358887
 30
31.26122665405273
 70
   192
  0
VERTEX
  5
2F1
  8
0
 10
59.89341735839844
 20
9.326172828674316
 30
30.21313095092773
 70
   192
  0
VERTEX
  5
2F2
  8
0
 10
82.29999542236328
 20
-11.36410045623779
 30
-27.43536567687988
 70
   192
  0
VERTEX
  5
2F3
  8
0
 10
82.29999542236328
 20
-5.820362091064453
 30
-29.11999702453613
 70
   192
  0
VERTEX
  5
2F4
  8
0
 10
82.29999542236328
 20
-27.43536567687988
 30
-11.36410045623779
 70
   192
  0
VERTEX
  5
2F5
  8
0
 10
82.29999542236328
 20
-20.99816513061523
 30
-20.99816513061523
 70
   192
  0
VERTEX
  5
2F6
  8
0
 10
82.29999542236328
 20
-29.11999702453613
 30
5.820362091064453
 70
   192
  0
VERTEX
  5
2F7
  8
0
 10
82.29999542236328
 20
-29.69588851928711
 30
0.0000000000005684
 70
   192
  0
VERTEX
  5
2F8
  8
0
 10
82.29999542236328
 20
-29.11999702453613
 30
-5.820362091064453
 70
   192
  0
VERTEX
  5
2F9
  8
0
 10
82.29999542236328
 20
-20.99816513061523
 30
20.99816513061523
 70
   192
  0
VERTEX
  5
2FA
  8
0
 10
82.29999542236328
 20
-24.70656394958496
 30
16.4753303527832
 70
   192
  0
VERTEX
  5
2FB
  8
0
 10
82.29999542236328
 20
-27.43536567687988
 30
11.36410045623779
 70
   192
  0
VERTEX
  5
2FC
  8
0
 10
82.29999542236328
 20
-16.4753303527832
 30
24.70656394958496
 70
   192
  0
VERTEX
  5
2FD
  8
0
 10
82.29999542236328
 20
-11.36410045623779
 30
27.43536567687988
 70
   192
  0
VERTEX
  5
2FE
  8
0
 10
82.29999542236328
 20
-5.820362091064453
 30
29.11999702453613
 70
   192
  0
VERTEX
  5
2FF
  8
0
 10
82.29999542236328
 20
-24.70656394958496
 30
-16.4753303527832
 70
   192
  0
VERTEX
  5
300
  8
0
 10
82.29999542236328
 20
-16.4753303527832
 30
-24.70656394958496
 70
   192
  0
VERTEX
  5
301
  8
0
 10
58.06465911865234
 20
-7.524974346160889
 30
19.75
 70
   192
  0
VERTEX
  5
302
  8
0
 10
59.91347122192383
 20
-9.331962585449219
 30
19.75
 70
   192
  0
VERTEX
  5
303
  8
0
 10
62.39999771118164
 20
-10.0
 30
19.75
 70
   192
  0
VERTEX
  5
304
  8
0
 10
57.39999771118164
 20
-5.0
 30
19.75
 70
   192
  0
VERTEX
  5
305
  8
0
 10
64.91410827636719
 20
-9.295411109924316
 30
19.75
 70
   192
  0
VERTEX
  5
306
  8
0
 10
66.72296142578125
 20
-7.465560913085938
 30
19.75
 70
   192
  0
VERTEX
  5
307
  8
0
 10
67.4000015258789
 20
-5.0
 30
19.75
 70
   192
  0
VERTEX
  5
308
  8
0
 10
59.92987442016602
 20
9.34243392944336
 30
19.75
 70
   192
  0
VERTEX
  5
309
  8
0
 10
58.0374870300293
 20
7.421650886535645
 30
19.75
 70
   192
  0
VERTEX
  5
30A
  8
0
 10
57.39999771118164
 20
5.0
 30
19.75
 70
   192
  0
VERTEX
  5
30B
  8
0
 10
46.79999923706055
 20
5.370864391326904
 30
28.70395278930664
 70
   192
  0
VERTEX
  5
30C
  8
0
 10
48.59999847412109
 20
5.72316837310791
 30
28.63372421264648
 70
   192
  0
VERTEX
  5
30D
  8
0
 10
46.79999923706055
 20
23.30707359313965
 30
17.59382629394531
 70
   192
  0
VERTEX
  5
30E
  8
0
 10
48.59999847412109
 20
20.64751815795898
 30
20.64751815795898
 70
   192
  0
VERTEX
  5
30F
  8
0
 10
46.79999923706055
 20
19.68017578125
 30
21.57449531555176
 70
   192
  0
VERTEX
  5
310
  8
0
 10
48.59999847412109
 20
11.17433261871338
 30
26.97722434997559
 70
   192
  0
VERTEX
  5
311
  8
0
 10
46.79999923706055
 20
10.56489181518555
 30
27.24777030944824
 70
   192
  0
VERTEX
  5
312
  8
0
 10
46.79999923706055
 20
15.33624744415283
 30
24.75108909606934
 70
   192
  0
VERTEX
  5
313
  8
0
 10
48.59999847412109
 20
28.63372421264648
 30
5.72316837310791
 70
   192
  0
VERTEX
  5
314
  8
0
 10
46.79999923706055
 20
29.07566452026367
 30
2.689923286437988
 70
   192
  0
VERTEX
  5
315
  8
0
 10
48.59999847412109
 20
29.20000076293945
 30
0.0000000000005933
 70
   192
  0
VERTEX
  5
316
  8
0
 10
48.59999847412109
 20
26.97722434997559
 30
11.17433261871338
 70
   192
  0
VERTEX
  5
317
  8
0
 10
46.79999923706055
 20
26.14270782470703
 30
13.0097541809082
 70
   192
  0
VERTEX
  5
318
  8
0
 10
46.79999923706055
 20
28.0864372253418
 30
7.988370895385742
 70
   192
  0
VERTEX
  5
319
  8
0
 10
48.59999847412109
 20
24.29399108886719
 30
-16.20020866394043
 70
   192
  0
VERTEX
  5
31A
  8
0
 10
48.59999847412109
 20
26.97722434997559
 30
-11.17433261871338
 70
   192
  0
VERTEX
  5
31B
  8
0
 10
46.79999923706055
 20
26.13570022583008
 30
-13.01635456085205
 70
   192
  0
VERTEX
  5
31C
  8
0
 10
46.79999923706055
 20
28.08377838134766
 30
-7.991720199584961
 70
   192
  0
VERTEX
  5
31D
  8
0
 10
48.59999847412109
 20
28.63372421264648
 30
-5.72316837310791
 70
   192
  0
VERTEX
  5
31E
  8
0
 10
46.79999923706055
 20
29.07486724853516
 30
-2.696848392486572
 70
   192
  0
VERTEX
  5
31F
  8
0
 10
48.59999847412109
 20
16.20020866394043
 30
-24.29399108886719
 70
   192
  0
VERTEX
  5
320
  8
0
 10
48.59999847412109
 20
20.64751815795898
 30
-20.64751815795898
 70
   192
  0
VERTEX
  5
321
  8
0
 10
46.79999923706055
 20
19.66775703430176
 30
-21.57195854187012
 70
   192
  0
VERTEX
  5
322
  8
0
 10
46.79999923706055
 20
23.30129051208496
 30
-17.59320259094238
 70
   192
  0
VERTEX
  5
323
  8
0
 10
46.79999923706055
 20
15.36162376403809
 30
-24.8120002746582
 70
   192
  0
VERTEX
  5
324
  8
0
 10
48.59999847412109
 20
11.17433261871338
 30
-26.97722434997559
 70
   192
  0
VERTEX
  5
325
  8
0
 10
46.79999923706055
 20
10.54125118255615
 30
-27.21355628967285
 70
   192
  0
VERTEX
  5
326
  8
0
 10
48.59999847412109
 20
5.72316837310791
 30
-28.63372421264648
 70
   192
  0
VERTEX
  5
327
  8
0
 10
46.79999923706055
 20
5.361494064331055
 30
-28.70134162902832
 70
   192
  0
VERTEX
  5
328
  8
0
 10
48.59999847412109
 20
24.29399108886719
 30
16.20020866394043
 70
   192
  0
VERTEX
  5
329
  8
0
 10
48.59999847412109
 20
16.20020866394043
 30
24.29399108886719
 70
   192
  0
VERTEX
  5
32A
  8
0
 10
82.29999542236328
 20
22.5526237487793
 30
-10.20848369598389
 70
   192
  0
VERTEX
  5
32B
  8
0
 10
82.29999542236328
 20
24.5526237487793
 30
-8.208483695983887
 70
   192
  0
VERTEX
  5
32C
  8
0
 10
82.29999542236328
 20
20.5526237487793
 30
-8.208483695983887
 70
   192
  0
VERTEX
  5
32D
  8
0
 10
82.29999542236328
 20
15.88376617431641
 30
-12.15343379974365
 70
   192
  0
VERTEX
  5
32E
  8
0
 10
82.29999542236328
 20
-10.722825050354
 30
16.88256645202637
 70
   192
  0
VERTEX
  5
32F
  8
0
 10
82.29999542236328
 20
-14.81108951568604
 30
20.88041305541992
 70
   192
  0
VERTEX
  5
330
  8
0
 10
82.29999542236328
 20
16.39628028869629
 30
17.98911094665527
 70
   192
  0
VERTEX
  5
331
  8
0
 10
82.29999542236328
 20
18.97981834411621
 30
17.99783897399902
 70
   192
  0
VERTEX
  5
332
  8
0
 10
82.29999542236328
 20
19.78762626647949
 30
15.54109191894531
 70
   192
  0
VERTEX
  5
333
  8
0
 10
82.29999542236328
 20
15.60365009307861
 30
15.53092765808105
 70
   192
  0
VERTEX
  5
334
  8
0
 10
82.29999542236328
 20
17.69465637207031
 30
14.01416492462158
 70
   192
  0
VERTEX
  5
335
  8
0
 10
82.29999542236328
 20
2.67737603187561
 30
1.558158159255981
 70
   192
  0
VERTEX
  5
336
  8
0
 10
82.29999542236328
 20
22.5526237487793
 30
-6.208483219146729
 70
   192
  0
VERTEX
  5
337
  8
0
 10
82.29999542236328
 20
-19.71317672729492
 30
16.3325023651123
 70
   192
  0
VERTEX
  5
338
  8
0
 10
82.29999542236328
 20
-15.88376617431641
 30
12.15343379974365
 70
   192
  0
VERTEX
  5
339
  8
0
 10
82.29999542236328
 20
-21.60404396057129
 30
9.000614166259766
 70
   192
  0
VERTEX
  5
33A
  8
0
 10
82.29999542236328
 20
-20.79623603820801
 30
6.543866157531738
 70
   192
  0
VERTEX
  5
33B
  8
0
 10
82.29999542236328
 20
19.03091812133789
 30
-15.58794784545898
 70
   192
  0
VERTEX
  5
33C
  8
0
 10
82.29999542236328
 20
-2.67737603187561
 30
-1.558158159255981
 70
   192
  0
VERTEX
  5
33D
  8
0
 10
82.29999542236328
 20
-22.88920593261719
 30
5.016939163208008
 70
   192
  0
VERTEX
  5
33E
  8
0
 10
82.29999542236328
 20
2.688765287399292
 30
-1.540918946266174
 70
   192
  0
VERTEX
  5
33F
  8
0
 10
82.29999542236328
 20
10.722825050354
 30
-16.88256645202637
 70
   192
  0
VERTEX
  5
340
  8
0
 10
82.29999542236328
 20
0.0000000000000497
 30
-3.099999904632568
 70
   192
  0
VERTEX
  5
341
  8
0
 10
82.29999542236328
 20
13.86997699737549
 30
-20.31707954406738
 70
   192
  0
VERTEX
  5
342
  8
0
 10
82.29999542236328
 20
7.287521839141846
 30
-24.10417747497559
 70
   192
  0
VERTEX
  5
343
  8
0
 10
82.29999542236328
 20
6.479713439941406
 30
-21.64742851257324
 70
   192
  0
VERTEX
  5
344
  8
0
 10
82.29999542236328
 20
3.103544950485229
 30
-24.11434173583984
 70
   192
  0
VERTEX
  5
345
  8
0
 10
82.29999542236328
 20
5.194550514221191
 30
-25.631103515625
 70
   192
  0
VERTEX
  5
346
  8
0
 10
82.29999542236328
 20
3.896175146102905
 30
-21.65615844726562
 70
   192
  0
VERTEX
  5
347
  8
0
 10
82.29999542236328
 20
-24.18758201599121
 30
8.9918851852417
 70
   192
  0
VERTEX
  5
348
  8
0
 10
82.29999542236328
 20
-24.9802131652832
 30
6.53370189666748
 70
   192
  0
VERTEX
  5
349
  8
0
 10
82.29999542236328
 20
0.0000000000000533
 30
3.099999904632568
 70
   192
  0
VERTEX
  5
34A
  8
0
 10
82.29999542236328
 20
-2.688765287399292
 30
1.540918946266174
 70
   192
  0
VERTEX
  5
34B
  8
0
 10
52.59999847412109
 20
-13.18692779541016
 30
-21.74042892456055
 70
   192
  0
VERTEX
  5
34C
  8
0
 10
53.29989242553711
 20
-8.766164779663086
 30
-14.05900859832764
 70
   192
  0
VERTEX
  5
34D
  8
0
 10
77.83489990234375
 20
-13.32258224487305
 30
-21.09443473815918
 70
   192
  0
VERTEX
  5
34E
  8
0
 10
77.83489990234375
 20
-8.912479400634766
 30
-13.45591259002686
 70
   192
  0
VERTEX
  5
34F
  8
0
 10
53.29989242553711
 20
-7.792376518249512
 30
-14.62122535705566
 70
   192
  0
VERTEX
  5
350
  8
0
 10
77.83489990234375
 20
-7.196922779083252
 30
-14.44638919830322
 70
   192
  0
VERTEX
  5
351
  8
0
 10
79.72073364257812
 20
-8.053452491760254
 30
-13.94898891448975
 70
   192
  0
VERTEX
  5
352
  8
0
 10
79.72073364257812
 20
-5.854291915893555
 30
-15.00532150268555
 70
   192
  0
VERTEX
  5
353
  8
0
 10
79.72073364257812
 20
-10.06784343719482
 30
-12.5726261138916
 70
   192
  0
VERTEX
  5
354
  8
0
 62
     9
 10
0.0
 20
0.0
 30
0.0
 70
   128
 71
     3
 72
     2
 73
     1
  0
VERTEX
  5
355
  8
0
 62
     9
 10
0.0
 20
0.0
 30
0.0
 70
   128
 71
     5
 72
     2
 73
     4
  0
VERTEX
  5
356
  8
0
 62
     9
 10
0.0
 20
0.0
 30
0.0
 70
   128
 71
     8
 72
     7
 73
     6
  0
VERTEX
  5
357
  8
0
 62
     9
 10
0.0
 20
0.0
 30
0.0
 70
   128
 71
    11
 72
    10
 73
     9
  0
VERTEX
  5
358
  8
0
 62
     9
 10
0.0
 20
0.0
 30
0.0
 70
   128
 71
    13
 72
    12
 73
     9
  0
VERTEX
  5
359
  8
0
 62
     9
 10
0.0
 20
0.0
 30
0.0
 70
   128
 71
    10
 72
    14
 73
     9
  0
VERTEX
  5
35A
  8
0
 62
     9
 10
0.0
 20
0.0
 30
0.0
 70
   128
 71
    17
 72
    16
 73
    15
  0
VERTEX
  5
35B
  8
0
 62
     9
 10
0.0
 20
0.0
 30
0.0
 70
   128
 71
     8
 72
    15
 73
    16
  0
VERTEX
  5
35C
  8
0
 62
     9
 10
0.0
 20
0.0
 30
0.0
 70
   128
 71
    11
 72
     9
 73
    12
  0
VERTEX
  5
35D
  8
0
 62
     9
 10
0.0
 20
0.0
 30
0.0
 70
   128
 71
    13
 72
    17
 73
    15
  0
VERTEX
  5
35E
  8
0
 62
     9
 10
0.0
 20
0.0
 30
0.0
 70
   128
 71
    13
 72
    15
 73
    12
  0
VERTEX
  5
35F
  8
0
 62
     9
 10
0.0
 20
0.0
 30
0.0
 70
   128
 71
    15
 72
     8
 73
     6
  0
VERTEX
  5
360
  8
0
 62
     9
 10
0.0
 20
0.0
 30
0.0
 70
   128
 71
     6
 72
     7
 73
    18
  0
VERTEX
  5
361
  8
0
 62
     9
 10
0.0
 20
0.0
 30
0.0
 70
   128
 71
    18
 72
    20
 73
    19
  0
VERTEX
  5
362
  8
0
 62
     9
 10
0.0
 20
0.0
 30
0.0
 70
   128
 71
    20
 72
    18
 73
     7
  0
VERTEX
  5
363
  8
0
 62
     9
 10
0.0
 20
0.0
 30
0.0
 70
   128
 71
    19
 72
     1
 73
     2
  0
VERTEX
  5
364
  8
0
 62
     9
 10
0.0
 20
0.0
 30
0.0
 70
   128
 71
     1
 72
    19
 73
    20
  0
VERTEX
  5
365
  8
0
 62
     9
 10
0.0
 20
0.0
 30
0.0
 70
   128
 71
     5
 72
     4
 73
    21
  0
VERTEX
  5
366
  8
0
 62
     9
 10
0.0
 20
0.0
 30
0.0
 70
   128
 71
     4
 72
     2
 73
     3
  0
VERTEX
  5
367
  8
0
 62
     9
 10
0.0
 20
0.0
 30
0.0
 70
   128
 71
     5
 72
    21
 73
    22
  0
VERTEX
  5
368
  8
0
 62
     9
 10
0.0
 20
0.0
 30
0.0
 70
   128
 71
    22
 72
    23
 73
     5
  0
VERTEX
  5
369
  8
0
 62
     9
 10
0.0
 20
0.0
 30
0.0
 70
   128
 71
    26
 72
    25
 73
    24
  0
VERTEX
  5
36A
  8
0
 62
     9
 10
0.0
 20
0.0
 30
0.0
 70
   128
 71
     5
 72
    23
 73
    27
  0
VERTEX
  5
36B
  8
0
 62
     9
 10
0.0
 20
0.0
 30
0.0
 70
   128
 71
    27
 72
    26
 73
    28
  0
VERTEX
  5
36C
  8
0
 62
     9
 10
0.0
 20
0.0
 30
0.0
 70
   128
 71
    26
 72
    27
 73
    23
  0
VERTEX
  5
36D
  8
0
 62
     9
 10
0.0
 20
0.0
 30
0.0
 70
   128
 71
    24
 72
    28
 73
    26
  0
VERTEX
  5
36E
  8
0
 62
     9
 10
0.0
 20
0.0
 30
0.0
 70
   128
 71
    31
 72
    30
 73
    29
  0
VERTEX
  5
36F
  8
0
 62
     9
 10
0.0
 20
0.0
 30
0.0
 70
   128
 71
    34
 72
    33
 73
    32
  0
VERTEX
  5
370
  8
0
 62
     9
 10
0.0
 20
0.0
 30
0.0
 70
   128
 71
    37
 72
    36
 73
    35
  0
VERTEX
  5
371
  8
0
 62
     9
 10
0.0
 20
0.0
 30
0.0
 70
   128
 71
    34
 72
    32
 73
    38
  0
VERTEX
  5
372
  8
0
 62
     9
 10
0.0
 20
0.0
 30
0.0
 70
   128
 71
    31
 72
    37
 73
    30
  0
VERTEX
  5
373
  8
0
 62
     9
 10
0.0
 20
0.0
 30
0.0
 70
   128
 71
    41
 72
    40
 73
    39
  0
VERTEX
  5
374
  8
0
 62
     9
 10
0.0
 20
0.0
 30
0.0
 70
   128
 71
    42
 72
    40
 73
    41
  0
VERTEX
  5
375
  8
0
 62
     9
 10
0.0
 20
0.0
 30
0.0
 70
   128
 71
    44
 72
    42
 73
    43
  0
VERTEX
  5
376
  8
0
 62
     9
 10
0.0
 20
0.0
 30
0.0
 70
   128
 71
    47
 72
    46
 73
    45
  0
VERTEX
  5
377
  8
0
 62
     9
 10
0.0
 20
0.0
 30
0.0
 70
   128
 71
    46
 72
    38
 73
    45
  0
VERTEX
  5
378
  8
0
 62
     9
 10
0.0
 20
0.0
 30
0.0
 70
   128
 71
    48
 72
    46
 73
    47
  0
VERTEX
  5
379
  8
0
 62
     9
 10
0.0
 20
0.0
 30
0.0
 70
   128
 71
    33
 72
    49
 73
    32
  0
VERTEX
  5
37A
  8
0
 62
     9
 10
0.0
 20
0.0
 30
0.0
 70
   128
 71
    32
 72
    45
 73
    38
  0
VERTEX
  5
37B
  8
0
 62
     9
 10
0.0
 20
0.0
 30
0.0
 70
   128
 71
    43
 72
    46
 73
    48
  0
VERTEX
  5
37C
  8
0
 62
     9
 10
0.0
 20
0.0
 30
0.0
 70
   128
 71
    42
 72
    44
 73
    40
  0
VERTEX
  5
37D
  8
0
 62
     9
 10
0.0
 20
0.0
 30
0.0
 70
   128
 71
    43
 72
    48
 73
    44
  0
VERTEX
  5
37E
  8
0
 62
     9
 10
0.0
 20
0.0
 30
0.0
 70
   128
 71
    50
 72
    30
 73
    41
  0
VERTEX
  5
37F
  8
0
 62
     9
 10
0.0
 20
0.0
 30
0.0
 70
   128
 71
    39
 72
    50
 73
    41
  0
VERTEX
  5
380
  8
0
 62
     9
 10
0.0
 20
0.0
 30
0.0
 70
   128
 71
    37
 72
    35
 73
    30
  0
VERTEX
  5
381
  8
0
 62
     9
 10
0.0
 20
0.0
 30
0.0
 70
   128
 71
    50
 72
    29
 73
    30
  0
VERTEX
  5
382
  8
0
 62
     9
 10
0.0
 20
0.0
 30
0.0
 70
   128
 71
    35
 72
    36
 73
    51
  0
VERTEX
  5
383
  8
0
 62
     9
 10
0.0
 20
0.0
 30
0.0
 70
   128
 71
    54
 72
    53
 73
    52
  0
VERTEX
  5
384
  8
0
 62
     9
 10
0.0
 20
0.0
 30
0.0
 70
   128
 71
    56
 72
    55
 73
    52
  0
VERTEX
  5
385
  8
0
 62
     9
 10
0.0
 20
0.0
 30
0.0
 70
   128
 71
    54
 72
    52
 73
    55
  0
VERTEX
  5
386
  8
0
 62
     9
 10
0.0
 20
0.0
 30
0.0
 70
   128
 71
    56
 72
    58
 73
    57
  0
VERTEX
  5
387
  8
0
 62
     9
 10
0.0
 20
0.0
 30
0.0
 70
   128
 71
    57
 72
    55
 73
    56
  0
VERTEX
  5
388
  8
0
 62
     9
 10
0.0
 20
0.0
 30
0.0
 70
   128
 71
    60
 72
    58
 73
    59
  0
VERTEX
  5
389
  8
0
 62
     9
 10
0.0
 20
0.0
 30
0.0
 70
   128
 71
    58
 72
    60
 73
    57
  0
VERTEX
  5
38A
  8
0
 62
     9
 10
0.0
 20
0.0
 30
0.0
 70
   128
 71
    62
 72
    61
 73
    59
  0
VERTEX
  5
38B
  8
0
 62
     9
 10
0.0
 20
0.0
 30
0.0
 70
   128
 71
    60
 72
    59
 73
    61
  0
VERTEX
  5
38C
  8
0
 62
     9
 10
0.0
 20
0.0
 30
0.0
 70
   128
 71
    62
 72
    64
 73
    63
  0
VERTEX
  5
38D
  8
0
 62
     9
 10
0.0
 20
0.0
 30
0.0
 70
   128
 71
    63
 72
    61
 73
    62
  0
VERTEX
  5
38E
  8
0
 62
     9
 10
0.0
 20
0.0
 30
0.0
 70
   128
 71
    66
 72
    64
 73
    65
  0
VERTEX
  5
38F
  8
0
 62
     9
 10
0.0
 20
0.0
 30
0.0
 70
   128
 71
    64
 72
    66
 73
    63
  0
VERTEX
  5
390
  8
0
 62
     9
 10
0.0
 20
0.0
 30
0.0
 70
   128
 71
    68
 72
    67
 73
    65
  0
VERTEX
  5
391
  8
0
 62
     9
 10
0.0
 20
0.0
 30
0.0
 70
   128
 71
    66
 72
    65
 73
    67
  0
VERTEX
  5
392
  8
0
 62
     9
 10
0.0
 20
0.0
 30
0.0
 70
   128
 71
    69
 72
    67
 73
    68
  0
VERTEX
  5
393
  8
0
 62
     9
 10
0.0
 20
0.0
 30
0.0
 70
   128
 71
    53
 72
    54
 73
    70
  0
VERTEX
  5
394
  8
0
 62
     9
 10
0.0
 20
0.0
 30
0.0
 70
   128
 71
    70
 72
    72
 73
    71
  0
VERTEX
  5
395
  8
0
 62
     9
 10
0.0
 20
0.0
 30
0.0
 70
   128
 71
    71
 72
    53
 73
    70
  0
VERTEX
  5
396
  8
0
 62
     9
 10
0.0
 20
0.0
 30
0.0
 70
   128
 71
    74
 72
    72
 73
    73
  0
VERTEX
  5
397
  8
0
 62
     9
 10
0.0
 20
0.0
 30
0.0
 70
   128
 71
    72
 72
    74
 73
    71
  0
VERTEX
  5
398
  8
0
 62
     9
 10
0.0
 20
0.0
 30
0.0
 70
   128
 71
    76
 72
    75
 73
    73
  0
VERTEX
  5
399
  8
0
 62
     9
 10
0.0
 20
0.0
 30
0.0
 70
   128
 71
    74
 72
    73
 73
    75
  0
VERTEX
  5
39A
  8
0
 62
     9
 10
0.0
 20
0.0
 30
0.0
 70
   128
 71
    76
 72
    78
 73
    77
  0
VERTEX
  5
39B
  8
0
 62
     9
 10
0.0
 20
0.0
 30
0.0
 70
   128
 71
    77
 72
    75
 73
    76
  0
VERTEX
  5
39C
  8
0
 62
     9
 10
0.0
 20
0.0
 30
0.0
 70
   128
 71
    80
 72
    78
 73
    79
  0
VERTEX
  5
39D
  8
0
 62
     9
 10
0.0
 20
0.0
 30
0.0
 70
   128
 71
    78
 72
    80
 73
    77
  0
VERTEX
  5
39E
  8
0
 62
     9
 10
0.0
 20
0.0
 30
0.0
 70
   128
 71
    82
 72
    81
 73
    79
  0
VERTEX
  5
39F
  8
0
 62
     9
 10
0.0
 20
0.0
 30
0.0
 70
   128
 71
    80
 72
    79
 73
    81
  0
VERTEX
  5
3A0
  8
0
 62
     9
 10
0.0
 20
0.0
 30
0.0
 70
   128
 71
    82
 72
    84
 73
    83
  0
VERTEX
  5
3A1
  8
0
 62
     9
 10
0.0
 20
0.0
 30
0.0
 70
   128
 71
    83
 72
    81
 73
    82
  0
VERTEX
  5
3A2
  8
0
 62
     9
 10
0.0
 20
0.0
 30
0.0
 70
   128
 71
    84
 72
    85
 73
    83
  0
VERTEX
  5
3A3
  8
0
 62
     9
 10
0.0
 20
0.0
 30
0.0
 70
   128
 71
    84
 72
    86
 73
    85
  0
VERTEX
  5
3A4
  8
0
 62
     9
 10
0.0
 20
0.0
 30
0.0
 70
   128
 71
    89
 72
    88
 73
    87
  0
VERTEX
  5
3A5
  8
0
 62
     9
 10
0.0
 20
0.0
 30
0.0
 70
   128
 71
    88
 72
    90
 73
    87
  0
VERTEX
  5
3A6
  8
0
 62
     9
 10
0.0
 20
0.0
 30
0.0
 70
   128
 71
    90
 72
    88
 73
    91
  0
VERTEX
  5
3A7
  8
0
 62
     9
 10
0.0
 20
0.0
 30
0.0
 70
   128
 71
    91
 72
    92
 73
    90
  0
VERTEX
  5
3A8
  8
0
 62
     9
 10
0.0
 20
0.0
 30
0.0
 70
   128
 71
    89
 72
    87
 73
    93
  0
VERTEX
  5
3A9
  8
0
 62
     9
 10
0.0
 20
0.0
 30
0.0
 70
   128
 71
    94
 72
    93
 73
    87
  0
VERTEX
  5
3AA
  8
0
 62
     9
 10
0.0
 20
0.0
 30
0.0
 70
   128
 71
    97
 72
    96
 73
    95
  0
VERTEX
  5
3AB
  8
0
 62
     9
 10
0.0
 20
0.0
 30
0.0
 70
   128
 71
    99
 72
    96
 73
    98
  0
VERTEX
  5
3AC
  8
0
 62
     9
 10
0.0
 20
0.0
 30
0.0
 70
   128
 71
    96
 72
    99
 73
    95
  0
VERTEX
  5
3AD
  8
0
 62
     9
 10
0.0
 20
0.0
 30
0.0
 70
   128
 71
   101
 72
   100
 73
    98
  0
VERTEX
  5
3AE
  8
0
 62
     9
 10
0.0
 20
0.0
 30
0.0
 70
   128
 71
    99
 72
    98
 73
   100
  0
VERTEX
  5
3AF
  8
0
 62
     9
 10
0.0
 20
0.0
 30
0.0
 70
   128
 71
   101
 72
   103
 73
   102
  0
VERTEX
  5
3B0
  8
0
 62
     9
 10
0.0
 20
0.0
 30
0.0
 70
   128
 71
   102
 72
   100
 73
   101
  0
VERTEX
  5
3B1
  8
0
 62
     9
 10
0.0
 20
0.0
 30
0.0
 70
   128
 71
   105
 72
   104
 73
   103
  0
VERTEX
  5
3B2
  8
0
 62
     9
 10
0.0
 20
0.0
 30
0.0
 70
   128
 71
   103
 72
   104
 73
   102
  0
VERTEX
  5
3B3
  8
0
 62
     9
 10
0.0
 20
0.0
 30
0.0
 70
   128
 71
   107
 72
   106
 73
   105
  0
VERTEX
  5
3B4
  8
0
 62
     9
 10
0.0
 20
0.0
 30
0.0
 70
   128
 71
   105
 72
   103
 73
   107
  0
VERTEX
  5
3B5
  8
0
 62
     9
 10
0.0
 20
0.0
 30
0.0
 70
   128
 71
   109
 72
   108
 73
   106
  0
VERTEX
  5
3B6
  8
0
 62
     9
 10
0.0
 20
0.0
 30
0.0
 70
   128
 71
   109
 72
   106
 73
   107
  0
VERTEX
  5
3B7
  8
0
 62
     9
 10
0.0
 20
0.0
 30
0.0
 70
   128
 71
   111
 72
   108
 73
   110
  0
VERTEX
  5
3B8
  8
0
 62
     9
 10
0.0
 20
0.0
 30
0.0
 70
   128
 71
   108
 72
   111
 73
   106
  0
VERTEX
  5
3B9
  8
0
 62
     9
 10
0.0
 20
0.0
 30
0.0
 70
   128
 71
   111
 72
   110
 73
   112
  0
VERTEX
  5
3BA
  8
0
 62
     9
 10
0.0
 20
0.0
 30
0.0
 70
   128
 71
    97
 72
    95
 73
   113
  0
VERTEX
  5
3BB
  8
0
 62
     9
 10
0.0
 20
0.0
 30
0.0
 70
   128
 71
   113
 72
   115
 73
   114
  0
VERTEX
  5
3BC
  8
0
 62
     9
 10
0.0
 20
0.0
 30
0.0
 70
   128
 71
   114
 72
    97
 73
   113
  0
VERTEX
  5
3BD
  8
0
 62
     9
 10
0.0
 20
0.0
 30
0.0
 70
   128
 71
   117
 72
   115
 73
   116
  0
VERTEX
  5
3BE
  8
0
 62
     9
 10
0.0
 20
0.0
 30
0.0
 70
   128
 71
   115
 72
   117
 73
   114
  0
VERTEX
  5
3BF
  8
0
 62
     9
 10
0.0
 20
0.0
 30
0.0
 70
   128
 71
   119
 72
   118
 73
   116
  0
VERTEX
  5
3C0
  8
0
 62
     9
 10
0.0
 20
0.0
 30
0.0
 70
   128
 71
   117
 72
   116
 73
   118
  0
VERTEX
  5
3C1
  8
0
 62
     9
 10
0.0
 20
0.0
 30
0.0
 70
   128
 71
   121
 72
   119
 73
   120
  0
VERTEX
  5
3C2
  8
0
 62
     9
 10
0.0
 20
0.0
 30
0.0
 70
   128
 71
   121
 72
   118
 73
   119
  0
VERTEX
  5
3C3
  8
0
 62
     9
 10
0.0
 20
0.0
 30
0.0
 70
   128
 71
   123
 72
   120
 73
   122
  0
VERTEX
  5
3C4
  8
0
 62
     9
 10
0.0
 20
0.0
 30
0.0
 70
   128
 71
   119
 72
   122
 73
   120
  0
VERTEX
  5
3C5
  8
0
 62
     9
 10
0.0
 20
0.0
 30
0.0
 70
   128
 71
   125
 72
   123
 73
   124
  0
VERTEX
  5
3C6
  8
0
 62
     9
 10
0.0
 20
0.0
 30
0.0
 70
   128
 71
   123
 72
   122
 73
   124
  0
VERTEX
  5
3C7
  8
0
 62
     9
 10
0.0
 20
0.0
 30
0.0
 70
   128
 71
   125
 72
   127
 73
   126
  0
VERTEX
  5
3C8
  8
0
 62
     9
 10
0.0
 20
0.0
 30
0.0
 70
   128
 71
   126
 72
   123
 73
   125
  0
VERTEX
  5
3C9
  8
0
 62
     9
 10
0.0
 20
0.0
 30
0.0
 70
   128
 71
   127
 72
   128
 73
   126
  0
VERTEX
  5
3CA
  8
0
 62
     9
 10
0.0
 20
0.0
 30
0.0
 70
   128
 71
   131
 72
   130
 73
   129
  0
VERTEX
  5
3CB
  8
0
 62
     9
 10
0.0
 20
0.0
 30
0.0
 70
   128
 71
   133
 72
   131
 73
   132
  0
VERTEX
  5
3CC
  8
0
 62
     9
 10
0.0
 20
0.0
 30
0.0
 70
   128
 71
   132
 72
   131
 73
   129
  0
VERTEX
  5
3CD
  8
0
 62
     9
 10
0.0
 20
0.0
 30
0.0
 70
   128
 71
   129
 72
   130
 73
   134
  0
VERTEX
  5
3CE
  8
0
 62
     9
 10
0.0
 20
0.0
 30
0.0
 70
   128
 71
   134
 72
   136
 73
   135
  0
VERTEX
  5
3CF
  8
0
 62
     9
 10
0.0
 20
0.0
 30
0.0
 70
   128
 71
   137
 72
   135
 73
   136
  0
VERTEX
  5
3D0
  8
0
 62
     9
 10
0.0
 20
0.0
 30
0.0
 70
   128
 71
   140
 72
   139
 73
   138
  0
VERTEX
  5
3D1
  8
0
 62
     9
 10
0.0
 20
0.0
 30
0.0
 70
   128
 71
   137
 72
   141
 73
   138
  0
VERTEX
  5
3D2
  8
0
 62
     9
 10
0.0
 20
0.0
 30
0.0
 70
   128
 71
   142
 72
   140
 73
   138
  0
VERTEX
  5
3D3
  8
0
 62
     9
 10
0.0
 20
0.0
 30
0.0
 70
   128
 71
   141
 72
   142
 73
   138
  0
VERTEX
  5
3D4
  8
0
 62
     9
 10
0.0
 20
0.0
 30
0.0
 70
   128
 71
   138
 72
   135
 73
   137
  0
VERTEX
  5
3D5
  8
0
 62
     9
 10
0.0
 20
0.0
 30
0.0
 70
   128
 71
   144
 72
   143
 73
   141
  0
VERTEX
  5
3D6
  8
0
 62
     9
 10
0.0
 20
0.0
 30
0.0
 70
   128
 71
   134
 72
   130
 73
   136
  0
VERTEX
  5
3D7
  8
0
 62
     9
 10
0.0
 20
0.0
 30
0.0
 70
   128
 71
   144
 72
   146
 73
   145
  0
VERTEX
  5
3D8
  8
0
 62
     9
 10
0.0
 20
0.0
 30
0.0
 70
   128
 71
   146
 72
   144
 73
   141
  0
VERTEX
  5
3D9
  8
0
 62
     9
 10
0.0
 20
0.0
 30
0.0
 70
   128
 71
   146
 72
   147
 73
   145
  0
VERTEX
  5
3DA
  8
0
 62
     9
 10
0.0
 20
0.0
 30
0.0
 70
   128
 71
   148
 72
   145
 73
   147
  0
VERTEX
  5
3DB
  8
0
 62
     9
 10
0.0
 20
0.0
 30
0.0
 70
   128
 71
   141
 72
   143
 73
   142
  0
VERTEX
  5
3DC
  8
0
 62
     9
 10
0.0
 20
0.0
 30
0.0
 70
   128
 71
   151
 72
   150
 73
   149
  0
VERTEX
  5
3DD
  8
0
 62
     9
 10
0.0
 20
0.0
 30
0.0
 70
   128
 71
   154
 72
   153
 73
   152
  0
VERTEX
  5
3DE
  8
0
 62
     9
 10
0.0
 20
0.0
 30
0.0
 70
   128
 71
   155
 72
   150
 73
   133
  0
VERTEX
  5
3DF
  8
0
 62
     9
 10
0.0
 20
0.0
 30
0.0
 70
   128
 71
   133
 72
   132
 73
   155
  0
VERTEX
  5
3E0
  8
0
 62
     9
 10
0.0
 20
0.0
 30
0.0
 70
   128
 71
   138
 72
   139
 73
   156
  0
VERTEX
  5
3E1
  8
0
 62
     9
 10
0.0
 20
0.0
 30
0.0
 70
   128
 71
   156
 72
   139
 73
   152
  0
VERTEX
  5
3E2
  8
0
 62
     9
 10
0.0
 20
0.0
 30
0.0
 70
   128
 71
   150
 72
   155
 73
   149
  0
VERTEX
  5
3E3
  8
0
 62
     9
 10
0.0
 20
0.0
 30
0.0
 70
   128
 71
   153
 72
   156
 73
   152
  0
VERTEX
  5
3E4
  8
0
 62
     9
 10
0.0
 20
0.0
 30
0.0
 70
   128
 71
   157
 72
   151
 73
   149
  0
VERTEX
  5
3E5
  8
0
 62
     9
 10
0.0
 20
0.0
 30
0.0
 70
   128
 71
   159
 72
   158
 73
   157
  0
VERTEX
  5
3E6
  8
0
 62
     9
 10
0.0
 20
0.0
 30
0.0
 70
   128
 71
   151
 72
   157
 73
   158
  0
VERTEX
  5
3E7
  8
0
 62
     9
 10
0.0
 20
0.0
 30
0.0
 70
   128
 71
   159
 72
   161
 73
   160
  0
VERTEX
  5
3E8
  8
0
 62
     9
 10
0.0
 20
0.0
 30
0.0
 70
   128
 71
   160
 72
   158
 73
   159
  0
VERTEX
  5
3E9
  8
0
 62
     9
 10
0.0
 20
0.0
 30
0.0
 70
   128
 71
   163
 72
   161
 73
   162
  0
VERTEX
  5
3EA
  8
0
 62
     9
 10
0.0
 20
0.0
 30
0.0
 70
   128
 71
   161
 72
   163
 73
   160
  0
VERTEX
  5
3EB
  8
0
 62
     9
 10
0.0
 20
0.0
 30
0.0
 70
   128
 71
   165
 72
   164
 73
   162
  0
VERTEX
  5
3EC
  8
0
 62
     9
 10
0.0
 20
0.0
 30
0.0
 70
   128
 71
   163
 72
   162
 73
   164
  0
VERTEX
  5
3ED
  8
0
 62
     9
 10
0.0
 20
0.0
 30
0.0
 70
   128
 71
   165
 72
   167
 73
   166
  0
VERTEX
  5
3EE
  8
0
 62
     9
 10
0.0
 20
0.0
 30
0.0
 70
   128
 71
   166
 72
   164
 73
   165
  0
VERTEX
  5
3EF
  8
0
 62
     9
 10
0.0
 20
0.0
 30
0.0
 70
   128
 71
   169
 72
   167
 73
   168
  0
VERTEX
  5
3F0
  8
0
 62
     9
 10
0.0
 20
0.0
 30
0.0
 70
   128
 71
   167
 72
   169
 73
   166
  0
VERTEX
  5
3F1
  8
0
 62
     9
 10
0.0
 20
0.0
 30
0.0
 70
   128
 71
   171
 72
   170
 73
   168
  0
VERTEX
  5
3F2
  8
0
 62
     9
 10
0.0
 20
0.0
 30
0.0
 70
   128
 71
   169
 72
   168
 73
   170
  0
VERTEX
  5
3F3
  8
0
 62
     9
 10
0.0
 20
0.0
 30
0.0
 70
   128
 71
   171
 72
   173
 73
   172
  0
VERTEX
  5
3F4
  8
0
 62
     9
 10
0.0
 20
0.0
 30
0.0
 70
   128
 71
   172
 72
   170
 73
   171
  0
VERTEX
  5
3F5
  8
0
 62
     9
 10
0.0
 20
0.0
 30
0.0
 70
   128
 71
   173
 72
   174
 73
   172
  0
VERTEX
  5
3F6
  8
0
 62
     9
 10
0.0
 20
0.0
 30
0.0
 70
   128
 71
   173
 72
   175
 73
   174
  0
VERTEX
  5
3F7
  8
0
 62
     9
 10
0.0
 20
0.0
 30
0.0
 70
   128
 71
   176
 72
   166
 73
   169
  0
VERTEX
  5
3F8
  8
0
 62
     9
 10
0.0
 20
0.0
 30
0.0
 70
   128
 71
   178
 72
   131
 73
   177
  0
VERTEX
  5
3F9
  8
0
 62
     9
 10
0.0
 20
0.0
 30
0.0
 70
   128
 71
   131
 72
   133
 73
   177
  0
VERTEX
  5
3FA
  8
0
 62
     9
 10
0.0
 20
0.0
 30
0.0
 70
   128
 71
   178
 72
   179
 73
   130
  0
VERTEX
  5
3FB
  8
0
 62
     9
 10
0.0
 20
0.0
 30
0.0
 70
   128
 71
   133
 72
   150
 73
   180
  0
VERTEX
  5
3FC
  8
0
 62
     9
 10
0.0
 20
0.0
 30
0.0
 70
   128
 71
   136
 72
   181
 73
   137
  0
VERTEX
  5
3FD
  8
0
 62
     9
 10
0.0
 20
0.0
 30
0.0
 70
   128
 71
   150
 72
   151
 73
   182
  0
VERTEX
  5
3FE
  8
0
 62
     9
 10
0.0
 20
0.0
 30
0.0
 70
   128
 71
   184
 72
   141
 73
   183
  0
VERTEX
  5
3FF
  8
0
 62
     9
 10
0.0
 20
0.0
 30
0.0
 70
   128
 71
   185
 72
   151
 73
   158
  0
VERTEX
  5
400
  8
0
 62
     9
 10
0.0
 20
0.0
 30
0.0
 70
   128
 71
   127
 72
   125
 73
   186
  0
VERTEX
  5
401
  8
0
 62
     9
 10
0.0
 20
0.0
 30
0.0
 70
   128
 71
   187
 72
   158
 73
   160
  0
VERTEX
  5
402
  8
0
 62
     9
 10
0.0
 20
0.0
 30
0.0
 70
   128
 71
   174
 72
   112
 73
   172
  0
VERTEX
  5
403
  8
0
 62
     9
 10
0.0
 20
0.0
 30
0.0
 70
   128
 71
   188
 72
   169
 73
   170
  0
VERTEX
  5
404
  8
0
 62
     9
 10
0.0
 20
0.0
 30
0.0
 70
   128
 71
   111
 72
   112
 73
   189
  0
VERTEX
  5
405
  8
0
 62
     9
 10
0.0
 20
0.0
 30
0.0
 70
   128
 71
   191
 72
   190
 73
   100
  0
VERTEX
  5
406
  8
0
 62
     9
 10
0.0
 20
0.0
 30
0.0
 70
   128
 71
    95
 72
   192
 73
   113
  0
VERTEX
  5
407
  8
0
 62
     9
 10
0.0
 20
0.0
 30
0.0
 70
   128
 71
   194
 72
   104
 73
   193
  0
VERTEX
  5
408
  8
0
 62
     9
 10
0.0
 20
0.0
 30
0.0
 70
   128
 71
   190
 72
   195
 73
    99
  0
VERTEX
  5
409
  8
0
 62
     9
 10
0.0
 20
0.0
 30
0.0
 70
   128
 71
   102
 72
   194
 73
   191
  0
VERTEX
  5
40A
  8
0
 62
     9
 10
0.0
 20
0.0
 30
0.0
 70
   128
 71
   195
 72
   196
 73
    95
  0
VERTEX
  5
40B
  8
0
 62
     9
 10
0.0
 20
0.0
 30
0.0
 70
   128
 71
   105
 72
   197
 73
   193
  0
VERTEX
  5
40C
  8
0
 62
     9
 10
0.0
 20
0.0
 30
0.0
 70
   128
 71
   197
 72
   106
 73
   198
  0
VERTEX
  5
40D
  8
0
 62
     9
 10
0.0
 20
0.0
 30
0.0
 70
   128
 71
   106
 72
   111
 73
   198
  0
VERTEX
  5
40E
  8
0
 62
     9
 10
0.0
 20
0.0
 30
0.0
 70
   128
 71
   115
 72
   113
 73
   199
  0
VERTEX
  5
40F
  8
0
 62
     9
 10
0.0
 20
0.0
 30
0.0
 70
   128
 71
   201
 72
   116
 73
   200
  0
VERTEX
  5
410
  8
0
 62
     9
 10
0.0
 20
0.0
 30
0.0
 70
   128
 71
   115
 72
   199
 73
   200
  0
VERTEX
  5
411
  8
0
 62
     9
 10
0.0
 20
0.0
 30
0.0
 70
   128
 71
   170
 72
   172
 73
   202
  0
VERTEX
  5
412
  8
0
 62
     9
 10
0.0
 20
0.0
 30
0.0
 70
   128
 71
   119
 72
   201
 73
   203
  0
VERTEX
  5
413
  8
0
 62
     9
 10
0.0
 20
0.0
 30
0.0
 70
   128
 71
   205
 72
   124
 73
   204
  0
VERTEX
  5
414
  8
0
 62
     9
 10
0.0
 20
0.0
 30
0.0
 70
   128
 71
   203
 72
   204
 73
   122
  0
VERTEX
  5
415
  8
0
 62
     9
 10
0.0
 20
0.0
 30
0.0
 70
   128
 71
   166
 72
   206
 73
   164
  0
VERTEX
  5
416
  8
0
 62
     9
 10
0.0
 20
0.0
 30
0.0
 70
   128
 71
   179
 72
   181
 73
   136
  0
VERTEX
  5
417
  8
0
 62
     9
 10
0.0
 20
0.0
 30
0.0
 70
   128
 71
   163
 72
   207
 73
   160
  0
VERTEX
  5
418
  8
0
 62
     9
 10
0.0
 20
0.0
 30
0.0
 70
   128
 71
   164
 72
   208
 73
   163
  0
VERTEX
  5
419
  8
0
 62
     9
 10
0.0
 20
0.0
 30
0.0
 70
   128
 71
   147
 72
   127
 73
   186
  0
VERTEX
  5
41A
  8
0
 62
     9
 10
0.0
 20
0.0
 30
0.0
 70
   128
 71
   147
 72
   146
 73
   127
  0
VERTEX
  5
41B
  8
0
 62
     9
 10
0.0
 20
0.0
 30
0.0
 70
   128
 71
   125
 72
   124
 73
   205
  0
VERTEX
  5
41C
  8
0
 62
     9
 10
0.0
 20
0.0
 30
0.0
 70
   128
 71
   125
 72
   205
 73
   186
  0
VERTEX
  5
41D
  8
0
 62
     9
 10
0.0
 20
0.0
 30
0.0
 70
   128
 71
   124
 72
   122
 73
   204
  0
VERTEX
  5
41E
  8
0
 62
     9
 10
0.0
 20
0.0
 30
0.0
 70
   128
 71
   122
 72
   119
 73
   203
  0
VERTEX
  5
41F
  8
0
 62
     9
 10
0.0
 20
0.0
 30
0.0
 70
   128
 71
   119
 72
   116
 73
   201
  0
VERTEX
  5
420
  8
0
 62
     9
 10
0.0
 20
0.0
 30
0.0
 70
   128
 71
   116
 72
   115
 73
   200
  0
VERTEX
  5
421
  8
0
 62
     9
 10
0.0
 20
0.0
 30
0.0
 70
   128
 71
   113
 72
   192
 73
   199
  0
VERTEX
  5
422
  8
0
 62
     9
 10
0.0
 20
0.0
 30
0.0
 70
   128
 71
    95
 72
   196
 73
   192
  0
VERTEX
  5
423
  8
0
 62
     9
 10
0.0
 20
0.0
 30
0.0
 70
   128
 71
    95
 72
    99
 73
   195
  0
VERTEX
  5
424
  8
0
 62
     9
 10
0.0
 20
0.0
 30
0.0
 70
   128
 71
    99
 72
   100
 73
   190
  0
VERTEX
  5
425
  8
0
 62
     9
 10
0.0
 20
0.0
 30
0.0
 70
   128
 71
   100
 72
   102
 73
   191
  0
VERTEX
  5
426
  8
0
 62
     9
 10
0.0
 20
0.0
 30
0.0
 70
   128
 71
   102
 72
   104
 73
   194
  0
VERTEX
  5
427
  8
0
 62
     9
 10
0.0
 20
0.0
 30
0.0
 70
   128
 71
   104
 72
   105
 73
   193
  0
VERTEX
  5
428
  8
0
 62
     9
 10
0.0
 20
0.0
 30
0.0
 70
   128
 71
   105
 72
   106
 73
   197
  0
VERTEX
  5
429
  8
0
 62
     9
 10
0.0
 20
0.0
 30
0.0
 70
   128
 71
   111
 72
   189
 73
   198
  0
VERTEX
  5
42A
  8
0
 62
     9
 10
0.0
 20
0.0
 30
0.0
 70
   128
 71
   112
 72
   174
 73
   189
  0
VERTEX
  5
42B
  8
0
 62
     9
 10
0.0
 20
0.0
 30
0.0
 70
   128
 71
   112
 72
   202
 73
   172
  0
VERTEX
  5
42C
  8
0
 62
     9
 10
0.0
 20
0.0
 30
0.0
 70
   128
 71
   202
 72
   188
 73
   170
  0
VERTEX
  5
42D
  8
0
 62
     9
 10
0.0
 20
0.0
 30
0.0
 70
   128
 71
   188
 72
   176
 73
   169
  0
VERTEX
  5
42E
  8
0
 62
     9
 10
0.0
 20
0.0
 30
0.0
 70
   128
 71
   176
 72
   206
 73
   166
  0
VERTEX
  5
42F
  8
0
 62
     9
 10
0.0
 20
0.0
 30
0.0
 70
   128
 71
   206
 72
   208
 73
   164
  0
VERTEX
  5
430
  8
0
 62
     9
 10
0.0
 20
0.0
 30
0.0
 70
   128
 71
   208
 72
   207
 73
   163
  0
VERTEX
  5
431
  8
0
 62
     9
 10
0.0
 20
0.0
 30
0.0
 70
   128
 71
   207
 72
   187
 73
   160
  0
VERTEX
  5
432
  8
0
 62
     9
 10
0.0
 20
0.0
 30
0.0
 70
   128
 71
   187
 72
   185
 73
   158
  0
VERTEX
  5
433
  8
0
 62
     9
 10
0.0
 20
0.0
 30
0.0
 70
   128
 71
   185
 72
   182
 73
   151
  0
VERTEX
  5
434
  8
0
 62
     9
 10
0.0
 20
0.0
 30
0.0
 70
   128
 71
   182
 72
   180
 73
   150
  0
VERTEX
  5
435
  8
0
 62
     9
 10
0.0
 20
0.0
 30
0.0
 70
   128
 71
   180
 72
   177
 73
   133
  0
VERTEX
  5
436
  8
0
 62
     9
 10
0.0
 20
0.0
 30
0.0
 70
   128
 71
   178
 72
   130
 73
   131
  0
VERTEX
  5
437
  8
0
 62
     9
 10
0.0
 20
0.0
 30
0.0
 70
   128
 71
   179
 72
   136
 73
   130
  0
VERTEX
  5
438
  8
0
 62
     9
 10
0.0
 20
0.0
 30
0.0
 70
   128
 71
   183
 72
   137
 73
   181
  0
VERTEX
  5
439
  8
0
 62
     9
 10
0.0
 20
0.0
 30
0.0
 70
   128
 71
   183
 72
   141
 73
   137
  0
VERTEX
  5
43A
  8
0
 62
     9
 10
0.0
 20
0.0
 30
0.0
 70
   128
 71
   146
 72
   184
 73
   127
  0
VERTEX
  5
43B
  8
0
 62
     9
 10
0.0
 20
0.0
 30
0.0
 70
   128
 71
   184
 72
   146
 73
   141
  0
VERTEX
  5
43C
  8
0
 62
     9
 10
0.0
 20
0.0
 30
0.0
 70
   128
 71
   186
 72
    89
 73
    93
  0
VERTEX
  5
43D
  8
0
 62
     9
 10
0.0
 20
0.0
 30
0.0
 70
   128
 71
   209
 72
   205
 73
   204
  0
VERTEX
  5
43E
  8
0
 62
     9
 10
0.0
 20
0.0
 30
0.0
 70
   128
 71
   210
 72
   200
 73
   199
  0
VERTEX
  5
43F
  8
0
 62
     9
 10
0.0
 20
0.0
 30
0.0
 70
   128
 71
   203
 72
   201
 73
   211
  0
VERTEX
  5
440
  8
0
 62
     9
 10
0.0
 20
0.0
 30
0.0
 70
   128
 71
   195
 72
   213
 73
   212
  0
VERTEX
  5
441
  8
0
 62
     9
 10
0.0
 20
0.0
 30
0.0
 70
   128
 71
   196
 72
   214
 73
   192
  0
VERTEX
  5
442
  8
0
 62
     9
 10
0.0
 20
0.0
 30
0.0
 70
   128
 71
   194
 72
   215
 73
   191
  0
VERTEX
  5
443
  8
0
 62
     9
 10
0.0
 20
0.0
 30
0.0
 70
   128
 71
   216
 72
   190
 73
   191
  0
VERTEX
  5
444
  8
0
 62
     9
 10
0.0
 20
0.0
 30
0.0
 70
   128
 71
   194
 72
   193
 73
   217
  0
VERTEX
  5
445
  8
0
 62
     9
 10
0.0
 20
0.0
 30
0.0
 70
   128
 71
   217
 72
   215
 73
   194
  0
VERTEX
  5
446
  8
0
 62
     9
 10
0.0
 20
0.0
 30
0.0
 70
   128
 71
   218
 72
   193
 73
   197
  0
VERTEX
  5
447
  8
0
 62
     9
 10
0.0
 20
0.0
 30
0.0
 70
   128
 71
   193
 72
   218
 73
   217
  0
VERTEX
  5
448
  8
0
 62
     9
 10
0.0
 20
0.0
 30
0.0
 70
   128
 71
   198
 72
   219
 73
   197
  0
VERTEX
  5
449
  8
0
 62
     9
 10
0.0
 20
0.0
 30
0.0
 70
   128
 71
   218
 72
   197
 73
   219
  0
VERTEX
  5
44A
  8
0
 62
     9
 10
0.0
 20
0.0
 30
0.0
 70
   128
 71
   198
 72
   189
 73
   220
  0
VERTEX
  5
44B
  8
0
 62
     9
 10
0.0
 20
0.0
 30
0.0
 70
   128
 71
   220
 72
   219
 73
   198
  0
VERTEX
  5
44C
  8
0
 62
     9
 10
0.0
 20
0.0
 30
0.0
 70
   128
 71
   175
 72
   189
 73
   174
  0
VERTEX
  5
44D
  8
0
 62
     9
 10
0.0
 20
0.0
 30
0.0
 70
   128
 71
   189
 72
   175
 73
   220
  0
VERTEX
  5
44E
  8
0
 62
     9
 10
0.0
 20
0.0
 30
0.0
 70
   128
 71
   215
 72
   216
 73
   191
  0
VERTEX
  5
44F
  8
0
 62
     9
 10
0.0
 20
0.0
 30
0.0
 70
   128
 71
   195
 72
   190
 73
   213
  0
VERTEX
  5
450
  8
0
 62
     9
 10
0.0
 20
0.0
 30
0.0
 70
   128
 71
   213
 72
   190
 73
   216
  0
VERTEX
  5
451
  8
0
 62
     9
 10
0.0
 20
0.0
 30
0.0
 70
   128
 71
   214
 72
   196
 73
   212
  0
VERTEX
  5
452
  8
0
 62
     9
 10
0.0
 20
0.0
 30
0.0
 70
   128
 71
   212
 72
   196
 73
   195
  0
VERTEX
  5
453
  8
0
 62
     9
 10
0.0
 20
0.0
 30
0.0
 70
   128
 71
   221
 72
   199
 73
   192
  0
VERTEX
  5
454
  8
0
 62
     9
 10
0.0
 20
0.0
 30
0.0
 70
   128
 71
   214
 72
   221
 73
   192
  0
VERTEX
  5
455
  8
0
 62
     9
 10
0.0
 20
0.0
 30
0.0
 70
   128
 71
   222
 72
   200
 73
   210
  0
VERTEX
  5
456
  8
0
 62
     9
 10
0.0
 20
0.0
 30
0.0
 70
   128
 71
   210
 72
   199
 73
   221
  0
VERTEX
  5
457
  8
0
 62
     9
 10
0.0
 20
0.0
 30
0.0
 70
   128
 71
   201
 72
   222
 73
   211
  0
VERTEX
  5
458
  8
0
 62
     9
 10
0.0
 20
0.0
 30
0.0
 70
   128
 71
   222
 72
   201
 73
   200
  0
VERTEX
  5
459
  8
0
 62
     9
 10
0.0
 20
0.0
 30
0.0
 70
   128
 71
   204
 72
   203
 73
   223
  0
VERTEX
  5
45A
  8
0
 62
     9
 10
0.0
 20
0.0
 30
0.0
 70
   128
 71
   223
 72
   203
 73
   211
  0
VERTEX
  5
45B
  8
0
 62
     9
 10
0.0
 20
0.0
 30
0.0
 70
   128
 71
   205
 72
   209
 73
   224
  0
VERTEX
  5
45C
  8
0
 62
     9
 10
0.0
 20
0.0
 30
0.0
 70
   128
 71
   204
 72
   223
 73
   209
  0
VERTEX
  5
45D
  8
0
 62
     9
 10
0.0
 20
0.0
 30
0.0
 70
   128
 71
   227
 72
   226
 73
   225
  0
VERTEX
  5
45E
  8
0
 62
     9
 10
0.0
 20
0.0
 30
0.0
 70
   128
 71
   228
 72
   224
 73
   225
  0
VERTEX
  5
45F
  8
0
 62
     9
 10
0.0
 20
0.0
 30
0.0
 70
   128
 71
   226
 72
   227
 73
   153
  0
VERTEX
  5
460
  8
0
 62
     9
 10
0.0
 20
0.0
 30
0.0
 70
   128
 71
   154
 72
   226
 73
   153
  0
VERTEX
  5
461
  8
0
 62
     9
 10
0.0
 20
0.0
 30
0.0
 70
   128
 71
   148
 72
   147
 73
    93
  0
VERTEX
  5
462
  8
0
 62
     9
 10
0.0
 20
0.0
 30
0.0
 70
   128
 71
   205
 72
    88
 73
    89
  0
VERTEX
  5
463
  8
0
 62
     9
 10
0.0
 20
0.0
 30
0.0
 70
   128
 71
   227
 72
   225
 73
   224
  0
VERTEX
  5
464
  8
0
 62
     9
 10
0.0
 20
0.0
 30
0.0
 70
   128
 71
    91
 72
    88
 73
   205
  0
VERTEX
  5
465
  8
0
 62
     9
 10
0.0
 20
0.0
 30
0.0
 70
   128
 71
   224
 72
   228
 73
    91
  0
VERTEX
  5
466
  8
0
 62
     9
 10
0.0
 20
0.0
 30
0.0
 70
   128
 71
   224
 72
    91
 73
   205
  0
VERTEX
  5
467
  8
0
 62
     9
 10
0.0
 20
0.0
 30
0.0
 70
   128
 71
    89
 72
   186
 73
   205
  0
VERTEX
  5
468
  8
0
 62
     9
 10
0.0
 20
0.0
 30
0.0
 70
   128
 71
   186
 72
    93
 73
   147
  0
VERTEX
  5
469
  8
0
 62
     9
 10
0.0
 20
0.0
 30
0.0
 70
   128
 71
   176
 72
   188
 73
   229
  0
VERTEX
  5
46A
  8
0
 62
     9
 10
0.0
 20
0.0
 30
0.0
 70
   128
 71
   230
 72
   202
 73
   110
  0
VERTEX
  5
46B
  8
0
 62
     9
 10
0.0
 20
0.0
 30
0.0
 70
   128
 71
   187
 72
   207
 73
   231
  0
VERTEX
  5
46C
  8
0
 62
     9
 10
0.0
 20
0.0
 30
0.0
 70
   128
 71
   206
 72
   232
 73
   208
  0
VERTEX
  5
46D
  8
0
 62
     9
 10
0.0
 20
0.0
 30
0.0
 70
   128
 71
   182
 72
   233
 73
   180
  0
VERTEX
  5
46E
  8
0
 62
     9
 10
0.0
 20
0.0
 30
0.0
 70
   128
 71
   235
 72
   234
 73
   185
  0
VERTEX
  5
46F
  8
0
 62
     9
 10
0.0
 20
0.0
 30
0.0
 70
   128
 71
   237
 72
   236
 73
   178
  0
VERTEX
  5
470
  8
0
 62
     9
 10
0.0
 20
0.0
 30
0.0
 70
   128
 71
   237
 72
   177
 73
   238
  0
VERTEX
  5
471
  8
0
 62
     9
 10
0.0
 20
0.0
 30
0.0
 70
   128
 71
   179
 72
   239
 73
   181
  0
VERTEX
  5
472
  8
0
 62
     9
 10
0.0
 20
0.0
 30
0.0
 70
   128
 71
   239
 72
   179
 73
   236
  0
VERTEX
  5
473
  8
0
 62
     9
 10
0.0
 20
0.0
 30
0.0
 70
   128
 71
   183
 72
   181
 73
   240
  0
VERTEX
  5
474
  8
0
 62
     9
 10
0.0
 20
0.0
 30
0.0
 70
   128
 71
   239
 72
   240
 73
   181
  0
VERTEX
  5
475
  8
0
 62
     9
 10
0.0
 20
0.0
 30
0.0
 70
   128
 71
   241
 72
   184
 73
   183
  0
VERTEX
  5
476
  8
0
 62
     9
 10
0.0
 20
0.0
 30
0.0
 70
   128
 71
   183
 72
   240
 73
   241
  0
VERTEX
  5
477
  8
0
 62
     9
 10
0.0
 20
0.0
 30
0.0
 70
   128
 71
   184
 72
   128
 73
   127
  0
VERTEX
  5
478
  8
0
 62
     9
 10
0.0
 20
0.0
 30
0.0
 70
   128
 71
   128
 72
   184
 73
   241
  0
VERTEX
  5
479
  8
0
 62
     9
 10
0.0
 20
0.0
 30
0.0
 70
   128
 71
   237
 72
   178
 73
   177
  0
VERTEX
  5
47A
  8
0
 62
     9
 10
0.0
 20
0.0
 30
0.0
 70
   128
 71
   178
 72
   236
 73
   179
  0
VERTEX
  5
47B
  8
0
 62
     9
 10
0.0
 20
0.0
 30
0.0
 70
   128
 71
   180
 72
   233
 73
   238
  0
VERTEX
  5
47C
  8
0
 62
     9
 10
0.0
 20
0.0
 30
0.0
 70
   128
 71
   180
 72
   238
 73
   177
  0
VERTEX
  5
47D
  8
0
 62
     9
 10
0.0
 20
0.0
 30
0.0
 70
   128
 71
   182
 72
   185
 73
   234
  0
VERTEX
  5
47E
  8
0
 62
     9
 10
0.0
 20
0.0
 30
0.0
 70
   128
 71
   182
 72
   234
 73
   233
  0
VERTEX
  5
47F
  8
0
 62
     9
 10
0.0
 20
0.0
 30
0.0
 70
   128
 71
   235
 72
   187
 73
   231
  0
VERTEX
  5
480
  8
0
 62
     9
 10
0.0
 20
0.0
 30
0.0
 70
   128
 71
   185
 72
   187
 73
   235
  0
VERTEX
  5
481
  8
0
 62
     9
 10
0.0
 20
0.0
 30
0.0
 70
   128
 71
   242
 72
   207
 73
   208
  0
VERTEX
  5
482
  8
0
 62
     9
 10
0.0
 20
0.0
 30
0.0
 70
   128
 71
   231
 72
   207
 73
   242
  0
VERTEX
  5
483
  8
0
 62
     9
 10
0.0
 20
0.0
 30
0.0
 70
   128
 71
   243
 72
   232
 73
   206
  0
VERTEX
  5
484
  8
0
 62
     9
 10
0.0
 20
0.0
 30
0.0
 70
   128
 71
   232
 72
   242
 73
   208
  0
VERTEX
  5
485
  8
0
 62
     9
 10
0.0
 20
0.0
 30
0.0
 70
   128
 71
   243
 72
   176
 73
   229
  0
VERTEX
  5
486
  8
0
 62
     9
 10
0.0
 20
0.0
 30
0.0
 70
   128
 71
   176
 72
   243
 73
   206
  0
VERTEX
  5
487
  8
0
 62
     9
 10
0.0
 20
0.0
 30
0.0
 70
   128
 71
   188
 72
   202
 73
   230
  0
VERTEX
  5
488
  8
0
 62
     9
 10
0.0
 20
0.0
 30
0.0
 70
   128
 71
   188
 72
   230
 73
   229
  0
VERTEX
  5
489
  8
0
 62
     9
 10
0.0
 20
0.0
 30
0.0
 70
   128
 71
   202
 72
   112
 73
   110
  0
VERTEX
  5
48A
  8
0
 62
     9
 10
0.0
 20
0.0
 30
0.0
 70
   128
 71
   139
 72
   245
 73
   244
  0
VERTEX
  5
48B
  8
0
 62
     9
 10
0.0
 20
0.0
 30
0.0
 70
   128
 71
   245
 72
   140
 73
   246
  0
VERTEX
  5
48C
  8
0
 62
     9
 10
0.0
 20
0.0
 30
0.0
 70
   128
 71
   246
 72
   140
 73
   142
  0
VERTEX
  5
48D
  8
0
 62
     9
 10
0.0
 20
0.0
 30
0.0
 70
   128
 71
   245
 72
   139
 73
   140
  0
VERTEX
  5
48E
  8
0
 62
     9
 10
0.0
 20
0.0
 30
0.0
 70
   128
 71
   152
 72
   244
 73
   247
  0
VERTEX
  5
48F
  8
0
 62
     9
 10
0.0
 20
0.0
 30
0.0
 70
   128
 71
   152
 72
   139
 73
   244
  0
VERTEX
  5
490
  8
0
 62
     9
 10
0.0
 20
0.0
 30
0.0
 70
   128
 71
   143
 72
   248
 73
   142
  0
VERTEX
  5
491
  8
0
 62
     9
 10
0.0
 20
0.0
 30
0.0
 70
   128
 71
   246
 72
   142
 73
   248
  0
VERTEX
  5
492
  8
0
 62
     9
 10
0.0
 20
0.0
 30
0.0
 70
   128
 71
   143
 72
   144
 73
   249
  0
VERTEX
  5
493
  8
0
 62
     9
 10
0.0
 20
0.0
 30
0.0
 70
   128
 71
   249
 72
   248
 73
   143
  0
VERTEX
  5
494
  8
0
 62
     9
 10
0.0
 20
0.0
 30
0.0
 70
   128
 71
   144
 72
   250
 73
   249
  0
VERTEX
  5
495
  8
0
 62
     9
 10
0.0
 20
0.0
 30
0.0
 70
   128
 71
   144
 72
   145
 73
   250
  0
VERTEX
  5
496
  8
0
 62
     9
 10
0.0
 20
0.0
 30
0.0
 70
   128
 71
   228
 72
   251
 73
    91
  0
VERTEX
  5
497
  8
0
 62
     9
 10
0.0
 20
0.0
 30
0.0
 70
   128
 71
   253
 72
   252
 73
   226
  0
VERTEX
  5
498
  8
0
 62
     9
 10
0.0
 20
0.0
 30
0.0
 70
   128
 71
   225
 72
   226
 73
   252
  0
VERTEX
  5
499
  8
0
 62
     9
 10
0.0
 20
0.0
 30
0.0
 70
   128
 71
   228
 72
   252
 73
   251
  0
VERTEX
  5
49A
  8
0
 62
     9
 10
0.0
 20
0.0
 30
0.0
 70
   128
 71
   252
 72
   228
 73
   225
  0
VERTEX
  5
49B
  8
0
 62
     9
 10
0.0
 20
0.0
 30
0.0
 70
   128
 71
   251
 72
    92
 73
    91
  0
VERTEX
  5
49C
  8
0
 62
     9
 10
0.0
 20
0.0
 30
0.0
 70
   128
 71
    68
 72
   255
 73
   254
  0
VERTEX
  5
49D
  8
0
 62
     9
 10
0.0
 20
0.0
 30
0.0
 70
   128
 71
   258
 72
   257
 73
   256
  0
VERTEX
  5
49E
  8
0
 62
     9
 10
0.0
 20
0.0
 30
0.0
 70
   128
 71
   261
 72
   260
 73
   259
  0
VERTEX
  5
49F
  8
0
 62
     9
 10
0.0
 20
0.0
 30
0.0
 70
   128
 71
   264
 72
   263
 73
   262
  0
VERTEX
  5
4A0
  8
0
 62
     9
 10
0.0
 20
0.0
 30
0.0
 70
   128
 71
   267
 72
   266
 73
   265
  0
VERTEX
  5
4A1
  8
0
 62
     9
 10
0.0
 20
0.0
 30
0.0
 70
   128
 71
   270
 72
   269
 73
   268
  0
VERTEX
  5
4A2
  8
0
 62
     9
 10
0.0
 20
0.0
 30
0.0
 70
   128
 71
   273
 72
   272
 73
   271
  0
VERTEX
  5
4A3
  8
0
 62
     9
 10
0.0
 20
0.0
 30
0.0
 70
   128
 71
   276
 72
   275
 73
   274
  0
VERTEX
  5
4A4
  8
0
 62
     9
 10
0.0
 20
0.0
 30
0.0
 70
   128
 71
   268
 72
   275
 73
   277
  0
VERTEX
  5
4A5
  8
0
 62
     9
 10
0.0
 20
0.0
 30
0.0
 70
   128
 71
   279
 72
   278
 73
   274
  0
VERTEX
  5
4A6
  8
0
 62
     9
 10
0.0
 20
0.0
 30
0.0
 70
   128
 71
   276
 72
   274
 73
   278
  0
VERTEX
  5
4A7
  8
0
 62
     9
 10
0.0
 20
0.0
 30
0.0
 70
   128
 71
   279
 72
   281
 73
   280
  0
VERTEX
  5
4A8
  8
0
 62
     9
 10
0.0
 20
0.0
 30
0.0
 70
   128
 71
   280
 72
   278
 73
   279
  0
VERTEX
  5
4A9
  8
0
 62
     9
 10
0.0
 20
0.0
 30
0.0
 70
   128
 71
   282
 72
   281
 73
    85
  0
VERTEX
  5
4AA
  8
0
 62
     9
 10
0.0
 20
0.0
 30
0.0
 70
   128
 71
   281
 72
   282
 73
   280
  0
VERTEX
  5
4AB
  8
0
 62
     9
 10
0.0
 20
0.0
 30
0.0
 70
   128
 71
   282
 72
    85
 73
    86
  0
VERTEX
  5
4AC
  8
0
 62
     9
 10
0.0
 20
0.0
 30
0.0
 70
   128
 71
   270
 72
   268
 73
   277
  0
VERTEX
  5
4AD
  8
0
 62
     9
 10
0.0
 20
0.0
 30
0.0
 70
   128
 71
   277
 72
   275
 73
   276
  0
VERTEX
  5
4AE
  8
0
 62
     9
 10
0.0
 20
0.0
 30
0.0
 70
   128
 71
   271
 72
   272
 73
   269
  0
VERTEX
  5
4AF
  8
0
 62
     9
 10
0.0
 20
0.0
 30
0.0
 70
   128
 71
   271
 72
   269
 73
   270
  0
VERTEX
  5
4B0
  8
0
 62
     9
 10
0.0
 20
0.0
 30
0.0
 70
   128
 71
   273
 72
   263
 73
   264
  0
VERTEX
  5
4B1
  8
0
 62
     9
 10
0.0
 20
0.0
 30
0.0
 70
   128
 71
   273
 72
   264
 73
   272
  0
VERTEX
  5
4B2
  8
0
 62
     9
 10
0.0
 20
0.0
 30
0.0
 70
   128
 71
   262
 72
   267
 73
   265
  0
VERTEX
  5
4B3
  8
0
 62
     9
 10
0.0
 20
0.0
 30
0.0
 70
   128
 71
   263
 72
   267
 73
   262
  0
VERTEX
  5
4B4
  8
0
 62
     9
 10
0.0
 20
0.0
 30
0.0
 70
   128
 71
   283
 72
   266
 73
   256
  0
VERTEX
  5
4B5
  8
0
 62
     9
 10
0.0
 20
0.0
 30
0.0
 70
   128
 71
   265
 72
   266
 73
   283
  0
VERTEX
  5
4B6
  8
0
 62
     9
 10
0.0
 20
0.0
 30
0.0
 70
   128
 71
   284
 72
   257
 73
   258
  0
VERTEX
  5
4B7
  8
0
 62
     9
 10
0.0
 20
0.0
 30
0.0
 70
   128
 71
   257
 72
   283
 73
   256
  0
VERTEX
  5
4B8
  8
0
 62
     9
 10
0.0
 20
0.0
 30
0.0
 70
   128
 71
   284
 72
   261
 73
   259
  0
VERTEX
  5
4B9
  8
0
 62
     9
 10
0.0
 20
0.0
 30
0.0
 70
   128
 71
   261
 72
   284
 73
   258
  0
VERTEX
  5
4BA
  8
0
 62
     9
 10
0.0
 20
0.0
 30
0.0
 70
   128
 71
   260
 72
   254
 73
   255
  0
VERTEX
  5
4BB
  8
0
 62
     9
 10
0.0
 20
0.0
 30
0.0
 70
   128
 71
   260
 72
   255
 73
   259
  0
VERTEX
  5
4BC
  8
0
 62
     9
 10
0.0
 20
0.0
 30
0.0
 70
   128
 71
   254
 72
    69
 73
    68
  0
VERTEX
  5
4BD
  8
0
 62
     9
 10
0.0
 20
0.0
 30
0.0
 70
   128
 71
    59
 72
   134
 73
    62
  0
VERTEX
  5
4BE
  8
0
 62
     9
 10
0.0
 20
0.0
 30
0.0
 70
   128
 71
    74
 72
    75
 73
   162
  0
VERTEX
  5
4BF
  8
0
 62
     9
 10
0.0
 20
0.0
 30
0.0
 70
   128
 71
    77
 72
   165
 73
    75
  0
VERTEX
  5
4C0
  8
0
 62
     9
 10
0.0
 20
0.0
 30
0.0
 70
   128
 71
   162
 72
   161
 73
    74
  0
VERTEX
  5
4C1
  8
0
 62
     9
 10
0.0
 20
0.0
 30
0.0
 70
   128
 71
    71
 72
   161
 73
   159
  0
VERTEX
  5
4C2
  8
0
 62
     9
 10
0.0
 20
0.0
 30
0.0
 70
   128
 71
   159
 72
   157
 73
    53
  0
VERTEX
  5
4C3
  8
0
 62
     9
 10
0.0
 20
0.0
 30
0.0
 70
   128
 71
   167
 72
    77
 73
    80
  0
VERTEX
  5
4C4
  8
0
 62
     9
 10
0.0
 20
0.0
 30
0.0
 70
   128
 71
    81
 72
   168
 73
    80
  0
VERTEX
  5
4C5
  8
0
 62
     9
 10
0.0
 20
0.0
 30
0.0
 70
   128
 71
   149
 72
    52
 73
    53
  0
VERTEX
  5
4C6
  8
0
 62
     9
 10
0.0
 20
0.0
 30
0.0
 70
   128
 71
   129
 72
    59
 73
    58
  0
VERTEX
  5
4C7
  8
0
 62
     9
 10
0.0
 20
0.0
 30
0.0
 70
   128
 71
    56
 72
    52
 73
   155
  0
VERTEX
  5
4C8
  8
0
 62
     9
 10
0.0
 20
0.0
 30
0.0
 70
   128
 71
   217
 72
   274
 73
   275
  0
VERTEX
  5
4C9
  8
0
 62
     9
 10
0.0
 20
0.0
 30
0.0
 70
   128
 71
    64
 72
    62
 73
   135
  0
VERTEX
  5
4CA
  8
0
 62
     9
 10
0.0
 20
0.0
 30
0.0
 70
   128
 71
   153
 72
   227
 73
    68
  0
VERTEX
  5
4CB
  8
0
 62
     9
 10
0.0
 20
0.0
 30
0.0
 70
   128
 71
   209
 72
   223
 73
   284
  0
VERTEX
  5
4CC
  8
0
 62
     9
 10
0.0
 20
0.0
 30
0.0
 70
   128
 71
   224
 72
   259
 73
   255
  0
VERTEX
  5
4CD
  8
0
 62
     9
 10
0.0
 20
0.0
 30
0.0
 70
   128
 71
   211
 72
   283
 73
   257
  0
VERTEX
  5
4CE
  8
0
 62
     9
 10
0.0
 20
0.0
 30
0.0
 70
   128
 71
   262
 72
   210
 73
   221
  0
VERTEX
  5
4CF
  8
0
 62
     9
 10
0.0
 20
0.0
 30
0.0
 70
   128
 71
   222
 72
   265
 73
   283
  0
VERTEX
  5
4D0
  8
0
 62
     9
 10
0.0
 20
0.0
 30
0.0
 70
   128
 71
   214
 72
   264
 73
   221
  0
VERTEX
  5
4D1
  8
0
 62
     9
 10
0.0
 20
0.0
 30
0.0
 70
   128
 71
   222
 72
   210
 73
   265
  0
VERTEX
  5
4D2
  8
0
 62
     9
 10
0.0
 20
0.0
 30
0.0
 70
   128
 71
   264
 72
   212
 73
   272
  0
VERTEX
  5
4D3
  8
0
 62
     9
 10
0.0
 20
0.0
 30
0.0
 70
   128
 71
   156
 72
    68
 73
    65
  0
VERTEX
  5
4D4
  8
0
 62
     9
 10
0.0
 20
0.0
 30
0.0
 70
   128
 71
   272
 72
   213
 73
   269
  0
VERTEX
  5
4D5
  8
0
 62
     9
 10
0.0
 20
0.0
 30
0.0
 70
   128
 71
   138
 72
   156
 73
    65
  0
VERTEX
  5
4D6
  8
0
 62
     9
 10
0.0
 20
0.0
 30
0.0
 70
   128
 71
   275
 72
   268
 73
   215
  0
VERTEX
  5
4D7
  8
0
 62
     9
 10
0.0
 20
0.0
 30
0.0
 70
   128
 71
   135
 72
   138
 73
    64
  0
VERTEX
  5
4D8
  8
0
 62
     9
 10
0.0
 20
0.0
 30
0.0
 70
   128
 71
   279
 72
   274
 73
   218
  0
VERTEX
  5
4D9
  8
0
 62
     9
 10
0.0
 20
0.0
 30
0.0
 70
   128
 71
   220
 72
   281
 73
   219
  0
VERTEX
  5
4DA
  8
0
 62
     9
 10
0.0
 20
0.0
 30
0.0
 70
   128
 71
   219
 72
   279
 73
   218
  0
VERTEX
  5
4DB
  8
0
 62
     9
 10
0.0
 20
0.0
 30
0.0
 70
   128
 71
    56
 72
   132
 73
    58
  0
VERTEX
  5
4DC
  8
0
 62
     9
 10
0.0
 20
0.0
 30
0.0
 70
   128
 71
    83
 72
   171
 73
    81
  0
VERTEX
  5
4DD
  8
0
 62
     9
 10
0.0
 20
0.0
 30
0.0
 70
   128
 71
    83
 72
    85
 73
   173
  0
VERTEX
  5
4DE
  8
0
 62
     9
 10
0.0
 20
0.0
 30
0.0
 70
   128
 71
   216
 72
   268
 73
   269
  0
VERTEX
  5
4DF
  8
0
 62
     9
 10
0.0
 20
0.0
 30
0.0
 70
   128
 71
   153
 72
    68
 73
   156
  0
VERTEX
  5
4E0
  8
0
 62
     9
 10
0.0
 20
0.0
 30
0.0
 70
   128
 71
   223
 72
   257
 73
   284
  0
VERTEX
  5
4E1
  8
0
 62
     9
 10
0.0
 20
0.0
 30
0.0
 70
   128
 71
    65
 72
    64
 73
   138
  0
VERTEX
  5
4E2
  8
0
 62
     9
 10
0.0
 20
0.0
 30
0.0
 70
   128
 71
    62
 72
   134
 73
   135
  0
VERTEX
  5
4E3
  8
0
 62
     9
 10
0.0
 20
0.0
 30
0.0
 70
   128
 71
    59
 72
   129
 73
   134
  0
VERTEX
  5
4E4
  8
0
 62
     9
 10
0.0
 20
0.0
 30
0.0
 70
   128
 71
    58
 72
   132
 73
   129
  0
VERTEX
  5
4E5
  8
0
 62
     9
 10
0.0
 20
0.0
 30
0.0
 70
   128
 71
    56
 72
   155
 73
   132
  0
VERTEX
  5
4E6
  8
0
 62
     9
 10
0.0
 20
0.0
 30
0.0
 70
   128
 71
    52
 72
   149
 73
   155
  0
VERTEX
  5
4E7
  8
0
 62
     9
 10
0.0
 20
0.0
 30
0.0
 70
   128
 71
    53
 72
   157
 73
   149
  0
VERTEX
  5
4E8
  8
0
 62
     9
 10
0.0
 20
0.0
 30
0.0
 70
   128
 71
    53
 72
    71
 73
   159
  0
VERTEX
  5
4E9
  8
0
 62
     9
 10
0.0
 20
0.0
 30
0.0
 70
   128
 71
    71
 72
    74
 73
   161
  0
VERTEX
  5
4EA
  8
0
 62
     9
 10
0.0
 20
0.0
 30
0.0
 70
   128
 71
    75
 72
   165
 73
   162
  0
VERTEX
  5
4EB
  8
0
 62
     9
 10
0.0
 20
0.0
 30
0.0
 70
   128
 71
    77
 72
   167
 73
   165
  0
VERTEX
  5
4EC
  8
0
 62
     9
 10
0.0
 20
0.0
 30
0.0
 70
   128
 71
    80
 72
   168
 73
   167
  0
VERTEX
  5
4ED
  8
0
 62
     9
 10
0.0
 20
0.0
 30
0.0
 70
   128
 71
    81
 72
   171
 73
   168
  0
VERTEX
  5
4EE
  8
0
 62
     9
 10
0.0
 20
0.0
 30
0.0
 70
   128
 71
    83
 72
   173
 73
   171
  0
VERTEX
  5
4EF
  8
0
 62
     9
 10
0.0
 20
0.0
 30
0.0
 70
   128
 71
    85
 72
   175
 73
   173
  0
VERTEX
  5
4F0
  8
0
 62
     9
 10
0.0
 20
0.0
 30
0.0
 70
   128
 71
    85
 72
   281
 73
   220
  0
VERTEX
  5
4F1
  8
0
 62
     9
 10
0.0
 20
0.0
 30
0.0
 70
   128
 71
    85
 72
   220
 73
   175
  0
VERTEX
  5
4F2
  8
0
 62
     9
 10
0.0
 20
0.0
 30
0.0
 70
   128
 71
   281
 72
   279
 73
   219
  0
VERTEX
  5
4F3
  8
0
 62
     9
 10
0.0
 20
0.0
 30
0.0
 70
   128
 71
   274
 72
   217
 73
   218
  0
VERTEX
  5
4F4
  8
0
 62
     9
 10
0.0
 20
0.0
 30
0.0
 70
   128
 71
   275
 72
   215
 73
   217
  0
VERTEX
  5
4F5
  8
0
 62
     9
 10
0.0
 20
0.0
 30
0.0
 70
   128
 71
   268
 72
   216
 73
   215
  0
VERTEX
  5
4F6
  8
0
 62
     9
 10
0.0
 20
0.0
 30
0.0
 70
   128
 71
   269
 72
   213
 73
   216
  0
VERTEX
  5
4F7
  8
0
 62
     9
 10
0.0
 20
0.0
 30
0.0
 70
   128
 71
   272
 72
   212
 73
   213
  0
VERTEX
  5
4F8
  8
0
 62
     9
 10
0.0
 20
0.0
 30
0.0
 70
   128
 71
   264
 72
   214
 73
   212
  0
VERTEX
  5
4F9
  8
0
 62
     9
 10
0.0
 20
0.0
 30
0.0
 70
   128
 71
   264
 72
   262
 73
   221
  0
VERTEX
  5
4FA
  8
0
 62
     9
 10
0.0
 20
0.0
 30
0.0
 70
   128
 71
   262
 72
   265
 73
   210
  0
VERTEX
  5
4FB
  8
0
 62
     9
 10
0.0
 20
0.0
 30
0.0
 70
   128
 71
   283
 72
   211
 73
   222
  0
VERTEX
  5
4FC
  8
0
 62
     9
 10
0.0
 20
0.0
 30
0.0
 70
   128
 71
   257
 72
   223
 73
   211
  0
VERTEX
  5
4FD
  8
0
 62
     9
 10
0.0
 20
0.0
 30
0.0
 70
   128
 71
   259
 72
   209
 73
   284
  0
VERTEX
  5
4FE
  8
0
 62
     9
 10
0.0
 20
0.0
 30
0.0
 70
   128
 71
   255
 72
   227
 73
   224
  0
VERTEX
  5
4FF
  8
0
 62
     9
 10
0.0
 20
0.0
 30
0.0
 70
   128
 71
   259
 72
   224
 73
   209
  0
VERTEX
  5
500
  8
0
 62
     9
 10
0.0
 20
0.0
 30
0.0
 70
   128
 71
   227
 72
   255
 73
    68
  0
VERTEX
  5
501
  8
0
 62
     9
 10
0.0
 20
0.0
 30
0.0
 70
   128
 71
   286
 72
   285
 73
    98
  0
VERTEX
  5
502
  8
0
 62
     9
 10
0.0
 20
0.0
 30
0.0
 70
   128
 71
   288
 72
   285
 73
   287
  0
VERTEX
  5
503
  8
0
 62
     9
 10
0.0
 20
0.0
 30
0.0
 70
   128
 71
   241
 72
   289
 73
   128
  0
VERTEX
  5
504
  8
0
 62
     9
 10
0.0
 20
0.0
 30
0.0
 70
   128
 71
   239
 72
   290
 73
   240
  0
VERTEX
  5
505
  8
0
 62
     9
 10
0.0
 20
0.0
 30
0.0
 70
   128
 71
   292
 72
   121
 73
   291
  0
VERTEX
  5
506
  8
0
 62
     9
 10
0.0
 20
0.0
 30
0.0
 70
   128
 71
   117
 72
   118
 73
   293
  0
VERTEX
  5
507
  8
0
 62
     9
 10
0.0
 20
0.0
 30
0.0
 70
   128
 71
   294
 72
   123
 73
   126
  0
VERTEX
  5
508
  8
0
 62
     9
 10
0.0
 20
0.0
 30
0.0
 70
   128
 71
   294
 72
   296
 73
   295
  0
VERTEX
  5
509
  8
0
 62
     9
 10
0.0
 20
0.0
 30
0.0
 70
   128
 71
   126
 72
   128
 73
   289
  0
VERTEX
  5
50A
  8
0
 62
     9
 10
0.0
 20
0.0
 30
0.0
 70
   128
 71
   120
 72
   123
 73
   291
  0
VERTEX
  5
50B
  8
0
 62
     9
 10
0.0
 20
0.0
 30
0.0
 70
   128
 71
   297
 72
    96
 73
    97
  0
VERTEX
  5
50C
  8
0
 62
     9
 10
0.0
 20
0.0
 30
0.0
 70
   128
 71
   236
 72
   298
 73
   290
  0
VERTEX
  5
50D
  8
0
 62
     9
 10
0.0
 20
0.0
 30
0.0
 70
   128
 71
   300
 72
   299
 73
   298
  0
VERTEX
  5
50E
  8
0
 62
     9
 10
0.0
 20
0.0
 30
0.0
 70
   128
 71
   298
 72
   237
 73
   300
  0
VERTEX
  5
50F
  8
0
 62
     9
 10
0.0
 20
0.0
 30
0.0
 70
   128
 71
   301
 72
   299
 73
   300
  0
VERTEX
  5
510
  8
0
 62
     9
 10
0.0
 20
0.0
 30
0.0
 70
   128
 71
   288
 72
   302
 73
   285
  0
VERTEX
  5
511
  8
0
 62
     9
 10
0.0
 20
0.0
 30
0.0
 70
   128
 71
   304
 72
   231
 73
   303
  0
VERTEX
  5
512
  8
0
 62
     9
 10
0.0
 20
0.0
 30
0.0
 70
   128
 71
   242
 72
   303
 73
   231
  0
VERTEX
  5
513
  8
0
 62
     9
 10
0.0
 20
0.0
 30
0.0
 70
   128
 71
   242
 72
   232
 73
   303
  0
VERTEX
  5
514
  8
0
 62
     9
 10
0.0
 20
0.0
 30
0.0
 70
   128
 71
   307
 72
   306
 73
   305
  0
VERTEX
  5
515
  8
0
 62
     9
 10
0.0
 20
0.0
 30
0.0
 70
   128
 71
   107
 72
   308
 73
   109
  0
VERTEX
  5
516
  8
0
 62
     9
 10
0.0
 20
0.0
 30
0.0
 70
   128
 71
   308
 72
   310
 73
   309
  0
VERTEX
  5
517
  8
0
 62
     9
 10
0.0
 20
0.0
 30
0.0
 70
   128
 71
   303
 72
   232
 73
   243
  0
VERTEX
  5
518
  8
0
 62
     9
 10
0.0
 20
0.0
 30
0.0
 70
   128
 71
   110
 72
   312
 73
   311
  0
VERTEX
  5
519
  8
0
 62
     9
 10
0.0
 20
0.0
 30
0.0
 70
   128
 71
   311
 72
   313
 73
   230
  0
VERTEX
  5
51A
  8
0
 62
     9
 10
0.0
 20
0.0
 30
0.0
 70
   128
 71
   307
 72
   303
 73
   243
  0
VERTEX
  5
51B
  8
0
 62
     9
 10
0.0
 20
0.0
 30
0.0
 70
   128
 71
   229
 72
   307
 73
   243
  0
VERTEX
  5
51C
  8
0
 62
     9
 10
0.0
 20
0.0
 30
0.0
 70
   128
 71
   310
 72
   306
 73
   313
  0
VERTEX
  5
51D
  8
0
 62
     9
 10
0.0
 20
0.0
 30
0.0
 70
   128
 71
    98
 72
   285
 73
   101
  0
VERTEX
  5
51E
  8
0
 62
     9
 10
0.0
 20
0.0
 30
0.0
 70
   128
 71
    96
 72
   297
 73
   286
  0
VERTEX
  5
51F
  8
0
 62
     9
 10
0.0
 20
0.0
 30
0.0
 70
   128
 71
   237
 72
   238
 73
   314
  0
VERTEX
  5
520
  8
0
 62
     9
 10
0.0
 20
0.0
 30
0.0
 70
   128
 71
   238
 72
   315
 73
   314
  0
VERTEX
  5
521
  8
0
 62
     9
 10
0.0
 20
0.0
 30
0.0
 70
   128
 71
   114
 72
   297
 73
    97
  0
VERTEX
  5
522
  8
0
 62
     9
 10
0.0
 20
0.0
 30
0.0
 70
   128
 71
   114
 72
   117
 73
   295
  0
VERTEX
  5
523
  8
0
 62
     9
 10
0.0
 20
0.0
 30
0.0
 70
   128
 71
    96
 72
   286
 73
    98
  0
VERTEX
  5
524
  8
0
 62
     9
 10
0.0
 20
0.0
 30
0.0
 70
   128
 71
   295
 72
   297
 73
   114
  0
VERTEX
  5
525
  8
0
 62
     9
 10
0.0
 20
0.0
 30
0.0
 70
   128
 71
   235
 72
   231
 73
   304
  0
VERTEX
  5
526
  8
0
 62
     9
 10
0.0
 20
0.0
 30
0.0
 70
   128
 71
   297
 72
   296
 73
   287
  0
VERTEX
  5
527
  8
0
 62
     9
 10
0.0
 20
0.0
 30
0.0
 70
   128
 71
   240
 72
   290
 73
   289
  0
VERTEX
  5
528
  8
0
 62
     9
 10
0.0
 20
0.0
 30
0.0
 70
   128
 71
   291
 72
   123
 73
   294
  0
VERTEX
  5
529
  8
0
 62
     9
 10
0.0
 20
0.0
 30
0.0
 70
   128
 71
   296
 72
   305
 73
   287
  0
VERTEX
  5
52A
  8
0
 62
     9
 10
0.0
 20
0.0
 30
0.0
 70
   128
 71
   308
 72
   107
 73
   103
  0
VERTEX
  5
52B
  8
0
 62
     9
 10
0.0
 20
0.0
 30
0.0
 70
   128
 71
   306
 72
   288
 73
   305
  0
VERTEX
  5
52C
  8
0
 62
     9
 10
0.0
 20
0.0
 30
0.0
 70
   128
 71
   103
 72
   302
 73
   308
  0
VERTEX
  5
52D
  8
0
 62
     9
 10
0.0
 20
0.0
 30
0.0
 70
   128
 71
   305
 72
   288
 73
   287
  0
VERTEX
  5
52E
  8
0
 62
     9
 10
0.0
 20
0.0
 30
0.0
 70
   128
 71
   101
 72
   302
 73
   103
  0
VERTEX
  5
52F
  8
0
 62
     9
 10
0.0
 20
0.0
 30
0.0
 70
   128
 71
   302
 72
   101
 73
   285
  0
VERTEX
  5
530
  8
0
 62
     9
 10
0.0
 20
0.0
 30
0.0
 70
   128
 71
   317
 72
   316
 73
   289
  0
VERTEX
  5
531
  8
0
 62
     9
 10
0.0
 20
0.0
 30
0.0
 70
   128
 71
   236
 72
   290
 73
   239
  0
VERTEX
  5
532
  8
0
 62
     9
 10
0.0
 20
0.0
 30
0.0
 70
   128
 71
   294
 72
   289
 73
   316
  0
VERTEX
  5
533
  8
0
 62
     9
 10
0.0
 20
0.0
 30
0.0
 70
   128
 71
   289
 72
   241
 73
   240
  0
VERTEX
  5
534
  8
0
 62
     9
 10
0.0
 20
0.0
 30
0.0
 70
   128
 71
   234
 72
   304
 73
   315
  0
VERTEX
  5
535
  8
0
 62
     9
 10
0.0
 20
0.0
 30
0.0
 70
   128
 71
   289
 72
   299
 73
   317
  0
VERTEX
  5
536
  8
0
 62
     9
 10
0.0
 20
0.0
 30
0.0
 70
   128
 71
   237
 72
   298
 73
   236
  0
VERTEX
  5
537
  8
0
 62
     9
 10
0.0
 20
0.0
 30
0.0
 70
   128
 71
   304
 72
   234
 73
   235
  0
VERTEX
  5
538
  8
0
 62
     9
 10
0.0
 20
0.0
 30
0.0
 70
   128
 71
   303
 72
   317
 73
   301
  0
VERTEX
  5
539
  8
0
 62
     9
 10
0.0
 20
0.0
 30
0.0
 70
   128
 71
   233
 72
   315
 73
   238
  0
VERTEX
  5
53A
  8
0
 62
     9
 10
0.0
 20
0.0
 30
0.0
 70
   128
 71
   315
 72
   233
 73
   234
  0
VERTEX
  5
53B
  8
0
 62
     9
 10
0.0
 20
0.0
 30
0.0
 70
   128
 71
   300
 72
   237
 73
   314
  0
VERTEX
  5
53C
  8
0
 62
     9
 10
0.0
 20
0.0
 30
0.0
 70
   128
 71
   301
 72
   304
 73
   303
  0
VERTEX
  5
53D
  8
0
 62
     9
 10
0.0
 20
0.0
 30
0.0
 70
   128
 71
   299
 72
   301
 73
   317
  0
VERTEX
  5
53E
  8
0
 62
     9
 10
0.0
 20
0.0
 30
0.0
 70
   128
 71
   296
 72
   297
 73
   295
  0
VERTEX
  5
53F
  8
0
 62
     9
 10
0.0
 20
0.0
 30
0.0
 70
   128
 71
   292
 72
   118
 73
   121
  0
VERTEX
  5
540
  8
0
 62
     9
 10
0.0
 20
0.0
 30
0.0
 70
   128
 71
   294
 72
   126
 73
   289
  0
VERTEX
  5
541
  8
0
 62
     9
 10
0.0
 20
0.0
 30
0.0
 70
   128
 71
   294
 72
   316
 73
   296
  0
VERTEX
  5
542
  8
0
 62
     9
 10
0.0
 20
0.0
 30
0.0
 70
   128
 71
   120
 72
   291
 73
   121
  0
VERTEX
  5
543
  8
0
 62
     9
 10
0.0
 20
0.0
 30
0.0
 70
   128
 71
   292
 72
   293
 73
   118
  0
VERTEX
  5
544
  8
0
 62
     9
 10
0.0
 20
0.0
 30
0.0
 70
   128
 71
   293
 72
   295
 73
   117
  0
VERTEX
  5
545
  8
0
 62
     9
 10
0.0
 20
0.0
 30
0.0
 70
   128
 71
   108
 72
   312
 73
   110
  0
VERTEX
  5
546
  8
0
 62
     9
 10
0.0
 20
0.0
 30
0.0
 70
   128
 71
   108
 72
   109
 73
   309
  0
VERTEX
  5
547
  8
0
 62
     9
 10
0.0
 20
0.0
 30
0.0
 70
   128
 71
   229
 72
   230
 73
   313
  0
VERTEX
  5
548
  8
0
 62
     9
 10
0.0
 20
0.0
 30
0.0
 70
   128
 71
   311
 72
   230
 73
   110
  0
VERTEX
  5
549
  8
0
 62
     9
 10
0.0
 20
0.0
 30
0.0
 70
   128
 71
   307
 72
   313
 73
   306
  0
VERTEX
  5
54A
  8
0
 62
     9
 10
0.0
 20
0.0
 30
0.0
 70
   128
 71
   313
 72
   307
 73
   229
  0
VERTEX
  5
54B
  8
0
 62
     9
 10
0.0
 20
0.0
 30
0.0
 70
   128
 71
   309
 72
   109
 73
   308
  0
VERTEX
  5
54C
  8
0
 62
     9
 10
0.0
 20
0.0
 30
0.0
 70
   128
 71
   310
 72
   308
 73
   306
  0
VERTEX
  5
54D
  8
0
 62
     9
 10
0.0
 20
0.0
 30
0.0
 70
   128
 71
   309
 72
   312
 73
   108
  0
VERTEX
  5
54E
  8
0
 62
     9
 10
0.0
 20
0.0
 30
0.0
 70
   128
 71
   320
 72
   319
 73
   318
  0
VERTEX
  5
54F
  8
0
 62
     9
 10
0.0
 20
0.0
 30
0.0
 70
   128
 71
   320
 72
   321
 73
   319
  0
VERTEX
  5
550
  8
0
 62
     9
 10
0.0
 20
0.0
 30
0.0
 70
   128
 71
   324
 72
   323
 73
   322
  0
VERTEX
  5
551
  8
0
 62
     9
 10
0.0
 20
0.0
 30
0.0
 70
   128
 71
   319
 72
   324
 73
   322
  0
VERTEX
  5
552
  8
0
 62
     9
 10
0.0
 20
0.0
 30
0.0
 70
   128
 71
   324
 72
   319
 73
   321
  0
VERTEX
  5
553
  8
0
 62
     9
 10
0.0
 20
0.0
 30
0.0
 70
   128
 71
   323
 72
   324
 73
   325
  0
VERTEX
  5
554
  8
0
 62
     9
 10
0.0
 20
0.0
 30
0.0
 70
   128
 71
   326
 72
   324
 73
   321
  0
SEQEND
  5
555
  8
0
 62
     9
  0
ENDBLK
  5
558
  8
0
  0
BLOCK
  8
0
  2
100716_VERIS_THM_HANDLE050
 70
     0
 10
0.0
 20
0.0
 30
0.0
  3
100716_VERIS_THM_HANDLE050
  1

  0
POLYLINE
  5
55A
  8
0
 66
     1
 10
0.0
 20
0.0
 30
0.0
 70
    64
 71
    36
 72
    53
  0
VERTEX
  5
55B
  8
0
 10
64.69779968261719
 20
8.971853256225586
 30
40.61650848388672
 70
   192
  0
VERTEX
  5
55C
  8
0
 10
61.59662628173828
 20
9.520628929138184
 30
40.49292373657227
 70
   192
  0
VERTEX
  5
55D
  8
0
 10
63.18067169189453
 20
9.435420036315918
 30
40.51246643066406
 70
   192
  0
VERTEX
  5
55E
  8
0
 10
57.82778549194336
 20
0.000006935937563
 30
41.59999847412109
 70
   192
  0
VERTEX
  5
55F
  8
0
 10
57.82250595092773
 20
5.0
 30
41.29755020141602
 70
   192
  0
VERTEX
  5
560
  8
0
 10
66.97748565673828
 20
5.0
 30
41.29755020141602
 70
   192
  0
VERTEX
  5
561
  8
0
 10
65.9145278930664
 20
7.944954872131348
 30
40.83050155639648
 70
   192
  0
VERTEX
  5
562
  8
0
 10
60.09806442260742
 20
8.965704917907715
 30
40.62230682373047
 70
   192
  0
VERTEX
  5
563
  8
0
 10
58.88434982299805
 20
7.939637660980225
 30
40.83473968505859
 70
   192
  0
VERTEX
  5
564
  8
0
 10
58.09447860717773
 20
6.564833641052246
 30
41.07667541503906
 70
   192
  0
VERTEX
  5
565
  8
0
 10
66.70446014404297
 20
6.567800045013428
 30
41.07621765136719
 70
   192
  0
VERTEX
  5
566
  8
0
 10
66.35086822509766
 20
-7.27891731262207
 30
40.95470809936523
 70
   192
  0
VERTEX
  5
567
  8
0
 10
58.43315124511719
 20
-7.298249244689941
 30
40.9499397277832
 70
   192
  0
VERTEX
  5
568
  8
0
 10
66.97748565673828
 20
-5.000003814697266
 30
41.2978401184082
 70
   192
  0
VERTEX
  5
569
  8
0
 10
60.12753677368164
 20
-8.94579029083252
 30
40.62247085571289
 70
   192
  0
VERTEX
  5
56A
  8
0
 10
64.68585205078125
 20
-8.926155090332031
 30
40.62812042236328
 70
   192
  0
VERTEX
  5
56B
  8
0
 10
62.4138069152832
 20
-9.584113121032715
 30
40.48018646240234
 70
   192
  0
VERTEX
  5
56C
  8
0
 10
57.82251358032227
 20
-5.000003814697266
 30
41.2978401184082
 70
   192
  0
VERTEX
  5
56D
  8
0
 10
66.97220611572266
 20
0.0000069271313805
 30
41.59999847412109
 70
   192
  0
VERTEX
  5
56E
  8
0
 10
57.59999847412109
 20
-5.0
 30
28.54999923706055
 70
   192
  0
VERTEX
  5
56F
  8
0
 10
58.26174926757812
 20
-7.392875671386719
 30
28.54999923706055
 70
   192
  0
VERTEX
  5
570
  8
0
 10
62.39999771118164
 20
-9.800000190734863
 30
28.54999923706055
 70
   192
  0
VERTEX
  5
571
  8
0
 10
59.99731826782227
 20
-9.155920028686523
 30
28.54999923706055
 70
   192
  0
VERTEX
  5
572
  8
0
 10
67.19999694824219
 20
-5.0
 30
28.54999923706055
 70
   192
  0
VERTEX
  5
573
  8
0
 10
66.55577850341797
 20
-7.402839183807373
 30
28.54999923706055
 70
   192
  0
VERTEX
  5
574
  8
0
 10
64.7930908203125
 20
-9.138978958129883
 30
28.54999923706055
 70
   192
  0
VERTEX
  5
575
  8
0
 10
57.59999847412109
 20
5.0
 30
28.54999923706055
 70
   192
  0
VERTEX
  5
576
  8
0
 10
67.19999694824219
 20
5.0
 30
28.54999923706055
 70
   192
  0
VERTEX
  5
577
  8
0
 10
66.9102783203125
 20
6.6365966796875
 30
28.54999923706055
 70
   192
  0
VERTEX
  5
578
  8
0
 10
63.23713302612305
 20
9.725590705871582
 30
28.54999923706055
 70
   192
  0
VERTEX
  5
579
  8
0
 10
64.79736328125
 20
9.155695915222168
 30
28.54999923706055
 70
   192
  0
VERTEX
  5
57A
  8
0
 10
66.0567398071289
 20
8.068692207336426
 30
28.54999923706055
 70
   192
  0
VERTEX
  5
57B
  8
0
 10
58.74044036865234
 20
8.085644721984863
 30
28.54999923706055
 70
   192
  0
VERTEX
  5
57C
  8
0
 10
60.00135040283203
 20
9.158893585205078
 30
28.54999923706055
 70
   192
  0
VERTEX
  5
57D
  8
0
 10
61.57233810424805
 20
9.727638244628906
 30
28.54999923706055
 70
   192
  0
VERTEX
  5
57E
  8
0
 10
57.92451095581055
 20
6.631032943725586
 30
28.54999923706055
 70
   192
  0
VERTEX
  5
57F
  8
0
 62
     9
 10
0.0
 20
0.0
 30
0.0
 70
   128
 71
     3
 72
     2
 73
     1
  0
VERTEX
  5
580
  8
0
 62
     9
 10
0.0
 20
0.0
 30
0.0
 70
   128
 71
     6
 72
     5
 73
     4
  0
VERTEX
  5
581
  8
0
 62
     9
 10
0.0
 20
0.0
 30
0.0
 70
   128
 71
     8
 72
     7
 73
     1
  0
VERTEX
  5
582
  8
0
 62
     9
 10
0.0
 20
0.0
 30
0.0
 70
   128
 71
     1
 72
     2
 73
     8
  0
VERTEX
  5
583
  8
0
 62
     9
 10
0.0
 20
0.0
 30
0.0
 70
   128
 71
     9
 72
     7
 73
     8
  0
VERTEX
  5
584
  8
0
 62
     9
 10
0.0
 20
0.0
 30
0.0
 70
   128
 71
     7
 72
     9
 73
    10
  0
VERTEX
  5
585
  8
0
 62
     9
 10
0.0
 20
0.0
 30
0.0
 70
   128
 71
    10
 72
     5
 73
    11
  0
VERTEX
  5
586
  8
0
 62
     9
 10
0.0
 20
0.0
 30
0.0
 70
   128
 71
    11
 72
     7
 73
    10
  0
VERTEX
  5
587
  8
0
 62
     9
 10
0.0
 20
0.0
 30
0.0
 70
   128
 71
     5
 72
     6
 73
    11
  0
VERTEX
  5
588
  8
0
 62
     9
 10
0.0
 20
0.0
 30
0.0
 70
   128
 71
    14
 72
    13
 73
    12
  0
VERTEX
  5
589
  8
0
 62
     9
 10
0.0
 20
0.0
 30
0.0
 70
   128
 71
    16
 72
    12
 73
    15
  0
VERTEX
  5
58A
  8
0
 62
     9
 10
0.0
 20
0.0
 30
0.0
 70
   128
 71
    16
 72
    15
 73
    17
  0
VERTEX
  5
58B
  8
0
 62
     9
 10
0.0
 20
0.0
 30
0.0
 70
   128
 71
    12
 72
    13
 73
    15
  0
VERTEX
  5
58C
  8
0
 62
     9
 10
0.0
 20
0.0
 30
0.0
 70
   128
 71
    19
 72
    18
 73
    14
  0
VERTEX
  5
58D
  8
0
 62
     9
 10
0.0
 20
0.0
 30
0.0
 70
   128
 71
    14
 72
    18
 73
    13
  0
VERTEX
  5
58E
  8
0
 62
     9
 10
0.0
 20
0.0
 30
0.0
 70
   128
 71
     4
 72
    19
 73
     6
  0
VERTEX
  5
58F
  8
0
 62
     9
 10
0.0
 20
0.0
 30
0.0
 70
   128
 71
    19
 72
     4
 73
    18
  0
VERTEX
  5
590
  8
0
 62
     9
 10
0.0
 20
0.0
 30
0.0
 70
   128
 71
    21
 72
    13
 73
    20
  0
VERTEX
  5
591
  8
0
 62
     9
 10
0.0
 20
0.0
 30
0.0
 70
   128
 71
    16
 72
    17
 73
    22
  0
VERTEX
  5
592
  8
0
 62
     9
 10
0.0
 20
0.0
 30
0.0
 70
   128
 71
    15
 72
    21
 73
    23
  0
VERTEX
  5
593
  8
0
 62
     9
 10
0.0
 20
0.0
 30
0.0
 70
   128
 71
    12
 72
    25
 73
    24
  0
VERTEX
  5
594
  8
0
 62
     9
 10
0.0
 20
0.0
 30
0.0
 70
   128
 71
    25
 72
    12
 73
    16
  0
VERTEX
  5
595
  8
0
 62
     9
 10
0.0
 20
0.0
 30
0.0
 70
   128
 71
    12
 72
    24
 73
    14
  0
VERTEX
  5
596
  8
0
 62
     9
 10
0.0
 20
0.0
 30
0.0
 70
   128
 71
    26
 72
    16
 73
    22
  0
VERTEX
  5
597
  8
0
 62
     9
 10
0.0
 20
0.0
 30
0.0
 70
   128
 71
    26
 72
    25
 73
    16
  0
VERTEX
  5
598
  8
0
 62
     9
 10
0.0
 20
0.0
 30
0.0
 70
   128
 71
    17
 72
    23
 73
    22
  0
VERTEX
  5
599
  8
0
 62
     9
 10
0.0
 20
0.0
 30
0.0
 70
   128
 71
    15
 72
    13
 73
    21
  0
VERTEX
  5
59A
  8
0
 62
     9
 10
0.0
 20
0.0
 30
0.0
 70
   128
 71
    17
 72
    15
 73
    23
  0
VERTEX
  5
59B
  8
0
 62
     9
 10
0.0
 20
0.0
 30
0.0
 70
   128
 71
    13
 72
    18
 73
    20
  0
VERTEX
  5
59C
  8
0
 62
     9
 10
0.0
 20
0.0
 30
0.0
 70
   128
 71
    20
 72
    18
 73
     4
  0
VERTEX
  5
59D
  8
0
 62
     9
 10
0.0
 20
0.0
 30
0.0
 70
   128
 71
    27
 72
     4
 73
     5
  0
VERTEX
  5
59E
  8
0
 62
     9
 10
0.0
 20
0.0
 30
0.0
 70
   128
 71
    27
 72
    20
 73
     4
  0
VERTEX
  5
59F
  8
0
 62
     9
 10
0.0
 20
0.0
 30
0.0
 70
   128
 71
    29
 72
    11
 73
    28
  0
VERTEX
  5
5A0
  8
0
 62
     9
 10
0.0
 20
0.0
 30
0.0
 70
   128
 71
     3
 72
    31
 73
    30
  0
VERTEX
  5
5A1
  8
0
 62
     9
 10
0.0
 20
0.0
 30
0.0
 70
   128
 71
     7
 72
    32
 73
     1
  0
VERTEX
  5
5A2
  8
0
 62
     9
 10
0.0
 20
0.0
 30
0.0
 70
   128
 71
    34
 72
    33
 73
     9
  0
VERTEX
  5
5A3
  8
0
 62
     9
 10
0.0
 20
0.0
 30
0.0
 70
   128
 71
    35
 72
     8
 73
     2
  0
VERTEX
  5
5A4
  8
0
 62
     9
 10
0.0
 20
0.0
 30
0.0
 70
   128
 71
    10
 72
    33
 73
    36
  0
VERTEX
  5
5A5
  8
0
 62
     9
 10
0.0
 20
0.0
 30
0.0
 70
   128
 71
    33
 72
    10
 73
     9
  0
VERTEX
  5
5A6
  8
0
 62
     9
 10
0.0
 20
0.0
 30
0.0
 70
   128
 71
    27
 72
     5
 73
    36
  0
VERTEX
  5
5A7
  8
0
 62
     9
 10
0.0
 20
0.0
 30
0.0
 70
   128
 71
    10
 72
    36
 73
     5
  0
VERTEX
  5
5A8
  8
0
 62
     9
 10
0.0
 20
0.0
 30
0.0
 70
   128
 71
     8
 72
    35
 73
    34
  0
VERTEX
  5
5A9
  8
0
 62
     9
 10
0.0
 20
0.0
 30
0.0
 70
   128
 71
    34
 72
     9
 73
     8
  0
VERTEX
  5
5AA
  8
0
 62
     9
 10
0.0
 20
0.0
 30
0.0
 70
   128
 71
    30
 72
    35
 73
     2
  0
VERTEX
  5
5AB
  8
0
 62
     9
 10
0.0
 20
0.0
 30
0.0
 70
   128
 71
    29
 72
     7
 73
    11
  0
VERTEX
  5
5AC
  8
0
 62
     9
 10
0.0
 20
0.0
 30
0.0
 70
   128
 71
     1
 72
    31
 73
     3
  0
VERTEX
  5
5AD
  8
0
 62
     9
 10
0.0
 20
0.0
 30
0.0
 70
   128
 71
     3
 72
    30
 73
     2
  0
VERTEX
  5
5AE
  8
0
 62
     9
 10
0.0
 20
0.0
 30
0.0
 70
   128
 71
    29
 72
    32
 73
     7
  0
VERTEX
  5
5AF
  8
0
 62
     9
 10
0.0
 20
0.0
 30
0.0
 70
   128
 71
     1
 72
    32
 73
    31
  0
VERTEX
  5
5B0
  8
0
 62
     9
 10
0.0
 20
0.0
 30
0.0
 70
   128
 71
     6
 72
    28
 73
    11
  0
VERTEX
  5
5B1
  8
0
 62
     9
 10
0.0
 20
0.0
 30
0.0
 70
   128
 71
     6
 72
    19
 73
    28
  0
VERTEX
  5
5B2
  8
0
 62
     9
 10
0.0
 20
0.0
 30
0.0
 70
   128
 71
    24
 72
    28
 73
    19
  0
VERTEX
  5
5B3
  8
0
 62
     9
 10
0.0
 20
0.0
 30
0.0
 70
   128
 71
    19
 72
    14
 73
    24
  0
SEQEND
  5
5B4
  8
0
  0
ENDBLK
  5
5B7
  8
0
  0
BLOCK
  8
0
  2
43
 70
     0
 10
0.0
 20
0.0
 30
0.0
  3
43
  1

  0
POLYLINE
  5
5B9
  8
0
 62
     9
 66
     1
 10
0.0
 20
0.0
 30
0.0
 70
    64
 71
    59
 72
    82
  0
VERTEX
  5
5BA
  8
0
 10
47.49999618530273
 20
30.67181968688965
 30
8.201594352722168
 70
   192
  0
VERTEX
  5
5BB
  8
0
 10
6.897016525268555
 20
31.75
 30
0.0000000000000728
 70
   192
  0
VERTEX
  5
5BC
  8
0
 10
47.49999618530273
 20
31.74895668029785
 30
-0.0212515629827976
 70
   192
  0
VERTEX
  5
5BD
  8
0
 10
6.897016525268555
 20
30.66919708251953
 30
8.205574035644531
 70
   192
  0
VERTEX
  5
5BE
  8
0
 10
47.49999618530273
 20
27.5060863494873
 30
15.85553169250488
 70
   192
  0
VERTEX
  5
5BF
  8
0
 10
47.49999618530273
 20
22.45849609375
 30
22.44199371337891
 70
   192
  0
VERTEX
  5
5C0
  8
0
 10
6.897016525268555
 20
27.51203536987305
 30
15.87145900726318
 70
   192
  0
VERTEX
  5
5C1
  8
0
 10
47.49999618530273
 20
15.89208221435547
 30
27.48442268371582
 70
   192
  0
VERTEX
  5
5C2
  8
0
 10
6.897016525268555
 20
22.45615768432617
 30
22.46862602233887
 70
   192
  0
VERTEX
  5
5C3
  8
0
 10
6.897016525268555
 20
15.88518238067627
 30
27.50800514221191
 70
   192
  0
VERTEX
  5
5C4
  8
0
 10
47.49999618530273
 20
8.235564231872559
 30
30.66225242614746
 70
   192
  0
VERTEX
  5
5C5
  8
0
 10
47.49999618530273
 20
-0.0000000000000466
 30
31.75
 70
   192
  0
VERTEX
  5
5C6
  8
0
 10
6.897016525268555
 20
8.2307710647583
 30
30.68123626708984
 70
   192
  0
VERTEX
  5
5C7
  8
0
 10
6.897016525268555
 20
-0.0000000000000254
 30
31.75
 70
   192
  0
VERTEX
  5
5C8
  8
0
 10
6.897016525268555
 20
30.64884948730469
 30
-8.239441871643066
 70
   192
  0
VERTEX
  5
5C9
  8
0
 10
6.897016525268555
 20
27.46078109741211
 30
-15.88619518280029
 70
   192
  0
VERTEX
  5
5CA
  8
0
 10
47.49999618530273
 20
30.66097068786621
 30
-8.238727569580078
 70
   192
  0
VERTEX
  5
5CB
  8
0
 10
6.897016525268555
 20
22.4227237701416
 30
-22.44367408752441
 70
   192
  0
VERTEX
  5
5CC
  8
0
 10
47.49999618530273
 20
27.48797416687012
 30
-15.88916110992432
 70
   192
  0
VERTEX
  5
5CD
  8
0
 10
47.49999618530273
 20
22.42945289611816
 30
-22.46976280212402
 70
   192
  0
VERTEX
  5
5CE
  8
0
 10
6.897016525268555
 20
15.84049892425537
 30
-27.49055862426758
 70
   192
  0
VERTEX
  5
5CF
  8
0
 10
6.897016525268555
 20
8.1925687789917
 30
-30.65658760070801
 70
   192
  0
VERTEX
  5
5D0
  8
0
 10
47.49999618530273
 20
15.8533182144165
 30
-27.507080078125
 70
   192
  0
VERTEX
  5
5D1
  8
0
 10
6.897016525268555
 20
-0.0000000000000332
 30
-31.75
 70
   192
  0
VERTEX
  5
5D2
  8
0
 10
47.49999618530273
 20
8.196220397949219
 30
-30.67324447631836
 70
   192
  0
VERTEX
  5
5D3
  8
0
 10
47.49999618530273
 20
-0.0000001265561309
 30
-31.74556159973145
 70
   192
  0
VERTEX
  5
5D4
  8
0
 10
47.49999618530273
 20
-8.212093353271484
 30
30.66990661621094
 70
   192
  0
VERTEX
  5
5D5
  8
0
 10
6.897016525268555
 20
-8.1925687789917
 30
30.65658760070801
 70
   192
  0
VERTEX
  5
5D6
  8
0
 10
47.49999618530273
 20
-30.66231727600098
 30
8.234779357910156
 70
   192
  0
VERTEX
  5
5D7
  8
0
 10
6.897016525268555
 20
-27.46078109741211
 30
15.88619518280029
 70
   192
  0
VERTEX
  5
5D8
  8
0
 10
47.49999618530273
 20
-27.48724937438965
 30
15.89035701751709
 70
   192
  0
VERTEX
  5
5D9
  8
0
 10
6.897016525268555
 20
-15.84049892425537
 30
27.49055862426758
 70
   192
  0
VERTEX
  5
5DA
  8
0
 10
47.49999618530273
 20
-15.85730266571045
 30
27.50494003295898
 70
   192
  0
VERTEX
  5
5DB
  8
0
 10
47.49999618530273
 20
-22.43900108337402
 30
22.45966529846191
 70
   192
  0
VERTEX
  5
5DC
  8
0
 10
47.49999618530273
 20
-30.67266845703125
 30
-8.203866004943848
 70
   192
  0
VERTEX
  5
5DD
  8
0
 10
47.49999618530273
 20
-27.50512504577637
 30
-15.85747814178467
 70
   192
  0
VERTEX
  5
5DE
  8
0
 10
6.897016525268555
 20
-30.66919708251953
 30
-8.205574035644531
 70
   192
  0
VERTEX
  5
5DF
  8
0
 10
6.897016525268555
 20
-30.64884948730469
 30
8.239441871643066
 70
   192
  0
VERTEX
  5
5E0
  8
0
 10
47.49999618530273
 20
-31.74668121337891
 30
0.0267888940870762
 70
   192
  0
VERTEX
  5
5E1
  8
0
 10
6.897016525268555
 20
-31.75
 30
0.0000000000000995
 70
   192
  0
VERTEX
  5
5E2
  8
0
 10
47.49999618530273
 20
-22.47236824035645
 30
-22.42335510253906
 70
   192
  0
VERTEX
  5
5E3
  8
0
 10
47.49999618530273
 20
-15.8879919052124
 30
-27.49015235900879
 70
   192
  0
VERTEX
  5
5E4
  8
0
 10
6.897016525268555
 20
-22.45615768432617
 30
-22.46862602233887
 70
   192
  0
VERTEX
  5
5E5
  8
0
 10
6.897016525268555
 20
-27.51203536987305
 30
-15.87145900726318
 70
   192
  0
VERTEX
  5
5E6
  8
0
 10
47.49999618530273
 20
-8.239592552185059
 30
-30.66094589233398
 70
   192
  0
VERTEX
  5
5E7
  8
0
 10
6.897016525268555
 20
-15.88518238067627
 30
-27.50800514221191
 70
   192
  0
VERTEX
  5
5E8
  8
0
 10
6.897016525268555
 20
-8.2307710647583
 30
-30.68123626708984
 70
   192
  0
VERTEX
  5
5E9
  8
0
 10
6.897016525268555
 20
-22.4227237701416
 30
22.44367408752441
 70
   192
  0
VERTEX
  5
5EA
  8
0
 10
47.49999618530273
 20
15.4821138381958
 30
-26.78315544128418
 70
   192
  0
VERTEX
  5
5EB
  8
0
 10
47.49999618530273
 20
26.7979621887207
 30
-15.45397090911865
 70
   192
  0
VERTEX
  5
5EC
  8
0
 10
47.49999618530273
 20
-26.7979621887207
 30
15.45397090911865
 70
   192
  0
VERTEX
  5
5ED
  8
0
 10
47.49999618530273
 20
-15.4821138381958
 30
26.78315544128418
 70
   192
  0
VERTEX
  5
5EE
  8
0
 10
47.49999618530273
 20
-26.78315544128418
 30
-15.4821138381958
 70
   192
  0
VERTEX
  5
5EF
  8
0
 10
47.49999618530273
 20
-15.45397090911865
 30
-26.7979621887207
 70
   192
  0
VERTEX
  5
5F0
  8
0
 10
47.49999618530273
 20
-30.93720054626465
 30
0.0000000000001315
 70
   192
  0
VERTEX
  5
5F1
  8
0
 10
47.49999618530273
 20
30.93720054626465
 30
0.0000000000000639
 70
   192
  0
VERTEX
  5
5F2
  8
0
 10
47.49999618530273
 20
26.78315544128418
 30
15.4821138381958
 70
   192
  0
VERTEX
  5
5F3
  8
0
 10
47.49999618530273
 20
-0.0000000000000107
 30
30.93720054626465
 70
   192
  0
VERTEX
  5
5F4
  8
0
 10
47.49999618530273
 20
15.45397090911865
 30
26.7979621887207
 70
   192
  0
VERTEX
  5
5F5
  8
0
 62
     9
 10
0.0
 20
0.0
 30
0.0
 70
   128
 71
     3
 72
     2
 73
     1
  0
VERTEX
  5
5F6
  8
0
 62
     9
 10
0.0
 20
0.0
 30
0.0
 70
   128
 71
     5
 72
     1
 73
     4
  0
VERTEX
  5
5F7
  8
0
 62
     9
 10
0.0
 20
0.0
 30
0.0
 70
   128
 71
     2
 72
     4
 73
     1
  0
VERTEX
  5
5F8
  8
0
 62
     9
 10
0.0
 20
0.0
 30
0.0
 70
   128
 71
     7
 72
     6
 73
     5
  0
VERTEX
  5
5F9
  8
0
 62
     9
 10
0.0
 20
0.0
 30
0.0
 70
   128
 71
     5
 72
     4
 73
     7
  0
VERTEX
  5
5FA
  8
0
 62
     9
 10
0.0
 20
0.0
 30
0.0
 70
   128
 71
     6
 72
     9
 73
     8
  0
VERTEX
  5
5FB
  8
0
 62
     9
 10
0.0
 20
0.0
 30
0.0
 70
   128
 71
     9
 72
     6
 73
     7
  0
VERTEX
  5
5FC
  8
0
 62
     9
 10
0.0
 20
0.0
 30
0.0
 70
   128
 71
    11
 72
     8
 73
    10
  0
VERTEX
  5
5FD
  8
0
 62
     9
 10
0.0
 20
0.0
 30
0.0
 70
   128
 71
     9
 72
    10
 73
     8
  0
VERTEX
  5
5FE
  8
0
 62
     9
 10
0.0
 20
0.0
 30
0.0
 70
   128
 71
    13
 72
    12
 73
    11
  0
VERTEX
  5
5FF
  8
0
 62
     9
 10
0.0
 20
0.0
 30
0.0
 70
   128
 71
    11
 72
    10
 73
    13
  0
VERTEX
  5
600
  8
0
 62
     9
 10
0.0
 20
0.0
 30
0.0
 70
   128
 71
    14
 72
    12
 73
    13
  0
VERTEX
  5
601
  8
0
 62
     9
 10
0.0
 20
0.0
 30
0.0
 70
   128
 71
    15
 72
     2
 73
     3
  0
VERTEX
  5
602
  8
0
 62
     9
 10
0.0
 20
0.0
 30
0.0
 70
   128
 71
    17
 72
    16
 73
    15
  0
VERTEX
  5
603
  8
0
 62
     9
 10
0.0
 20
0.0
 30
0.0
 70
   128
 71
    15
 72
     3
 73
    17
  0
VERTEX
  5
604
  8
0
 62
     9
 10
0.0
 20
0.0
 30
0.0
 70
   128
 71
    16
 72
    19
 73
    18
  0
VERTEX
  5
605
  8
0
 62
     9
 10
0.0
 20
0.0
 30
0.0
 70
   128
 71
    19
 72
    16
 73
    17
  0
VERTEX
  5
606
  8
0
 62
     9
 10
0.0
 20
0.0
 30
0.0
 70
   128
 71
    21
 72
    18
 73
    20
  0
VERTEX
  5
607
  8
0
 62
     9
 10
0.0
 20
0.0
 30
0.0
 70
   128
 71
    19
 72
    20
 73
    18
  0
VERTEX
  5
608
  8
0
 62
     9
 10
0.0
 20
0.0
 30
0.0
 70
   128
 71
    23
 72
    22
 73
    21
  0
VERTEX
  5
609
  8
0
 62
     9
 10
0.0
 20
0.0
 30
0.0
 70
   128
 71
    21
 72
    20
 73
    23
  0
VERTEX
  5
60A
  8
0
 62
     9
 10
0.0
 20
0.0
 30
0.0
 70
   128
 71
    22
 72
    25
 73
    24
  0
VERTEX
  5
60B
  8
0
 62
     9
 10
0.0
 20
0.0
 30
0.0
 70
   128
 71
    25
 72
    22
 73
    23
  0
VERTEX
  5
60C
  8
0
 62
     9
 10
0.0
 20
0.0
 30
0.0
 70
   128
 71
    25
 72
    26
 73
    24
  0
VERTEX
  5
60D
  8
0
 62
     9
 10
0.0
 20
0.0
 30
0.0
 70
   128
 71
    14
 72
    28
 73
    27
  0
VERTEX
  5
60E
  8
0
 62
     9
 10
0.0
 20
0.0
 30
0.0
 70
   128
 71
    31
 72
    30
 73
    29
  0
VERTEX
  5
60F
  8
0
 62
     9
 10
0.0
 20
0.0
 30
0.0
 70
   128
 71
    34
 72
    33
 73
    32
  0
VERTEX
  5
610
  8
0
 62
     9
 10
0.0
 20
0.0
 30
0.0
 70
   128
 71
    37
 72
    36
 73
    35
  0
VERTEX
  5
611
  8
0
 62
     9
 10
0.0
 20
0.0
 30
0.0
 70
   128
 71
    40
 72
    39
 73
    38
  0
VERTEX
  5
612
  8
0
 62
     9
 10
0.0
 20
0.0
 30
0.0
 70
   128
 71
    43
 72
    42
 73
    41
  0
VERTEX
  5
613
  8
0
 62
     9
 10
0.0
 20
0.0
 30
0.0
 70
   128
 71
    41
 72
    36
 73
    44
  0
VERTEX
  5
614
  8
0
 62
     9
 10
0.0
 20
0.0
 30
0.0
 70
   128
 71
    42
 72
    46
 73
    45
  0
VERTEX
  5
615
  8
0
 62
     9
 10
0.0
 20
0.0
 30
0.0
 70
   128
 71
    46
 72
    42
 73
    43
  0
VERTEX
  5
616
  8
0
 62
     9
 10
0.0
 20
0.0
 30
0.0
 70
   128
 71
    26
 72
    45
 73
    47
  0
VERTEX
  5
617
  8
0
 62
     9
 10
0.0
 20
0.0
 30
0.0
 70
   128
 71
    46
 72
    47
 73
    45
  0
VERTEX
  5
618
  8
0
 62
     9
 10
0.0
 20
0.0
 30
0.0
 70
   128
 71
    26
 72
    47
 73
    24
  0
VERTEX
  5
619
  8
0
 62
     9
 10
0.0
 20
0.0
 30
0.0
 70
   128
 71
    36
 72
    37
 73
    44
  0
VERTEX
  5
61A
  8
0
 62
     9
 10
0.0
 20
0.0
 30
0.0
 70
   128
 71
    43
 72
    41
 73
    44
  0
VERTEX
  5
61B
  8
0
 62
     9
 10
0.0
 20
0.0
 30
0.0
 70
   128
 71
    40
 72
    35
 73
    39
  0
VERTEX
  5
61C
  8
0
 62
     9
 10
0.0
 20
0.0
 30
0.0
 70
   128
 71
    37
 72
    35
 73
    40
  0
VERTEX
  5
61D
  8
0
 62
     9
 10
0.0
 20
0.0
 30
0.0
 70
   128
 71
    30
 72
    38
 73
    29
  0
VERTEX
  5
61E
  8
0
 62
     9
 10
0.0
 20
0.0
 30
0.0
 70
   128
 71
    38
 72
    39
 73
    29
  0
VERTEX
  5
61F
  8
0
 62
     9
 10
0.0
 20
0.0
 30
0.0
 70
   128
 71
    34
 72
    48
 73
    31
  0
VERTEX
  5
620
  8
0
 62
     9
 10
0.0
 20
0.0
 30
0.0
 70
   128
 71
    48
 72
    30
 73
    31
  0
VERTEX
  5
621
  8
0
 62
     9
 10
0.0
 20
0.0
 30
0.0
 70
   128
 71
    33
 72
    28
 73
    32
  0
VERTEX
  5
622
  8
0
 62
     9
 10
0.0
 20
0.0
 30
0.0
 70
   128
 71
    34
 72
    32
 73
    48
  0
VERTEX
  5
623
  8
0
 62
     9
 10
0.0
 20
0.0
 30
0.0
 70
   128
 71
    27
 72
    12
 73
    14
  0
VERTEX
  5
624
  8
0
 62
     9
 10
0.0
 20
0.0
 30
0.0
 70
   128
 71
    33
 72
    27
 73
    28
  0
VERTEX
  5
625
  8
0
 62
     9
 10
0.0
 20
0.0
 30
0.0
 70
   128
 71
    50
 72
    49
 73
    20
  0
VERTEX
  5
626
  8
0
 62
     9
 10
0.0
 20
0.0
 30
0.0
 70
   128
 71
    52
 72
    34
 73
    51
  0
VERTEX
  5
627
  8
0
 62
     9
 10
0.0
 20
0.0
 30
0.0
 70
   128
 71
    41
 72
    54
 73
    53
  0
VERTEX
  5
628
  8
0
 62
     9
 10
0.0
 20
0.0
 30
0.0
 70
   128
 71
    26
 72
    54
 73
    45
  0
VERTEX
  5
629
  8
0
 62
     9
 10
0.0
 20
0.0
 30
0.0
 70
   128
 71
    49
 72
    25
 73
    23
  0
VERTEX
  5
62A
  8
0
 62
     9
 10
0.0
 20
0.0
 30
0.0
 70
   128
 71
    35
 72
    53
 73
    55
  0
VERTEX
  5
62B
  8
0
 62
     9
 10
0.0
 20
0.0
 30
0.0
 70
   128
 71
    51
 72
    29
 73
    55
  0
VERTEX
  5
62C
  8
0
 62
     9
 10
0.0
 20
0.0
 30
0.0
 70
   128
 71
    56
 72
    50
 73
    17
  0
VERTEX
  5
62D
  8
0
 62
     9
 10
0.0
 20
0.0
 30
0.0
 70
   128
 71
     1
 72
    57
 73
    56
  0
VERTEX
  5
62E
  8
0
 62
     9
 10
0.0
 20
0.0
 30
0.0
 70
   128
 71
    52
 72
    58
 73
    27
  0
VERTEX
  5
62F
  8
0
 62
     9
 10
0.0
 20
0.0
 30
0.0
 70
   128
 71
    59
 72
    57
 73
     6
  0
VERTEX
  5
630
  8
0
 62
     9
 10
0.0
 20
0.0
 30
0.0
 70
   128
 71
    58
 72
    59
 73
    11
  0
VERTEX
  5
631
  8
0
 62
     9
 10
0.0
 20
0.0
 30
0.0
 70
   128
 71
    42
 72
    54
 73
    41
  0
VERTEX
  5
632
  8
0
 62
     9
 10
0.0
 20
0.0
 30
0.0
 70
   128
 71
    54
 72
    42
 73
    45
  0
VERTEX
  5
633
  8
0
 62
     9
 10
0.0
 20
0.0
 30
0.0
 70
   128
 71
    36
 72
    53
 73
    35
  0
VERTEX
  5
634
  8
0
 62
     9
 10
0.0
 20
0.0
 30
0.0
 70
   128
 71
    53
 72
    36
 73
    41
  0
VERTEX
  5
635
  8
0
 62
     9
 10
0.0
 20
0.0
 30
0.0
 70
   128
 71
    39
 72
    55
 73
    29
  0
VERTEX
  5
636
  8
0
 62
     9
 10
0.0
 20
0.0
 30
0.0
 70
   128
 71
    55
 72
    39
 73
    35
  0
VERTEX
  5
637
  8
0
 62
     9
 10
0.0
 20
0.0
 30
0.0
 70
   128
 71
    31
 72
    51
 73
    34
  0
VERTEX
  5
638
  8
0
 62
     9
 10
0.0
 20
0.0
 30
0.0
 70
   128
 71
    51
 72
    31
 73
    29
  0
VERTEX
  5
639
  8
0
 62
     9
 10
0.0
 20
0.0
 30
0.0
 70
   128
 71
    33
 72
    52
 73
    27
  0
VERTEX
  5
63A
  8
0
 62
     9
 10
0.0
 20
0.0
 30
0.0
 70
   128
 71
    52
 72
    33
 73
    34
  0
VERTEX
  5
63B
  8
0
 62
     9
 10
0.0
 20
0.0
 30
0.0
 70
   128
 71
    12
 72
    58
 73
    11
  0
VERTEX
  5
63C
  8
0
 62
     9
 10
0.0
 20
0.0
 30
0.0
 70
   128
 71
    58
 72
    12
 73
    27
  0
VERTEX
  5
63D
  8
0
 62
     9
 10
0.0
 20
0.0
 30
0.0
 70
   128
 71
     8
 72
    59
 73
     6
  0
VERTEX
  5
63E
  8
0
 62
     9
 10
0.0
 20
0.0
 30
0.0
 70
   128
 71
    59
 72
     8
 73
    11
  0
VERTEX
  5
63F
  8
0
 62
     9
 10
0.0
 20
0.0
 30
0.0
 70
   128
 71
     5
 72
    57
 73
     1
  0
VERTEX
  5
640
  8
0
 62
     9
 10
0.0
 20
0.0
 30
0.0
 70
   128
 71
    57
 72
     5
 73
     6
  0
VERTEX
  5
641
  8
0
 62
     9
 10
0.0
 20
0.0
 30
0.0
 70
   128
 71
     3
 72
    56
 73
    17
  0
VERTEX
  5
642
  8
0
 62
     9
 10
0.0
 20
0.0
 30
0.0
 70
   128
 71
    56
 72
     3
 73
     1
  0
VERTEX
  5
643
  8
0
 62
     9
 10
0.0
 20
0.0
 30
0.0
 70
   128
 71
    19
 72
    50
 73
    20
  0
VERTEX
  5
644
  8
0
 62
     9
 10
0.0
 20
0.0
 30
0.0
 70
   128
 71
    50
 72
    19
 73
    17
  0
VERTEX
  5
645
  8
0
 62
     9
 10
0.0
 20
0.0
 30
0.0
 70
   128
 71
    49
 72
    26
 73
    25
  0
VERTEX
  5
646
  8
0
 62
     9
 10
0.0
 20
0.0
 30
0.0
 70
   128
 71
    49
 72
    23
 73
    20
  0
SEQEND
  5
647
  8
0
 62
     9
  0
ENDBLK
  5
64A
  8
0
  0
ENDSEC
  0
SECTION
  2
ENTITIES
  0
INSERT
  5
C8
  8
LAYER_1
  2
100716_VERIS_THM_HANDLE05_
 10
0.0
 20
0.0
 30
0.0
  0
INSERT
  5
209
  8
LAYER_1
  2
100622_ESCUTCHEON_COSMO01
 10
0.0
 20
0.0
 30
0.0
  0
INSERT
  5
556
  8
LAYER_1
  2
41
 10
0.0
 20
0.0
 30
0.0
  0
INSERT
  5
5B5
  8
LAYER_1
  2
100716_VERIS_THM_HANDLE050
 10
0.0
 20
0.0
 30
0.0
  0
INSERT
  5
648
  8
LAYER_1
  2
43
 10
0.0
 20
0.0
 30
0.0
  0
ENDSEC
  0
EOF
