  0
SECTION
  2
HEADER
  9
$ACADVER
  1
AC1015
  9
$ACADMAINTVER
 70
     6
  9
$DWGCODEPAGE
  3
ANSI_1252
  9
$INSBASE
 10
0.0
 20
0.0
 30
0.0
  9
$EXTMIN
 10
0.0
 20
0.0
 30
0.0
  9
$EXTMAX
 10
1682.0
 20
2378.0
 30
0.0
  9
$LIMMIN
 10
0.0
 20
0.0
  9
$LIMMAX
 10
1682.0
 20
2378.0
  9
$ORTHOMODE
 70
     0
  9
$REGENMODE
 70
     1
  9
$FILLMODE
 70
     1
  9
$QTEXTMODE
 70
     0
  9
$MIRRTEXT
 70
     1
  9
$LTSCALE
 40
1.0
  9
$ATTMODE
 70
     1
  9
$TEXTSIZE
 40
2.5
  9
$TRACEWID
 40
1.0
  9
$TEXTSTYLE
  7
Standard
  9
$CLAYER
  8
0
  9
$CELTYPE
  6
ByLayer
  9
$CECOLOR
 62
   256
  9
$CELTSCALE
 40
1.0
  9
$DISPSILH
 70
     0
  9
$DIMSCALE
 40
1.0
  9
$DIMASZ
 40
2.5
  9
$DIMEXO
 40
0.625
  9
$DIMDLI
 40
3.75
  9
$DIMRND
 40
0.0
  9
$DIMDLE
 40
0.0
  9
$DIMEXE
 40
1.25
  9
$DIMTP
 40
0.0
  9
$DIMTM
 40
0.0
  9
$DIMTXT
 40
2.5
  9
$DIMCEN
 40
2.5
  9
$DIMTSZ
 40
0.0
  9
$DIMTOL
 70
     0
  9
$DIMLIM
 70
     0
  9
$DIMTIH
 70
     0
  9
$DIMTOH
 70
     0
  9
$DIMSE1
 70
     0
  9
$DIMSE2
 70
     0
  9
$DIMTAD
 70
     1
  9
$DIMZIN
 70
     8
  9
$DIMBLK
  1

  9
$DIMASO
 70
     1
  9
$DIMSHO
 70
     1
  9
$DIMPOST
  1

  9
$DIMAPOST
  1

  9
$DIMALT
 70
     0
  9
$DIMALTD
 70
     3
  9
$DIMALTF
 40
0.0393700787
  9
$DIMLFAC
 40
1.0
  9
$DIMTOFL
 70
     1
  9
$DIMTVP
 40
0.0
  9
$DIMTIX
 70
     0
  9
$DIMSOXD
 70
     0
  9
$DIMSAH
 70
     0
  9
$DIMBLK1
  1

  9
$DIMBLK2
  1

  9
$DIMSTYLE
  2
ISO-25
  9
$DIMCLRD
 70
     0
  9
$DIMCLRE
 70
     0
  9
$DIMCLRT
 70
     0
  9
$DIMTFAC
 40
1.0
  9
$DIMGAP
 40
0.625
  9
$DIMJUST
 70
     0
  9
$DIMSD1
 70
     0
  9
$DIMSD2
 70
     0
  9
$DIMTOLJ
 70
     0
  9
$DIMTZIN
 70
     8
  9
$DIMALTZ
 70
     0
  9
$DIMALTTZ
 70
     0
  9
$DIMUPT
 70
     0
  9
$DIMDEC
 70
     2
  9
$DIMTDEC
 70
     2
  9
$DIMALTU
 70
     2
  9
$DIMALTTD
 70
     3
  9
$DIMTXSTY
  7
Standard
  9
$DIMAUNIT
 70
     0
  9
$DIMADEC
 70
     0
  9
$DIMALTRND
 40
0.0
  9
$DIMAZIN
 70
     0
  9
$DIMDSEP
 70
    44
  9
$DIMATFIT
 70
     3
  9
$DIMFRAC
 70
     0
  9
$DIMLDRBLK
  1

  9
$DIMLUNIT
 70
     2
  9
$DIMLWD
 70
    -2
  9
$DIMLWE
 70
    -2
  9
$DIMTMOVE
 70
     0
  9
$LUNITS
 70
     2
  9
$LUPREC
 70
     4
  9
$SKETCHINC
 40
1.0
  9
$FILLETRAD
 40
10.0
  9
$AUNITS
 70
     0
  9
$AUPREC
 70
     0
  9
$MENU
  1
.
  9
$ELEVATION
 40
0.0
  9
$PELEVATION
 40
0.0
  9
$THICKNESS
 40
0.0
  9
$LIMCHECK
 70
     0
  9
$CHAMFERA
 40
10.0
  9
$CHAMFERB
 40
10.0
  9
$CHAMFERC
 40
20.0
  9
$CHAMFERD
 40
0.0
  9
$SKPOLY
 70
     0
  9
$TDCREATE
 40
2455798.432912894
  9
$TDUCREATE
 40
2455798.34957956
  9
$TDUPDATE
 40
2455798.432912905
  9
$TDUUPDATE
 40
2455798.349579572
  9
$TDINDWG
 40
0.0000000116
  9
$TDUSRTIMER
 40
0.0000000116
  9
$USRTIMER
 70
     1
  9
$ANGBASE
 50
0.0
  9
$ANGDIR
 70
     0
  9
$PDMODE
 70
     0
  9
$PDSIZE
 40
0.0
  9
$PLINEWID
 40
0.0
  9
$SPLFRAME
 70
     0
  9
$SPLINETYPE
 70
     6
  9
$SPLINESEGS
 70
     8
  9
$HANDSEED
  5
25F
  9
$SURFTAB1
 70
     6
  9
$SURFTAB2
 70
     6
  9
$SURFTYPE
 70
     6
  9
$SURFU
 70
     6
  9
$SURFV
 70
     6
  9
$UCSBASE
  2

  9
$UCSNAME
  2

  9
$UCSORG
 10
0.0
 20
0.0
 30
0.0
  9
$UCSXDIR
 10
1.0
 20
0.0
 30
0.0
  9
$UCSYDIR
 10
0.0
 20
1.0
 30
0.0
  9
$UCSORTHOREF
  2

  9
$UCSORTHOVIEW
 70
     0
  9
$UCSORGTOP
 10
0.0
 20
0.0
 30
0.0
  9
$UCSORGBOTTOM
 10
0.0
 20
0.0
 30
0.0
  9
$UCSORGLEFT
 10
0.0
 20
0.0
 30
0.0
  9
$UCSORGRIGHT
 10
0.0
 20
0.0
 30
0.0
  9
$UCSORGFRONT
 10
0.0
 20
0.0
 30
0.0
  9
$UCSORGBACK
 10
0.0
 20
0.0
 30
0.0
  9
$PUCSBASE
  2

  9
$PUCSNAME
  2

  9
$PUCSORG
 10
0.0
 20
0.0
 30
0.0
  9
$PUCSXDIR
 10
1.0
 20
0.0
 30
0.0
  9
$PUCSYDIR
 10
0.0
 20
1.0
 30
0.0
  9
$PUCSORTHOREF
  2

  9
$PUCSORTHOVIEW
 70
     0
  9
$PUCSORGTOP
 10
0.0
 20
0.0
 30
0.0
  9
$PUCSORGBOTTOM
 10
0.0
 20
0.0
 30
0.0
  9
$PUCSORGLEFT
 10
0.0
 20
0.0
 30
0.0
  9
$PUCSORGRIGHT
 10
0.0
 20
0.0
 30
0.0
  9
$PUCSORGFRONT
 10
0.0
 20
0.0
 30
0.0
  9
$PUCSORGBACK
 10
0.0
 20
0.0
 30
0.0
  9
$USERI1
 70
     0
  9
$USERI2
 70
     0
  9
$USERI3
 70
     0
  9
$USERI4
 70
     0
  9
$USERI5
 70
     0
  9
$USERR1
 40
0.0
  9
$USERR2
 40
0.0
  9
$USERR3
 40
0.0
  9
$USERR4
 40
0.0
  9
$USERR5
 40
0.0
  9
$WORLDVIEW
 70
     1
  9
$SHADEDGE
 70
     3
  9
$SHADEDIF
 70
    70
  9
$TILEMODE
 70
     1
  9
$MAXACTVP
 70
    64
  9
$PINSBASE
 10
0.0
 20
0.0
 30
0.0
  9
$PLIMCHECK
 70
     0
  9
$PEXTMIN
 10
0.0
 20
0.0
 30
0.0
  9
$PEXTMAX
 10
1682.0
 20
2378.0
 30
0.0
  9
$PLIMMIN
 10
0.0
 20
0.0
  9
$PLIMMAX
 10
1682.0
 20
2378.0
  9
$UNITMODE
 70
     0
  9
$VISRETAIN
 70
     1
  9
$PLINEGEN
 70
     0
  9
$PSLTSCALE
 70
     1
  9
$TREEDEPTH
 70
  3020
  9
$CMLSTYLE
  2
Standard
  9
$CMLJUST
 70
     0
  9
$CMLSCALE
 40
20.0
  9
$PROXYGRAPHICS
 70
     1
  9
$MEASUREMENT
 70
     1
  9
$CELWEIGHT
370
    -1
  9
$ENDCAPS
280
     0
  9
$JOINSTYLE
280
     0
  9
$LWDISPLAY
290
     0
  9
$INSUNITS
 70
     4
  9
$HYPERLINKBASE
  1

  9
$STYLESHEET
  1

  9
$XEDIT
290
     1
  9
$CEPSNTYPE
380
     0
  9
$PSTYLEMODE
290
     1
  9
$FINGERPRINTGUID
  2
{1EBDCCBD-024B-430E-B7F4-1AC36C4CC84B}
  9
$VERSIONGUID
  2
{FAEB1C32-E019-11D5-929B-00C0DF256EC4}
  9
$EXTNAMES
290
     1
  9
$PSVPSCALE
 40
0.0
  9
$OLESTARTUP
290
     0
  0
ENDSEC
  0
SECTION
  2
CLASSES
  0
CLASS
  1
ACDBDICTIONARYWDFLT
  2
AcDbDictionaryWithDefault
  3
ObjectDBX Classes
 90
        0
280
     0
281
     0
  0
CLASS
  1
VISUALSTYLE
  2
AcDbVisualStyle
  3
ObjectDBX Classes
 90
     4095
280
     0
281
     0
  0
CLASS
  1
SCALE
  2
AcDbScale
  3
ObjectDBX Classes
 90
     1153
280
     0
281
     0
  0
CLASS
  1
DICTIONARYVAR
  2
AcDbDictionaryVar
  3
ObjectDBX Classes
 90
        0
280
     0
281
     0
  0
CLASS
  1
ACDBPLACEHOLDER
  2
AcDbPlaceHolder
  3
ObjectDBX Classes
 90
        0
280
     0
281
     0
  0
CLASS
  1
LAYOUT
  2
AcDbLayout
  3
ObjectDBX Classes
 90
        0
280
     0
281
     0
  0
ENDSEC
  0
SECTION
  2
TABLES
  0
TABLE
  2
VPORT
  5
8
330
0
100
AcDbSymbolTable
 70
     1
  0
VPORT
  5
29
330
8
100
AcDbSymbolTableRecord
100
AcDbViewportTableRecord
  2
*Active
 70
     0
 10
0.0
 20
0.0
 11
1.0
 21
1.0
 12
344.1869158879
 22
148.5
 13
0.0
 23
0.0
 14
10.0
 24
10.0
 15
10.0
 25
10.0
 16
0.0
 26
0.0
 36
1.0
 17
0.0
 27
0.0
 37
0.0
 40
297.0
 41
1.9729729729
 42
50.0
 43
0.0
 44
0.0
 50
0.0
 51
0.0
 71
     0
 72
   100
 73
     1
 74
     3
 75
     0
 76
     0
 77
     0
 78
     0
281
     0
 65
     1
110
0.0
120
0.0
130
0.0
111
1.0
121
0.0
131
0.0
112
0.0
122
1.0
132
0.0
 79
     0
146
0.0
  0
ENDTAB
  0
TABLE
  2
LTYPE
  5
5
330
0
100
AcDbSymbolTable
 70
     2
  0
LTYPE
  5
14
330
5
100
AcDbSymbolTableRecord
100
AcDbLinetypeTableRecord
  2
ByBlock
 70
     0
  3

 72
    65
 73
     0
 40
0.0
  0
LTYPE
  5
15
330
5
100
AcDbSymbolTableRecord
100
AcDbLinetypeTableRecord
  2
ByLayer
 70
     0
  3

 72
    65
 73
     0
 40
0.0
  0
LTYPE
  5
16
330
5
100
AcDbSymbolTableRecord
100
AcDbLinetypeTableRecord
  2
Continuous
 70
     0
  3
Solid line
 72
    65
 73
     0
 40
0.0
  0
LTYPE
  5
60
330
5
100
AcDbSymbolTableRecord
100
AcDbLinetypeTableRecord
  2
CENTER2
 70
     0
  3
Center (.5x) ___ _ ___ _ ___ _ ___ _ ___ _ ___
 72
    65
 73
     4
 40
28.575
 49
19.05
 74
     4
 75
     0
340
0
 46
0.0
 50
0.0
 44
0.0
 45
0.0
 49
-3.175
 74
     4
 75
     0
340
0
 46
0.0
 50
0.0
 44
0.0
 45
0.0
 49
3.175
 74
     4
 75
     0
340
0
 46
0.0
 50
0.0
 44
0.0
 45
0.0
 49
-3.175
 74
     4
 75
     0
340
0
 46
0.0
 50
0.0
 44
0.0
 45
0.0
  0
ENDTAB
  0
TABLE
  2
LAYER
  5
2
330
0
100
AcDbSymbolTable
 70
     5
  0
LAYER
  5
10
330
2
100
AcDbSymbolTableRecord
100
AcDbLayerTableRecord
  2
0
 70
     0
 62
     7
  6
Continuous
370
    -3
390
F
  0
LAYER
  5
5D
330
2
100
AcDbSymbolTableRecord
100
AcDbLayerTableRecord
  2
Default
 70
     0
 62
     7
  6
Continuous
370
    -3
390
F
  0
LAYER
  5
77
330
2
100
AcDbSymbolTableRecord
100
AcDbLayerTableRecord
  2
DV1_Standard
 70
     0
 62
     7
  6
Continuous
370
    -3
390
F
  0
LAYER
  5
141
330
2
100
AcDbSymbolTableRecord
100
AcDbLayerTableRecord
  2
DV2_Standard
 70
     0
 62
     7
  6
Continuous
370
    -3
390
F
  0
LAYER
  5
18D
330
2
100
AcDbSymbolTableRecord
100
AcDbLayerTableRecord
  2
DV3_Standard
 70
     0
 62
     7
  6
Continuous
370
    -3
390
F
  0
ENDTAB
  0
TABLE
  2
STYLE
  5
3
330
0
100
AcDbSymbolTable
 70
     2
  0
STYLE
  5
11
330
3
100
AcDbSymbolTableRecord
100
AcDbTextStyleTableRecord
  2
Standard
 70
     0
 40
0.0
 41
1.0
 50
0.0
 71
     0
 42
2.5
  3
txt
  4

  0
STYLE
  5
24E
330
3
100
AcDbSymbolTableRecord
100
AcDbTextStyleTableRecord
  2
SEACAD_seiso_ttf
 70
     0
 40
0.0
 41
1.0
 50
0.0
 71
     0
 42
0.2
  3
seiso.ttf
  4

  0
ENDTAB
  0
TABLE
  2
VIEW
  5
6
330
0
100
AcDbSymbolTable
 70
     0
  0
ENDTAB
  0
TABLE
  2
UCS
  5
7
330
0
100
AcDbSymbolTable
 70
     0
  0
ENDTAB
  0
TABLE
  2
APPID
  5
9
330
0
100
AcDbSymbolTable
 70
     1
  0
APPID
  5
12
330
9
100
AcDbSymbolTableRecord
100
AcDbRegAppTableRecord
  2
ACAD
 70
     0
  0
ENDTAB
  0
TABLE
  2
DIMSTYLE
  5
A
330
0
100
AcDbSymbolTable
 70
     1
100
AcDbDimStyleTable
  0
DIMSTYLE
105
27
330
A
100
AcDbSymbolTableRecord
100
AcDbDimStyleTableRecord
  2
ISO-25
 70
     0
 41
2.5
 42
0.625
 43
3.75
 44
1.25
 73
     0
 74
     0
 77
     1
 78
     8
140
2.5
141
2.5
143
0.0393700787
147
0.625
171
     3
172
     1
271
     2
272
     2
274
     3
278
    44
283
     0
284
     8
340
11
  0
ENDTAB
  0
TABLE
  2
BLOCK_RECORD
  5
1
330
0
100
AcDbSymbolTable
 70
     8
  0
BLOCK_RECORD
  5
1F
330
1
100
AcDbSymbolTableRecord
100
AcDbBlockTableRecord
  2
*Model_Space
340
22
  0
BLOCK_RECORD
  5
1B
330
1
100
AcDbSymbolTableRecord
100
AcDbBlockTableRecord
  2
*Paper_Space
340
1E
  0
BLOCK_RECORD
  5
5E
330
1
100
AcDbSymbolTableRecord
100
AcDbBlockTableRecord
  2
SEANNOT_GROUP
340
0
102
{BLKREFS
331
5F
102
}
  0
BLOCK_RECORD
  5
65
330
1
100
AcDbSymbolTableRecord
100
AcDbBlockTableRecord
  2
SEANNOT_GROUP1
340
0
102
{BLKREFS
331
66
102
}
  0
BLOCK_RECORD
  5
6B
330
1
100
AcDbSymbolTableRecord
100
AcDbBlockTableRecord
  2
SEANNOT_GROUP2
340
0
102
{BLKREFS
331
6C
102
}
  0
BLOCK_RECORD
  5
70
330
1
100
AcDbSymbolTableRecord
100
AcDbBlockTableRecord
  2
SEANNOT_GROUP3
340
0
102
{BLKREFS
331
71
102
}
  0
BLOCK_RECORD
  5
75
330
1
100
AcDbSymbolTableRecord
100
AcDbBlockTableRecord
  2
SE
340
0
102
{BLKREFS
331
76
102
}
  0
BLOCK_RECORD
  5
13F
330
1
100
AcDbSymbolTableRecord
100
AcDbBlockTableRecord
  2
SE1
340
0
102
{BLKREFS
331
140
102
}
  0
BLOCK_RECORD
  5
18B
330
1
100
AcDbSymbolTableRecord
100
AcDbBlockTableRecord
  2
SE2
340
0
102
{BLKREFS
331
18C
102
}
  0
ENDTAB
  0
ENDSEC
  0
SECTION
  2
BLOCKS
  0
BLOCK
  5
20
330
1F
100
AcDbEntity
  8
0
100
AcDbBlockBegin
  2
*Model_Space
 70
     0
 10
0.0
 20
0.0
 30
0.0
  3
*Model_Space
  1

  0
ENDBLK
  5
21
330
1F
100
AcDbEntity
  8
0
100
AcDbBlockEnd
  0
BLOCK
  5
1C
330
1B
100
AcDbEntity
 67
     1
  8
0
100
AcDbBlockBegin
  2
*Paper_Space
 70
     0
 10
0.0
 20
0.0
 30
0.0
  3
*Paper_Space
  1

  0
ENDBLK
  5
1D
330
1B
100
AcDbEntity
 67
     1
  8
0
100
AcDbBlockEnd
  0
BLOCK
  5
63
330
5E
100
AcDbEntity
  8
0
100
AcDbBlockBegin
  2
SEANNOT_GROUP
 70
     0
 10
0.0
 20
0.0
 30
0.0
  3
SEANNOT_GROUP
  1

  0
LINE
  5
61
330
5E
100
AcDbEntity
  8
Default
  6
CENTER2
 62
     7
100
AcDbLine
 10
82.4369190752
 20
364.7350590566
 30
0.0
 11
42.4369199693
 21
364.7350590566
 31
0.0
  0
LINE
  5
62
330
5E
100
AcDbEntity
  8
Default
  6
CENTER2
 62
     7
100
AcDbLine
 10
62.4369195223
 20
384.7350586095
 30
0.0
 11
62.4369195223
 21
344.7350595036
 31
0.0
  0
ENDBLK
  5
64
330
5E
100
AcDbEntity
  8
0
100
AcDbBlockEnd
  0
BLOCK
  5
69
330
65
100
AcDbEntity
  8
0
100
AcDbBlockBegin
  2
SEANNOT_GROUP1
 70
     0
 10
0.0
 20
0.0
 30
0.0
  3
SEANNOT_GROUP1
  1

  0
LINE
  5
67
330
65
100
AcDbEntity
  8
Default
  6
CENTER2
 62
     7
100
AcDbLine
 10
208.733715593
 20
364.7350574953
 30
0.0
 11
168.7337164871
 21
364.7350574953
 31
0.0
  0
LINE
  5
68
330
65
100
AcDbEntity
  8
Default
  6
CENTER2
 62
     7
100
AcDbLine
 10
188.73371604
 20
384.7350570482
 30
0.0
 11
188.73371604
 21
344.7350579423
 31
0.0
  0
ENDBLK
  5
6A
330
65
100
AcDbEntity
  8
0
100
AcDbBlockEnd
  0
BLOCK
  5
6E
330
6B
100
AcDbEntity
  8
0
100
AcDbBlockBegin
  2
SEANNOT_GROUP2
 70
     0
 10
0.0
 20
0.0
 30
0.0
  3
SEANNOT_GROUP2
  1

  0
LINE
  5
6D
330
6B
100
AcDbEntity
  8
Default
  6
CENTER2
 62
     7
100
AcDbLine
 10
45.8675809227
 20
250.9417841751
 30
0.0
 11
79.7408146123
 21
250.9417841751
 31
0.0
  0
ENDBLK
  5
6F
330
6B
100
AcDbEntity
  8
0
100
AcDbBlockEnd
  0
BLOCK
  5
73
330
70
100
AcDbEntity
  8
0
100
AcDbBlockBegin
  2
SEANNOT_GROUP3
 70
     0
 10
0.0
 20
0.0
 30
0.0
  3
SEANNOT_GROUP3
  1

  0
LINE
  5
72
330
70
100
AcDbEntity
  8
Default
  6
CENTER2
 62
     7
100
AcDbLine
 10
62.4369197126
 20
260.1793957824
 30
0.0
 11
62.4369197126
 21
238.4493968116
 31
0.0
  0
ENDBLK
  5
74
330
70
100
AcDbEntity
  8
0
100
AcDbBlockEnd
  0
BLOCK
  5
13D
330
75
100
AcDbEntity
  8
0
100
AcDbBlockBegin
  2
SE
 70
     0
 10
0.0
 20
0.0
 30
0.0
  3
SE
  1

  0
ARC
  5
78
330
75
100
AcDbEntity
  8
DV1_Standard
  6
Continuous
 62
     7
100
AcDbCircle
 10
62.4369197126
 20
477.5206523065
 30
0.0
 40
20.5
100
AcDbArc
 50
24.189514154
 51
30.5365739982
  0
ARC
  5
79
330
75
100
AcDbEntity
  8
DV1_Standard
  6
Continuous
 62
     7
100
AcDbCircle
 10
62.4369197126
 20
477.5206523065
 30
0.0
 40
20.5
100
AcDbArc
 50
149.4634260018
 51
155.810485846
  0
LINE
  5
7A
330
75
100
AcDbEntity
  8
DV1_Standard
  6
Continuous
 62
     7
100
AcDbLine
 10
88.894273985
 20
364.7350606179
 30
0.0
 11
85.7323581505
 21
470.0271604168
 31
0.0
  0
LINE
  5
7B
330
75
100
AcDbEntity
  8
DV1_Standard
  6
Continuous
 62
     7
100
AcDbLine
 10
40.7259373616
 20
485.9206523065
 30
0.0
 11
84.1479020636
 21
485.9206523065
 31
0.0
  0
LINE
  5
7C
330
75
100
AcDbEntity
  8
DV1_Standard
  6
Continuous
 62
     7
100
AcDbLine
 10
39.1414812747
 20
470.0271604168
 30
0.0
 11
35.9795650595
 21
364.7350574953
 31
0.0
  0
LINE
  5
7D
330
75
100
AcDbEntity
  8
DV1_Standard
  6
Continuous
 62
     7
100
AcDbLine
 10
35.9795650595
 20
364.7350574953
 30
0.0
 11
47.9803132063
 21
463.1619074944
 31
0.0
  0
LINE
  5
7E
330
75
100
AcDbEntity
  8
DV1_Standard
  6
Continuous
 62
     7
100
AcDbLine
 10
76.8935261875
 20
463.1619077122
 30
0.0
 11
88.894273985
 21
364.7350606179
 31
0.0
  0
LINE
  5
7F
330
75
100
AcDbEntity
  8
DV1_Standard
  6
Continuous
 62
     7
100
AcDbLine
 10
47.9803132063
 20
463.1619074944
 30
0.0
 11
76.8935261875
 21
463.1619077122
 31
0.0
  0
LINE
  5
80
330
75
100
AcDbEntity
  8
DV1_Standard
  6
Continuous
 62
     7
100
AcDbLine
 10
85.4765836484
 20
477.9206558672
 30
0.0
 11
84.1479020636
 21
485.9206523065
 31
0.0
  0
LINE
  5
81
330
75
100
AcDbEntity
  8
DV1_Standard
  6
Continuous
 62
     7
100
AcDbLine
 10
85.7323581505
 20
470.0271604168
 30
0.0
 11
85.4765836484
 21
477.9206558672
 31
0.0
  0
LINE
  5
82
330
75
100
AcDbEntity
  8
DV1_Standard
  6
Continuous
 62
     7
100
AcDbLine
 10
76.8935261875
 20
463.1619077122
 30
0.0
 11
85.7323581505
 21
470.0271604168
 31
0.0
  0
LINE
  5
83
330
75
100
AcDbEntity
  8
DV1_Standard
  6
Continuous
 62
     7
100
AcDbLine
 10
39.3972557769
 20
477.9206558672
 30
0.0
 11
85.4765836484
 21
477.9206558672
 31
0.0
  0
LINE
  5
84
330
75
100
AcDbEntity
  8
DV1_Standard
  6
Continuous
 62
     7
100
AcDbLine
 10
40.7259373616
 20
485.9206523065
 30
0.0
 11
39.3972557769
 21
477.9206558672
 31
0.0
  0
LINE
  5
85
330
75
100
AcDbEntity
  8
DV1_Standard
  6
Continuous
 62
     7
100
AcDbLine
 10
39.3972557769
 20
477.9206558672
 30
0.0
 11
39.1414812747
 21
470.0271604168
 31
0.0
  0
LINE
  5
86
330
75
100
AcDbEntity
  8
DV1_Standard
  6
Continuous
 62
     7
100
AcDbLine
 10
47.9803132063
 20
463.1619074944
 30
0.0
 11
39.1414812747
 21
470.0271604168
 31
0.0
  0
LINE
  5
87
330
75
100
AcDbEntity
  8
DV1_Standard
  6
Continuous
 62
     7
100
AcDbLine
 10
85.4765836484
 20
477.9206558672
 30
0.0
 11
76.8935261875
 21
463.1619077122
 31
0.0
  0
LINE
  5
88
330
75
100
AcDbEntity
  8
DV1_Standard
  6
Continuous
 62
     7
100
AcDbLine
 10
47.9803132063
 20
463.1619074944
 30
0.0
 11
39.3972557769
 21
477.9206558672
 31
0.0
  0
LINE
  5
89
330
75
100
AcDbEntity
  8
DV1_Standard
  6
Continuous
 62
     7
100
AcDbLine
 10
35.9795650595
 20
364.7350574953
 30
0.0
 11
88.894273985
 21
364.7350606179
 31
0.0
  0
LINE
  5
8A
330
75
100
AcDbEntity
  8
DV1_Standard
  6
Continuous
 62
     7
100
AcDbLine
 10
75.1382866762
 20
466.9469071294
 30
0.0
 11
49.7355527491
 21
466.9469071294
 31
0.0
  0
LINE
  5
8B
330
75
100
AcDbEntity
  8
DV1_Standard
  6
Continuous
 62
     7
100
AcDbLine
 10
78.1382866762
 20
467.3224555685
 30
0.0
 11
78.1382866762
 21
476.6215487141
 31
0.0
  0
ELLIPSE
  5
8C
330
75
100
AcDbEntity
  8
DV1_Standard
  6
Continuous
 62
     7
100
AcDbEllipse
 10
75.1382866762
 20
467.3224555685
 30
0.0
 11
2.999999999999997
 21
0.0
 31
0.0
210
0.0
220
0.0
230
1.0
 40
0.125182813
 41
4.712388980384684
 42
6.283185307179586
  0
LINE
  5
8D
330
75
100
AcDbEntity
  8
DV1_Standard
  6
Continuous
 62
     7
100
AcDbLine
 10
46.7355527491
 20
467.3224555685
 30
0.0
 11
46.7355527491
 21
476.6215487141
 31
0.0
  0
ELLIPSE
  5
8E
330
75
100
AcDbEntity
  8
DV1_Standard
  6
Continuous
 62
     7
100
AcDbEllipse
 10
49.7355527491
 20
467.3224555685
 30
0.0
 11
3.000000000000004
 21
-1.387778780781446E-14
 31
0.0
210
0.0
220
0.0
230
1.0
 40
0.125182813
 41
3.14159265358983
 42
4.71238898038469
  0
LINE
  5
8F
330
75
100
AcDbEntity
  8
DV1_Standard
  6
Continuous
 62
     7
100
AcDbLine
 10
77.1382866762
 20
476.7467315271
 30
0.0
 11
47.7355527491
 21
476.7467315271
 31
0.0
  0
ELLIPSE
  5
90
330
75
100
AcDbEntity
  8
DV1_Standard
  6
Continuous
 62
     7
100
AcDbEllipse
 10
77.1382866762
 20
476.6215487141
 30
0.0
 11
-1.000000000000001
 21
0.0
 31
0.0
210
0.0
220
0.0
230
1.0
 40
0.125182813
 41
3.141592653589793
 42
4.71238898038469
  0
ELLIPSE
  5
91
330
75
100
AcDbEntity
  8
DV1_Standard
  6
Continuous
 62
     7
100
AcDbEllipse
 10
47.7355527491
 20
476.6215487141
 30
0.0
 11
-1.000000000000001
 21
0.0
 31
0.0
210
0.0
220
0.0
230
1.0
 40
0.125182813
 41
4.71238898038469
 42
6.283185307179586
  0
ELLIPSE
  5
92
330
75
100
AcDbEntity
  8
DV1_Standard
  6
Continuous
 62
     7
100
AcDbEllipse
 10
75.1382866762
 20
478.2497528346
 30
0.0
 11
-2.664221501931347
 21
5.146880711340229
 31
0.0
210
0.0
220
0.0
230
1.0
 40
0.2679491924
 41
3.393134213742707
 42
3.619250962652042
  0
ELLIPSE
  5
93
330
75
100
AcDbEntity
  8
DV1_Standard
  6
Continuous
 62
     7
100
AcDbEllipse
 10
49.7355527491
 20
478.2497528346
 30
0.0
 11
2.664221501931323
 21
5.146880711340174
 31
0.0
210
0.0
220
0.0
230
1.0
 40
0.2679491924
 41
-3.619250962652043
 42
-3.39313421374303
  0
ELLIPSE
  5
94
330
75
100
AcDbEntity
  8
DV1_Standard
  6
Continuous
 62
     7
100
AcDbEllipse
 10
53.0470857344
 20
472.4370822946
 30
0.0
 11
-4.36016600705539
 21
-0.002548888923883941
 31
0.0
210
0.0
220
0.0
230
1.0
 40
0.1404976814
 41
0.0004704386281473
 42
0.3401934279126524
  0
LINE
  5
95
330
75
100
AcDbEntity
  8
DV1_Standard
  6
Continuous
 62
     7
100
AcDbLine
 10
71.8496865612
 20
475.5835865319
 30
0.0
 11
53.024152864
 21
475.5835865319
 31
0.0
  0
ELLIPSE
  5
96
330
75
100
AcDbEntity
  8
DV1_Standard
  6
Continuous
 62
     7
100
AcDbEllipse
 10
71.8251044238
 20
472.2470201579
 30
0.0
 11
4.360097026770845
 21
0.04538357305368391
 31
0.0
210
0.0
220
0.0
230
0.9999999999999998
 40
0.765179694
 41
0.1106276598115997
 42
1.557194028056055
  0
ELLIPSE
  5
97
330
75
100
AcDbEntity
  8
DV1_Standard
  6
Continuous
 62
     7
100
AcDbEllipse
 10
71.8267536909
 20
472.4370822946
 30
0.0
 11
4.36016600705539
 21
-0.002548888923897818
 31
0.0
210
0.0
220
0.0
230
1.0
 40
0.1404976814
 41
5.942991879266949
 42
6.282708255916379
  0
LINE
  5
98
330
75
100
AcDbEntity
  8
DV1_Standard
  6
Continuous
 62
     7
100
AcDbLine
 10
46.8119197126
 20
476.6695285305
 30
0.0
 11
46.8119197126
 21
472.66045631
 31
0.0
  0
LINE
  5
99
330
75
100
AcDbEntity
  8
DV1_Standard
  6
Continuous
 62
     7
100
AcDbLine
 10
48.6869203783
 20
472.4342452185
 30
0.0
 11
48.6869197152
 21
472.4345626405
 31
0.0
  0
LINE
  5
9A
330
75
100
AcDbEntity
  8
DV1_Standard
  6
Continuous
 62
     7
100
AcDbLine
 10
46.8119197126
 20
472.4342452185
 30
0.0
 11
46.8119197126
 21
472.66045631
 31
0.0
  0
ELLIPSE
  5
9B
330
75
100
AcDbEntity
  8
DV1_Standard
  6
Continuous
 62
     7
100
AcDbEllipse
 10
53.0487350015
 20
472.2470201579
 30
0.0
 11
-4.360097026770836
 21
0.04538357305369779
 31
0.0
210
0.0
220
0.0
230
0.9999999999999999
 40
0.765179694
 41
4.725991279123532
 42
6.172557647368004
  0
ARC
  5
9C
330
75
100
AcDbEntity
  8
DV1_Standard
  6
Continuous
 62
     7
100
AcDbCircle
 10
51.4070328629
 20
472.1620014905
 30
0.0
 40
2.733734646352724
100
AcDbArc
 50
169.4942180632
 51
174.2779401714
  0
ARC
  5
9D
330
75
100
AcDbEntity
  8
DV1_Standard
  6
Continuous
 62
     7
100
AcDbCircle
 10
73.506042368
 20
472.1679728214
 30
0.0
 40
2.694068093915007
100
AcDbArc
 50
5.6722561173
 51
10.5330641676
  0
LINE
  5
9E
330
75
100
AcDbEntity
  8
DV1_Standard
  6
Continuous
 62
     7
100
AcDbLine
 10
78.0619197126
 20
472.66045631
 30
0.0
 11
78.0619197126
 21
476.6695285305
 31
0.0
  0
LINE
  5
9F
330
75
100
AcDbEntity
  8
DV1_Standard
  6
Continuous
 62
     7
100
AcDbLine
 10
78.0619197126
 20
472.66045631
 30
0.0
 11
78.0619197126
 21
472.4342452185
 31
0.0
  0
LINE
  5
A0
330
75
100
AcDbEntity
  8
DV1_Standard
  6
Continuous
 62
     7
100
AcDbLine
 10
75.0119197126
 20
466.9515190574
 30
0.0
 11
49.8619197126
 21
466.9515190574
 31
0.0
  0
LINE
  5
A1
330
75
100
AcDbEntity
  8
DV1_Standard
  6
Continuous
 62
     7
100
AcDbLine
 10
78.0619197126
 20
467.3333266428
 30
0.0
 11
78.0619197126
 21
472.4342452185
 31
0.0
  0
ELLIPSE
  5
A2
330
75
100
AcDbEntity
  8
DV1_Standard
  6
Continuous
 62
     7
100
AcDbEllipse
 10
75.0119197126
 20
467.3333266428
 30
0.0
 11
-3.050000000000006
 21
1.387778780781446E-14
 31
0.0
210
0.0
220
0.0
230
1.0
 40
0.1251828149
 41
1.570796326794897
 42
3.14159265358983
  0
LINE
  5
A3
330
75
100
AcDbEntity
  8
DV1_Standard
  6
Continuous
 62
     7
100
AcDbLine
 10
46.8119197126
 20
467.3333266428
 30
0.0
 11
46.8119197126
 21
472.4342452185
 31
0.0
  0
ELLIPSE
  5
A4
330
75
100
AcDbEntity
  8
DV1_Standard
  6
Continuous
 62
     7
100
AcDbEllipse
 10
49.8619197126
 20
467.3333266428
 30
0.0
 11
-3.050000000000002
 21
0.0
 31
0.0
210
0.0
220
0.0
230
1.0
 40
0.1251828149
 41
0.0
 42
1.570796326794894
  0
ELLIPSE
  5
A5
330
75
100
AcDbEntity
  8
DV1_Standard
  6
Continuous
 62
     7
100
AcDbEllipse
 10
46.6119197126
 20
474.6601561708
 30
0.0
 11
-0.2000000000000127
 21
2.650657471292561E-12
 31
0.0
210
0.0
220
0.0
230
1.0
 40
0.9944235214
 41
3.141592653589793
 42
3.926990817000386
  0
ELLIPSE
  5
A6
330
75
100
AcDbEntity
  8
DV1_Standard
  6
Continuous
 62
     7
100
AcDbEllipse
 10
46.6119197126
 20
475.2282441405
 30
0.0
 11
0.1999999999999988
 21
-1.929012505286209E-12
 31
0.0
210
0.0
220
0.0
230
1.0
 40
0.9900875478
 41
0.0
 42
0.7853981634069938
  0
ELLIPSE
  5
A7
330
75
100
AcDbEntity
  8
DV1_Standard
  6
Continuous
 62
     7
100
AcDbEllipse
 10
46.8947624251
 20
474.9411150173
 30
0.0
 11
0.1409480292558236
 21
0.1418931043035698
 31
0.0
210
0.0
220
0.0
230
1.0
 40
0.0817075024
 41
3.053351422300979
 42
3.141592653589793
  0
ELLIPSE
  5
A8
330
75
100
AcDbEntity
  8
DV1_Standard
  6
Continuous
 62
     7
100
AcDbEllipse
 10
78.2619197126
 20
474.6601561708
 30
0.0
 11
-0.1999999999999988
 21
-1.929012505286209E-12
 31
0.0
210
0.0
220
0.0
230
1.0
 40
0.9944235214
 41
5.4977871437725
 42
6.283185307179586
  0
ELLIPSE
  5
A9
330
75
100
AcDbEntity
  8
DV1_Standard
  6
Continuous
 62
     7
100
AcDbEllipse
 10
78.2619197126
 20
475.2282441405
 30
0.0
 11
0.2000000000000092
 21
-5.412337245047638E-13
 31
0.0
210
0.0
220
0.0
230
1.0
 40
0.9900875478
 41
2.356194490195027
 42
3.141592653589943
  0
ELLIPSE
  5
AA
330
75
100
AcDbEntity
  8
DV1_Standard
  6
Continuous
 62
     7
100
AcDbEllipse
 10
77.9790770002
 20
474.9411150173
 30
0.0
 11
-0.1409480292558184
 21
0.141893104303556
 31
0.0
210
0.0
220
0.0
230
1.0
 40
0.0817075024
 41
3.141592653589758
 42
3.229833884878694
  0
LINE
  5
AB
330
75
100
AcDbEntity
  8
DV1_Standard
  6
Continuous
 62
     7
100
AcDbLine
 10
46.7355527491
 20
474.8173619285
 30
0.0
 11
46.7538143959
 21
474.799221913
 31
0.0
  0
LINE
  5
AC
330
75
100
AcDbEntity
  8
DV1_Standard
  6
Continuous
 62
     7
100
AcDbLine
 10
78.1200250294
 20
474.799221913
 30
0.0
 11
78.1382866762
 21
474.8173619285
 31
0.0
  0
LINE
  5
AD
330
75
100
AcDbEntity
  8
DV1_Standard
  6
Continuous
 62
     7
100
AcDbLine
 10
53.2089912806
 20
514.2892868645
 30
0.0
 11
71.6648481447
 21
514.2892868645
 31
0.0
  0
LINE
  5
AE
330
75
100
AcDbEntity
  8
DV1_Standard
  6
Continuous
 62
     7
100
AcDbLine
 10
72.2219097326
 20
511.2832538221
 30
0.0
 11
52.6519296927
 21
511.2832538221
 31
0.0
  0
ARC
  5
AF
330
75
100
AcDbEntity
  8
DV1_Standard
  6
Continuous
 62
     7
100
AcDbCircle
 10
71.5453209745
 20
514.330894045
 30
0.0
 40
0.1265618500019378
100
AcDbArc
 50
318.4234779439
 51
340.8070901575
  0
SPLINE
  5
B0
330
75
100
AcDbEntity
  8
DV1_Standard
  6
Continuous
 62
     7
100
AcDbSpline
210
0.0
220
0.0
230
1.0
 70
     8
 71
     3
 72
    14
 73
    10
 74
     0
 42
0.0000000030823072
 43
0.0000000001
 40
0.0
 40
0.0
 40
0.0
 40
0.0
 40
0.25
 40
0.25
 40
0.5
 40
0.5
 40
0.75
 40
0.75
 40
1.0
 40
1.0
 40
1.0
 40
1.0
 10
72.2219097325766
 20
511.283253822112
 30
0.0
 10
72.08453799681831
 20
511.6106309287654
 30
0.0
 10
71.90530900024397
 20
511.9174351153759
 30
0.0
 10
71.609273784372
 20
512.5352814553333
 30
0.0
 10
71.48868966416927
 20
512.8324593208682
 30
0.0
 10
71.35338487333775
 20
513.3943413992151
 30
0.0
 10
71.34095850068157
 20
513.6506599218598
 30
0.0
 10
71.434950655821
 20
514.045361912478
 30
0.0
 10
71.57756979185152
 20
514.1763432126023
 30
0.0
 10
71.63999810816496
 20
514.246905103795
 30
0.0
  0
LINE
  5
B1
330
75
100
AcDbEntity
  8
DV1_Standard
  6
Continuous
 62
     7
100
AcDbLine
 10
72.9491434585
 20
511.4046018952
 30
0.0
 11
77.0029463481
 21
514.0922229305
 31
0.0
  0
LINE
  5
B2
330
75
100
AcDbEntity
  8
DV1_Standard
  6
Continuous
 62
     7
100
AcDbLine
 10
71.9528935658
 20
514.3016239052
 30
0.0
 11
76.4883131738
 21
514.751366982
 31
0.0
  0
ARC
  5
B3
330
75
100
AcDbEntity
  8
DV1_Standard
  6
Continuous
 62
     7
100
AcDbCircle
 10
96.943449599
 20
521.6483502806
 30
0.0
 40
26.08948271143381
100
AcDbArc
 50
202.7611527267
 51
203.1188056254
  0
ARC
  5
B4
330
75
100
AcDbEntity
  8
DV1_Standard
  6
Continuous
 62
     7
100
AcDbCircle
 10
84.2661427817
 20
516.9507664865
 30
0.0
 40
12.5950014954122
100
AcDbArc
 50
192.14185891
 51
205.3685277788
  0
LINE
  5
B5
330
75
100
AcDbEntity
  8
DV1_Standard
  6
Continuous
 62
     7
100
AcDbLine
 10
71.9777660386
 20
514.349126708
 30
0.0
 11
71.9528935658
 21
514.3016239052
 31
0.0
  0
LINE
  5
B6
330
75
100
AcDbEntity
  8
DV1_Standard
  6
Continuous
 62
     7
100
AcDbLine
 10
71.6648481447
 20
514.2892868645
 30
0.0
 11
77.1731270841
 21
528.6778042447
 31
0.0
  0
LINE
  5
B7
330
75
100
AcDbEntity
  8
DV1_Standard
  6
Continuous
 62
     7
100
AcDbLine
 10
72.2872770886
 20
511.1292271151
 30
0.0
 11
72.2219097326
 21
511.2832538221
 31
0.0
  0
LINE
  5
B8
330
75
100
AcDbEntity
  8
DV1_Standard
  6
Continuous
 62
     7
100
AcDbLine
 10
72.9491434585
 20
511.4046018952
 30
0.0
 11
82.8521142396
 21
488.2084663997
 31
0.0
  0
ARC
  5
B9
330
75
100
AcDbEntity
  8
DV1_Standard
  6
Continuous
 62
     7
100
AcDbCircle
 10
83.9824960563
 20
483.9527262753
 30
0.0
 40
29.5861512299152
100
AcDbArc
 50
111.895991925
 51
113.2842921694
  0
ELLIPSE
  5
BA
330
75
100
AcDbEntity
  8
DV1_Standard
  6
Continuous
 62
     7
100
AcDbEllipse
 10
71.6648481447
 20
515.0782521432
 30
0.0
 11
0.7471238442963417
 21
-0.2860174143024252
 31
0.0
210
0.0
220
0.0
230
0.9999999999999997
 40
0.984232685
 41
5.072726745556031
 42
5.475457226659114
  0
ELLIPSE
  5
BB
330
75
100
AcDbEntity
  8
DV1_Standard
  6
Continuous
 62
     7
100
AcDbEllipse
 10
72.2219097326
 20
511.2706102895
 30
0.0
 11
0.7376880593735931
 21
0.309542124851625
 31
0.0
210
0.0
220
0.0
230
0.9999999999999998
 40
0.0145736835
 41
0.4454517799700423
 42
1.564681123114268
  0
ARC
  5
BC
330
75
100
AcDbEntity
  8
DV1_Standard
  6
Continuous
 62
     7
100
AcDbCircle
 10
71.6634607944
 20
515.0347054257
 30
0.0
 40
0.788149633484912
100
AcDbArc
 50
268.294091023
 51
291.5449307552
  0
LINE
  5
BD
330
75
100
AcDbEntity
  8
DV1_Standard
  6
Continuous
 62
     7
100
AcDbLine
 10
76.7477114459
 20
529.192261361
 30
0.0
 11
76.0403880078
 21
530.3646774919
 31
0.0
  0
SPLINE
  5
BE
330
75
100
AcDbEntity
  8
DV1_Standard
  6
Continuous
 62
     7
100
AcDbSpline
210
0.0
220
0.0
230
1.0
 70
    12
 71
     3
 72
    10
 73
     6
 74
     0
 42
0.0000014391260855
 43
0.0000000001
 40
0.0
 40
0.0
 40
0.0
 40
0.0
 40
0.3785207352295276
 40
0.3785207352295276
 40
1.0
 40
1.0
 40
1.0
 40
1.0
 10
77.6949156549041
 20
529.4165205091357
 30
0.0
 41
1.0
 10
77.69451573468305
 20
529.4172052418606
 30
0.0
 41
1.0
 10
77.69401323526489
 20
529.4177769663241
 30
0.0
 41
1.0
 10
77.69237428306783
 20
529.4190512711349
 30
0.0
 41
1.0
 10
77.69099249217682
 20
529.41956335284
 30
0.0
 41
1.0
 10
77.689158777551
 20
529.4197656967317
 30
0.0
 41
1.0
  0
SPLINE
  5
BF
330
75
100
AcDbEntity
  8
DV1_Standard
  6
Continuous
 62
     7
100
AcDbSpline
210
0.0
220
0.0
230
1.0
 70
    12
 71
     3
 72
    12
 73
     8
 74
     0
 42
0.0000000434385365
 43
0.0000000001
 40
0.0
 40
0.0
 40
0.0
 40
0.0
 40
0.2641939615848511
 40
0.2641939615848511
 40
0.6320969807924249
 40
0.6320969807924249
 40
1.0
 40
1.0
 40
1.0
 40
1.0
 10
77.689158777551
 20
529.4197656967317
 30
0.0
 41
1.0
 10
77.68448747552097
 20
529.4202811583083
 30
0.0
 41
1.0
 10
77.6768834065697
 20
529.4187865709686
 30
0.0
 41
1.0
 10
77.6481648574867
 20
529.4092202870532
 30
0.0
 41
1.0
 10
77.62369241355707
 20
529.3987652382206
 30
0.0
 41
1.0
 10
77.55945315320201
 20
529.3720681215846
 30
0.0
 41
1.0
 10
77.51828010893416
 20
529.3593742470445
 30
0.0
 41
1.0
 10
77.47131163676632
 20
529.3484258210859
 30
0.0
 41
1.0
  0
LINE
  5
C0
330
75
100
AcDbEntity
  8
DV1_Standard
  6
Continuous
 62
     7
100
AcDbLine
 10
76.7478491663
 20
529.1920330842
 30
0.0
 11
62.4369197126
 21
529.1920330842
 31
0.0
  0
ARC
  5
C1
330
75
100
AcDbEntity
  8
DV1_Standard
  6
Continuous
 62
     7
100
AcDbCircle
 10
76.7958107585
 20
525.3619400535
 30
0.0
 40
3.337262792167477
100
AcDbArc
 50
83.508165354
 51
90.8281860958
  0
LINE
  5
C2
330
75
100
AcDbEntity
  8
DV1_Standard
  6
Continuous
 62
     7
100
AcDbLine
 10
76.7478491663
 20
528.6989297851
 30
0.0
 11
62.4369197126
 21
528.6989298284
 31
0.0
  0
LINE
  5
C3
330
75
100
AcDbEntity
  8
DV1_Standard
  6
Continuous
 62
     7
100
AcDbLine
 10
62.4369197126
 20
528.6989350239
 30
0.0
 11
62.4369197126
 21
529.1920330842
 31
0.0
  0
SPLINE
  5
C4
330
75
100
AcDbEntity
  8
DV1_Standard
  6
Continuous
 62
     7
100
AcDbSpline
210
0.0
220
0.0
230
1.0
 70
    12
 71
     3
 72
    20
 73
    16
 74
     0
 42
0.0000000134878815
 43
0.0000000001
 40
0.0
 40
0.0
 40
0.0
 40
0.0
 40
0.2499999999999994
 40
0.2499999999999994
 40
0.3750000000000019
 40
0.3750000000000019
 40
0.5000000000000012
 40
0.5000000000000012
 40
0.625000000000001
 40
0.625000000000001
 40
0.7500000000000007
 40
0.7500000000000007
 40
0.8750000000000003
 40
0.8750000000000003
 40
1.0
 40
1.0
 40
1.0
 40
1.0
 10
77.47131163676632
 20
529.3484258210859
 30
0.0
 41
1.0
 10
77.44436501019092
 20
529.342144519392
 30
0.0
 41
1.0
 10
77.41309365711668
 20
529.3354836038305
 30
0.0
 41
1.0
 10
77.36005552515239
 20
529.3246285635963
 30
0.0
 41
1.0
 10
77.3413607161983
 20
529.3208679374503
 30
0.0
 41
1.0
 10
77.30212902418462
 20
529.3130494613209
 30
0.0
 41
1.0
 10
77.27986296307262
 20
529.3087815388589
 30
0.0
 41
1.0
 10
77.21163908964701
 20
529.2951737390435
 30
0.0
 41
1.0
 10
77.16780807726066
 20
529.2861488571405
 30
0.0
 41
1.0
 10
77.06748783321041
 20
529.2634475577412
 30
0.0
 41
1.0
 10
77.01966930199315
 20
529.2514118938433
 30
0.0
 41
1.0
 10
76.93090077651
 20
529.2271441827954
 30
0.0
 41
1.0
 10
76.88970991852699
 20
529.2144589711679
 30
0.0
 41
1.0
 10
76.82134575679537
 20
529.1984123606561
 30
0.0
 41
1.0
 10
76.79572995285945
 20
529.193947768236
 30
0.0
 41
1.0
 10
76.74771144594872
 20
529.1922613610495
 30
0.0
 41
1.0
  0
LINE
  5
C5
330
75
100
AcDbEntity
  8
DV1_Standard
  6
Continuous
 62
     7
100
AcDbLine
 10
77.4639677364
 20
528.6799747549
 30
0.0
 11
71.9777660386
 21
514.349126708
 31
0.0
  0
SPLINE
  5
C6
330
75
100
AcDbEntity
  8
DV1_Standard
  6
Continuous
 62
     7
100
AcDbSpline
210
0.0
220
0.0
230
1.0
 70
     8
 71
     3
 72
    15
 73
    11
 74
     0
 42
0.0000000336304536
 43
0.0000000001
 40
0.0
 40
0.0
 40
0.0
 40
0.0
 40
0.1838759425737087
 40
0.3226117229370282
 40
0.414209090417307
 40
0.5015255478393424
 40
0.6259034670822519
 40
0.7656708597034293
 40
0.8688640030943184
 40
1.0
 40
1.0
 40
1.0
 40
1.0
 10
77.46529881728041
 20
528.6834517539602
 30
0.0
 10
77.45985481656548
 20
528.6861661973348
 30
0.0
 10
77.45559374268306
 20
528.6918721436732
 30
0.0
 10
77.44116036333703
 20
528.6958514328308
 30
0.0
 10
77.41940725235743
 20
528.6950916339681
 30
0.0
 10
77.38827308246857
 20
528.6910183838639
 30
0.0
 10
77.3424697201941
 20
528.6843720038413
 30
0.0
 10
77.28868771624153
 20
528.6789428944215
 30
0.0
 10
77.23083802978456
 20
528.6759381329334
 30
0.0
 10
77.19383489445849
 20
528.677134647518
 30
0.0
 10
77.1731270840701
 20
528.67780424472
 30
0.0
  0
SPLINE
  5
C7
330
75
100
AcDbEntity
  8
DV1_Standard
  6
Continuous
 62
     7
100
AcDbSpline
210
0.0
220
0.0
230
1.0
 70
     8
 71
     2
 72
     6
 73
     3
 74
     0
 42
0.0000000007160042
 43
0.0000000001
 40
0.0
 40
0.0
 40
0.0
 40
1.0
 40
1.0
 40
1.0
 10
76.48831317382907
 20
514.7513669819784
 30
0.0
 10
76.48760973104596
 20
514.7652331953822
 30
0.0
 10
77.46529881728041
 20
528.6834517539602
 30
0.0
  0
SPLINE
  5
C8
330
75
100
AcDbEntity
  8
DV1_Standard
  6
Continuous
 62
     7
100
AcDbSpline
210
0.0
220
0.0
230
1.0
 70
     8
 71
     3
 72
    11
 73
     7
 74
     0
 42
0.0000000393021239
 43
0.0000000001
 40
0.0
 40
0.0
 40
0.0
 40
0.0
 40
0.3756073804568423
 40
0.6004622259603717
 40
0.8148300934533934
 40
1.0
 40
1.0
 40
1.0
 40
1.0
 10
77.00294634811898
 20
514.0922229304506
 30
0.0
 10
76.9995701818352
 20
514.1228216431742
 30
0.0
 10
76.9941728969512
 20
514.1717380672417
 30
0.0
 10
76.99860574665772
 20
514.2326552421188
 30
0.0
 10
76.99740791269605
 20
514.2911698570027
 30
0.0
 10
76.99017845570356
 20
514.327936169426
 30
0.0
 10
76.98682788921731
 20
514.3449758965254
 30
0.0
  0
SPLINE
  5
C9
330
75
100
AcDbEntity
  8
DV1_Standard
  6
Continuous
 62
     7
100
AcDbSpline
210
0.0
220
0.0
230
1.0
 70
     8
 71
     3
 72
    13
 73
     9
 74
     0
 42
0.0000000958472002
 43
0.0000000001
 40
0.0
 40
0.0
 40
0.0
 40
0.0
 40
0.0796701130660847
 40
0.1750595021039296
 40
0.3060725602368168
 40
0.4810912577957349
 40
0.7209968030917734
 40
1.0
 40
1.0
 40
1.0
 40
1.0
 10
76.98682788921731
 20
514.3449758965254
 30
0.0
 10
76.9870792544426
 20
514.3491964485115
 30
0.0
 10
76.98770141411293
 20
514.3585331477334
 30
0.0
 10
76.98421995649586
 20
514.3730947134255
 30
0.0
 10
76.97869401416212
 20
514.3872188681355
 30
0.0
 10
76.97029227044162
 20
514.4029489902002
 30
0.0
 10
76.95977796871975
 20
514.4207260171854
 30
0.0
 10
76.9524143781126
 20
514.4330851768952
 30
0.0
 10
76.94845517458987
 20
514.4397303628206
 30
0.0
  0
SPLINE
  5
CA
330
75
100
AcDbEntity
  8
DV1_Standard
  6
Continuous
 62
     7
100
AcDbSpline
210
0.0
220
0.0
230
1.0
 70
     8
 71
     3
 72
    20
 73
    16
 74
     0
 42
0.0000000178710262
 43
0.0000000001
 40
0.0
 40
0.0
 40
0.0
 40
0.0
 40
0.0575478270941584
 40
0.1223658003855582
 40
0.1945333130729409
 40
0.291171477871131
 40
0.4249544533007825
 40
0.5490064843647463
 40
0.6917336516756047
 40
0.7876302457652028
 40
0.8395233684446708
 40
0.8925490746491415
 40
0.9176682467099623
 40
0.9608551492059013
 40
1.0
 40
1.0
 40
1.0
 40
1.0
 10
76.94845517458987
 20
514.4397303628206
 30
0.0
 10
76.9355937038803
 20
514.4493763410206
 30
0.0
 10
76.9081795577886
 20
514.4705853046676
 30
0.0
 10
76.86749110472564
 20
514.4999433945715
 30
0.0
 10
76.82111273274685
 20
514.5324775551516
 30
0.0
 10
76.76452358977795
 20
514.5703177508399
 30
0.0
 10
76.70493790639227
 20
514.612422781134
 30
0.0
 10
76.64418763912339
 20
514.6547818719142
 30
0.0
 10
76.59281238513351
 20
514.6861790791005
 30
0.0
 10
76.55411337289149
 20
514.7066199262102
 30
0.0
 10
76.52880536647497
 20
514.7191361161649
 30
0.0
 10
76.51364570936279
 20
514.72684043223
 30
0.0
 10
76.49979294749986
 20
514.733545631169
 30
0.0
 10
76.49104163902209
 20
514.7407380940881
 30
0.0
 10
76.48919239961948
 20
514.7479419090297
 30
0.0
 10
76.48831317382907
 20
514.7513669819784
 30
0.0
  0
ELLIPSE
  5
CB
330
75
100
AcDbEntity
  8
DV1_Standard
  6
Continuous
 62
     7
100
AcDbEllipse
 10
76.7473540664
 20
529.1926747258
 30
0.0
 11
0.000162437272469701
 21
-0.5008131803699856
 31
0.0
210
0.0
220
0.0
230
0.9999999999999998
 40
0.0007133309
 41
0.167303375267819
 42
1.569970708205732
  0
ELLIPSE
  5
CC
330
75
100
AcDbEntity
  8
DV1_Standard
  6
Continuous
 62
     7
100
AcDbEllipse
 10
77.1731270834
 20
529.1709067937
 30
0.0
 11
0.06367833345956829
 21
0.4959277257717831
 31
0.0
210
0.0
220
0.0
230
1.0
 40
0.6044904162
 41
3.350896110666957
 42
5.154777554604435
  0
ELLIPSE
  5
CD
330
75
100
AcDbEntity
  8
DV1_Standard
  6
Continuous
 62
     7
100
AcDbEllipse
 10
77.2711933233
 20
529.139320156
 30
0.0
 11
-0.4784512447739802
 21
0.1385490493247543
 31
0.0
210
0.0
220
0.0
230
0.9999999999999998
 40
0.9912326005
 41
2.250896944512697
 42
3.331496754234137
  0
ELLIPSE
  5
CE
330
75
100
AcDbEntity
  8
DV1_Standard
  6
Continuous
 62
     7
100
AcDbEllipse
 10
77.2697659388
 20
529.1413004909
 30
0.0
 11
-0.442113310904815
 21
0.2338516469615193
 31
0.0
210
0.0
220
0.0
230
1.0
 40
0.9885241229
 41
2.455297404063081
 42
3.555351314251271
  0
ELLIPSE
  5
CF
330
75
100
AcDbEntity
  8
DV1_Standard
  6
Continuous
 62
     7
100
AcDbEllipse
 10
76.2933731496
 20
515.2055938984
 30
0.0
 11
-0.4971576401705223
 21
0.03488414356797587
 31
0.0
210
0.0
220
0.0
230
0.9999999999999999
 40
0.9896546454
 41
2.042025683539443
 42
3.213624603520148
  0
ARC
  5
D0
330
75
100
AcDbEntity
  8
DV1_Standard
  6
Continuous
 62
     7
100
AcDbCircle
 10
76.6304538006
 20
514.5870510057
 30
0.0
 40
0.3504686086526783
100
AcDbArc
 50
335.1431040026
 51
21.7077259765
  0
SPLINE
  5
D1
330
75
100
AcDbEntity
  8
DV1_Standard
  6
Continuous
 62
     7
100
AcDbSpline
210
0.0
220
0.0
230
1.0
 70
     8
 71
     3
 72
     8
 73
     4
 74
     0
 42
0.0000001125816514
 43
0.0000000001
 40
0.0
 40
0.0
 40
0.0
 40
0.0
 40
1.0
 40
1.0
 40
1.0
 40
1.0
 10
77.03445249953465
 20
514.4156462431665
 30
0.0
 10
77.0312050834467
 20
514.393272525896
 30
0.0
 10
77.01505203120269
 20
514.3690221587298
 30
0.0
 10
76.98682788921731
 20
514.3449758965254
 30
0.0
  0
ELLIPSE
  5
D2
330
75
100
AcDbEntity
  8
DV1_Standard
  6
Continuous
 62
     7
100
AcDbEllipse
 10
76.342269361
 20
513.8046895731
 30
0.0
 11
-0.7786255545320383
 21
-0.1773617174246345
 31
0.0
210
0.0
220
0.0
230
0.9999999999999998
 40
0.3617880093
 41
3.041614799530096
 42
3.622381615307825
  0
ARC
  5
D3
330
75
100
AcDbEntity
  8
DV1_Standard
  6
Continuous
 62
     7
100
AcDbCircle
 10
77.0198598761
 20
530.7326089535
 30
0.0
 40
0.1500792516707667
100
AcDbArc
 50
165.1525147818
 51
166.7226509092
  0
ARC
  5
D4
330
75
100
AcDbEntity
  8
DV1_Standard
  6
Continuous
 62
     7
100
AcDbCircle
 10
73.9245600115
 20
535.2170895025
 30
0.0
 40
5.336579001002375
100
AcDbArc
 50
299.4361225311
 51
303.5952696839
  0
SPLINE
  5
D5
330
75
100
AcDbEntity
  8
DV1_Standard
  6
Continuous
 62
     7
100
AcDbSpline
210
0.0
220
0.0
230
1.0
 70
     8
 71
     3
 72
    12
 73
     8
 74
     0
 42
0.0000000181553783
 43
0.0000000001
 40
0.0
 40
0.0
 40
0.0
 40
0.0
 40
0.4999999999999964
 40
0.4999999999999964
 40
0.7499999999999982
 40
0.7499999999999982
 40
1.0
 40
1.0
 40
1.0
 40
1.0
 10
76.54723733872353
 20
530.5694407344542
 30
0.0
 10
76.47145329315936
 20
530.5357710447355
 30
0.0
 10
76.3899951589409
 20
530.5028573965278
 30
0.0
 10
76.26442364189487
 20
530.4433352401958
 30
0.0
 10
76.22209259964042
 20
530.421136722992
 30
0.0
 10
76.1353170714486
 20
530.3810729700866
 30
0.0
 10
76.08778435166809
 20
530.3646775745132
 30
0.0
 10
76.04038800775925
 20
530.3646774919071
 30
0.0
  0
LINE
  5
D6
330
75
100
AcDbEntity
  8
DV1_Standard
  6
Continuous
 62
     7
100
AcDbLine
 10
76.0403880078
 20
530.3646774919
 30
0.0
 11
48.8334514175
 21
530.3646774919
 31
0.0
  0
LINE
  5
D7
330
75
100
AcDbEntity
  8
DV1_Standard
  6
Continuous
 62
     7
100
AcDbLine
 10
76.0403880078
 20
531.1646774919
 30
0.0
 11
76.0403880078
 21
530.3646774919
 31
0.0
  0
SPLINE
  5
D8
330
75
100
AcDbEntity
  8
DV1_Standard
  6
Continuous
 62
     7
100
AcDbSpline
210
0.0
220
0.0
230
1.0
 70
     8
 71
     3
 72
    23
 73
    19
 74
     0
 42
0.0000000139159548
 43
0.0000000001
 40
0.0
 40
0.0
 40
0.0
 40
0.0
 40
0.0366227722133462
 40
0.0366227722133462
 40
0.1742480904685825
 40
0.1742480904685825
 40
0.4494987269790549
 40
0.4494987269790549
 40
0.7247493634895275
 40
0.7247493634895275
 40
0.8623746817447636
 40
0.8623746817447636
 40
0.9311873408723818
 40
0.9655936704361908
 40
0.9655936704361908
 40
0.9956992088045238
 40
0.9956992088045238
 40
0.9999999999999999
 40
0.9999999999999999
 40
0.9999999999999999
 40
0.9999999999999999
 10
76.23718362989632
 20
531.1605534674617
 30
0.0
 10
76.2428078540249
 20
531.1602679078744
 30
0.0
 10
76.24841212321138
 20
531.1596859400375
 30
0.0
 10
76.27495631697755
 20
531.1555209685449
 30
0.0
 10
76.29556404830494
 20
531.1480878662312
 30
0.0
 10
76.35546121646937
 20
531.1138354824881
 30
0.0
 10
76.39282462748862
 20
531.0750631242565
 30
0.0
 10
76.45786338897123
 20
530.9681899214108
 30
0.0
 10
76.48504430751787
 20
530.901158251287
 30
0.0
 10
76.51609022811738
 20
530.7861383889067
 30
0.0
 10
76.52481795878049
 20
530.7453863752473
 30
0.0
 10
76.535263469979
 20
530.681380296192
 30
0.0
 10
76.53982470437924
 20
530.6486577420225
 30
0.0
 10
76.54335339688882
 20
530.6149946716529
 30
0.0
 10
76.54533952305387
 20
530.5937737655221
 30
0.0
 10
76.54617683171405
 20
530.5837965687416
 30
0.0
 10
76.54702970034033
 20
530.5723152660697
 30
0.0
 10
76.54713445078366
 20
530.5708786962346
 30
0.0
 10
76.54723733872353
 20
530.5694407344542
 30
0.0
  0
LINE
  5
D9
330
75
100
AcDbEntity
  8
DV1_Standard
  6
Continuous
 62
     7
100
AcDbLine
 10
82.7691533779
 20
487.9364618215
 30
0.0
 11
82.7170282847
 21
487.9364618215
 31
0.0
  0
LINE
  5
DA
330
75
100
AcDbEntity
  8
DV1_Standard
  6
Continuous
 62
     7
100
AcDbLine
 10
82.6992025351
 20
487.9364618215
 30
0.0
 11
82.6866458818
 21
487.9364618215
 31
0.0
  0
LINE
  5
DB
330
75
100
AcDbEntity
  8
DV1_Standard
  6
Continuous
 62
     7
100
AcDbLine
 10
82.6866458818
 20
487.9364618215
 30
0.0
 11
82.1020749367
 21
487.9364618215
 31
0.0
  0
LINE
  5
DC
330
75
100
AcDbEntity
  8
DV1_Standard
  6
Continuous
 62
     7
100
AcDbLine
 10
82.1020749367
 20
487.9364618215
 30
0.0
 11
42.7717644886
 21
487.9364618215
 31
0.0
  0
ARC
  5
DD
330
75
100
AcDbEntity
  8
DV1_Standard
  6
Continuous
 62
     7
100
AcDbCircle
 10
-10069.9945113468
 20
-1799.2232544602
 30
0.0
 40
10407.43901008867
100
AcDbArc
 50
12.6964282733
 51
12.8419152034
  0
LINE
  5
DE
330
75
100
AcDbEntity
  8
DV1_Standard
  6
Continuous
 62
     7
100
AcDbLine
 10
82.8646691276
 20
488.2084663997
 30
0.0
 11
77.0029463481
 21
514.0922229305
 31
0.0
  0
SPLINE
  5
DF
330
75
100
AcDbEntity
  8
DV1_Standard
  6
Continuous
 62
     7
100
AcDbSpline
210
0.0
220
0.0
230
1.0
 70
     8
 71
     3
 72
     8
 73
     4
 74
     0
 42
0.000000089433813
 43
0.0000000001
 40
0.0
 40
0.0
 40
0.0
 40
0.0
 40
1.0
 40
1.0
 40
1.0
 40
1.0
 10
82.86466916802182
 20
488.2084663831635
 30
0.0
 10
82.92937123044938
 20
488.2013559097372
 30
0.0
 10
82.96296662358824
 20
488.1913903215394
 30
0.0
 10
82.96436975563671
 20
488.1797942739071
 30
0.0
  0
LINE
  5
E0
330
75
100
AcDbEntity
  8
DV1_Standard
  6
Continuous
 62
     7
100
AcDbLine
 10
82.1020749367
 20
488.1396227047
 30
0.0
 11
72.2872770886
 21
511.1292271151
 31
0.0
  0
ELLIPSE
  5
E1
330
75
100
AcDbEntity
  8
DV1_Standard
  6
Continuous
 62
     7
100
AcDbEllipse
 10
82.0980265726
 20
488.1364618215
 30
0.0
 11
0.8363309770890414
 21
0.07852480511115478
 31
0.0
210
0.0
220
0.0
230
0.9999999999999998
 40
0.0032959563
 41
0.4468899585551994
 42
1.565646219847332
  0
LINE
  5
E2
330
75
100
AcDbEntity
  8
DV1_Standard
  6
Continuous
 62
     7
100
AcDbLine
 10
82.8521142396
 20
488.2084663997
 30
0.0
 11
82.8646691276
 21
488.2084663997
 31
0.0
  0
LINE
  5
E3
330
75
100
AcDbEntity
  8
DV1_Standard
  6
Continuous
 62
     7
100
AcDbLine
 10
42.7717644886
 20
488.1396227047
 30
0.0
 11
82.1020749367
 21
488.1396227047
 31
0.0
  0
LINE
  5
E4
330
75
100
AcDbEntity
  8
DV1_Standard
  6
Continuous
 62
     7
100
AcDbLine
 10
82.1020749367
 20
488.1396227047
 30
0.0
 11
82.1020749367
 21
487.9364618215
 31
0.0
  0
ELLIPSE
  5
E5
330
75
100
AcDbEntity
  8
DV1_Standard
  6
Continuous
 62
     7
100
AcDbEllipse
 10
82.6866476471
 20
488.1364618215
 30
0.0
 11
0.0
 21
0.1999999999713401
 31
0.0
210
0.0
220
0.0
230
1.0
 40
1.0
 41
3.141583828573127
 42
5.122834359894908
  0
SPLINE
  5
E6
330
75
100
AcDbEntity
  8
DV1_Standard
  6
Continuous
 62
     7
100
AcDbSpline
210
0.0
220
0.0
230
1.0
 70
     8
 71
     3
 72
    10
 73
     6
 74
     0
 42
0.0000000260769553
 43
0.0000000001
 40
0.0
 40
0.0
 40
0.0
 40
0.0
 40
0.5000000000000001
 40
0.5000000000000001
 40
1.0
 40
1.0
 40
1.0
 40
1.0
 10
82.86466916802182
 20
488.2084663831635
 30
0.0
 10
82.88530545070296
 20
488.1481643932905
 30
0.0
 10
82.87788252846921
 20
488.0766276601453
 30
0.0
 10
82.81303422035188
 20
487.9700258595518
 30
0.0
 10
82.75652194492272
 20
487.9364618215274
 30
0.0
 10
82.69920257181681
 20
487.9364618215274
 30
0.0
  0
ARC
  5
E7
330
75
100
AcDbEntity
  8
DV1_Standard
  6
Continuous
 62
     7
100
AcDbCircle
 10
82.769122965
 20
488.1364597886
 30
0.0
 40
0.1999979671635341
100
AcDbArc
 50
270.0014393441
 51
12.5137926554
  0
ELLIPSE
  5
E8
330
75
100
AcDbEntity
  8
DV1_Standard
  6
Continuous
 62
     7
100
AcDbEllipse
 10
48.5315700589
 20
513.80468955
 30
0.0
 11
0.7786255482762905
 21
-0.1773617446456932
 31
0.0
210
0.0
220
0.0
230
1.0
 40
0.3617880151
 41
2.660803704506661
 42
3.047407978571925
  0
SPLINE
  5
E9
330
75
100
AcDbEntity
  8
DV1_Standard
  6
Continuous
 62
     7
100
AcDbSpline
210
0.0
220
0.0
230
1.0
 70
    12
 71
     3
 72
    16
 73
    12
 74
     0
 42
0.0000000387436722
 43
0.0000000001
 40
0.0
 40
0.0
 40
0.0
 40
0.0
 40
0.0625000000000031
 40
0.0625000000000031
 40
0.125
 40
0.125
 40
0.25
 40
0.25
 40
0.5
 40
0.5
 40
1.0
 40
1.0
 40
1.0
 40
1.0
 10
47.87089307715235
 20
514.0922229304506
 30
0.0
 41
1.0
 10
47.88042656285415
 20
514.1348118319502
 30
0.0
 41
1.0
 10
47.87731373187615
 20
514.1348899718305
 30
0.0
 41
1.0
 10
47.87780146705277
 20
514.1450695231501
 30
0.0
 41
1.0
 10
47.87792626074067
 20
514.1499682663188
 30
0.0
 41
1.0
 10
47.87808213771351
 20
514.1643263580349
 30
0.0
 41
1.0
 10
47.87789879255057
 20
514.1734565821835
 30
0.0
 41
1.0
 10
47.87709685980231
 20
514.2004186166494
 30
0.0
 41
1.0
 10
47.87621834643637
 20
514.2178508070375
 30
0.0
 41
1.0
 10
47.87563437727285
 20
514.2711615906826
 30
0.0
 41
1.0
 10
47.87772842899215
 20
514.308135485106
 30
0.0
 41
1.0
 10
47.88701153605403
 20
514.3449758965254
 30
0.0
 41
1.0
  0
ELLIPSE
  5
EA
330
75
100
AcDbEntity
  8
DV1_Standard
  6
Continuous
 62
     7
100
AcDbEllipse
 10
48.4827352503
 20
514.329599537
 30
0.0
 11
0.6435575890167966
 21
-0.102098484746127
 31
0.0
210
0.0
220
0.0
230
0.9999999999999998
 40
0.2842963594
 41
3.226436393596456
 42
3.577128642575433
  0
SPLINE
  5
EB
330
75
100
AcDbEntity
  8
DV1_Standard
  6
Continuous
 62
     7
100
AcDbSpline
210
0.0
220
0.0
230
1.0
 70
    12
 71
     3
 72
    12
 73
     8
 74
     0
 42
0.0000000946405617
 43
0.0000000001
 40
0.0
 40
0.0
 40
0.0
 40
0.0
 40
0.5
 40
0.5
 40
0.75
 40
0.75
 40
1.0
 40
1.0
 40
1.0
 40
1.0
 10
47.88701153605403
 20
514.3449758965254
 30
0.0
 41
1.0
 10
47.88408943081276
 20
514.3649420703795
 30
0.0
 41
1.0
 10
47.89228318234982
 20
514.3818548998356
 30
0.0
 41
1.0
 10
47.90296728126163
 20
514.4018306826913
 30
0.0
 41
1.0
 10
47.9068484820985
 20
514.4083184841066
 30
0.0
 41
1.0
 10
47.9147842419224
 20
514.4214618062015
 30
0.0
 41
1.0
 10
47.91843519041387
 20
514.4280914702692
 30
0.0
 41
1.0
 10
47.92538425068146
 20
514.4397303628206
 30
0.0
 41
1.0
  0
ELLIPSE
  5
EC
330
75
100
AcDbEntity
  8
DV1_Standard
  6
Continuous
 62
     7
100
AcDbEllipse
 10
48.3644506482
 20
514.5315661757
 30
0.0
 11
0.4426225570091334
 21
-0.1964836895737565
 31
0.0
210
0.0
220
0.0
230
1.0
 40
0.8206302331
 41
3.171733984425225
 42
3.861705519340008
  0
SPLINE
  5
ED
330
75
100
AcDbEntity
  8
DV1_Standard
  6
Continuous
 62
     7
100
AcDbSpline
210
0.0
220
0.0
230
1.0
 70
    12
 71
     3
 72
    14
 73
    10
 74
     0
 42
0.0000000177236052
 43
0.0000000001
 40
0.0
 40
0.0
 40
0.0
 40
0.0
 40
0.4999999999999984
 40
0.4999999999999984
 40
0.7499999999999853
 40
0.7499999999999853
 40
0.875000000000005
 40
0.875000000000005
 40
1.0
 40
1.0
 40
1.0
 40
1.0
 10
47.92538425068146
 20
514.4397303628206
 30
0.0
 41
1.0
 10
48.00591152414729
 20
514.5029192318816
 30
0.0
 41
1.0
 10
48.09037980097038
 20
514.5566795469565
 30
0.0
 41
1.0
 10
48.20890481538981
 20
514.6406711522129
 30
0.0
 41
1.0
 10
48.24779206981455
 20
514.6670089274141
 30
0.0
 41
1.0
 10
48.30651339913963
 20
514.6997695715005
 30
0.0
 41
1.0
 10
48.32625049037836
 20
514.7095697024539
 30
0.0
 41
1.0
 10
48.36304718678701
 20
514.7284032342138
 30
0.0
 41
1.0
 10
48.38469398558087
 20
514.73518844725
 30
0.0
 41
1.0
 10
48.38552625144226
 20
514.7513669819784
 30
0.0
 41
1.0
  0
ELLIPSE
  5
EE
330
75
100
AcDbEntity
  8
DV1_Standard
  6
Continuous
 62
     7
100
AcDbEllipse
 10
48.5804662757
 20
515.2055938984
 30
0.0
 11
0.4971576401997021
 21
0.03488414327373901
 31
0.0
210
0.0
220
0.0
230
1.0
 40
0.9896546454
 41
3.069560688526969
 42
4.241159624212202
  0
ARC
  5
EF
330
75
100
AcDbEntity
  8
DV1_Standard
  6
Continuous
 62
     7
100
AcDbCircle
 10
-4710.4223334647
 20
188.040878935
 30
0.0
 40
4770.00964241125
100
AcDbArc
 50
3.9274132477
 51
4.095171867
  0
ELLIPSE
  5
F0
330
75
100
AcDbEntity
  8
DV1_Standard
  6
Continuous
 62
     7
100
AcDbEllipse
 10
47.6040734865
 20
529.1413004909
 30
0.0
 11
0.4421133108807196
 21
0.2338516470060392
 31
0.0
210
0.0
220
0.0
230
1.0
 40
0.9885241229
 41
2.727833992827122
 42
3.827887903018054
  0
ELLIPSE
  5
F1
330
75
100
AcDbEntity
  8
DV1_Standard
  6
Continuous
 62
     7
100
AcDbEllipse
 10
47.6024619675
 20
529.1392616284
 30
0.0
 11
0.4783113611935615
 21
0.1385825656989303
 31
0.0
210
0.0
220
0.0
230
0.9999999999999999
 40
0.9912294987
 41
2.951571697487888
 42
4.032442563433403
  0
SPLINE
  5
F2
330
75
100
AcDbEntity
  8
DV1_Standard
  6
Continuous
 62
     7
100
AcDbSpline
210
0.0
220
0.0
230
1.0
 70
    12
 71
     3
 72
    14
 73
    10
 74
     0
 42
0.000000033543183
 43
0.0000000001
 40
0.0
 40
0.0
 40
0.0
 40
0.0
 40
0.2499999999999997
 40
0.2499999999999997
 40
0.4999999999999996
 40
0.4999999999999996
 40
0.7499999999999993
 40
0.7499999999999993
 40
1.0
 40
1.0
 40
1.0
 40
1.0
 10
47.40854060799092
 20
528.6834517539602
 30
0.0
 41
1.0
 10
47.41712514414856
 20
528.6932008393811
 30
0.0
 41
1.0
 10
47.42590953486206
 20
528.6947882757667
 30
0.0
 41
1.0
 10
47.44835523092566
 20
528.6958149455721
 30
0.0
 41
1.0
 10
47.46371060118371
 20
528.6940196268428
 30
0.0
 41
1.0
 10
47.50180599803687
 20
528.6886178592881
 30
0.0
 41
1.0
 10
47.5230154295103
 20
528.6852710344783
 30
0.0
 41
1.0
 10
47.58488525723085
 20
528.6791096035544
 30
0.0
 41
1.0
 10
47.63507223931653
 20
528.6742817765198
 30
0.0
 41
1.0
 10
47.70071234120122
 20
528.67780424472
 30
0.0
 41
1.0
  0
ELLIPSE
  5
F3
330
75
100
AcDbEntity
  8
DV1_Standard
  6
Continuous
 62
     7
100
AcDbEllipse
 10
47.7007123403
 20
529.1709067939
 30
0.0
 11
-0.06367833456369897
 21
0.4959277259015127
 31
0.0
210
0.0
220
0.0
230
1.0
 40
0.6044904115
 41
1.128407752434438
 42
2.932289196623365
  0
ARC
  5
F4
330
75
100
AcDbEntity
  8
DV1_Standard
  6
Continuous
 62
     7
100
AcDbCircle
 10
48.0773290926
 20
525.3760828822
 30
0.0
 40
3.323131675575198
100
AcDbArc
 50
89.1562289219
 51
96.5074196282
  0
ELLIPSE
  5
F5
330
75
100
AcDbEntity
  8
DV1_Standard
  6
Continuous
 62
     7
100
AcDbEllipse
 10
48.1264853704
 20
529.1922160824
 30
0.0
 11
0.0
 21
0.0003602478498979863
 31
0.0
210
0.0
220
0.0
230
1.0
 40
1.0
 41
1.444775580298847
 42
3.141147400937633
  0
LINE
  5
F6
330
75
100
AcDbEntity
  8
DV1_Standard
  6
Continuous
 62
     7
100
AcDbLine
 10
48.125990259
 20
528.6989297851
 30
0.0
 11
62.4369197126
 21
528.6989298284
 31
0.0
  0
LINE
  5
F7
330
75
100
AcDbEntity
  8
DV1_Standard
  6
Continuous
 62
     7
100
AcDbLine
 10
42.0091702977
 20
488.2084663997
 30
0.0
 11
47.8708930772
 21
514.0922229305
 31
0.0
  0
SPLINE
  5
F8
330
75
100
AcDbEntity
  8
DV1_Standard
  6
Continuous
 62
     7
100
AcDbSpline
210
0.0
220
0.0
230
1.0
 70
     8
 71
     3
 72
    14
 73
    10
 74
     0
 42
0.0000000378378652
 43
0.0000000001
 40
0.0
 40
0.0
 40
0.0
 40
0.0
 40
0.2074426505234123
 40
0.4706634606153742
 40
0.6024133357623749
 40
0.7338528485616913
 40
0.8656992710222825
 40
0.9971634934417906
 40
1.0
 40
1.0
 40
1.0
 40
1.0
 10
47.17858035437827
 20
529.3960654011247
 30
0.0
 10
47.17759219902451
 20
529.4039705037691
 30
0.0
 10
47.1755675609902
 20
529.4204566492459
 30
0.0
 10
47.19027496087093
 20
529.421578156005
 30
0.0
 10
47.23008557864372
 20
529.407676185431
 30
0.0
 10
47.27272486699879
 20
529.3890452991907
 30
0.0
 10
47.3291315966098
 20
529.3671899275183
 30
0.0
 10
47.37642087400963
 20
529.3545177574271
 30
0.0
 10
47.40198780070452
 20
529.3485518249192
 30
0.0
 10
47.40252778850502
 20
529.3484258210859
 30
0.0
  0
SPLINE
  5
F9
330
75
100
AcDbEntity
  8
DV1_Standard
  6
Continuous
 62
     7
100
AcDbSpline
210
0.0
220
0.0
230
1.0
 70
     8
 71
     3
 72
    15
 73
    11
 74
     0
 42
0.0000000134809137
 43
0.0000000001
 40
0.0
 40
0.0
 40
0.0
 40
0.0
 40
0.0792362366771284
 40
0.1653897094840046
 40
0.2577058176770983
 40
0.3624475618525668
 40
0.5178233100846202
 40
0.7790448620143325
 40
0.9099099026817546
 40
1.0
 40
1.0
 40
1.0
 40
1.0
 10
47.40252778850502
 20
529.3484258210859
 30
0.0
 10
47.41814374110516
 20
529.3449000518899
 30
0.0
 10
47.45073890175598
 20
529.3375407177332
 30
0.0
 10
47.50574611884983
 20
529.3262368515946
 30
0.0
 10
47.56897946518727
 20
529.3135227779231
 30
0.0
 10
47.65138113306591
 20
529.2975482737719
 30
0.0
 10
47.77838357910699
 20
529.2708948332466
 30
0.0
 10
47.9178353936626
 20
529.2349499348643
 30
0.0
 10
48.04255463070807
 20
529.1973421618111
 30
0.0
 10
48.10201990679913
 20
529.1938951066227
 30
0.0
 10
48.1261279793226
 20
529.1922613610495
 30
0.0
  0
LINE
  5
FA
330
75
100
AcDbEntity
  8
DV1_Standard
  6
Continuous
 62
     7
100
AcDbLine
 10
48.1261279793
 20
529.192261361
 30
0.0
 11
48.8334514175
 21
530.3646774919
 31
0.0
  0
LINE
  5
FB
330
75
100
AcDbEntity
  8
DV1_Standard
  6
Continuous
 62
     7
100
AcDbLine
 10
52.9209458595
 20
514.3016239052
 30
0.0
 11
48.3855262514
 21
514.751366982
 31
0.0
  0
LINE
  5
FC
330
75
100
AcDbEntity
  8
DV1_Standard
  6
Continuous
 62
     7
100
AcDbLine
 10
51.9246959668
 20
511.4046018952
 30
0.0
 11
47.8708930772
 21
514.0922229305
 31
0.0
  0
LINE
  5
FD
330
75
100
AcDbEntity
  8
DV1_Standard
  6
Continuous
 62
     7
100
AcDbLine
 10
48.125990259
 20
529.1920330842
 30
0.0
 11
62.4369197126
 21
529.1920330842
 31
0.0
  0
LINE
  5
FE
330
75
100
AcDbEntity
  8
DV1_Standard
  6
Continuous
 62
     7
100
AcDbLine
 10
42.7717644886
 20
488.1396227047
 30
0.0
 11
52.5865623367
 21
511.1292271151
 31
0.0
  0
ARC
  5
FF
330
75
100
AcDbEntity
  8
DV1_Standard
  6
Continuous
 62
     7
100
AcDbCircle
 10
40.8913433663
 20
483.9527262688
 30
0.0
 40
29.58615123693534
100
AcDbArc
 50
66.7157078307
 51
68.1040080749
  0
LINE
  5
100
330
75
100
AcDbEntity
  8
DV1_Standard
  6
Continuous
 62
     7
100
AcDbLine
 10
51.9246959668
 20
511.4046018952
 30
0.0
 11
42.0217251857
 21
488.2084663997
 31
0.0
  0
LINE
  5
101
330
75
100
AcDbEntity
  8
DV1_Standard
  6
Continuous
 62
     7
100
AcDbLine
 10
47.4098716889
 20
528.6799747549
 30
0.0
 11
52.8960733867
 21
514.349126708
 31
0.0
  0
ELLIPSE
  5
102
330
75
100
AcDbEntity
  8
DV1_Standard
  6
Continuous
 62
     7
100
AcDbEllipse
 10
53.2089912806
 20
515.0782521432
 30
0.0
 11
-0.7471238442993324
 21
-0.2860174142931549
 31
0.0
210
0.0
220
0.0
230
1.0
 40
0.984232685
 41
0.8077280805326522
 42
1.210458561635843
  0
LINE
  5
103
330
75
100
AcDbEntity
  8
DV1_Standard
  6
Continuous
 62
     7
100
AcDbLine
 10
53.2089912806
 20
514.2892868645
 30
0.0
 11
47.7007123412
 21
528.6778042447
 31
0.0
  0
LINE
  5
104
330
75
100
AcDbEntity
  8
DV1_Standard
  6
Continuous
 62
     7
100
AcDbLine
 10
52.5865623367
 20
511.1292271151
 30
0.0
 11
52.6519296927
 21
511.2832538221
 31
0.0
  0
ELLIPSE
  5
105
330
75
100
AcDbEntity
  8
DV1_Standard
  6
Continuous
 62
     7
100
AcDbEllipse
 10
52.6519296927
 20
511.2706102895
 30
0.0
 11
-0.7376880593735948
 21
0.309542124851625
 31
0.0
210
0.0
220
0.0
230
1.0
 40
0.0145736835
 41
4.718504184065286
 42
5.837733527209845
  0
ARC
  5
106
330
75
100
AcDbEntity
  8
DV1_Standard
  6
Continuous
 62
     7
100
AcDbCircle
 10
27.9303898262
 20
521.6483502806
 30
0.0
 40
26.08948271143381
100
AcDbArc
 50
336.8811943746
 51
337.2388472733
  0
LINE
  5
107
330
75
100
AcDbEntity
  8
DV1_Standard
  6
Continuous
 62
     7
100
AcDbLine
 10
52.8960733867
 20
514.349126708
 30
0.0
 11
52.9209458595
 21
514.3016239052
 31
0.0
  0
ARC
  5
108
330
75
100
AcDbEntity
  8
DV1_Standard
  6
Continuous
 62
     7
100
AcDbCircle
 10
53.2103786309
 20
515.0347054256
 30
0.0
 40
0.7881496334815973
100
AcDbArc
 50
248.4550692447
 51
271.705908977
  0
ARC
  5
109
330
75
100
AcDbEntity
  8
DV1_Standard
  6
Continuous
 62
     7
100
AcDbCircle
 10
53.3285176895
 20
514.3308935986
 30
0.0
 40
0.1265609842843284
100
AcDbArc
 50
199.1928322982
 51
221.5765996004
  0
SPLINE
  5
10A
330
75
100
AcDbEntity
  8
DV1_Standard
  6
Continuous
 62
     7
100
AcDbSpline
210
0.0
220
0.0
230
1.0
 70
     8
 71
     3
 72
    14
 73
    10
 74
     0
 42
0.0000000030823075
 43
0.0000000001
 40
0.0
 40
0.0
 40
0.0
 40
0.0
 40
0.25
 40
0.25
 40
0.5
 40
0.5
 40
0.75
 40
0.75
 40
1.0
 40
1.0
 40
1.0
 40
1.0
 10
52.65192969269473
 20
511.283253822112
 30
0.0
 10
52.78930382987625
 20
511.6106299013625
 30
0.0
 10
52.96853042502737
 20
511.9174351153759
 30
0.0
 10
53.26456564089933
 20
512.5352814553333
 30
0.0
 10
53.38514976110207
 20
512.8324593208682
 30
0.0
 10
53.52045455193358
 20
513.3943413992151
 30
0.0
 10
53.53288092458978
 20
513.6506599218598
 30
0.0
 10
53.43888876945034
 20
514.045361912478
 30
0.0
 10
53.29626963341981
 20
514.1763432126023
 30
0.0
 10
53.23384131710637
 20
514.246905103795
 30
0.0
  0
ARC
  5
10B
330
75
100
AcDbEntity
  8
DV1_Standard
  6
Continuous
 62
     7
100
AcDbCircle
 10
40.6076966436
 20
516.9507664865
 30
0.0
 40
12.5950014954122
100
AcDbArc
 50
334.6314722212
 51
347.85814109
  0
LINE
  5
10C
330
75
100
AcDbEntity
  8
DV1_Standard
  6
Continuous
 62
     7
100
AcDbLine
 10
48.8334514175
 20
531.1646774919
 30
0.0
 11
48.8334514175
 21
530.3646774919
 31
0.0
  0
SPLINE
  5
10D
330
75
100
AcDbEntity
  8
DV1_Standard
  6
Continuous
 62
     7
100
AcDbSpline
210
0.0
220
0.0
230
1.0
 70
     8
 71
     3
 72
    24
 73
    20
 74
     0
 42
0.0000000139740165
 43
0.0000000001
 40
0.0
 40
0.0
 40
0.0
 40
0.0
 40
0.0202766761826799
 40
0.0554351151009401
 40
0.0940671152640883
 40
0.1361698275629998
 40
0.1817414279986297
 40
0.2307811427207637
 40
0.2832892708499051
 40
0.33926720539088
 40
0.3987174521174551
 40
0.4616436460423611
 40
0.5280505648017633
 40
0.5979441380754954
 40
0.6713314519665124
 40
0.7482207472340019
 40
0.828621410210208
 40
0.9125439555076365
 40
1.0
 40
1.0
 40
1.0
 40
1.0
 10
48.6362113042377
 20
531.1606570515982
 30
0.0
 10
48.63313436082739
 20
531.1604968949936
 30
0.0
 10
48.62473351462636
 20
531.1598125863959
 30
0.0
 10
48.61054146265651
 20
531.1575051867007
 30
0.0
 10
48.5931952201557
 20
531.1527906317747
 30
0.0
 10
48.57450624476178
 20
531.145432865238
 30
0.0
 10
48.55459695791614
 20
531.1348841625644
 30
0.0
 10
48.53362635012617
 20
531.1205714126868
 30
0.0
 10
48.51179465586793
 20
531.1019061148146
 30
0.0
 10
48.48934779331525
 20
531.0782965332236
 30
0.0
 10
48.46658127138569
 20
531.0491627462945
 30
0.0
 10
48.44384307712332
 20
531.0139547925389
 30
0.0
 10
48.4215360783396
 20
530.9721735901983
 30
0.0
 10
48.40011596500911
 20
530.9233967231384
 30
0.0
 10
48.38009880617201
 20
530.8673006182895
 30
0.0
 10
48.36201952192331
 20
530.8037124152968
 30
0.0
 10
48.3465741788829
 20
530.7325563802791
 30
0.0
 10
48.33401379336414
 20
530.654231611353
 30
0.0
 10
48.32910638263336
 20
530.5980902029577
 30
0.0
 10
48.32660208654779
 20
530.5694407344542
 30
0.0
  0
SPLINE
  5
10E
330
75
100
AcDbEntity
  8
DV1_Standard
  6
Continuous
 62
     7
100
AcDbSpline
210
0.0
220
0.0
230
1.0
 70
     8
 71
     3
 72
    12
 73
     8
 74
     0
 42
0.0000000181554371
 43
0.0000000001
 40
0.0
 40
0.0
 40
0.0
 40
0.0
 40
0.4999999999999964
 40
0.4999999999999964
 40
0.7499999999999982
 40
0.7499999999999982
 40
1.0
 40
1.0
 40
1.0
 40
1.0
 10
48.32660208654779
 20
530.5694407344542
 30
0.0
 10
48.40238613211198
 20
530.5357710447355
 30
0.0
 10
48.48384426633043
 20
530.5028573965278
 30
0.0
 10
48.60941578337646
 20
530.4433352401958
 30
0.0
 10
48.65174682563091
 20
530.421136722992
 30
0.0
 10
48.73852235382274
 20
530.3810729700866
 30
0.0
 10
48.78605507424553
 20
530.3646830508255
 30
0.0
 10
48.83345141751209
 20
530.3646774919071
 30
0.0
  0
ARC
  5
10F
330
75
100
AcDbEntity
  8
DV1_Standard
  6
Continuous
 62
     7
100
AcDbCircle
 10
53.0512553795
 20
538.634332247
 30
0.0
 40
9.346915204939707
100
AcDbArc
 50
237.2807973886
 51
239.636959468
  0
ARC
  5
110
330
75
100
AcDbEntity
  8
DV1_Standard
  6
Continuous
 62
     7
100
AcDbCircle
 10
53.0512553795
 20
538.634332247
 30
0.0
 40
9.346915204939707
100
AcDbArc
 50
237.2704022798
 51
237.2807973886
  0
ARC
  5
111
330
75
100
AcDbEntity
  8
DV1_Standard
  6
Continuous
 62
     7
100
AcDbCircle
 10
47.8539795492
 20
530.7326089535
 30
0.0
 40
0.1500792516707667
100
AcDbArc
 50
13.2773490908
 51
14.8474852182
  0
LINE
  5
112
330
75
100
AcDbEntity
  8
DV1_Standard
  6
Continuous
 62
     7
100
AcDbLine
 10
42.7717644886
 20
488.1396227047
 30
0.0
 11
42.7717644886
 21
487.9364618215
 31
0.0
  0
ELLIPSE
  5
113
330
75
100
AcDbEntity
  8
DV1_Standard
  6
Continuous
 62
     7
100
AcDbEllipse
 10
42.7758128526
 20
488.1364618215
 30
0.0
 11
-0.8363309770890414
 21
0.07852480511115478
 31
0.0
210
0.0
220
0.0
230
0.9999999999999998
 40
0.0032959563
 41
4.717539087332254
 42
5.836295348624406
  0
ELLIPSE
  5
114
330
75
100
AcDbEntity
  8
DV1_Standard
  6
Continuous
 62
     7
100
AcDbEllipse
 10
42.1871917782
 20
488.1364618215
 30
0.0
 11
0.0
 21
0.1804545718589902
 31
0.0
210
0.0
220
0.0
230
1.0
 40
1.0
 41
1.160350947284695
 42
3.141601480285649
  0
LINE
  5
115
330
75
100
AcDbEntity
  8
DV1_Standard
  6
Continuous
 62
     7
100
AcDbLine
 10
42.1871935435
 20
487.9364618215
 30
0.0
 11
42.7717644886
 21
487.9364618215
 31
0.0
  0
LINE
  5
116
330
75
100
AcDbEntity
  8
DV1_Standard
  6
Continuous
 62
     7
100
AcDbLine
 10
42.0217251857
 20
488.2084663997
 30
0.0
 11
42.0091702977
 21
488.2084663997
 31
0.0
  0
SPLINE
  5
117
330
75
100
AcDbEntity
  8
DV1_Standard
  6
Continuous
 62
     7
100
AcDbSpline
210
0.0
220
0.0
230
1.0
 70
     8
 71
     3
 72
    10
 73
     6
 74
     0
 42
0.0000000260769534
 43
0.0000000001
 40
0.0
 40
0.0
 40
0.0
 40
0.0
 40
0.5
 40
0.5
 40
1.0
 40
1.0
 40
1.0
 40
1.0
 10
42.00917025724952
 20
488.2084663831635
 30
0.0
 10
41.98853394396821
 20
488.1481643932905
 30
0.0
 10
41.99595687232208
 20
488.0766276601453
 30
0.0
 10
42.06080519267947
 20
487.9700258595518
 30
0.0
 10
42.11731747422865
 20
487.9364618215274
 30
0.0
 10
42.17463685345452
 20
487.9364618215274
 30
0.0
  0
LINE
  5
118
330
75
100
AcDbEntity
  8
DV1_Standard
  6
Continuous
 62
     7
100
AcDbLine
 10
42.1746368902
 20
487.9364618215
 30
0.0
 11
42.1871935435
 21
487.9364618215
 31
0.0
  0
SPLINE
  5
119
330
75
100
AcDbEntity
  8
DV1_Standard
  6
Continuous
 62
     7
100
AcDbSpline
210
0.0
220
0.0
230
1.0
 70
     8
 71
     3
 72
     8
 73
     4
 74
     0
 42
0.0000000894375813
 43
0.0000000001
 40
0.0
 40
0.0
 40
0.0
 40
0.0
 40
1.0
 40
1.0
 40
1.0
 40
1.0
 10
42.00917025724952
 20
488.2084663831635
 30
0.0
 10
41.94447224269033
 20
488.2013545886521
 30
0.0
 10
41.91087734228196
 20
488.1913895732439
 30
0.0
 10
41.90946966963462
 20
488.1797942739071
 30
0.0
  0
ARC
  5
11A
330
75
100
AcDbEntity
  8
DV1_Standard
  6
Continuous
 62
     7
100
AcDbCircle
 10
42.1047166638
 20
488.1364599519
 30
0.0
 40
0.1999981304711247
100
AcDbArc
 50
167.4862656499
 51
269.9985023506
  0
LINE
  5
11B
330
75
100
AcDbEntity
  8
DV1_Standard
  6
Continuous
 62
     7
100
AcDbLine
 10
42.1046860474
 20
487.9364618215
 30
0.0
 11
42.1568111406
 21
487.9364618215
 31
0.0
  0
SPLINE
  5
11C
330
75
100
AcDbEntity
  8
DV1_Standard
  6
Continuous
 62
     7
100
AcDbSpline
210
0.0
220
0.0
230
1.0
 70
     8
 71
     3
 72
     8
 73
     4
 74
     0
 42
0.0000000063410883
 43
0.0000000001
 40
0.0
 40
0.0
 40
0.0
 40
0.0
 40
1.0
 40
1.0
 40
1.0
 40
1.0
 10
77.68924220620802
 20
529.4197216352785
 30
0.0
 10
77.42452319711947
 20
529.8587509200439
 30
0.0
 10
77.15311127467108
 20
530.3089361570994
 30
0.0
 10
76.87500643886284
 20
530.7702773464451
 30
0.0
  0
ARC
  5
11D
330
75
100
AcDbEntity
  8
DV1_Standard
  6
Continuous
 62
     7
100
AcDbCircle
 10
-11955.0130486953
 20
-2223.5627567878
 30
0.0
 40
12339.62366285822
100
AcDbArc
 50
12.694920986
 51
12.8178341726
  0
ARC
  5
11E
330
75
100
AcDbEntity
  8
DV1_Standard
  6
Continuous
 62
     7
100
AcDbCircle
 10
77.2384271089
 20
529.1457461883
 30
0.0
 40
0.5307567919519365
100
AcDbArc
 50
354.2867317636
 51
30.6772089399
  0
ARC
  5
11F
330
75
100
AcDbEntity
  8
DV1_Standard
  6
Continuous
 62
     7
100
AcDbCircle
 10
-7130.6403119574
 20
1028.1679241434
 30
0.0
 40
7225.663030089832
100
AcDbArc
 50
355.9290545217
 51
356.0395395692
  0
ARC
  5
120
330
75
100
AcDbEntity
  8
DV1_Standard
  6
Continuous
 62
     7
100
AcDbCircle
 10
78.266507705
 20
515.4288482565
 30
0.0
 40
1.490465165580484
100
AcDbArc
 50
188.2983228626
 51
208.4094149023
  0
ARC
  5
121
330
75
100
AcDbEntity
  8
DV1_Standard
  6
Continuous
 62
     7
100
AcDbCircle
 10
75.9137833487
 20
514.2694063179
 30
0.0
 40
1.1304216869703
100
AcDbArc
 50
7.4196074939
 51
20.5091824252
  0
ARC
  5
122
330
75
100
AcDbEntity
  8
DV1_Standard
  6
Continuous
 62
     7
100
AcDbCircle
 10
83.8505188225
 20
515.4832006158
 30
0.0
 40
6.898696568729587
100
AcDbArc
 50
188.8980621604
 51
192.3504648751
  0
LINE
  5
123
330
75
100
AcDbEntity
  8
DV1_Standard
  6
Continuous
 62
     7
100
AcDbLine
 10
76.0403880078
 20
531.1646774919
 30
0.0
 11
48.8334514175
 21
531.1646774919
 31
0.0
  0
ARC
  5
124
330
75
100
AcDbEntity
  8
DV1_Standard
  6
Continuous
 62
     7
100
AcDbCircle
 10
76.0732381216
 20
528.6047772119
 30
0.0
 40
2.560554127236918
100
AcDbArc
 50
86.3293245163
 51
91.2948457045
  0
ARC
  5
125
330
75
100
AcDbEntity
  8
DV1_Standard
  6
Continuous
 62
     7
100
AcDbCircle
 10
76.2087351794
 20
530.3850468272
 30
0.0
 40
0.7712630260700382
100
AcDbArc
 50
30.0473718219
 51
91.3691031455
  0
ARC
  5
126
330
75
100
AcDbEntity
  8
DV1_Standard
  6
Continuous
 62
     7
100
AcDbCircle
 10
41.4013177567
 20
515.4122946782
 30
0.0
 40
6.514291359496008
100
AcDbArc
 50
347.5476391953
 51
351.2038337693
  0
ARC
  5
127
330
75
100
AcDbEntity
  8
DV1_Standard
  6
Continuous
 62
     7
100
AcDbCircle
 10
48.9600560765
 20
514.2694063179
 30
0.0
 40
1.130421686964973
100
AcDbArc
 50
159.4908175748
 51
172.5803925062
  0
ARC
  5
128
330
75
100
AcDbEntity
  8
DV1_Standard
  6
Continuous
 62
     7
100
AcDbCircle
 10
46.6073317202
 20
515.4288482565
 30
0.0
 40
1.490465165580642
100
AcDbArc
 50
331.5905850977
 51
351.7016771374
  0
SPLINE
  5
129
330
75
100
AcDbEntity
  8
DV1_Standard
  6
Continuous
 62
     7
100
AcDbSpline
210
0.0
220
0.0
230
1.0
 70
     8
 71
     3
 72
    34
 73
    30
 74
     0
 42
0.0000000007176975
 43
0.0000000001
 40
0.0
 40
0.0
 40
0.0
 40
0.0
 40
0.0123936505957432
 40
0.0235366822037363
 40
0.0334290948239679
 40
0.0420708884564233
 40
0.0494620631010921
 40
0.0556026187579609
 40
0.0611487654602144
 40
0.0667595160944827
 40
0.0848138934526455
 40
0.1032252258371319
 40
0.1689842589436875
 40
0.2864111037766826
 40
0.4961018981196063
 40
0.7629810909220067
 40
0.8804079357552426
 40
0.8907414980999547
 40
0.901057910330279
 40
0.9109861002258254
 40
0.9203754458141435
 40
0.9293501489024493
 40
0.9354445420960179
 40
0.9428733881933201
 40
0.9516366952709419
 40
0.9617344680416238
 40
0.9731667093569779
 40
0.9859334209128184
 40
1.0
 40
1.0
 40
1.0
 40
1.0
 10
47.10635606236866
 20
529.1055224616237
 30
0.0
 10
47.11079762106993
 20
529.0422227954188
 30
0.0
 10
47.11789332815432
 20
528.9410970361786
 30
0.0
 10
47.12899093528402
 20
528.7829376031557
 30
0.0
 10
47.13861331225247
 20
528.6458028212286
 30
0.0
 10
47.14706981559515
 20
528.52528383958
 30
0.0
 10
47.15429171074932
 20
528.4223602017911
 30
0.0
 10
47.16050765684692
 20
528.3337730944719
 30
0.0
 10
47.16614301292846
 20
528.2534604368844
 30
0.0
 10
47.17566000875187
 20
528.1178285420992
 30
0.0
 10
47.18936843154574
 20
527.922463045755
 30
0.0
 10
47.22267335197053
 20
527.4478215952821
 30
0.0
 10
47.28835513386388
 20
526.5117832000662
 30
0.0
 10
47.41636609981977
 20
524.6876180608525
 30
0.0
 10
47.60994607737934
 20
521.9296555650682
 30
0.0
 10
47.80363266332349
 20
519.1717909148443
 30
0.0
 10
47.93219103329601
 20
517.3394931459994
 30
0.0
 10
47.97713485267163
 20
516.6983724047085
 30
0.0
 10
47.98708595339495
 20
516.5564012315936
 30
0.0
 10
47.99673076612048
 20
516.4187727628058
 30
0.0
 10
48.00592915857915
 20
516.2875148582461
 30
0.0
 10
48.01390633423459
 20
516.1736007798821
 30
0.0
 10
48.02114357798327
 20
516.0704818008546
 30
0.0
 10
48.02826808051456
 20
515.9692045219874
 30
0.0
 10
48.03664472310216
 20
515.8504730114411
 30
0.0
 10
48.04632699353465
 20
515.7140748042704
 30
0.0
 10
48.05719673560905
 20
515.5610416856646
 30
0.0
 10
48.06993446380372
 20
515.386925878167
 30
0.0
 10
48.07743095077485
 20
515.2756153731208
 30
0.0
 10
48.08211343775477
 20
515.2062854099782
 30
0.0
  0
ARC
  5
12A
330
75
100
AcDbEntity
  8
DV1_Standard
  6
Continuous
 62
     7
100
AcDbCircle
 10
47.6354123164
 20
529.1457461883
 30
0.0
 40
0.530756791952428
100
AcDbArc
 50
149.3227910602
 51
185.7132682364
  0
ARC
  5
12B
330
75
100
AcDbEntity
  8
DV1_Standard
  6
Continuous
 62
     7
100
AcDbCircle
 10
11993.5098180087
 20
-2204.0068717344
 30
0.0
 40
12251.06056720524
100
AcDbArc
 50
167.1817244868
 51
167.3055262135
  0
SPLINE
  5
12C
330
75
100
AcDbEntity
  8
DV1_Standard
  6
Continuous
 62
     7
100
AcDbSpline
210
0.0
220
0.0
230
1.0
 70
     8
 71
     3
 72
     8
 73
     4
 74
     0
 42
0.0000000063410883
 43
0.0000000001
 40
0.0
 40
0.0
 40
0.0
 40
0.0
 40
1.0
 40
1.0
 40
1.0
 40
1.0
 10
47.99883298640849
 20
530.7702773464451
 30
0.0
 10
47.72072815060025
 20
530.3089361570994
 30
0.0
 10
47.44931622815187
 20
529.8587509200439
 30
0.0
 10
47.18459721906332
 20
529.4197216352783
 30
0.0
  0
ARC
  5
12D
330
75
100
AcDbEntity
  8
DV1_Standard
  6
Continuous
 62
     7
100
AcDbCircle
 10
48.810004821
 20
527.9527710647
 30
0.0
 40
3.212271954274946
100
AcDbArc
 50
89.1356386387
 51
93.1061074555
  0
ARC
  5
12E
330
75
100
AcDbEntity
  8
DV1_Standard
  6
Continuous
 62
     7
100
AcDbCircle
 10
48.6651042459
 20
530.3850468272
 30
0.0
 40
0.7712630260705874
100
AcDbArc
 50
88.6308968545
 51
149.9526281781
  0
ELLIPSE
  5
12F
330
75
100
AcDbEntity
  8
DV1_Standard
  6
Continuous
 62
     7
100
AcDbEllipse
 10
50.3646534899
 20
472.3501604004
 30
0.0
 11
-0.1880013992761176
 21
0.06823103304379186
 31
0.0
210
0.0
220
0.0
230
0.9999999999999998
 40
0.7460134882
 41
3.137273841343076
 42
3.163257066455015
  0
LINE
  5
130
330
75
100
AcDbEntity
  8
DV1_Standard
  6
Continuous
 62
     7
100
AcDbLine
 10
48.9369197126
 20
473.3748808177
 30
0.0
 11
48.9369197126
 21
472.0949269185
 31
0.0
  0
LINE
  5
131
330
75
100
AcDbEntity
  8
DV1_Standard
  6
Continuous
 62
     7
100
AcDbLine
 10
75.9369197126
 20
472.0949269185
 30
0.0
 11
75.9369197126
 21
473.3748808177
 31
0.0
  0
SPLINE
  5
132
330
75
100
AcDbEntity
  8
DV1_Standard
  6
Continuous
 62
     7
100
AcDbSpline
210
0.0
220
0.0
230
1.0
 70
     8
 71
     3
 72
     8
 73
     4
 74
     0
 42
0.0000031728464506
 43
0.0000000001
 40
0.0
 40
0.0
 40
0.0
 40
0.0
 40
1.0
 40
1.0
 40
1.0
 40
1.0
 10
50.4750984767136
 20
472.090454308718
 30
0.0
 10
50.47526249159898
 20
472.0901504012753
 30
0.0
 10
50.47563147278422
 20
472.0909280061289
 30
0.0
 10
50.4762054202693
 20
472.0927871232791
 30
0.0
  0
SPLINE
  5
133
330
75
100
AcDbEntity
  8
DV1_Standard
  6
Continuous
 62
     7
100
AcDbSpline
210
0.0
220
0.0
230
1.0
 70
     8
 71
     3
 72
     8
 73
     4
 74
     0
 42
0.0000042317379245
 43
0.0000000001
 40
0.0
 40
0.0
 40
0.0
 40
0.0
 40
1.0
 40
1.0
 40
1.0
 40
1.0
 10
74.39763400500227
 20
472.092787123279
 30
0.0
 10
74.3979761225199
 20
472.0914506611724
 30
0.0
 10
74.39823540741969
 20
472.0907238220783
 30
0.0
 10
74.39841185970162
 20
472.0906066059965
 30
0.0
  0
ARC
  5
134
330
75
100
AcDbEntity
  8
DV1_Standard
  6
Continuous
 62
     7
100
AcDbCircle
 10
49.0645418681
 20
472.7755595666
 30
0.0
 40
1.567575762561064
100
AcDbArc
 50
334.1494720243
 51
341.7683090882
  0
ARC
  5
135
330
75
100
AcDbEntity
  8
DV1_Standard
  6
Continuous
 62
     7
100
AcDbCircle
 10
75.9366804892
 20
472.8278504068
 30
0.0
 40
1.705170235673873
100
AcDbArc
 50
198.641308798
 51
205.5234352785
  0
SPLINE
  5
136
330
75
100
AcDbEntity
  8
DV1_Standard
  6
Continuous
 62
     7
100
AcDbSpline
210
0.0
220
0.0
230
1.0
 70
     8
 71
     3
 72
    20
 73
    16
 74
     0
 42
0.0000000028160955
 43
0.0000000001
 40
0.0
 40
0.0
 40
0.0
 40
0.0
 40
0.0438125952338142
 40
0.1314031444923383
 40
0.2177908099770741
 40
0.302913817326027
 40
0.3870434801906414
 40
0.4704069329494281
 40
0.553168394084009
 40
0.6354455788690936
 40
0.7173304290726246
 40
0.7989047141999792
 40
0.8802491415809487
 40
0.961447140097502
 40
1.0
 40
1.0
 40
1.0
 40
1.0
 10
50.55265488913729
 20
472.2819293673745
 30
0.0
 10
50.56773346043482
 20
472.3210224283243
 30
0.0
 10
50.60705210447126
 20
472.4206269527405
 30
0.0
 10
50.70585007671653
 20
472.5989926370518
 30
0.0
 10
50.8567004556193
 20
472.7977106347151
 30
0.0
 10
51.04221038228815
 20
472.9859297039881
 30
0.0
 10
51.2583706324266
 20
473.1590554608579
 30
0.0
 10
51.50287130219026
 20
473.3156655439174
 30
0.0
 10
51.77259642367032
 20
473.4536914979036
 30
0.0
 10
52.06430772164799
 20
473.5714343937939
 30
0.0
 10
52.37407573192225
 20
473.6673397216206
 30
0.0
 10
52.69905999115758
 20
473.7402694699177
 30
0.0
 10
53.0313392561809
 20
473.7889238427016
 30
0.0
 10
53.31999243945273
 20
473.809653400354
 30
0.0
 10
53.4773590469811
 20
473.811524362698
 30
0.0
 10
53.53691971263578
 20
473.8120391077645
 30
0.0
  0
SPLINE
  5
137
330
75
100
AcDbEntity
  8
DV1_Standard
  6
Continuous
 62
     7
100
AcDbSpline
210
0.0
220
0.0
230
1.0
 70
     8
 71
     3
 72
    20
 73
    16
 74
     0
 42
0.0000000028161698
 43
0.0000000001
 40
0.0
 40
0.0
 40
0.0
 40
0.0
 40
0.0422650497847183
 40
0.1233931079312512
 40
0.2046376060398345
 40
0.286043227592771
 40
0.3676816062166318
 40
0.4496156082264521
 40
0.5319009242516352
 40
0.6145918442415637
 40
0.697752615866198
 40
0.7814750743656983
 40
0.8659003008379
 40
0.9512342216791954
 40
1.0
 40
1.0
 40
1.0
 40
1.0
 10
71.33691971263578
 20
473.8120391077645
 30
0.0
 10
71.40221476555307
 20
473.8114204042935
 30
0.0
 10
71.56421016467557
 20
473.8093240075568
 30
0.0
 10
71.85756161952673
 20
473.7872403838355
 30
0.0
 10
72.18904674451261
 20
473.7376000672379
 30
0.0
 10
72.5127550323102
 20
473.6638336692325
 30
0.0
 10
72.82086687539619
 20
473.5673533886859
 30
0.0
 10
73.11053578341055
 20
473.4493886316628
 30
0.0
 10
73.37785738736575
 20
473.311627950718
 30
0.0
 10
73.61960549545655
 20
473.1559667424291
 30
0.0
 10
73.83272247807328
 20
472.984743841197
 30
0.0
 10
74.01509463161933
 20
472.7997467945804
 30
0.0
 10
74.16338047267195
 20
472.6054576329416
 30
0.0
 10
74.26390648341425
 20
472.4269098765601
 30
0.0
 10
74.30429216477351
 20
472.3254331911724
 30
0.0
 10
74.32118453613428
 20
472.2819293673744
 30
0.0
  0
LINE
  5
138
330
75
100
AcDbEntity
  8
DV1_Standard
  6
Continuous
 62
     7
100
AcDbLine
 10
53.5369197126
 20
473.8120391078
 30
0.0
 11
71.3369197126
 21
473.8120391078
 31
0.0
  0
SPLINE
  5
139
330
75
100
AcDbEntity
  8
DV1_Standard
  6
Continuous
 62
     7
100
AcDbSpline
210
0.0
220
0.0
230
1.0
 70
     8
 71
     3
 72
    23
 73
    19
 74
     0
 42
0.0000000024813745
 43
0.0000000001
 40
0.0
 40
0.0
 40
0.0
 40
0.0
 40
0.0283842584260029
 40
0.0961189288831119
 40
0.1640193044575566
 40
0.2321420350984075
 40
0.3005462499192139
 40
0.3692971790149447
 40
0.4384726823564052
 40
0.5081746887764276
 40
0.5785487695217191
 40
0.6498155231984085
 40
0.7223073506589144
 40
0.7964182504716738
 40
0.8616043487339966
 40
0.9186029359766688
 40
0.9707835903015529
 40
1.0
 40
1.0
 40
1.0
 40
1.0
 10
72.29933227722857
 20
470.9270219894967
 30
0.0
 10
72.36185558150466
 20
470.9296133282012
 30
0.0
 10
72.54217395659357
 20
470.9372216439448
 30
0.0
 10
72.87024662530213
 20
470.960590711056
 30
0.0
 10
73.25253425146981
 20
470.9956543280115
 30
0.0
 10
73.62270119546528
 20
471.0397665280069
 30
0.0
 10
73.97357745217451
 20
471.0917948968432
 30
0.0
 10
74.30343282706275
 20
471.151677287382
 30
0.0
 10
74.60937731341855
 20
471.2190767932931
 30
0.0
 10
74.88922092034714
 20
471.293816389247
 30
0.0
 10
75.14108222472068
 20
471.3759061631541
 30
0.0
 10
75.3635806177147
 20
471.4657922995175
 30
0.0
 10
75.55589729471889
 20
471.5649000165542
 30
0.0
 10
75.7092906491196
 20
471.6709219183841
 30
0.0
 10
75.82305522928564
 20
471.7833877959707
 30
0.0
 10
75.89627018382343
 20
471.8990302027642
 30
0.0
 10
75.93518555685554
 20
472.0085204720816
 30
0.0
 10
75.93282390747692
 20
472.0700774753355
 30
0.0
 10
75.93159774692991
 20
472.0962079259227
 30
0.0
  0
ARC
  5
13A
330
75
100
AcDbEntity
  8
DV1_Standard
  6
Continuous
 62
     7
100
AcDbCircle
 10
71.4762196648
 20
487.0153172047
 30
0.0
 40
16.10933758120308
100
AcDbArc
 50
269.8602224571
 51
272.9288245679
  0
LINE
  5
13B
330
75
100
AcDbEntity
  8
DV1_Standard
  6
Continuous
 62
     7
100
AcDbLine
 10
53.4369197126
 20
470.9060275612
 30
0.0
 11
71.4369197126
 21
470.9060275612
 31
0.0
  0
SPLINE
  5
13C
330
75
100
AcDbEntity
  8
DV1_Standard
  6
Continuous
 62
     7
100
AcDbSpline
210
0.0
220
0.0
230
1.0
 70
     8
 71
     3
 72
    25
 73
    21
 74
     0
 42
0.0000000020435149
 43
0.0000000001
 40
0.0
 40
0.0
 40
0.0
 40
0.0
 40
0.0229543641119531
 40
0.0698869640431389
 40
0.1178385163868216
 40
0.1707838439649158
 40
0.2307220387616797
 40
0.295200308837885
 40
0.3595053333983022
 40
0.4225193425135415
 40
0.484494377573142
 40
0.5457125457918295
 40
0.6063682774455544
 40
0.6665921154013743
 40
0.7264772736039508
 40
0.7860963667762279
 40
0.8455109973345214
 40
0.9047770652192199
 40
0.9639475951813561
 40
1.0
 40
1.0
 40
1.0
 40
1.0
 10
48.94217121399418
 20
472.0968902846825
 30
0.0
 10
48.94074673970604
 20
472.0734668410698
 30
0.0
 10
48.93754036108744
 20
472.0130619694982
 30
0.0
 10
48.97455065736557
 20
471.9057196401479
 30
0.0
 10
49.04389239684531
 20
471.7927880452399
 30
0.0
 10
49.14776800086608
 20
471.6858224617069
 30
0.0
 10
49.28957516900827
 20
471.5823956666654
 30
0.0
 10
49.4734781844787
 20
471.4826857257476
 30
0.0
 10
49.69542290185035
 20
471.3894831532726
 30
0.0
 10
49.94850430654561
 20
471.304502354718
 30
0.0
 10
50.22923995654553
 20
471.2276565176343
 30
0.0
 10
50.53566417744373
 20
471.1586645793755
 30
0.0
 10
50.86566138148832
 20
471.0975165879431
 30
0.0
 10
51.2167463320451
 20
471.0443683114509
 30
0.0
 10
51.58623815147708
 20
470.999440399105
 30
0.0
 10
51.97082558615189
 20
470.9629781318352
 30
0.0
 10
52.36848482233675
 20
470.9351506755494
 30
0.0
 10
52.77162229132603
 20
470.9162847638638
 30
0.0
 10
53.13806868495823
 20
470.907263256569
 30
0.0
 10
53.34469343287695
 20
470.9063346177902
 30
0.0
 10
53.43691971263579
 20
470.9060275612019
 30
0.0
  0
ENDBLK
  5
13E
330
75
100
AcDbEntity
  8
0
100
AcDbBlockEnd
  0
BLOCK
  5
189
330
13F
100
AcDbEntity
  8
0
100
AcDbBlockBegin
  2
SE1
 70
     0
 10
0.0
 20
0.0
 30
0.0
  3
SE1
  1

  0
LINE
  5
142
330
13F
100
AcDbEntity
  8
DV2_Standard
  6
Continuous
 62
     7
100
AcDbLine
 10
176.2337163804
 20
493.7687291158
 30
0.0
 11
178.1018859928
 21
493.7687291158
 31
0.0
  0
ARC
  5
143
330
13F
100
AcDbEntity
  8
DV2_Standard
  6
Continuous
 62
     7
100
AcDbCircle
 10
188.7337163804
 20
477.5206523065
 30
0.0
 40
20.5
100
AcDbArc
 50
127.5718693197
 51
155.810485846
  0
ARC
  5
144
330
13F
100
AcDbEntity
  8
DV2_Standard
  6
Continuous
 62
     7
100
AcDbCircle
 10
188.7337163804
 20
477.5206523065
 30
0.0
 40
20.5
100
AcDbArc
 50
24.189514154
 51
30.5365739982
  0
LINE
  5
145
330
13F
100
AcDbEntity
  8
DV2_Standard
  6
Continuous
 62
     7
100
AcDbLine
 10
168.1492258727
 20
485.9206523065
 30
0.0
 11
327.5755005555
 21
485.9206523065
 31
0.0
  0
LINE
  5
146
330
13F
100
AcDbEntity
  8
DV2_Standard
  6
Continuous
 62
     7
100
AcDbLine
 10
197.5182197373
 20
470.0271604168
 30
0.0
 11
211.2337158746
 21
364.7350574953
 31
0.0
  0
LINE
  5
147
330
13F
100
AcDbEntity
  8
DV2_Standard
  6
Continuous
 62
     7
100
AcDbLine
 10
168.1492258727
 20
485.9206523065
 30
0.0
 11
197.5182197373
 21
470.0271604168
 31
0.0
  0
LINE
  5
148
330
13F
100
AcDbEntity
  8
DV2_Standard
  6
Continuous
 62
     7
100
AcDbLine
 10
211.2337158746
 20
364.7350574953
 30
0.0
 11
209.6779409996
 21
463.1619074944
 31
0.0
  0
LINE
  5
149
330
13F
100
AcDbEntity
  8
DV2_Standard
  6
Continuous
 62
     7
100
AcDbLine
 10
327.5755005555
 20
485.9206523065
 30
0.0
 11
327.5755005555
 21
477.9206558672
 31
0.0
  0
LINE
  5
14A
330
13F
100
AcDbEntity
  8
DV2_Standard
  6
Continuous
 62
     7
100
AcDbLine
 10
327.5755005555
 20
477.9206558672
 30
0.0
 11
197.5182197373
 21
470.0271604168
 31
0.0
  0
LINE
  5
14B
330
13F
100
AcDbEntity
  8
DV2_Standard
  6
Continuous
 62
     7
100
AcDbLine
 10
209.6779409996
 20
463.1619074944
 30
0.0
 11
197.5182197373
 21
470.0271604168
 31
0.0
  0
LINE
  5
14C
330
13F
100
AcDbEntity
  8
DV2_Standard
  6
Continuous
 62
     7
100
AcDbLine
 10
209.6779409996
 20
463.1619074944
 30
0.0
 11
327.5755005555
 21
477.9206558672
 31
0.0
  0
LINE
  5
14D
330
13F
100
AcDbEntity
  8
DV2_Standard
  6
Continuous
 62
     7
100
AcDbLine
 10
166.2337162055
 20
364.7350574953
 30
0.0
 11
211.2337158746
 21
364.7350574953
 31
0.0
  0
LINE
  5
14E
330
13F
100
AcDbEntity
  8
DV2_Standard
  6
Continuous
 62
     7
100
AcDbLine
 10
166.2337162055
 20
364.7350574953
 30
0.0
 11
168.1492258727
 21
485.9206523065
 31
0.0
  0
ARC
  5
14F
330
13F
100
AcDbEntity
  8
DV2_Standard
  6
Continuous
 62
     7
100
AcDbCircle
 10
283.6372572787
 20
473.4265007531
 30
0.0
 40
0.999999999999997
100
AcDbArc
 50
277.1353294914
 51
280.4115465938
  0
LINE
  5
150
330
13F
100
AcDbEntity
  8
DV2_Standard
  6
Continuous
 62
     7
100
AcDbLine
 10
243.0137163804
 20
467.3333266428
 30
0.0
 11
283.7614706196
 21
472.4342452185
 31
0.0
  0
LINE
  5
151
330
13F
100
AcDbEntity
  8
DV2_Standard
  6
Continuous
 62
     7
100
AcDbLine
 10
243.0137163804
 20
467.3333266428
 30
0.0
 11
239.9637163804
 21
466.9515190574
 31
0.0
  0
LINE
  5
152
330
13F
100
AcDbEntity
  8
DV2_Standard
  6
Continuous
 62
     7
100
AcDbLine
 10
239.9637163804
 20
466.9515190574
 30
0.0
 11
239.9637163804
 21
466.9531661075
 31
0.0
  0
ELLIPSE
  5
153
330
13F
100
AcDbEntity
  8
DV2_Standard
  6
Continuous
 62
     7
100
AcDbEllipse
 10
297.1172220195
 20
529.1926747258
 30
0.0
 11
0.4988495331504778
 21
0.04727880070432011
 31
0.0
210
0.0
220
0.0
230
0.9999999999999998
 40
0.9994527352
 41
4.786059819734917
 42
4.955654314351024
  0
LINE
  5
154
330
13F
100
AcDbEntity
  8
DV2_Standard
  6
Continuous
 62
     7
100
AcDbLine
 10
168.9515096262
 20
514.3554771205
 30
0.0
 11
168.4288570265
 21
498.646362023
 31
0.0
  0
ELLIPSE
  5
155
330
13F
100
AcDbEntity
  8
DV2_Standard
  6
Continuous
 62
     7
100
AcDbEllipse
 10
296.6543775325
 20
529.1392616284
 30
0.0
 11
-0.07320272460779875
 21
0.4939548719306297
 31
0.0
210
0.0
220
0.0
230
0.9999999999999997
 40
0.0011523566
 41
3.536993787215815
 42
5.258944101757015
  0
LINE
  5
156
330
13F
100
AcDbEntity
  8
DV2_Standard
  6
Continuous
 62
     7
100
AcDbLine
 10
297.0751922149
 20
528.6778042447
 30
0.0
 11
297.2006135805
 21
528.6988542167
 31
0.0
  0
ELLIPSE
  5
157
330
13F
100
AcDbEntity
  8
DV2_Standard
  6
Continuous
 62
     7
100
AcDbEllipse
 10
297.1177647632
 20
529.1922160824
 30
0.0
 11
0.4988114824868579
 21
0.04157943802451936
 31
0.0
210
0.0
220
0.0
230
1.0
 40
0.9994534809
 41
4.795553734204416
 42
6.200065795432283
  0
SPLINE
  5
158
330
13F
100
AcDbEntity
  8
DV2_Standard
  6
Continuous
 62
     7
100
AcDbSpline
210
0.0
220
0.0
230
1.0
 70
     8
 71
     3
 72
     9
 73
     5
 74
     0
 42
0.0000012456350936
 43
0.0000000001
 40
0.0
 40
0.0
 40
0.0
 40
0.0
 40
0.0935699478896966
 40
1.0
 40
1.0
 40
1.0
 40
1.0
 10
297.617481326669
 20
529.2002143479498
 30
0.0
 10
297.6175604391891
 20
529.1997857515918
 30
0.0
 10
297.6183300156446
 20
529.1954456606094
 30
0.0
 10
297.6183165412115
 20
529.1938951066227
 30
0.0
 10
297.6183043275803
 20
529.1922613610495
 30
0.0
  0
LINE
  5
159
330
13F
100
AcDbEntity
  8
DV2_Standard
  6
Continuous
 62
     7
100
AcDbLine
 10
297.6183043276
 20
529.192261361
 30
0.0
 11
297.6183043276
 21
530.3646774919
 31
0.0
  0
LINE
  5
15A
330
13F
100
AcDbEntity
  8
DV2_Standard
  6
Continuous
 62
     7
100
AcDbLine
 10
209.2073047987
 20
488.1396227047
 30
0.0
 11
208.8439221455
 21
511.1292271151
 31
0.0
  0
LINE
  5
15B
330
13F
100
AcDbEntity
  8
DV2_Standard
  6
Continuous
 62
     7
100
AcDbLine
 10
211.3445557916
 20
514.2892868645
 30
0.0
 11
297.0751922149
 21
528.6778042447
 31
0.0
  0
LINE
  5
15C
330
13F
100
AcDbEntity
  8
DV2_Standard
  6
Continuous
 62
     7
100
AcDbLine
 10
208.8439221455
 20
511.1292271151
 30
0.0
 11
208.8414875393
 21
511.2832538221
 31
0.0
  0
ARC
  5
15D
330
13F
100
AcDbEntity
  8
DV2_Standard
  6
Continuous
 62
     7
100
AcDbCircle
 10
211.797562492
 20
511.3706860156
 30
0.0
 40
2.95736766645136
100
AcDbArc
 50
103.453135885
 51
181.6941504357
  0
LINE
  5
15E
330
13F
100
AcDbEntity
  8
DV2_Standard
  6
Continuous
 62
     7
100
AcDbLine
 10
168.965799305
 20
514.7849750491
 30
0.0
 11
168.9529178502
 21
514.3978034259
 31
0.0
  0
LINE
  5
15F
330
13F
100
AcDbEntity
  8
DV2_Standard
  6
Continuous
 62
     7
100
AcDbLine
 10
168.9529178502
 20
514.3978034259
 30
0.0
 11
168.9515096262
 21
514.3554771205
 31
0.0
  0
ARC
  5
160
330
13F
100
AcDbEntity
  8
DV2_Standard
  6
Continuous
 62
     7
100
AcDbCircle
 10
296.8183043276
 20
530.3646774919
 30
0.0
 40
0.7999999999999784
100
AcDbArc
 50
0.0
 51
97.0027383663
  0
LINE
  5
161
330
13F
100
AcDbEntity
  8
DV2_Standard
  6
Continuous
 62
     7
100
AcDbLine
 10
296.7208997592
 20
531.1587255804
 30
0.0
 11
296.6994404924
 21
531.1560896727
 31
0.0
  0
LINE
  5
162
330
13F
100
AcDbEntity
  8
DV2_Standard
  6
Continuous
 62
     7
100
AcDbLine
 10
296.6994404924
 20
531.1560896727
 30
0.0
 11
296.5906941819
 21
531.142732029
 31
0.0
  0
LINE
  5
163
330
13F
100
AcDbEntity
  8
DV2_Standard
  6
Continuous
 62
     7
100
AcDbLine
 10
296.5906941819
 20
531.142732029
 30
0.0
 11
169.6678234732
 21
515.5524055025
 31
0.0
  0
ARC
  5
164
330
13F
100
AcDbEntity
  8
DV2_Standard
  6
Continuous
 62
     7
100
AcDbCircle
 10
169.7653568976
 20
514.7583732417
 30
0.0
 40
0.8000000000071027
100
AcDbArc
 50
97.0027383663
 51
178.0944346075
  0
ARC
  5
165
330
13F
100
AcDbEntity
  8
DV2_Standard
  6
Continuous
 62
     7
100
AcDbCircle
 10
209.0073297782
 20
488.1364618215
 30
0.0
 40
0.1999999999999728
100
AcDbArc
 50
270.0
 51
0.9055640251
  0
LINE
  5
166
330
13F
100
AcDbEntity
  8
DV2_Standard
  6
Continuous
 62
     7
100
AcDbLine
 10
208.6693719142
 20
487.9364618215
 30
0.0
 11
209.0073297782
 21
487.9364618215
 31
0.0
  0
LINE
  5
167
330
13F
100
AcDbEntity
  8
DV2_Standard
  6
Continuous
 62
     7
100
AcDbLine
 10
208.6452778408
 20
487.9364618215
 30
0.0
 11
208.6693719142
 21
487.9364618215
 31
0.0
  0
LINE
  5
168
330
13F
100
AcDbEntity
  8
DV2_Standard
  6
Continuous
 62
     7
100
AcDbLine
 10
208.3468973679
 20
487.9364618215
 30
0.0
 11
208.6452777703
 21
487.9364618215
 31
0.0
  0
ARC
  5
169
330
13F
100
AcDbEntity
  8
DV2_Standard
  6
Continuous
 62
     7
100
AcDbCircle
 10
168.6287464246
 20
498.6397115712
 30
0.0
 40
0.2000000000000358
100
AcDbArc
 50
178.0944346068
 51
244.0
  0
LINE
  5
16A
330
13F
100
AcDbEntity
  8
DV2_Standard
  6
Continuous
 62
     7
100
AcDbLine
 10
192.0574069915
 20
487.9364618215
 30
0.0
 11
208.3468973679
 21
487.9364618215
 31
0.0
  0
LINE
  5
16B
330
13F
100
AcDbEntity
  8
DV2_Standard
  6
Continuous
 62
     7
100
AcDbLine
 10
168.5410721953
 20
498.4599527619
 30
0.0
 11
169.105265798
 21
498.1847771556
 31
0.0
  0
LINE
  5
16C
330
13F
100
AcDbEntity
  8
DV2_Standard
  6
Continuous
 62
     7
100
AcDbLine
 10
190.1635997354
 20
487.9364618215
 30
0.0
 11
192.0574069915
 21
487.9364618215
 31
0.0
  0
LINE
  5
16D
330
13F
100
AcDbEntity
  8
DV2_Standard
  6
Continuous
 62
     7
100
AcDbLine
 10
169.105265798
 20
498.1847771556
 30
0.0
 11
190.075925506
 21
487.9567030123
 31
0.0
  0
ARC
  5
16E
330
13F
100
AcDbEntity
  8
DV2_Standard
  6
Continuous
 62
     7
100
AcDbCircle
 10
190.1635997354
 20
488.1364618215
 30
0.0
 40
0.2000000000000095
100
AcDbArc
 50
244.0
 51
270.0
  0
SPLINE
  5
16F
330
13F
100
AcDbEntity
  8
DV2_Standard
  6
Continuous
 62
     7
100
AcDbSpline
210
0.0
220
0.0
230
1.0
 70
     8
 71
     3
 72
     8
 73
     4
 74
     0
 42
0.0000000107041946
 43
0.0000000001
 40
0.0
 40
0.0
 40
0.0
 40
0.0
 40
1.0
 40
1.0
 40
1.0
 40
1.0
 10
210.4563010985786
 20
514.0179054265997
 30
0.0
 10
210.7238722196083
 20
514.1484239095472
 30
0.0
 10
211.0122020960671
 20
514.217471453899
 30
0.0
 10
211.3445557916171
 20
514.2892868645267
 30
0.0
  0
ARC
  5
170
330
13F
100
AcDbEntity
  8
DV2_Standard
  6
Continuous
 62
     7
100
AcDbCircle
 10
297.1479609279
 20
529.1829966085
 30
0.0
 40
0.4689074822283837
100
AcDbArc
 50
340.3847227156
 51
2.8652111769
  0
SPLINE
  5
171
330
13F
100
AcDbEntity
  8
DV2_Standard
  6
Continuous
 62
     7
100
AcDbSpline
210
0.0
220
0.0
230
1.0
 70
     8
 71
     3
 72
     8
 73
     4
 74
     0
 42
0.0000004442074311
 43
0.0000000001
 40
0.0
 40
0.0
 40
0.0
 40
0.0
 40
1.0
 40
1.0
 40
1.0
 40
1.0
 10
297.6163091159374
 20
529.1696051008727
 30
0.0
 10
297.6169981846239
 20
529.1769561663964
 30
0.0
 10
297.6176566198684
 20
529.184425840037
 30
0.0
 10
297.6183043275803
 20
529.1920283760985
 30
0.0
  0
LINE
  5
172
330
13F
100
AcDbEntity
  8
DV2_Standard
  6
Continuous
 62
     7
100
AcDbLine
 10
284.4769548743
 20
471.9886258901
 30
0.0
 11
279.8099094203
 21
470.9111535482
 31
0.0
  0
LINE
  5
173
330
13F
100
AcDbEntity
  8
DV2_Standard
  6
Continuous
 62
     7
100
AcDbLine
 10
279.583657652
 20
471.0215039089
 30
0.0
 11
279.1916433126
 21
471.8621813727
 31
0.0
  0
ARC
  5
174
330
13F
100
AcDbEntity
  8
DV2_Standard
  6
Continuous
 62
     7
100
AcDbCircle
 10
284.2529078388
 20
472.9611827737
 30
0.0
 40
0.9980300425851485
100
AcDbArc
 50
282.972847219
 51
310.027152781
  0
LINE
  5
175
330
13F
100
AcDbEntity
  8
DV2_Standard
  6
Continuous
 62
     7
100
AcDbLine
 10
285.428205289
 20
472.6445388844
 30
0.0
 11
284.8947914297
 21
472.1969515118
 31
0.0
  0
ARC
  5
176
330
13F
100
AcDbEntity
  8
DV2_Standard
  6
Continuous
 62
     7
100
AcDbCircle
 10
279.7649192094
 20
471.1060275612
 30
0.0
 40
0.2000000000000051
100
AcDbArc
 50
205.0
 51
283.0
  0
LINE
  5
177
330
13F
100
AcDbEntity
  8
DV2_Standard
  6
Continuous
 62
     7
100
AcDbLine
 10
166.8105236899
 20
401.2270466967
 30
0.0
 11
163.7818301157
 21
410.548407049
 31
0.0
  0
LINE
  5
178
330
13F
100
AcDbEntity
  8
DV2_Standard
  6
Continuous
 62
     7
100
AcDbLine
 10
162.1412576251
 20
410.0153527337
 30
0.0
 11
159.5734050311
 21
409.1810068489
 31
0.0
  0
LINE
  5
179
330
13F
100
AcDbEntity
  8
DV2_Standard
  6
Continuous
 62
     7
100
AcDbLine
 10
166.5940567175
 20
418.3685645261
 30
0.0
 11
166.5940567175
 21
413.3686102725
 31
0.0
  0
LINE
  5
17A
330
13F
100
AcDbEntity
  8
DV2_Standard
  6
Continuous
 62
     7
100
AcDbLine
 10
166.5940567175
 20
413.3686102725
 30
0.0
 11
166.5940567175
 21
412.5686102725
 31
0.0
  0
LINE
  5
17B
330
13F
100
AcDbEntity
  8
DV2_Standard
  6
Continuous
 62
     7
100
AcDbLine
 10
166.5940567175
 20
412.5686102725
 30
0.0
 11
166.5940567175
 21
411.8254261262
 31
0.0
  0
LINE
  5
17C
330
13F
100
AcDbEntity
  8
DV2_Standard
  6
Continuous
 62
     7
100
AcDbLine
 10
166.1867618158
 20
411.3298167265
 30
0.0
 11
162.1412576251
 21
410.0153527337
 31
0.0
  0
LINE
  5
17D
330
13F
100
AcDbEntity
  8
DV2_Standard
  6
Continuous
 62
     7
100
AcDbLine
 10
166.2485652147
 20
411.3498978681
 30
0.0
 11
166.1867618158
 21
411.3298167265
 31
0.0
  0
LINE
  5
17E
330
13F
100
AcDbEntity
  8
DV2_Standard
  6
Continuous
 62
     7
100
AcDbLine
 10
151.5942741754
 20
413.3686102725
 30
0.0
 11
151.5942741754
 21
418.3685645261
 31
0.0
  0
LINE
  5
17F
330
13F
100
AcDbEntity
  8
DV2_Standard
  6
Continuous
 62
     7
100
AcDbLine
 10
166.0940567175
 20
412.8686102725
 30
0.0
 11
152.0942741754
 21
412.8686102725
 31
0.0
  0
LINE
  5
180
330
13F
100
AcDbEntity
  8
DV2_Standard
  6
Continuous
 62
     7
100
AcDbLine
 10
152.0942741754
 20
418.8685645261
 30
0.0
 11
166.0940567175
 21
418.8685645261
 31
0.0
  0
ARC
  5
181
330
13F
100
AcDbEntity
  8
DV2_Standard
  6
Continuous
 62
     7
100
AcDbCircle
 10
152.0942741754
 20
418.3685645261
 30
0.0
 40
0.5000000000000004
100
AcDbArc
 50
90.0
 51
180.0
  0
ARC
  5
182
330
13F
100
AcDbEntity
  8
DV2_Standard
  6
Continuous
 62
     7
100
AcDbCircle
 10
152.0942741754
 20
413.3686102725
 30
0.0
 40
0.5000000000000004
100
AcDbArc
 50
180.0
 51
270.0
  0
ARC
  5
183
330
13F
100
AcDbEntity
  8
DV2_Standard
  6
Continuous
 62
     7
100
AcDbCircle
 10
166.0940567175
 20
418.3685645261
 30
0.0
 40
0.5000000000000004
100
AcDbArc
 50
0.0
 51
90.0
  0
ARC
  5
184
330
13F
100
AcDbEntity
  8
DV2_Standard
  6
Continuous
 62
     7
100
AcDbCircle
 10
166.0940567175
 20
413.3686102725
 30
0.0
 40
0.5000000000000004
100
AcDbArc
 50
270.0
 51
0.0
  0
ARC
  5
185
330
13F
100
AcDbEntity
  8
DV2_Standard
  6
Continuous
 62
     7
100
AcDbCircle
 10
166.0940567175
 20
411.8254261262
 30
0.0
 40
0.4999999999999935
100
AcDbArc
 50
288.0
 51
0.0
  0
LINE
  5
186
330
13F
100
AcDbEntity
  8
DV2_Standard
  6
Continuous
 62
     7
100
AcDbLine
 10
158.1271455761
 20
412.6613153708
 30
0.0
 11
159.1953829779
 21
409.3736187055
 31
0.0
  0
ARC
  5
187
330
13F
100
AcDbEntity
  8
DV2_Standard
  6
Continuous
 62
     7
100
AcDbCircle
 10
159.4806999328
 20
409.4663238038
 30
0.0
 40
0.3000000000000025
100
AcDbArc
 50
198.0
 51
288.0
  0
ARC
  5
188
330
13F
100
AcDbEntity
  8
DV2_Standard
  6
Continuous
 62
     7
100
AcDbCircle
 10
157.8418286212
 20
412.5686102725
 30
0.0
 40
0.2999999999999997
100
AcDbArc
 50
15.2835458071
 51
90.0
  0
ENDBLK
  5
18A
330
13F
100
AcDbEntity
  8
0
100
AcDbBlockEnd
  0
BLOCK
  5
24C
330
18B
100
AcDbEntity
  8
0
100
AcDbBlockBegin
  2
SE2
 70
     0
 10
0.0
 20
0.0
 30
0.0
  3
SE2
  1

  0
ELLIPSE
  5
18E
330
18B
100
AcDbEntity
  8
DV3_Standard
  6
Continuous
 62
     7
100
AcDbEllipse
 10
62.4369197126
 20
265.1162731578
 30
0.0
 11
-3.349999999999999
 21
3.469446951953615E-15
 31
0.0
210
0.0
220
0.0
230
1.0
 40
0.0784590957
 41
3.141592653589806
 42
6.283185307179586
  0
LINE
  5
18F
330
18B
100
AcDbEntity
  8
DV3_Standard
  6
Continuous
 62
     7
100
AcDbLine
 10
37.4369197126
 20
244.1917841751
 30
0.0
 11
37.4369197126
 21
257.6917841751
 31
0.0
  0
LINE
  5
190
330
18B
100
AcDbEntity
  8
DV3_Standard
  6
Continuous
 62
     7
100
AcDbLine
 10
37.4369197126
 20
257.6917841751
 30
0.0
 11
39.0575075576
 21
257.6917841751
 31
0.0
  0
LINE
  5
191
330
18B
100
AcDbEntity
  8
DV3_Standard
  6
Continuous
 62
     7
100
AcDbLine
 10
87.4369197126
 20
257.6917841751
 30
0.0
 11
87.4369197126
 21
244.1917841751
 31
0.0
  0
ARC
  5
192
330
18B
100
AcDbEntity
  8
DV3_Standard
  6
Continuous
 62
     7
100
AcDbCircle
 10
62.4369197126
 20
244.1917841751
 30
0.0
 40
25.0
100
AcDbArc
 50
353.2311817533
 51
0.0
  0
ARC
  5
193
330
18B
100
AcDbEntity
  8
DV3_Standard
  6
Continuous
 62
     7
100
AcDbCircle
 10
62.4369197126
 20
244.1917841751
 30
0.0
 40
25.0
100
AcDbArc
 50
180.0
 51
186.7688182467
  0
LINE
  5
194
330
18B
100
AcDbEntity
  8
DV3_Standard
  6
Continuous
 62
     7
100
AcDbLine
 10
85.816331784
 20
257.6917841751
 30
0.0
 11
87.4369197126
 21
257.6917841751
 31
0.0
  0
LINE
  5
195
330
18B
100
AcDbEntity
  8
DV3_Standard
  6
Continuous
 62
     7
100
AcDbLine
 10
42.0194413244
 20
265.7762746828
 30
0.0
 11
82.8543981008
 21
265.7762746828
 31
0.0
  0
LINE
  5
196
330
18B
100
AcDbEntity
  8
DV3_Standard
  6
Continuous
 62
     7
100
AcDbLine
 10
82.8543981008
 20
265.7762746828
 30
0.0
 11
84.9369196973
 21
267.69178435
 31
0.0
  0
LINE
  5
197
330
18B
100
AcDbEntity
  8
DV3_Standard
  6
Continuous
 62
     7
100
AcDbLine
 10
85.7323581505
 20
236.4072808182
 30
0.0
 11
82.8543981008
 21
265.7762746828
 31
0.0
  0
LINE
  5
198
330
18B
100
AcDbEntity
  8
DV3_Standard
  6
Continuous
 62
     7
100
AcDbLine
 10
88.894273985
 20
222.6917847303
 30
0.0
 11
85.7323581505
 21
236.4072808182
 31
0.0
  0
LINE
  5
199
330
18B
100
AcDbEntity
  8
DV3_Standard
  6
Continuous
 62
     7
100
AcDbLine
 10
84.1479020636
 20
106.35
 30
0.0
 11
82.8543981008
 21
265.7762746828
 31
0.0
  0
LINE
  5
19A
330
18B
100
AcDbEntity
  8
DV3_Standard
  6
Continuous
 62
     7
100
AcDbLine
 10
40.7259373616
 20
106.35
 30
0.0
 11
84.1479020636
 21
106.35
 31
0.0
  0
LINE
  5
19B
330
18B
100
AcDbEntity
  8
DV3_Standard
  6
Continuous
 62
     7
100
AcDbLine
 10
42.0194413244
 20
265.7762746828
 30
0.0
 11
40.7259373616
 21
106.35
 31
0.0
  0
LINE
  5
19C
330
18B
100
AcDbEntity
  8
DV3_Standard
  6
Continuous
 62
     7
100
AcDbLine
 10
39.1414812747
 20
236.4072808182
 30
0.0
 11
35.9795650595
 21
222.6917846809
 31
0.0
  0
LINE
  5
19D
330
18B
100
AcDbEntity
  8
DV3_Standard
  6
Continuous
 62
     7
100
AcDbLine
 10
42.0194413244
 20
265.7762746828
 30
0.0
 11
39.1414812747
 21
236.4072808182
 31
0.0
  0
LINE
  5
19E
330
18B
100
AcDbEntity
  8
DV3_Standard
  6
Continuous
 62
     7
100
AcDbLine
 10
35.9795650595
 20
222.6917846809
 30
0.0
 11
39.1676417645
 21
223.1050863832
 31
0.0
  0
LINE
  5
19F
330
18B
100
AcDbEntity
  8
DV3_Standard
  6
Continuous
 62
     7
100
AcDbLine
 10
85.7061976608
 20
223.1050863844
 30
0.0
 11
88.894273985
 21
222.6917847303
 31
0.0
  0
LINE
  5
1A0
330
18B
100
AcDbEntity
  8
DV3_Standard
  6
Continuous
 62
     7
100
AcDbLine
 10
85.4765836484
 20
106.35
 30
0.0
 11
84.1479020636
 21
106.35
 31
0.0
  0
LINE
  5
1A1
330
18B
100
AcDbEntity
  8
DV3_Standard
  6
Continuous
 62
     7
100
AcDbLine
 10
85.7323581505
 20
236.4072808182
 30
0.0
 11
85.4765836484
 21
106.35
 31
0.0
  0
LINE
  5
1A2
330
18B
100
AcDbEntity
  8
DV3_Standard
  6
Continuous
 62
     7
100
AcDbLine
 10
40.7259373616
 20
106.35
 30
0.0
 11
39.3972557769
 21
106.35
 31
0.0
  0
LINE
  5
1A3
330
18B
100
AcDbEntity
  8
DV3_Standard
  6
Continuous
 62
     7
100
AcDbLine
 10
39.3972557769
 20
106.35
 30
0.0
 11
39.1414812747
 21
236.4072808182
 31
0.0
  0
LINE
  5
1A4
330
18B
100
AcDbEntity
  8
DV3_Standard
  6
Continuous
 62
     7
100
AcDbLine
 10
88.894273985
 20
222.6917847303
 30
0.0
 11
84.9369196973
 21
267.69178435
 31
0.0
  0
LINE
  5
1A5
330
18B
100
AcDbEntity
  8
DV3_Standard
  6
Continuous
 62
     7
100
AcDbLine
 10
39.936919728
 20
267.69178435
 30
0.0
 11
35.9795650595
 21
222.6917846809
 31
0.0
  0
LINE
  5
1A6
330
18B
100
AcDbEntity
  8
DV3_Standard
  6
Continuous
 62
     7
100
AcDbLine
 10
35.9795650595
 20
222.6917846809
 30
0.0
 11
39.1684545758
 21
222.6917846839
 31
0.0
  0
LINE
  5
1A7
330
18B
100
AcDbEntity
  8
DV3_Standard
  6
Continuous
 62
     7
100
AcDbLine
 10
85.7053848495
 20
222.6917847273
 30
0.0
 11
88.894273985
 21
222.6917847303
 31
0.0
  0
LINE
  5
1A8
330
18B
100
AcDbEntity
  8
DV3_Standard
  6
Continuous
 62
     7
100
AcDbLine
 10
39.936919728
 20
267.69178435
 30
0.0
 11
42.0194413244
 21
265.7762746828
 31
0.0
  0
LINE
  5
1A9
330
18B
100
AcDbEntity
  8
DV3_Standard
  6
Continuous
 62
     7
100
AcDbLine
 10
84.9369196973
 20
267.69178435
 30
0.0
 11
72.4170188976
 21
267.69178435
 31
0.0
  0
LINE
  5
1AA
330
18B
100
AcDbEntity
  8
DV3_Standard
  6
Continuous
 62
     7
100
AcDbLine
 10
52.4568205276
 20
267.69178435
 30
0.0
 11
39.936919728
 21
267.69178435
 31
0.0
  0
ELLIPSE
  5
1AB
330
18B
100
AcDbEntity
  8
DV3_Standard
  6
Continuous
 62
     7
100
AcDbEllipse
 10
62.4369197126
 20
267.1991184905
 30
0.0
 11
2.500000000000001
 21
0.0
 31
0.0
210
0.0
220
0.0
230
1.0
 40
0.0487777326
 41
0.0
 42
0.809307274047314
  0
ELLIPSE
  5
1AC
330
18B
100
AcDbEntity
  8
DV3_Standard
  6
Continuous
 62
     7
100
AcDbEllipse
 10
62.4369197126
 20
267.1991184905
 30
0.0
 11
2.500000000000001
 21
0.0
 31
0.0
210
0.0
220
0.0
230
1.0
 40
0.0487777326
 41
2.332285379542574
 42
6.283185307179586
  0
LINE
  5
1AD
330
18B
100
AcDbEntity
  8
DV3_Standard
  6
Continuous
 62
     7
100
AcDbLine
 10
78.1382866762
 20
135.2277389526
 30
0.0
 11
78.1382866762
 21
116.7276798248
 31
0.0
  0
ARC
  5
1AE
330
18B
100
AcDbEntity
  8
DV3_Standard
  6
Continuous
 62
     7
100
AcDbCircle
 10
77.1382866762
 20
135.2277389526
 30
0.0
 40
1.000000000000001
100
AcDbArc
 50
0.0
 51
90.0
  0
LINE
  5
1AF
330
18B
100
AcDbEntity
  8
DV3_Standard
  6
Continuous
 62
     7
100
AcDbLine
 10
47.7355527491
 20
136.2277389526
 30
0.0
 11
77.1382866762
 21
136.2277389526
 31
0.0
  0
ARC
  5
1B0
330
18B
100
AcDbEntity
  8
DV3_Standard
  6
Continuous
 62
     7
100
AcDbCircle
 10
47.7355527491
 20
135.2277389526
 30
0.0
 40
1.000000000000001
100
AcDbArc
 50
90.0
 51
180.0
  0
LINE
  5
1B1
330
18B
100
AcDbEntity
  8
DV3_Standard
  6
Continuous
 62
     7
100
AcDbLine
 10
77.1382866762
 20
115.7276798248
 30
0.0
 11
47.7355527491
 21
115.7276798248
 31
0.0
  0
ARC
  5
1B2
330
18B
100
AcDbEntity
  8
DV3_Standard
  6
Continuous
 62
     7
100
AcDbCircle
 10
77.1382866762
 20
116.7276798248
 30
0.0
 40
1.000000000000001
100
AcDbArc
 50
270.0
 51
360.0
  0
LINE
  5
1B3
330
18B
100
AcDbEntity
  8
DV3_Standard
  6
Continuous
 62
     7
100
AcDbLine
 10
46.7355527491
 20
116.7276798248
 30
0.0
 11
46.7355527491
 21
135.2277389526
 31
0.0
  0
ARC
  5
1B4
330
18B
100
AcDbEntity
  8
DV3_Standard
  6
Continuous
 62
     7
100
AcDbCircle
 10
47.7355527491
 20
116.7276798248
 30
0.0
 40
1.000000000000001
100
AcDbArc
 50
180.0
 51
270.0
  0
SPLINE
  5
1B5
330
18B
100
AcDbEntity
  8
DV3_Standard
  6
Continuous
 62
     7
100
AcDbSpline
210
0.0
220
0.0
230
1.0
 70
     8
 71
     3
 72
    14
 73
    10
 74
     0
 42
0.0000000005982778
 43
0.0000000001
 40
0.0
 40
0.0
 40
0.0
 40
0.0
 40
0.3610129760029629
 40
0.3610129760029629
 40
0.3610129760029629
 40
0.7220259520129341
 40
0.7220259520129341
 40
0.7220259520129341
 40
1.0
 40
1.0
 40
1.0
 40
1.0
 10
75.77055600540098
 20
247.6037363216751
 30
0.0
 10
75.57545104310631
 20
249.6056525242602
 30
0.0
 10
75.3803258116052
 20
251.6075667488576
 30
0.0
 10
75.18517967825666
 20
253.6094789312744
 30
0.0
 10
74.99003354490583
 20
255.6113911137146
 30
0.0
 10
74.79486650969068
 20
257.6133012548003
 30
0.0
 10
74.59967803647571
 20
259.6152092995794
 30
0.0
 10
74.44938612558113
 20
261.1566455356926
 30
0.0
 10
74.29908150656343
 20
262.6980805295992
 30
0.0
 10
74.14876397312011
 20
264.2395142599069
 30
0.0
  0
SPLINE
  5
1B6
330
18B
100
AcDbEntity
  8
DV3_Standard
  6
Continuous
 62
     7
100
AcDbSpline
210
0.0
220
0.0
230
1.0
 70
     8
 71
     3
 72
    14
 73
    10
 74
     0
 42
0.0000000008559664
 43
0.0000000001
 40
0.0
 40
0.0
 40
0.0
 40
0.0
 40
0.1711916455208521
 40
0.1711916455208521
 40
0.1711916455208521
 40
0.5135749370382341
 40
0.5135749370382341
 40
0.5135749370382341
 40
1.0
 40
1.0
 40
1.0
 40
1.0
 10
75.88485524794166
 20
247.6149004992329
 30
0.0
 10
75.95019881178689
 20
246.9514501581248
 30
0.0
 10
76.01552937319069
 20
246.2879985596109
 30
0.0
 10
76.08084673177753
 20
245.6245456839598
 30
0.0
 10
76.21148144904201
 20
244.2976399317351
 30
0.0
 10
76.3420633486983
 20
242.9707290685095
 30
0.0
 10
76.4725909019463
 20
241.6438129435729
 30
0.0
 10
76.65803182390168
 20
239.7586588635128
 30
0.0
 10
76.84336303210199
 20
237.8734941550222
 30
0.0
 10
77.02858052591829
 20
235.9883184228974
 30
0.0
  0
LINE
  5
1B7
330
18B
100
AcDbEntity
  8
DV3_Standard
  6
Continuous
 62
     7
100
AcDbLine
 10
75.7705560054
 20
247.6037363217
 30
0.0
 11
75.8848552479
 21
247.6149004992
 31
0.0
  0
LINE
  5
1B8
330
18B
100
AcDbEntity
  8
DV3_Standard
  6
Continuous
 62
     7
100
AcDbLine
 10
76.9326617191
 20
235.385489901
 30
0.0
 11
77.0029463481
 21
235.5592632633
 31
0.0
  0
LINE
  5
1B9
330
18B
100
AcDbEntity
  8
DV3_Standard
  6
Continuous
 62
     7
100
AcDbLine
 10
76.8741305696
 20
225.391227539
 30
0.0
 11
82.8521142396
 21
225.1698989289
 31
0.0
  0
LINE
  5
1BA
330
18B
100
AcDbEntity
  8
DV3_Standard
  6
Continuous
 62
     7
100
AcDbLine
 10
76.9229261601
 20
235.7772120377
 30
0.0
 11
75.7705560054
 21
247.6037363217
 31
0.0
  0
SPLINE
  5
1BB
330
18B
100
AcDbEntity
  8
DV3_Standard
  6
Continuous
 62
     7
100
AcDbSpline
210
0.0
220
0.0
230
1.0
 70
    12
 71
     3
 72
    12
 73
     8
 74
     0
 42
0.0000000421540549
 43
0.0000000001
 40
0.0
 40
0.0
 40
0.0
 40
0.0
 40
0.5
 40
0.5
 40
0.75
 40
0.75
 40
1.0
 40
1.0
 40
1.0
 40
1.0
 10
77.02858052591829
 20
235.9883184228974
 30
0.0
 41
1.0
 10
77.01435744177566
 20
235.9584940574991
 30
0.0
 41
1.0
 10
76.9922273394565
 20
235.9278350846409
 30
0.0
 41
1.0
 10
76.96534854579711
 20
235.8810721588262
 30
0.0
 41
1.0
 10
76.95656091686726
 20
235.8643611963699
 30
0.0
 41
1.0
 10
76.94040368864586
 20
235.8287972588506
 30
0.0
 41
1.0
 10
76.93360781738579
 20
235.811214229719
 30
0.0
 41
1.0
 10
76.92292616010978
 20
235.7772120376552
 30
0.0
 41
1.0
  0
ARC
  5
1BC
330
18B
100
AcDbEntity
  8
DV3_Standard
  6
Continuous
 62
     7
100
AcDbCircle
 10
85.2803667079
 20
233.9010735902
 30
0.0
 40
8.565436823876306
100
AcDbArc
 50
167.34758497
 51
181.6806750508
  0
LINE
  5
1BD
330
18B
100
AcDbEntity
  8
DV3_Standard
  6
Continuous
 62
     7
100
AcDbLine
 10
76.7477114459
 20
136.3071962279
 30
0.0
 11
76.0403880078
 21
136.3071962279
 31
0.0
  0
ARC
  5
1BE
330
18B
100
AcDbEntity
  8
DV3_Standard
  6
Continuous
 62
     7
100
AcDbCircle
 10
76.7843896379
 20
137.3248798833
 30
0.0
 40
1.018344397673491
100
AcDbArc
 50
267.9359043635
 51
312.4190460851
  0
SPLINE
  5
1BF
330
18B
100
AcDbEntity
  8
DV3_Standard
  6
Continuous
 62
     7
100
AcDbSpline
210
0.0
220
0.0
230
1.0
 70
    12
 71
     3
 72
    22
 73
    18
 74
     0
 42
0.0000000001037924
 43
0.0000000001
 40
0.0
 40
0.0
 40
0.0
 40
0.0
 40
0.0078125
 40
0.0078125
 40
0.0156249999999994
 40
0.0156249999999994
 40
0.0312499999999997
 40
0.0312499999999997
 40
0.0624999999999994
 40
0.0624999999999994
 40
0.1249999999999999
 40
0.1249999999999999
 40
0.2500000000000006
 40
0.2500000000000006
 40
0.5000000000000003
 40
0.5000000000000003
 40
1.0
 40
1.0
 40
1.0
 40
1.0
 10
76.7186146560277
 20
233.649856978248
 30
0.0
 41
1.0
 10
76.71871236385398
 20
233.4051031932494
 30
0.0
 41
1.0
 10
76.7226816608523
 20
233.1517214927036
 30
0.0
 41
1.0
 10
76.72775392425305
 20
232.6500388220263
 30
0.0
 41
1.0
 10
76.73029035061269
 20
232.3991974205789
 30
0.0
 41
1.0
 10
76.73790048253416
 20
231.6466730248982
 30
0.0
 41
1.0
 10
76.74297504071353
 20
231.1449898393734
 30
0.0
 41
1.0
 10
76.75820188465366
 20
229.6399395717275
 30
0.0
 41
1.0
 10
76.76835733646202
 20
228.6365717792817
 30
0.0
 41
1.0
 10
76.79883455166886
 20
225.6264659655039
 30
0.0
 41
1.0
 10
76.81916712488541
 20
223.6197255189137
 30
0.0
 41
1.0
 10
76.88019554218262
 20
217.5994972919528
 30
0.0
 41
1.0
 10
76.92092139873775
 20
213.5860027781136
 30
0.0
 41
1.0
 10
77.04314594767122
 20
201.545508696513
 30
0.0
 41
1.0
 10
77.12468430817526
 20
193.5185002288817
 30
0.0
 41
1.0
 10
77.3692124712091
 20
169.4374943272579
 30
0.0
 41
1.0
 10
77.53211522974846
 20
153.3835164208775
 30
0.0
 41
1.0
 10
77.69525907089306
 20
137.308683651391
 30
0.0
 41
1.0
  0
SPLINE
  5
1C0
330
18B
100
AcDbEntity
  8
DV3_Standard
  6
Continuous
 62
     7
100
AcDbSpline
210
0.0
220
0.0
230
1.0
 70
     8
 71
     3
 72
    11
 73
     7
 74
     0
 42
0.0000000711860755
 43
0.0000000001
 40
0.0
 40
0.0
 40
0.0
 40
0.0
 40
0.3756073804568423
 40
0.6004622259603717
 40
0.8148300934533934
 40
1.0
 40
1.0
 40
1.0
 40
1.0
 10
77.00294634811898
 20
235.5592632633047
 30
0.0
 10
76.9995701818352
 20
235.5779076026902
 30
0.0
 10
76.9941728969512
 20
235.6077132498
 30
0.0
 10
76.9986057466577
 20
235.6546488166354
 30
0.0
 10
76.99740791269603
 20
235.6790931750557
 30
0.0
 10
76.99017845570354
 20
235.6678021633915
 30
0.0
 10
76.98682788921731
 20
235.6625692274577
 30
0.0
  0
ARC
  5
1C1
330
18B
100
AcDbEntity
  8
DV3_Standard
  6
Continuous
 62
     7
100
AcDbCircle
 10
78.3290086885
 20
235.130580854
 30
0.0
 40
1.443853160907139
100
AcDbArc
 50
158.3785473482
 51
158.6507545424
  0
SPLINE
  5
1C2
330
18B
100
AcDbEntity
  8
DV3_Standard
  6
Continuous
 62
     7
100
AcDbSpline
210
0.0
220
0.0
230
1.0
 70
    12
 71
     3
 72
    16
 73
    12
 74
     0
 42
0.0000000707630258
 43
0.0000000001
 40
0.0
 40
0.0
 40
0.0
 40
0.0
 40
0.0625000000000031
 40
0.0625000000000031
 40
0.125
 40
0.125
 40
0.25
 40
0.25
 40
0.5
 40
0.5
 40
1.0
 40
1.0
 40
1.0
 40
1.0
 10
77.12341138335918
 20
235.9778746801971
 30
0.0
 41
1.0
 10
77.1121223582262
 20
235.997419119523
 30
0.0
 41
1.0
 10
77.11069402380028
 20
235.9994365701709
 30
0.0
 41
1.0
 10
77.10698557909593
 20
236.0045486030451
 30
0.0
 41
1.0
 10
77.10513400328769
 20
236.0069206726306
 30
0.0
 41
1.0
 10
77.09958738287706
 20
236.0134857873504
 30
0.0
 41
1.0
 10
77.09590044346137
 20
236.0171277276309
 30
0.0
 41
1.0
 10
77.0848734594885
 20
236.0258554189935
 30
0.0
 41
1.0
 10
77.07756721768612
 20
236.0287428949633
 30
0.0
 41
1.0
 10
77.05579617728198
 20
236.0286676739209
 30
0.0
 41
1.0
 10
77.0417471108523
 20
236.0156132499582
 30
0.0
 41
1.0
 10
77.02858052591829
 20
235.9883184228974
 30
0.0
 41
1.0
  0
ELLIPSE
  5
1C3
330
18B
100
AcDbEntity
  8
DV3_Standard
  6
Continuous
 62
     7
100
AcDbEllipse
 10
77.2711933233
 20
137.2711461332
 30
0.0
 11
-0.4977713257764017
 21
0.0009681246030124324
 31
0.0
210
0.0
220
0.0
230
1.0
 40
0.1471036692
 41
3.168638054035309
 42
3.692753681206816
  0
ELLIPSE
  5
1C4
330
18B
100
AcDbEntity
  8
DV3_Standard
  6
Continuous
 62
     7
100
AcDbEllipse
 10
76.2933731496
 20
233.6084359019
 30
0.0
 11
-0.4983543423179634
 21
-0.005056890872913444
 31
0.0
210
0.0
220
0.0
230
1.0
 40
0.1431182623
 41
3.162852456490169
 42
3.688673066979301
  0
SPLINE
  5
1C5
330
18B
100
AcDbEntity
  8
DV3_Standard
  6
Continuous
 62
     7
100
AcDbSpline
210
0.0
220
0.0
230
1.0
 70
     8
 71
     3
 72
    10
 73
     6
 74
     0
 42
0.0000000622981287
 43
0.0000000001
 40
0.0
 40
0.0
 40
0.0
 40
0.0
 40
0.820733179222035
 40
0.820733179222035
 40
1.0
 40
1.0
 40
1.0
 40
1.0
 10
76.92304043036305
 20
235.7770742494138
 30
0.0
 10
76.95480507912875
 20
235.7387517163261
 30
0.0
 10
76.9751284170126
 20
235.6972104627328
 30
0.0
 10
76.9805413646496
 20
235.6496454647314
 30
0.0
 10
76.98075224822817
 20
235.6412542037655
 30
0.0
 10
76.98023908532636
 20
235.633039489772
 30
0.0
  0
ARC
  5
1C6
330
18B
100
AcDbEntity
  8
DV3_Standard
  6
Continuous
 62
     7
100
AcDbCircle
 10
76.4296601588
 20
235.8995341484
 30
0.0
 40
0.6054653199082316
100
AcDbArc
 50
336.9598212222
 51
8.432148541
  0
ELLIPSE
  5
1C7
330
18B
100
AcDbEntity
  8
DV3_Standard
  6
Continuous
 62
     7
100
AcDbEllipse
 10
76.342269361
 20
235.9035676491
 30
0.0
 11
0.6930907782954302
 21
0.3966611203719932
 31
0.0
210
0.0
220
0.0
230
0.9999999999999999
 40
0.9089765272
 41
5.240483248576363
 42
5.821250064354094
  0
SPLINE
  5
1C8
330
18B
100
AcDbEntity
  8
DV3_Standard
  6
Continuous
 62
     7
100
AcDbSpline
210
0.0
220
0.0
230
1.0
 70
     8
 71
     3
 72
    17
 73
    13
 74
     0
 42
0.0000000019972219
 43
0.0000000001
 40
0.0
 40
0.0
 40
0.0
 40
0.0
 40
0.4655471476579864
 40
0.4655471476579864
 40
0.4655471476579864
 40
0.9058110812724247
 40
0.9058110812724247
 40
0.9058110812724247
 40
0.9310942857783119
 40
0.9310942857783119
 40
0.9310942857783119
 40
1.0
 40
1.0
 40
1.0
 40
1.0
 10
73.4852469657902
 20
264.9739909293022
 30
0.0
 10
74.25680983100189
 20
265.0551098649792
 30
0.0
 10
75.02902157336923
 20
265.1362219782919
 30
0.0
 10
75.80173930214018
 20
265.2173287582819
 30
0.0
 10
76.53249181898732
 20
265.2940307432426
 30
0.0
 10
77.26369796118148
 20
265.370727950605
 30
0.0
 10
77.99526828819506
 20
265.447421315196
 30
0.0
 10
78.03728045645417
 20
265.4518256143025
 30
0.0
 10
78.07929383251258
 20
265.4562299006701
 30
0.0
 10
78.12130840179046
 20
265.4606341744515
 30
0.0
 10
78.23581302861682
 20
265.4726373851103
 30
0.0
 10
78.35032651731595
 20
265.4846405022982
 30
0.0
 10
78.46484858126355
 20
265.4966435290157
 30
0.0
  0
LINE
  5
1C9
330
18B
100
AcDbEntity
  8
DV3_Standard
  6
Continuous
 62
     7
100
AcDbLine
 10
73.4661659428
 20
264.9725827053
 30
0.0
 11
73.4852469658
 21
264.9739909293
 31
0.0
  0
SPLINE
  5
1CA
330
18B
100
AcDbEntity
  8
DV3_Standard
  6
Continuous
 62
     7
100
AcDbSpline
210
0.0
220
0.0
230
1.0
 70
     8
 71
     3
 72
    17
 73
    13
 74
     0
 42
0.000000000598293
 43
0.0000000001
 40
0.0
 40
0.0
 40
0.0
 40
0.0
 40
0.0764713305481774
 40
0.0764713305481774
 40
0.0764713305481774
 40
0.5551014468334836
 40
0.5551014468334836
 40
0.5551014468334836
 40
0.638977002948539
 40
0.638977002948539
 40
0.638977002948539
 40
1.0
 40
1.0
 40
1.0
 40
1.0
 10
74.24399120029037
 20
264.2483795332459
 30
0.0
 10
74.28588049494093
 20
263.8243908423995
 30
0.0
 10
74.32776523912152
 20
263.4004017136161
 30
0.0
 10
74.36964537101503
 20
262.9764121408369
 30
0.0
 10
74.63177095708151
 20
260.3226832668822
 30
0.0
 10
74.89371578975076
 20
257.6689369830958
 30
0.0
 10
75.15546518115953
 20
255.0151718483241
 30
0.0
 10
75.20133437135509
 20
254.5501237462213
 30
0.0
 10
75.24719756202745
 20
254.0850750651206
 30
0.0
 10
75.29305467729777
 20
253.6200257975678
 30
0.0
 10
75.49043605903564
 20
251.6183284281485
 30
0.0
 10
75.68770485095453
 20
249.6166201856708
 30
0.0
 10
75.88485524794166
 20
247.6149004992329
 30
0.0
  0
LINE
  5
1CB
330
18B
100
AcDbEntity
  8
DV3_Standard
  6
Continuous
 62
     7
100
AcDbLine
 10
74.2439912003
 20
264.2483795332
 30
0.0
 11
74.1487639731
 21
264.2395142599
 31
0.0
  0
LINE
  5
1CC
330
18B
100
AcDbEntity
  8
DV3_Standard
  6
Continuous
 62
     7
100
AcDbLine
 10
74.1487639731
 20
264.2395142599
 30
0.0
 11
73.9164032887
 21
264.2266328051
 31
0.0
  0
ELLIPSE
  5
1CD
330
18B
100
AcDbEntity
  8
DV3_Standard
  6
Continuous
 62
     7
100
AcDbEllipse
 10
73.4661659428
 20
264.1730251127
 30
0.0
 11
-0.04428186646747954
 21
0.7987735075114348
 31
0.0
210
0.0
220
0.0
230
1.0
 40
0.8570878499
 41
4.748151375610044
 42
6.218594252079797
  0
ELLIPSE
  5
1CE
330
18B
100
AcDbEntity
  8
DV3_Standard
  6
Continuous
 62
     7
100
AcDbEllipse
 10
73.4852469658
 20
264.1744333367
 30
0.0
 11
0.08364766727165379
 21
-0.7956148991566381
 31
0.0
210
0.0
220
0.0
230
1.0
 40
0.9529213043
 41
1.563554873527695
 42
3.031707015518064
  0
LINE
  5
1CF
330
18B
100
AcDbEntity
  8
DV3_Standard
  6
Continuous
 62
     7
100
AcDbLine
 10
76.1898107572
 20
137.3348063736
 30
0.0
 11
73.2338052584
 21
264.2576770824
 31
0.0
  0
LINE
  5
1D0
330
18B
100
AcDbEntity
  8
DV3_Standard
  6
Continuous
 62
     7
100
AcDbLine
 10
73.2338052584
 20
264.2576770824
 30
0.0
 11
62.4369197126
 21
264.2576770824
 31
0.0
  0
LINE
  5
1D1
330
18B
100
AcDbEntity
  8
DV3_Standard
  6
Continuous
 62
     7
100
AcDbLine
 10
62.4369197126
 20
264.2576770824
 30
0.0
 11
62.4369197126
 21
264.9597012505
 31
0.0
  0
LINE
  5
1D2
330
18B
100
AcDbEntity
  8
DV3_Standard
  6
Continuous
 62
     7
100
AcDbLine
 10
73.2338052584
 20
264.9597012505
 30
0.0
 11
73.4661659428
 21
264.9725827053
 31
0.0
  0
LINE
  5
1D3
330
18B
100
AcDbEntity
  8
DV3_Standard
  6
Continuous
 62
     7
100
AcDbLine
 10
62.4369197126
 20
264.9597012505
 30
0.0
 11
73.2338052584
 21
264.9597012505
 31
0.0
  0
ELLIPSE
  5
1D4
330
18B
100
AcDbEntity
  8
DV3_Standard
  6
Continuous
 62
     7
100
AcDbEllipse
 10
73.2338052584
 20
264.1601436579
 30
0.0
 11
-0.04428186646743444
 21
0.7987735075114383
 31
0.0
210
0.0
220
0.0
230
1.0
 40
0.8570878499
 41
4.748151375610092
 42
6.218594252080256
  0
LINE
  5
1D5
330
18B
100
AcDbEntity
  8
DV3_Standard
  6
Continuous
 62
     7
100
AcDbLine
 10
76.0403880078
 20
136.3071962279
 30
0.0
 11
48.8334514175
 21
136.3071962279
 31
0.0
  0
LINE
  5
1D6
330
18B
100
AcDbEntity
  8
DV3_Standard
  6
Continuous
 62
     7
100
AcDbLine
 10
73.9164032887
 20
264.2266328051
 30
0.0
 11
76.8724087875
 21
137.3037620964
 31
0.0
  0
ELLIPSE
  5
1D7
330
18B
100
AcDbEntity
  8
DV3_Standard
  6
Continuous
 62
     7
100
AcDbEllipse
 10
73.2338052584
 20
264.1601436579
 30
0.0
 11
0.7997831227177093
 21
0.0186267714823718
 31
0.0
210
0.0
220
0.0
230
0.9999999999999998
 40
0.1218842204
 41
0.5453392899838633
 42
1.567957677969178
  0
LINE
  5
1D8
330
18B
100
AcDbEntity
  8
DV3_Standard
  6
Continuous
 62
     7
100
AcDbLine
 10
73.2338052584
 20
264.2576770824
 30
0.0
 11
73.2338052584
 21
264.9597012505
 31
0.0
  0
ARC
  5
1D9
330
18B
100
AcDbEntity
  8
DV3_Standard
  6
Continuous
 62
     7
100
AcDbCircle
 10
-67.2485923498
 20
1766.5840521115
 30
0.0
 40
1508.983970856145
100
AcDbArc
 50
275.3803452604
 51
275.5756975914
  0
LINE
  5
1DA
330
18B
100
AcDbEntity
  8
DV3_Standard
  6
Continuous
 62
     7
100
AcDbLine
 10
82.8206448893
 20
241.8697813189
 30
0.0
 11
75.8848552479
 21
247.6149004992
 31
0.0
  0
ARC
  5
1DB
330
18B
100
AcDbEntity
  8
DV3_Standard
  6
Continuous
 62
     7
100
AcDbCircle
 10
-321.2331629145
 20
188.301884852
 30
0.0
 40
407.8258828360626
100
AcDbArc
 50
7.8160777693
 51
10.8026746797
  0
ARC
  5
1DC
330
18B
100
AcDbEntity
  8
DV3_Standard
  6
Continuous
 62
     7
100
AcDbCircle
 10
78.4553144096
 20
264.5711215133
 30
0.0
 40
0.9255711220968363
100
AcDbArc
 50
10.4837738107
 51
89.4097941839
  0
LINE
  5
1DD
330
18B
100
AcDbEntity
  8
DV3_Standard
  6
Continuous
 62
     7
100
AcDbLine
 10
62.4369197126
 20
265.496643529
 30
0.0
 11
62.4369197126
 21
265.3777000108
 31
0.0
  0
LINE
  5
1DE
330
18B
100
AcDbEntity
  8
DV3_Standard
  6
Continuous
 62
     7
100
AcDbLine
 10
78.4648485813
 20
265.496643529
 30
0.0
 11
62.4369197126
 21
265.496643529
 31
0.0
  0
LINE
  5
1DF
330
18B
100
AcDbEntity
  8
DV3_Standard
  6
Continuous
 62
     7
100
AcDbLine
 10
62.4369197126
 20
265.4967541309
 30
0.0
 11
62.4369197126
 21
265.496643529
 31
0.0
  0
ARC
  5
1E0
330
18B
100
AcDbEntity
  8
DV3_Standard
  6
Continuous
 62
     7
100
AcDbCircle
 10
-1264.35910518
 20
-524.455921872
 30
0.0
 40
1542.022989836434
100
AcDbArc
 50
29.1040780614
 51
29.5471991929
  0
LINE
  5
1E1
330
18B
100
AcDbEntity
  8
DV3_Standard
  6
Continuous
 62
     7
100
AcDbLine
 10
82.8646691276
 20
225.1939896149
 30
0.0
 11
77.0029463481
 21
235.5592632633
 31
0.0
  0
ARC
  5
1E2
330
18B
100
AcDbEntity
  8
DV3_Standard
  6
Continuous
 62
     7
100
AcDbCircle
 10
82.1405931586
 20
225.5868827473
 30
0.0
 40
0.823802786333631
100
AcDbArc
 50
331.5151660784
 51
359.543134123
  0
LINE
  5
1E3
330
18B
100
AcDbEntity
  8
DV3_Standard
  6
Continuous
 62
     7
100
AcDbLine
 10
82.1020749367
 20
224.7181957569
 30
0.0
 11
76.878991531
 21
224.9115749721
 31
0.0
  0
ELLIPSE
  5
1E4
330
18B
100
AcDbEntity
  8
DV3_Standard
  6
Continuous
 62
     7
100
AcDbEllipse
 10
82.0980265726
 20
225.5182457252
 30
0.0
 11
0.8358070807194634
 21
-0.0309448853873795
 31
0.0
210
0.0
220
0.0
230
0.9999999999999999
 40
0.9565033273
 41
4.752628368242508
 42
5.871384629535419
  0
LINE
  5
1E5
330
18B
100
AcDbEntity
  8
DV3_Standard
  6
Continuous
 62
     7
100
AcDbLine
 10
82.8521142396
 20
225.1698989289
 30
0.0
 11
82.8646691276
 21
225.1939896149
 31
0.0
  0
LINE
  5
1E6
330
18B
100
AcDbEntity
  8
DV3_Standard
  6
Continuous
 62
     7
100
AcDbLine
 10
42.7717644886
 20
224.7181957569
 30
0.0
 11
47.9928874855
 21
224.7181957569
 31
0.0
  0
LINE
  5
1E7
330
18B
100
AcDbEntity
  8
DV3_Standard
  6
Continuous
 62
     7
100
AcDbLine
 10
76.8809515091
 20
224.7181957569
 30
0.0
 11
82.1020749367
 21
224.7181957569
 31
0.0
  0
LINE
  5
1E8
330
18B
100
AcDbEntity
  8
DV3_Standard
  6
Continuous
 62
     7
100
AcDbLine
 10
82.9643697556
 20
225.5803139669
 30
0.0
 11
82.8206448893
 21
241.8697813189
 31
0.0
  0
LINE
  5
1E9
330
18B
100
AcDbEntity
  8
DV3_Standard
  6
Continuous
 62
     7
100
AcDbLine
 10
82.8640066857
 20
225.163699505
 30
0.0
 11
82.8521134857
 21
225.1698974822
 31
0.0
  0
LINE
  5
1EA
330
18B
100
AcDbEntity
  8
DV3_Standard
  6
Continuous
 62
     7
100
AcDbLine
 10
82.8762087826
 20
225.1879757992
 30
0.0
 11
82.8646691695
 21
225.1939896816
 31
0.0
  0
LINE
  5
1EB
330
18B
100
AcDbEntity
  8
DV3_Standard
  6
Continuous
 62
     7
100
AcDbLine
 10
82.9689467558
 20
225.5803533336
 30
0.0
 11
82.964369762
 21
225.5803132452
 31
0.0
  0
LINE
  5
1EC
330
18B
100
AcDbEntity
  8
DV3_Standard
  6
Continuous
 62
     7
100
AcDbLine
 10
78.4648485813
 20
265.496643529
 30
0.0
 11
78.4648485813
 21
265.4967541309
 31
0.0
  0
ELLIPSE
  5
1ED
330
18B
100
AcDbEntity
  8
DV3_Standard
  6
Continuous
 62
     7
100
AcDbEllipse
 10
79.1749926095
 20
264.7325605281
 30
0.0
 11
-0.1964104485385719
 21
-0.03772182001020308
 31
0.0
210
0.0
220
0.0
230
1.0
 40
0.4319824403
 41
2.798436074872073
 42
3.142963943690492
  0
LINE
  5
1EE
330
18B
100
AcDbEntity
  8
DV3_Standard
  6
Continuous
 62
     7
100
AcDbLine
 10
42.0531945359
 20
241.8697813189
 30
0.0
 11
48.9889841773
 21
247.6149004992
 31
0.0
  0
ARC
  5
1EF
330
18B
100
AcDbEntity
  8
DV3_Standard
  6
Continuous
 62
     7
100
AcDbCircle
 10
192.1224317751
 20
1766.5840521115
 30
0.0
 40
1508.983970856145
100
AcDbArc
 50
264.4243024086
 51
264.6196547396
  0
ELLIPSE
  5
1F0
330
18B
100
AcDbEntity
  8
DV3_Standard
  6
Continuous
 62
     7
100
AcDbEllipse
 10
51.3885924595
 20
264.1744333367
 30
0.0
 11
-0.08364766727167289
 21
-0.7956148991566382
 31
0.0
210
0.0
220
0.0
230
0.9999999999999998
 40
0.9529213043
 41
3.251478291660954
 42
4.719630433651913
  0
SPLINE
  5
1F1
330
18B
100
AcDbEntity
  8
DV3_Standard
  6
Continuous
 62
     7
100
AcDbSpline
210
0.0
220
0.0
230
1.0
 70
     8
 71
     3
 72
    17
 73
    13
 74
     0
 42
0.0000000019972219
 43
0.0000000001
 40
0.0
 40
0.0
 40
0.0
 40
0.0
 40
0.4655471476579864
 40
0.4655471476579864
 40
0.4655471476579864
 40
0.9058110812724247
 40
0.9058110812724247
 40
0.9058110812724247
 40
0.9310942857783119
 40
0.9310942857783119
 40
0.9310942857783119
 40
1.0
 40
1.0
 40
1.0
 40
1.0
 10
51.38859245948112
 20
264.9739909293022
 30
0.0
 10
50.61702959426943
 20
265.0551098649792
 30
0.0
 10
49.84481785190209
 20
265.1362219782919
 30
0.0
 10
49.07210012313114
 20
265.2173287582819
 30
0.0
 10
48.341347606284
 20
265.2940307432426
 30
0.0
 10
47.61014146408984
 20
265.370727950605
 30
0.0
 10
46.87857113707626
 20
265.447421315196
 30
0.0
 10
46.83655896881715
 20
265.4518256143025
 30
0.0
 10
46.79454559275874
 20
265.4562299006701
 30
0.0
 10
46.75253102348086
 20
265.4606341744515
 30
0.0
 10
46.63802639665451
 20
265.4726373851103
 30
0.0
 10
46.52351290795536
 20
265.4846405022982
 30
0.0
 10
46.40899084400776
 20
265.4966435290157
 30
0.0
  0
ELLIPSE
  5
1F2
330
18B
100
AcDbEntity
  8
DV3_Standard
  6
Continuous
 62
     7
100
AcDbEllipse
 10
48.5315700589
 20
235.9035676399
 30
0.0
 11
-0.6930907551948637
 21
0.3966611605873902
 31
0.0
210
0.0
220
0.0
230
0.9999999999999999
 40
0.9089765179
 41
0.4619352956348485
 42
1.04270211144495
  0
SPLINE
  5
1F3
330
18B
100
AcDbEntity
  8
DV3_Standard
  6
Continuous
 62
     7
100
AcDbSpline
210
0.0
220
0.0
230
1.0
 70
    12
 71
     3
 72
    16
 73
    12
 74
     0
 42
0.0000000681693054
 43
0.0000000001
 40
0.0
 40
0.0
 40
0.0
 40
0.0
 40
0.0625000000000031
 40
0.0625000000000031
 40
0.125
 40
0.125
 40
0.25
 40
0.25
 40
0.5
 40
0.5
 40
1.0
 40
1.0
 40
1.0
 40
1.0
 10
47.87089307715234
 20
235.5592632633047
 30
0.0
 41
1.0
 10
47.88042656285414
 20
235.5765318353381
 30
0.0
 41
1.0
 10
47.87731373187614
 20
235.5819997694926
 30
0.0
 41
1.0
 10
47.87780146705276
 20
235.58908486844
 30
0.0
 41
1.0
 10
47.87792626074066
 20
235.5926397235386
 30
0.0
 41
1.0
 10
47.8780821377135
 20
235.6032607269822
 30
0.0
 41
1.0
 10
47.87789879255055
 20
235.6102848744617
 30
0.0
 41
1.0
 10
47.8770968598023
 20
235.6306324823692
 30
0.0
 41
1.0
 10
47.87621834643636
 20
235.6433018101145
 30
0.0
 41
1.0
 10
47.87563437727284
 20
235.6727826831217
 30
0.0
 41
1.0
 10
47.87772842899214
 20
235.6813765417146
 30
0.0
 41
1.0
 10
47.88701153605402
 20
235.6625692274577
 30
0.0
 41
1.0
  0
ELLIPSE
  5
1F4
330
18B
100
AcDbEntity
  8
DV3_Standard
  6
Continuous
 62
     7
100
AcDbEllipse
 10
48.4827352503
 20
235.9264336184
 30
0.0
 11
-0.5751713812338841
 21
-0.3065101520138506
 31
0.0
210
0.0
220
0.0
230
1.0
 40
0.9466230423
 41
5.671246079909274
 42
6.206441752132817
  0
ARC
  5
1F5
330
18B
100
AcDbEntity
  8
DV3_Standard
  6
Continuous
 62
     7
100
AcDbCircle
 10
46.604584576
 20
235.1512473487
 30
0.0
 40
1.380668701730897
100
AcDbArc
 50
21.4741261409
 51
21.737873447
  0
ELLIPSE
  5
1F6
330
18B
100
AcDbEntity
  8
DV3_Standard
  6
Continuous
 62
     7
100
AcDbEllipse
 10
48.3644506482
 20
235.7355925947
 30
0.0
 11
0.4660625880539213
 21
0.1312312226130711
 31
0.0
210
0.0
220
0.0
230
1.0
 40
0.5223478922
 41
2.496130222803533
 42
3.027718077852634
  0
ELLIPSE
  5
1F7
330
18B
100
AcDbEntity
  8
DV3_Standard
  6
Continuous
 62
     7
100
AcDbEllipse
 10
48.5804662757
 20
233.6084359019
 30
0.0
 11
0.4983543423268729
 21
-0.0050568909036805
 31
0.0
210
0.0
220
0.0
230
0.9999999999999999
 40
0.1431182623
 41
2.594512240220352
 42
3.120332849934924
  0
ELLIPSE
  5
1F8
330
18B
100
AcDbEntity
  8
DV3_Standard
  6
Continuous
 62
     7
100
AcDbEllipse
 10
47.6024619675
 20
137.271123023
 30
0.0
 11
0.4976459247911583
 21
0.0009469281291168974
 31
0.0
210
0.0
220
0.0
230
1.0
 40
0.1470901485
 41
2.589877543440071
 42
3.114419505180945
  0
LINE
  5
1F9
330
18B
100
AcDbEntity
  8
DV3_Standard
  6
Continuous
 62
     7
100
AcDbLine
 10
42.0091702977
 20
225.1939896149
 30
0.0
 11
47.8708930772
 21
235.5592632633
 31
0.0
  0
ARC
  5
1FA
330
18B
100
AcDbEntity
  8
DV3_Standard
  6
Continuous
 62
     7
100
AcDbCircle
 10
48.0900087804
 20
137.3264010269
 30
0.0
 40
1.019844605242551
100
AcDbArc
 50
227.6154162902
 51
272.0296332612
  0
LINE
  5
1FB
330
18B
100
AcDbEntity
  8
DV3_Standard
  6
Continuous
 62
     7
100
AcDbLine
 10
48.1261279793
 20
136.3071962279
 30
0.0
 11
48.8334514175
 21
136.3071962279
 31
0.0
  0
LINE
  5
1FC
330
18B
100
AcDbEntity
  8
DV3_Standard
  6
Continuous
 62
     7
100
AcDbLine
 10
47.9627355359
 20
235.3321898181
 30
0.0
 11
47.8708930772
 21
235.5592632633
 31
0.0
  0
ARC
  5
1FD
330
18B
100
AcDbEntity
  8
DV3_Standard
  6
Continuous
 62
     7
100
AcDbCircle
 10
39.961992559
 20
233.936466292
 30
0.0
 40
8.198243650272719
100
AcDbArc
 50
357.996540281
 51
12.9751996982
  0
SPLINE
  5
1FE
330
18B
100
AcDbEntity
  8
DV3_Standard
  6
Continuous
 62
     7
100
AcDbSpline
210
0.0
220
0.0
230
1.0
 70
     8
 71
     2
 72
     8
 73
     5
 74
     0
 42
0.0000000001037924
 43
0.0000000001
 40
0.0
 40
0.0
 40
0.0
 40
0.6
 40
0.6
 40
1.0
 40
1.0
 40
1.0
 10
48.15522476924362
 20
233.649856978248
 30
0.0
 10
48.15516337426373
 20
233.5139113595724
 30
0.0
 10
47.56984505343162
 20
175.8590982766423
 30
0.0
 10
47.45241081615263
 20
164.2916336016403
 30
0.0
 10
47.17858035437826
 20
137.308683651391
 30
0.0
  0
ARC
  5
1FF
330
18B
100
AcDbEntity
  8
DV3_Standard
  6
Continuous
 62
     7
100
AcDbCircle
 10
1374.5853473653
 20
-516.2274528982
 30
0.0
 40
1525.222527362199
100
AcDbArc
 50
150.4503602853
 51
150.8983624604
  0
SPLINE
  5
200
330
18B
100
AcDbEntity
  8
DV3_Standard
  6
Continuous
 62
     7
100
AcDbSpline
210
0.0
220
0.0
230
1.0
 70
     8
 71
     3
 72
    12
 73
     8
 74
     0
 42
0.000000070533979
 43
0.0000000001
 40
0.0
 40
0.0
 40
0.0
 40
0.0
 40
0.1215174981639245
 40
0.3418909995655677
 40
0.5729557671449169
 40
0.7799666438230475
 40
1.0
 40
1.0
 40
1.0
 40
1.0
 10
47.75042804191214
 20
235.9778746801971
 30
0.0
 10
47.75476269549774
 20
235.9855904212656
 30
0.0
 10
47.76695829752666
 20
236.0072987551775
 30
0.0
 10
47.78689914671051
 20
236.02660665677
 30
0.0
 10
47.80843100845619
 20
236.0310863355999
 30
0.0
 10
47.82829917468559
 20
236.0188981529352
 30
0.0
 10
47.83948888647687
 20
235.9986862313004
 30
0.0
 10
47.84525889935304
 20
235.9883184228974
 30
0.0
  0
SPLINE
  5
201
330
18B
100
AcDbEntity
  8
DV3_Standard
  6
Continuous
 62
     7
100
AcDbSpline
210
0.0
220
0.0
230
1.0
 70
     8
 71
     3
 72
    12
 73
     8
 74
     0
 42
0.0000000421463905
 43
0.0000000001
 40
0.0
 40
0.0
 40
0.0
 40
0.0
 40
0.2132683058278568
 40
0.3982870695019641
 40
0.5557813792111358
 40
0.8351000370562052
 40
1.0
 40
1.0
 40
1.0
 40
1.0
 10
47.84525889935304
 20
235.9883184228974
 30
0.0
 10
47.85020776152722
 20
235.9788999509957
 30
0.0
 10
47.85944147742762
 20
235.9612240585592
 30
0.0
 10
47.87856056191119
 20
235.9313609617705
 30
0.0
 10
47.90284672114516
 20
235.891907442782
 30
0.0
 10
47.92946175885123
 20
235.8432781913532
 30
0.0
 10
47.94507968606123
 20
235.7948279572485
 30
0.0
 10
47.95091326516155
 20
235.7772120376552
 30
0.0
  0
LINE
  5
202
330
18B
100
AcDbEntity
  8
DV3_Standard
  6
Continuous
 62
     7
100
AcDbLine
 10
47.9509132652
 20
235.7772120377
 30
0.0
 11
49.1032834199
 21
247.6037363217
 31
0.0
  0
LINE
  5
203
330
18B
100
AcDbEntity
  8
DV3_Standard
  6
Continuous
 62
     7
100
AcDbLine
 10
49.1032834199
 20
247.6037363217
 30
0.0
 11
48.9889841773
 21
247.6149004992
 31
0.0
  0
SPLINE
  5
204
330
18B
100
AcDbEntity
  8
DV3_Standard
  6
Continuous
 62
     7
100
AcDbSpline
210
0.0
220
0.0
230
1.0
 70
     8
 71
     3
 72
    14
 73
    10
 74
     0
 42
0.0000000008559664
 43
0.0000000001
 40
0.0
 40
0.0
 40
0.0
 40
0.0
 40
0.1711916455208521
 40
0.1711916455208521
 40
0.1711916455208521
 40
0.5135749370382341
 40
0.5135749370382341
 40
0.5135749370382341
 40
1.0
 40
1.0
 40
1.0
 40
1.0
 10
48.98898417732966
 20
247.6149004992329
 30
0.0
 10
48.92364061348444
 20
246.9514501581248
 30
0.0
 10
48.85831005208063
 20
246.2879985596109
 30
0.0
 10
48.7929926934938
 20
245.6245456839598
 30
0.0
 10
48.66235797622931
 20
244.2976399317351
 30
0.0
 10
48.531776076573
 20
242.9707290685095
 30
0.0
 10
48.40124852332502
 20
241.6438129435729
 30
0.0
 10
48.21580760136963
 20
239.7586588635128
 30
0.0
 10
48.03047639316933
 20
237.8734941550222
 30
0.0
 10
47.84525889935304
 20
235.9883184228974
 30
0.0
  0
SPLINE
  5
205
330
18B
100
AcDbEntity
  8
DV3_Standard
  6
Continuous
 62
     7
100
AcDbSpline
210
0.0
220
0.0
230
1.0
 70
     8
 71
     3
 72
    17
 73
    13
 74
     0
 42
0.000000000598293
 43
0.0000000001
 40
0.0
 40
0.0
 40
0.0
 40
0.0
 40
0.0764713305481774
 40
0.0764713305481774
 40
0.0764713305481774
 40
0.5551014468334836
 40
0.5551014468334836
 40
0.5551014468334836
 40
0.638977002948539
 40
0.638977002948539
 40
0.638977002948539
 40
1.0
 40
1.0
 40
1.0
 40
1.0
 10
50.62984822498095
 20
264.2483795332459
 30
0.0
 10
50.5879589303304
 20
263.8243908423995
 30
0.0
 10
50.54607418614981
 20
263.4004017136161
 30
0.0
 10
50.5041940542563
 20
262.9764121408369
 30
0.0
 10
50.24206846818981
 20
260.3226832668822
 30
0.0
 10
49.98012363552057
 20
257.6689369830958
 30
0.0
 10
49.71837424411179
 20
255.0151718483241
 30
0.0
 10
49.67250505391623
 20
254.5501237462213
 30
0.0
 10
49.62664186324386
 20
254.0850750651206
 30
0.0
 10
49.58078474797354
 20
253.6200257975678
 30
0.0
 10
49.38340336623568
 20
251.6183284281485
 30
0.0
 10
49.18613457431678
 20
249.6166201856708
 30
0.0
 10
48.98898417732966
 20
247.6149004992329
 30
0.0
  0
SPLINE
  5
206
330
18B
100
AcDbEntity
  8
DV3_Standard
  6
Continuous
 62
     7
100
AcDbSpline
210
0.0
220
0.0
230
1.0
 70
     8
 71
     3
 72
    14
 73
    10
 74
     0
 42
0.0000000005982778
 43
0.0000000001
 40
0.0
 40
0.0
 40
0.0
 40
0.0
 40
0.3610129760029629
 40
0.3610129760029629
 40
0.3610129760029629
 40
0.7220259520129341
 40
0.7220259520129341
 40
0.7220259520129341
 40
1.0
 40
1.0
 40
1.0
 40
1.0
 10
49.10328341987034
 20
247.6037363216751
 30
0.0
 10
49.298388382165
 20
249.6056525242602
 30
0.0
 10
49.49351361366612
 20
251.6075667488576
 30
0.0
 10
49.68865974701466
 20
253.6094789312744
 30
0.0
 10
49.8838058803655
 20
255.6113911137146
 30
0.0
 10
50.07897291558064
 20
257.6133012548003
 30
0.0
 10
50.2741613887956
 20
259.6152092995794
 30
0.0
 10
50.4244532996902
 20
261.1566455356926
 30
0.0
 10
50.57475791870791
 20
262.6980805295992
 30
0.0
 10
50.72507545215122
 20
264.2395142599069
 30
0.0
  0
LINE
  5
207
330
18B
100
AcDbEntity
  8
DV3_Standard
  6
Continuous
 62
     7
100
AcDbLine
 10
42.7717644886
 20
224.7181957569
 30
0.0
 11
47.9948474626
 21
224.9115749561
 31
0.0
  0
LINE
  5
208
330
18B
100
AcDbEntity
  8
DV3_Standard
  6
Continuous
 62
     7
100
AcDbLine
 10
47.9997089372
 20
225.391227542
 30
0.0
 11
42.0217251857
 21
225.1698989289
 31
0.0
  0
LINE
  5
209
330
18B
100
AcDbEntity
  8
DV3_Standard
  6
Continuous
 62
     7
100
AcDbLine
 10
51.6400341669
 20
264.9597012505
 30
0.0
 11
51.4076734825
 21
264.9725827053
 31
0.0
  0
ELLIPSE
  5
20A
330
18B
100
AcDbEntity
  8
DV3_Standard
  6
Continuous
 62
     7
100
AcDbEllipse
 10
51.4076734825
 20
264.1730251127
 30
0.0
 11
0.04428186646747954
 21
0.7987735075114348
 31
0.0
210
0.0
220
0.0
230
1.0
 40
0.8570878499
 41
0.0645910551005654
 42
1.535033931569612
  0
LINE
  5
20B
330
18B
100
AcDbEntity
  8
DV3_Standard
  6
Continuous
 62
     7
100
AcDbLine
 10
50.7250754522
 20
264.2395142599
 30
0.0
 11
50.9574361366
 21
264.2266328051
 31
0.0
  0
LINE
  5
20C
330
18B
100
AcDbEntity
  8
DV3_Standard
  6
Continuous
 62
     7
100
AcDbLine
 10
51.4076734825
 20
264.9725827053
 30
0.0
 11
51.3885924595
 21
264.9739909293
 31
0.0
  0
LINE
  5
20D
330
18B
100
AcDbEntity
  8
DV3_Standard
  6
Continuous
 62
     7
100
AcDbLine
 10
50.629848225
 20
264.2483795332
 30
0.0
 11
50.7250754522
 21
264.2395142599
 31
0.0
  0
LINE
  5
20E
330
18B
100
AcDbEntity
  8
DV3_Standard
  6
Continuous
 62
     7
100
AcDbLine
 10
48.6840286681
 20
137.3348063736
 30
0.0
 11
51.6400341669
 21
264.2576770824
 31
0.0
  0
ELLIPSE
  5
20F
330
18B
100
AcDbEntity
  8
DV3_Standard
  6
Continuous
 62
     7
100
AcDbEllipse
 10
51.6400341669
 20
264.1601436579
 30
0.0
 11
-0.7997831227177007
 21
0.0186267714823718
 31
0.0
210
0.0
220
0.0
230
0.9999999999999998
 40
0.1218842204
 41
4.71522762921039
 42
5.737846017195826
  0
LINE
  5
210
330
18B
100
AcDbEntity
  8
DV3_Standard
  6
Continuous
 62
     7
100
AcDbLine
 10
50.9574361366
 20
264.2266328051
 30
0.0
 11
48.0014306378
 21
137.3037620964
 31
0.0
  0
LINE
  5
211
330
18B
100
AcDbEntity
  8
DV3_Standard
  6
Continuous
 62
     7
100
AcDbLine
 10
51.6400341669
 20
264.2576770824
 30
0.0
 11
51.6400341669
 21
264.9597012505
 31
0.0
  0
ELLIPSE
  5
212
330
18B
100
AcDbEntity
  8
DV3_Standard
  6
Continuous
 62
     7
100
AcDbEllipse
 10
51.6400341669
 20
264.1601436579
 30
0.0
 11
0.04428186646743444
 21
0.7987735075114383
 31
0.0
210
0.0
220
0.0
230
1.0
 40
0.8570878499
 41
0.0645910550993304
 42
1.535033931569493
  0
LINE
  5
213
330
18B
100
AcDbEntity
  8
DV3_Standard
  6
Continuous
 62
     7
100
AcDbLine
 10
51.6400341669
 20
264.2576770824
 30
0.0
 11
62.4369197126
 21
264.2576770824
 31
0.0
  0
LINE
  5
214
330
18B
100
AcDbEntity
  8
DV3_Standard
  6
Continuous
 62
     7
100
AcDbLine
 10
62.4369197126
 20
264.9597012505
 30
0.0
 11
51.6400341669
 21
264.9597012505
 31
0.0
  0
ELLIPSE
  5
215
330
18B
100
AcDbEntity
  8
DV3_Standard
  6
Continuous
 62
     7
100
AcDbEllipse
 10
42.7758128526
 20
225.5182457252
 30
0.0
 11
-0.8358070807194634
 21
-0.0309448853873795
 31
0.0
210
0.0
220
0.0
230
0.9999999999999999
 40
0.9565033273
 41
0.4118006776441669
 42
1.530556938937086
  0
LINE
  5
216
330
18B
100
AcDbEntity
  8
DV3_Standard
  6
Continuous
 62
     7
100
AcDbLine
 10
42.0098327396
 20
225.163699505
 30
0.0
 11
42.0217259396
 21
225.1698974822
 31
0.0
  0
LINE
  5
217
330
18B
100
AcDbEntity
  8
DV3_Standard
  6
Continuous
 62
     7
100
AcDbLine
 10
42.0217251857
 20
225.1698989289
 30
0.0
 11
42.0091702977
 21
225.1939896149
 31
0.0
  0
LINE
  5
218
330
18B
100
AcDbEntity
  8
DV3_Standard
  6
Continuous
 62
     7
100
AcDbLine
 10
41.9976306218
 20
225.1879758393
 30
0.0
 11
42.0091702362
 21
225.1939897191
 31
0.0
  0
ARC
  5
219
330
18B
100
AcDbEntity
  8
DV3_Standard
  6
Continuous
 62
     7
100
AcDbCircle
 10
42.7333547811
 20
225.5869107521
 30
0.0
 40
0.8239115209713932
100
AcDbArc
 50
180.458753132
 51
208.4829466666
  0
LINE
  5
21A
330
18B
100
AcDbEntity
  8
DV3_Standard
  6
Continuous
 62
     7
100
AcDbLine
 10
41.9048927299
 20
225.5803532419
 30
0.0
 11
41.9094696625
 21
225.5803131561
 31
0.0
  0
LINE
  5
21B
330
18B
100
AcDbEntity
  8
DV3_Standard
  6
Continuous
 62
     7
100
AcDbLine
 10
46.408990844
 20
265.496643529
 30
0.0
 11
46.408990844
 21
265.4967541309
 31
0.0
  0
LINE
  5
21C
330
18B
100
AcDbEntity
  8
DV3_Standard
  6
Continuous
 62
     7
100
AcDbLine
 10
46.408990844
 20
265.496643529
 30
0.0
 11
62.4369197126
 21
265.496643529
 31
0.0
  0
LINE
  5
21D
330
18B
100
AcDbEntity
  8
DV3_Standard
  6
Continuous
 62
     7
100
AcDbLine
 10
41.9094696696
 20
225.5803139669
 30
0.0
 11
42.0531945359
 21
241.8697813189
 31
0.0
  0
ELLIPSE
  5
21E
330
18B
100
AcDbEntity
  8
DV3_Standard
  6
Continuous
 62
     7
100
AcDbEllipse
 10
45.6988468158
 20
264.7325605281
 30
0.0
 11
0.1964104485385719
 21
-0.03772182001020308
 31
0.0
210
0.0
220
0.0
230
1.0
 40
0.4319824403
 41
3.140484513958188
 42
3.484749232307513
  0
ARC
  5
21F
330
18B
100
AcDbEntity
  8
DV3_Standard
  6
Continuous
 62
     7
100
AcDbCircle
 10
46.4185250157
 20
264.5711215133
 30
0.0
 40
0.925571122097804
100
AcDbArc
 50
111.3313919738
 51
169.5162261892
  0
ARC
  5
220
330
18B
100
AcDbEntity
  8
DV3_Standard
  6
Continuous
 62
     7
100
AcDbCircle
 10
46.4185250157
 20
264.5711215133
 30
0.0
 40
0.925571122097804
100
AcDbArc
 50
90.5902058161
 51
111.3313919738
  0
ARC
  5
221
330
18B
100
AcDbEntity
  8
DV3_Standard
  6
Continuous
 62
     7
100
AcDbCircle
 10
446.1070023398
 20
188.301884852
 30
0.0
 40
407.8258828360626
100
AcDbArc
 50
169.1973253203
 51
172.1839222307
  0
LINE
  5
222
330
18B
100
AcDbEntity
  8
DV3_Standard
  6
Continuous
 62
     7
100
AcDbLine
 10
62.4369197126
 20
265.0080924285
 30
0.0
 11
62.4369197126
 21
264.9597012505
 31
0.0
  0
SPLINE
  5
223
330
18B
100
AcDbEntity
  8
DV3_Standard
  6
Continuous
 62
     7
100
AcDbSpline
210
0.0
220
0.0
230
1.0
 70
     8
 71
     3
 72
    12
 73
     8
 74
     0
 42
0.0000000030491612
 43
0.0000000001
 40
0.0
 40
0.0
 40
0.0
 40
0.0
 40
0.4998195519687072
 40
0.4998195519687072
 40
0.9996391039374144
 40
0.9996391039374144
 40
1.0
 40
1.0
 40
1.0
 40
1.0
 10
62.43691971263566
 20
265.0080924285118
 30
0.0
 10
61.57770166742189
 20
265.0080924285119
 30
0.0
 10
60.73761384364814
 20
265.0198349877522
 30
0.0
 10
59.53873522475623
 20
265.0597638348811
 30
0.0
 10
59.1874799160823
 20
265.0879974232874
 30
0.0
 10
59.18692001716389
 20
265.1162220917336
 30
0.0
 10
59.18691979292282
 20
265.1162424566603
 30
0.0
 10
59.1869197483943
 20
265.1162628215172
 30
0.0
  0
SPLINE
  5
224
330
18B
100
AcDbEntity
  8
DV3_Standard
  6
Continuous
 62
     7
100
AcDbSpline
210
0.0
220
0.0
230
1.0
 70
     8
 71
     3
 72
    10
 73
     6
 74
     0
 42
0.0000000030486502
 43
0.0000000001
 40
0.0
 40
0.0
 40
0.0
 40
0.0
 40
0.4998194216286608
 40
0.4998194216286608
 40
1.0
 40
1.0
 40
1.0
 40
1.0
 10
65.68691967687703
 20
265.1162834973891
 30
0.0
 10
65.68698130169963
 20
265.0880997484587
 30
0.0
 10
65.34284108927272
 20
265.0600499362355
 30
0.0
 10
64.1312811796673
 20
265.0196419457901
 30
0.0
 10
63.29613757868642
 20
265.0080924285118
 30
0.0
 10
62.43691971263566
 20
265.0080924285118
 30
0.0
  0
ARC
  5
225
330
18B
100
AcDbEntity
  8
DV3_Standard
  6
Continuous
 62
     7
100
AcDbCircle
 10
76.7784401522
 20
137.4849379152
 30
0.0
 40
1.178244055139444
100
AcDbArc
 50
273.7513078475
 51
306.3035639031
  0
SPLINE
  5
226
330
18B
100
AcDbEntity
  8
DV3_Standard
  6
Continuous
 62
     7
100
AcDbSpline
210
0.0
220
0.0
230
1.0
 70
     8
 71
     3
 72
    11
 73
     7
 74
     0
 42
0.0000000120395453
 43
0.0000000001
 40
0.0
 40
0.0
 40
0.0
 40
0.0
 40
0.2971773825207505
 40
0.4633719670553952
 40
0.6638872895319
 40
1.0
 40
1.0
 40
1.0
 40
1.0
 10
77.47603392166907
 20
136.5354004675526
 30
0.0
 10
77.54339399067759
 20
136.5947920569972
 30
0.0
 10
77.63130152939281
 20
136.6760290512246
 30
0.0
 10
77.71823183609139
 20
136.8406450604648
 30
0.0
 10
77.76927339934302
 20
137.0312114486693
 30
0.0
 10
77.77036302526005
 20
137.1680725627365
 30
0.0
 10
77.76853904928058
 20
137.2688437555338
 30
0.0
  0
SPLINE
  5
227
330
18B
100
AcDbEntity
  8
DV3_Standard
  6
Continuous
 62
     7
100
AcDbSpline
210
0.0
220
0.0
230
1.0
 70
     8
 71
     3
 72
    34
 73
    30
 74
     0
 42
0.0000000001038149
 43
0.0000000001
 40
0.0
 40
0.0
 40
0.0
 40
0.0
 40
0.0123936594792025
 40
0.0235366990742425
 40
0.0334291187851094
 40
0.0420709186117874
 40
0.0494620985542663
 40
0.0556026586125328
 40
0.0611488092901266
 40
0.0667595639460414
 40
0.0848139542451342
 40
0.103225299826407
 40
0.1689843800674153
 40
0.28641130906914
 40
0.496102253714079
 40
0.7629816378094619
 40
0.8804085668112742
 40
0.890742136563252
 40
0.9010585561886838
 40
0.9109867532011983
 40
0.920376105520375
 40
0.9293508149946148
 40
0.9354452034050944
 40
0.9428740215863665
 40
0.9516372695412858
 40
0.9617349472718973
 40
0.9731670547799429
 40
0.9859335920671632
 40
1.0
 40
1.0
 40
1.0
 40
1.0
 10
77.76822691539621
 20
137.2946558423179
 30
0.0
 10
77.76378535795705
 20
137.7323692925976
 30
0.0
 10
77.75668965277774
 20
138.4316479427084
 30
0.0
 10
77.74559204924341
 20
139.5253110643173
 30
0.0
 10
77.73596967584443
 20
140.4735899846716
 30
0.0
 10
77.72751317619135
 20
141.3069716395044
 30
0.0
 10
77.72029128476935
 20
142.0186825323352
 30
0.0
 10
77.7140753426652
 20
142.6312571314318
 30
0.0
 10
77.70843999096955
 20
143.186614365368
 30
0.0
 10
77.69892300322506
 20
144.1245008391661
 30
0.0
 10
77.68521459443107
 20
145.4754416485339
 30
0.0
 10
77.65190971605455
 20
148.7575596653083
 30
0.0
 10
77.58622805865213
 20
155.2302139721533
 30
0.0
 10
77.45821748869474
 20
167.8442567427309
 30
0.0
 10
77.2646388243252
 20
186.915643176125
 30
0.0
 10
77.07095365455915
 20
205.9870456801931
 30
0.0
 10
76.94239127253337
 20
218.6576860770575
 30
0.0
 10
76.89744609476394
 20
223.0908948550545
 30
0.0
 10
76.8874940309676
 20
224.0726623798731
 30
0.0
 10
76.87785064281064
 20
225.0241145195952
 30
0.0
 10
76.86864530158894
 20
225.9324863148926
 30
0.0
 10
76.86068821986962
 20
226.7177735924823
 30
0.0
 10
76.85337086650621
 20
227.4400936203513
 30
0.0
 10
76.84612225731907
 20
228.1556874861885
 30
0.0
 10
76.83757912454952
 20
228.9995012317811
 30
0.0
 10
76.82770915826475
 20
229.9732851223727
 30
0.0
 10
76.81666297188231
 20
231.0690927340854
 30
0.0
 10
76.80378857860724
 20
232.3210544334646
 30
0.0
 10
76.79628430548851
 20
233.1182780579704
 30
0.0
 10
76.79159906242074
 20
233.6150105365988
 30
0.0
  0
ARC
  5
228
330
18B
100
AcDbEntity
  8
DV3_Standard
  6
Continuous
 62
     7
100
AcDbCircle
 10
84.4645556566
 20
233.9094460705
 30
0.0
 40
7.678601069471883
100
AcDbArc
 50
167.2565969154
 51
182.1977080135
  0
SPLINE
  5
229
330
18B
100
AcDbEntity
  8
DV3_Standard
  6
Continuous
 62
     7
100
AcDbSpline
210
0.0
220
0.0
230
1.0
 70
     8
 71
     3
 72
    10
 73
     6
 74
     0
 42
0.0000003919693197
 43
0.0000000001
 40
0.0
 40
0.0
 40
0.0
 40
0.0
 40
0.4738292761496026
 40
0.8600575125603361
 40
1.0
 40
1.0
 40
1.0
 40
1.0
 10
76.98023219668045
 20
235.6329248415912
 30
0.0
 10
76.98302174568337
 20
235.6411102289768
 30
0.0
 10
76.98711484477182
 20
235.6534770495531
 30
0.0
 10
76.98814004705991
 20
235.6562849202615
 30
0.0
 10
76.98754163183175
 20
235.6562612860839
 30
0.0
 10
76.98731289318634
 20
235.6561606502264
 30
0.0
  0
SPLINE
  5
22A
330
18B
100
AcDbEntity
  8
DV3_Standard
  6
Continuous
 62
     7
100
AcDbSpline
210
0.0
220
0.0
230
1.0
 70
     8
 71
     3
 72
    11
 73
     7
 74
     0
 42
0.0000000163244421
 43
0.0000000001
 40
0.0
 40
0.0
 40
0.0
 40
0.0
 40
0.2808018810872882
 40
0.5833893478753673
 40
0.8799911889877428
 40
1.0
 40
1.0
 40
1.0
 40
1.0
 10
82.41282934596697
 20
224.7749882139715
 30
0.0
 10
82.47078953338885
 20
224.7987972306964
 30
0.0
 10
82.57257779527288
 20
224.8426086778076
 30
0.0
 10
82.71636674695256
 20
224.9552519920862
 30
0.0
 10
82.81211576763916
 20
225.0711058892228
 30
0.0
 10
82.85106881187883
 20
225.1402543909626
 30
0.0
 10
82.86400736696059
 20
225.1637008122044
 30
0.0
  0
LINE
  5
22B
330
18B
100
AcDbEntity
  8
DV3_Standard
  6
Continuous
 62
     7
100
AcDbLine
 10
82.8640066857
 20
225.1636995051
 30
0.0
 11
82.8765623214
 21
225.1877916258
 31
0.0
  0
SPLINE
  5
22C
330
18B
100
AcDbEntity
  8
DV3_Standard
  6
Continuous
 62
     7
100
AcDbSpline
210
0.0
220
0.0
230
1.0
 70
     8
 71
     3
 72
    10
 73
     6
 74
     0
 42
0.0000000237417775
 43
0.0000000001
 40
0.0
 40
0.0
 40
0.0
 40
0.0
 40
0.2361617561947105
 40
0.6461261014235449
 40
1.0
 40
1.0
 40
1.0
 40
1.0
 10
82.8748584181093
 20
225.1886580204317
 30
0.0
 10
82.89133347918848
 20
225.220976486831
 30
0.0
 10
82.92870401426816
 20
225.2961257780128
 30
0.0
 10
82.96486450192732
 20
225.4397595712075
 30
0.0
 10
82.96723496109846
 20
225.53825339415
 30
0.0
 10
82.9677229437236
 20
225.5926077937442
 30
0.0
  0
LINE
  5
22D
330
18B
100
AcDbEntity
  8
DV3_Standard
  6
Continuous
 62
     7
100
AcDbLine
 10
78.4648485813
 20
265.4967541309
 30
0.0
 11
62.4369197126
 21
265.4967541309
 31
0.0
  0
SPLINE
  5
22E
330
18B
100
AcDbEntity
  8
DV3_Standard
  6
Continuous
 62
     7
100
AcDbSpline
210
0.0
220
0.0
230
1.0
 70
     8
 71
     3
 72
     8
 73
     4
 74
     0
 42
0.0000000006138697
 43
0.0000000001
 40
0.0
 40
0.0
 40
0.0
 40
0.0
 40
1.0
 40
1.0
 40
1.0
 40
1.0
 10
82.96911598248097
 20
225.5803544236358
 30
0.0
 10
82.95752155133755
 20
226.9148259581687
 30
0.0
 10
82.91019254388361
 20
232.344653770935
 30
0.0
 10
82.82712896011914
 20
241.8698378619348
 30
0.0
  0
ARC
  5
22F
330
18B
100
AcDbEntity
  8
DV3_Standard
  6
Continuous
 62
     7
100
AcDbCircle
 10
78.4731103234
 20
264.5794851037
 30
0.0
 40
0.914796257529997
100
AcDbArc
 50
11.9968915821
 51
69.8093575778
  0
ARC
  5
230
330
18B
100
AcDbEntity
  8
DV3_Standard
  6
Continuous
 62
     7
100
AcDbCircle
 10
78.4731103234
 20
264.5794851037
 30
0.0
 40
0.914796257529997
100
AcDbArc
 50
71.6720107617
 51
78.4217931455
  0
LINE
  5
231
330
18B
100
AcDbEntity
  8
DV3_Standard
  6
Continuous
 62
     7
100
AcDbLine
 10
82.8271585694
 20
241.8698381402
 30
0.0
 11
82.81063553
 21
243.7636457768
 31
0.0
  0
ARC
  5
232
330
18B
100
AcDbEntity
  8
DV3_Standard
  6
Continuous
 62
     7
100
AcDbCircle
 10
-317.1809527996
 20
188.9870601977
 30
0.0
 40
403.7250321048344
100
AcDbArc
 50
7.8014857187
 51
10.8190907178
  0
ARC
  5
233
330
18B
100
AcDbEntity
  8
DV3_Standard
  6
Continuous
 62
     7
100
AcDbCircle
 10
82.6106447602
 20
243.7619008201
 30
0.0
 40
0.1999999999999998
100
AcDbArc
 50
0.4999009888
 51
7.8913445033
  0
SPLINE
  5
234
330
18B
100
AcDbEntity
  8
DV3_Standard
  6
Continuous
 62
     7
100
AcDbSpline
210
0.0
220
0.0
230
1.0
 70
     8
 71
     3
 72
    10
 73
     6
 74
     0
 42
0.0000003919693197
 43
0.0000000001
 40
0.0
 40
0.0
 40
0.0
 40
0.0
 40
0.1399424874371765
 40
0.5261707238490272
 40
1.0
 40
1.0
 40
1.0
 40
1.0
 10
47.88652653208496
 20
235.6561606502265
 30
0.0
 10
47.88629779343957
 20
235.6562612860839
 30
0.0
 10
47.88569937821143
 20
235.6562849202615
 30
0.0
 10
47.88672458049951
 20
235.6534770495531
 30
0.0
 10
47.89081767958795
 20
235.6411102289768
 30
0.0
 10
47.89360722859087
 20
235.6329248415912
 30
0.0
  0
ARC
  5
235
330
18B
100
AcDbEntity
  8
DV3_Standard
  6
Continuous
 62
     7
100
AcDbCircle
 10
40.3307834274
 20
233.9022013338
 30
0.0
 40
7.75677262191604
100
AcDbArc
 50
357.87800211
 51
12.6676929611
  0
SPLINE
  5
236
330
18B
100
AcDbEntity
  8
DV3_Standard
  6
Continuous
 62
     7
100
AcDbSpline
210
0.0
220
0.0
230
1.0
 70
     8
 71
     3
 72
    34
 73
    30
 74
     0
 42
0.0000000001038149
 43
0.0000000001
 40
0.0
 40
0.0
 40
0.0
 40
0.0
 40
0.0123647822484489
 40
0.0235120596433934
 40
0.0334072739666569
 40
0.0420504252227197
 40
0.0494415134172277
 40
0.0555805408929238
 40
0.0611281815765956
 40
0.0667401579293434
 40
0.0847966362307117
 40
0.1032080230329284
 40
0.1689671032280113
 40
0.286394032150196
 40
0.4960849766519501
 40
0.7629643605617313
 40
0.8803912894826393
 40
0.8907248592276817
 40
0.9010410291225884
 40
0.9109678197329734
 40
0.9203550955292006
 40
0.9293288049052683
 40
0.9354249549365973
 40
0.9428543499620193
 40
0.95161698998152
 40
0.9617128749950837
 40
0.9731420050026955
 40
0.9859043800043396
 40
1.0
 40
1.0
 40
1.0
 40
1.0
 10
48.08224036285058
 20
233.6150105365988
 30
0.0
 10
48.07816373592438
 20
233.1783767315327
 30
0.0
 10
48.071657719913
 20
232.4799021217655
 30
0.0
 10
48.06039552224649
 20
231.3869206363325
 30
0.0
 10
48.05084059591049
 20
230.4384045425843
 30
0.0
 10
48.04239252829781
 20
229.6049032889166
 30
0.0
 10
48.03518817981164
 20
228.8932105767352
 30
0.0
 10
48.0289836594914
 20
228.2806439305122
 30
0.0
 10
48.02335775804841
 20
227.7252498163671
 30
0.0
 10
48.01385486799484
 20
226.7872116805748
 30
0.0
 10
48.00016525944751
 20
225.4361660441662
 30
0.0
 10
47.96689884814448
 20
222.1539854069113
 30
0.0
 10
47.90125752112107
 20
215.6813355910835
 30
0.0
 10
47.77322707289552
 20
203.0672900879871
 30
0.0
 10
47.5795594425885
 20
183.99589088375
 30
0.0
 10
47.38598752793369
 20
164.9245046299829
 30
0.0
 10
47.25740846190774
 20
152.2538616777988
 30
0.0
 10
47.21242263592845
 20
147.8206550233766
 30
0.0
 10
47.20246075392395
 20
146.8389391468675
 30
0.0
 10
47.19280721268301
 20
145.8876052793948
 30
0.0
 10
47.18359109795808
 20
144.9793753784921
 30
0.0
 10
47.17562296888197
 20
144.1941295048304
 30
0.0
 10
47.16829289720098
 20
143.4717614533558
 30
0.0
 10
47.16103094221039
 20
142.7561048431565
 30
0.0
 10
47.15246904170426
 20
141.9123385230615
 30
0.0
 10
47.14258948286314
 20
140.9387164108513
 30
0.0
 10
47.13147269121334
 20
139.8431640848112
 30
0.0
 10
47.11876183567461
 20
138.5905160567589
 30
0.0
 10
47.11066400481474
 20
137.7924783360858
 30
0.0
 10
47.10561250987512
 20
137.2946558423179
 30
0.0
  0
ARC
  5
237
330
18B
100
AcDbEntity
  8
DV3_Standard
  6
Continuous
 62
     7
100
AcDbCircle
 10
47.8951561593
 20
137.1587980467
 30
0.0
 40
0.7974849317564842
100
AcDbArc
 50
172.0683917868
 51
231.4169060531
  0
ARC
  5
238
330
18B
100
AcDbEntity
  8
DV3_Standard
  6
Continuous
 62
     7
100
AcDbCircle
 10
48.0953992731
 20
137.4849379152
 30
0.0
 40
1.178244055140377
100
AcDbArc
 50
233.6964360969
 51
266.2486921525
  0
SPLINE
  5
239
330
18B
100
AcDbEntity
  8
DV3_Standard
  6
Continuous
 62
     7
100
AcDbSpline
210
0.0
220
0.0
230
1.0
 70
     8
 71
     3
 72
    11
 73
     7
 74
     0
 42
0.0000000159853952
 43
0.0000000001
 40
0.0
 40
0.0
 40
0.0
 40
0.0
 40
0.1707263475057989
 40
0.4543457745468931
 40
0.7426306851716628
 40
1.0
 40
1.0
 40
1.0
 40
1.0
 10
42.00983205831072
 20
225.1637008122044
 30
0.0
 10
42.02900189489355
 20
225.1298336058392
 30
0.0
 10
42.07331446481873
 20
225.053575360658
 30
0.0
 10
42.17883950907023
 20
224.9359463709023
 30
0.0
 10
42.32048481874372
 20
224.8316320969699
 30
0.0
 10
42.41867861295237
 20
224.7920982703607
 30
0.0
 10
42.47342955200337
 20
224.771026105546
 30
0.0
  0
LINE
  5
23A
330
18B
100
AcDbEntity
  8
DV3_Standard
  6
Continuous
 62
     7
100
AcDbLine
 10
41.9972771038
 20
225.1877916258
 30
0.0
 11
42.0098327395
 21
225.1636995051
 31
0.0
  0
SPLINE
  5
23B
330
18B
100
AcDbEntity
  8
DV3_Standard
  6
Continuous
 62
     7
100
AcDbSpline
210
0.0
220
0.0
230
1.0
 70
     8
 71
     3
 72
    10
 73
     6
 74
     0
 42
0.0000000245953824
 43
0.0000000001
 40
0.0
 40
0.0
 40
0.0
 40
0.0
 40
0.4164828772959823
 40
0.8291359836450494
 40
1.0
 40
1.0
 40
1.0
 40
1.0
 10
41.9051321396589
 20
225.5781054610584
 30
0.0
 10
41.90748202680884
 20
225.5163856544976
 30
0.0
 10
41.91300160145168
 20
225.4135573348546
 30
0.0
 10
41.95340074335456
 20
225.2763432067126
 30
0.0
 10
41.98667262511772
 20
225.21084719872
 30
0.0
 10
41.99832209308178
 20
225.1883446665113
 30
0.0
  0
LINE
  5
23C
330
18B
100
AcDbEntity
  8
DV3_Standard
  6
Continuous
 62
     7
100
AcDbLine
 10
62.4369197126
 20
265.4967541309
 30
0.0
 11
46.408990844
 21
265.4967541309
 31
0.0
  0
SPLINE
  5
23D
330
18B
100
AcDbEntity
  8
DV3_Standard
  6
Continuous
 62
     7
100
AcDbSpline
210
0.0
220
0.0
230
1.0
 70
     8
 71
     3
 72
     8
 73
     4
 74
     0
 42
0.0000000006138697
 43
0.0000000001
 40
0.0
 40
0.0
 40
0.0
 40
0.0
 40
1.0
 40
1.0
 40
1.0
 40
1.0
 10
42.04668453053309
 20
241.8698381110878
 30
0.0
 10
42.03501982781871
 20
240.5353735088831
 30
0.0
 10
41.98770825882982
 20
235.1055454843608
 30
0.0
 10
41.90474982356642
 20
225.5803540375211
 30
0.0
  0
ARC
  5
23E
330
18B
100
AcDbEntity
  8
DV3_Standard
  6
Continuous
 62
     7
100
AcDbCircle
 10
46.3810984332
 20
264.5897329829
 30
0.0
 40
0.8939605467346684
100
AcDbArc
 50
109.2893881391
 51
168.3838088256
  0
LINE
  5
23F
330
18B
100
AcDbEntity
  8
DV3_Standard
  6
Continuous
 62
     7
100
AcDbLine
 10
42.0632070739
 20
243.7636457415
 30
0.0
 11
42.0466824434
 21
241.8698381341
 31
0.0
  0
ARC
  5
240
330
18B
100
AcDbEntity
  8
DV3_Standard
  6
Continuous
 62
     7
100
AcDbCircle
 10
439.7526008211
 20
189.5040144254
 30
0.0
 40
401.3702070425124
100
AcDbArc
 50
169.1917203528
 51
172.2270035545
  0
ARC
  5
241
330
18B
100
AcDbEntity
  8
DV3_Standard
  6
Continuous
 62
     7
100
AcDbCircle
 10
42.2631946651
 20
243.7619008201
 30
0.0
 40
0.2000000000000004
100
AcDbArc
 50
172.1086554967
 51
179.5000990112
  0
LINE
  5
242
330
18B
100
AcDbEntity
  8
DV3_Standard
  6
Continuous
 62
     7
100
AcDbLine
 10
64.1619197126
 20
267.1108540411
 30
0.0
 11
64.1619197126
 21
267.331443838
 31
0.0
  0
LINE
  5
243
330
18B
100
AcDbEntity
  8
DV3_Standard
  6
Continuous
 62
     7
100
AcDbLine
 10
60.7119197126
 20
267.331443838
 30
0.0
 11
60.7119197126
 21
267.1108540411
 31
0.0
  0
LINE
  5
244
330
18B
100
AcDbEntity
  8
DV3_Standard
  6
Continuous
 62
     7
100
AcDbLine
 10
71.9369197126
 20
267.331443838
 30
0.0
 11
52.9369197126
 21
267.331443838
 31
0.0
  0
LINE
  5
245
330
18B
100
AcDbEntity
  8
DV3_Standard
  6
Continuous
 62
     7
100
AcDbLine
 10
52.9369197126
 20
282.3312263801
 30
0.0
 11
71.9369197126
 21
282.3312263801
 31
0.0
  0
LINE
  5
246
330
18B
100
AcDbEntity
  8
DV3_Standard
  6
Continuous
 62
     7
100
AcDbLine
 10
52.4369197126
 20
267.831443838
 30
0.0
 11
52.4369197126
 21
281.8312263801
 31
0.0
  0
LINE
  5
247
330
18B
100
AcDbEntity
  8
DV3_Standard
  6
Continuous
 62
     7
100
AcDbLine
 10
72.4369197126
 20
281.8312263801
 30
0.0
 11
72.4369197126
 21
267.831443838
 31
0.0
  0
ARC
  5
248
330
18B
100
AcDbEntity
  8
DV3_Standard
  6
Continuous
 62
     7
100
AcDbCircle
 10
52.9369197126
 20
281.8312263801
 30
0.0
 40
0.5000000000000004
100
AcDbArc
 50
90.0
 51
180.0
  0
ARC
  5
249
330
18B
100
AcDbEntity
  8
DV3_Standard
  6
Continuous
 62
     7
100
AcDbCircle
 10
71.9369197126
 20
281.8312263801
 30
0.0
 40
0.5000000000000004
100
AcDbArc
 50
0.0
 51
90.0
  0
ARC
  5
24A
330
18B
100
AcDbEntity
  8
DV3_Standard
  6
Continuous
 62
     7
100
AcDbCircle
 10
52.9369197126
 20
267.831443838
 30
0.0
 40
0.5000000000000004
100
AcDbArc
 50
180.0
 51
270.0
  0
ARC
  5
24B
330
18B
100
AcDbEntity
  8
DV3_Standard
  6
Continuous
 62
     7
100
AcDbCircle
 10
71.9369197126
 20
267.831443838
 30
0.0
 40
0.5000000000000004
100
AcDbArc
 50
270.0
 51
0.0
  0
ENDBLK
  5
24D
330
18B
100
AcDbEntity
  8
0
100
AcDbBlockEnd
  0
ENDSEC
  0
SECTION
  2
ENTITIES
  0
INSERT
  5
5F
330
1F
100
AcDbEntity
  8
Default
100
AcDbBlockReference
  2
SEANNOT_GROUP
 10
0.0
 20
0.0
 30
0.0
  0
INSERT
  5
66
330
1F
100
AcDbEntity
  8
Default
100
AcDbBlockReference
  2
SEANNOT_GROUP1
 10
0.0
 20
0.0
 30
0.0
  0
INSERT
  5
6C
330
1F
100
AcDbEntity
  8
Default
100
AcDbBlockReference
  2
SEANNOT_GROUP2
 10
0.0
 20
0.0
 30
0.0
  0
INSERT
  5
71
330
1F
100
AcDbEntity
  8
Default
100
AcDbBlockReference
  2
SEANNOT_GROUP3
 10
0.0
 20
0.0
 30
0.0
  0
INSERT
  5
76
330
1F
100
AcDbEntity
  8
Default
100
AcDbBlockReference
  2
SE
 10
0.0
 20
0.0
 30
0.0
  0
INSERT
  5
140
330
1F
100
AcDbEntity
  8
Default
100
AcDbBlockReference
  2
SE1
 10
0.0
 20
0.0
 30
0.0
  0
INSERT
  5
18C
330
1F
100
AcDbEntity
  8
Default
100
AcDbBlockReference
  2
SE2
 10
0.0
 20
0.0
 30
0.0
  0
TEXT
  5
24F
330
1F
100
AcDbEntity
  8
Default
  6
Continuous
 62
     7
100
AcDbText
 10
5.9362635081
 20
53.4225120485
 30
0.0
 40
10.0
  1
Grohe AG^J
  7
SEACAD_seiso_ttf
 11
5.9362635081
 21
63.4225120485
 31
0.0
100
AcDbText
 73
     3
  0
TEXT
  5
250
330
1F
100
AcDbEntity
  8
Default
  6
Continuous
 62
     7
100
AcDbText
 10
5.9362635081
 20
37.0588756849
 30
0.0
 40
10.0
  1
 
  7
SEACAD_seiso_ttf
 11
5.9362635081
 21
47.0588756849
 31
0.0
100
AcDbText
 73
     3
  0
TEXT
  5
251
330
1F
100
AcDbEntity
  8
Default
  6
Continuous
 62
     7
100
AcDbText
 10
5.9362635081
 20
20.6952393213
 30
0.0
 40
10.0
  1
ecn: 
  7
SEACAD_seiso_ttf
 11
5.9362635081
 21
30.6952393213
 31
0.0
100
AcDbText
 73
     3
  0
TEXT
  5
252
330
1F
100
AcDbEntity
  8
Default
  6
Continuous
 62
     7
100
AcDbText
 10
5.9362635081
 20
4.3316029576
 30
0.0
 40
10.0
  1
unit: mm
  7
SEACAD_seiso_ttf
 11
5.9362635081
 21
14.3316029576
 31
0.0
100
AcDbText
 73
     3
  0
LINE
  5
253
330
1F
100
AcDbEntity
  8
Default
  6
Continuous
 62
     7
100
AcDbLine
 10
0.0
 20
0.0
 30
0.0
 11
100.0
 21
0.0
 31
0.0
  0
LINE
  5
254
330
1F
100
AcDbEntity
  8
Default
  6
Continuous
 62
     7
100
AcDbLine
 10
0.0
 20
0.0
 30
0.0
 11
0.0
 21
100.0
 31
0.0
  0
TEXT
  5
255
330
1F
100
AcDbEntity
  8
Default
  6
Continuous
 62
     7
100
AcDbText
 10
24.3923665681
 20
-18.2375342018
 30
0.0
 40
10.0
  1
100 mm
  7
SEACAD_seiso_ttf
 11
24.3923665681
 21
-8.2375342018
 31
0.0
100
AcDbText
 73
     3
  0
TEXT
  5
256
330
1F
100
AcDbEntity
  8
Default
  6
Continuous
 62
     7
100
AcDbText
 10
-7.6150308803
 20
24.6231930421
 30
0.0
 40
10.0
  1
100 mm
 50
90.0
  7
SEACAD_seiso_ttf
 11
-17.6150308803
 21
24.6231930421
 31
0.0
100
AcDbText
 73
     3
  0
TEXT
  5
257
330
1F
100
AcDbEntity
  8
Default
  6
Continuous
 62
     7
100
AcDbText
 10
28.4878128572
 20
20.0907663715
 30
0.0
 40
10.0
  1
221655
  7
SEACAD_seiso_ttf
 11
28.4878128572
 21
30.0907663715
 31
0.0
100
AcDbText
 73
     3
  0
TEXT
  5
258
330
1F
100
AcDbEntity
  8
Default
  6
Continuous
 62
     7
100
AcDbText
 10
5.9012241913
 20
36.7242780188
 30
0.0
 40
10.0
  1
23034000
  7
SEACAD_seiso_ttf
 11
5.9012241913
 21
46.7242780188
 31
0.0
100
AcDbText
 73
     3
  0
ENDSEC
  0
SECTION
  2
OBJECTS
  0
DICTIONARY
  5
C
330
0
100
AcDbDictionary
281
     1
  3
ACAD_GROUP
350
D
  3
ACAD_LAYOUT
350
1A
  3
ACAD_MLEADERSTYLE
350
25C
  3
ACAD_MLINESTYLE
350
17
  3
ACAD_PLOTSETTINGS
350
19
  3
ACAD_PLOTSTYLENAME
350
E
  3
ACAD_SCALELIST
350
3B
  3
ACAD_TABLESTYLE
350
25B
  3
ACAD_VISUALSTYLE
350
2A
  3
AcDbVariableDictionary
350
259
  0
DICTIONARY
  5
D
102
{ACAD_REACTORS
330
C
102
}
330
C
100
AcDbDictionary
281
     1
  0
DICTIONARY
  5
1A
102
{ACAD_REACTORS
330
C
102
}
330
C
100
AcDbDictionary
281
     1
  3
Layout1
350
1E
  3
Model
350
22
  0
DICTIONARY
  5
25C
102
{ACAD_REACTORS
330
C
102
}
330
C
100
AcDbDictionary
281
     1
  0
DICTIONARY
  5
17
102
{ACAD_REACTORS
330
C
102
}
330
C
100
AcDbDictionary
281
     1
  3
Standard
350
18
  0
DICTIONARY
  5
19
102
{ACAD_REACTORS
330
C
102
}
330
C
100
AcDbDictionary
281
     1
  0
ACDBDICTIONARYWDFLT
  5
E
102
{ACAD_REACTORS
330
C
102
}
330
C
100
AcDbDictionary
281
     1
  3
Normal
350
F
100
AcDbDictionaryWithDefault
340
F
  0
DICTIONARY
  5
3B
102
{ACAD_REACTORS
330
C
102
}
330
C
100
AcDbDictionary
281
     1
  3
A0
350
3C
  3
A1
350
3D
  3
A2
350
3E
  3
A3
350
3F
  3
A4
350
40
  3
A5
350
41
  3
A6
350
42
  3
A7
350
43
  3
A8
350
44
  3
A9
350
45
  3
B0
350
46
  3
B1
350
47
  3
B2
350
48
  3
B3
350
49
  3
B4
350
4A
  3
B5
350
4B
  3
B6
350
4C
  3
B7
350
4D
  3
B8
350
4E
  3
B9
350
4F
  3
C0
350
50
  3
C1
350
51
  3
C2
350
52
  3
C3
350
53
  3
C4
350
54
  3
C5
350
55
  3
C6
350
56
  3
C7
350
57
  3
C8
350
58
  3
C9
350
59
  3
D0
350
5A
  3
D1
350
5B
  3
D2
350
5C
  0
DICTIONARY
  5
25B
102
{ACAD_REACTORS
330
C
102
}
330
C
100
AcDbDictionary
281
     1
  0
DICTIONARY
  5
2A
102
{ACAD_REACTORS
330
C
102
}
330
C
100
AcDbDictionary
281
     1
  3
2dWireframe
350
2F
  3
3D Hidden
350
31
  3
3dWireframe
350
30
  3
Basic
350
32
  3
Brighten
350
36
  3
ColorChange
350
3A
  3
Conceptual
350
34
  3
Dim
350
35
  3
Facepattern
350
39
  3
Flat
350
2B
  3
FlatWithEdges
350
2C
  3
Gouraud
350
2D
  3
GouraudWithEdges
350
2E
  3
Linepattern
350
38
  3
Realistic
350
33
  3
Thicken
350
37
  0
DICTIONARY
  5
259
102
{ACAD_REACTORS
330
C
102
}
330
C
100
AcDbDictionary
281
     1
  3
CANNOSCALE
350
25A
  3
PSOLHEIGHT
350
25E
  3
PSOLWIDTH
350
25D
  0
LAYOUT
  5
1E
102
{ACAD_REACTORS
330
1A
102
}
330
1A
100
AcDbPlotSettings
  1

  2
none_device
  4

  6

 40
0.0
 41
0.0
 42
0.0
 43
0.0
 44
0.0
 45
0.0
 46
0.0
 47
0.0
 48
0.0
 49
0.0
140
0.0
141
0.0
142
1.0
143
1.0
 70
   688
 72
     0
 73
     0
 74
     5
  7

 75
    16
147
1.0
148
0.0
149
0.0
100
AcDbLayout
  1
Layout1
 70
     1
 71
     1
 10
0.0
 20
0.0
 11
1682.0
 21
2378.0
 12
0.0
 22
0.0
 32
0.0
 14
0.0
 24
0.0
 34
0.0
 15
1682.0
 25
2378.0
 35
0.0
146
0.0
 13
0.0
 23
0.0
 33
0.0
 16
1.0
 26
0.0
 36
0.0
 17
0.0
 27
1.0
 37
0.0
 76
     0
330
1B
  0
LAYOUT
  5
22
102
{ACAD_REACTORS
330
1A
102
}
330
1A
100
AcDbPlotSettings
  1

  2
none_device
  4

  6

 40
0.0
 41
0.0
 42
0.0
 43
0.0
 44
0.0
 45
0.0
 46
0.0
 47
0.0
 48
0.0
 49
0.0
140
0.0
141
0.0
142
1.0
143
1.0
 70
  1712
 72
     0
 73
     0
 74
     0
  7

 75
     0
147
1.0
148
0.0
149
0.0
100
AcDbLayout
  1
Model
 70
     1
 71
     0
 10
0.0
 20
0.0
 11
1682.0
 21
2378.0
 12
0.0
 22
0.0
 32
0.0
 14
0.0
 24
0.0
 34
0.0
 15
1682.0
 25
2378.0
 35
0.0
146
0.0
 13
0.0
 23
0.0
 33
0.0
 16
1.0
 26
0.0
 36
0.0
 17
0.0
 27
1.0
 37
0.0
 76
     0
330
1F
331
29
  0
MLINESTYLE
  5
18
102
{ACAD_REACTORS
330
17
102
}
330
17
100
AcDbMlineStyle
  2
Standard
 70
     0
  3

 62
   256
 51
90.0
 52
90.0
 71
     2
 49
0.5
 62
   256
  6
BYLAYER
 49
-0.5
 62
   256
  6
BYLAYER
  0
ACDBPLACEHOLDER
  5
F
102
{ACAD_REACTORS
330
E
102
}
330
E
  0
SCALE
  5
3C
102
{ACAD_REACTORS
330
3B
102
}
330
3B
100
AcDbScale
 70
     0
300
1:1
140
1.0
141
1.0
290
     1
  0
SCALE
  5
3D
102
{ACAD_REACTORS
330
3B
102
}
330
3B
100
AcDbScale
 70
     0
300
1:2
140
1.0
141
2.0
290
     0
  0
SCALE
  5
3E
102
{ACAD_REACTORS
330
3B
102
}
330
3B
100
AcDbScale
 70
     0
300
1:4
140
1.0
141
4.0
290
     0
  0
SCALE
  5
3F
102
{ACAD_REACTORS
330
3B
102
}
330
3B
100
AcDbScale
 70
     0
300
1:5
140
1.0
141
5.0
290
     0
  0
SCALE
  5
40
102
{ACAD_REACTORS
330
3B
102
}
330
3B
100
AcDbScale
 70
     0
300
1:8
140
1.0
141
8.0
290
     0
  0
SCALE
  5
41
102
{ACAD_REACTORS
330
3B
102
}
330
3B
100
AcDbScale
 70
     0
300
1:10
140
1.0
141
10.0
290
     0
  0
SCALE
  5
42
102
{ACAD_REACTORS
330
3B
102
}
330
3B
100
AcDbScale
 70
     0
300
1:16
140
1.0
141
16.0
290
     0
  0
SCALE
  5
43
102
{ACAD_REACTORS
330
3B
102
}
330
3B
100
AcDbScale
 70
     0
300
1:20
140
1.0
141
20.0
290
     0
  0
SCALE
  5
44
102
{ACAD_REACTORS
330
3B
102
}
330
3B
100
AcDbScale
 70
     0
300
1:30
140
1.0
141
30.0
290
     0
  0
SCALE
  5
45
102
{ACAD_REACTORS
330
3B
102
}
330
3B
100
AcDbScale
 70
     0
300
1:40
140
1.0
141
40.0
290
     0
  0
SCALE
  5
46
102
{ACAD_REACTORS
330
3B
102
}
330
3B
100
AcDbScale
 70
     0
300
1:50
140
1.0
141
50.0
290
     0
  0
SCALE
  5
47
102
{ACAD_REACTORS
330
3B
102
}
330
3B
100
AcDbScale
 70
     0
300
1:100
140
1.0
141
100.0
290
     0
  0
SCALE
  5
48
102
{ACAD_REACTORS
330
3B
102
}
330
3B
100
AcDbScale
 70
     0
300
2:1
140
2.0
141
1.0
290
     0
  0
SCALE
  5
49
102
{ACAD_REACTORS
330
3B
102
}
330
3B
100
AcDbScale
 70
     0
300
4:1
140
4.0
141
1.0
290
     0
  0
SCALE
  5
4A
102
{ACAD_REACTORS
330
3B
102
}
330
3B
100
AcDbScale
 70
     0
300
8:1
140
8.0
141
1.0
290
     0
  0
SCALE
  5
4B
102
{ACAD_REACTORS
330
3B
102
}
330
3B
100
AcDbScale
 70
     0
300
10:1
140
10.0
141
1.0
290
     0
  0
SCALE
  5
4C
102
{ACAD_REACTORS
330
3B
102
}
330
3B
100
AcDbScale
 70
     0
300
100:1
140
100.0
141
1.0
290
     0
  0
SCALE
  5
4D
102
{ACAD_REACTORS
330
3B
102
}
330
3B
100
AcDbScale
 70
     0
300
1/128" = 1'-0"
140
0.0078125
141
12.0
290
     0
  0
SCALE
  5
4E
102
{ACAD_REACTORS
330
3B
102
}
330
3B
100
AcDbScale
 70
     0
300
1/64" = 1'-0"
140
0.015625
141
12.0
290
     0
  0
SCALE
  5
4F
102
{ACAD_REACTORS
330
3B
102
}
330
3B
100
AcDbScale
 70
     0
300
1/32" = 1'-0"
140
0.03125
141
12.0
290
     0
  0
SCALE
  5
50
102
{ACAD_REACTORS
330
3B
102
}
330
3B
100
AcDbScale
 70
     0
300
1/16" = 1'-0"
140
0.0625
141
12.0
290
     0
  0
SCALE
  5
51
102
{ACAD_REACTORS
330
3B
102
}
330
3B
100
AcDbScale
 70
     0
300
3/32" = 1'-0"
140
0.09375
141
12.0
290
     0
  0
SCALE
  5
52
102
{ACAD_REACTORS
330
3B
102
}
330
3B
100
AcDbScale
 70
     0
300
1/8" = 1'-0"
140
0.125
141
12.0
290
     0
  0
SCALE
  5
53
102
{ACAD_REACTORS
330
3B
102
}
330
3B
100
AcDbScale
 70
     0
300
3/16" = 1'-0"
140
0.1875
141
12.0
290
     0
  0
SCALE
  5
54
102
{ACAD_REACTORS
330
3B
102
}
330
3B
100
AcDbScale
 70
     0
300
1/4" = 1'-0"
140
0.25
141
12.0
290
     0
  0
SCALE
  5
55
102
{ACAD_REACTORS
330
3B
102
}
330
3B
100
AcDbScale
 70
     0
300
3/8" = 1'-0"
140
0.375
141
12.0
290
     0
  0
SCALE
  5
56
102
{ACAD_REACTORS
330
3B
102
}
330
3B
100
AcDbScale
 70
     0
300
1/2" = 1'-0"
140
0.5
141
12.0
290
     0
  0
SCALE
  5
57
102
{ACAD_REACTORS
330
3B
102
}
330
3B
100
AcDbScale
 70
     0
300
3/4" = 1'-0"
140
0.75
141
12.0
290
     0
  0
SCALE
  5
58
102
{ACAD_REACTORS
330
3B
102
}
330
3B
100
AcDbScale
 70
     0
300
1" = 1'-0"
140
1.0
141
12.0
290
     0
  0
SCALE
  5
59
102
{ACAD_REACTORS
330
3B
102
}
330
3B
100
AcDbScale
 70
     0
300
1-1/2" = 1'-0"
140
1.5
141
12.0
290
     0
  0
SCALE
  5
5A
102
{ACAD_REACTORS
330
3B
102
}
330
3B
100
AcDbScale
 70
     0
300
3" = 1'-0"
140
3.0
141
12.0
290
     0
  0
SCALE
  5
5B
102
{ACAD_REACTORS
330
3B
102
}
330
3B
100
AcDbScale
 70
     0
300
6" = 1'-0"
140
6.0
141
12.0
290
     0
  0
SCALE
  5
5C
102
{ACAD_REACTORS
330
3B
102
}
330
3B
100
AcDbScale
 70
     0
300
1'-0" = 1'-0"
140
12.0
141
12.0
290
     0
  0
VISUALSTYLE
  5
2F
102
{ACAD_REACTORS
330
2A
102
}
330
2A
100
AcDbVisualStyle
  2
2dWireframe
 70
     4
 71
     0
 72
     2
 73
     0
 90
        0
 40
-0.6
 41
-30.0
 62
     5
 63
     7
 74
     1
 91
        4
 64
     7
 65
   257
 75
     1
175
     1
 42
1.0
 92
        0
 66
   257
 43
1.0
 76
     1
 77
     6
 78
     2
 67
     7
 79
     5
170
     0
171
     0
290
     0
174
     0
 93
        1
 44
0.0
173
     0
291
     0
 45
0.0
1001
ACAD
1000
AcDbSavedByObjectVersion
1070
     0
  0
VISUALSTYLE
  5
31
102
{ACAD_REACTORS
330
2A
102
}
330
2A
100
AcDbVisualStyle
  2
3D Hidden
 70
     6
 71
     1
 72
     2
 73
     2
 90
        0
 40
-0.6
 41
-30.0
 62
     5
 63
     7
 74
     2
 91
        2
 64
     7
 65
   257
 75
     2
175
     1
 42
40.0
 92
        0
 66
   257
 43
1.0
 76
     1
 77
     6
 78
     2
 67
     7
 79
     3
170
     0
171
     0
290
     0
174
     0
 93
        1
 44
0.0
173
     0
291
     0
 45
0.0
1001
ACAD
1000
AcDbSavedByObjectVersion
1070
     0
  0
VISUALSTYLE
  5
30
102
{ACAD_REACTORS
330
2A
102
}
330
2A
100
AcDbVisualStyle
  2
3dWireframe
 70
     5
 71
     0
 72
     2
 73
     0
 90
        0
 40
-0.6
 41
-30.0
 62
     5
 63
     7
 74
     1
 91
        4
 64
     7
 65
   257
 75
     1
175
     1
 42
1.0
 92
        0
 66
   257
 43
1.0
 76
     1
 77
     6
 78
     2
 67
     7
 79
     5
170
     0
171
     0
290
     0
174
     0
 93
        1
 44
0.0
173
     0
291
     0
 45
0.0
1001
ACAD
1000
AcDbSavedByObjectVersion
1070
     0
  0
VISUALSTYLE
  5
32
102
{ACAD_REACTORS
330
2A
102
}
330
2A
100
AcDbVisualStyle
  2
Basic
 70
     7
 71
     1
 72
     0
 73
     1
 90
        0
 40
-0.6
 41
-30.0
 62
     5
 63
     7
 74
     0
 91
        4
 64
     7
 65
   257
 75
     1
175
     1
 42
1.0
 92
        8
 66
     7
 43
1.0
 76
     1
 77
     6
 78
     2
 67
     7
 79
     5
170
     0
171
     0
290
     0
174
     0
 93
        1
 44
0.0
173
     0
291
     1
 45
0.0
1001
ACAD
1000
AcDbSavedByObjectVersion
1070
     0
  0
VISUALSTYLE
  5
36
102
{ACAD_REACTORS
330
2A
102
}
330
2A
100
AcDbVisualStyle
  2
Brighten
 70
    12
 71
     2
 72
     2
 73
     0
 90
        0
 40
-0.6
 41
-30.0
 62
     5
 63
     7
 74
     1
 91
        4
 64
     7
 65
   257
 75
     1
175
     1
 42
1.0
 92
        8
 66
     7
 43
1.0
 76
     1
 77
     6
 78
     2
 67
     7
 79
     5
170
     0
171
     0
290
     0
174
     0
 93
        1
 44
50.0
173
     0
291
     1
 45
0.0
1001
ACAD
1000
AcDbSavedByObjectVersion
1070
     0
  0
VISUALSTYLE
  5
3A
102
{ACAD_REACTORS
330
2A
102
}
330
2A
100
AcDbVisualStyle
  2
ColorChange
 70
    16
 71
     2
 72
     2
 73
     3
 90
        0
 40
-0.6
 41
-30.0
 62
     5
 63
     8
 74
     1
 91
        4
 64
     7
 65
   257
 75
     1
175
     1
 42
1.0
 92
        8
 66
     8
 43
1.0
 76
     1
 77
     6
 78
     2
 67
     7
 79
     5
170
     0
171
     0
290
     0
174
     0
 93
        1
 44
0.0
173
     0
291
     1
 45
0.0
1001
ACAD
1000
AcDbSavedByObjectVersion
1070
     0
  0
VISUALSTYLE
  5
34
102
{ACAD_REACTORS
330
2A
102
}
330
2A
100
AcDbVisualStyle
  2
Conceptual
 70
     9
 71
     3
 72
     2
 73
     0
 90
        0
 40
-0.6
 41
-30.0
 62
     5
 63
     7
 74
     2
 91
        2
 64
     7
 65
   257
 75
     1
175
     1
 42
40.0
 92
        8
 66
     7
 43
1.0
 76
     1
 77
     6
 78
     2
 67
     7
 79
     3
170
     0
171
     0
290
     0
174
     0
 93
        1
 44
0.0
173
     0
291
     0
 45
0.0
1001
ACAD
1000
AcDbSavedByObjectVersion
1070
     0
  0
VISUALSTYLE
  5
35
102
{ACAD_REACTORS
330
2A
102
}
330
2A
100
AcDbVisualStyle
  2
Dim
 70
    11
 71
     2
 72
     2
 73
     0
 90
        0
 40
-0.6
 41
-30.0
 62
     5
 63
     7
 74
     1
 91
        4
 64
     7
 65
   257
 75
     1
175
     1
 42
1.0
 92
        8
 66
     7
 43
1.0
 76
     1
 77
     6
 78
     2
 67
     7
 79
     5
170
     0
171
     0
290
     0
174
     0
 93
        1
 44
-50.0
173
     0
291
     1
 45
0.0
1001
ACAD
1000
AcDbSavedByObjectVersion
1070
     0
  0
VISUALSTYLE
  5
39
102
{ACAD_REACTORS
330
2A
102
}
330
2A
100
AcDbVisualStyle
  2
Facepattern
 70
    15
 71
     2
 72
     2
 73
     0
 90
        0
 40
-0.6
 41
-30.0
 62
     5
 63
     7
 74
     1
 91
        4
 64
     7
 65
   257
 75
     1
175
     1
 42
1.0
 92
        8
 66
     7
 43
1.0
 76
     1
 77
     6
 78
     2
 67
     7
 79
     5
170
     0
171
     0
290
     0
174
     0
 93
        1
 44
0.0
173
     0
291
     1
 45
0.0
1001
ACAD
1000
AcDbSavedByObjectVersion
1070
     0
  0
VISUALSTYLE
  5
2B
102
{ACAD_REACTORS
330
2A
102
}
330
2A
100
AcDbVisualStyle
  2
Flat
 70
     0
 71
     2
 72
     1
 73
     1
 90
        2
 40
-0.6
 41
30.0
 62
     5
 63
     7
 74
     0
 91
        4
 64
     7
 65
   257
 75
     1
175
     1
 42
1.0
 92
        8
 66
     7
 43
1.0
 76
     1
 77
     6
 78
     2
 67
     7
 79
     5
170
     0
171
     0
290
     0
174
     0
 93
       13
 44
0.0
173
     0
291
     1
 45
0.0
1001
ACAD
1000
AcDbSavedByObjectVersion
1070
     0
  0
VISUALSTYLE
  5
2C
102
{ACAD_REACTORS
330
2A
102
}
330
2A
100
AcDbVisualStyle
  2
FlatWithEdges
 70
     1
 71
     2
 72
     1
 73
     1
 90
        2
 40
-0.6
 41
30.0
 62
     5
 63
     7
 74
     1
 91
        4
 64
     7
 65
   257
 75
     1
175
     1
 42
1.0
 92
        0
 66
   257
 43
1.0
 76
     1
 77
     6
 78
     2
 67
     7
 79
     5
170
     0
171
     0
290
     0
174
     0
 93
       13
 44
0.0
173
     0
291
     1
 45
0.0
1001
ACAD
1000
AcDbSavedByObjectVersion
1070
     0
  0
VISUALSTYLE
  5
2D
102
{ACAD_REACTORS
330
2A
102
}
330
2A
100
AcDbVisualStyle
  2
Gouraud
 70
     2
 71
     2
 72
     2
 73
     1
 90
        2
 40
-0.6
 41
30.0
 62
     5
 63
     7
 74
     0
 91
        4
 64
     7
 65
   257
 75
     1
175
     1
 42
1.0
 92
        0
 66
     7
 43
1.0
 76
     1
 77
     6
 78
     2
 67
     7
 79
     5
170
     0
171
     0
290
     0
174
     0
 93
       13
 44
0.0
173
     0
291
     1
 45
0.0
1001
ACAD
1000
AcDbSavedByObjectVersion
1070
     0
  0
VISUALSTYLE
  5
2E
102
{ACAD_REACTORS
330
2A
102
}
330
2A
100
AcDbVisualStyle
  2
GouraudWithEdges
 70
     3
 71
     2
 72
     2
 73
     1
 90
        2
 40
-0.6
 41
30.0
 62
     5
 63
     7
 74
     1
 91
        4
 64
     7
 65
   257
 75
     1
175
     1
 42
1.0
 92
        0
 66
   257
 43
1.0
 76
     1
 77
     6
 78
     2
 67
     7
 79
     5
170
     0
171
     0
290
     0
174
     0
 93
       13
 44
0.0
173
     0
291
     1
 45
0.0
1001
ACAD
1000
AcDbSavedByObjectVersion
1070
     0
  0
VISUALSTYLE
  5
38
102
{ACAD_REACTORS
330
2A
102
}
330
2A
100
AcDbVisualStyle
  2
Linepattern
 70
    14
 71
     2
 72
     2
 73
     0
 90
        0
 40
-0.6
 41
-30.0
 62
     5
 63
     7
 74
     1
 91
        4
 64
     7
 65
   257
 75
     7
175
     7
 42
1.0
 92
        8
 66
     7
 43
1.0
 76
     1
 77
     6
 78
     2
 67
     7
 79
     5
170
     0
171
     0
290
     0
174
     0
 93
        1
 44
0.0
173
     0
291
     1
 45
0.0
1001
ACAD
1000
AcDbSavedByObjectVersion
1070
     0
  0
VISUALSTYLE
  5
33
102
{ACAD_REACTORS
330
2A
102
}
330
2A
100
AcDbVisualStyle
  2
Realistic
 70
     8
 71
     2
 72
     2
 73
     0
 90
        0
 40
-0.6
 41
-30.0
 62
     5
 63
     7
 74
     1
 91
        0
 64
     7
 65
   257
 75
     1
175
     1
 42
1.0
 92
        8
 66
     8
 43
1.0
 76
     1
 77
     6
 78
     2
 67
     7
 79
     5
170
     0
171
     0
290
     0
174
     0
 93
       13
 44
0.0
173
     0
291
     0
 45
0.0
1001
ACAD
1000
AcDbSavedByObjectVersion
1070
     0
  0
VISUALSTYLE
  5
37
102
{ACAD_REACTORS
330
2A
102
}
330
2A
100
AcDbVisualStyle
  2
Thicken
 70
    13
 71
     2
 72
     2
 73
     0
 90
        0
 40
-0.6
 41
-30.0
 62
     5
 63
     7
 74
     1
 91
        4
 64
     7
 65
   257
 75
     1
175
     1
 42
1.0
 92
       12
 66
     7
 43
1.0
 76
     1
 77
     6
 78
     2
 67
     7
 79
     5
170
     0
171
     0
290
     0
174
     0
 93
        1
 44
0.0
173
     0
291
     1
 45
0.0
1001
ACAD
1000
AcDbSavedByObjectVersion
1070
     0
  0
DICTIONARYVAR
  5
25A
102
{ACAD_REACTORS
330
259
102
}
330
259
100
DictionaryVariables
280
     0
  1
1:1
  0
DICTIONARYVAR
  5
25E
102
{ACAD_REACTORS
330
259
102
}
330
259
100
DictionaryVariables
280
     0
  1
80.000000
  0
DICTIONARYVAR
  5
25D
102
{ACAD_REACTORS
330
259
102
}
330
259
100
DictionaryVariables
280
     0
  1
5.000000
  0
ENDSEC
  0
EOF
