  0
SECTION
  2
HEADER
  9
$ACADVER
  1
AC1015
  9
$ACADMAINTVER
 70
     6
  9
$DWGCODEPAGE
  3
ANSI_1252
  9
$INSBASE
 10
0.0
 20
0.0
 30
0.0
  9
$EXTMIN
 10
0.0
 20
0.0
 30
0.0
  9
$EXTMAX
 10
3000.0
 20
4500.0
 30
0.0
  9
$LIMMIN
 10
0.0
 20
0.0
  9
$LIMMAX
 10
3000.0
 20
4500.0
  9
$ORTHOMODE
 70
     0
  9
$REGENMODE
 70
     1
  9
$FILLMODE
 70
     1
  9
$QTEXTMODE
 70
     0
  9
$MIRRTEXT
 70
     1
  9
$LTSCALE
 40
1.0
  9
$ATTMODE
 70
     1
  9
$TEXTSIZE
 40
2.5
  9
$TRACEWID
 40
1.0
  9
$TEXTSTYLE
  7
Standard
  9
$CLAYER
  8
0
  9
$CELTYPE
  6
ByLayer
  9
$CECOLOR
 62
   256
  9
$CELTSCALE
 40
1.0
  9
$DISPSILH
 70
     0
  9
$DIMSCALE
 40
1.0
  9
$DIMASZ
 40
2.5
  9
$DIMEXO
 40
0.625
  9
$DIMDLI
 40
3.75
  9
$DIMRND
 40
0.0
  9
$DIMDLE
 40
0.0
  9
$DIMEXE
 40
1.25
  9
$DIMTP
 40
0.0
  9
$DIMTM
 40
0.0
  9
$DIMTXT
 40
2.5
  9
$DIMCEN
 40
2.5
  9
$DIMTSZ
 40
0.0
  9
$DIMTOL
 70
     0
  9
$DIMLIM
 70
     0
  9
$DIMTIH
 70
     0
  9
$DIMTOH
 70
     0
  9
$DIMSE1
 70
     0
  9
$DIMSE2
 70
     0
  9
$DIMTAD
 70
     1
  9
$DIMZIN
 70
     8
  9
$DIMBLK
  1

  9
$DIMASO
 70
     1
  9
$DIMSHO
 70
     1
  9
$DIMPOST
  1

  9
$DIMAPOST
  1

  9
$DIMALT
 70
     0
  9
$DIMALTD
 70
     3
  9
$DIMALTF
 40
0.0393700787
  9
$DIMLFAC
 40
1.0
  9
$DIMTOFL
 70
     1
  9
$DIMTVP
 40
0.0
  9
$DIMTIX
 70
     0
  9
$DIMSOXD
 70
     0
  9
$DIMSAH
 70
     0
  9
$DIMBLK1
  1

  9
$DIMBLK2
  1

  9
$DIMSTYLE
  2
ISO-25
  9
$DIMCLRD
 70
     0
  9
$DIMCLRE
 70
     0
  9
$DIMCLRT
 70
     0
  9
$DIMTFAC
 40
1.0
  9
$DIMGAP
 40
0.625
  9
$DIMJUST
 70
     0
  9
$DIMSD1
 70
     0
  9
$DIMSD2
 70
     0
  9
$DIMTOLJ
 70
     0
  9
$DIMTZIN
 70
     8
  9
$DIMALTZ
 70
     0
  9
$DIMALTTZ
 70
     0
  9
$DIMUPT
 70
     0
  9
$DIMDEC
 70
     2
  9
$DIMTDEC
 70
     2
  9
$DIMALTU
 70
     2
  9
$DIMALTTD
 70
     3
  9
$DIMTXSTY
  7
Standard
  9
$DIMAUNIT
 70
     0
  9
$DIMADEC
 70
     0
  9
$DIMALTRND
 40
0.0
  9
$DIMAZIN
 70
     0
  9
$DIMDSEP
 70
    44
  9
$DIMATFIT
 70
     3
  9
$DIMFRAC
 70
     0
  9
$DIMLDRBLK
  1

  9
$DIMLUNIT
 70
     2
  9
$DIMLWD
 70
    -2
  9
$DIMLWE
 70
    -2
  9
$DIMTMOVE
 70
     0
  9
$LUNITS
 70
     2
  9
$LUPREC
 70
     4
  9
$SKETCHINC
 40
1.0
  9
$FILLETRAD
 40
10.0
  9
$AUNITS
 70
     0
  9
$AUPREC
 70
     0
  9
$MENU
  1
.
  9
$ELEVATION
 40
0.0
  9
$PELEVATION
 40
0.0
  9
$THICKNESS
 40
0.0
  9
$LIMCHECK
 70
     0
  9
$CHAMFERA
 40
10.0
  9
$CHAMFERB
 40
10.0
  9
$CHAMFERC
 40
20.0
  9
$CHAMFERD
 40
0.0
  9
$SKPOLY
 70
     0
  9
$TDCREATE
 40
2455797.576219954
  9
$TDUCREATE
 40
2455797.492886621
  9
$TDUPDATE
 40
2455797.576219965
  9
$TDUUPDATE
 40
2455797.492886632
  9
$TDINDWG
 40
0.0000000116
  9
$TDUSRTIMER
 40
0.0000000116
  9
$USRTIMER
 70
     1
  9
$ANGBASE
 50
0.0
  9
$ANGDIR
 70
     0
  9
$PDMODE
 70
     0
  9
$PDSIZE
 40
0.0
  9
$PLINEWID
 40
0.0
  9
$SPLFRAME
 70
     0
  9
$SPLINETYPE
 70
     6
  9
$SPLINESEGS
 70
     8
  9
$HANDSEED
  5
297
  9
$SURFTAB1
 70
     6
  9
$SURFTAB2
 70
     6
  9
$SURFTYPE
 70
     6
  9
$SURFU
 70
     6
  9
$SURFV
 70
     6
  9
$UCSBASE
  2

  9
$UCSNAME
  2

  9
$UCSORG
 10
0.0
 20
0.0
 30
0.0
  9
$UCSXDIR
 10
1.0
 20
0.0
 30
0.0
  9
$UCSYDIR
 10
0.0
 20
1.0
 30
0.0
  9
$UCSORTHOREF
  2

  9
$UCSORTHOVIEW
 70
     0
  9
$UCSORGTOP
 10
0.0
 20
0.0
 30
0.0
  9
$UCSORGBOTTOM
 10
0.0
 20
0.0
 30
0.0
  9
$UCSORGLEFT
 10
0.0
 20
0.0
 30
0.0
  9
$UCSORGRIGHT
 10
0.0
 20
0.0
 30
0.0
  9
$UCSORGFRONT
 10
0.0
 20
0.0
 30
0.0
  9
$UCSORGBACK
 10
0.0
 20
0.0
 30
0.0
  9
$PUCSBASE
  2

  9
$PUCSNAME
  2

  9
$PUCSORG
 10
0.0
 20
0.0
 30
0.0
  9
$PUCSXDIR
 10
1.0
 20
0.0
 30
0.0
  9
$PUCSYDIR
 10
0.0
 20
1.0
 30
0.0
  9
$PUCSORTHOREF
  2

  9
$PUCSORTHOVIEW
 70
     0
  9
$PUCSORGTOP
 10
0.0
 20
0.0
 30
0.0
  9
$PUCSORGBOTTOM
 10
0.0
 20
0.0
 30
0.0
  9
$PUCSORGLEFT
 10
0.0
 20
0.0
 30
0.0
  9
$PUCSORGRIGHT
 10
0.0
 20
0.0
 30
0.0
  9
$PUCSORGFRONT
 10
0.0
 20
0.0
 30
0.0
  9
$PUCSORGBACK
 10
0.0
 20
0.0
 30
0.0
  9
$USERI1
 70
     0
  9
$USERI2
 70
     0
  9
$USERI3
 70
     0
  9
$USERI4
 70
     0
  9
$USERI5
 70
     0
  9
$USERR1
 40
0.0
  9
$USERR2
 40
0.0
  9
$USERR3
 40
0.0
  9
$USERR4
 40
0.0
  9
$USERR5
 40
0.0
  9
$WORLDVIEW
 70
     1
  9
$SHADEDGE
 70
     3
  9
$SHADEDIF
 70
    70
  9
$TILEMODE
 70
     1
  9
$MAXACTVP
 70
    64
  9
$PINSBASE
 10
0.0
 20
0.0
 30
0.0
  9
$PLIMCHECK
 70
     0
  9
$PEXTMIN
 10
0.0
 20
0.0
 30
0.0
  9
$PEXTMAX
 10
3000.0
 20
4500.0
 30
0.0
  9
$PLIMMIN
 10
0.0
 20
0.0
  9
$PLIMMAX
 10
3000.0
 20
4500.0
  9
$UNITMODE
 70
     0
  9
$VISRETAIN
 70
     1
  9
$PLINEGEN
 70
     0
  9
$PSLTSCALE
 70
     1
  9
$TREEDEPTH
 70
  3020
  9
$CMLSTYLE
  2
Standard
  9
$CMLJUST
 70
     0
  9
$CMLSCALE
 40
20.0
  9
$PROXYGRAPHICS
 70
     1
  9
$MEASUREMENT
 70
     1
  9
$CELWEIGHT
370
    -1
  9
$ENDCAPS
280
     0
  9
$JOINSTYLE
280
     0
  9
$LWDISPLAY
290
     0
  9
$INSUNITS
 70
     4
  9
$HYPERLINKBASE
  1

  9
$STYLESHEET
  1

  9
$XEDIT
290
     1
  9
$CEPSNTYPE
380
     0
  9
$PSTYLEMODE
290
     1
  9
$FINGERPRINTGUID
  2
{1EDACCC1-5A82-47B5-98B7-924F6CAEB572}
  9
$VERSIONGUID
  2
{FAEB1C32-E019-11D5-929B-00C0DF256EC4}
  9
$EXTNAMES
290
     1
  9
$PSVPSCALE
 40
0.0
  9
$OLESTARTUP
290
     0
  0
ENDSEC
  0
SECTION
  2
CLASSES
  0
CLASS
  1
ACDBDICTIONARYWDFLT
  2
AcDbDictionaryWithDefault
  3
ObjectDBX Classes
 90
        0
280
     0
281
     0
  0
CLASS
  1
VISUALSTYLE
  2
AcDbVisualStyle
  3
ObjectDBX Classes
 90
     4095
280
     0
281
     0
  0
CLASS
  1
SCALE
  2
AcDbScale
  3
ObjectDBX Classes
 90
     1153
280
     0
281
     0
  0
CLASS
  1
DICTIONARYVAR
  2
AcDbDictionaryVar
  3
ObjectDBX Classes
 90
        0
280
     0
281
     0
  0
CLASS
  1
ACDBPLACEHOLDER
  2
AcDbPlaceHolder
  3
ObjectDBX Classes
 90
        0
280
     0
281
     0
  0
CLASS
  1
LAYOUT
  2
AcDbLayout
  3
ObjectDBX Classes
 90
        0
280
     0
281
     0
  0
ENDSEC
  0
SECTION
  2
TABLES
  0
TABLE
  2
VPORT
  5
8
330
0
100
AcDbSymbolTable
 70
     1
  0
VPORT
  5
29
330
8
100
AcDbSymbolTableRecord
100
AcDbViewportTableRecord
  2
*Active
 70
     0
 10
0.0
 20
0.0
 11
1.0
 21
1.0
 12
344.1869158879
 22
148.5
 13
0.0
 23
0.0
 14
10.0
 24
10.0
 15
10.0
 25
10.0
 16
0.0
 26
0.0
 36
1.0
 17
0.0
 27
0.0
 37
0.0
 40
297.0
 41
1.9729729729
 42
50.0
 43
0.0
 44
0.0
 50
0.0
 51
0.0
 71
     0
 72
   100
 73
     1
 74
     3
 75
     0
 76
     0
 77
     0
 78
     0
281
     0
 65
     1
110
0.0
120
0.0
130
0.0
111
1.0
121
0.0
131
0.0
112
0.0
122
1.0
132
0.0
 79
     0
146
0.0
  0
ENDTAB
  0
TABLE
  2
LTYPE
  5
5
330
0
100
AcDbSymbolTable
 70
     2
  0
LTYPE
  5
14
330
5
100
AcDbSymbolTableRecord
100
AcDbLinetypeTableRecord
  2
ByBlock
 70
     0
  3

 72
    65
 73
     0
 40
0.0
  0
LTYPE
  5
15
330
5
100
AcDbSymbolTableRecord
100
AcDbLinetypeTableRecord
  2
ByLayer
 70
     0
  3

 72
    65
 73
     0
 40
0.0
  0
LTYPE
  5
16
330
5
100
AcDbSymbolTableRecord
100
AcDbLinetypeTableRecord
  2
Continuous
 70
     0
  3
Solid line
 72
    65
 73
     0
 40
0.0
  0
LTYPE
  5
64
330
5
100
AcDbSymbolTableRecord
100
AcDbLinetypeTableRecord
  2
CENTER2
 70
     0
  3
Center (.5x) ___ _ ___ _ ___ _ ___ _ ___ _ ___
 72
    65
 73
     4
 40
28.575
 49
19.05
 74
     4
 75
     0
340
0
 46
0.0
 50
0.0
 44
0.0
 45
0.0
 49
-3.175
 74
     4
 75
     0
340
0
 46
0.0
 50
0.0
 44
0.0
 45
0.0
 49
3.175
 74
     4
 75
     0
340
0
 46
0.0
 50
0.0
 44
0.0
 45
0.0
 49
-3.175
 74
     4
 75
     0
340
0
 46
0.0
 50
0.0
 44
0.0
 45
0.0
  0
ENDTAB
  0
TABLE
  2
LAYER
  5
2
330
0
100
AcDbSymbolTable
 70
    11
  0
LAYER
  5
10
330
2
100
AcDbSymbolTableRecord
100
AcDbLayerTableRecord
  2
0
 70
     0
 62
     7
  6
Continuous
370
    -3
390
F
  0
LAYER
  5
5D
330
2
100
AcDbSymbolTableRecord
100
AcDbLayerTableRecord
  2
Default
 70
     0
 62
     7
  6
Continuous
370
    -3
390
F
  0
LAYER
  5
97
330
2
100
AcDbSymbolTableRecord
100
AcDbLayerTableRecord
  2
$DDT_AUDIT_GENERATED_(97)
 70
     0
 62
     7
  6
Continuous
370
    -3
390
F
  0
LAYER
  5
A6
330
2
100
AcDbSymbolTableRecord
100
AcDbLayerTableRecord
  2
$DDT_AUDIT_GENERATED_(A6)
 70
     0
 62
     7
  6
Continuous
370
    -3
390
F
  0
LAYER
  5
B3
330
2
100
AcDbSymbolTableRecord
100
AcDbLayerTableRecord
  2
$DDT_AUDIT_GENERATED_(B3)
 70
     0
 62
     7
  6
Continuous
370
    -3
390
F
  0
LAYER
  5
E9
330
2
100
AcDbSymbolTableRecord
100
AcDbLayerTableRecord
  2
$DDT_AUDIT_GENERATED_(E9)
 70
     0
 62
     7
  6
Continuous
370
    -3
390
F
  0
LAYER
  5
F4
330
2
100
AcDbSymbolTableRecord
100
AcDbLayerTableRecord
  2
$DDT_AUDIT_GENERATED_(F4)
 70
     0
 62
     7
  6
Continuous
370
    -3
390
F
  0
LAYER
  5
103
330
2
100
AcDbSymbolTableRecord
100
AcDbLayerTableRecord
  2
05919038_ROSETTE
 70
     0
 62
     7
  6
Continuous
370
    -3
390
F
  0
LAYER
  5
108
330
2
100
AcDbSymbolTableRecord
100
AcDbLayerTableRecord
  2
$DDT_AUDIT_GENERATED_(108)
 70
     0
 62
     7
  6
Continuous
370
    -3
390
F
  0
LAYER
  5
1A5
330
2
100
AcDbSymbolTableRecord
100
AcDbLayerTableRecord
  2
$DDT_AUDIT_GENERATED_(1A5)
 70
     0
 62
     7
  6
Continuous
370
    -3
390
F
  0
LAYER
  5
1C0
330
2
100
AcDbSymbolTableRecord
100
AcDbLayerTableRecord
  2
$DDT_AUDIT_GENERATED_(1C0)
 70
     0
 62
     7
  6
Continuous
370
    -3
390
F
  0
ENDTAB
  0
TABLE
  2
STYLE
  5
3
330
0
100
AcDbSymbolTable
 70
     2
  0
STYLE
  5
11
330
3
100
AcDbSymbolTableRecord
100
AcDbTextStyleTableRecord
  2
Standard
 70
     0
 40
0.0
 41
1.0
 50
0.0
 71
     0
 42
2.5
  3
txt
  4

  0
STYLE
  5
286
330
3
100
AcDbSymbolTableRecord
100
AcDbTextStyleTableRecord
  2
SEACAD_seiso_ttf
 70
     0
 40
0.0
 41
1.0
 50
0.0
 71
     0
 42
0.2
  3
seiso.ttf
  4

  0
ENDTAB
  0
TABLE
  2
VIEW
  5
6
330
0
100
AcDbSymbolTable
 70
     0
  0
ENDTAB
  0
TABLE
  2
UCS
  5
7
330
0
100
AcDbSymbolTable
 70
     0
  0
ENDTAB
  0
TABLE
  2
APPID
  5
9
330
0
100
AcDbSymbolTable
 70
     1
  0
APPID
  5
12
330
9
100
AcDbSymbolTableRecord
100
AcDbRegAppTableRecord
  2
ACAD
 70
     0
  0
ENDTAB
  0
TABLE
  2
DIMSTYLE
  5
A
330
0
100
AcDbSymbolTable
 70
     1
100
AcDbDimStyleTable
  0
DIMSTYLE
105
27
330
A
100
AcDbSymbolTableRecord
100
AcDbDimStyleTableRecord
  2
ISO-25
 70
     0
 41
2.5
 42
0.625
 43
3.75
 44
1.25
 73
     0
 74
     0
 77
     1
 78
     8
140
2.5
141
2.5
143
0.0393700787
147
0.625
171
     3
172
     1
271
     2
272
     2
274
     3
278
    44
283
     0
284
     8
340
11
  0
ENDTAB
  0
TABLE
  2
BLOCK_RECORD
  5
1
330
0
100
AcDbSymbolTable
 70
    11
  0
BLOCK_RECORD
  5
1F
330
1
100
AcDbSymbolTableRecord
100
AcDbBlockTableRecord
  2
*Model_Space
340
22
  0
BLOCK_RECORD
  5
1B
330
1
100
AcDbSymbolTableRecord
100
AcDbBlockTableRecord
  2
*Paper_Space
340
1E
  0
BLOCK_RECORD
  5
62
330
1
100
AcDbSymbolTableRecord
100
AcDbBlockTableRecord
  2
SEANNOT_GROUP
340
0
102
{BLKREFS
331
63
102
}
  0
BLOCK_RECORD
  5
6D
330
1
100
AcDbSymbolTableRecord
100
AcDbBlockTableRecord
  2
SEANNOT_GROUP1
340
0
102
{BLKREFS
331
6E
102
}
  0
BLOCK_RECORD
  5
77
330
1
100
AcDbSymbolTableRecord
100
AcDbBlockTableRecord
  2
SEANNOT_GROUP2
340
0
102
{BLKREFS
331
78
102
}
  0
BLOCK_RECORD
  5
7D
330
1
100
AcDbSymbolTableRecord
100
AcDbBlockTableRecord
  2
SEANNOT_GROUP3
340
0
102
{BLKREFS
331
7E
102
}
  0
BLOCK_RECORD
  5
83
330
1
100
AcDbSymbolTableRecord
100
AcDbBlockTableRecord
  2
SEANNOT_GROUP4
340
0
102
{BLKREFS
331
84
102
}
  0
BLOCK_RECORD
  5
89
330
1
100
AcDbSymbolTableRecord
100
AcDbBlockTableRecord
  2
SEANNOT_GROUP5
340
0
102
{BLKREFS
331
8A
102
}
  0
BLOCK_RECORD
  5
8F
330
1
100
AcDbSymbolTableRecord
100
AcDbBlockTableRecord
  2
SEANNOT_GROUP6
340
0
102
{BLKREFS
331
90
102
}
  0
BLOCK_RECORD
  5
95
330
1
100
AcDbSymbolTableRecord
100
AcDbBlockTableRecord
  2
SE
340
0
102
{BLKREFS
331
96
102
}
  0
BLOCK_RECORD
  5
156
330
1
100
AcDbSymbolTableRecord
100
AcDbBlockTableRecord
  2
SE1
340
0
102
{BLKREFS
331
157
102
}
  0
BLOCK_RECORD
  5
1C7
330
1
100
AcDbSymbolTableRecord
100
AcDbBlockTableRecord
  2
SE2
340
0
102
{BLKREFS
331
1C8
102
}
  0
ENDTAB
  0
ENDSEC
  0
SECTION
  2
BLOCKS
  0
BLOCK
  5
20
330
1F
100
AcDbEntity
  8
0
100
AcDbBlockBegin
  2
*Model_Space
 70
     0
 10
0.0
 20
0.0
 30
0.0
  3
*Model_Space
  1

  0
ENDBLK
  5
21
330
1F
100
AcDbEntity
  8
0
100
AcDbBlockEnd
  0
BLOCK
  5
1C
330
1B
100
AcDbEntity
 67
     1
  8
0
100
AcDbBlockBegin
  2
*Paper_Space
 70
     0
 10
0.0
 20
0.0
 30
0.0
  3
*Paper_Space
  1

  0
ENDBLK
  5
1D
330
1B
100
AcDbEntity
 67
     1
  8
0
100
AcDbBlockEnd
  0
BLOCK
  5
6B
330
62
100
AcDbEntity
  8
0
100
AcDbBlockBegin
  2
SEANNOT_GROUP
 70
     0
 10
0.0
 20
0.0
 30
0.0
  3
SEANNOT_GROUP
  1

  0
LINE
  5
65
330
62
100
AcDbEntity
  8
Default
  6
CENTER2
 62
     7
100
AcDbLine
 10
118.0501889559
 20
340.0576843502
 30
0.0
 11
78.05018985
 21
340.0576843502
 31
0.0
  0
LINE
  5
66
330
62
100
AcDbEntity
  8
Default
  6
CENTER2
 62
     7
100
AcDbLine
 10
98.050189403
 20
360.0576839032
 30
0.0
 11
98.050189403
 21
320.0576847973
 31
0.0
  0
LINE
  5
67
330
62
100
AcDbEntity
  8
Default
  6
CENTER2
 62
     7
100
AcDbLine
 10
123.0501888442
 20
340.0576843502
 30
0.0
 11
136.549831749
 21
340.0576843502
 31
0.0
  0
LINE
  5
68
330
62
100
AcDbEntity
  8
Default
  6
CENTER2
 62
     7
100
AcDbLine
 10
98.050189403
 20
365.0576837914
 30
0.0
 11
98.050189403
 21
378.5573266963
 31
0.0
  0
LINE
  5
69
330
62
100
AcDbEntity
  8
Default
  6
CENTER2
 62
     7
100
AcDbLine
 10
73.0501899618
 20
340.0576843502
 30
0.0
 11
59.550547057
 21
340.0576843502
 31
0.0
  0
LINE
  5
6A
330
62
100
AcDbEntity
  8
Default
  6
CENTER2
 62
     7
100
AcDbLine
 10
98.050189403
 20
315.057684909
 30
0.0
 11
98.050189403
 21
301.5580420042
 31
0.0
  0
ENDBLK
  5
6C
330
62
100
AcDbEntity
  8
0
100
AcDbBlockEnd
  0
BLOCK
  5
75
330
6D
100
AcDbEntity
  8
0
100
AcDbBlockBegin
  2
SEANNOT_GROUP1
 70
     0
 10
0.0
 20
0.0
 30
0.0
  3
SEANNOT_GROUP1
  1

  0
LINE
  5
6F
330
6D
100
AcDbEntity
  8
Default
  6
CENTER2
 62
     7
100
AcDbLine
 10
268.0501889559
 20
340.0576843502
 30
0.0
 11
228.05018985
 21
340.0576843502
 31
0.0
  0
LINE
  5
70
330
6D
100
AcDbEntity
  8
Default
  6
CENTER2
 62
     7
100
AcDbLine
 10
248.050189403
 20
360.0576839032
 30
0.0
 11
248.050189403
 21
320.0576847973
 31
0.0
  0
LINE
  5
71
330
6D
100
AcDbEntity
  8
Default
  6
CENTER2
 62
     7
100
AcDbLine
 10
273.0501888442
 20
340.0576843502
 30
0.0
 11
286.549831749
 21
340.0576843502
 31
0.0
  0
LINE
  5
72
330
6D
100
AcDbEntity
  8
Default
  6
CENTER2
 62
     7
100
AcDbLine
 10
248.050189403
 20
365.0576837914
 30
0.0
 11
248.050189403
 21
378.5573266963
 31
0.0
  0
LINE
  5
73
330
6D
100
AcDbEntity
  8
Default
  6
CENTER2
 62
     7
100
AcDbLine
 10
223.0501899618
 20
340.0576843502
 30
0.0
 11
209.550547057
 21
340.0576843502
 31
0.0
  0
LINE
  5
74
330
6D
100
AcDbEntity
  8
Default
  6
CENTER2
 62
     7
100
AcDbLine
 10
248.050189403
 20
315.057684909
 30
0.0
 11
248.050189403
 21
301.5580420042
 31
0.0
  0
ENDBLK
  5
76
330
6D
100
AcDbEntity
  8
0
100
AcDbBlockEnd
  0
BLOCK
  5
7B
330
77
100
AcDbEntity
  8
0
100
AcDbBlockBegin
  2
SEANNOT_GROUP2
 70
     0
 10
0.0
 20
0.0
 30
0.0
  3
SEANNOT_GROUP2
  1

  0
LINE
  5
79
330
77
100
AcDbEntity
  8
Default
  6
CENTER2
 62
     7
100
AcDbLine
 10
268.0501889559
 20
228.7383691148
 30
0.0
 11
228.05018985
 21
228.7383691148
 31
0.0
  0
LINE
  5
7A
330
77
100
AcDbEntity
  8
Default
  6
CENTER2
 62
     7
100
AcDbLine
 10
248.050189403
 20
248.7383686677
 30
0.0
 11
248.050189403
 21
208.7383695618
 31
0.0
  0
ENDBLK
  5
7C
330
77
100
AcDbEntity
  8
0
100
AcDbBlockEnd
  0
BLOCK
  5
81
330
7D
100
AcDbEntity
  8
0
100
AcDbBlockBegin
  2
SEANNOT_GROUP3
 70
     0
 10
0.0
 20
0.0
 30
0.0
  3
SEANNOT_GROUP3
  1

  0
LINE
  5
7F
330
7D
100
AcDbEntity
  8
Default
  6
CENTER2
 62
     7
100
AcDbLine
 10
118.0501889559
 20
228.7383691148
 30
0.0
 11
78.05018985
 21
228.7383691148
 31
0.0
  0
LINE
  5
80
330
7D
100
AcDbEntity
  8
Default
  6
CENTER2
 62
     7
100
AcDbLine
 10
98.050189403
 20
248.7383686677
 30
0.0
 11
98.050189403
 21
208.7383695618
 31
0.0
  0
ENDBLK
  5
82
330
7D
100
AcDbEntity
  8
0
100
AcDbBlockEnd
  0
BLOCK
  5
87
330
83
100
AcDbEntity
  8
0
100
AcDbBlockBegin
  2
SEANNOT_GROUP4
 70
     0
 10
0.0
 20
0.0
 30
0.0
  3
SEANNOT_GROUP4
  1

  0
LINE
  5
85
330
83
100
AcDbEntity
  8
Default
  6
CENTER2
 62
     7
100
AcDbLine
 10
432.5695020288
 20
340.0576843502
 30
0.0
 11
392.5695029228
 21
340.0576843502
 31
0.0
  0
LINE
  5
86
330
83
100
AcDbEntity
  8
Default
  6
CENTER2
 62
     7
100
AcDbLine
 10
412.5695024758
 20
360.0576839032
 30
0.0
 11
412.5695024758
 21
320.0576847973
 31
0.0
  0
ENDBLK
  5
88
330
83
100
AcDbEntity
  8
0
100
AcDbBlockEnd
  0
BLOCK
  5
8D
330
89
100
AcDbEntity
  8
0
100
AcDbBlockBegin
  2
SEANNOT_GROUP5
 70
     0
 10
0.0
 20
0.0
 30
0.0
  3
SEANNOT_GROUP5
  1

  0
LINE
  5
8B
330
89
100
AcDbEntity
  8
Default
  6
CENTER2
 62
     7
100
AcDbLine
 10
522.5695020288
 20
301.1576843502
 30
0.0
 11
482.5695029228
 21
301.1576843502
 31
0.0
  0
LINE
  5
8C
330
89
100
AcDbEntity
  8
Default
  6
CENTER2
 62
     7
100
AcDbLine
 10
502.5695024758
 20
321.1576839032
 30
0.0
 11
502.5695024758
 21
281.1576847973
 31
0.0
  0
ENDBLK
  5
8E
330
89
100
AcDbEntity
  8
0
100
AcDbBlockEnd
  0
BLOCK
  5
93
330
8F
100
AcDbEntity
  8
0
100
AcDbBlockBegin
  2
SEANNOT_GROUP6
 70
     0
 10
0.0
 20
0.0
 30
0.0
  3
SEANNOT_GROUP6
  1

  0
LINE
  5
91
330
8F
100
AcDbEntity
  8
Default
  6
CENTER2
 62
     7
100
AcDbLine
 10
193.0501889559
 20
301.1576843502
 30
0.0
 11
153.05018985
 21
301.1576843502
 31
0.0
  0
LINE
  5
92
330
8F
100
AcDbEntity
  8
Default
  6
CENTER2
 62
     7
100
AcDbLine
 10
173.050189403
 20
321.1576839032
 30
0.0
 11
173.050189403
 21
281.1576847973
 31
0.0
  0
ENDBLK
  5
94
330
8F
100
AcDbEntity
  8
0
100
AcDbBlockEnd
  0
BLOCK
  5
154
330
95
100
AcDbEntity
  8
0
100
AcDbBlockBegin
  2
SE
 70
     0
 10
0.0
 20
0.0
 30
0.0
  3
SE
  1

  0
LINE
  5
98
330
95
100
AcDbEntity
  8
$DDT_AUDIT_GENERATED_(97)
  6
Continuous
 62
     7
100
AcDbLine
 10
279.050189403
 20
363.5576775438
 30
0.0
 11
279.050189403
 21
340.4631476146
 31
0.0
  0
LINE
  5
99
330
95
100
AcDbEntity
  8
$DDT_AUDIT_GENERATED_(97)
  6
Continuous
 62
     7
100
AcDbLine
 10
279.050189403
 20
340.4631476146
 30
0.0
 11
279.050189403
 21
316.5576934532
 31
0.0
  0
LINE
  5
9A
330
95
100
AcDbEntity
  8
$DDT_AUDIT_GENERATED_(97)
  6
Continuous
 62
     7
100
AcDbLine
 10
67.050189403
 20
316.5576935609
 30
0.0
 11
67.050189403
 21
340.4631476146
 31
0.0
  0
LINE
  5
9B
330
95
100
AcDbEntity
  8
$DDT_AUDIT_GENERATED_(97)
  6
Continuous
 62
     7
100
AcDbLine
 10
67.050189403
 20
340.4631476146
 30
0.0
 11
67.050189403
 21
363.5576776419
 31
0.0
  0
LINE
  5
9C
330
95
100
AcDbEntity
  8
$DDT_AUDIT_GENERATED_(97)
  6
Continuous
 62
     7
100
AcDbLine
 10
67.550189403
 20
364.0576773785
 30
0.0
 11
67.550189403
 21
364.0576958461
 31
0.0
  0
LINE
  5
9D
330
95
100
AcDbEntity
  8
$DDT_AUDIT_GENERATED_(97)
  6
Continuous
 62
     7
100
AcDbLine
 10
278.550189403
 20
316.0576937702
 30
0.0
 11
278.550189403
 21
316.057668322
 31
0.0
  0
ARC
  5
9E
330
95
100
AcDbEntity
  8
$DDT_AUDIT_GENERATED_(97)
  6
Continuous
 62
     7
100
AcDbCircle
 10
173.050189403
 20
280.267266955
 30
0.0
 40
36.91089830138711
100
AcDbArc
 50
75.8464456265
 51
104.1535543735
  0
LINE
  5
9F
330
95
100
AcDbEntity
  8
$DDT_AUDIT_GENERATED_(97)
  6
Continuous
 62
     7
100
AcDbLine
 10
278.550189403
 20
364.0576958461
 30
0.0
 11
67.550189403
 21
364.0576958461
 31
0.0
  0
LINE
  5
A0
330
95
100
AcDbEntity
  8
$DDT_AUDIT_GENERATED_(97)
  6
Continuous
 62
     7
100
AcDbLine
 10
182.0952832156
 20
316.057668322
 30
0.0
 11
278.550189403
 21
316.057668322
 31
0.0
  0
LINE
  5
A1
330
95
100
AcDbEntity
  8
$DDT_AUDIT_GENERATED_(97)
  6
Continuous
 62
     7
100
AcDbLine
 10
67.550189403
 20
316.057668322
 30
0.0
 11
164.0063575562
 21
316.057668322
 31
0.0
  0
ARC
  5
A2
330
95
100
AcDbEntity
  8
$DDT_AUDIT_GENERATED_(97)
  6
Continuous
 62
     7
100
AcDbCircle
 10
67.550189403
 20
363.5576958461
 30
0.0
 40
0.4999999999999866
100
AcDbArc
 50
90.0
 51
180.0
  0
ARC
  5
A3
330
95
100
AcDbEntity
  8
$DDT_AUDIT_GENERATED_(97)
  6
Continuous
 62
     7
100
AcDbCircle
 10
67.550189403
 20
316.557668322
 30
0.0
 40
0.5000000000000004
100
AcDbArc
 50
180.0
 51
270.0
  0
ARC
  5
A4
330
95
100
AcDbEntity
  8
$DDT_AUDIT_GENERATED_(97)
  6
Continuous
 62
     7
100
AcDbCircle
 10
278.550189403
 20
363.5576958461
 30
0.0
 40
0.5000000000000004
100
AcDbArc
 50
0.0
 51
90.0
  0
ARC
  5
A5
330
95
100
AcDbEntity
  8
$DDT_AUDIT_GENERATED_(97)
  6
Continuous
 62
     7
100
AcDbCircle
 10
278.550189403
 20
316.557668322
 30
0.0
 40
0.5000000000000004
100
AcDbArc
 50
270.0
 51
0.0
  0
LINE
  5
A7
330
95
100
AcDbEntity
  8
$DDT_AUDIT_GENERATED_(A6)
  6
Continuous
 62
     7
100
AcDbLine
 10
67.050189403
 20
363.5576843502
 30
0.0
 11
67.050189403
 21
316.5576843502
 31
0.0
  0
LINE
  5
A8
330
95
100
AcDbEntity
  8
$DDT_AUDIT_GENERATED_(A6)
  6
Continuous
 62
     7
100
AcDbLine
 10
59.050189403
 20
363.5576843502
 30
0.0
 11
59.050189403
 21
316.5576843502
 31
0.0
  0
LINE
  5
A9
330
95
100
AcDbEntity
  8
$DDT_AUDIT_GENERATED_(A6)
  6
Continuous
 62
     7
100
AcDbLine
 10
59.550189403
 20
316.0576843502
 30
0.0
 11
66.550189403
 21
316.0576843502
 31
0.0
  0
LINE
  5
AA
330
95
100
AcDbEntity
  8
$DDT_AUDIT_GENERATED_(A6)
  6
Continuous
 62
     7
100
AcDbLine
 10
66.550189403
 20
364.0576843502
 30
0.0
 11
59.550189403
 21
364.0576843502
 31
0.0
  0
ARC
  5
AB
330
95
100
AcDbEntity
  8
$DDT_AUDIT_GENERATED_(A6)
  6
Continuous
 62
     7
100
AcDbCircle
 10
66.550189403
 20
363.5576843502
 30
0.0
 40
0.5000000000000004
100
AcDbArc
 50
0.0
 51
90.0
  0
ARC
  5
AC
330
95
100
AcDbEntity
  8
$DDT_AUDIT_GENERATED_(A6)
  6
Continuous
 62
     7
100
AcDbCircle
 10
66.550189403
 20
316.5576843502
 30
0.0
 40
0.499999999999997
100
AcDbArc
 50
270.0
 51
0.0
  0
LINE
  5
AD
330
95
100
AcDbEntity
  8
$DDT_AUDIT_GENERATED_(A6)
  6
Continuous
 62
     7
100
AcDbLine
 10
58.550189403
 20
360.2076843502
 30
0.0
 11
58.350189403
 21
360.2076843502
 31
0.0
  0
LINE
  5
AE
330
95
100
AcDbEntity
  8
$DDT_AUDIT_GENERATED_(A6)
  6
Continuous
 62
     7
100
AcDbLine
 10
58.350189403
 20
319.9076843502
 30
0.0
 11
58.550189403
 21
319.9076843502
 31
0.0
  0
ARC
  5
AF
330
95
100
AcDbEntity
  8
$DDT_AUDIT_GENERATED_(A6)
  6
Continuous
 62
     7
100
AcDbCircle
 10
59.550189403
 20
316.5576843502
 30
0.0
 40
0.5000000000000004
100
AcDbArc
 50
180.0
 51
270.0
  0
ARC
  5
B0
330
95
100
AcDbEntity
  8
$DDT_AUDIT_GENERATED_(A6)
  6
Continuous
 62
     7
100
AcDbCircle
 10
59.550189403
 20
363.5576843502
 30
0.0
 40
0.499999999999997
100
AcDbArc
 50
90.0
 51
180.0
  0
ARC
  5
B1
330
95
100
AcDbEntity
  8
$DDT_AUDIT_GENERATED_(A6)
  6
Continuous
 62
     7
100
AcDbCircle
 10
58.550189403
 20
319.4076843502
 30
0.0
 40
0.5000000000000004
100
AcDbArc
 50
0.0
 51
90.0
  0
ARC
  5
B2
330
95
100
AcDbEntity
  8
$DDT_AUDIT_GENERATED_(A6)
  6
Continuous
 62
     7
100
AcDbCircle
 10
58.550189403
 20
360.7076843502
 30
0.0
 40
0.5000000000000004
100
AcDbArc
 50
270.0
 51
0.0
  0
LINE
  5
B4
330
95
100
AcDbEntity
  8
$DDT_AUDIT_GENERATED_(B3)
  6
Continuous
 62
     7
100
AcDbLine
 10
6.3501913103
 20
323.4753399901
 30
0.0
 11
6.3501913103
 21
347.372057822
 31
0.0
  0
LINE
  5
B5
330
95
100
AcDbEntity
  8
$DDT_AUDIT_GENERATED_(B3)
  6
Continuous
 62
     7
100
AcDbLine
 10
6.3501913103
 20
347.372057822
 30
0.0
 11
6.3501913103
 21
356.6363793294
 31
0.0
  0
ARC
  5
B6
330
95
100
AcDbEntity
  8
$DDT_AUDIT_GENERATED_(B3)
  6
Continuous
 62
     7
100
AcDbCircle
 10
61.4643336625
 20
-38.1590820075
 30
0.0
 40
400.3046126633174
100
AcDbArc
 50
90.5187827524
 51
94.2367666921
  0
SPLINE
  5
B7
330
95
100
AcDbEntity
  8
$DDT_AUDIT_GENERATED_(B3)
  6
Continuous
 62
     7
100
AcDbSpline
210
0.0
220
0.0
230
1.0
 70
     8
 71
     3
 72
    12
 73
     8
 74
     0
 42
0.0000000042600625
 43
0.0000000001
 40
0.0
 40
0.0
 40
0.0
 40
0.0
 40
0.2499999999999997
 40
0.2499999999999997
 40
0.4999999999999994
 40
0.4999999999999994
 40
0.8585027723306178
 40
0.8585027723306178
 40
0.8585027723306178
 40
0.8585027723306178
 10
31.89056602511983
 20
361.0516082141775
 30
0.0
 10
31.48193116080036
 20
361.018201699375
 30
0.0
 10
31.08662968902937
 20
360.9864665479708
 30
0.0
 10
30.55378895125688
 20
360.9326779977897
 30
0.0
 10
30.37780891309974
 20
360.9076781627209
 30
0.0
 10
30.0604353188596
 20
360.8411008252208
 30
0.0
 10
29.96379169833136
 20
360.7966622375851
 30
0.0
 10
29.92455953173506
 20
360.7451943692328
 30
0.0
  0
LINE
  5
B8
330
95
100
AcDbEntity
  8
$DDT_AUDIT_GENERATED_(B3)
  6
Continuous
 62
     7
100
AcDbLine
 10
30.350189403
 20
362.5576843502
 30
0.0
 11
30.350189403
 21
361.1756689483
 31
0.0
  0
SPLINE
  5
B9
330
95
100
AcDbEntity
  8
$DDT_AUDIT_GENERATED_(B3)
  6
Continuous
 62
     7
100
AcDbSpline
210
0.0
220
0.0
230
1.0
 70
     8
 71
     3
 72
     8
 73
     4
 74
     0
 42
0.0000000116423443
 43
0.0000000001
 40
0.5305051674152337
 40
0.5305051674152337
 40
0.5305051674152337
 40
0.5305051674152337
 40
1.0
 40
1.0
 40
1.0
 40
1.0
 10
30.20163849084301
 20
319.2453418251924
 30
0.0
 10
29.97658014743726
 20
319.2978961542658
 30
0.0
 10
29.90165524492944
 20
319.3596566014388
 30
0.0
 10
29.90290928963471
 20
319.4346996172448
 30
0.0
  0
LINE
  5
BA
330
95
100
AcDbEntity
  8
$DDT_AUDIT_GENERATED_(B3)
  6
Continuous
 62
     7
100
AcDbLine
 10
30.350189403
 20
317.5576843502
 30
0.0
 11
30.350189403
 21
336.2244975792
 31
0.0
  0
LINE
  5
BB
330
95
100
AcDbEntity
  8
$DDT_AUDIT_GENERATED_(B3)
  6
Continuous
 62
     7
100
AcDbLine
 10
58.350189403
 20
361.3836672933
 30
0.0
 11
58.350189403
 21
354.665303561
 31
0.0
  0
LINE
  5
BC
330
95
100
AcDbEntity
  8
$DDT_AUDIT_GENERATED_(B3)
  6
Continuous
 62
     7
100
AcDbLine
 10
58.350189403
 20
341.5045577986
 30
0.0
 11
58.350189403
 21
337.5290135219
 31
0.0
  0
LINE
  5
BD
330
95
100
AcDbEntity
  8
$DDT_AUDIT_GENERATED_(B3)
  6
Continuous
 62
     7
100
AcDbLine
 10
58.350189403
 20
361.629419229
 30
0.0
 11
58.350189403
 21
361.3836672933
 31
0.0
  0
LINE
  5
BE
330
95
100
AcDbEntity
  8
$DDT_AUDIT_GENERATED_(B3)
  6
Continuous
 62
     7
100
AcDbLine
 10
58.350189403
 20
361.7697299079
 30
0.0
 11
58.350189403
 21
363.5576843502
 31
0.0
  0
LINE
  5
BF
330
95
100
AcDbEntity
  8
$DDT_AUDIT_GENERATED_(B3)
  6
Continuous
 62
     7
100
AcDbLine
 10
58.350189403
 20
337.1491665319
 30
0.0
 11
58.350189403
 21
337.5290135219
 31
0.0
  0
LINE
  5
C0
330
95
100
AcDbEntity
  8
$DDT_AUDIT_GENERATED_(B3)
  6
Continuous
 62
     7
100
AcDbLine
 10
58.350189403
 20
337.1491665319
 30
0.0
 11
58.350189403
 21
316.5576843502
 31
0.0
  0
ARC
  5
C1
330
95
100
AcDbEntity
  8
$DDT_AUDIT_GENERATED_(B3)
  6
Continuous
 62
     7
100
AcDbCircle
 10
57.8501893018
 20
361.629231208
 30
0.0
 40
0.4999975550250851
100
AcDbArc
 50
0.0
 51
91.1862360266
  0
ELLIPSE
  5
C2
330
95
100
AcDbEntity
  8
$DDT_AUDIT_GENERATED_(B3)
  6
Continuous
 62
     7
100
AcDbEllipse
 10
29.850189403
 20
361.1756689483
 30
0.0
 11
-0.5000000000000004
 21
-2.046973701652632E-13
 31
0.0
210
0.0
220
0.0
230
1.0
 40
0.9951733831
 41
3.040232419996989
 42
3.141592653589793
  0
ARC
  5
C3
330
95
100
AcDbEntity
  8
$DDT_AUDIT_GENERATED_(B3)
  6
Continuous
 62
     7
100
AcDbCircle
 10
511.9795108144
 20
334.2690390295
 30
0.0
 40
504.4830149769862
100
AcDbArc
 50
181.3861480997
 51
181.394723784
  0
SPLINE
  5
C4
330
95
100
AcDbEntity
  8
$DDT_AUDIT_GENERATED_(B3)
  6
Continuous
 62
     7
100
AcDbSpline
210
0.0
220
0.0
230
1.0
 70
     8
 71
     3
 72
    10
 73
     6
 74
     0
 42
0.000000027139258
 43
0.0000000001
 40
0.0
 40
0.0
 40
0.0
 40
0.0
 40
0.5
 40
0.5
 40
1.0
 40
1.0
 40
1.0
 40
1.0
 10
58.00998124713679
 20
341.4188344202008
 30
0.0
 10
58.11044640219065
 20
341.4249749716108
 30
0.0
 10
58.19711914417133
 20
341.4367785863529
 30
0.0
 10
58.31771832052987
 20
341.4674194889695
 30
0.0
 10
58.35018940298362
 20
341.4861103956405
 30
0.0
 10
58.35018940298356
 20
341.5045577985922
 30
0.0
  0
ARC
  5
C5
330
95
100
AcDbEntity
  8
$DDT_AUDIT_GENERATED_(B3)
  6
Continuous
 62
     7
100
AcDbCircle
 10
42.5348789894
 20
331.3131555782
 30
0.0
 40
18.48251970769383
100
AcDbArc
 50
33.1456711026
 51
34.0305631141
  0
ARC
  5
C6
330
95
100
AcDbEntity
  8
$DDT_AUDIT_GENERATED_(B3)
  6
Continuous
 62
     7
100
AcDbCircle
 10
54.1007425514
 20
344.1482388108
 30
0.0
 40
4.767787275834264
100
AcDbArc
 50
321.6931651497
 51
325.07751157
  0
ARC
  5
C7
330
95
100
AcDbEntity
  8
$DDT_AUDIT_GENERATED_(B3)
  6
Continuous
 62
     7
100
AcDbCircle
 10
58.1900693158
 20
21.7605165967
 30
0.0
 40
340.1337319813308
100
AcDbArc
 50
96.1640274773
 51
98.5326643365
  0
ARC
  5
C8
330
95
100
AcDbEntity
  8
$DDT_AUDIT_GENERATED_(B3)
  6
Continuous
 62
     7
100
AcDbCircle
 10
58.1900693158
 20
21.7605165967
 30
0.0
 40
340.1337319813308
100
AcDbArc
 50
90.0586262337
 51
95.7695967223
  0
ARC
  5
C9
330
95
100
AcDbEntity
  8
$DDT_AUDIT_GENERATED_(B3)
  6
Continuous
 62
     7
100
AcDbCircle
 10
57.8655188237
 20
361.3788463951
 30
0.0
 40
0.4846945548032662
100
AcDbArc
 50
0.5698881308
 51
72.6545959901
  0
ARC
  5
CA
330
95
100
AcDbEntity
  8
$DDT_AUDIT_GENERATED_(B3)
  6
Continuous
 62
     7
100
AcDbCircle
 10
57.7670209396
 20
361.3596944656
 30
0.0
 40
0.5396158337046497
100
AcDbArc
 50
63.2356955045
 51
82.0089511865
  0
ARC
  5
CB
330
95
100
AcDbEntity
  8
$DDT_AUDIT_GENERATED_(B3)
  6
Continuous
 62
     7
100
AcDbCircle
 10
58.510569693
 20
360.9398001625
 30
0.0
 40
1.031314699858507
100
AcDbArc
 50
119.0353820477
 51
129.6803718599
  0
ARC
  5
CC
330
95
100
AcDbEntity
  8
$DDT_AUDIT_GENERATED_(B3)
  6
Continuous
 62
     7
100
AcDbCircle
 10
7.8478242191
 20
356.6351774149
 30
0.0
 40
1.497633391106475
100
AcDbArc
 50
97.4782464697
 51
179.9540176935
  0
LINE
  5
CD
330
95
100
AcDbEntity
  8
$DDT_AUDIT_GENERATED_(B3)
  6
Continuous
 62
     7
100
AcDbLine
 10
58.350189403
 20
350.8546489956
 30
0.0
 11
58.350189403
 21
341.5045577986
 31
0.0
  0
LINE
  5
CE
330
95
100
AcDbEntity
  8
$DDT_AUDIT_GENERATED_(B3)
  6
Continuous
 62
     7
100
AcDbLine
 10
58.350189403
 20
353.8179602712
 30
0.0
 11
58.350189403
 21
350.8842188603
 31
0.0
  0
LINE
  5
CF
330
95
100
AcDbEntity
  8
$DDT_AUDIT_GENERATED_(B3)
  6
Continuous
 62
     7
100
AcDbLine
 10
58.350189403
 20
353.8179602712
 30
0.0
 11
58.350189403
 21
354.3644389097
 31
0.0
  0
LINE
  5
D0
330
95
100
AcDbEntity
  8
$DDT_AUDIT_GENERATED_(B3)
  6
Continuous
 62
     7
100
AcDbLine
 10
58.350189403
 20
354.665303561
 30
0.0
 11
58.350189403
 21
354.3644389097
 31
0.0
  0
ARC
  5
D1
330
95
100
AcDbEntity
  8
$DDT_AUDIT_GENERATED_(B3)
  6
Continuous
 62
     7
100
AcDbCircle
 10
42.9067640917
 20
-15992.8609722487
 30
0.0
 40
16341.20543922058
100
AcDbArc
 50
89.9695189704
 51
90.07610793
  0
ARC
  5
D2
330
95
100
AcDbEntity
  8
$DDT_AUDIT_GENERATED_(B3)
  6
Continuous
 62
     7
100
AcDbCircle
 10
51.6220452995
 20
349.3203118005
 30
0.0
 40
0.97840133502023
100
AcDbArc
 50
268.72016647
 51
358.6934623151
  0
LINE
  5
D3
330
95
100
AcDbEntity
  8
$DDT_AUDIT_GENERATED_(B3)
  6
Continuous
 62
     7
100
AcDbLine
 10
52.600192264
 20
356.4862878369
 30
0.0
 11
52.600192264
 21
349.2980028723
 31
0.0
  0
SPLINE
  5
D4
330
95
100
AcDbEntity
  8
$DDT_AUDIT_GENERATED_(B3)
  6
Continuous
 62
     7
100
AcDbSpline
210
0.0
220
0.0
230
1.0
 70
     8
 71
     3
 72
    10
 73
     6
 74
     0
 42
0.0000000078670988
 43
0.0000000001
 40
0.0
 40
0.0
 40
0.0
 40
0.0
 40
0.25
 40
0.25
 40
0.4593493986265804
 40
0.4593493986265804
 40
0.4593493986265804
 40
0.4593493986265804
 10
52.60019226400649
 20
354.9646055755803
 30
0.0
 10
52.60019226400649
 20
355.0663397093744
 30
0.0
 10
52.57464318431998
 20
355.1653092510534
 30
0.0
 10
52.48363845196646
 20
355.3350788471138
 30
0.0
 10
52.42557077233984
 20
355.406697251716
 30
0.0
 10
52.35391924603916
 20
355.4692496481293
 30
0.0
  0
SPLINE
  5
D5
330
95
100
AcDbEntity
  8
$DDT_AUDIT_GENERATED_(B3)
  6
Continuous
 62
     7
100
AcDbSpline
210
0.0
220
0.0
230
1.0
 70
     8
 71
     3
 72
    10
 73
     6
 74
     0
 42
0.0000000077700905
 43
0.0000000001
 40
0.5480116626823386
 40
0.5480116626823386
 40
0.5480116626823386
 40
0.5480116626823386
 40
0.75
 40
0.75
 40
1.0
 40
1.0
 40
1.0
 40
1.0
 10
52.36035541180695
 20
356.9927301106717
 30
0.0
 10
52.42875062843662
 20
356.9307283049154
 30
0.0
 10
52.48462902932035
 20
356.8599984562417
 30
0.0
 10
52.57397203934853
 20
356.6914922491197
 30
0.0
 10
52.60019226400649
 20
356.5895287477863
 30
0.0
 10
52.60019226400649
 20
356.4862878368539
 30
0.0
  0
LINE
  5
D6
330
95
100
AcDbEntity
  8
$DDT_AUDIT_GENERATED_(B3)
  6
Continuous
 62
     7
100
AcDbLine
 10
19.750192264
 20
349.7151298163
 30
0.0
 11
19.750192264
 21
356.1238956397
 31
0.0
  0
ARC
  5
D7
330
95
100
AcDbEntity
  8
$DDT_AUDIT_GENERATED_(B3)
  6
Continuous
 62
     7
100
AcDbCircle
 10
21.1761215423
 20
349.756372684
 30
0.0
 40
1.426525597720388
100
AcDbArc
 50
181.6567326821
 51
270.9668359385
  0
SPLINE
  5
D8
330
95
100
AcDbEntity
  8
$DDT_AUDIT_GENERATED_(B3)
  6
Continuous
 62
     7
100
AcDbSpline
210
0.0
220
0.0
230
1.0
 70
     8
 71
     3
 72
    16
 73
    12
 74
     0
 42
0.0000000050814763
 43
0.0000000001
 40
0.1977460199599954
 40
0.1977460199599954
 40
0.1977460199599954
 40
0.1977460199599954
 40
0.2500000000000036
 40
0.2500000000000036
 40
0.3750000000000053
 40
0.3750000000000053
 40
0.5000000000000071
 40
0.5000000000000071
 40
0.7500000000000036
 40
0.7500000000000036
 40
1.0
 40
1.0
 40
1.0
 40
1.0
 10
20.75337601936195
 20
355.6596640527954
 30
0.0
 10
20.71520465467341
 20
355.6503729309525
 30
0.0
 10
20.6775596853
 20
355.6399088412476
 30
0.0
 10
20.55267266014243
 20
355.6006464652215
 30
0.0
 10
20.46924127681854
 20
355.566802558135
 30
0.0
 10
20.3115142794108
 20
355.4867826465555
 30
0.0
 10
20.23736011752289
 20
355.4404293862478
 30
0.0
 10
20.03809539779433
 20
355.2883970890349
 30
0.0
 10
19.93126732978181
 20
355.1657789047046
 30
0.0
 10
19.78820701265807
 20
354.8995553411925
 30
0.0
 10
19.75019226400645
 20
354.7534533329455
 30
0.0
 10
19.75019226400648
 20
354.6047522187332
 30
0.0
  0
SPLINE
  5
D9
330
95
100
AcDbEntity
  8
$DDT_AUDIT_GENERATED_(B3)
  6
Continuous
 62
     7
100
AcDbSpline
210
0.0
220
0.0
230
1.0
 70
     8
 71
     3
 72
    16
 73
    12
 74
     0
 42
0.0000000050360592
 43
0.0000000001
 40
0.0
 40
0.0
 40
0.0
 40
0.0
 40
0.2499999999999968
 40
0.2499999999999968
 40
0.3749999999999973
 40
0.3749999999999973
 40
0.4999999999999979
 40
0.4999999999999979
 40
0.7499999999999989
 40
0.7499999999999989
 40
0.8141565787595321
 40
0.8141565787595321
 40
0.8141565787595321
 40
0.8141565787595321
 10
19.75019226400648
 20
356.1238956396573
 30
0.0
 10
19.75019226400648
 20
356.2748248442086
 30
0.0
 10
19.7874803800962
 20
356.4213839495027
 30
0.0
 10
19.89559643120684
 20
356.6259746877718
 30
0.0
 10
19.93970362432956
 20
356.6904481299691
 30
0.0
 10
20.04391003087105
 20
356.8121895671766
 30
0.0
 10
20.10469326143169
 20
356.8698247430549
 30
0.0
 10
20.30436011575554
 20
357.0247875372137
 30
0.0
 10
20.46571231627897
 20
357.1081346994039
 30
0.0
 10
20.68554486048829
 20
357.1785467468756
 30
0.0
 10
20.73153473220102
 20
357.1912089952166
 30
0.0
 10
20.77836369685243
 20
357.2020921356691
 30
0.0
  0
ARC
  5
DA
330
95
100
AcDbEntity
  8
$DDT_AUDIT_GENERATED_(B3)
  6
Continuous
 62
     7
100
AcDbCircle
 10
71.5097047846
 20
-77.7945677348
 30
0.0
 40
440.5026760774093
100
AcDbArc
 50
95.416735816
 51
96.0680259053
  0
ARC
  5
DB
330
95
100
AcDbEntity
  8
$DDT_AUDIT_GENERATED_(B3)
  6
Continuous
 62
     7
100
AcDbCircle
 10
71.5097047846
 20
-77.7945677348
 30
0.0
 40
440.5026760774093
100
AcDbArc
 50
96.4973711077
 51
98.3394849673
  0
ARC
  5
DC
330
95
100
AcDbEntity
  8
$DDT_AUDIT_GENERATED_(B3)
  6
Continuous
 62
     7
100
AcDbCircle
 10
71.5085242365
 20
757.9314979365
 30
0.0
 40
440.5238339803246
100
AcDbArc
 50
261.6610752588
 51
264.5836780623
  0
LINE
  5
DD
330
95
100
AcDbEntity
  8
$DDT_AUDIT_GENERATED_(B3)
  6
Continuous
 62
     7
100
AcDbLine
 10
57.850189403
 20
364.0576843502
 30
0.0
 11
31.850189403
 21
364.0576843502
 31
0.0
  0
LINE
  5
DE
330
95
100
AcDbEntity
  8
$DDT_AUDIT_GENERATED_(B3)
  6
Continuous
 62
     7
100
AcDbLine
 10
31.850189403
 20
316.0576843502
 30
0.0
 11
57.850189403
 21
316.0576843502
 31
0.0
  0
ARC
  5
DF
330
95
100
AcDbEntity
  8
$DDT_AUDIT_GENERATED_(B3)
  6
Continuous
 62
     7
100
AcDbCircle
 10
7.850184774
 20
323.4761459768
 30
0.0
 40
1.499975348195091
100
AcDbArc
 50
179.9432378375
 51
262.1920177435
  0
ARC
  5
E0
330
95
100
AcDbEntity
  8
$DDT_AUDIT_GENERATED_(B3)
  6
Continuous
 62
     7
100
AcDbCircle
 10
31.850189403
 20
317.5576843502
 30
0.0
 40
1.500000000000001
100
AcDbArc
 50
180.0
 51
270.0
  0
ARC
  5
E1
330
95
100
AcDbEntity
  8
$DDT_AUDIT_GENERATED_(B3)
  6
Continuous
 62
     7
100
AcDbCircle
 10
31.850189403
 20
362.5576843502
 30
0.0
 40
1.500000000000001
100
AcDbArc
 50
90.0
 51
180.0
  0
SPLINE
  5
E2
330
95
100
AcDbEntity
  8
$DDT_AUDIT_GENERATED_(B3)
  6
Continuous
 62
     7
100
AcDbSpline
210
0.0
220
0.0
230
1.0
 70
     8
 71
     3
 72
    12
 73
     8
 74
     0
 42
0.0000000204925637
 43
0.0000000001
 40
0.3126780979253226
 40
0.3126780979253226
 40
0.3126780979253226
 40
0.3126780979253226
 40
0.3293003284154473
 40
0.5105052083792863
 40
0.6690913142084156
 40
0.841936777358791
 40
1.0
 40
1.0
 40
1.0
 40
1.0
 10
30.18306838114629
 20
319.2584168317975
 30
0.0
 10
30.18309503326996
 20
319.2584124474875
 30
0.0
 10
30.18419039146517
 20
319.2579829957349
 30
0.0
 10
30.20221551708596
 20
319.2486543095388
 30
0.0
 10
30.24913066528051
 20
319.2100831250191
 30
0.0
 10
30.31867120179749
 20
319.1144186192375
 30
0.0
 10
30.33240733000381
 20
319.030301672339
 30
0.0
 10
30.34078490329933
 20
318.981347736338
 30
0.0
  0
ARC
  5
E3
330
95
100
AcDbEntity
  8
$DDT_AUDIT_GENERATED_(B3)
  6
Continuous
 62
     7
100
AcDbCircle
 10
57.850189403
 20
316.5576843502
 30
0.0
 40
0.5000000000000004
100
AcDbArc
 50
270.0
 51
0.0
  0
ARC
  5
E4
330
95
100
AcDbEntity
  8
$DDT_AUDIT_GENERATED_(B3)
  6
Continuous
 62
     7
100
AcDbCircle
 10
57.850189403
 20
363.5576843502
 30
0.0
 40
0.5000000000000004
100
AcDbArc
 50
0.0
 51
90.0
  0
SPLINE
  5
E5
330
95
100
AcDbEntity
  8
$DDT_AUDIT_GENERATED_(B3)
  6
Continuous
 62
     7
100
AcDbSpline
210
0.0
220
0.0
230
1.0
 70
     8
 71
     3
 72
    12
 73
     8
 74
     0
 42
0.000000020892873
 43
0.0000000001
 40
0.0
 40
0.0
 40
0.0
 40
0.0
 40
0.1100623766687656
 40
0.2856201762384243
 40
0.4498329212226069
 40
0.6147691798361387
 40
0.6838841012459083
 40
0.6838841012459083
 40
0.6838841012459083
 40
0.6838841012459083
 10
30.33607524200674
 20
361.1268042958684
 30
0.0
 10
30.33289947154824
 20
361.0931005951223
 30
0.0
 10
30.32644431826242
 20
361.0206251819093
 30
0.0
 10
30.26342617061942
 20
360.9210386364867
 30
0.0
 10
30.21154318878286
 20
360.8731454479238
 30
0.0
 10
30.18654231032197
 20
360.8588797277532
 30
0.0
 10
30.18365519098878
 20
360.8572412115332
 30
0.0
 10
30.18380489727488
 20
360.8572486546859
 30
0.0
  0
ARC
  5
E6
330
95
100
AcDbEntity
  8
$DDT_AUDIT_GENERATED_(B3)
  6
Continuous
 62
     7
100
AcDbCircle
 10
54.5021811695
 20
352.382508809
 30
0.0
 40
1.177284540832702
100
AcDbArc
 50
252.3310622052
 51
272.9775322439
  0
LINE
  5
E7
330
95
100
AcDbEntity
  8
$DDT_AUDIT_GENERATED_(B3)
  6
Continuous
 62
     7
100
AcDbLine
 10
57.850241204
 20
351.2055926453
 30
0.0
 11
54.5633812697
 21
351.2057867972
 31
0.0
  0
SPLINE
  5
E8
330
95
100
AcDbEntity
  8
$DDT_AUDIT_GENERATED_(B3)
  6
Continuous
 62
     7
100
AcDbSpline
210
0.0
220
0.0
230
1.0
 70
     8
 71
     3
 72
    14
 73
    10
 74
     0
 42
0.0000000145965985
 43
0.0000000001
 40
0.0
 40
0.0
 40
0.0
 40
0.0
 40
0.0210831824746682
 40
0.1950811627141062
 40
0.3581187576864083
 40
0.5331554393754114
 40
0.7351992953322345
 40
0.9558228614388803
 40
1.0
 40
1.0
 40
1.0
 40
1.0
 10
58.34760160568096
 20
350.8561285495596
 30
0.0
 10
58.3485074979631
 20
350.8611306697441
 30
0.0
 10
58.35563627931386
 20
350.9010347316147
 30
0.0
 10
58.3249075904401
 20
350.9822644167336
 30
0.0
 10
58.26094564007442
 20
351.0707114313664
 30
0.0
 10
58.16426998311822
 20
351.1397591060911
 30
0.0
 10
58.0390342762002
 20
351.1860973989455
 30
0.0
 10
57.92241780396076
 20
351.2082459158782
 30
0.0
 10
57.8619270392095
 20
351.2034354639739
 30
0.0
 10
57.85021186492096
 20
351.2024682233385
 30
0.0
  0
LINE
  5
EA
330
95
100
AcDbEntity
  8
$DDT_AUDIT_GENERATED_(E9)
  6
Continuous
 62
     7
100
AcDbLine
 10
20.754639699
 20
356.6820152753
 30
0.0
 11
20.754639699
 21
349.753812045
 31
0.0
  0
LINE
  5
EB
330
95
100
AcDbEntity
  8
$DDT_AUDIT_GENERATED_(E9)
  6
Continuous
 62
     7
100
AcDbLine
 10
52.3501962357
 20
357.4377890215
 30
0.0
 11
52.3501962357
 21
350.5095857912
 31
0.0
  0
LINE
  5
EC
330
95
100
AcDbEntity
  8
$DDT_AUDIT_GENERATED_(E9)
  6
Continuous
 62
     7
100
AcDbLine
 10
52.3501962357
 20
350.5095857912
 30
0.0
 11
52.3501962357
 21
348.6557136421
 31
0.0
  0
LINE
  5
ED
330
95
100
AcDbEntity
  8
$DDT_AUDIT_GENERATED_(E9)
  6
Continuous
 62
     7
100
AcDbLine
 10
20.754639699
 20
348.4020039162
 30
0.0
 11
20.754639699
 21
349.753812045
 31
0.0
  0
ARC
  5
EE
330
95
100
AcDbEntity
  8
$DDT_AUDIT_GENERATED_(E9)
  6
Continuous
 62
     7
100
AcDbCircle
 10
51.3501962357
 20
357.4377890215
 30
0.0
 40
1.000000000000001
100
AcDbArc
 50
0.0
 51
89.4593282235
  0
ARC
  5
EF
330
95
100
AcDbEntity
  8
$DDT_AUDIT_GENERATED_(E9)
  6
Continuous
 62
     7
100
AcDbCircle
 10
27.0739030092
 20
356.6701431721
 30
0.0
 40
6.311743973355897
100
AcDbArc
 50
150.0623746696
 51
179.0585623397
  0
ARC
  5
F0
330
95
100
AcDbEntity
  8
$DDT_AUDIT_GENERATED_(E9)
  6
Continuous
 62
     7
100
AcDbCircle
 10
53.8151821598
 20
615.7838100664
 30
0.0
 40
257.3605885461159
100
AcDbArc
 50
263.0329643257
 51
269.4532896599
  0
ARC
  5
F1
330
95
100
AcDbEntity
  8
$DDT_AUDIT_GENERATED_(E9)
  6
Continuous
 62
     7
100
AcDbCircle
 10
22.4769603923
 20
359.3344682464
 30
0.0
 40
1.000000000000001
100
AcDbArc
 50
82.9609739583
 51
90.0
  0
ARC
  5
F2
330
95
100
AcDbEntity
  8
$DDT_AUDIT_GENERATED_(E9)
  6
Continuous
 62
     7
100
AcDbCircle
 10
22.4769603923
 20
359.3344682464
 30
0.0
 40
1.000000000000001
100
AcDbArc
 50
90.0
 51
150.9253836453
  0
SPLINE
  5
F3
330
95
100
AcDbEntity
  8
$DDT_AUDIT_GENERATED_(E9)
  6
Continuous
 62
     7
100
AcDbSpline
210
0.0
220
0.0
230
1.0
 70
     8
 71
     3
 72
    13
 73
     9
 74
     0
 42
0.0000000049093336
 43
0.0000000001
 40
0.4897872462844577
 40
0.4897872462844577
 40
0.4897872462844577
 40
0.4897872462844577
 40
0.5351344146990002
 40
0.6208468229261331
 40
0.7138024690830258
 40
0.8057509360409026
 40
0.9049002531925057
 40
1.0
 40
1.0
 40
1.0
 40
1.0
 10
20.75972714828195
 20
354.5342577969233
 30
0.0
 10
20.74554352959127
 20
354.5259152030475
 30
0.0
 10
20.69843662342605
 20
354.4999171335295
 30
0.0
 10
20.5932319538116
 20
354.4532392642527
 30
0.0
 10
20.42526289093277
 20
354.3995621201111
 30
0.0
 10
20.22240077287435
 20
354.3551529947144
 30
0.0
 10
19.99044791692286
 20
354.3255306006362
 30
0.0
 10
19.84085853726364
 20
354.3216849078473
 30
0.0
 10
19.75443893597675
 20
354.3199512318276
 30
0.0
  0
LINE
  5
F5
330
95
100
AcDbEntity
  8
$DDT_AUDIT_GENERATED_(F4)
  6
Continuous
 62
     7
100
AcDbLine
 10
182.050189403
 20
310.0576843502
 30
0.0
 11
164.050189403
 21
310.0576843502
 31
0.0
  0
LINE
  5
F6
330
95
100
AcDbEntity
  8
$DDT_AUDIT_GENERATED_(F4)
  6
Continuous
 62
     7
100
AcDbLine
 10
162.570189403
 20
308.5776843502
 30
0.0
 11
183.530189403
 21
308.5776843502
 31
0.0
  0
LINE
  5
F7
330
95
100
AcDbEntity
  8
$DDT_AUDIT_GENERATED_(F4)
  6
Continuous
 62
     7
100
AcDbLine
 10
163.770189403
 20
301.1576843502
 30
0.0
 11
182.330189403
 21
301.1576843502
 31
0.0
  0
LINE
  5
F8
330
95
100
AcDbEntity
  8
$DDT_AUDIT_GENERATED_(F4)
  6
Continuous
 62
     7
100
AcDbLine
 10
162.570189403
 20
302.3576843502
 30
0.0
 11
183.530189403
 21
302.3576843502
 31
0.0
  0
LINE
  5
F9
330
95
100
AcDbEntity
  8
$DDT_AUDIT_GENERATED_(F4)
  6
Continuous
 62
     7
100
AcDbLine
 10
162.570189403
 20
308.5776843502
 30
0.0
 11
162.570189403
 21
302.3576843502
 31
0.0
  0
LINE
  5
FA
330
95
100
AcDbEntity
  8
$DDT_AUDIT_GENERATED_(F4)
  6
Continuous
 62
     7
100
AcDbLine
 10
183.530189403
 20
302.3576843502
 30
0.0
 11
183.530189403
 21
308.5776843502
 31
0.0
  0
LINE
  5
FB
330
95
100
AcDbEntity
  8
$DDT_AUDIT_GENERATED_(F4)
  6
Continuous
 62
     7
100
AcDbLine
 10
164.050189403
 20
316.0597500924
 30
0.0
 11
164.050189403
 21
310.0576843502
 31
0.0
  0
LINE
  5
FC
330
95
100
AcDbEntity
  8
$DDT_AUDIT_GENERATED_(F4)
  6
Continuous
 62
     7
100
AcDbLine
 10
182.050189403
 20
310.0576843502
 30
0.0
 11
182.050189403
 21
316.0850662374
 31
0.0
  0
LINE
  5
FD
330
95
100
AcDbEntity
  8
$DDT_AUDIT_GENERATED_(F4)
  6
Continuous
 62
     7
100
AcDbLine
 10
183.530189403
 20
308.5776843502
 30
0.0
 11
182.050189403
 21
310.0576843502
 31
0.0
  0
LINE
  5
FE
330
95
100
AcDbEntity
  8
$DDT_AUDIT_GENERATED_(F4)
  6
Continuous
 62
     7
100
AcDbLine
 10
164.050189403
 20
310.0576843502
 30
0.0
 11
162.570189403
 21
308.5776843502
 31
0.0
  0
LINE
  5
FF
330
95
100
AcDbEntity
  8
$DDT_AUDIT_GENERATED_(F4)
  6
Continuous
 62
     7
100
AcDbLine
 10
162.570189403
 20
302.3576843502
 30
0.0
 11
163.770189403
 21
301.1576843502
 31
0.0
  0
LINE
  5
100
330
95
100
AcDbEntity
  8
$DDT_AUDIT_GENERATED_(F4)
  6
Continuous
 62
     7
100
AcDbLine
 10
182.330189403
 20
301.1576843502
 30
0.0
 11
183.530189403
 21
302.3576843502
 31
0.0
  0
LINE
  5
101
330
95
100
AcDbEntity
  8
$DDT_AUDIT_GENERATED_(F4)
  6
Continuous
 62
     7
100
AcDbLine
 10
182.365189403
 20
309.7426843502
 30
0.0
 11
182.365189403
 21
301.1926843502
 31
0.0
  0
LINE
  5
102
330
95
100
AcDbEntity
  8
$DDT_AUDIT_GENERATED_(F4)
  6
Continuous
 62
     7
100
AcDbLine
 10
163.735189403
 20
309.7426843502
 30
0.0
 11
163.735189403
 21
301.1926843502
 31
0.0
  0
ARC
  5
104
330
95
100
AcDbEntity
  8
05919038_ROSETTE
  6
Continuous
 62
     7
100
AcDbCircle
 10
98.050189403
 20
340.0576843502
 30
0.0
 40
34.99964234602587
100
AcDbArc
 50
43.2923850343
 51
136.7076149657
  0
ARC
  5
105
330
95
100
AcDbEntity
  8
05919038_ROSETTE
  6
Continuous
 62
     7
100
AcDbCircle
 10
98.050189403
 20
340.0576843502
 30
0.0
 40
34.99964234602587
100
AcDbArc
 50
223.292395228
 51
316.707604772
  0
ARC
  5
106
330
95
100
AcDbEntity
  8
05919038_ROSETTE
  6
Continuous
 62
     7
100
AcDbCircle
 10
248.050189403
 20
340.0576843502
 30
0.0
 40
34.99964234602587
100
AcDbArc
 50
43.2923850343
 51
136.7076149657
  0
ARC
  5
107
330
95
100
AcDbEntity
  8
05919038_ROSETTE
  6
Continuous
 62
     7
100
AcDbCircle
 10
248.050189403
 20
340.0576843502
 30
0.0
 40
34.99964234602587
100
AcDbArc
 50
223.292395228
 51
316.707604772
  0
LINE
  5
109
330
95
100
AcDbEntity
  8
$DDT_AUDIT_GENERATED_(108)
  6
Continuous
 62
     7
100
AcDbLine
 10
279.050189403
 20
363.5576843502
 30
0.0
 11
279.050189403
 21
316.5576843502
 31
0.0
  0
LINE
  5
10A
330
95
100
AcDbEntity
  8
$DDT_AUDIT_GENERATED_(108)
  6
Continuous
 62
     7
100
AcDbLine
 10
287.050189403
 20
316.5576843502
 30
0.0
 11
287.050189403
 21
363.5576843502
 31
0.0
  0
LINE
  5
10B
330
95
100
AcDbEntity
  8
$DDT_AUDIT_GENERATED_(108)
  6
Continuous
 62
     7
100
AcDbLine
 10
279.550189403
 20
316.0576843502
 30
0.0
 11
286.550189403
 21
316.0576843502
 31
0.0
  0
LINE
  5
10C
330
95
100
AcDbEntity
  8
$DDT_AUDIT_GENERATED_(108)
  6
Continuous
 62
     7
100
AcDbLine
 10
286.550189403
 20
364.0576843502
 30
0.0
 11
279.550189403
 21
364.0576843502
 31
0.0
  0
LINE
  5
10D
330
95
100
AcDbEntity
  8
$DDT_AUDIT_GENERATED_(108)
  6
Continuous
 62
     7
100
AcDbLine
 10
287.550189403
 20
319.9076843502
 30
0.0
 11
288.150189403
 21
319.9076843502
 31
0.0
  0
LINE
  5
10E
330
95
100
AcDbEntity
  8
$DDT_AUDIT_GENERATED_(108)
  6
Continuous
 62
     7
100
AcDbLine
 10
288.150189403
 20
360.2076843502
 30
0.0
 11
287.550189403
 21
360.2076843502
 31
0.0
  0
ARC
  5
10F
330
95
100
AcDbEntity
  8
$DDT_AUDIT_GENERATED_(108)
  6
Continuous
 62
     7
100
AcDbCircle
 10
279.550189403
 20
316.5576843502
 30
0.0
 40
0.5000000000000004
100
AcDbArc
 50
180.0
 51
270.0
  0
ARC
  5
110
330
95
100
AcDbEntity
  8
$DDT_AUDIT_GENERATED_(108)
  6
Continuous
 62
     7
100
AcDbCircle
 10
279.550189403
 20
363.5576843502
 30
0.0
 40
0.5000000000000004
100
AcDbArc
 50
90.0
 51
180.0
  0
ARC
  5
111
330
95
100
AcDbEntity
  8
$DDT_AUDIT_GENERATED_(108)
  6
Continuous
 62
     7
100
AcDbCircle
 10
287.550189403
 20
360.7076843502
 30
0.0
 40
0.5000000000000004
100
AcDbArc
 50
180.0
 51
270.0
  0
ARC
  5
112
330
95
100
AcDbEntity
  8
$DDT_AUDIT_GENERATED_(108)
  6
Continuous
 62
     7
100
AcDbCircle
 10
287.550189403
 20
319.4076843502
 30
0.0
 40
0.5000000000000004
100
AcDbArc
 50
90.0
 51
180.0
  0
ARC
  5
113
330
95
100
AcDbEntity
  8
$DDT_AUDIT_GENERATED_(108)
  6
Continuous
 62
     7
100
AcDbCircle
 10
286.550189403
 20
363.5576843502
 30
0.0
 40
0.5000000000000004
100
AcDbArc
 50
0.0
 51
90.0
  0
ARC
  5
114
330
95
100
AcDbEntity
  8
$DDT_AUDIT_GENERATED_(108)
  6
Continuous
 62
     7
100
AcDbCircle
 10
286.550189403
 20
316.5576843502
 30
0.0
 40
0.5000000000000004
100
AcDbArc
 50
270.0
 51
0.0
  0
LINE
  5
115
330
95
100
AcDbEntity
  8
$DDT_AUDIT_GENERATED_(B3)
  6
Continuous
 62
     7
100
AcDbLine
 10
340.1501874956
 20
356.6363252568
 30
0.0
 11
340.1501874956
 21
347.3720901309
 31
0.0
  0
LINE
  5
116
330
95
100
AcDbEntity
  8
$DDT_AUDIT_GENERATED_(B3)
  6
Continuous
 62
     7
100
AcDbLine
 10
340.1501874956
 20
347.3720901309
 30
0.0
 11
340.1501874956
 21
323.4754244146
 31
0.0
  0
SPLINE
  5
117
330
95
100
AcDbEntity
  8
$DDT_AUDIT_GENERATED_(B3)
  6
Continuous
 62
     7
100
AcDbSpline
210
0.0
220
0.0
230
1.0
 70
     8
 71
     3
 72
    10
 73
     6
 74
     0
 42
0.0000000108020645
 43
0.0000000001
 40
0.1416334688656123
 40
0.1416334688656123
 40
0.1416334688656123
 40
0.1416334688656123
 40
0.2500000000000003
 40
0.2500000000000003
 40
0.4679744529992216
 40
0.4679744529992216
 40
0.4679744529992216
 40
0.4679744529992216
 10
316.5747040677078
 20
319.3702868381981
 30
0.0
 10
316.562512182858
 20
319.3547976307583
 30
0.0
 10
316.5452109423645
 20
319.3399770876707
 30
0.0
 10
316.476181018522
 20
319.297219456097
 30
0.0
 10
316.4082069538103
 20
319.2712525771174
 30
0.0
 10
316.3054230619925
 20
319.2468008537672
 30
0.0
  0
LINE
  5
118
330
95
100
AcDbEntity
  8
$DDT_AUDIT_GENERATED_(B3)
  6
Continuous
 62
     7
100
AcDbLine
 10
316.150189403
 20
336.2225707598
 30
0.0
 11
316.150189403
 21
317.5576843502
 31
0.0
  0
ARC
  5
119
330
95
100
AcDbEntity
  8
$DDT_AUDIT_GENERATED_(B3)
  6
Continuous
 62
     7
100
AcDbCircle
 10
285.0321954886
 20
-38.3157361308
 30
0.0
 40
400.4601715946102
100
AcDbArc
 50
85.7643276549
 51
89.4808681373
  0
SPLINE
  5
11A
330
95
100
AcDbEntity
  8
$DDT_AUDIT_GENERATED_(B3)
  6
Continuous
 62
     7
100
AcDbSpline
210
0.0
220
0.0
230
1.0
 70
     8
 71
     3
 72
    20
 73
    16
 74
     0
 42
0.0000000042743666
 43
0.0000000001
 40
0.1411424329328009
 40
0.1411424329328009
 40
0.1411424329328009
 40
0.1411424329328009
 40
0.2500000000000003
 40
0.2500000000000003
 40
0.5000000000000007
 40
0.5000000000000007
 40
0.6250000000000004
 40
0.6250000000000004
 40
0.7500000000000003
 40
0.7500000000000003
 40
0.8750000000000001
 40
0.8750000000000001
 40
0.9375000000000001
 40
0.9375000000000001
 40
1.0
 40
1.0
 40
1.0
 40
1.0
 10
316.5748831517495
 20
360.744193785526
 30
0.0
 10
316.5626816912727
 20
360.759750072383
 30
0.0
 10
316.5453264912198
 20
360.7746313728207
 30
0.0
 10
316.4694137409326
 20
360.8216187489884
 30
0.0
 10
316.3877632848821
 20
360.8509423051926
 30
0.0
 10
316.1928480638565
 20
360.8922492062689
 30
0.0
 10
316.1148511919026
 20
360.9056640470765
 30
0.0
 10
315.9269087275395
 20
360.9319472934205
 30
0.0
 10
315.8159727921189
 20
360.9449524524564
 30
0.0
 10
315.5505270509812
 20
360.9717780693889
 30
0.0
 10
315.3926966481914
 20
360.9858876614468
 30
0.0
 10
315.1163258653753
 20
361.0091759594338
 30
0.0
 10
315.018076436352
 20
361.0172689705436
 30
0.0
 10
314.8174044320442
 20
361.0337073728332
 30
0.0
 10
314.7124862571956
 20
361.0422627462443
 30
0.0
 10
314.6098276576583
 20
361.0506529266999
 30
0.0
  0
LINE
  5
11B
330
95
100
AcDbEntity
  8
$DDT_AUDIT_GENERATED_(B3)
  6
Continuous
 62
     7
100
AcDbLine
 10
316.150189403
 20
361.1749941126
 30
0.0
 11
316.150189403
 21
362.5576843502
 31
0.0
  0
LINE
  5
11C
330
95
100
AcDbEntity
  8
$DDT_AUDIT_GENERATED_(B3)
  6
Continuous
 62
     7
100
AcDbLine
 10
288.150189403
 20
341.5049606347
 30
0.0
 11
288.150189403
 21
350.8547917844
 31
0.0
  0
LINE
  5
11D
330
95
100
AcDbEntity
  8
$DDT_AUDIT_GENERATED_(B3)
  6
Continuous
 62
     7
100
AcDbLine
 10
288.150189403
 20
361.3826012868
 30
0.0
 11
288.150189403
 21
361.6282858936
 31
0.0
  0
LINE
  5
11E
330
95
100
AcDbEntity
  8
$DDT_AUDIT_GENERATED_(B3)
  6
Continuous
 62
     7
100
AcDbLine
 10
288.150189403
 20
337.526216451
 30
0.0
 11
288.150189403
 21
341.5049606347
 31
0.0
  0
LINE
  5
11F
330
95
100
AcDbEntity
  8
$DDT_AUDIT_GENERATED_(B3)
  6
Continuous
 62
     7
100
AcDbLine
 10
288.150189403
 20
337.526216451
 30
0.0
 11
288.150189403
 21
337.1464168737
 31
0.0
  0
LINE
  5
120
330
95
100
AcDbEntity
  8
$DDT_AUDIT_GENERATED_(B3)
  6
Continuous
 62
     7
100
AcDbLine
 10
288.150189403
 20
316.5576843502
 30
0.0
 11
288.150189403
 21
337.1464168737
 31
0.0
  0
LINE
  5
121
330
95
100
AcDbEntity
  8
$DDT_AUDIT_GENERATED_(B3)
  6
Continuous
 62
     7
100
AcDbLine
 10
288.150189403
 20
361.7070637858
 30
0.0
 11
288.150189403
 21
361.6812163375
 31
0.0
  0
LINE
  5
122
330
95
100
AcDbEntity
  8
$DDT_AUDIT_GENERATED_(B3)
  6
Continuous
 62
     7
100
AcDbLine
 10
288.150189403
 20
363.5576843502
 30
0.0
 11
288.150189403
 21
361.7070637858
 31
0.0
  0
ARC
  5
123
330
95
100
AcDbEntity
  8
$DDT_AUDIT_GENERATED_(B3)
  6
Continuous
 62
     7
100
AcDbCircle
 10
288.650189499
 20
361.62810739
 30
0.0
 40
0.4999976787899735
100
AcDbArc
 50
88.8139031993
 51
180.0
  0
ELLIPSE
  5
124
330
95
100
AcDbEntity
  8
$DDT_AUDIT_GENERATED_(B3)
  6
Continuous
 62
     7
100
AcDbEllipse
 10
316.650189403
 20
318.9397367339
 30
0.0
 11
0.5000000000000004
 21
-4.059252933785729E-13
 31
0.0
210
0.0
220
0.0
230
1.0
 40
0.9951738504
 41
3.034575645668359
 42
3.141592653589793
  0
ARC
  5
125
330
95
100
AcDbEntity
  8
$DDT_AUDIT_GENERATED_(B3)
  6
Continuous
 62
     7
100
AcDbCircle
 10
338.6525545105
 20
356.6351231563
 30
0.0
 40
1.49763346753785
100
AcDbArc
 50
0.0459894153
 51
82.5241964693
  0
ARC
  5
126
330
95
100
AcDbEntity
  8
$DDT_AUDIT_GENERATED_(B3)
  6
Continuous
 62
     7
100
AcDbCircle
 10
288.3077266803
 20
21.6346148823
 30
0.0
 40
340.2585658778677
100
AcDbArc
 50
84.2338915281
 51
89.9409602492
  0
ARC
  5
127
330
95
100
AcDbEntity
  8
$DDT_AUDIT_GENERATED_(B3)
  6
Continuous
 62
     7
100
AcDbCircle
 10
288.3077266803
 20
21.6346148823
 30
0.0
 40
340.2585658778677
100
AcDbArc
 50
81.4700617101
 51
83.8378378576
  0
ARC
  5
128
330
95
100
AcDbEntity
  8
$DDT_AUDIT_GENERATED_(B3)
  6
Continuous
 62
     7
100
AcDbCircle
 10
288.6348673946
 20
361.3777813183
 30
0.0
 40
0.4847019575334328
100
AcDbArc
 50
107.3410662108
 51
179.4302304731
  0
ARC
  5
129
330
95
100
AcDbEntity
  8
$DDT_AUDIT_GENERATED_(B3)
  6
Continuous
 62
     7
100
AcDbCircle
 10
287.9900772105
 20
360.9389656173
 30
0.0
 40
1.031018294193065
100
AcDbArc
 50
50.3250345587
 51
60.9699571259
  0
ARC
  5
12A
330
95
100
AcDbEntity
  8
$DDT_AUDIT_GENERATED_(B3)
  6
Continuous
 62
     7
100
AcDbCircle
 10
288.7333439744
 20
361.3586396303
 30
0.0
 40
0.5395983942387096
100
AcDbArc
 50
97.9897498167
 51
116.7588018517
  0
ARC
  5
12B
330
95
100
AcDbEntity
  8
$DDT_AUDIT_GENERATED_(B3)
  6
Continuous
 62
     7
100
AcDbCircle
 10
288.3084024888
 20
658.3787554581
 30
0.0
 40
340.1576481674978
100
AcDbArc
 50
275.6027583797
 51
278.5323838195
  0
SPLINE
  5
12C
330
95
100
AcDbEntity
  8
$DDT_AUDIT_GENERATED_(B3)
  6
Continuous
 62
     7
100
AcDbSpline
210
0.0
220
0.0
230
1.0
 70
     8
 71
     3
 72
    10
 73
     6
 74
     0
 42
0.0000000271433543
 43
0.0000000001
 40
0.0
 40
0.0
 40
0.0
 40
0.0
 40
0.5
 40
0.5
 40
1.0
 40
1.0
 40
1.0
 40
1.0
 10
288.490357325586
 20
341.4192729241075
 30
0.0
 10
288.3898998765703
 20
341.4254123534241
 30
0.0
 10
288.3032394485185
 20
341.4372114141342
 30
0.0
 10
288.182655261337
 20
341.4678394852151
 30
0.0
 10
288.1501894029834
 20
341.4865217240042
 30
0.0
 10
288.1501894029834
 20
341.5049606346516
 30
0.0
  0
ARC
  5
12D
330
95
100
AcDbEntity
  8
$DDT_AUDIT_GENERATED_(B3)
  6
Continuous
 62
     7
100
AcDbCircle
 10
292.3996092355
 20
344.148591712
 30
0.0
 40
4.767749106340164
100
AcDbArc
 50
214.9215540486
 51
218.3067654466
  0
ARC
  5
12E
330
95
100
AcDbEntity
  8
$DDT_AUDIT_GENERATED_(B3)
  6
Continuous
 62
     7
100
AcDbCircle
 10
303.9489952975
 20
331.3247228137
 30
0.0
 40
18.46264958984954
100
AcDbArc
 50
145.9692516215
 51
146.8553087115
  0
LINE
  5
12F
330
95
100
AcDbEntity
  8
$DDT_AUDIT_GENERATED_(B3)
  6
Continuous
 62
     7
100
AcDbLine
 10
288.150189403
 20
354.6651607722
 30
0.0
 11
288.150189403
 21
361.3826012868
 31
0.0
  0
LINE
  5
130
330
95
100
AcDbEntity
  8
$DDT_AUDIT_GENERATED_(B3)
  6
Continuous
 62
     7
100
AcDbLine
 10
288.150189403
 20
354.3644389097
 30
0.0
 11
288.150189403
 21
353.8179602712
 31
0.0
  0
LINE
  5
131
330
95
100
AcDbEntity
  8
$DDT_AUDIT_GENERATED_(B3)
  6
Continuous
 62
     7
100
AcDbLine
 10
288.150189403
 20
350.8843616491
 30
0.0
 11
288.150189403
 21
353.8179602712
 31
0.0
  0
LINE
  5
132
330
95
100
AcDbEntity
  8
$DDT_AUDIT_GENERATED_(B3)
  6
Continuous
 62
     7
100
AcDbLine
 10
288.150189403
 20
354.3644389097
 30
0.0
 11
288.150189403
 21
354.6651607722
 31
0.0
  0
SPLINE
  5
133
330
95
100
AcDbEntity
  8
$DDT_AUDIT_GENERATED_(B3)
  6
Continuous
 62
     7
100
AcDbSpline
210
0.0
220
0.0
230
1.0
 70
     8
 71
     3
 72
    10
 73
     6
 74
     0
 42
0.0000000119963011
 43
0.0000000001
 40
0.4641941153405554
 40
0.4641941153405554
 40
0.4641941153405554
 40
0.4641941153405554
 40
0.4999999999999999
 40
0.4999999999999999
 40
0.5208278074753794
 40
0.5208278074753794
 40
0.5208278074753794
 40
0.5208278074753794
 10
292.3752155145699
 20
351.2622811921027
 30
0.0
 10
292.3656547263916
 20
351.2595082216055
 30
0.0
 10
292.3560764470225
 20
351.2568130523928
 30
0.0
 10
292.3409034701128
 20
351.2526518694645
 30
0.0
 10
292.335317465614
 20
351.2511448625725
 30
0.0
 10
292.3297257581415
 20
351.2496607809343
 30
0.0
  0
SPLINE
  5
134
330
95
100
AcDbEntity
  8
$DDT_AUDIT_GENERATED_(B3)
  6
Continuous
 62
     7
100
AcDbSpline
210
0.0
220
0.0
230
1.0
 70
     8
 71
     3
 72
    10
 73
     6
 74
     0
 42
0.0000000078700231
 43
0.0000000001
 40
0.5472650986234081
 40
0.5472650986234081
 40
0.5472650986234081
 40
0.5472650986234081
 40
0.75
 40
0.75
 40
1.0
 40
1.0
 40
1.0
 40
1.0
 10
294.1401708678288
 20
355.4633111068177
 30
0.0
 10
294.0715508755841
 20
355.4021449360233
 30
0.0
 10
294.0155558706244
 20
355.332335468891
 30
0.0
 10
293.9263162514936
 20
355.1662887478506
 30
0.0
 10
293.9001865419604
 20
355.0659796413892
 30
0.0
 10
293.9001865419605
 20
354.9642948583711
 30
0.0
  0
SPLINE
  5
135
330
95
100
AcDbEntity
  8
$DDT_AUDIT_GENERATED_(B3)
  6
Continuous
 62
     7
100
AcDbSpline
210
0.0
220
0.0
230
1.0
 70
     8
 71
     3
 72
    10
 73
     6
 74
     0
 42
0.0000000077690971
 43
0.0000000001
 40
0.0
 40
0.0
 40
0.0
 40
0.0
 40
0.2500000000000008
 40
0.2500000000000008
 40
0.4585511769133791
 40
0.4585511769133791
 40
0.4585511769133791
 40
0.4585511769133791
 10
293.9001865419605
 20
356.4860137236967
 30
0.0
 10
293.9001865419605
 20
356.5892751784334
 30
0.0
 10
293.9258275617199
 20
356.6898706575328
 30
0.0
 10
294.0169138988414
 20
356.8620835827691
 30
0.0
 10
294.0748710068216
 20
356.9346487986714
 30
0.0
 10
294.1462566470215
 20
356.9980320058492
 30
0.0
  0
LINE
  5
136
330
95
100
AcDbEntity
  8
$DDT_AUDIT_GENERATED_(B3)
  6
Continuous
 62
     7
100
AcDbLine
 10
293.900186542
 20
349.2982769854
 30
0.0
 11
293.900186542
 21
356.4860137237
 31
0.0
  0
ARC
  5
137
330
95
100
AcDbEntity
  8
$DDT_AUDIT_GENERATED_(B3)
  6
Continuous
 62
     7
100
AcDbCircle
 10
294.8814566764
 20
349.3239252728
 30
0.0
 40
0.981605272652644
100
AcDbArc
 50
181.4972473374
 51
271.0933186777
  0
LINE
  5
138
330
95
100
AcDbEntity
  8
$DDT_AUDIT_GENERATED_(B3)
  6
Continuous
 62
     7
100
AcDbLine
 10
326.750186542
 20
356.1237178043
 30
0.0
 11
326.750186542
 21
349.7153076517
 31
0.0
  0
SPLINE
  5
139
330
95
100
AcDbEntity
  8
$DDT_AUDIT_GENERATED_(B3)
  6
Continuous
 62
     7
100
AcDbSpline
210
0.0
220
0.0
230
1.0
 70
     8
 71
     3
 72
    16
 73
    12
 74
     0
 42
0.0000000050913765
 43
0.0000000001
 40
0.0
 40
0.0
 40
0.0
 40
0.0
 40
0.2499999999999987
 40
0.2499999999999987
 40
0.3749999999999968
 40
0.3749999999999968
 40
0.499999999999995
 40
0.499999999999995
 40
0.7499999999999976
 40
0.7499999999999976
 40
0.800902222821484
 40
0.800902222821484
 40
0.800902222821484
 40
0.800902222821484
 10
326.7501865419605
 20
354.6045493822814
 30
0.0
 10
326.7501865419605
 20
354.7532969160597
 30
0.0
 10
326.7130113985277
 20
354.8974339092327
 30
0.0
 10
326.6051726465388
 20
355.0985967430015
 30
0.0
 10
326.5611787081586
 20
355.1619566322659
 30
0.0
 10
326.4572393803119
 20
355.2815588935205
 30
0.0
 10
326.3965821071509
 20
355.3381958954977
 30
0.0
 10
326.197156619654
 20
355.4905383215409
 30
0.0
 10
326.0359009626412
 20
355.572503460377
 30
0.0
 10
325.8251113510883
 20
355.6389223942085
 30
0.0
 10
325.7887553224414
 20
355.6490962795606
 30
0.0
 10
325.751830724803
 20
355.6581773021277
 30
0.0
  0
SPLINE
  5
13A
330
95
100
AcDbEntity
  8
$DDT_AUDIT_GENERATED_(B3)
  6
Continuous
 62
     7
100
AcDbSpline
210
0.0
220
0.0
230
1.0
 70
     8
 71
     3
 72
    16
 73
    12
 74
     0
 42
0.0000000050274658
 43
0.0000000001
 40
0.1856011486841453
 40
0.1856011486841453
 40
0.1856011486841453
 40
0.1856011486841453
 40
0.2499999999999993
 40
0.2499999999999993
 40
0.374999999999999
 40
0.374999999999999
 40
0.4999999999999987
 40
0.4999999999999987
 40
0.7499999999999993
 40
0.7499999999999993
 40
1.0
 40
1.0
 40
1.0
 40
1.0
 10
325.7194373626293
 20
357.2024546863209
 30
0.0
 10
325.7666820906809
 20
357.1915267259715
 30
0.0
 10
325.813248931846
 20
357.1787632623095
 30
0.0
 10
325.9465840450994
 20
357.1361631403411
 30
0.0
 10
326.029973419225
 20
357.1017821976255
 30
0.0
 10
326.1876617866756
 20
357.0204868464929
 30
0.0
 10
326.2619314382871
 20
356.9733256472771
 30
0.0
 10
326.4615006763405
 20
356.8186580745788
 30
0.0
 10
326.5686182132296
 20
356.6938539998775
 30
0.0
 10
326.7120623951976
 20
356.4231062465894
 30
0.0
 10
326.7501865419605
 20
356.274591003961
 30
0.0
 10
326.7501865419605
 20
356.1237178043089
 30
0.0
  0
ARC
  5
13B
330
95
100
AcDbEntity
  8
$DDT_AUDIT_GENERATED_(B3)
  6
Continuous
 62
     7
100
AcDbCircle
 10
303.5925867711
 20
-15890.8316747184
 30
0.0
 40
16239.17649983142
100
AcDbArc
 50
89.9234102653
 51
90.0306689117
  0
ARC
  5
13C
330
95
100
AcDbEntity
  8
$DDT_AUDIT_GENERATED_(B3)
  6
Continuous
 62
     7
100
AcDbCircle
 10
325.3286918627
 20
349.7519987554
 30
0.0
 40
1.42196812910281
100
AcDbArc
 50
268.8513497961
 51
358.5214304751
  0
ARC
  5
13D
330
95
100
AcDbEntity
  8
$DDT_AUDIT_GENERATED_(B3)
  6
Continuous
 62
     7
100
AcDbCircle
 10
275.0043925319
 20
757.8032065174
 30
0.0
 40
440.3950885515546
100
AcDbArc
 50
275.413180314
 51
278.3398270784
  0
ARC
  5
13E
330
95
100
AcDbEntity
  8
$DDT_AUDIT_GENERATED_(B3)
  6
Continuous
 62
     7
100
AcDbCircle
 10
275.0044429887
 20
-77.8220517324
 30
0.0
 40
440.527829685503
100
AcDbArc
 50
83.9395707337
 51
84.5884387068
  0
LINE
  5
13F
330
95
100
AcDbEntity
  8
$DDT_AUDIT_GENERATED_(B3)
  6
Continuous
 62
     7
100
AcDbLine
 10
288.650189403
 20
316.0576843502
 30
0.0
 11
314.650189403
 21
316.0576843502
 31
0.0
  0
LINE
  5
140
330
95
100
AcDbEntity
  8
$DDT_AUDIT_GENERATED_(B3)
  6
Continuous
 62
     7
100
AcDbLine
 10
314.650189403
 20
364.0576843502
 30
0.0
 11
288.650189403
 21
364.0576843502
 31
0.0
  0
ARC
  5
141
330
95
100
AcDbEntity
  8
$DDT_AUDIT_GENERATED_(B3)
  6
Continuous
 62
     7
100
AcDbCircle
 10
338.6501940394
 20
323.4761469172
 30
0.0
 40
1.499993457256808
100
AcDbArc
 50
277.8115336537
 51
0.0568131587
  0
ARC
  5
142
330
95
100
AcDbEntity
  8
$DDT_AUDIT_GENERATED_(B3)
  6
Continuous
 62
     7
100
AcDbCircle
 10
314.650189403
 20
362.5576843502
 30
0.0
 40
1.500000000000001
100
AcDbArc
 50
0.0
 51
90.0
  0
ARC
  5
143
330
95
100
AcDbEntity
  8
$DDT_AUDIT_GENERATED_(B3)
  6
Continuous
 62
     7
100
AcDbCircle
 10
314.650189403
 20
317.5576843502
 30
0.0
 40
1.500000000000001
100
AcDbArc
 50
270.0
 51
0.0
  0
SPLINE
  5
144
330
95
100
AcDbEntity
  8
$DDT_AUDIT_GENERATED_(B3)
  6
Continuous
 62
     7
100
AcDbSpline
210
0.0
220
0.0
230
1.0
 70
     8
 71
     3
 72
    12
 73
     8
 74
     0
 42
0.000000020673303
 43
0.0000000001
 40
0.308003128267523
 40
0.308003128267523
 40
0.308003128267523
 40
0.308003128267523
 40
0.347725796021167
 40
0.5327954354509886
 40
0.6938193680473301
 40
0.8696196796837821
 40
1.0
 40
1.0
 40
1.0
 40
1.0
 10
316.3181781457145
 20
360.8557643417233
 30
0.0
 10
316.3181165971725
 20
360.8557679772285
 30
0.0
 10
316.3156608321477
 20
360.8567813857806
 30
0.0
 10
316.2925852650283
 20
360.8695481567958
 30
0.0
 10
316.2408540185977
 20
360.9160937392378
 30
0.0
 10
316.1762361906054
 20
361.0147069660624
 30
0.0
 10
316.1677281500267
 20
361.0921616910934
 30
0.0
 10
316.1631081368466
 20
361.1321272464638
 30
0.0
  0
ARC
  5
145
330
95
100
AcDbEntity
  8
$DDT_AUDIT_GENERATED_(B3)
  6
Continuous
 62
     7
100
AcDbCircle
 10
288.650189403
 20
363.5576843502
 30
0.0
 40
0.499999999999997
100
AcDbArc
 50
90.0
 51
180.0
  0
ARC
  5
146
330
95
100
AcDbEntity
  8
$DDT_AUDIT_GENERATED_(B3)
  6
Continuous
 62
     7
100
AcDbCircle
 10
288.650189403
 20
316.5576843502
 30
0.0
 40
0.5000000000000004
100
AcDbArc
 50
180.0
 51
270.0
  0
SPLINE
  5
147
330
95
100
AcDbEntity
  8
$DDT_AUDIT_GENERATED_(B3)
  6
Continuous
 62
     7
100
AcDbSpline
210
0.0
220
0.0
230
1.0
 70
     8
 71
     3
 72
    12
 73
     8
 74
     0
 42
0.0000000210586054
 43
0.0000000001
 40
0.0
 40
0.0
 40
0.0
 40
0.0
 40
0.1392991979380843
 40
0.315213784329889
 40
0.4811285477999014
 40
0.6543886979904942
 40
0.6850314603632159
 40
0.6850314603632159
 40
0.6850314603632159
 40
0.6850314603632159
 10
316.1633795922747
 20
318.9915696822011
 30
0.0
 10
316.1699403013624
 20
319.0338568632925
 30
0.0
 10
316.1816628330703
 20
319.1127871294588
 30
0.0
 10
316.2483531690031
 20
319.206802985283
 30
0.0
 10
316.2961477432289
 20
319.2472381737122
 30
0.0
 10
316.3161423029083
 20
319.2580670885603
 30
0.0
 10
316.3180216987005
 20
319.2588452991927
 30
0.0
 10
316.3180844571525
 20
319.258856459516
 30
0.0
  0
SPLINE
  5
148
330
95
100
AcDbEntity
  8
$DDT_AUDIT_GENERATED_(B3)
  6
Continuous
 62
     7
100
AcDbSpline
210
0.0
220
0.0
230
1.0
 70
     8
 71
     3
 72
    13
 73
     9
 74
     0
 42
0.0000000145867132
 43
0.0000000001
 40
0.0
 40
0.0
 40
0.0
 40
0.0
 40
0.0144378386938033
 40
0.2352177012802472
 40
0.468305148529103
 40
0.6657302819811202
 40
0.8425396775995349
 40
1.0
 40
1.0
 40
1.0
 40
1.0
 10
288.6502675230807
 20
351.2048374633059
 30
0.0
 10
288.6464112480461
 20
351.2050169080678
 30
0.0
 10
288.5922681873736
 20
351.2074666672447
 30
0.0
 10
288.4738935932189
 20
351.1906355680114
 30
0.0
 10
288.3349214649666
 20
351.1410223418794
 30
0.0
 10
288.2295272723429
 20
351.0623545294238
 30
0.0
 10
288.1621346095835
 20
350.9618570225189
 30
0.0
 10
288.1548393587461
 20
350.8926205177459
 30
0.0
 10
288.1516482944141
 20
350.8545235343629
 30
0.0
  0
LINE
  5
149
330
95
100
AcDbEntity
  8
$DDT_AUDIT_GENERATED_(B3)
  6
Continuous
 62
     7
100
AcDbLine
 10
291.9375682728
 20
351.205756198
 30
0.0
 11
288.6501371271
 21
351.205662212
 31
0.0
  0
ARC
  5
14A
330
95
100
AcDbEntity
  8
$DDT_AUDIT_GENERATED_(B3)
  6
Continuous
 62
     7
100
AcDbCircle
 10
292.0115531989
 20
352.3773140136
 30
0.0
 40
1.169529956519753
100
AcDbArc
 50
266.3749985737
 51
288.1033540812
  0
LINE
  5
14B
330
95
100
AcDbEntity
  8
$DDT_AUDIT_GENERATED_(E9)
  6
Continuous
 62
     7
100
AcDbLine
 10
325.745739107
 20
349.753812045
 30
0.0
 11
325.745739107
 21
356.6820152753
 31
0.0
  0
LINE
  5
14C
330
95
100
AcDbEntity
  8
$DDT_AUDIT_GENERATED_(E9)
  6
Continuous
 62
     7
100
AcDbLine
 10
325.745739107
 20
349.753812045
 30
0.0
 11
325.745739107
 21
348.416513874
 31
0.0
  0
LINE
  5
14D
330
95
100
AcDbEntity
  8
$DDT_AUDIT_GENERATED_(E9)
  6
Continuous
 62
     7
100
AcDbLine
 10
294.1501825703
 20
350.5095857912
 30
0.0
 11
294.1501825703
 21
357.4377890215
 31
0.0
  0
LINE
  5
14E
330
95
100
AcDbEntity
  8
$DDT_AUDIT_GENERATED_(E9)
  6
Continuous
 62
     7
100
AcDbLine
 10
294.1501825703
 20
348.6557136421
 30
0.0
 11
294.1501825703
 21
350.5095857912
 31
0.0
  0
ARC
  5
14F
330
95
100
AcDbEntity
  8
$DDT_AUDIT_GENERATED_(E9)
  6
Continuous
 62
     7
100
AcDbCircle
 10
295.1501825703
 20
357.4377890215
 30
0.0
 40
1.000000000000017
100
AcDbArc
 50
90.5406717765
 51
180.0
  0
ARC
  5
150
330
95
100
AcDbEntity
  8
$DDT_AUDIT_GENERATED_(E9)
  6
Continuous
 62
     7
100
AcDbCircle
 10
292.6731115324
 20
615.9700685703
 30
0.0
 40
257.5472871522642
100
AcDbArc
 50
270.5489925212
 51
276.9646931609
  0
ARC
  5
151
330
95
100
AcDbEntity
  8
$DDT_AUDIT_GENERATED_(E9)
  6
Continuous
 62
     7
100
AcDbCircle
 10
324.0234184137
 20
359.3344682464
 30
0.0
 40
1.000000000000018
100
AcDbArc
 50
29.0746163547
 51
97.0390260417
  0
ARC
  5
152
330
95
100
AcDbEntity
  8
$DDT_AUDIT_GENERATED_(E9)
  6
Continuous
 62
     7
100
AcDbCircle
 10
319.4259269967
 20
356.6695753839
 30
0.0
 40
6.312311129232056
100
AcDbArc
 50
0.8907551997
 51
29.9400515784
  0
SPLINE
  5
153
330
95
100
AcDbEntity
  8
$DDT_AUDIT_GENERATED_(E9)
  6
Continuous
 62
     7
100
AcDbSpline
210
0.0
220
0.0
230
1.0
 70
     8
 71
     3
 72
    13
 73
     9
 74
     0
 42
0.0000000049067492
 43
0.0000000001
 40
0.0
 40
0.0
 40
0.0
 40
0.0
 40
0.0691793198970313
 40
0.1684255544677269
 40
0.2672392482561232
 40
0.363229610588222
 40
0.4570451636998986
 40
0.5095893660731041
 40
0.5095893660731041
 40
0.5095893660731041
 40
0.5095893660731041
 10
326.7458352593044
 20
354.3220492571992
 30
0.0
 10
326.682875094476
 20
354.3219999782239
 30
0.0
 10
326.5523559424679
 20
354.3224685395295
 30
0.0
 10
326.3322525050526
 20
354.3465365903212
 30
0.0
 10
326.1149908337127
 20
354.3888955406076
 30
0.0
 10
325.9315199648557
 20
354.4438462762211
 30
0.0
 10
325.8096474570928
 20
354.495955756194
 30
0.0
 10
325.7572112294872
 20
354.5243770233365
 30
0.0
 10
325.7411763090513
 20
354.5337783257991
 30
0.0
  0
ENDBLK
  5
155
330
95
100
AcDbEntity
  8
0
100
AcDbBlockEnd
  0
BLOCK
  5
1C5
330
156
100
AcDbEntity
  8
0
100
AcDbBlockBegin
  2
SE1
 70
     0
 10
0.0
 20
0.0
 30
0.0
  3
SE1
  1

  0
ARC
  5
158
330
156
100
AcDbEntity
  8
$DDT_AUDIT_GENERATED_(97)
  6
Continuous
 62
     7
100
AcDbCircle
 10
504.5005840904
 20
134.0305773944
 30
0.0
 40
230.0271184517403
100
AcDbArc
 50
89.9770409806
 51
99.8920663505
  0
ARC
  5
159
330
156
100
AcDbEntity
  8
$DDT_AUDIT_GENERATED_(97)
  6
Continuous
 62
     7
100
AcDbCircle
 10
504.4868599747
 20
545.9262780071
 30
0.0
 40
229.8686096850954
100
AcDbArc
 50
260.104508813
 51
270.0269604148
  0
ARC
  5
15A
330
156
100
AcDbEntity
  8
$DDT_AUDIT_GENERATED_(97)
  6
Continuous
 62
     7
100
AcDbCircle
 10
505.6707358197
 20
552.7127338779
 30
0.0
 40
236.7575533851826
100
AcDbArc
 50
260.00277295
 51
260.104508813
  0
ARC
  5
15B
330
156
100
AcDbEntity
  8
$DDT_AUDIT_GENERATED_(97)
  6
Continuous
 62
     7
100
AcDbCircle
 10
504.5700173956
 20
133.6324169839
 30
0.0
 40
230.431287594935
100
AcDbArc
 50
99.8920663505
 51
99.9966020577
  0
LINE
  5
15C
330
156
100
AcDbEntity
  8
$DDT_AUDIT_GENERATED_(97)
  6
Continuous
 62
     7
100
AcDbLine
 10
464.5695024758
 20
320.0577959351
 30
0.0
 11
464.5695024758
 21
319.5500702661
 31
0.0
  0
ARC
  5
15D
330
156
100
AcDbEntity
  8
$DDT_AUDIT_GENERATED_(97)
  6
Continuous
 62
     7
100
AcDbCircle
 10
464.5119465825
 20
320.067971203
 30
0.0
 40
0.4999999999982664
100
AcDbArc
 50
187.6840584132
 51
259.9672228491
  0
ARC
  5
15E
330
156
100
AcDbEntity
  8
$DDT_AUDIT_GENERATED_(97)
  6
Continuous
 62
     7
100
AcDbCircle
 10
464.5119479795
 20
360.0474078519
 30
0.0
 40
0.4999999999998321
100
AcDbArc
 50
100.0331285463
 51
172.3159375823
  0
LINE
  5
15F
330
156
100
AcDbEntity
  8
$DDT_AUDIT_GENERATED_(97)
  6
Continuous
 62
     7
100
AcDbLine
 10
464.5695024758
 20
360.5653081849
 30
0.0
 11
464.5695024758
 21
360.0575830349
 31
0.0
  0
LINE
  5
160
330
156
100
AcDbEntity
  8
$DDT_AUDIT_GENERATED_(97)
  6
Continuous
 62
     7
100
AcDbLine
 10
464.5695024758
 20
360.5653081849
 30
0.0
 11
464.4248391962
 21
360.5397614442
 31
0.0
  0
ARC
  5
161
330
156
100
AcDbEntity
  8
$DDT_AUDIT_GENERATED_(97)
  6
Continuous
 62
     7
100
AcDbCircle
 10
612.6695024758
 20
340.0576843502
 30
0.0
 40
150.0000000000039
100
AcDbArc
 50
172.3159375823
 51
172.6215231454
  0
ARC
  5
162
330
156
100
AcDbEntity
  8
$DDT_AUDIT_GENERATED_(97)
  6
Continuous
 62
     7
100
AcDbCircle
 10
612.6695024758
 20
340.0576843502
 30
0.0
 40
150.0000000000039
100
AcDbArc
 50
187.3772136801
 51
187.6840584134
  0
LINE
  5
163
330
156
100
AcDbEntity
  8
$DDT_AUDIT_GENERATED_(97)
  6
Continuous
 62
     7
100
AcDbLine
 10
464.4248408188
 20
319.5756170764
 30
0.0
 11
464.5695024758
 21
319.5500702661
 31
0.0
  0
LINE
  5
164
330
156
100
AcDbEntity
  8
$DDT_AUDIT_GENERATED_(97)
  6
Continuous
 62
     7
100
AcDbLine
 10
464.5695024758
 20
320.0577959351
 30
0.0
 11
464.5695024758
 21
360.0575830349
 31
0.0
  0
ARC
  5
165
330
156
100
AcDbEntity
  8
$DDT_AUDIT_GENERATED_(97)
  6
Continuous
 62
     7
100
AcDbCircle
 10
504.4868599747
 20
545.9262780071
 30
0.0
 40
229.868609685086
100
AcDbArc
 50
267.215390233
 51
267.2762985849
  0
ARC
  5
166
330
156
100
AcDbEntity
  8
$DDT_AUDIT_GENERATED_(A6)
  6
Continuous
 62
     7
100
AcDbCircle
 10
504.5695024758
 20
340.0576843502
 30
0.0
 40
24.0
100
AcDbArc
 50
300.0
 51
353.3432670161
  0
ARC
  5
167
330
156
100
AcDbEntity
  8
$DDT_AUDIT_GENERATED_(B3)
  6
Continuous
 62
     7
100
AcDbCircle
 10
514.2282595418
 20
323.3354915355
 30
0.0
 40
38.79746415374871
100
AcDbArc
 50
149.8186589195
 51
156.312665822
  0
ARC
  5
168
330
156
100
AcDbEntity
  8
$DDT_AUDIT_GENERATED_(B3)
  6
Continuous
 62
     7
100
AcDbCircle
 10
504.5695024758
 20
340.0576843502
 30
0.0
 40
24.0
100
AcDbArc
 50
61.3107346696
 51
178.6895441668
  0
ARC
  5
169
330
156
100
AcDbEntity
  8
$DDT_AUDIT_GENERATED_(B3)
  6
Continuous
 62
     7
100
AcDbCircle
 10
494.909487276
 20
356.780023138
 30
0.0
 40
38.79748605417436
100
AcDbArc
 50
329.8232964793
 51
336.3118665718
  0
ARC
  5
16A
330
156
100
AcDbEntity
  8
$DDT_AUDIT_GENERATED_(B3)
  6
Continuous
 62
     7
100
AcDbCircle
 10
504.5695024758
 20
340.0576843502
 30
0.0
 40
24.0
100
AcDbArc
 50
241.3099779234
 51
358.6939134128
  0
ARC
  5
16B
330
156
100
AcDbEntity
  8
$DDT_AUDIT_GENERATED_(B3)
  6
Continuous
 62
     7
100
AcDbCircle
 10
504.5695024758
 20
340.0576843502
 30
0.0
 40
24.00000000000286
100
AcDbArc
 50
64.971669271
 51
67.1162967365
  0
ARC
  5
16C
330
156
100
AcDbEntity
  8
$DDT_AUDIT_GENERATED_(B3)
  6
Continuous
 62
     7
100
AcDbCircle
 10
504.5695024758
 20
340.0576843502
 30
0.0
 40
24.00000000000172
100
AcDbArc
 50
172.8836594399
 51
172.9839080615
  0
ARC
  5
16D
330
156
100
AcDbEntity
  8
$DDT_AUDIT_GENERATED_(B3)
  6
Continuous
 62
     7
100
AcDbCircle
 10
504.5695024758
 20
340.0576843502
 30
0.0
 40
23.99999999999706
100
AcDbArc
 50
352.8904592492
 51
353.0125056526
  0
ARC
  5
16E
330
156
100
AcDbEntity
  8
$DDT_AUDIT_GENERATED_(B3)
  6
Continuous
 62
     7
100
AcDbCircle
 10
504.5695024758
 20
340.0576843502
 30
0.0
 40
23.99999999999264
100
AcDbArc
 50
244.9752026733
 51
247.1154621507
  0
ARC
  5
16F
330
156
100
AcDbEntity
  8
$DDT_AUDIT_GENERATED_(B3)
  6
Continuous
 62
     7
100
AcDbCircle
 10
528.8830683998
 20
337.025593947
 30
0.0
 40
0.5018992957181223
100
AcDbArc
 50
149.8409278055
 51
172.9398328672
  0
ARC
  5
170
330
156
100
AcDbEntity
  8
$DDT_AUDIT_GENERATED_(B3)
  6
Continuous
 62
     7
100
AcDbCircle
 10
495.0409204794
 20
317.4844950929
 30
0.0
 40
0.501892929513355
100
AcDbArc
 50
67.0658811618
 51
90.1651574613
  0
ARC
  5
171
330
156
100
AcDbEntity
  8
$DDT_AUDIT_GENERATED_(B3)
  6
Continuous
 62
     7
100
AcDbCircle
 10
514.0977552039
 20
362.6310111743
 30
0.0
 40
0.5018916203907187
100
AcDbArc
 50
247.0667095607
 51
270.1638583085
  0
ARC
  5
172
330
156
100
AcDbEntity
  8
$DDT_AUDIT_GENERATED_(B3)
  6
Continuous
 62
     7
100
AcDbCircle
 10
480.2562941787
 20
343.0926604485
 30
0.0
 40
0.5019016927738087
100
AcDbArc
 50
329.8363235896
 51
352.9330433726
  0
SPLINE
  5
173
330
156
100
AcDbEntity
  8
$DDT_AUDIT_GENERATED_(B3)
  6
Continuous
 62
     7
100
AcDbSpline
210
0.0
220
0.0
230
1.0
 70
     8
 71
     3
 72
    10
 73
     6
 74
     0
 42
0.0000000014733931
 43
0.0000000001
 40
0.0
 40
0.0
 40
0.0
 40
0.0
 40
0.4999999999999999
 40
0.4999999999999999
 40
0.8301566652864709
 40
0.8301566652864709
 40
0.8301566652864709
 40
0.8301566652864709
 10
529.4363608841104
 20
347.5913799312084
 30
0.0
 10
529.8470052083155
 20
345.9422105033786
 30
0.0
 10
530.2005299809185
 20
344.3491097744094
 30
0.0
 10
530.4763165635658
 20
342.7582937603024
 30
0.0
 10
530.5117665442757
 20
342.3714130714714
 30
0.0
 10
530.5208902784108
 20
342.0716593841755
 30
0.0
  0
ARC
  5
174
330
156
100
AcDbEntity
  8
$DDT_AUDIT_GENERATED_(B3)
  6
Continuous
 62
     7
100
AcDbCircle
 10
529.4632585116
 20
341.5936623141
 30
0.0
 40
1.059206015520371
100
AcDbArc
 50
350.4995350788
 51
358.7869482801
  0
ARC
  5
175
330
156
100
AcDbEntity
  8
$DDT_AUDIT_GENERATED_(B3)
  6
Continuous
 62
     7
100
AcDbCircle
 10
529.5800308879
 20
341.5816625779
 30
0.0
 40
0.9420840038353995
100
AcDbArc
 50
335.6223305099
 51
350.0471174648
  0
ARC
  5
176
330
156
100
AcDbEntity
  8
$DDT_AUDIT_GENERATED_(B3)
  6
Continuous
 62
     7
100
AcDbCircle
 10
504.0242541421
 20
339.742885078
 30
0.0
 40
25.37040797627074
100
AcDbArc
 50
196.5314895178
 51
223.4685106569
  0
SPLINE
  5
177
330
156
100
AcDbEntity
  8
$DDT_AUDIT_GENERATED_(B3)
  6
Continuous
 62
     7
100
AcDbSpline
210
0.0
220
0.0
230
1.0
 70
     8
 71
     3
 72
    10
 73
     6
 74
     0
 42
0.0000000014762328
 43
0.0000000001
 40
0.1672269110686534
 40
0.1672269110686534
 40
0.1672269110686534
 40
0.1672269110686534
 40
0.5
 40
0.5
 40
1.0
 40
1.0
 40
1.0
 40
1.0
 10
489.8544803453037
 20
318.585445734214
 30
0.0
 10
489.5983856000254
 20
318.7434712884171
 30
0.0
 10
489.2799458872594
 20
318.9679695134332
 30
0.0
 10
488.0364842566543
 20
320.0057900079765
 30
0.0
 10
486.8340744970079
 20
321.1087279405202
 30
0.0
 10
485.6116151965449
 20
322.2891654761195
 30
0.0
  0
ARC
  5
178
330
156
100
AcDbEntity
  8
$DDT_AUDIT_GENERATED_(B3)
  6
Continuous
 62
     7
100
AcDbCircle
 10
494.9156184059
 20
356.7800376876
 30
0.0
 40
38.7938494644423
100
AcDbArc
 50
263.6888787277
 51
270.1829259247
  0
ARC
  5
179
330
156
100
AcDbEntity
  8
$DDT_AUDIT_GENERATED_(B3)
  6
Continuous
 62
     7
100
AcDbCircle
 10
490.7433930119
 20
319.15883788
 30
0.0
 40
0.9420748842816218
100
AcDbArc
 50
249.9484613218
 51
264.3789169162
  0
ARC
  5
17A
330
156
100
AcDbEntity
  8
$DDT_AUDIT_GENERATED_(B3)
  6
Continuous
 62
     7
100
AcDbCircle
 10
490.7913989034
 20
319.2659785315
 30
0.0
 40
1.059213715319749
100
AcDbArc
 50
241.2868929811
 51
249.4961771391
  0
SPLINE
  5
17B
330
156
100
AcDbEntity
  8
$DDT_AUDIT_GENERATED_(B3)
  6
Continuous
 62
     7
100
AcDbSpline
210
0.0
220
0.0
230
1.0
 70
     8
 71
     3
 72
    10
 73
     6
 74
     0
 42
0.0000000014731302
 43
0.0000000001
 40
0.0
 40
0.0
 40
0.0
 40
0.0
 40
0.5000000000000001
 40
0.5000000000000001
 40
0.8298555203638733
 40
0.8298555203638733
 40
0.8298555203638733
 40
0.8298555203638733
 10
479.7025701255695
 20
332.523931727237
 30
0.0
 10
479.2914996832728
 20
334.172874951202
 30
0.0
 10
478.9375106431535
 20
335.7657754455064
 30
0.0
 10
478.6614534761636
 20
337.3559051902436
 30
0.0
 10
478.6259104686148
 20
337.7426652082842
 30
0.0
 10
478.6167214890666
 20
338.0423307608626
 30
0.0
  0
ARC
  5
17C
330
156
100
AcDbEntity
  8
$DDT_AUDIT_GENERATED_(B3)
  6
Continuous
 62
     7
100
AcDbCircle
 10
479.6743047942
 20
338.5213662262
 30
0.0
 40
1.059214280990048
100
AcDbArc
 50
170.5046820581
 51
178.7895127972
  0
ARC
  5
17D
330
156
100
AcDbEntity
  8
$DDT_AUDIT_GENERATED_(B3)
  6
Continuous
 62
     7
100
AcDbCircle
 10
479.5575146836
 20
338.5333613156
 30
0.0
 40
0.942074853227533
100
AcDbArc
 50
155.6229883034
 51
170.0524434377
  0
ARC
  5
17E
330
156
100
AcDbEntity
  8
$DDT_AUDIT_GENERATED_(B3)
  6
Continuous
 62
     7
100
AcDbCircle
 10
505.1155070072
 20
340.3731464967
 30
0.0
 40
25.3694073091549
100
AcDbArc
 50
16.5304642954
 51
43.468610067
  0
SPLINE
  5
17F
330
156
100
AcDbEntity
  8
$DDT_AUDIT_GENERATED_(B3)
  6
Continuous
 62
     7
100
AcDbSpline
210
0.0
220
0.0
230
1.0
 70
     8
 71
     3
 72
    10
 73
     6
 74
     0
 42
0.0000000014761007
 43
0.0000000001
 40
0.1673381606335364
 40
0.1673381606335364
 40
0.1673381606335364
 40
0.1673381606335364
 40
0.5
 40
0.5
 40
1.0
 40
1.0
 40
1.0
 40
1.0
 10
519.284754229892
 20
361.5298143455512
 30
0.0
 10
519.5408025112106
 20
361.3718172717791
 30
0.0
 10
519.8591941203064
 20
361.1473455113017
 30
0.0
 10
521.1024958741573
 20
360.1096646336073
 30
0.0
 10
522.3049192096265
 20
359.0066908803742
 30
0.0
 10
523.5273894344036
 20
357.8262096291086
 30
0.0
  0
ARC
  5
180
330
156
100
AcDbEntity
  8
$DDT_AUDIT_GENERATED_(B3)
  6
Continuous
 62
     7
100
AcDbCircle
 10
514.2221486732
 20
323.3354686646
 30
0.0
 40
38.79384780177947
100
AcDbArc
 50
83.6869826565
 51
90.1816007947
  0
ARC
  5
181
330
156
100
AcDbEntity
  8
$DDT_AUDIT_GENERATED_(B3)
  6
Continuous
 62
     7
100
AcDbCircle
 10
518.3956146632
 20
360.956525792
 30
0.0
 40
0.9420782190616551
100
AcDbArc
 50
69.948432847
 51
84.3767838068
  0
ARC
  5
182
330
156
100
AcDbEntity
  8
$DDT_AUDIT_GENERATED_(B3)
  6
Continuous
 62
     7
100
AcDbCircle
 10
518.3476155998
 20
360.8493896828
 30
0.0
 40
1.059210407459803
100
AcDbArc
 50
61.2914463295
 51
69.4964131286
  0
LINE
  5
183
330
156
100
AcDbEntity
  8
$DDT_AUDIT_GENERATED_(B3)
  6
Continuous
 62
     7
100
AcDbLine
 10
529.2219066024
 20
348.3440487362
 30
0.0
 11
529.1976603943
 21
348.3300501815
 31
0.0
  0
ARC
  5
184
330
156
100
AcDbEntity
  8
$DDT_AUDIT_GENERATED_(B3)
  6
Continuous
 62
     7
100
AcDbCircle
 10
502.9116271908
 20
339.4028950643
 30
0.0
 40
27.78432173202115
100
AcDbArc
 50
18.7680368705
 51
19.0819240256
  0
ARC
  5
185
330
156
100
AcDbEntity
  8
$DDT_AUDIT_GENERATED_(B3)
  6
Continuous
 62
     7
100
AcDbCircle
 10
503.2753146841
 20
339.0400765735
 30
0.0
 40
27.64860741123587
100
AcDbArc
 50
40.9360300511
 51
41.2293041395
  0
LINE
  5
186
330
156
100
AcDbEntity
  8
$DDT_AUDIT_GENERATED_(B3)
  6
Continuous
 62
     7
100
AcDbLine
 10
524.0481214453
 20
357.2503780284
 30
0.0
 11
524.0725189134
 21
357.2644639131
 31
0.0
  0
ARC
  5
187
330
156
100
AcDbEntity
  8
$DDT_AUDIT_GENERATED_(B3)
  6
Continuous
 62
     7
100
AcDbCircle
 10
504.5695024758
 20
340.0576843502
 30
0.0
 40
8.0
100
AcDbArc
 50
101.7900449016
 51
138.2099550984
  0
CIRCLE
  5
188
330
156
100
AcDbEntity
  8
$DDT_AUDIT_GENERATED_(B3)
  6
Continuous
 62
     7
100
AcDbCircle
 10
504.5695024758
 20
340.0576843502
 30
0.0
 40
8.55
  0
ARC
  5
189
330
156
100
AcDbEntity
  8
$DDT_AUDIT_GENERATED_(B3)
  6
Continuous
 62
     7
100
AcDbCircle
 10
504.9201740732
 20
340.2607293734
 30
0.0
 40
26.40281848770469
100
AcDbArc
 50
185.8332312327
 51
234.168845857
  0
ARC
  5
18A
330
156
100
AcDbEntity
  8
$DDT_AUDIT_GENERATED_(B3)
  6
Continuous
 62
     7
100
AcDbCircle
 10
504.6034086235
 20
339.9481948497
 30
0.0
 40
26.00997167872528
100
AcDbArc
 50
5.7132736604
 51
18.8301837632
  0
ARC
  5
18B
330
156
100
AcDbEntity
  8
$DDT_AUDIT_GENERATED_(B3)
  6
Continuous
 62
     7
100
AcDbCircle
 10
504.5392529152
 20
340.1988006823
 30
0.0
 40
25.93697887485626
100
AcDbArc
 50
41.1439820157
 51
54.297764944
  0
ARC
  5
18C
330
156
100
AcDbEntity
  8
$DDT_AUDIT_GENERATED_(B3)
  6
Continuous
 62
     7
100
AcDbCircle
 10
524.7568808875
 20
341.7989488857
 30
0.0
 40
5.76982727961228
100
AcDbArc
 50
357.733303891
 51
2.214778165
  0
ARC
  5
18D
330
156
100
AcDbEntity
  8
$DDT_AUDIT_GENERATED_(B3)
  6
Continuous
 62
     7
100
AcDbCircle
 10
493.0333426361
 20
323.5535618153
 30
0.0
 40
5.897434552687748
100
AcDbArc
 50
237.8738062113
 51
242.2010158005
  0
ARC
  5
18E
330
156
100
AcDbEntity
  8
$DDT_AUDIT_GENERATED_(B3)
  6
Continuous
 62
     7
100
AcDbCircle
 10
484.3810134013
 20
338.3161788932
 30
0.0
 40
5.770160347185602
100
AcDbArc
 50
177.7348867012
 51
182.2262782509
  0
ARC
  5
18F
330
156
100
AcDbEntity
  8
$DDT_AUDIT_GENERATED_(B3)
  6
Continuous
 62
     7
100
AcDbCircle
 10
516.1055734032
 20
356.5609496739
 30
0.0
 40
5.898237305930652
100
AcDbArc
 50
57.8749246154
 51
62.2048668418
  0
LINE
  5
190
330
156
100
AcDbEntity
  8
$DDT_AUDIT_GENERATED_(E9)
  6
Continuous
 62
     7
100
AcDbLine
 10
534.4578715906
 20
351.5402396124
 30
0.0
 11
529.8636882798
 21
348.8877866412
 31
0.0
  0
LINE
  5
191
330
156
100
AcDbEntity
  8
$DDT_AUDIT_GENERATED_(E9)
  6
Continuous
 62
     7
100
AcDbLine
 10
529.8636882798
 20
348.8877866412
 30
0.0
 11
529.149349124
 21
348.4753627373
 31
0.0
  0
LINE
  5
192
330
156
100
AcDbEntity
  8
$DDT_AUDIT_GENERATED_(E9)
  6
Continuous
 62
     7
100
AcDbLine
 10
524.8636882798
 20
357.5480406791
 30
0.0
 11
529.4578715906
 21
360.2004936502
 31
0.0
  0
LINE
  5
193
330
156
100
AcDbEntity
  8
$DDT_AUDIT_GENERATED_(E9)
  6
Continuous
 62
     7
100
AcDbLine
 10
524.1495303163
 20
357.1357213866
 30
0.0
 11
524.8636882798
 21
357.5480406791
 31
0.0
  0
ARC
  5
194
330
156
100
AcDbEntity
  8
$DDT_AUDIT_GENERATED_(E9)
  6
Continuous
 62
     7
100
AcDbCircle
 10
529.9578715906
 20
359.3344682464
 30
0.0
 40
0.9999999999999996
100
AcDbArc
 50
37.2085363488
 51
120.0
  0
ARC
  5
195
330
156
100
AcDbEntity
  8
$DDT_AUDIT_GENERATED_(E9)
  6
Continuous
 62
     7
100
AcDbCircle
 10
504.5695005232
 20
340.0576832229
 30
0.0
 40
32.87732464144411
100
AcDbArc
 50
22.7914636512
 51
37.2085363488
  0
ARC
  5
196
330
156
100
AcDbEntity
  8
$DDT_AUDIT_GENERATED_(E9)
  6
Continuous
 62
     7
100
AcDbCircle
 10
533.9578715906
 20
352.4062650162
 30
0.0
 40
1.000000000000004
100
AcDbArc
 50
300.0
 51
22.7914636512
  0
LINE
  5
197
330
156
100
AcDbEntity
  8
$DDT_AUDIT_GENERATED_(F4)
  6
Continuous
 62
     7
100
AcDbLine
 10
511.5695024758
 20
310.0576843502
 30
0.0
 11
493.5695024758
 21
310.0576843502
 31
0.0
  0
LINE
  5
198
330
156
100
AcDbEntity
  8
$DDT_AUDIT_GENERATED_(F4)
  6
Continuous
 62
     7
100
AcDbLine
 10
492.0895024758
 20
308.5776843502
 30
0.0
 11
513.0495024758
 21
308.5776843502
 31
0.0
  0
LINE
  5
199
330
156
100
AcDbEntity
  8
$DDT_AUDIT_GENERATED_(F4)
  6
Continuous
 62
     7
100
AcDbLine
 10
493.2895024758
 20
301.1576843502
 30
0.0
 11
511.8495024758
 21
301.1576843502
 31
0.0
  0
LINE
  5
19A
330
156
100
AcDbEntity
  8
$DDT_AUDIT_GENERATED_(F4)
  6
Continuous
 62
     7
100
AcDbLine
 10
492.0895024758
 20
302.3576843502
 30
0.0
 11
513.0495024758
 21
302.3576843502
 31
0.0
  0
LINE
  5
19B
330
156
100
AcDbEntity
  8
$DDT_AUDIT_GENERATED_(F4)
  6
Continuous
 62
     7
100
AcDbLine
 10
492.0895024758
 20
308.5776843502
 30
0.0
 11
492.0895024758
 21
302.3576843502
 31
0.0
  0
LINE
  5
19C
330
156
100
AcDbEntity
  8
$DDT_AUDIT_GENERATED_(F4)
  6
Continuous
 62
     7
100
AcDbLine
 10
513.0495024758
 20
302.3576843502
 30
0.0
 11
513.0495024758
 21
308.5776843502
 31
0.0
  0
LINE
  5
19D
330
156
100
AcDbEntity
  8
$DDT_AUDIT_GENERATED_(F4)
  6
Continuous
 62
     7
100
AcDbLine
 10
493.5695024758
 20
316.3170626088
 30
0.0
 11
493.5695024758
 21
310.0576843502
 31
0.0
  0
LINE
  5
19E
330
156
100
AcDbEntity
  8
$DDT_AUDIT_GENERATED_(F4)
  6
Continuous
 62
     7
100
AcDbLine
 10
511.5695024758
 20
310.0576843502
 30
0.0
 11
511.5695024758
 21
317.1012037837
 31
0.0
  0
LINE
  5
19F
330
156
100
AcDbEntity
  8
$DDT_AUDIT_GENERATED_(F4)
  6
Continuous
 62
     7
100
AcDbLine
 10
513.0495024758
 20
308.5776843502
 30
0.0
 11
511.5695024758
 21
310.0576843502
 31
0.0
  0
LINE
  5
1A0
330
156
100
AcDbEntity
  8
$DDT_AUDIT_GENERATED_(F4)
  6
Continuous
 62
     7
100
AcDbLine
 10
493.5695024758
 20
310.0576843502
 30
0.0
 11
492.0895024758
 21
308.5776843502
 31
0.0
  0
LINE
  5
1A1
330
156
100
AcDbEntity
  8
$DDT_AUDIT_GENERATED_(F4)
  6
Continuous
 62
     7
100
AcDbLine
 10
492.0895024758
 20
302.3576843502
 30
0.0
 11
493.2895024758
 21
301.1576843502
 31
0.0
  0
LINE
  5
1A2
330
156
100
AcDbEntity
  8
$DDT_AUDIT_GENERATED_(F4)
  6
Continuous
 62
     7
100
AcDbLine
 10
511.8495024758
 20
301.1576843502
 30
0.0
 11
513.0495024758
 21
302.3576843502
 31
0.0
  0
LINE
  5
1A3
330
156
100
AcDbEntity
  8
$DDT_AUDIT_GENERATED_(F4)
  6
Continuous
 62
     7
100
AcDbLine
 10
511.8845024758
 20
309.7426843502
 30
0.0
 11
511.8845024758
 21
301.1926843502
 31
0.0
  0
LINE
  5
1A4
330
156
100
AcDbEntity
  8
$DDT_AUDIT_GENERATED_(F4)
  6
Continuous
 62
     7
100
AcDbLine
 10
493.2545024758
 20
309.7426843502
 30
0.0
 11
493.2545024758
 21
301.1926843502
 31
0.0
  0
LINE
  5
1A6
330
156
100
AcDbEntity
  8
$DDT_AUDIT_GENERATED_(1A5)
  6
Continuous
 62
     7
100
AcDbLine
 10
464.3695024758
 20
359.3076843502
 30
0.0
 11
445.5616941162
 21
359.3076843502
 31
0.0
  0
LINE
  5
1A7
330
156
100
AcDbEntity
  8
$DDT_AUDIT_GENERATED_(1A5)
  6
Continuous
 62
     7
100
AcDbLine
 10
445.5616941162
 20
320.8076843502
 30
0.0
 11
464.3695024758
 21
320.8076843502
 31
0.0
  0
ARC
  5
1A8
330
156
100
AcDbEntity
  8
$DDT_AUDIT_GENERATED_(1A5)
  6
Continuous
 62
     7
100
AcDbCircle
 10
464.3695024758
 20
321.0076843502
 30
0.0
 40
0.1999999999999988
100
AcDbArc
 50
270.0
 51
0.0
  0
ARC
  5
1A9
330
156
100
AcDbEntity
  8
$DDT_AUDIT_GENERATED_(1A5)
  6
Continuous
 62
     7
100
AcDbCircle
 10
464.3695024758
 20
359.1076843502
 30
0.0
 40
0.1999999999999988
100
AcDbArc
 50
0.0
 51
90.0
  0
LINE
  5
1AA
330
156
100
AcDbEntity
  8
05919038_ROSETTE
  6
Continuous
 62
     7
100
AcDbLine
 10
445.5616941162
 20
320.0576843502
 30
0.0
 11
445.5616941162
 21
360.0576843502
 31
0.0
  0
LINE
  5
1AB
330
156
100
AcDbEntity
  8
05919038_ROSETTE
  6
Continuous
 62
     7
100
AcDbLine
 10
412.5695024758
 20
374.5573266963
 30
0.0
 11
412.5695024758
 21
305.5580420042
 31
0.0
  0
ARC
  5
1AC
330
156
100
AcDbEntity
  8
05919038_ROSETTE
  6
Continuous
 62
     7
100
AcDbCircle
 10
412.5695024758
 20
25.0576843502
 30
0.0
 40
350.0000000000001
100
AcDbArc
 50
86.9199375354
 51
89.918031761
  0
ARC
  5
1AD
330
156
100
AcDbEntity
  8
05919038_ROSETTE
  6
Continuous
 62
     7
100
AcDbCircle
 10
412.5695024758
 20
655.0576843502
 30
0.0
 40
350.0000000000001
100
AcDbArc
 50
270.081968239
 51
273.0800624646
  0
ARC
  5
1AE
330
156
100
AcDbEntity
  8
05919038_ROSETTE
  6
Continuous
 62
     7
100
AcDbCircle
 10
430.5695024758
 20
320.5416159768
 30
0.0
 40
15.0
100
AcDbArc
 50
273.0800624646
 51
358.1511965344
  0
ARC
  5
1AF
330
156
100
AcDbEntity
  8
05919038_ROSETTE
  6
Continuous
 62
     7
100
AcDbCircle
 10
430.5695024758
 20
359.5737527236
 30
0.0
 40
15.0
100
AcDbArc
 50
1.8488034656
 51
86.9199375354
  0
ARC
  5
1B0
330
156
100
AcDbEntity
  8
05919038_ROSETTE
  6
Continuous
 62
     7
100
AcDbCircle
 10
413.0695024758
 20
374.5573266963
 30
0.0
 40
0.4999999999999893
100
AcDbArc
 50
89.918031761
 51
180.0
  0
ARC
  5
1B1
330
156
100
AcDbEntity
  8
05919038_ROSETTE
  6
Continuous
 62
     7
100
AcDbCircle
 10
413.0695024758
 20
305.5580420042
 30
0.0
 40
0.5000000000000004
100
AcDbArc
 50
180.0
 51
270.081968239
  0
ARC
  5
1B2
330
156
100
AcDbEntity
  8
$DDT_AUDIT_GENERATED_(B3)
  6
Continuous
 62
     7
100
AcDbCircle
 10
514.1004181221
 20
362.6298952986
 30
0.0
 40
0.5018992957184245
100
AcDbArc
 50
247.0601671328
 51
259.5340043032
  0
ARC
  5
1B3
330
156
100
AcDbEntity
  8
$DDT_AUDIT_GENERATED_(B3)
  6
Continuous
 62
     7
100
AcDbCircle
 10
528.8827033174
 20
337.0227298544
 30
0.0
 40
0.5018916203905235
100
AcDbArc
 50
160.1396312083
 51
172.9332904393
  0
SPLINE
  5
1B4
330
156
100
AcDbEntity
  8
$DDT_AUDIT_GENERATED_(B3)
  6
Continuous
 62
     7
100
AcDbSpline
210
0.0
220
0.0
230
1.0
 70
     8
 71
     3
 72
     8
 73
     4
 74
     0
 42
0.0000000031694653
 43
0.0000000001
 40
0.687681632638182
 40
0.687681632638182
 40
0.687681632638182
 40
0.687681632638182
 40
0.8328710753026503
 40
0.8328710753026503
 40
0.8328710753026503
 40
0.8328710753026503
 10
519.663436337796
 20
361.2742115848157
 30
0.0
 10
519.5183497741685
 20
361.3786781326559
 30
0.0
 10
519.3947779923865
 20
361.4602279495469
 30
0.0
 10
519.2830721774309
 20
361.5291361035117
 30
0.0
  0
ARC
  5
1B5
330
156
100
AcDbEntity
  8
$DDT_AUDIT_GENERATED_(B3)
  6
Continuous
 62
     7
100
AcDbCircle
 10
518.3465764301
 20
360.8483204909
 30
0.0
 40
1.059206015521161
100
AcDbArc
 50
56.5923308003
 51
69.5004649212
  0
ARC
  5
1B6
330
156
100
AcDbEntity
  8
$DDT_AUDIT_GENERATED_(B3)
  6
Continuous
 62
     7
100
AcDbCircle
 10
518.3945705418
 20
360.9554482034
 30
0.0
 40
0.9420840038359456
100
AcDbArc
 50
69.9528825352
 51
84.3776694901
  0
SPLINE
  5
1B7
330
156
100
AcDbEntity
  8
$DDT_AUDIT_GENERATED_(B3)
  6
Continuous
 62
     7
100
AcDbSpline
210
0.0
220
0.0
230
1.0
 70
     8
 71
     3
 72
     8
 73
     4
 74
     0
 42
0.0000000031612553
 43
0.0000000001
 40
0.1698204706473355
 40
0.1698204706473355
 40
0.1698204706473355
 40
0.1698204706473355
 40
0.3122278303425472
 40
0.3122278303425472
 40
0.3122278303425472
 40
0.3122278303425472
 10
530.5223368570132
 20
342.0721482281975
 30
0.0
 10
530.5183976155635
 20
342.2014527089706
 30
0.0
 10
530.5095538389019
 20
342.3469641941706
 30
0.0
 10
530.4919560835918
 20
342.5214116219669
 30
0.0
  0
ARC
  5
1B8
330
156
100
AcDbEntity
  8
$DDT_AUDIT_GENERATED_(B3)
  6
Continuous
 62
     7
100
AcDbCircle
 10
494.9139619832
 20
356.7782290138
 30
0.0
 40
38.79384780178148
100
AcDbArc
 50
334.4662643448
 51
336.3130173435
  0
ARC
  5
1B9
330
156
100
AcDbEntity
  8
$DDT_AUDIT_GENERATED_(B3)
  6
Continuous
 62
     7
100
AcDbCircle
 10
529.5814861677
 20
341.5820280192
 30
0.0
 40
0.9420782190618632
100
AcDbArc
 50
335.6232161932
 51
350.051567153
  0
ARC
  5
1BA
330
156
100
AcDbEntity
  8
$DDT_AUDIT_GENERATED_(B3)
  6
Continuous
 62
     7
100
AcDbCircle
 10
529.4647040438
 20
341.5940276656
 30
0.0
 40
1.059210407460509
100
AcDbArc
 50
350.5035868714
 51
3.414772446
  0
ARC
  5
1BB
330
156
100
AcDbEntity
  8
$DDT_AUDIT_GENERATED_(B3)
  6
Continuous
 62
     7
100
AcDbCircle
 10
503.0411343942
 20
339.4456887337
 30
0.0
 40
27.64860741122207
100
AcDbArc
 50
18.7706958605
 51
19.0639699489
  0
ARC
  5
1BC
330
156
100
AcDbEntity
  8
$DDT_AUDIT_GENERATED_(B3)
  6
Continuous
 62
     7
100
AcDbCircle
 10
504.5414887348
 20
340.1962849633
 30
0.0
 40
25.93625614787764
100
AcDbArc
 50
41.151713228
 51
54.3052049347
  0
ARC
  5
1BD
330
156
100
AcDbEntity
  8
$DDT_AUDIT_GENERATED_(B3)
  6
Continuous
 62
     7
100
AcDbCircle
 10
504.6047767429
 20
339.9450490053
 30
0.0
 40
26.01038379927762
100
AcDbArc
 50
5.7206621624
 51
18.8380119553
  0
ARC
  5
1BE
330
156
100
AcDbEntity
  8
$DDT_AUDIT_GENERATED_(B3)
  6
Continuous
 62
     7
100
AcDbCircle
 10
516.1049559487
 20
356.5609819117
 30
0.0
 40
5.897060590032457
100
AcDbArc
 50
57.8796000884
 51
62.2029797349
  0
ARC
  5
1BF
330
156
100
AcDbEntity
  8
$DDT_AUDIT_GENERATED_(B3)
  6
Continuous
 62
     7
100
AcDbCircle
 10
524.7744675563
 20
341.7992932764
 30
0.0
 40
5.753704520249918
100
AcDbArc
 50
357.7265233626
 51
2.2214627661
  0
LINE
  5
1C1
330
156
100
AcDbEntity
  8
$DDT_AUDIT_GENERATED_(1C0)
  6
Continuous
 62
     7
100
AcDbLine
 10
502.9845656956
 20
347.8028749119
 30
0.0
 11
498.6544390823
 21
345.3028751461
 31
0.0
  0
ARC
  5
1C2
330
156
100
AcDbEntity
  8
$DDT_AUDIT_GENERATED_(1C0)
  6
Continuous
 62
     7
100
AcDbCircle
 10
504.5695024758
 20
340.0576843502
 30
0.0
 40
8.50000000000016
100
AcDbArc
 50
137.1046335248
 51
102.8953664752
  0
LINE
  5
1C3
330
156
100
AcDbEntity
  8
$DDT_AUDIT_GENERATED_(1C0)
  6
Continuous
 62
     7
100
AcDbLine
 10
502.6725465441
 20
348.3433079353
 30
0.0
 11
502.9845656956
 21
347.8028749119
 31
0.0
  0
LINE
  5
1C4
330
156
100
AcDbEntity
  8
$DDT_AUDIT_GENERATED_(1C0)
  6
Continuous
 62
     7
100
AcDbLine
 10
498.6544390823
 20
345.3028751461
 30
0.0
 11
498.3424199308
 21
345.8433081695
 31
0.0
  0
ENDBLK
  5
1C6
330
156
100
AcDbEntity
  8
0
100
AcDbBlockEnd
  0
BLOCK
  5
284
330
1C7
100
AcDbEntity
  8
0
100
AcDbBlockBegin
  2
SE2
 70
     0
 10
0.0
 20
0.0
 30
0.0
  3
SE2
  1

  0
LINE
  5
1C9
330
1C7
100
AcDbEntity
  8
$DDT_AUDIT_GENERATED_(97)
  6
Continuous
 62
     7
100
AcDbLine
 10
279.050189403
 20
176.2383691148
 30
0.0
 11
279.050189403
 21
136.7156264055
 31
0.0
  0
LINE
  5
1CA
330
1C7
100
AcDbEntity
  8
$DDT_AUDIT_GENERATED_(97)
  6
Continuous
 62
     7
100
AcDbLine
 10
279.050189403
 20
136.7156264055
 30
0.0
 11
279.050189403
 21
113.2420660739
 31
0.0
  0
LINE
  5
1CB
330
1C7
100
AcDbEntity
  8
$DDT_AUDIT_GENERATED_(97)
  6
Continuous
 62
     7
100
AcDbLine
 10
67.050189403
 20
136.7156264055
 30
0.0
 11
67.050189403
 21
176.2383691316
 31
0.0
  0
LINE
  5
1CC
330
1C7
100
AcDbEntity
  8
$DDT_AUDIT_GENERATED_(97)
  6
Continuous
 62
     7
100
AcDbLine
 10
67.050189403
 20
113.2420660724
 30
0.0
 11
67.050189403
 21
136.7156264055
 31
0.0
  0
ELLIPSE
  5
1CD
330
1C7
100
AcDbEntity
  8
$DDT_AUDIT_GENERATED_(97)
  6
Continuous
 62
     7
100
AcDbEllipse
 10
67.550189403
 20
113.2420667661
 30
0.0
 11
0.4999956300919955
 21
0.002090427889386848
 31
0.0
210
0.0
220
0.0
230
0.9999999999999999
 40
0.9998344136
 41
3.137412480809595
 42
4.708208804712633
  0
ELLIPSE
  5
1CE
330
1C7
100
AcDbEntity
  8
$DDT_AUDIT_GENERATED_(97)
  6
Continuous
 62
     7
100
AcDbEllipse
 10
278.550189403
 20
113.2420660739
 30
0.0
 11
0.4999999999999311
 21
6.661338147750939E-13
 31
0.0
210
0.0
220
0.0
230
1.0
 40
0.9998330292
 41
4.712388980383357
 42
6.283185307178254
  0
LINE
  5
1CF
330
1C7
100
AcDbEntity
  8
$DDT_AUDIT_GENERATED_(97)
  6
Continuous
 62
     7
100
AcDbLine
 10
67.050189403
 20
176.2383691148
 30
0.0
 11
67.050189403
 21
176.7383691148
 31
0.0
  0
LINE
  5
1D0
330
1C7
100
AcDbEntity
  8
$DDT_AUDIT_GENERATED_(97)
  6
Continuous
 62
     7
100
AcDbLine
 10
279.050189403
 20
176.7383691148
 30
0.0
 11
279.050189403
 21
176.2383691148
 31
0.0
  0
LINE
  5
1D1
330
1C7
100
AcDbEntity
  8
$DDT_AUDIT_GENERATED_(97)
  6
Continuous
 62
     7
100
AcDbLine
 10
279.050189403
 20
176.7383691148
 30
0.0
 11
278.550189403
 21
176.7383691148
 31
0.0
  0
ARC
  5
1D2
330
1C7
100
AcDbEntity
  8
$DDT_AUDIT_GENERATED_(97)
  6
Continuous
 62
     7
100
AcDbCircle
 10
212.1684838603
 20
175.3333664035
 30
0.0
 40
2.058658302403272
100
AcDbArc
 50
48.8296193096
 51
72.0150496315
  0
LINE
  5
1D3
330
1C7
100
AcDbEntity
  8
$DDT_AUDIT_GENERATED_(97)
  6
Continuous
 62
     7
100
AcDbLine
 10
213.7072517788
 20
176.7383691148
 30
0.0
 11
278.550189403
 21
176.7383691148
 31
0.0
  0
LINE
  5
1D4
330
1C7
100
AcDbEntity
  8
$DDT_AUDIT_GENERATED_(97)
  6
Continuous
 62
     7
100
AcDbLine
 10
213.5236994604
 20
176.8830323944
 30
0.0
 11
213.7072517788
 21
176.7383691148
 31
0.0
  0
ARC
  5
1D5
330
1C7
100
AcDbEntity
  8
$DDT_AUDIT_GENERATED_(97)
  6
Continuous
 62
     7
100
AcDbCircle
 10
253.2475818059
 20
394.1933973263
 30
0.0
 40
220.6402831911383
100
AcDbArc
 50
257.6749337681
 51
259.4379419655
  0
ARC
  5
1D6
330
1C7
100
AcDbEntity
  8
$DDT_AUDIT_GENERATED_(97)
  6
Continuous
 62
     7
100
AcDbCircle
 10
133.9313009371
 20
175.3344129974
 30
0.0
 40
2.057479451422076
100
AcDbArc
 50
107.9782159914
 51
131.1771150676
  0
LINE
  5
1D7
330
1C7
100
AcDbEntity
  8
$DDT_AUDIT_GENERATED_(97)
  6
Continuous
 62
     7
100
AcDbLine
 10
67.550189403
 20
176.7383691148
 30
0.0
 11
67.050189403
 21
176.7383691148
 31
0.0
  0
LINE
  5
1D8
330
1C7
100
AcDbEntity
  8
$DDT_AUDIT_GENERATED_(97)
  6
Continuous
 62
     7
100
AcDbLine
 10
132.3931270271
 20
176.7383691148
 30
0.0
 11
132.5766793455
 21
176.8830323944
 31
0.0
  0
ARC
  5
1D9
330
1C7
100
AcDbEntity
  8
$DDT_AUDIT_GENERATED_(97)
  6
Continuous
 62
     7
100
AcDbCircle
 10
92.8527966079
 20
394.193399266
 30
0.0
 40
220.6402851697983
100
AcDbArc
 50
280.5620580423
 51
282.3250662238
  0
LINE
  5
1DA
330
1C7
100
AcDbEntity
  8
$DDT_AUDIT_GENERATED_(97)
  6
Continuous
 62
     7
100
AcDbLine
 10
67.550189403
 20
176.7383691148
 30
0.0
 11
132.3931270271
 21
176.7383691148
 31
0.0
  0
LINE
  5
1DB
330
1C7
100
AcDbEntity
  8
$DDT_AUDIT_GENERATED_(97)
  6
Continuous
 62
     7
100
AcDbLine
 10
67.550189403
 20
112.7383691018
 30
0.0
 11
278.550189403
 21
112.7383691018
 31
0.0
  0
LINE
  5
1DC
330
1C7
100
AcDbEntity
  8
$DDT_AUDIT_GENERATED_(97)
  6
Continuous
 62
     7
100
AcDbLine
 10
206.1858943072
 20
178.6383691148
 30
0.0
 11
139.9144844987
 21
178.6383691148
 31
0.0
  0
LINE
  5
1DD
330
1C7
100
AcDbEntity
  8
$DDT_AUDIT_GENERATED_(A6)
  6
Continuous
 62
     7
100
AcDbLine
 10
67.050189403
 20
160.2383691148
 30
0.0
 11
67.050189403
 21
113.2383691148
 31
0.0
  0
LINE
  5
1DE
330
1C7
100
AcDbEntity
  8
$DDT_AUDIT_GENERATED_(A6)
  6
Continuous
 62
     7
100
AcDbLine
 10
59.050189403
 20
160.2383691148
 30
0.0
 11
59.050189403
 21
113.2383691148
 31
0.0
  0
LINE
  5
1DF
330
1C7
100
AcDbEntity
  8
$DDT_AUDIT_GENERATED_(A6)
  6
Continuous
 62
     7
100
AcDbLine
 10
59.550189403
 20
112.7383691148
 30
0.0
 11
66.550189403
 21
112.7383691148
 31
0.0
  0
LINE
  5
1E0
330
1C7
100
AcDbEntity
  8
$DDT_AUDIT_GENERATED_(A6)
  6
Continuous
 62
     7
100
AcDbLine
 10
66.550189403
 20
160.7383691148
 30
0.0
 11
59.550189403
 21
160.7383691148
 31
0.0
  0
ARC
  5
1E1
330
1C7
100
AcDbEntity
  8
$DDT_AUDIT_GENERATED_(A6)
  6
Continuous
 62
     7
100
AcDbCircle
 10
66.550189403
 20
160.2383691148
 30
0.0
 40
0.5000000000000004
100
AcDbArc
 50
0.0
 51
90.0
  0
ARC
  5
1E2
330
1C7
100
AcDbEntity
  8
$DDT_AUDIT_GENERATED_(A6)
  6
Continuous
 62
     7
100
AcDbCircle
 10
66.550189403
 20
113.2383691148
 30
0.0
 40
0.4999999999999866
100
AcDbArc
 50
270.0
 51
0.0
  0
LINE
  5
1E3
330
1C7
100
AcDbEntity
  8
$DDT_AUDIT_GENERATED_(A6)
  6
Continuous
 62
     7
100
AcDbLine
 10
58.550189403
 20
156.8883691148
 30
0.0
 11
58.350189403
 21
156.8883691148
 31
0.0
  0
LINE
  5
1E4
330
1C7
100
AcDbEntity
  8
$DDT_AUDIT_GENERATED_(A6)
  6
Continuous
 62
     7
100
AcDbLine
 10
58.350189403
 20
116.5883691148
 30
0.0
 11
58.550189403
 21
116.5883691148
 31
0.0
  0
ARC
  5
1E5
330
1C7
100
AcDbEntity
  8
$DDT_AUDIT_GENERATED_(A6)
  6
Continuous
 62
     7
100
AcDbCircle
 10
59.550189403
 20
113.2383691148
 30
0.0
 40
0.5000000000000004
100
AcDbArc
 50
180.0
 51
270.0
  0
ARC
  5
1E6
330
1C7
100
AcDbEntity
  8
$DDT_AUDIT_GENERATED_(A6)
  6
Continuous
 62
     7
100
AcDbCircle
 10
59.550189403
 20
160.2383691148
 30
0.0
 40
0.5000000000000004
100
AcDbArc
 50
90.0
 51
180.0
  0
ARC
  5
1E7
330
1C7
100
AcDbEntity
  8
$DDT_AUDIT_GENERATED_(A6)
  6
Continuous
 62
     7
100
AcDbCircle
 10
58.550189403
 20
116.0883691148
 30
0.0
 40
0.5000000000000143
100
AcDbArc
 50
0.0
 51
90.0
  0
ARC
  5
1E8
330
1C7
100
AcDbEntity
  8
$DDT_AUDIT_GENERATED_(A6)
  6
Continuous
 62
     7
100
AcDbCircle
 10
58.550189403
 20
157.3883691148
 30
0.0
 40
0.5000000000000004
100
AcDbArc
 50
270.0
 51
0.0
  0
LINE
  5
1E9
330
1C7
100
AcDbEntity
  8
$DDT_AUDIT_GENERATED_(B3)
  6
Continuous
 62
     7
100
AcDbLine
 10
6.3501913103
 20
113.3720480415
 30
0.0
 11
6.3501913103
 21
118.7207068129
 31
0.0
  0
LINE
  5
1EA
330
1C7
100
AcDbEntity
  8
$DDT_AUDIT_GENERATED_(B3)
  6
Continuous
 62
     7
100
AcDbLine
 10
6.3501913103
 20
118.7207068129
 30
0.0
 11
6.3501913103
 21
160.1047661969
 31
0.0
  0
LINE
  5
1EB
330
1C7
100
AcDbEntity
  8
$DDT_AUDIT_GENERATED_(B3)
  6
Continuous
 62
     7
100
AcDbLine
 10
30.350189403
 20
128.9743027499
 30
0.0
 11
30.350189403
 21
158.9091317028
 31
0.0
  0
SPLINE
  5
1EC
330
1C7
100
AcDbEntity
  8
$DDT_AUDIT_GENERATED_(B3)
  6
Continuous
 62
     7
100
AcDbSpline
210
0.0
220
0.0
230
1.0
 70
     8
 71
     3
 72
    22
 73
    18
 74
     0
 42
0.0000000037667095
 43
0.0000000001
 40
0.0
 40
0.0
 40
0.0
 40
0.0
 40
0.0624999999999996
 40
0.0624999999999996
 40
0.1249999999999992
 40
0.1249999999999992
 40
0.1874999999999988
 40
0.1874999999999988
 40
0.2499999999999983
 40
0.2499999999999983
 40
0.3749999999999993
 40
0.3749999999999993
 40
0.5000000000000002
 40
0.5000000000000002
 40
0.7500000000000001
 40
0.7500000000000001
 40
1.0
 40
1.0
 40
1.0
 40
1.0
 10
31.85018940298353
 20
160.7320919746046
 30
0.0
 10
31.75882724648146
 20
160.7325567067494
 30
0.0
 10
31.66446359105654
 20
160.7237548278521
 30
0.0
 10
31.48678479102304
 20
160.6897850535101
 30
0.0
 10
31.40355673404407
 20
160.6648827481908
 30
0.0
 10
31.25642427611511
 20
160.6078638585107
 30
0.0
 10
31.19028825803708
 20
160.5750993228819
 30
0.0
 10
31.07305361506521
 20
160.5068081055653
 30
0.0
 10
31.02109359677016
 20
160.4709151878841
 30
0.0
 10
30.87876422196312
 20
160.3593254273822
 30
0.0
 10
30.80328526282128
 20
160.2809950454939
 30
0.0
 10
30.67599082605349
 20
160.1216377629757
 30
0.0
 10
30.62399013546649
 20
160.0399780605171
 30
0.0
 10
30.49188679033282
 20
159.7896883191009
 30
0.0
 10
30.4366298564189
 20
159.6184969559056
 30
0.0
 10
30.36551883768707
 20
159.26952975169
 30
0.0
 10
30.35018940298353
 20
159.091301336789
 30
0.0
 10
30.35018940298353
 20
158.9091317027599
 30
0.0
  0
LINE
  5
1ED
330
1C7
100
AcDbEntity
  8
$DDT_AUDIT_GENERATED_(B3)
  6
Continuous
 62
     7
100
AcDbLine
 10
58.350189403
 20
122.754636417
 30
0.0
 11
58.350189403
 21
115.8372304641
 31
0.0
  0
LINE
  5
1EE
330
1C7
100
AcDbEntity
  8
$DDT_AUDIT_GENERATED_(B3)
  6
Continuous
 62
     7
100
AcDbLine
 10
58.350189403
 20
127.2071180758
 30
0.0
 11
58.350189403
 21
122.754636417
 31
0.0
  0
LINE
  5
1EF
330
1C7
100
AcDbEntity
  8
$DDT_AUDIT_GENERATED_(B3)
  6
Continuous
 62
     7
100
AcDbLine
 10
58.350189403
 20
127.2071180758
 30
0.0
 11
58.350189403
 21
127.6001139932
 31
0.0
  0
LINE
  5
1F0
330
1C7
100
AcDbEntity
  8
$DDT_AUDIT_GENERATED_(B3)
  6
Continuous
 62
     7
100
AcDbLine
 10
58.350189403
 20
160.0573403148
 30
0.0
 11
58.350189403
 21
127.6001139932
 31
0.0
  0
LINE
  5
1F1
330
1C7
100
AcDbEntity
  8
$DDT_AUDIT_GENERATED_(B3)
  6
Continuous
 62
     7
100
AcDbLine
 10
58.350189403
 20
160.0573403148
 30
0.0
 11
58.350189403
 21
160.1855003794
 31
0.0
  0
LINE
  5
1F2
330
1C7
100
AcDbEntity
  8
$DDT_AUDIT_GENERATED_(B3)
  6
Continuous
 62
     7
100
AcDbLine
 10
58.350189403
 20
162.1990818282
 30
0.0
 11
58.350189403
 21
160.1855003794
 31
0.0
  0
ARC
  5
1F3
330
1C7
100
AcDbEntity
  8
$DDT_AUDIT_GENERATED_(B3)
  6
Continuous
 62
     7
100
AcDbCircle
 10
49.5109490687
 20
839.1281633654
 30
0.0
 40
678.6259147059036
100
AcDbArc
 50
268.5087494836
 51
270.70409233
  0
ARC
  5
1F4
330
1C7
100
AcDbEntity
  8
$DDT_AUDIT_GENERATED_(B3)
  6
Continuous
 62
     7
100
AcDbCircle
 10
57.8450196062
 20
162.2008062652
 30
0.0
 40
0.5051727400010244
100
AcDbArc
 50
359.8044170993
 51
70.9347530608
  0
ARC
  5
1F5
330
1C7
100
AcDbEntity
  8
$DDT_AUDIT_GENERATED_(B3)
  6
Continuous
 62
     7
100
AcDbCircle
 10
50.1343780973
 20
907.8506149342
 30
0.0
 40
797.1006980496388
100
AcDbArc
 50
270.1592726263
 51
270.5547578989
  0
ARC
  5
1F6
330
1C7
100
AcDbEntity
  8
$DDT_AUDIT_GENERATED_(B3)
  6
Continuous
 62
     7
100
AcDbCircle
 10
57.8450359236
 20
111.2774032173
 30
0.0
 40
0.5051564077719505
100
AcDbArc
 50
289.0578875757
 51
0.1950922221
  0
ARC
  5
1F7
330
1C7
100
AcDbEntity
  8
$DDT_AUDIT_GENERATED_(B3)
  6
Continuous
 62
     7
100
AcDbCircle
 10
57.8941797336
 20
111.2533669239
 30
0.0
 40
0.4679857169372199
100
AcDbArc
 50
264.8371230231
 51
284.3264713484
  0
ELLIPSE
  5
1F8
330
1C7
100
AcDbEntity
  8
$DDT_AUDIT_GENERATED_(B3)
  6
Continuous
 62
     7
100
AcDbEllipse
 10
7.8547800144
 20
112.8301399928
 30
0.0
 11
0.04654511628041092
 21
0.9989161887518362
 31
0.0
210
0.0
220
0.0
230
0.9999999999999999
 40
0.1857611217
 41
3.102420442400988
 42
3.137843482612562
  0
ARC
  5
1F9
330
1C7
100
AcDbEntity
  8
$DDT_AUDIT_GENERATED_(B3)
  6
Continuous
 62
     7
100
AcDbCircle
 10
50.1373707381
 20
-633.5117742887
 30
0.0
 40
796.2400470007061
100
AcDbArc
 50
89.4448575734
 51
90.8557553368
  0
ARC
  5
1FA
330
1C7
100
AcDbEntity
  8
$DDT_AUDIT_GENERATED_(B3)
  6
Continuous
 62
     7
100
AcDbCircle
 10
57.8942930749
 20
162.2248392914
 30
0.0
 40
0.4679677229807664
100
AcDbArc
 50
75.6809264674
 51
95.1766189642
  0
ARC
  5
1FB
330
1C7
100
AcDbEntity
  8
$DDT_AUDIT_GENERATED_(B3)
  6
Continuous
 62
     7
100
AcDbCircle
 10
58.1799063079
 20
162.0325376791
 30
0.0
 40
0.6677021746288742
100
AcDbArc
 50
104.7390363857
 51
120.3991134697
  0
ARC
  5
1FC
330
1C7
100
AcDbEntity
  8
$DDT_AUDIT_GENERATED_(B3)
  6
Continuous
 62
     7
100
AcDbCircle
 10
7.7964902642
 20
160.0671313514
 30
0.0
 40
1.446788528276148
100
AcDbArc
 50
95.6953074084
 51
178.509415149
  0
ELLIPSE
  5
1FD
330
1C7
100
AcDbEntity
  8
$DDT_AUDIT_GENERATED_(B3)
  6
Continuous
 62
     7
100
AcDbEllipse
 10
7.854753129
 20
160.6466768103
 30
0.0
 11
0.04659948607491082
 21
-0.9989136538747917
 31
0.0
210
0.0
220
0.0
230
1.0
 40
0.1857440897
 41
3.142821009811493
 42
3.184803651557712
  0
SPLINE
  5
1FE
330
1C7
100
AcDbEntity
  8
$DDT_AUDIT_GENERATED_(B3)
  6
Continuous
 62
     7
100
AcDbSpline
210
0.0
220
0.0
230
1.0
 70
     8
 71
     3
 72
    10
 73
     6
 74
     0
 42
0.0000000244346734
 43
0.0000000001
 40
0.0
 40
0.0
 40
0.0
 40
0.0
 40
0.5
 40
0.5
 40
1.0
 40
1.0
 40
1.0
 40
1.0
 10
58.01002148038093
 20
122.5892505782546
 30
0.0
 10
58.11047892939668
 20
122.6010646301723
 30
0.0
 10
58.1971393574485
 20
122.62377505739
 30
0.0
 10
58.31772354462998
 20
122.6828493614712
 30
0.0
 10
58.35018940298352
 20
122.7189398306288
 30
0.0
 10
58.35018940298352
 20
122.7546364170311
 30
0.0
  0
ARC
  5
1FF
330
1C7
100
AcDbEntity
  8
$DDT_AUDIT_GENERATED_(B3)
  6
Continuous
 62
     7
100
AcDbCircle
 10
93.8105485542
 20
148.8343657003
 30
0.0
 40
44.39013185980475
100
AcDbArc
 50
215.8765375158
 51
216.244881476
  0
ARC
  5
200
330
1C7
100
AcDbEntity
  8
$DDT_AUDIT_GENERATED_(B3)
  6
Continuous
 62
     7
100
AcDbCircle
 10
55.1619504783
 20
124.5433250365
 30
0.0
 40
3.45397096413459
100
AcDbArc
 50
321.1552747251
 51
325.5458045548
  0
LINE
  5
201
330
1C7
100
AcDbEntity
  8
$DDT_AUDIT_GENERATED_(B3)
  6
Continuous
 62
     7
100
AcDbLine
 10
58.350189403
 20
113.6374777815
 30
0.0
 11
58.350189403
 21
111.2791232723
 31
0.0
  0
SPLINE
  5
202
330
1C7
100
AcDbEntity
  8
$DDT_AUDIT_GENERATED_(B3)
  6
Continuous
 62
     7
100
AcDbSpline
210
0.0
220
0.0
230
1.0
 70
     8
 71
     3
 72
    10
 73
     6
 74
     0
 42
0.0000000134061605
 43
0.0000000001
 40
0.0
 40
0.0
 40
0.0
 40
0.0
 40
0.5
 40
0.5
 40
1.0
 40
1.0
 40
1.0
 40
1.0
 10
57.85025478118486
 20
115.412411875618
 30
0.0
 10
57.98238744729669
 20
115.4124265584995
 30
0.0
 10
58.11156825677391
 20
115.4585296345114
 30
0.0
 10
58.29594978605103
 20
115.6152172065509
 30
0.0
 10
58.35018940298352
 20
115.7251483304325
 30
0.0
 10
58.35018940298353
 20
115.8372304640569
 30
0.0
  0
LINE
  5
203
330
1C7
100
AcDbEntity
  8
$DDT_AUDIT_GENERATED_(B3)
  6
Continuous
 62
     7
100
AcDbLine
 10
58.350189403
 20
114.1583433263
 30
0.0
 11
58.350189403
 21
114.7048720935
 31
0.0
  0
LINE
  5
204
330
1C7
100
AcDbEntity
  8
$DDT_AUDIT_GENERATED_(B3)
  6
Continuous
 62
     7
100
AcDbLine
 10
58.350189403
 20
115.7814005604
 30
0.0
 11
58.350189403
 21
114.7048720935
 31
0.0
  0
LINE
  5
205
330
1C7
100
AcDbEntity
  8
$DDT_AUDIT_GENERATED_(B3)
  6
Continuous
 62
     7
100
AcDbLine
 10
58.350189403
 20
114.1583433263
 30
0.0
 11
58.350189403
 21
113.6374777815
 31
0.0
  0
SPLINE
  5
206
330
1C7
100
AcDbEntity
  8
$DDT_AUDIT_GENERATED_(B3)
  6
Continuous
 62
     7
100
AcDbSpline
210
0.0
220
0.0
230
1.0
 70
     8
 71
     3
 72
    10
 73
     6
 74
     0
 42
0.0000000130748871
 43
0.0000000001
 40
0.5472650986233865
 40
0.5472650986233865
 40
0.5472650986233865
 40
0.5472650986233865
 40
0.75
 40
0.75
 40
1.0
 40
1.0
 40
1.0
 40
1.0
 10
52.3602079381381
 20
114.8548772991047
 30
0.0
 10
52.42882793038288
 20
114.8804153341944
 30
0.0
 10
52.48482293534251
 20
114.9098429585429
 30
0.0
 10
52.5740625544734
 20
114.9808582637877
 30
0.0
 10
52.6001922640066
 20
115.0244170129697
 30
0.0
 10
52.6001922640065
 20
115.0693623460268
 30
0.0
  0
SPLINE
  5
207
330
1C7
100
AcDbEntity
  8
$DDT_AUDIT_GENERATED_(B3)
  6
Continuous
 62
     7
100
AcDbSpline
210
0.0
220
0.0
230
1.0
 70
     8
 71
     3
 72
    10
 73
     6
 74
     0
 42
0.0000000126716827
 43
0.0000000001
 40
0.0
 40
0.0
 40
0.0
 40
0.0
 40
0.2500000000000008
 40
0.2500000000000008
 40
0.458551176913367
 40
0.458551176913367
 40
0.458551176913367
 40
0.458551176913367
 10
52.6001922640065
 20
112.4336679564431
 30
0.0
 10
52.6001922640065
 20
112.3862180157378
 30
0.0
 10
52.57455124424712
 20
112.3406546983907
 30
0.0
 10
52.48346490712554
 20
112.2636175456172
 30
0.0
 10
52.42550779914539
 20
112.2315483661079
 30
0.0
 10
52.35412215894553
 20
112.2037569160165
 30
0.0
  0
LINE
  5
208
330
1C7
100
AcDbEntity
  8
$DDT_AUDIT_GENERATED_(B3)
  6
Continuous
 62
     7
100
AcDbLine
 10
52.600192264
 20
116.5831931785
 30
0.0
 11
52.600192264
 21
112.4336679564
 31
0.0
  0
SPLINE
  5
209
330
1C7
100
AcDbEntity
  8
$DDT_AUDIT_GENERATED_(B3)
  6
Continuous
 62
     7
100
AcDbSpline
210
0.0
220
0.0
230
1.0
 70
     8
 71
     3
 72
    14
 73
    10
 74
     0
 42
0.0000000075739556
 43
0.0000000001
 40
0.0
 40
0.0
 40
0.0
 40
0.0
 40
0.25
 40
0.25
 40
0.5
 40
0.5
 40
0.75
 40
0.75
 40
1.0
 40
1.0
 40
1.0
 40
1.0
 10
51.60019226400647
 20
117.2386497170662
 30
0.0
 10
51.73329218221235
 20
117.2387274332975
 30
0.0
 10
51.86394663982043
 20
117.2209453912178
 30
0.0
 10
52.10677627350925
 20
117.1531190664176
 30
0.0
 10
52.21773137119082
 20
117.1030590796512
 30
0.0
 10
52.40128529559706
 20
116.9806831012469
 30
0.0
 10
52.47513872590687
 20
116.9073941355807
 30
0.0
 10
52.57397203934853
 20
116.7513349587826
 30
0.0
 10
52.60019226400649
 20
116.6671080338245
 30
0.0
 10
52.60019226400649
 20
116.5831931785276
 30
0.0
  0
LINE
  5
20A
330
1C7
100
AcDbEntity
  8
$DDT_AUDIT_GENERATED_(B3)
  6
Continuous
 62
     7
100
AcDbLine
 10
19.750192264
 20
112.6111828962
 30
0.0
 11
19.750192264
 21
116.3108748763
 31
0.0
  0
SPLINE
  5
20B
330
1C7
100
AcDbEntity
  8
$DDT_AUDIT_GENERATED_(B3)
  6
Continuous
 62
     7
100
AcDbSpline
210
0.0
220
0.0
230
1.0
 70
     8
 71
     3
 72
    16
 73
    12
 74
     0
 42
0.0000000068434398
 43
0.0000000001
 40
0.0
 40
0.0
 40
0.0
 40
0.0
 40
0.2499999999999987
 40
0.2499999999999987
 40
0.3749999999999968
 40
0.3749999999999968
 40
0.499999999999995
 40
0.499999999999995
 40
0.7499999999999976
 40
0.7499999999999976
 40
0.8009022228215037
 40
0.8009022228215037
 40
0.8009022228215037
 40
0.8009022228215037
 10
19.75019226400651
 20
115.2424597884034
 30
0.0
 10
19.75019226400648
 20
115.1754331626277
 30
0.0
 10
19.78736740743931
 20
115.1121637087307
 30
0.0
 10
19.89520615942827
 20
115.0258346799855
 30
0.0
 10
19.93920009780839
 20
114.9989860930841
 30
0.0
 10
20.04313942565508
 20
114.9488163865347
 30
0.0
 10
20.10379669881604
 20
114.9253374063481
 30
0.0
 10
20.303222186313
 20
114.8627057960073
 30
0.0
 10
20.46447784332581
 20
114.829751621014
 30
0.0
 10
20.67526745487874
 20
114.8030746809607
 30
0.0
 10
20.71162348352562
 20
114.7989880696698
 30
0.0
 10
20.74854808116408
 20
114.795337020266
 30
0.0
  0
SPLINE
  5
20C
330
1C7
100
AcDbEntity
  8
$DDT_AUDIT_GENERATED_(B3)
  6
Continuous
 62
     7
100
AcDbSpline
210
0.0
220
0.0
230
1.0
 70
     8
 71
     3
 72
    16
 73
    12
 74
     0
 42
0.0000000067273311
 43
0.0000000001
 40
0.1982072895428315
 40
0.1982072895428315
 40
0.1982072895428315
 40
0.1982072895428315
 40
0.2499999999999993
 40
0.2499999999999993
 40
0.374999999999999
 40
0.374999999999999
 40
0.4999999999999987
 40
0.4999999999999987
 40
0.7499999999999993
 40
0.7499999999999993
 40
1.0
 40
1.0
 40
1.0
 40
1.0
 10
20.75327890489706
 20
112.1336095476125
 30
0.0
 10
20.71551285741635
 20
112.1375977399903
 30
0.0
 10
20.67825526264677
 20
112.1420835830237
 30
0.0
 10
20.5537947608676
 20
112.1590224391651
 30
0.0
 10
20.47040538674202
 20
112.1736818860893
 30
0.0
 10
20.31271701929138
 20
112.2085462720315
 30
0.0
 10
20.23844736767988
 20
112.2288613078909
 30
0.0
 10
20.03887812962649
 20
112.2960256195853
 30
0.0
 10
19.93176059273741
 20
112.3509119888077
 30
0.0
 10
19.78831641076945
 20
112.4726199273586
 30
0.0
 10
19.75019226400645
 20
112.5406123243741
 30
0.0
 10
19.75019226400651
 20
112.6111828961976
 30
0.0
  0
ARC
  5
20D
330
1C7
100
AcDbEntity
  8
$DDT_AUDIT_GENERATED_(B3)
  6
Continuous
 62
     7
100
AcDbCircle
 10
42.9077912742
 20
9492.9361678245
 30
0.0
 40
9375.701547558005
100
AcDbArc
 50
269.8673427357
 51
270.0531200742
  0
SPLINE
  5
20E
330
1C7
100
AcDbEntity
  8
$DDT_AUDIT_GENERATED_(B3)
  6
Continuous
 62
     7
100
AcDbSpline
210
0.0
220
0.0
230
1.0
 70
     8
 71
     3
 72
    16
 73
    12
 74
     0
 42
0.0000000052361899
 43
0.0000000001
 40
0.0
 40
0.0
 40
0.0
 40
0.0
 40
0.2499999999999968
 40
0.2499999999999968
 40
0.3749999999999973
 40
0.3749999999999973
 40
0.4999999999999979
 40
0.4999999999999979
 40
0.7499999999999989
 40
0.7499999999999989
 40
1.0
 40
1.0
 40
1.0
 40
1.0
 10
19.75019226400648
 20
116.3108748763385
 30
0.0
 10
19.75019226400648
 20
116.4310746554066
 30
0.0
 10
19.7874803800962
 20
116.550684093436
 30
0.0
 10
19.89559643120684
 20
116.7210562291798
 30
0.0
 10
19.93970362432956
 20
116.7753361441051
 30
0.0
 10
20.04391003087105
 20
116.8787122723485
 30
0.0
 10
20.10469326143169
 20
116.9281333570369
 30
0.0
 10
20.30436011575554
 20
117.0619130999353
 30
0.0
 10
20.46571231627897
 20
117.1351521371724
 30
0.0
 10
20.81558966896299
 20
117.2337494062758
 30
0.0
 10
21.00717050565568
 20
117.260131289471
 30
0.0
 10
21.20019226400646
 20
117.2597501452897
 30
0.0
  0
ARC
  5
20F
330
1C7
100
AcDbEntity
  8
$DDT_AUDIT_GENERATED_(B3)
  6
Continuous
 62
     7
100
AcDbCircle
 10
21.8336722672
 20
6445.4283714389
 30
0.0
 40
6329.700956075565
100
AcDbArc
 50
270.2762332036
 51
270.2784957115
  0
ARC
  5
210
330
1C7
100
AcDbEntity
  8
$DDT_AUDIT_GENERATED_(B3)
  6
Continuous
 62
     7
100
AcDbCircle
 10
48.3183538772
 20
928.7979915109
 30
0.0
 40
818.009274935069
100
AcDbArc
 50
267.1608096188
 51
268.0715260579
  0
LINE
  5
211
330
1C7
100
AcDbEntity
  8
$DDT_AUDIT_GENERATED_(B3)
  6
Continuous
 62
     7
100
AcDbLine
 10
7.6442944986
 20
111.8574173175
 30
0.0
 11
7.854468114
 21
111.8296932914
 31
0.0
  0
ARC
  5
212
330
1C7
100
AcDbEntity
  8
$DDT_AUDIT_GENERATED_(B3)
  6
Continuous
 62
     7
100
AcDbCircle
 10
7.856242593
 20
113.3480421477
 30
0.0
 40
1.50624259303994
100
AcDbArc
 50
179.086804047
 51
261.9036011537
  0
ARC
  5
213
330
1C7
100
AcDbEntity
  8
$DDT_AUDIT_GENERATED_(B3)
  6
Continuous
 62
     7
100
AcDbCircle
 10
7.8609366069
 20
160.1256788013
 30
0.0
 40
1.510890031807259
100
AcDbArc
 50
98.2392982707
 51
180.7930704501
  0
ARC
  5
214
330
1C7
100
AcDbEntity
  8
$DDT_AUDIT_GENERATED_(B3)
  6
Continuous
 62
     7
100
AcDbCircle
 10
7.8329475106
 20
160.9147619885
 30
0.0
 40
0.7326751167959694
100
AcDbArc
 50
88.3234107079
 51
105.0074875867
  0
ARC
  5
215
330
1C7
100
AcDbEntity
  8
$DDT_AUDIT_GENERATED_(B3)
  6
Continuous
 62
     7
100
AcDbCircle
 10
48.5877976898
 20
-666.3416438381
 30
0.0
 40
829.0333209027893
100
AcDbArc
 50
90.7155005067
 51
92.8201093112
  0
SPLINE
  5
216
330
1C7
100
AcDbEntity
  8
$DDT_AUDIT_GENERATED_(B3)
  6
Continuous
 62
     7
100
AcDbSpline
210
0.0
220
0.0
230
1.0
 70
     8
 71
     3
 72
    12
 73
     8
 74
     0
 42
0.0000000120865299
 43
0.0000000001
 40
0.0
 40
0.0
 40
0.0
 40
0.0
 40
0.0576090596637311
 40
0.2891434326291741
 40
0.5268757812973447
 40
0.7353690646156974
 40
0.7827577950743951
 40
0.7827577950743951
 40
0.7827577950743951
 40
0.7827577950743951
 10
57.85025518809782
 20
115.3804382353152
 30
0.0
 10
57.86764890759062
 20
115.3792274674814
 30
0.0
 10
57.94270316696677
 20
115.3745846281841
 30
0.0
 10
58.0897502736825
 20
115.4205605683315
 30
0.0
 10
58.2398505515587
 20
115.5301674583404
 30
0.0
 10
58.30767076052411
 20
115.6431163771378
 30
0.0
 10
58.33142978596233
 20
115.7093131953792
 30
0.0
 10
58.33530286528028
 20
115.7217130239948
 30
0.0
  0
LINE
  5
217
330
1C7
100
AcDbEntity
  8
$DDT_AUDIT_GENERATED_(B3)
  6
Continuous
 62
     7
100
AcDbLine
 10
54.5628202473
 20
115.3757524302
 30
0.0
 11
57.8502511734
 21
115.3759152187
 31
0.0
  0
ARC
  5
218
330
1C7
100
AcDbEntity
  8
$DDT_AUDIT_GENERATED_(B3)
  6
Continuous
 62
     7
100
AcDbCircle
 10
54.5353551096
 20
113.2884923011
 30
0.0
 40
2.086575946507573
100
AcDbArc
 50
89.2507367299
 51
96.4562237902
  0
ARC
  5
219
330
1C7
100
AcDbEntity
  8
$DDT_AUDIT_GENERATED_(B3)
  6
Continuous
 62
     7
100
AcDbCircle
 10
54.32492462
 20
114.2441231247
 30
0.0
 40
1.117973967896705
100
AcDbArc
 50
91.2399574829
 51
113.3405970511
  0
LINE
  5
21A
330
1C7
100
AcDbEntity
  8
$DDT_AUDIT_GENERATED_(E9)
  6
Continuous
 62
     7
100
AcDbLine
 10
20.754639699
 20
115.9441833107
 30
0.0
 11
20.754639699
 21
111.9441833107
 31
0.0
  0
LINE
  5
21B
330
1C7
100
AcDbEntity
  8
$DDT_AUDIT_GENERATED_(E9)
  6
Continuous
 62
     7
100
AcDbLine
 10
20.754639699
 20
115.9441833107
 30
0.0
 11
20.754639699
 21
117.1998799309
 31
0.0
  0
ARC
  5
21C
330
1C7
100
AcDbEntity
  8
$DDT_AUDIT_GENERATED_(E9)
  6
Continuous
 62
     7
100
AcDbCircle
 10
36.6091710577
 20
111.9492877046
 30
0.0
 40
15.85453218037268
100
AcDbArc
 50
180.0184464751
 51
196.7041080545
  0
LINE
  5
21D
330
1C7
100
AcDbEntity
  8
$DDT_AUDIT_GENERATED_(E9)
  6
Continuous
 62
     7
100
AcDbLine
 10
52.3501962357
 20
114.6351447832
 30
0.0
 11
52.3501962357
 21
110.6351447832
 31
0.0
  0
ELLIPSE
  5
21E
330
1C7
100
AcDbEntity
  8
$DDT_AUDIT_GENERATED_(E9)
  6
Continuous
 62
     7
100
AcDbEllipse
 10
22.4769603923
 20
107.35
 30
0.0
 11
0.9521434640251404
 21
0.3056514745821277
 31
0.0
210
0.0
220
0.0
230
1.0
 40
0.4817305471
 41
3.022030386748485
 42
3.141592653589793
  0
LINE
  5
21F
330
1C7
100
AcDbEntity
  8
$DDT_AUDIT_GENERATED_(E9)
  6
Continuous
 62
     7
100
AcDbLine
 10
52.3501962357
 20
117.0000005476
 30
0.0
 11
52.3501962357
 21
114.6351447832
 31
0.0
  0
ARC
  5
220
330
1C7
100
AcDbEntity
  8
$DDT_AUDIT_GENERATED_(E9)
  6
Continuous
 62
     7
100
AcDbCircle
 10
51.3501962357
 20
110.6351447832
 30
0.0
 40
1.000000000000023
100
AcDbArc
 50
270.9364154005
 51
0.0
  0
ARC
  5
221
330
1C7
100
AcDbEntity
  8
$DDT_AUDIT_GENERATED_(E9)
  6
Continuous
 62
     7
100
AcDbCircle
 10
53.8246433229
 20
-39.6913080786
 30
0.0
 40
149.3467089801684
100
AcDbArc
 50
90.9430936651
 51
102.0345069052
  0
ARC
  5
222
330
1C7
100
AcDbEntity
  8
$DDT_AUDIT_GENERATED_(E9)
  6
Continuous
 62
     7
100
AcDbCircle
 10
22.4769603923
 20
107.35
 30
0.0
 40
1.000000000000033
100
AcDbArc
 50
197.7973624622
 51
282.0718036089
  0
LINE
  5
223
330
1C7
100
AcDbEntity
  8
$DDT_AUDIT_GENERATED_(E9)
  6
Continuous
 62
     7
100
AcDbLine
 10
21.4354797867
 20
107.3396574194
 30
0.0
 11
21.5348938247
 21
107.0468308787
 31
0.0
  0
SPLINE
  5
224
330
1C7
100
AcDbEntity
  8
$DDT_AUDIT_GENERATED_(E9)
  6
Continuous
 62
     7
100
AcDbSpline
210
0.0
220
0.0
230
1.0
 70
     8
 71
     3
 72
    13
 73
     9
 74
     0
 42
0.0000000073889191
 43
0.0000000001
 40
0.1064701959685179
 40
0.1064701959685179
 40
0.1064701959685179
 40
0.1064701959685179
 40
0.2157895873410033
 40
0.3814533867291977
 40
0.5525935102670924
 40
0.7303047583662147
 40
0.9342912370979952
 40
1.0
 40
1.0
 40
1.0
 40
1.0
 10
19.94464886348968
 20
116.7560839873983
 30
0.0
 10
20.00886040822955
 20
116.746460602246
 30
0.0
 10
20.17083369945014
 20
116.7027061216441
 30
0.0
 10
20.39253322623441
 20
116.6009411336161
 30
0.0
 10
20.58521546321168
 20
116.4389679280677
 30
0.0
 10
20.70737404770492
 20
116.2539606665787
 30
0.0
 10
20.75600515565565
 20
116.1051602935261
 30
0.0
 10
20.75042993514836
 20
116.0253993919882
 30
0.0
 10
20.7485398404815
 20
116.0027601734723
 30
0.0
  0
LINE
  5
225
330
1C7
100
AcDbEntity
  8
$DDT_AUDIT_GENERATED_(1A5)
  6
Continuous
 62
     7
100
AcDbLine
 10
117.300189403
 20
176.9383691148
 30
0.0
 11
117.300189403
 21
195.7461774744
 31
0.0
  0
LINE
  5
226
330
1C7
100
AcDbEntity
  8
$DDT_AUDIT_GENERATED_(1A5)
  6
Continuous
 62
     7
100
AcDbLine
 10
78.800189403
 20
195.7461774744
 30
0.0
 11
78.800189403
 21
176.9383691148
 31
0.0
  0
ARC
  5
227
330
1C7
100
AcDbEntity
  8
$DDT_AUDIT_GENERATED_(1A5)
  6
Continuous
 62
     7
100
AcDbCircle
 10
79.000189403
 20
176.9383691148
 30
0.0
 40
0.1999999999999919
100
AcDbArc
 50
180.0
 51
270.0
  0
ARC
  5
228
330
1C7
100
AcDbEntity
  8
$DDT_AUDIT_GENERATED_(1A5)
  6
Continuous
 62
     7
100
AcDbCircle
 10
117.100189403
 20
176.9383691148
 30
0.0
 40
0.1999999999999988
100
AcDbArc
 50
270.0
 51
0.0
  0
LINE
  5
229
330
1C7
100
AcDbEntity
  8
05919038_ROSETTE
  6
Continuous
 62
     7
100
AcDbLine
 10
118.050189403
 20
195.7461774744
 30
0.0
 11
78.050189403
 21
195.7461774744
 31
0.0
  0
LINE
  5
22A
330
1C7
100
AcDbEntity
  8
05919038_ROSETTE
  6
Continuous
 62
     7
100
AcDbLine
 10
132.549831749
 20
228.7383691148
 30
0.0
 11
63.550547057
 21
228.7383691148
 31
0.0
  0
ARC
  5
22B
330
1C7
100
AcDbEntity
  8
05919038_ROSETTE
  6
Continuous
 62
     7
100
AcDbCircle
 10
-216.949810597
 20
228.7383691148
 30
0.0
 40
350.0000000000001
100
AcDbArc
 50
356.9199375354
 51
359.918031761
  0
ARC
  5
22C
330
1C7
100
AcDbEntity
  8
05919038_ROSETTE
  6
Continuous
 62
     7
100
AcDbCircle
 10
413.050189403
 20
228.7383691148
 30
0.0
 40
350.0000000000001
100
AcDbArc
 50
180.081968239
 51
183.0800624646
  0
ARC
  5
22D
330
1C7
100
AcDbEntity
  8
05919038_ROSETTE
  6
Continuous
 62
     7
100
AcDbCircle
 10
78.5341210296
 20
210.7383691148
 30
0.0
 40
14.99999999999999
100
AcDbArc
 50
183.0800624646
 51
268.1511965344
  0
ARC
  5
22E
330
1C7
100
AcDbEntity
  8
05919038_ROSETTE
  6
Continuous
 62
     7
100
AcDbCircle
 10
117.5662577764
 20
210.7383691148
 30
0.0
 40
15.0
100
AcDbArc
 50
271.8488034656
 51
356.9199375354
  0
ARC
  5
22F
330
1C7
100
AcDbEntity
  8
05919038_ROSETTE
  6
Continuous
 62
     7
100
AcDbCircle
 10
132.549831749
 20
228.2383691148
 30
0.0
 40
0.4999999999999893
100
AcDbArc
 50
359.918031761
 51
90.0
  0
ARC
  5
230
330
1C7
100
AcDbEntity
  8
05919038_ROSETTE
  6
Continuous
 62
     7
100
AcDbCircle
 10
63.550547057
 20
228.2383691148
 30
0.0
 40
0.5000000000000004
100
AcDbArc
 50
90.0
 51
180.081968239
  0
LINE
  5
231
330
1C7
100
AcDbEntity
  8
$DDT_AUDIT_GENERATED_(1A5)
  6
Continuous
 62
     7
100
AcDbLine
 10
267.300189403
 20
176.9383691148
 30
0.0
 11
267.300189403
 21
195.7461774744
 31
0.0
  0
LINE
  5
232
330
1C7
100
AcDbEntity
  8
$DDT_AUDIT_GENERATED_(1A5)
  6
Continuous
 62
     7
100
AcDbLine
 10
228.800189403
 20
195.7461774744
 30
0.0
 11
228.800189403
 21
176.9383691148
 31
0.0
  0
ARC
  5
233
330
1C7
100
AcDbEntity
  8
$DDT_AUDIT_GENERATED_(1A5)
  6
Continuous
 62
     7
100
AcDbCircle
 10
229.000189403
 20
176.9383691148
 30
0.0
 40
0.2000000000000057
100
AcDbArc
 50
180.0
 51
270.0
  0
ARC
  5
234
330
1C7
100
AcDbEntity
  8
$DDT_AUDIT_GENERATED_(1A5)
  6
Continuous
 62
     7
100
AcDbCircle
 10
267.100189403
 20
176.9383691148
 30
0.0
 40
0.1999999999999988
100
AcDbArc
 50
270.0
 51
0.0
  0
LINE
  5
235
330
1C7
100
AcDbEntity
  8
05919038_ROSETTE
  6
Continuous
 62
     7
100
AcDbLine
 10
228.050189403
 20
195.7461774744
 30
0.0
 11
268.050189403
 21
195.7461774744
 31
0.0
  0
LINE
  5
236
330
1C7
100
AcDbEntity
  8
05919038_ROSETTE
  6
Continuous
 62
     7
100
AcDbLine
 10
213.550547057
 20
228.7383691148
 30
0.0
 11
282.549831749
 21
228.7383691148
 31
0.0
  0
ARC
  5
237
330
1C7
100
AcDbEntity
  8
05919038_ROSETTE
  6
Continuous
 62
     7
100
AcDbCircle
 10
-66.949810597
 20
228.7383691148
 30
0.0
 40
350.0
100
AcDbArc
 50
356.9199375354
 51
359.918031761
  0
ARC
  5
238
330
1C7
100
AcDbEntity
  8
05919038_ROSETTE
  6
Continuous
 62
     7
100
AcDbCircle
 10
563.050189403
 20
228.7383691148
 30
0.0
 40
350.0000000000001
100
AcDbArc
 50
180.081968239
 51
183.0800624646
  0
ARC
  5
239
330
1C7
100
AcDbEntity
  8
05919038_ROSETTE
  6
Continuous
 62
     7
100
AcDbCircle
 10
228.5341210296
 20
210.7383691148
 30
0.0
 40
15.0
100
AcDbArc
 50
183.0800624646
 51
268.1511965344
  0
ARC
  5
23A
330
1C7
100
AcDbEntity
  8
05919038_ROSETTE
  6
Continuous
 62
     7
100
AcDbCircle
 10
267.5662577764
 20
210.7383691148
 30
0.0
 40
15.0
100
AcDbArc
 50
271.8488034656
 51
356.9199375354
  0
ARC
  5
23B
330
1C7
100
AcDbEntity
  8
05919038_ROSETTE
  6
Continuous
 62
     7
100
AcDbCircle
 10
282.549831749
 20
228.2383691148
 30
0.0
 40
0.4999999999999893
100
AcDbArc
 50
359.918031761
 51
90.0
  0
ARC
  5
23C
330
1C7
100
AcDbEntity
  8
05919038_ROSETTE
  6
Continuous
 62
     7
100
AcDbCircle
 10
213.550547057
 20
228.2383691148
 30
0.0
 40
0.5000000000000004
100
AcDbArc
 50
90.0
 51
180.081968239
  0
LINE
  5
23D
330
1C7
100
AcDbEntity
  8
$DDT_AUDIT_GENERATED_(108)
  6
Continuous
 62
     7
100
AcDbLine
 10
279.050189403
 20
160.2383691148
 30
0.0
 11
279.050189403
 21
113.2383691148
 31
0.0
  0
LINE
  5
23E
330
1C7
100
AcDbEntity
  8
$DDT_AUDIT_GENERATED_(108)
  6
Continuous
 62
     7
100
AcDbLine
 10
287.050189403
 20
160.2383691148
 30
0.0
 11
287.050189403
 21
113.2383691148
 31
0.0
  0
LINE
  5
23F
330
1C7
100
AcDbEntity
  8
$DDT_AUDIT_GENERATED_(108)
  6
Continuous
 62
     7
100
AcDbLine
 10
279.550189403
 20
112.7383691148
 30
0.0
 11
286.550189403
 21
112.7383691148
 31
0.0
  0
LINE
  5
240
330
1C7
100
AcDbEntity
  8
$DDT_AUDIT_GENERATED_(108)
  6
Continuous
 62
     7
100
AcDbLine
 10
286.550189403
 20
160.7383691148
 30
0.0
 11
279.550189403
 21
160.7383691148
 31
0.0
  0
LINE
  5
241
330
1C7
100
AcDbEntity
  8
$DDT_AUDIT_GENERATED_(108)
  6
Continuous
 62
     7
100
AcDbLine
 10
287.550189403
 20
116.5883691148
 30
0.0
 11
288.150189403
 21
116.5883691148
 31
0.0
  0
LINE
  5
242
330
1C7
100
AcDbEntity
  8
$DDT_AUDIT_GENERATED_(108)
  6
Continuous
 62
     7
100
AcDbLine
 10
288.150189403
 20
156.8883691148
 30
0.0
 11
287.550189403
 21
156.8883691148
 31
0.0
  0
ARC
  5
243
330
1C7
100
AcDbEntity
  8
$DDT_AUDIT_GENERATED_(108)
  6
Continuous
 62
     7
100
AcDbCircle
 10
279.550189403
 20
113.2383691148
 30
0.0
 40
0.5000000000000004
100
AcDbArc
 50
180.0
 51
270.0
  0
ARC
  5
244
330
1C7
100
AcDbEntity
  8
$DDT_AUDIT_GENERATED_(108)
  6
Continuous
 62
     7
100
AcDbCircle
 10
279.550189403
 20
160.2383691148
 30
0.0
 40
0.5000000000000004
100
AcDbArc
 50
90.0
 51
180.0
  0
ARC
  5
245
330
1C7
100
AcDbEntity
  8
$DDT_AUDIT_GENERATED_(108)
  6
Continuous
 62
     7
100
AcDbCircle
 10
287.550189403
 20
157.3883691148
 30
0.0
 40
0.5000000000000004
100
AcDbArc
 50
180.0
 51
270.0
  0
ARC
  5
246
330
1C7
100
AcDbEntity
  8
$DDT_AUDIT_GENERATED_(108)
  6
Continuous
 62
     7
100
AcDbCircle
 10
287.550189403
 20
116.0883691148
 30
0.0
 40
0.5000000000000004
100
AcDbArc
 50
90.0
 51
180.0
  0
ARC
  5
247
330
1C7
100
AcDbEntity
  8
$DDT_AUDIT_GENERATED_(108)
  6
Continuous
 62
     7
100
AcDbCircle
 10
286.550189403
 20
160.2383691148
 30
0.0
 40
0.5000000000000004
100
AcDbArc
 50
0.0
 51
90.0
  0
ARC
  5
248
330
1C7
100
AcDbEntity
  8
$DDT_AUDIT_GENERATED_(108)
  6
Continuous
 62
     7
100
AcDbCircle
 10
286.550189403
 20
113.2383691148
 30
0.0
 40
0.5000000000000004
100
AcDbArc
 50
270.0
 51
0.0
  0
LINE
  5
249
330
1C7
100
AcDbEntity
  8
$DDT_AUDIT_GENERATED_(B3)
  6
Continuous
 62
     7
100
AcDbLine
 10
340.1501874956
 20
160.1047662535
 30
0.0
 11
340.1501874956
 21
118.7207753388
 31
0.0
  0
LINE
  5
24A
330
1C7
100
AcDbEntity
  8
$DDT_AUDIT_GENERATED_(B3)
  6
Continuous
 62
     7
100
AcDbLine
 10
340.1501874956
 20
118.7207753388
 30
0.0
 11
340.1501874956
 21
113.3719669503
 31
0.0
  0
LINE
  5
24B
330
1C7
100
AcDbEntity
  8
$DDT_AUDIT_GENERATED_(B3)
  6
Continuous
 62
     7
100
AcDbLine
 10
316.150189403
 20
158.9092059513
 30
0.0
 11
316.150189403
 21
128.9724674671
 31
0.0
  0
SPLINE
  5
24C
330
1C7
100
AcDbEntity
  8
$DDT_AUDIT_GENERATED_(B3)
  6
Continuous
 62
     7
100
AcDbSpline
210
0.0
220
0.0
230
1.0
 70
     8
 71
     3
 72
    20
 73
    16
 74
     0
 42
0.0000000037649957
 43
0.0000000001
 40
0.0
 40
0.0
 40
0.0
 40
0.0
 40
0.2500000000000002
 40
0.2500000000000002
 40
0.5000000000000004
 40
0.5000000000000004
 40
0.6250000000000003
 40
0.6250000000000003
 40
0.7500000000000002
 40
0.7500000000000002
 40
0.8750000000000001
 40
0.8750000000000001
 40
0.9375
 40
0.9375
 40
1.0
 40
1.0
 40
1.0
 40
1.0
 10
316.1501894029835
 20
158.9092059512606
 30
0.0
 10
316.1501894029835
 20
159.0913879208558
 30
0.0
 10
316.1348514052067
 20
159.2695414777527
 30
0.0
 10
316.063842665463
 20
159.6181577834338
 30
0.0
 10
316.008937096761
 20
159.7885965583983
 30
0.0
 10
315.8769604319623
 20
160.0390539203541
 30
0.0
 10
315.8246322718382
 20
160.1213948352855
 30
0.0
 10
315.6963512762828
 20
160.2818934591353
 30
0.0
 10
315.6206603591789
 20
160.360125615189
 30
0.0
 10
315.4322127545835
 20
160.5077888079331
 30
0.0
 10
315.3178180834642
 20
160.5793527962942
 30
0.0
 10
315.0954369787625
 20
160.6653707382235
 30
0.0
 10
315.0141624299732
 20
160.6896781919592
 30
0.0
 10
314.8354360181529
 20
160.7238537780026
 30
0.0
 10
314.7414558023254
 20
160.7325605984517
 30
0.0
 10
314.6501894029835
 20
160.7320965519872
 30
0.0
  0
LINE
  5
24D
330
1C7
100
AcDbEntity
  8
$DDT_AUDIT_GENERATED_(B3)
  6
Continuous
 62
     7
100
AcDbLine
 10
288.150189403
 20
111.2776597765
 30
0.0
 11
288.150189403
 21
113.6372304641
 31
0.0
  0
LINE
  5
24E
330
1C7
100
AcDbEntity
  8
$DDT_AUDIT_GENERATED_(B3)
  6
Continuous
 62
     7
100
AcDbLine
 10
288.150189403
 20
122.7557170312
 30
0.0
 11
288.150189403
 21
127.2045371331
 31
0.0
  0
LINE
  5
24F
330
1C7
100
AcDbEntity
  8
$DDT_AUDIT_GENERATED_(B3)
  6
Continuous
 62
     7
100
AcDbLine
 10
288.150189403
 20
127.5975611606
 30
0.0
 11
288.150189403
 21
127.2045371331
 31
0.0
  0
LINE
  5
250
330
1C7
100
AcDbEntity
  8
$DDT_AUDIT_GENERATED_(B3)
  6
Continuous
 62
     7
100
AcDbLine
 10
288.150189403
 20
127.5975611606
 30
0.0
 11
288.150189403
 21
160.0573849454
 31
0.0
  0
LINE
  5
251
330
1C7
100
AcDbEntity
  8
$DDT_AUDIT_GENERATED_(B3)
  6
Continuous
 62
     7
100
AcDbLine
 10
288.150189403
 20
160.185558147
 30
0.0
 11
288.150189403
 21
162.199081349
 31
0.0
  0
LINE
  5
252
330
1C7
100
AcDbEntity
  8
$DDT_AUDIT_GENERATED_(B3)
  6
Continuous
 62
     7
100
AcDbLine
 10
288.150189403
 20
160.185558147
 30
0.0
 11
288.150189403
 21
160.0573849454
 31
0.0
  0
ARC
  5
253
330
1C7
100
AcDbEntity
  8
$DDT_AUDIT_GENERATED_(B3)
  6
Continuous
 62
     7
100
AcDbCircle
 10
297.0295065323
 20
833.4485085993
 30
0.0
 40
672.947144657504
100
AcDbArc
 50
269.2865533088
 51
271.5004241718
  0
ARC
  5
254
330
1C7
100
AcDbEntity
  8
$DDT_AUDIT_GENERATED_(B3)
  6
Continuous
 62
     7
100
AcDbCircle
 10
288.6553598009
 20
162.2008058606
 30
0.0
 40
0.5051733413782803
100
AcDbArc
 50
109.0665699848
 51
180.1955911374
  0
SPLINE
  5
255
330
1C7
100
AcDbEntity
  8
$DDT_AUDIT_GENERATED_(B3)
  6
Continuous
 62
     7
100
AcDbSpline
210
0.0
220
0.0
230
1.0
 70
     8
 71
     3
 72
    10
 73
     6
 74
     0
 42
0.0000000244333951
 43
0.0000000001
 40
0.0
 40
0.0
 40
0.0
 40
0.0
 40
0.5000000000000001
 40
0.5000000000000001
 40
1.0
 40
1.0
 40
1.0
 40
1.0
 10
288.4903975588302
 20
122.5903614461295
 30
0.0
 10
288.3899324037764
 20
122.6021705952314
 30
0.0
 10
288.3032596617957
 20
122.6248762030626
 30
0.0
 10
288.1826604854371
 20
122.6839398699224
 30
0.0
 10
288.1501894029834
 20
122.7200254397816
 30
0.0
 10
288.1501894029834
 20
122.7557170311968
 30
0.0
  0
ARC
  5
256
330
1C7
100
AcDbEntity
  8
$DDT_AUDIT_GENERATED_(B3)
  6
Continuous
 62
     7
100
AcDbCircle
 10
291.3393439866
 20
124.5450391987
 30
0.0
 40
3.455034133637726
100
AcDbArc
 50
214.4542318293
 51
218.842513646
  0
ARC
  5
257
330
1C7
100
AcDbEntity
  8
$DDT_AUDIT_GENERATED_(B3)
  6
Continuous
 62
     7
100
AcDbCircle
 10
252.6919416957
 20
148.8337527197
 30
0.0
 40
44.38744223001727
100
AcDbArc
 50
323.7553324135
 51
324.1236134971
  0
ARC
  5
258
330
1C7
100
AcDbEntity
  8
$DDT_AUDIT_GENERATED_(B3)
  6
Continuous
 62
     7
100
AcDbCircle
 10
296.3629859891
 20
-633.5135990707
 30
0.0
 40
796.2418704032498
100
AcDbArc
 50
89.1560287599
 51
90.555139566
  0
ARC
  5
259
330
1C7
100
AcDbEntity
  8
$DDT_AUDIT_GENERATED_(B3)
  6
Continuous
 62
     7
100
AcDbCircle
 10
288.3204378033
 20
162.0325070228
 30
0.0
 40
0.6677344205519089
100
AcDbArc
 50
59.5989932296
 51
75.2595555059
  0
ARC
  5
25A
330
1C7
100
AcDbEntity
  8
$DDT_AUDIT_GENERATED_(B3)
  6
Continuous
 62
     7
100
AcDbCircle
 10
288.6060852183
 20
162.224839464
 30
0.0
 40
0.4679665223536964
100
AcDbArc
 50
84.8233040218
 51
104.3203882984
  0
ELLIPSE
  5
25B
330
1C7
100
AcDbEntity
  8
$DDT_AUDIT_GENERATED_(B3)
  6
Continuous
 62
     7
100
AcDbEllipse
 10
338.715946469
 20
160.6400214233
 30
0.0
 11
-0.1416126198701684
 21
-0.9899221514308165
 31
0.0
210
0.0
220
0.0
230
0.9999999999999998
 40
0.0154817434
 41
2.63964363055502
 42
3.142426435996295
  0
ELLIPSE
  5
25C
330
1C7
100
AcDbEntity
  8
$DDT_AUDIT_GENERATED_(B3)
  6
Continuous
 62
     7
100
AcDbEllipse
 10
338.6456256768
 20
160.6466768314
 30
0.0
 11
-0.04659925964725642
 21
-0.9989136644377172
 31
0.0
210
0.0
220
0.0
230
1.0
 40
0.185743369
 41
3.102362319912126
 42
3.137160606543489
  0
ARC
  5
25D
330
1C7
100
AcDbEntity
  8
$DDT_AUDIT_GENERATED_(B3)
  6
Continuous
 62
     7
100
AcDbCircle
 10
296.3654686247
 20
906.8777647423
 30
0.0
 40
796.1293304301317
100
AcDbArc
 50
269.4446032221
 51
269.8405707308
  0
ARC
  5
25E
330
1C7
100
AcDbEntity
  8
$DDT_AUDIT_GENERATED_(B3)
  6
Continuous
 62
     7
100
AcDbCircle
 10
288.6553557305
 20
111.2759362579
 30
0.0
 40
0.5051692676216639
100
AcDbArc
 50
179.8045199153
 51
250.9362466344
  0
ARC
  5
25F
330
1C7
100
AcDbEntity
  8
$DDT_AUDIT_GENERATED_(B3)
  6
Continuous
 62
     7
100
AcDbCircle
 10
288.6061087156
 20
111.2518994159
 30
0.0
 40
0.4679681974234401
100
AcDbArc
 50
255.6793146282
 51
275.1736913985
  0
ELLIPSE
  5
260
330
1C7
100
AcDbEntity
  8
$DDT_AUDIT_GENERATED_(B3)
  6
Continuous
 62
     7
100
AcDbEllipse
 10
338.6456271798
 20
112.8300564817
 30
0.0
 11
-0.04660290918184762
 21
0.9989134941803257
 31
0.0
210
0.0
220
0.0
230
1.0
 40
0.1857460276
 41
3.14787455227003
 42
3.184635424917317
  0
LINE
  5
261
330
1C7
100
AcDbEntity
  8
$DDT_AUDIT_GENERATED_(B3)
  6
Continuous
 62
     7
100
AcDbLine
 10
288.150189403
 20
115.8374777815
 30
0.0
 11
288.150189403
 21
122.7557170312
 31
0.0
  0
LINE
  5
262
330
1C7
100
AcDbEntity
  8
$DDT_AUDIT_GENERATED_(B3)
  6
Continuous
 62
     7
100
AcDbLine
 10
288.150189403
 20
114.7048720935
 30
0.0
 11
288.150189403
 21
115.7816478778
 31
0.0
  0
LINE
  5
263
330
1C7
100
AcDbEntity
  8
$DDT_AUDIT_GENERATED_(B3)
  6
Continuous
 62
     7
100
AcDbLine
 10
288.150189403
 20
114.7048720935
 30
0.0
 11
288.150189403
 21
114.1583433263
 31
0.0
  0
LINE
  5
264
330
1C7
100
AcDbEntity
  8
$DDT_AUDIT_GENERATED_(B3)
  6
Continuous
 62
     7
100
AcDbLine
 10
288.150189403
 20
113.6372304641
 30
0.0
 11
288.150189403
 21
114.1583433263
 31
0.0
  0
ARC
  5
265
330
1C7
100
AcDbEntity
  8
$DDT_AUDIT_GENERATED_(B3)
  6
Continuous
 62
     7
100
AcDbCircle
 10
303.593615466
 20
9551.8431684916
 30
0.0
 40
9434.607927906472
100
AcDbArc
 50
269.9472053464
 51
270.1318227548
  0
SPLINE
  5
266
330
1C7
100
AcDbEntity
  8
$DDT_AUDIT_GENERATED_(B3)
  6
Continuous
 62
     7
100
AcDbSpline
210
0.0
220
0.0
230
1.0
 70
     8
 71
     3
 72
    12
 73
     8
 74
     0
 42
0.000000007528868
 43
0.0000000001
 40
0.0
 40
0.0
 40
0.0
 40
0.0
 40
0.2500000000000008
 40
0.2500000000000008
 40
0.5000000000000017
 40
0.5000000000000017
 40
1.0
 40
1.0
 40
1.0
 40
1.0
 10
293.9001865419605
 20
116.5836679564431
 30
0.0
 10
293.9001865419605
 20
116.6676221611001
 30
0.0
 10
293.9258275617199
 20
116.7507320072177
 30
0.0
 10
294.025147268775
 20
116.9079742496789
 30
0.0
 10
294.098561517917
 20
116.9807930398218
 30
0.0
 10
294.3740365471069
 20
117.1647349256757
 30
0.0
 10
294.6339067694309
 20
117.2394005696107
 30
0.0
 10
294.9001865419605
 20
117.2392458242823
 30
0.0
  0
LINE
  5
267
330
1C7
100
AcDbEntity
  8
$DDT_AUDIT_GENERATED_(B3)
  6
Continuous
 62
     7
100
AcDbLine
 10
293.900186542
 20
112.4331931785
 30
0.0
 11
293.900186542
 21
116.5836679564
 31
0.0
  0
SPLINE
  5
268
330
1C7
100
AcDbEntity
  8
$DDT_AUDIT_GENERATED_(B3)
  6
Continuous
 62
     7
100
AcDbSpline
210
0.0
220
0.0
230
1.0
 70
     8
 71
     3
 72
    10
 73
     6
 74
     0
 42
0.0000000130077399
 43
0.0000000001
 40
0.0
 40
0.0
 40
0.0
 40
0.0
 40
0.25
 40
0.25
 40
0.4593493986265731
 40
0.4593493986265731
 40
0.4593493986265731
 40
0.4593493986265731
 10
293.9001865419605
 20
115.0688241680306
 30
0.0
 10
293.9001865419605
 20
115.0238439562402
 30
0.0
 10
293.925735621647
 20
114.9808484541576
 30
0.0
 10
294.0167403540005
 20
114.9082130728239
 30
0.0
 10
294.0748080336271
 20
114.8780285457396
 30
0.0
 10
294.1464595599278
 20
114.8519218950903
 30
0.0
  0
SPLINE
  5
269
330
1C7
100
AcDbEntity
  8
$DDT_AUDIT_GENERATED_(B3)
  6
Continuous
 62
     7
100
AcDbSpline
210
0.0
220
0.0
230
1.0
 70
     8
 71
     3
 72
    10
 73
     6
 74
     0
 42
0.0000000127279864
 43
0.0000000001
 40
0.5480116626823546
 40
0.5480116626823546
 40
0.5480116626823546
 40
0.5480116626823546
 40
0.75
 40
0.75
 40
1.0
 40
1.0
 40
1.0
 40
1.0
 10
294.14002339416
 20
112.205670443299
 30
0.0
 10
294.0716281775303
 20
112.2328790820598
 30
0.0
 10
294.0157497766466
 20
112.2641581064455
 30
0.0
 10
293.9264067666184
 20
112.3395518346644
 30
0.0
 10
293.9001865419605
 20
112.3857413545989
 30
0.0
 10
293.9001865419605
 20
112.4331931785277
 30
0.0
  0
LINE
  5
26A
330
1C7
100
AcDbEntity
  8
$DDT_AUDIT_GENERATED_(B3)
  6
Continuous
 62
     7
100
AcDbLine
 10
326.750186542
 20
116.3111828962
 30
0.0
 11
326.750186542
 21
112.6108748763
 31
0.0
  0
SPLINE
  5
26B
330
1C7
100
AcDbEntity
  8
$DDT_AUDIT_GENERATED_(B3)
  6
Continuous
 62
     7
100
AcDbSpline
210
0.0
220
0.0
230
1.0
 70
     8
 71
     3
 72
    18
 73
    14
 74
     0
 42
0.0000000052376197
 43
0.0000000001
 40
0.0
 40
0.0
 40
0.0
 40
0.0
 40
0.1249999999999997
 40
0.1249999999999997
 40
0.2499999999999993
 40
0.2499999999999993
 40
0.374999999999999
 40
0.374999999999999
 40
0.4999999999999987
 40
0.4999999999999987
 40
0.7499999999999993
 40
0.7499999999999993
 40
1.0
 40
1.0
 40
1.0
 40
1.0
 10
325.3001865419604
 20
117.2602111962369
 30
0.0
 10
325.3966707807722
 20
117.2603999811214
 30
0.0
 10
325.4914914913275
 20
117.2540782927714
 30
0.0
 10
325.6779508928511
 20
117.2290200286265
 30
0.0
 10
325.7705862600984
 20
117.2099571978657
 30
0.0
 10
325.9465840450994
 20
117.1604687440266
 30
0.0
 10
326.029973419225
 20
117.1302380982794
 30
0.0
 10
326.1876617866756
 20
117.059159191583
 30
0.0
 10
326.2619314382871
 20
117.0181036701141
 30
0.0
 10
326.4615006763405
 20
116.8845401993061
 30
0.0
 10
326.5686182132296
 20
116.7781459393767
 30
0.0
 10
326.7120623951976
 20
116.5526129517482
 30
0.0
 10
326.7501865419605
 20
116.4313617998486
 30
0.0
 10
326.7501865419605
 20
116.3111828961975
 30
0.0
  0
SPLINE
  5
26C
330
1C7
100
AcDbEntity
  8
$DDT_AUDIT_GENERATED_(B3)
  6
Continuous
 62
     7
100
AcDbSpline
210
0.0
220
0.0
230
1.0
 70
     8
 71
     3
 72
    16
 73
    12
 74
     0
 42
0.0000000068209245
 43
0.0000000001
 40
0.1977460199599853
 40
0.1977460199599853
 40
0.1977460199599853
 40
0.1977460199599853
 40
0.2500000000000036
 40
0.2500000000000036
 40
0.3750000000000053
 40
0.3750000000000053
 40
0.5000000000000071
 40
0.5000000000000071
 40
0.7500000000000036
 40
0.7500000000000036
 40
1.0
 40
1.0
 40
1.0
 40
1.0
 10
325.747002786605
 20
114.794351905784
 30
0.0
 10
325.7851741512935
 20
114.7980868889418
 30
0.0
 10
325.822819120667
 20
114.8022897602572
 30
0.0
 10
325.9477061458246
 20
114.8180654125284
 30
0.0
 10
326.0311375291485
 20
114.8316743112077
 30
0.0
 10
326.1888645265561
 20
114.8640783057252
 30
0.0
 10
326.2630186884441
 20
114.8829500181551
 30
0.0
 10
326.4622834081727
 20
114.9454691182028
 30
0.0
 10
326.5691114761852
 20
114.9966886806048
 30
0.0
 10
326.7121717933089
 20
115.1109545024814
 30
0.0
 10
326.7501865419605
 20
115.1750889615226
 30
0.0
 10
326.7501865419605
 20
115.2421084653632
 30
0.0
  0
SPLINE
  5
26D
330
1C7
100
AcDbEntity
  8
$DDT_AUDIT_GENERATED_(B3)
  6
Continuous
 62
     7
100
AcDbSpline
210
0.0
220
0.0
230
1.0
 70
     8
 71
     3
 72
    16
 73
    12
 74
     0
 42
0.0000000067479111
 43
0.0000000001
 40
0.0
 40
0.0
 40
0.0
 40
0.0
 40
0.2499999999999968
 40
0.2499999999999968
 40
0.3749999999999973
 40
0.3749999999999973
 40
0.4999999999999979
 40
0.4999999999999979
 40
0.7499999999999989
 40
0.7499999999999989
 40
0.8005818974150645
 40
0.8005818974150645
 40
0.8005818974150645
 40
0.8005818974150645
 10
326.7501865419605
 20
112.6108748763386
 30
0.0
 10
326.7501865419605
 20
112.5402662405582
 30
0.0
 10
326.7128984258708
 20
112.4731470512323
 30
0.0
 10
326.6047823747601
 20
112.3811523423842
 30
0.0
 10
326.5606751816374
 20
112.3524566610345
 30
0.0
 10
326.4564687750959
 20
112.2987135478413
 30
0.0
 10
326.3956855445353
 20
112.2735105637234
 30
0.0
 10
326.1960186902114
 20
112.2061987187896
 30
0.0
 10
326.034666489688
 20
112.1706374776181
 30
0.0
 10
325.8243328926234
 20
112.1419302915114
 30
0.0
 10
325.7882567008767
 20
112.1375547782283
 30
0.0
 10
325.7516251434902
 20
112.133644943833
 30
0.0
  0
ARC
  5
26E
330
1C7
100
AcDbEntity
  8
$DDT_AUDIT_GENERATED_(B3)
  6
Continuous
 62
     7
100
AcDbCircle
 10
324.7677916906
 20
6455.38218822
 30
0.0
 40
6339.654949648262
100
AcDbArc
 50
269.7210279422
 51
269.7232868956
  0
ARC
  5
26F
330
1C7
100
AcDbEntity
  8
$DDT_AUDIT_GENERATED_(B3)
  6
Continuous
 62
     7
100
AcDbCircle
 10
338.6441376314
 20
160.1287732198
 30
0.0
 40
1.506241191848833
100
AcDbArc
 50
5.9717044846
 51
81.9013824871
  0
ARC
  5
270
330
1C7
100
AcDbEntity
  8
$DDT_AUDIT_GENERATED_(B3)
  6
Continuous
 62
     7
100
AcDbCircle
 10
338.7358673327
 20
160.8371798127
 30
0.0
 40
0.8035106853026156
100
AcDbArc
 50
77.5086632963
 51
93.1102706462
  0
ARC
  5
271
330
1C7
100
AcDbEntity
  8
$DDT_AUDIT_GENERATED_(B3)
  6
Continuous
 62
     7
100
AcDbCircle
 10
298.2046733596
 20
-653.6975084784
 30
0.0
 40
816.3865865002437
100
AcDbArc
 50
87.156746393
 51
89.3054147269
  0
ARC
  5
272
330
1C7
100
AcDbEntity
  8
$DDT_AUDIT_GENERATED_(B3)
  6
Continuous
 62
     7
100
AcDbCircle
 10
338.6394326665
 20
113.3510591775
 30
0.0
 40
1.510899496604984
100
AcDbArc
 50
278.2428254683
 51
0.7928822402
  0
ARC
  5
273
330
1C7
100
AcDbEntity
  8
$DDT_AUDIT_GENERATED_(B3)
  6
Continuous
 62
     7
100
AcDbCircle
 10
338.7348892144
 20
112.7931391023
 30
0.0
 40
0.954217901815484
100
AcDbArc
 50
267.4833949327
 51
280.5541167933
  0
ARC
  5
274
330
1C7
100
AcDbEntity
  8
$DDT_AUDIT_GENERATED_(B3)
  6
Continuous
 62
     7
100
AcDbCircle
 10
297.9482926156
 20
938.7091056698
 30
0.0
 40
827.9235926322431
100
AcDbArc
 50
271.9217714117
 51
272.8214179804
  0
ARC
  5
275
330
1C7
100
AcDbEntity
  8
$DDT_AUDIT_GENERATED_(B3)
  6
Continuous
 62
     7
100
AcDbCircle
 10
292.0386422249
 20
113.7507841205
 30
0.0
 40
1.626905044961184
100
AcDbArc
 50
69.2111649782
 51
93.582887313
  0
LINE
  5
276
330
1C7
100
AcDbEntity
  8
$DDT_AUDIT_GENERATED_(B3)
  6
Continuous
 62
     7
100
AcDbLine
 10
288.6501281277
 20
115.3760357117
 30
0.0
 11
291.9369878464
 21
115.3756994308
 31
0.0
  0
SPLINE
  5
277
330
1C7
100
AcDbEntity
  8
$DDT_AUDIT_GENERATED_(B3)
  6
Continuous
 62
     7
100
AcDbSpline
210
0.0
220
0.0
230
1.0
 70
     8
 71
     3
 72
    13
 73
     9
 74
     0
 42
0.0000000131748058
 43
0.0000000001
 40
0.0
 40
0.0
 40
0.0
 40
0.0
 40
0.055509728786343
 40
0.2840416881223349
 40
0.5130758820237614
 40
0.7487615806495546
 40
0.9948245808588416
 40
1.0
 40
1.0
 40
1.0
 40
1.0
 10
288.1551821382058
 20
115.8277369599977
 30
0.0
 10
288.1539201874309
 20
115.8130086477148
 30
0.0
 10
288.148838163448
 20
115.7481261657649
 30
0.0
 10
288.1970920676853
 20
115.6232520324536
 30
0.0
 10
288.3047900017833
 20
115.4893410417739
 30
0.0
 10
288.4600085057733
 20
115.4029580274578
 30
0.0
 10
288.5895041109225
 20
115.3682702606222
 30
0.0
 10
288.6491640052855
 20
115.3770694488426
 30
0.0
 10
288.6505875686968
 20
115.3772801081794
 30
0.0
  0
LINE
  5
278
330
1C7
100
AcDbEntity
  8
$DDT_AUDIT_GENERATED_(E9)
  6
Continuous
 62
     7
100
AcDbLine
 10
325.745739107
 20
111.9441833107
 30
0.0
 11
325.745739107
 21
115.9441833107
 31
0.0
  0
ARC
  5
279
330
1C7
100
AcDbEntity
  8
$DDT_AUDIT_GENERATED_(E9)
  6
Continuous
 62
     7
100
AcDbCircle
 10
309.8913168294
 20
111.9492705998
 30
0.0
 40
15.85442309375321
100
AcDbArc
 50
343.3005011698
 51
359.9816152125
  0
LINE
  5
27A
330
1C7
100
AcDbEntity
  8
$DDT_AUDIT_GENERATED_(E9)
  6
Continuous
 62
     7
100
AcDbLine
 10
294.1501825703
 20
110.6351447832
 30
0.0
 11
294.1501825703
 21
114.6351447832
 31
0.0
  0
LINE
  5
27B
330
1C7
100
AcDbEntity
  8
$DDT_AUDIT_GENERATED_(E9)
  6
Continuous
 62
     7
100
AcDbLine
 10
294.1501825703
 20
114.6351447832
 30
0.0
 11
294.1501825703
 21
117.008565298
 31
0.0
  0
ELLIPSE
  5
27C
330
1C7
100
AcDbEntity
  8
$DDT_AUDIT_GENERATED_(E9)
  6
Continuous
 62
     7
100
AcDbEllipse
 10
324.0234184137
 20
107.35
 30
0.0
 11
-0.9521434640251403
 21
0.3056514745820582
 31
0.0
210
0.0
220
0.0
230
1.0
 40
0.4817305471
 41
3.141592653589875
 42
3.26115492043065
  0
LINE
  5
27D
330
1C7
100
AcDbEntity
  8
$DDT_AUDIT_GENERATED_(E9)
  6
Continuous
 62
     7
100
AcDbLine
 10
325.745739107
 20
117.2102441743
 30
0.0
 11
325.745739107
 21
115.9441833107
 31
0.0
  0
ARC
  5
27E
330
1C7
100
AcDbEntity
  8
$DDT_AUDIT_GENERATED_(E9)
  6
Continuous
 62
     7
100
AcDbCircle
 10
295.1501825703
 20
110.6351447832
 30
0.0
 40
1.000000000000001
100
AcDbArc
 50
180.0
 51
269.0635845995
  0
LINE
  5
27F
330
1C7
100
AcDbEntity
  8
$DDT_AUDIT_GENERATED_(E9)
  6
Continuous
 62
     7
100
AcDbLine
 10
324.9635521672
 20
107.0473388686
 30
0.0
 11
325.0591568835
 21
107.3421912577
 31
0.0
  0
ARC
  5
280
330
1C7
100
AcDbEntity
  8
$DDT_AUDIT_GENERATED_(E9)
  6
Continuous
 62
     7
100
AcDbCircle
 10
292.6723400477
 20
-39.7220817056
 30
0.0
 40
149.3777018907182
100
AcDbArc
 50
77.9667025387
 51
89.0558234966
  0
ARC
  5
281
330
1C7
100
AcDbEntity
  8
$DDT_AUDIT_GENERATED_(E9)
  6
Continuous
 62
     7
100
AcDbCircle
 10
324.0234184137
 20
107.35
 30
0.0
 40
1.000000000000008
100
AcDbArc
 50
257.9281963911
 51
270.0
  0
ARC
  5
282
330
1C7
100
AcDbEntity
  8
$DDT_AUDIT_GENERATED_(E9)
  6
Continuous
 62
     7
100
AcDbCircle
 10
324.0234184137
 20
107.35
 30
0.0
 40
1.000000000000001
100
AcDbArc
 50
270.0
 51
342.2026375378
  0
SPLINE
  5
283
330
1C7
100
AcDbEntity
  8
$DDT_AUDIT_GENERATED_(E9)
  6
Continuous
 62
     7
100
AcDbSpline
210
0.0
220
0.0
230
1.0
 70
     8
 71
     3
 72
    13
 73
     9
 74
     0
 42
0.0000000074447045
 43
0.0000000001
 40
0.0
 40
0.0
 40
0.0
 40
0.0
 40
0.1168355672888612
 40
0.3221502932251171
 40
0.4999708644287638
 40
0.6640543162882159
 40
0.8356390725889766
 40
0.899129230728796
 40
0.899129230728796
 40
0.899129230728796
 40
0.899129230728796
 10
325.7560064892152
 20
116.0113230654542
 30
0.0
 10
325.7539655049155
 20
116.0513583303934
 30
0.0
 10
325.7514091829296
 20
116.1459530598301
 30
0.0
 10
325.8230932939129
 20
116.3130524700261
 30
0.0
 10
325.9693595283394
 20
116.4932486514076
 30
0.0
 10
326.1796768420021
 20
116.6418655606359
 30
0.0
 10
326.3964656542554
 20
116.726144152175
 30
0.0
 10
326.5271090869168
 20
116.747657296452
 30
0.0
 10
326.5634165117901
 20
116.7521824586529
 30
0.0
  0
ENDBLK
  5
285
330
1C7
100
AcDbEntity
  8
0
100
AcDbBlockEnd
  0
ENDSEC
  0
SECTION
  2
ENTITIES
  0
LINE
  5
5E
330
1F
100
AcDbEntity
  8
Default
  6
Continuous
 62
     7
100
AcDbLine
 10
30.350189403
 20
133.4930124096
 30
0.0
 11
30.350189403
 21
117.2430299538
 31
0.0
  0
LINE
  5
5F
330
1F
100
AcDbEntity
  8
Default
  6
Continuous
 62
     7
100
AcDbLine
 10
316.150189403
 20
133.4930124096
 30
0.0
 11
316.150189403
 21
117.243596397
 31
0.0
  0
LINE
  5
60
330
1F
100
AcDbEntity
  8
Default
  6
Continuous
 62
     7
100
AcDbLine
 10
30.350189403
 20
336.2244975792
 30
0.0
 11
30.350189403
 21
348.3396427381
 31
0.0
  0
LINE
  5
61
330
1F
100
AcDbEntity
  8
Default
  6
Continuous
 62
     7
100
AcDbLine
 10
316.150189403
 20
348.3399697742
 30
0.0
 11
316.150189403
 21
336.2225707598
 31
0.0
  0
INSERT
  5
63
330
1F
100
AcDbEntity
  8
Default
100
AcDbBlockReference
  2
SEANNOT_GROUP
 10
0.0
 20
0.0
 30
0.0
  0
INSERT
  5
6E
330
1F
100
AcDbEntity
  8
Default
100
AcDbBlockReference
  2
SEANNOT_GROUP1
 10
0.0
 20
0.0
 30
0.0
  0
INSERT
  5
78
330
1F
100
AcDbEntity
  8
Default
100
AcDbBlockReference
  2
SEANNOT_GROUP2
 10
0.0
 20
0.0
 30
0.0
  0
INSERT
  5
7E
330
1F
100
AcDbEntity
  8
Default
100
AcDbBlockReference
  2
SEANNOT_GROUP3
 10
0.0
 20
0.0
 30
0.0
  0
INSERT
  5
84
330
1F
100
AcDbEntity
  8
Default
100
AcDbBlockReference
  2
SEANNOT_GROUP4
 10
0.0
 20
0.0
 30
0.0
  0
INSERT
  5
8A
330
1F
100
AcDbEntity
  8
Default
100
AcDbBlockReference
  2
SEANNOT_GROUP5
 10
0.0
 20
0.0
 30
0.0
  0
INSERT
  5
90
330
1F
100
AcDbEntity
  8
Default
100
AcDbBlockReference
  2
SEANNOT_GROUP6
 10
0.0
 20
0.0
 30
0.0
  0
INSERT
  5
96
330
1F
100
AcDbEntity
  8
Default
100
AcDbBlockReference
  2
SE
 10
0.0
 20
0.0
 30
0.0
  0
INSERT
  5
157
330
1F
100
AcDbEntity
  8
Default
100
AcDbBlockReference
  2
SE1
 10
0.0
 20
0.0
 30
0.0
  0
INSERT
  5
1C8
330
1F
100
AcDbEntity
  8
Default
100
AcDbBlockReference
  2
SE2
 10
0.0
 20
0.0
 30
0.0
  0
TEXT
  5
287
330
1F
100
AcDbEntity
  8
Default
  6
Continuous
 62
     7
100
AcDbText
 10
5.9362635081
 20
53.4225120485
 30
0.0
 40
10.0
  1
Grohe AG^J
  7
SEACAD_seiso_ttf
 11
5.9362635081
 21
63.4225120485
 31
0.0
100
AcDbText
 73
     3
  0
TEXT
  5
288
330
1F
100
AcDbEntity
  8
Default
  6
Continuous
 62
     7
100
AcDbText
 10
5.9362635081
 20
37.0588756849
 30
0.0
 40
10.0
  1
 
  7
SEACAD_seiso_ttf
 11
5.9362635081
 21
47.0588756849
 31
0.0
100
AcDbText
 73
     3
  0
TEXT
  5
289
330
1F
100
AcDbEntity
  8
Default
  6
Continuous
 62
     7
100
AcDbText
 10
5.9362635081
 20
20.6952393213
 30
0.0
 40
10.0
  1
ecn:
  7
SEACAD_seiso_ttf
 11
5.9362635081
 21
30.6952393213
 31
0.0
100
AcDbText
 73
     3
  0
TEXT
  5
28A
330
1F
100
AcDbEntity
  8
Default
  6
Continuous
 62
     7
100
AcDbText
 10
5.9362635081
 20
4.3316029576
 30
0.0
 40
10.0
  1
unit: mm
  7
SEACAD_seiso_ttf
 11
5.9362635081
 21
14.3316029576
 31
0.0
100
AcDbText
 73
     3
  0
LINE
  5
28B
330
1F
100
AcDbEntity
  8
Default
  6
Continuous
 62
     7
100
AcDbLine
 10
0.0
 20
0.0
 30
0.0
 11
100.0
 21
0.0
 31
0.0
  0
LINE
  5
28C
330
1F
100
AcDbEntity
  8
Default
  6
Continuous
 62
     7
100
AcDbLine
 10
0.0
 20
0.0
 30
0.0
 11
0.0
 21
100.0
 31
0.0
  0
TEXT
  5
28D
330
1F
100
AcDbEntity
  8
Default
  6
Continuous
 62
     7
100
AcDbText
 10
24.3923665681
 20
-18.2375342018
 30
0.0
 40
10.0
  1
100 mm
  7
SEACAD_seiso_ttf
 11
24.3923665681
 21
-8.2375342018
 31
0.0
100
AcDbText
 73
     3
  0
TEXT
  5
28E
330
1F
100
AcDbEntity
  8
Default
  6
Continuous
 62
     7
100
AcDbText
 10
-7.6150308803
 20
24.6231930421
 30
0.0
 40
10.0
  1
100 mm
 50
90.0
  7
SEACAD_seiso_ttf
 11
-17.6150308803
 21
24.6231930421
 31
0.0
100
AcDbText
 73
     3
  0
TEXT
  5
28F
330
1F
100
AcDbEntity
  8
Default
  6
Continuous
 62
     7
100
AcDbText
 10
28.4878128572
 20
20.0907663715
 30
0.0
 40
10.0
  1
216529
  7
SEACAD_seiso_ttf
 11
28.4878128572
 21
30.0907663715
 31
0.0
100
AcDbText
 73
     3
  0
TEXT
  5
290
330
1F
100
AcDbEntity
  8
Default
  6
Continuous
 62
     7
100
AcDbText
 10
5.9012241913
 20
36.7242780188
 30
0.0
 40
10.0
  1
34232000
  7
SEACAD_seiso_ttf
 11
5.9012241913
 21
46.7242780188
 31
0.0
100
AcDbText
 73
     3
  0
ENDSEC
  0
SECTION
  2
OBJECTS
  0
DICTIONARY
  5
C
330
0
100
AcDbDictionary
281
     1
  3
ACAD_GROUP
350
D
  3
ACAD_LAYOUT
350
1A
  3
ACAD_MLEADERSTYLE
350
294
  3
ACAD_MLINESTYLE
350
17
  3
ACAD_PLOTSETTINGS
350
19
  3
ACAD_PLOTSTYLENAME
350
E
  3
ACAD_SCALELIST
350
3B
  3
ACAD_TABLESTYLE
350
293
  3
ACAD_VISUALSTYLE
350
2A
  3
AcDbVariableDictionary
350
291
  0
DICTIONARY
  5
D
102
{ACAD_REACTORS
330
C
102
}
330
C
100
AcDbDictionary
281
     1
  0
DICTIONARY
  5
1A
102
{ACAD_REACTORS
330
C
102
}
330
C
100
AcDbDictionary
281
     1
  3
Layout1
350
1E
  3
Model
350
22
  0
DICTIONARY
  5
294
102
{ACAD_REACTORS
330
C
102
}
330
C
100
AcDbDictionary
281
     1
  0
DICTIONARY
  5
17
102
{ACAD_REACTORS
330
C
102
}
330
C
100
AcDbDictionary
281
     1
  3
Standard
350
18
  0
DICTIONARY
  5
19
102
{ACAD_REACTORS
330
C
102
}
330
C
100
AcDbDictionary
281
     1
  0
ACDBDICTIONARYWDFLT
  5
E
102
{ACAD_REACTORS
330
C
102
}
330
C
100
AcDbDictionary
281
     1
  3
Normal
350
F
100
AcDbDictionaryWithDefault
340
F
  0
DICTIONARY
  5
3B
102
{ACAD_REACTORS
330
C
102
}
330
C
100
AcDbDictionary
281
     1
  3
A0
350
3C
  3
A1
350
3D
  3
A2
350
3E
  3
A3
350
3F
  3
A4
350
40
  3
A5
350
41
  3
A6
350
42
  3
A7
350
43
  3
A8
350
44
  3
A9
350
45
  3
B0
350
46
  3
B1
350
47
  3
B2
350
48
  3
B3
350
49
  3
B4
350
4A
  3
B5
350
4B
  3
B6
350
4C
  3
B7
350
4D
  3
B8
350
4E
  3
B9
350
4F
  3
C0
350
50
  3
C1
350
51
  3
C2
350
52
  3
C3
350
53
  3
C4
350
54
  3
C5
350
55
  3
C6
350
56
  3
C7
350
57
  3
C8
350
58
  3
C9
350
59
  3
D0
350
5A
  3
D1
350
5B
  3
D2
350
5C
  0
DICTIONARY
  5
293
102
{ACAD_REACTORS
330
C
102
}
330
C
100
AcDbDictionary
281
     1
  0
DICTIONARY
  5
2A
102
{ACAD_REACTORS
330
C
102
}
330
C
100
AcDbDictionary
281
     1
  3
2dWireframe
350
2F
  3
3D Hidden
350
31
  3
3dWireframe
350
30
  3
Basic
350
32
  3
Brighten
350
36
  3
ColorChange
350
3A
  3
Conceptual
350
34
  3
Dim
350
35
  3
Facepattern
350
39
  3
Flat
350
2B
  3
FlatWithEdges
350
2C
  3
Gouraud
350
2D
  3
GouraudWithEdges
350
2E
  3
Linepattern
350
38
  3
Realistic
350
33
  3
Thicken
350
37
  0
DICTIONARY
  5
291
102
{ACAD_REACTORS
330
C
102
}
330
C
100
AcDbDictionary
281
     1
  3
CANNOSCALE
350
292
  3
PSOLHEIGHT
350
296
  3
PSOLWIDTH
350
295
  0
LAYOUT
  5
1E
102
{ACAD_REACTORS
330
1A
102
}
330
1A
100
AcDbPlotSettings
  1

  2
none_device
  4

  6

 40
0.0
 41
0.0
 42
0.0
 43
0.0
 44
0.0
 45
0.0
 46
0.0
 47
0.0
 48
0.0
 49
0.0
140
0.0
141
0.0
142
1.0
143
1.0
 70
   688
 72
     0
 73
     0
 74
     5
  7

 75
    16
147
1.0
148
0.0
149
0.0
100
AcDbLayout
  1
Layout1
 70
     1
 71
     1
 10
0.0
 20
0.0
 11
3000.0
 21
4500.0
 12
0.0
 22
0.0
 32
0.0
 14
0.0
 24
0.0
 34
0.0
 15
3000.0
 25
4500.0
 35
0.0
146
0.0
 13
0.0
 23
0.0
 33
0.0
 16
1.0
 26
0.0
 36
0.0
 17
0.0
 27
1.0
 37
0.0
 76
     0
330
1B
  0
LAYOUT
  5
22
102
{ACAD_REACTORS
330
1A
102
}
330
1A
100
AcDbPlotSettings
  1

  2
none_device
  4

  6

 40
0.0
 41
0.0
 42
0.0
 43
0.0
 44
0.0
 45
0.0
 46
0.0
 47
0.0
 48
0.0
 49
0.0
140
0.0
141
0.0
142
1.0
143
1.0
 70
  1712
 72
     0
 73
     0
 74
     0
  7

 75
     0
147
1.0
148
0.0
149
0.0
100
AcDbLayout
  1
Model
 70
     1
 71
     0
 10
0.0
 20
0.0
 11
3000.0
 21
4500.0
 12
0.0
 22
0.0
 32
0.0
 14
0.0
 24
0.0
 34
0.0
 15
3000.0
 25
4500.0
 35
0.0
146
0.0
 13
0.0
 23
0.0
 33
0.0
 16
1.0
 26
0.0
 36
0.0
 17
0.0
 27
1.0
 37
0.0
 76
     0
330
1F
331
29
  0
MLINESTYLE
  5
18
102
{ACAD_REACTORS
330
17
102
}
330
17
100
AcDbMlineStyle
  2
Standard
 70
     0
  3

 62
   256
 51
90.0
 52
90.0
 71
     2
 49
0.5
 62
   256
  6
BYLAYER
 49
-0.5
 62
   256
  6
BYLAYER
  0
ACDBPLACEHOLDER
  5
F
102
{ACAD_REACTORS
330
E
102
}
330
E
  0
SCALE
  5
3C
102
{ACAD_REACTORS
330
3B
102
}
330
3B
100
AcDbScale
 70
     0
300
1:1
140
1.0
141
1.0
290
     1
  0
SCALE
  5
3D
102
{ACAD_REACTORS
330
3B
102
}
330
3B
100
AcDbScale
 70
     0
300
1:2
140
1.0
141
2.0
290
     0
  0
SCALE
  5
3E
102
{ACAD_REACTORS
330
3B
102
}
330
3B
100
AcDbScale
 70
     0
300
1:4
140
1.0
141
4.0
290
     0
  0
SCALE
  5
3F
102
{ACAD_REACTORS
330
3B
102
}
330
3B
100
AcDbScale
 70
     0
300
1:5
140
1.0
141
5.0
290
     0
  0
SCALE
  5
40
102
{ACAD_REACTORS
330
3B
102
}
330
3B
100
AcDbScale
 70
     0
300
1:8
140
1.0
141
8.0
290
     0
  0
SCALE
  5
41
102
{ACAD_REACTORS
330
3B
102
}
330
3B
100
AcDbScale
 70
     0
300
1:10
140
1.0
141
10.0
290
     0
  0
SCALE
  5
42
102
{ACAD_REACTORS
330
3B
102
}
330
3B
100
AcDbScale
 70
     0
300
1:16
140
1.0
141
16.0
290
     0
  0
SCALE
  5
43
102
{ACAD_REACTORS
330
3B
102
}
330
3B
100
AcDbScale
 70
     0
300
1:20
140
1.0
141
20.0
290
     0
  0
SCALE
  5
44
102
{ACAD_REACTORS
330
3B
102
}
330
3B
100
AcDbScale
 70
     0
300
1:30
140
1.0
141
30.0
290
     0
  0
SCALE
  5
45
102
{ACAD_REACTORS
330
3B
102
}
330
3B
100
AcDbScale
 70
     0
300
1:40
140
1.0
141
40.0
290
     0
  0
SCALE
  5
46
102
{ACAD_REACTORS
330
3B
102
}
330
3B
100
AcDbScale
 70
     0
300
1:50
140
1.0
141
50.0
290
     0
  0
SCALE
  5
47
102
{ACAD_REACTORS
330
3B
102
}
330
3B
100
AcDbScale
 70
     0
300
1:100
140
1.0
141
100.0
290
     0
  0
SCALE
  5
48
102
{ACAD_REACTORS
330
3B
102
}
330
3B
100
AcDbScale
 70
     0
300
2:1
140
2.0
141
1.0
290
     0
  0
SCALE
  5
49
102
{ACAD_REACTORS
330
3B
102
}
330
3B
100
AcDbScale
 70
     0
300
4:1
140
4.0
141
1.0
290
     0
  0
SCALE
  5
4A
102
{ACAD_REACTORS
330
3B
102
}
330
3B
100
AcDbScale
 70
     0
300
8:1
140
8.0
141
1.0
290
     0
  0
SCALE
  5
4B
102
{ACAD_REACTORS
330
3B
102
}
330
3B
100
AcDbScale
 70
     0
300
10:1
140
10.0
141
1.0
290
     0
  0
SCALE
  5
4C
102
{ACAD_REACTORS
330
3B
102
}
330
3B
100
AcDbScale
 70
     0
300
100:1
140
100.0
141
1.0
290
     0
  0
SCALE
  5
4D
102
{ACAD_REACTORS
330
3B
102
}
330
3B
100
AcDbScale
 70
     0
300
1/128" = 1'-0"
140
0.0078125
141
12.0
290
     0
  0
SCALE
  5
4E
102
{ACAD_REACTORS
330
3B
102
}
330
3B
100
AcDbScale
 70
     0
300
1/64" = 1'-0"
140
0.015625
141
12.0
290
     0
  0
SCALE
  5
4F
102
{ACAD_REACTORS
330
3B
102
}
330
3B
100
AcDbScale
 70
     0
300
1/32" = 1'-0"
140
0.03125
141
12.0
290
     0
  0
SCALE
  5
50
102
{ACAD_REACTORS
330
3B
102
}
330
3B
100
AcDbScale
 70
     0
300
1/16" = 1'-0"
140
0.0625
141
12.0
290
     0
  0
SCALE
  5
51
102
{ACAD_REACTORS
330
3B
102
}
330
3B
100
AcDbScale
 70
     0
300
3/32" = 1'-0"
140
0.09375
141
12.0
290
     0
  0
SCALE
  5
52
102
{ACAD_REACTORS
330
3B
102
}
330
3B
100
AcDbScale
 70
     0
300
1/8" = 1'-0"
140
0.125
141
12.0
290
     0
  0
SCALE
  5
53
102
{ACAD_REACTORS
330
3B
102
}
330
3B
100
AcDbScale
 70
     0
300
3/16" = 1'-0"
140
0.1875
141
12.0
290
     0
  0
SCALE
  5
54
102
{ACAD_REACTORS
330
3B
102
}
330
3B
100
AcDbScale
 70
     0
300
1/4" = 1'-0"
140
0.25
141
12.0
290
     0
  0
SCALE
  5
55
102
{ACAD_REACTORS
330
3B
102
}
330
3B
100
AcDbScale
 70
     0
300
3/8" = 1'-0"
140
0.375
141
12.0
290
     0
  0
SCALE
  5
56
102
{ACAD_REACTORS
330
3B
102
}
330
3B
100
AcDbScale
 70
     0
300
1/2" = 1'-0"
140
0.5
141
12.0
290
     0
  0
SCALE
  5
57
102
{ACAD_REACTORS
330
3B
102
}
330
3B
100
AcDbScale
 70
     0
300
3/4" = 1'-0"
140
0.75
141
12.0
290
     0
  0
SCALE
  5
58
102
{ACAD_REACTORS
330
3B
102
}
330
3B
100
AcDbScale
 70
     0
300
1" = 1'-0"
140
1.0
141
12.0
290
     0
  0
SCALE
  5
59
102
{ACAD_REACTORS
330
3B
102
}
330
3B
100
AcDbScale
 70
     0
300
1-1/2" = 1'-0"
140
1.5
141
12.0
290
     0
  0
SCALE
  5
5A
102
{ACAD_REACTORS
330
3B
102
}
330
3B
100
AcDbScale
 70
     0
300
3" = 1'-0"
140
3.0
141
12.0
290
     0
  0
SCALE
  5
5B
102
{ACAD_REACTORS
330
3B
102
}
330
3B
100
AcDbScale
 70
     0
300
6" = 1'-0"
140
6.0
141
12.0
290
     0
  0
SCALE
  5
5C
102
{ACAD_REACTORS
330
3B
102
}
330
3B
100
AcDbScale
 70
     0
300
1'-0" = 1'-0"
140
12.0
141
12.0
290
     0
  0
VISUALSTYLE
  5
2F
102
{ACAD_REACTORS
330
2A
102
}
330
2A
100
AcDbVisualStyle
  2
2dWireframe
 70
     4
 71
     0
 72
     2
 73
     0
 90
        0
 40
-0.6
 41
-30.0
 62
     5
 63
     7
 74
     1
 91
        4
 64
     7
 65
   257
 75
     1
175
     1
 42
1.0
 92
        0
 66
   257
 43
1.0
 76
     1
 77
     6
 78
     2
 67
     7
 79
     5
170
     0
171
     0
290
     0
174
     0
 93
        1
 44
0.0
173
     0
291
     0
 45
0.0
1001
ACAD
1000
AcDbSavedByObjectVersion
1070
     0
  0
VISUALSTYLE
  5
31
102
{ACAD_REACTORS
330
2A
102
}
330
2A
100
AcDbVisualStyle
  2
3D Hidden
 70
     6
 71
     1
 72
     2
 73
     2
 90
        0
 40
-0.6
 41
-30.0
 62
     5
 63
     7
 74
     2
 91
        2
 64
     7
 65
   257
 75
     2
175
     1
 42
40.0
 92
        0
 66
   257
 43
1.0
 76
     1
 77
     6
 78
     2
 67
     7
 79
     3
170
     0
171
     0
290
     0
174
     0
 93
        1
 44
0.0
173
     0
291
     0
 45
0.0
1001
ACAD
1000
AcDbSavedByObjectVersion
1070
     0
  0
VISUALSTYLE
  5
30
102
{ACAD_REACTORS
330
2A
102
}
330
2A
100
AcDbVisualStyle
  2
3dWireframe
 70
     5
 71
     0
 72
     2
 73
     0
 90
        0
 40
-0.6
 41
-30.0
 62
     5
 63
     7
 74
     1
 91
        4
 64
     7
 65
   257
 75
     1
175
     1
 42
1.0
 92
        0
 66
   257
 43
1.0
 76
     1
 77
     6
 78
     2
 67
     7
 79
     5
170
     0
171
     0
290
     0
174
     0
 93
        1
 44
0.0
173
     0
291
     0
 45
0.0
1001
ACAD
1000
AcDbSavedByObjectVersion
1070
     0
  0
VISUALSTYLE
  5
32
102
{ACAD_REACTORS
330
2A
102
}
330
2A
100
AcDbVisualStyle
  2
Basic
 70
     7
 71
     1
 72
     0
 73
     1
 90
        0
 40
-0.6
 41
-30.0
 62
     5
 63
     7
 74
     0
 91
        4
 64
     7
 65
   257
 75
     1
175
     1
 42
1.0
 92
        8
 66
     7
 43
1.0
 76
     1
 77
     6
 78
     2
 67
     7
 79
     5
170
     0
171
     0
290
     0
174
     0
 93
        1
 44
0.0
173
     0
291
     1
 45
0.0
1001
ACAD
1000
AcDbSavedByObjectVersion
1070
     0
  0
VISUALSTYLE
  5
36
102
{ACAD_REACTORS
330
2A
102
}
330
2A
100
AcDbVisualStyle
  2
Brighten
 70
    12
 71
     2
 72
     2
 73
     0
 90
        0
 40
-0.6
 41
-30.0
 62
     5
 63
     7
 74
     1
 91
        4
 64
     7
 65
   257
 75
     1
175
     1
 42
1.0
 92
        8
 66
     7
 43
1.0
 76
     1
 77
     6
 78
     2
 67
     7
 79
     5
170
     0
171
     0
290
     0
174
     0
 93
        1
 44
50.0
173
     0
291
     1
 45
0.0
1001
ACAD
1000
AcDbSavedByObjectVersion
1070
     0
  0
VISUALSTYLE
  5
3A
102
{ACAD_REACTORS
330
2A
102
}
330
2A
100
AcDbVisualStyle
  2
ColorChange
 70
    16
 71
     2
 72
     2
 73
     3
 90
        0
 40
-0.6
 41
-30.0
 62
     5
 63
     8
 74
     1
 91
        4
 64
     7
 65
   257
 75
     1
175
     1
 42
1.0
 92
        8
 66
     8
 43
1.0
 76
     1
 77
     6
 78
     2
 67
     7
 79
     5
170
     0
171
     0
290
     0
174
     0
 93
        1
 44
0.0
173
     0
291
     1
 45
0.0
1001
ACAD
1000
AcDbSavedByObjectVersion
1070
     0
  0
VISUALSTYLE
  5
34
102
{ACAD_REACTORS
330
2A
102
}
330
2A
100
AcDbVisualStyle
  2
Conceptual
 70
     9
 71
     3
 72
     2
 73
     0
 90
        0
 40
-0.6
 41
-30.0
 62
     5
 63
     7
 74
     2
 91
        2
 64
     7
 65
   257
 75
     1
175
     1
 42
40.0
 92
        8
 66
     7
 43
1.0
 76
     1
 77
     6
 78
     2
 67
     7
 79
     3
170
     0
171
     0
290
     0
174
     0
 93
        1
 44
0.0
173
     0
291
     0
 45
0.0
1001
ACAD
1000
AcDbSavedByObjectVersion
1070
     0
  0
VISUALSTYLE
  5
35
102
{ACAD_REACTORS
330
2A
102
}
330
2A
100
AcDbVisualStyle
  2
Dim
 70
    11
 71
     2
 72
     2
 73
     0
 90
        0
 40
-0.6
 41
-30.0
 62
     5
 63
     7
 74
     1
 91
        4
 64
     7
 65
   257
 75
     1
175
     1
 42
1.0
 92
        8
 66
     7
 43
1.0
 76
     1
 77
     6
 78
     2
 67
     7
 79
     5
170
     0
171
     0
290
     0
174
     0
 93
        1
 44
-50.0
173
     0
291
     1
 45
0.0
1001
ACAD
1000
AcDbSavedByObjectVersion
1070
     0
  0
VISUALSTYLE
  5
39
102
{ACAD_REACTORS
330
2A
102
}
330
2A
100
AcDbVisualStyle
  2
Facepattern
 70
    15
 71
     2
 72
     2
 73
     0
 90
        0
 40
-0.6
 41
-30.0
 62
     5
 63
     7
 74
     1
 91
        4
 64
     7
 65
   257
 75
     1
175
     1
 42
1.0
 92
        8
 66
     7
 43
1.0
 76
     1
 77
     6
 78
     2
 67
     7
 79
     5
170
     0
171
     0
290
     0
174
     0
 93
        1
 44
0.0
173
     0
291
     1
 45
0.0
1001
ACAD
1000
AcDbSavedByObjectVersion
1070
     0
  0
VISUALSTYLE
  5
2B
102
{ACAD_REACTORS
330
2A
102
}
330
2A
100
AcDbVisualStyle
  2
Flat
 70
     0
 71
     2
 72
     1
 73
     1
 90
        2
 40
-0.6
 41
30.0
 62
     5
 63
     7
 74
     0
 91
        4
 64
     7
 65
   257
 75
     1
175
     1
 42
1.0
 92
        8
 66
     7
 43
1.0
 76
     1
 77
     6
 78
     2
 67
     7
 79
     5
170
     0
171
     0
290
     0
174
     0
 93
       13
 44
0.0
173
     0
291
     1
 45
0.0
1001
ACAD
1000
AcDbSavedByObjectVersion
1070
     0
  0
VISUALSTYLE
  5
2C
102
{ACAD_REACTORS
330
2A
102
}
330
2A
100
AcDbVisualStyle
  2
FlatWithEdges
 70
     1
 71
     2
 72
     1
 73
     1
 90
        2
 40
-0.6
 41
30.0
 62
     5
 63
     7
 74
     1
 91
        4
 64
     7
 65
   257
 75
     1
175
     1
 42
1.0
 92
        0
 66
   257
 43
1.0
 76
     1
 77
     6
 78
     2
 67
     7
 79
     5
170
     0
171
     0
290
     0
174
     0
 93
       13
 44
0.0
173
     0
291
     1
 45
0.0
1001
ACAD
1000
AcDbSavedByObjectVersion
1070
     0
  0
VISUALSTYLE
  5
2D
102
{ACAD_REACTORS
330
2A
102
}
330
2A
100
AcDbVisualStyle
  2
Gouraud
 70
     2
 71
     2
 72
     2
 73
     1
 90
        2
 40
-0.6
 41
30.0
 62
     5
 63
     7
 74
     0
 91
        4
 64
     7
 65
   257
 75
     1
175
     1
 42
1.0
 92
        0
 66
     7
 43
1.0
 76
     1
 77
     6
 78
     2
 67
     7
 79
     5
170
     0
171
     0
290
     0
174
     0
 93
       13
 44
0.0
173
     0
291
     1
 45
0.0
1001
ACAD
1000
AcDbSavedByObjectVersion
1070
     0
  0
VISUALSTYLE
  5
2E
102
{ACAD_REACTORS
330
2A
102
}
330
2A
100
AcDbVisualStyle
  2
GouraudWithEdges
 70
     3
 71
     2
 72
     2
 73
     1
 90
        2
 40
-0.6
 41
30.0
 62
     5
 63
     7
 74
     1
 91
        4
 64
     7
 65
   257
 75
     1
175
     1
 42
1.0
 92
        0
 66
   257
 43
1.0
 76
     1
 77
     6
 78
     2
 67
     7
 79
     5
170
     0
171
     0
290
     0
174
     0
 93
       13
 44
0.0
173
     0
291
     1
 45
0.0
1001
ACAD
1000
AcDbSavedByObjectVersion
1070
     0
  0
VISUALSTYLE
  5
38
102
{ACAD_REACTORS
330
2A
102
}
330
2A
100
AcDbVisualStyle
  2
Linepattern
 70
    14
 71
     2
 72
     2
 73
     0
 90
        0
 40
-0.6
 41
-30.0
 62
     5
 63
     7
 74
     1
 91
        4
 64
     7
 65
   257
 75
     7
175
     7
 42
1.0
 92
        8
 66
     7
 43
1.0
 76
     1
 77
     6
 78
     2
 67
     7
 79
     5
170
     0
171
     0
290
     0
174
     0
 93
        1
 44
0.0
173
     0
291
     1
 45
0.0
1001
ACAD
1000
AcDbSavedByObjectVersion
1070
     0
  0
VISUALSTYLE
  5
33
102
{ACAD_REACTORS
330
2A
102
}
330
2A
100
AcDbVisualStyle
  2
Realistic
 70
     8
 71
     2
 72
     2
 73
     0
 90
        0
 40
-0.6
 41
-30.0
 62
     5
 63
     7
 74
     1
 91
        0
 64
     7
 65
   257
 75
     1
175
     1
 42
1.0
 92
        8
 66
     8
 43
1.0
 76
     1
 77
     6
 78
     2
 67
     7
 79
     5
170
     0
171
     0
290
     0
174
     0
 93
       13
 44
0.0
173
     0
291
     0
 45
0.0
1001
ACAD
1000
AcDbSavedByObjectVersion
1070
     0
  0
VISUALSTYLE
  5
37
102
{ACAD_REACTORS
330
2A
102
}
330
2A
100
AcDbVisualStyle
  2
Thicken
 70
    13
 71
     2
 72
     2
 73
     0
 90
        0
 40
-0.6
 41
-30.0
 62
     5
 63
     7
 74
     1
 91
        4
 64
     7
 65
   257
 75
     1
175
     1
 42
1.0
 92
       12
 66
     7
 43
1.0
 76
     1
 77
     6
 78
     2
 67
     7
 79
     5
170
     0
171
     0
290
     0
174
     0
 93
        1
 44
0.0
173
     0
291
     1
 45
0.0
1001
ACAD
1000
AcDbSavedByObjectVersion
1070
     0
  0
DICTIONARYVAR
  5
292
102
{ACAD_REACTORS
330
291
102
}
330
291
100
DictionaryVariables
280
     0
  1
1:1
  0
DICTIONARYVAR
  5
296
102
{ACAD_REACTORS
330
291
102
}
330
291
100
DictionaryVariables
280
     0
  1
80.000000
  0
DICTIONARYVAR
  5
295
102
{ACAD_REACTORS
330
291
102
}
330
291
100
DictionaryVariables
280
     0
  1
5.000000
  0
ENDSEC
  0
EOF
