  0
SECTION
  2
HEADER
  9
$ACADVER
  1
AC1015
  9
$ACADMAINTVER
 70
     6
  9
$DWGCODEPAGE
  3
ANSI_1252
  9
$INSBASE
 10
0.0
 20
0.0
 30
0.0
  9
$EXTMIN
 10
0.0
 20
0.0
 30
0.0
  9
$EXTMAX
 10
3000.0
 20
4500.0
 30
0.0
  9
$LIMMIN
 10
0.0
 20
0.0
  9
$LIMMAX
 10
3000.0
 20
4500.0
  9
$ORTHOMODE
 70
     0
  9
$REGENMODE
 70
     1
  9
$FILLMODE
 70
     1
  9
$QTEXTMODE
 70
     0
  9
$MIRRTEXT
 70
     1
  9
$LTSCALE
 40
1.0
  9
$ATTMODE
 70
     1
  9
$TEXTSIZE
 40
2.5
  9
$TRACEWID
 40
1.0
  9
$TEXTSTYLE
  7
Standard
  9
$CLAYER
  8
0
  9
$CELTYPE
  6
ByLayer
  9
$CECOLOR
 62
   256
  9
$CELTSCALE
 40
1.0
  9
$DISPSILH
 70
     0
  9
$DIMSCALE
 40
1.0
  9
$DIMASZ
 40
2.5
  9
$DIMEXO
 40
0.625
  9
$DIMDLI
 40
3.75
  9
$DIMRND
 40
0.0
  9
$DIMDLE
 40
0.0
  9
$DIMEXE
 40
1.25
  9
$DIMTP
 40
0.0
  9
$DIMTM
 40
0.0
  9
$DIMTXT
 40
2.5
  9
$DIMCEN
 40
2.5
  9
$DIMTSZ
 40
0.0
  9
$DIMTOL
 70
     0
  9
$DIMLIM
 70
     0
  9
$DIMTIH
 70
     0
  9
$DIMTOH
 70
     0
  9
$DIMSE1
 70
     0
  9
$DIMSE2
 70
     0
  9
$DIMTAD
 70
     1
  9
$DIMZIN
 70
     8
  9
$DIMBLK
  1

  9
$DIMASO
 70
     1
  9
$DIMSHO
 70
     1
  9
$DIMPOST
  1

  9
$DIMAPOST
  1

  9
$DIMALT
 70
     0
  9
$DIMALTD
 70
     3
  9
$DIMALTF
 40
0.0393700787
  9
$DIMLFAC
 40
1.0
  9
$DIMTOFL
 70
     1
  9
$DIMTVP
 40
0.0
  9
$DIMTIX
 70
     0
  9
$DIMSOXD
 70
     0
  9
$DIMSAH
 70
     0
  9
$DIMBLK1
  1

  9
$DIMBLK2
  1

  9
$DIMSTYLE
  2
ISO-25
  9
$DIMCLRD
 70
     0
  9
$DIMCLRE
 70
     0
  9
$DIMCLRT
 70
     0
  9
$DIMTFAC
 40
1.0
  9
$DIMGAP
 40
0.625
  9
$DIMJUST
 70
     0
  9
$DIMSD1
 70
     0
  9
$DIMSD2
 70
     0
  9
$DIMTOLJ
 70
     0
  9
$DIMTZIN
 70
     8
  9
$DIMALTZ
 70
     0
  9
$DIMALTTZ
 70
     0
  9
$DIMUPT
 70
     0
  9
$DIMDEC
 70
     2
  9
$DIMTDEC
 70
     2
  9
$DIMALTU
 70
     2
  9
$DIMALTTD
 70
     3
  9
$DIMTXSTY
  7
Standard
  9
$DIMAUNIT
 70
     0
  9
$DIMADEC
 70
     0
  9
$DIMALTRND
 40
0.0
  9
$DIMAZIN
 70
     0
  9
$DIMDSEP
 70
    44
  9
$DIMATFIT
 70
     3
  9
$DIMFRAC
 70
     0
  9
$DIMLDRBLK
  1

  9
$DIMLUNIT
 70
     2
  9
$DIMLWD
 70
    -2
  9
$DIMLWE
 70
    -2
  9
$DIMTMOVE
 70
     0
  9
$LUNITS
 70
     2
  9
$LUPREC
 70
     4
  9
$SKETCHINC
 40
1.0
  9
$FILLETRAD
 40
10.0
  9
$AUNITS
 70
     0
  9
$AUPREC
 70
     0
  9
$MENU
  1
.
  9
$ELEVATION
 40
0.0
  9
$PELEVATION
 40
0.0
  9
$THICKNESS
 40
0.0
  9
$LIMCHECK
 70
     0
  9
$CHAMFERA
 40
10.0
  9
$CHAMFERB
 40
10.0
  9
$CHAMFERC
 40
20.0
  9
$CHAMFERD
 40
0.0
  9
$SKPOLY
 70
     0
  9
$TDCREATE
 40
2455796.508862905
  9
$TDUCREATE
 40
2455796.425529572
  9
$TDUPDATE
 40
2455796.508862917
  9
$TDUUPDATE
 40
2455796.425529583
  9
$TDINDWG
 40
0.0000000116
  9
$TDUSRTIMER
 40
0.0000000116
  9
$USRTIMER
 70
     1
  9
$ANGBASE
 50
0.0
  9
$ANGDIR
 70
     0
  9
$PDMODE
 70
     0
  9
$PDSIZE
 40
0.0
  9
$PLINEWID
 40
0.0
  9
$SPLFRAME
 70
     0
  9
$SPLINETYPE
 70
     6
  9
$SPLINESEGS
 70
     8
  9
$HANDSEED
  5
232
  9
$SURFTAB1
 70
     6
  9
$SURFTAB2
 70
     6
  9
$SURFTYPE
 70
     6
  9
$SURFU
 70
     6
  9
$SURFV
 70
     6
  9
$UCSBASE
  2

  9
$UCSNAME
  2

  9
$UCSORG
 10
0.0
 20
0.0
 30
0.0
  9
$UCSXDIR
 10
1.0
 20
0.0
 30
0.0
  9
$UCSYDIR
 10
0.0
 20
1.0
 30
0.0
  9
$UCSORTHOREF
  2

  9
$UCSORTHOVIEW
 70
     0
  9
$UCSORGTOP
 10
0.0
 20
0.0
 30
0.0
  9
$UCSORGBOTTOM
 10
0.0
 20
0.0
 30
0.0
  9
$UCSORGLEFT
 10
0.0
 20
0.0
 30
0.0
  9
$UCSORGRIGHT
 10
0.0
 20
0.0
 30
0.0
  9
$UCSORGFRONT
 10
0.0
 20
0.0
 30
0.0
  9
$UCSORGBACK
 10
0.0
 20
0.0
 30
0.0
  9
$PUCSBASE
  2

  9
$PUCSNAME
  2

  9
$PUCSORG
 10
0.0
 20
0.0
 30
0.0
  9
$PUCSXDIR
 10
1.0
 20
0.0
 30
0.0
  9
$PUCSYDIR
 10
0.0
 20
1.0
 30
0.0
  9
$PUCSORTHOREF
  2

  9
$PUCSORTHOVIEW
 70
     0
  9
$PUCSORGTOP
 10
0.0
 20
0.0
 30
0.0
  9
$PUCSORGBOTTOM
 10
0.0
 20
0.0
 30
0.0
  9
$PUCSORGLEFT
 10
0.0
 20
0.0
 30
0.0
  9
$PUCSORGRIGHT
 10
0.0
 20
0.0
 30
0.0
  9
$PUCSORGFRONT
 10
0.0
 20
0.0
 30
0.0
  9
$PUCSORGBACK
 10
0.0
 20
0.0
 30
0.0
  9
$USERI1
 70
     0
  9
$USERI2
 70
     0
  9
$USERI3
 70
     0
  9
$USERI4
 70
     0
  9
$USERI5
 70
     0
  9
$USERR1
 40
0.0
  9
$USERR2
 40
0.0
  9
$USERR3
 40
0.0
  9
$USERR4
 40
0.0
  9
$USERR5
 40
0.0
  9
$WORLDVIEW
 70
     1
  9
$SHADEDGE
 70
     3
  9
$SHADEDIF
 70
    70
  9
$TILEMODE
 70
     1
  9
$MAXACTVP
 70
    64
  9
$PINSBASE
 10
0.0
 20
0.0
 30
0.0
  9
$PLIMCHECK
 70
     0
  9
$PEXTMIN
 10
0.0
 20
0.0
 30
0.0
  9
$PEXTMAX
 10
3000.0
 20
4500.0
 30
0.0
  9
$PLIMMIN
 10
0.0
 20
0.0
  9
$PLIMMAX
 10
3000.0
 20
4500.0
  9
$UNITMODE
 70
     0
  9
$VISRETAIN
 70
     1
  9
$PLINEGEN
 70
     0
  9
$PSLTSCALE
 70
     1
  9
$TREEDEPTH
 70
  3020
  9
$CMLSTYLE
  2
Standard
  9
$CMLJUST
 70
     0
  9
$CMLSCALE
 40
20.0
  9
$PROXYGRAPHICS
 70
     1
  9
$MEASUREMENT
 70
     1
  9
$CELWEIGHT
370
    -1
  9
$ENDCAPS
280
     0
  9
$JOINSTYLE
280
     0
  9
$LWDISPLAY
290
     0
  9
$INSUNITS
 70
     4
  9
$HYPERLINKBASE
  1

  9
$STYLESHEET
  1

  9
$XEDIT
290
     1
  9
$CEPSNTYPE
380
     0
  9
$PSTYLEMODE
290
     1
  9
$FINGERPRINTGUID
  2
{08BA1E66-AF34-46B7-9170-6A5A0B74B5BA}
  9
$VERSIONGUID
  2
{FAEB1C32-E019-11D5-929B-00C0DF256EC4}
  9
$EXTNAMES
290
     1
  9
$PSVPSCALE
 40
0.0
  9
$OLESTARTUP
290
     0
  0
ENDSEC
  0
SECTION
  2
CLASSES
  0
CLASS
  1
ACDBDICTIONARYWDFLT
  2
AcDbDictionaryWithDefault
  3
ObjectDBX Classes
 90
        0
280
     0
281
     0
  0
CLASS
  1
VISUALSTYLE
  2
AcDbVisualStyle
  3
ObjectDBX Classes
 90
     4095
280
     0
281
     0
  0
CLASS
  1
SCALE
  2
AcDbScale
  3
ObjectDBX Classes
 90
     1153
280
     0
281
     0
  0
CLASS
  1
DICTIONARYVAR
  2
AcDbDictionaryVar
  3
ObjectDBX Classes
 90
        0
280
     0
281
     0
  0
CLASS
  1
ACDBPLACEHOLDER
  2
AcDbPlaceHolder
  3
ObjectDBX Classes
 90
        0
280
     0
281
     0
  0
CLASS
  1
LAYOUT
  2
AcDbLayout
  3
ObjectDBX Classes
 90
        0
280
     0
281
     0
  0
ENDSEC
  0
SECTION
  2
TABLES
  0
TABLE
  2
VPORT
  5
8
330
0
100
AcDbSymbolTable
 70
     1
  0
VPORT
  5
29
330
8
100
AcDbSymbolTableRecord
100
AcDbViewportTableRecord
  2
*Active
 70
     0
 10
0.0
 20
0.0
 11
1.0
 21
1.0
 12
344.1869158879
 22
148.5
 13
0.0
 23
0.0
 14
10.0
 24
10.0
 15
10.0
 25
10.0
 16
0.0
 26
0.0
 36
1.0
 17
0.0
 27
0.0
 37
0.0
 40
297.0
 41
1.9729729729
 42
50.0
 43
0.0
 44
0.0
 50
0.0
 51
0.0
 71
     0
 72
   100
 73
     1
 74
     3
 75
     0
 76
     0
 77
     0
 78
     0
281
     0
 65
     1
110
0.0
120
0.0
130
0.0
111
1.0
121
0.0
131
0.0
112
0.0
122
1.0
132
0.0
 79
     0
146
0.0
  0
ENDTAB
  0
TABLE
  2
LTYPE
  5
5
330
0
100
AcDbSymbolTable
 70
     2
  0
LTYPE
  5
14
330
5
100
AcDbSymbolTableRecord
100
AcDbLinetypeTableRecord
  2
ByBlock
 70
     0
  3

 72
    65
 73
     0
 40
0.0
  0
LTYPE
  5
15
330
5
100
AcDbSymbolTableRecord
100
AcDbLinetypeTableRecord
  2
ByLayer
 70
     0
  3

 72
    65
 73
     0
 40
0.0
  0
LTYPE
  5
16
330
5
100
AcDbSymbolTableRecord
100
AcDbLinetypeTableRecord
  2
Continuous
 70
     0
  3
Solid line
 72
    65
 73
     0
 40
0.0
  0
LTYPE
  5
60
330
5
100
AcDbSymbolTableRecord
100
AcDbLinetypeTableRecord
  2
CENTER2
 70
     0
  3
Center (.5x) ___ _ ___ _ ___ _ ___ _ ___ _ ___
 72
    65
 73
     4
 40
28.575
 49
19.05
 74
     4
 75
     0
340
0
 46
0.0
 50
0.0
 44
0.0
 45
0.0
 49
-3.175
 74
     4
 75
     0
340
0
 46
0.0
 50
0.0
 44
0.0
 45
0.0
 49
3.175
 74
     4
 75
     0
340
0
 46
0.0
 50
0.0
 44
0.0
 45
0.0
 49
-3.175
 74
     4
 75
     0
340
0
 46
0.0
 50
0.0
 44
0.0
 45
0.0
  0
ENDTAB
  0
TABLE
  2
LAYER
  5
2
330
0
100
AcDbSymbolTable
 70
    11
  0
LAYER
  5
10
330
2
100
AcDbSymbolTableRecord
100
AcDbLayerTableRecord
  2
0
 70
     0
 62
     7
  6
Continuous
370
    -3
390
F
  0
LAYER
  5
5D
330
2
100
AcDbSymbolTableRecord
100
AcDbLayerTableRecord
  2
Default
 70
     0
 62
     7
  6
Continuous
370
    -3
390
F
  0
LAYER
  5
77
330
2
100
AcDbSymbolTableRecord
100
AcDbLayerTableRecord
  2
$DDT_AUDIT_GENERATED_(77)
 70
     0
 62
     7
  6
Continuous
370
    -3
390
F
  0
LAYER
  5
7D
330
2
100
AcDbSymbolTableRecord
100
AcDbLayerTableRecord
  2
$DDT_AUDIT_GENERATED_(7D)
 70
     0
 62
     7
  6
Continuous
370
    -3
390
F
  0
LAYER
  5
96
330
2
100
AcDbSymbolTableRecord
100
AcDbLayerTableRecord
  2
$DDT_AUDIT_GENERATED_(96)
 70
     0
 62
     7
  6
Continuous
370
    -3
390
F
  0
LAYER
  5
A0
330
2
100
AcDbSymbolTableRecord
100
AcDbLayerTableRecord
  2
$DDT_AUDIT_GENERATED_(A0)
 70
     0
 62
     7
  6
Continuous
370
    -3
390
F
  0
LAYER
  5
A7
330
2
100
AcDbSymbolTableRecord
100
AcDbLayerTableRecord
  2
$DDT_AUDIT_GENERATED_(A7)
 70
     0
 62
     7
  6
Continuous
370
    -3
390
F
  0
LAYER
  5
C8
330
2
100
AcDbSymbolTableRecord
100
AcDbLayerTableRecord
  2
$DDT_AUDIT_GENERATED_(C8)
 70
     0
 62
     7
  6
Continuous
370
    -3
390
F
  0
LAYER
  5
D9
330
2
100
AcDbSymbolTableRecord
100
AcDbLayerTableRecord
  2
$DDT_AUDIT_GENERATED_(D9)
 70
     0
 62
     7
  6
Continuous
370
    -3
390
F
  0
LAYER
  5
E6
330
2
100
AcDbSymbolTableRecord
100
AcDbLayerTableRecord
  2
$DDT_AUDIT_GENERATED_(E6)
 70
     0
 62
     7
  6
Continuous
370
    -3
390
F
  0
LAYER
  5
1E0
330
2
100
AcDbSymbolTableRecord
100
AcDbLayerTableRecord
  2
$DDT_AUDIT_GENERATED_(1E0)
 70
     0
 62
     7
  6
Continuous
370
    -3
390
F
  0
ENDTAB
  0
TABLE
  2
STYLE
  5
3
330
0
100
AcDbSymbolTable
 70
     2
  0
STYLE
  5
11
330
3
100
AcDbSymbolTableRecord
100
AcDbTextStyleTableRecord
  2
Standard
 70
     0
 40
0.0
 41
1.0
 50
0.0
 71
     0
 42
2.5
  3
txt
  4

  0
STYLE
  5
221
330
3
100
AcDbSymbolTableRecord
100
AcDbTextStyleTableRecord
  2
SEACAD_seiso_ttf
 70
     0
 40
0.0
 41
1.0
 50
0.0
 71
     0
 42
0.2
  3
seiso.ttf
  4

  0
ENDTAB
  0
TABLE
  2
VIEW
  5
6
330
0
100
AcDbSymbolTable
 70
     0
  0
ENDTAB
  0
TABLE
  2
UCS
  5
7
330
0
100
AcDbSymbolTable
 70
     0
  0
ENDTAB
  0
TABLE
  2
APPID
  5
9
330
0
100
AcDbSymbolTable
 70
     1
  0
APPID
  5
12
330
9
100
AcDbSymbolTableRecord
100
AcDbRegAppTableRecord
  2
ACAD
 70
     0
  0
ENDTAB
  0
TABLE
  2
DIMSTYLE
  5
A
330
0
100
AcDbSymbolTable
 70
     1
100
AcDbDimStyleTable
  0
DIMSTYLE
105
27
330
A
100
AcDbSymbolTableRecord
100
AcDbDimStyleTableRecord
  2
ISO-25
 70
     0
 41
2.5
 42
0.625
 43
3.75
 44
1.25
 73
     0
 74
     0
 77
     1
 78
     8
140
2.5
141
2.5
143
0.0393700787
147
0.625
171
     3
172
     1
271
     2
272
     2
274
     3
278
    44
283
     0
284
     8
340
11
  0
ENDTAB
  0
TABLE
  2
BLOCK_RECORD
  5
1
330
0
100
AcDbSymbolTable
 70
     7
  0
BLOCK_RECORD
  5
1F
330
1
100
AcDbSymbolTableRecord
100
AcDbBlockTableRecord
  2
*Model_Space
340
22
  0
BLOCK_RECORD
  5
1B
330
1
100
AcDbSymbolTableRecord
100
AcDbBlockTableRecord
  2
*Paper_Space
340
1E
  0
BLOCK_RECORD
  5
5E
330
1
100
AcDbSymbolTableRecord
100
AcDbBlockTableRecord
  2
SEANNOT_GROUP
340
0
102
{BLKREFS
331
5F
102
}
  0
BLOCK_RECORD
  5
65
330
1
100
AcDbSymbolTableRecord
100
AcDbBlockTableRecord
  2
SEANNOT_GROUP1
340
0
102
{BLKREFS
331
66
102
}
  0
BLOCK_RECORD
  5
6B
330
1
100
AcDbSymbolTableRecord
100
AcDbBlockTableRecord
  2
SEANNOT_GROUP2
340
0
102
{BLKREFS
331
6C
102
}
  0
BLOCK_RECORD
  5
75
330
1
100
AcDbSymbolTableRecord
100
AcDbBlockTableRecord
  2
SE
340
0
102
{BLKREFS
331
76
102
}
  0
BLOCK_RECORD
  5
194
330
1
100
AcDbSymbolTableRecord
100
AcDbBlockTableRecord
  2
SE1
340
0
102
{BLKREFS
331
195
102
}
  0
BLOCK_RECORD
  5
1F0
330
1
100
AcDbSymbolTableRecord
100
AcDbBlockTableRecord
  2
SE2
340
0
102
{BLKREFS
331
1F1
102
}
  0
ENDTAB
  0
ENDSEC
  0
SECTION
  2
BLOCKS
  0
BLOCK
  5
20
330
1F
100
AcDbEntity
  8
0
100
AcDbBlockBegin
  2
*Model_Space
 70
     0
 10
0.0
 20
0.0
 30
0.0
  3
*Model_Space
  1

  0
ENDBLK
  5
21
330
1F
100
AcDbEntity
  8
0
100
AcDbBlockEnd
  0
BLOCK
  5
1C
330
1B
100
AcDbEntity
 67
     1
  8
0
100
AcDbBlockBegin
  2
*Paper_Space
 70
     0
 10
0.0
 20
0.0
 30
0.0
  3
*Paper_Space
  1

  0
ENDBLK
  5
1D
330
1B
100
AcDbEntity
 67
     1
  8
0
100
AcDbBlockEnd
  0
BLOCK
  5
63
330
5E
100
AcDbEntity
  8
0
100
AcDbBlockBegin
  2
SEANNOT_GROUP
 70
     0
 10
0.0
 20
0.0
 30
0.0
  3
SEANNOT_GROUP
  1

  0
LINE
  5
61
330
5E
100
AcDbEntity
  8
Default
  6
CENTER2
 62
     7
100
AcDbLine
 10
62.946807341
 20
901.9686231165
 30
0.0
 11
22.9468082351
 21
901.9686231165
 31
0.0
  0
LINE
  5
62
330
5E
100
AcDbEntity
  8
Default
  6
CENTER2
 62
     7
100
AcDbLine
 10
42.946807788
 20
921.9686226695
 30
0.0
 11
42.946807788
 21
881.9686235636
 31
0.0
  0
ENDBLK
  5
64
330
5E
100
AcDbEntity
  8
0
100
AcDbBlockEnd
  0
BLOCK
  5
69
330
65
100
AcDbEntity
  8
0
100
AcDbBlockBegin
  2
SEANNOT_GROUP1
 70
     0
 10
0.0
 20
0.0
 30
0.0
  3
SEANNOT_GROUP1
  1

  0
LINE
  5
67
330
65
100
AcDbEntity
  8
Default
  6
CENTER2
 62
     7
100
AcDbLine
 10
187.7038510692
 20
901.9686231165
 30
0.0
 11
147.7038519633
 21
901.9686231165
 31
0.0
  0
LINE
  5
68
330
65
100
AcDbEntity
  8
Default
  6
CENTER2
 62
     7
100
AcDbLine
 10
167.7038515162
 20
921.9686226695
 30
0.0
 11
167.7038515162
 21
881.9686235636
 31
0.0
  0
ENDBLK
  5
6A
330
65
100
AcDbEntity
  8
0
100
AcDbBlockEnd
  0
BLOCK
  5
73
330
6B
100
AcDbEntity
  8
0
100
AcDbBlockBegin
  2
SEANNOT_GROUP2
 70
     0
 10
0.0
 20
0.0
 30
0.0
  3
SEANNOT_GROUP2
  1

  0
LINE
  5
6D
330
6B
100
AcDbEntity
  8
Default
  6
CENTER2
 62
     7
100
AcDbLine
 10
62.946807341
 20
361.2267888951
 30
0.0
 11
22.9468082351
 21
361.2267888951
 31
0.0
  0
LINE
  5
6E
330
6B
100
AcDbEntity
  8
Default
  6
CENTER2
 62
     7
100
AcDbLine
 10
42.946807788
 20
381.226788448
 30
0.0
 11
42.946807788
 21
341.2267893421
 31
0.0
  0
LINE
  5
6F
330
6B
100
AcDbEntity
  8
Default
  6
CENTER2
 62
     7
100
AcDbLine
 10
67.9468072292
 20
361.2267888951
 30
0.0
 11
75.446807788
 21
361.2267888951
 31
0.0
  0
LINE
  5
70
330
6B
100
AcDbEntity
  8
Default
  6
CENTER2
 62
     7
100
AcDbLine
 10
42.946807788
 20
386.2267883363
 30
0.0
 11
42.946807788
 21
393.7267888951
 31
0.0
  0
LINE
  5
71
330
6B
100
AcDbEntity
  8
Default
  6
CENTER2
 62
     7
100
AcDbLine
 10
17.9468083468
 20
361.2267888951
 30
0.0
 11
10.446807788
 21
361.2267888951
 31
0.0
  0
LINE
  5
72
330
6B
100
AcDbEntity
  8
Default
  6
CENTER2
 62
     7
100
AcDbLine
 10
42.946807788
 20
336.2267894539
 30
0.0
 11
42.946807788
 21
328.7267888951
 31
0.0
  0
ENDBLK
  5
74
330
6B
100
AcDbEntity
  8
0
100
AcDbBlockEnd
  0
BLOCK
  5
192
330
75
100
AcDbEntity
  8
0
100
AcDbBlockBegin
  2
SE
 70
     0
 10
0.0
 20
0.0
 30
0.0
  3
SE
  1

  0
LINE
  5
78
330
75
100
AcDbEntity
  8
$DDT_AUDIT_GENERATED_(77)
  6
Continuous
 62
     7
100
AcDbLine
 10
71.946807788
 20
969.9686231165
 30
0.0
 11
58.4602986035
 21
969.9686231165
 31
0.0
  0
LINE
  5
79
330
75
100
AcDbEntity
  8
$DDT_AUDIT_GENERATED_(77)
  6
Continuous
 62
     7
100
AcDbLine
 10
27.435664831
 20
969.9686231165
 30
0.0
 11
13.946807788
 21
969.9686231165
 31
0.0
  0
LINE
  5
7A
330
75
100
AcDbEntity
  8
$DDT_AUDIT_GENERATED_(77)
  6
Continuous
 62
     7
100
AcDbLine
 10
71.946807788
 20
901.9686231165
 30
0.0
 11
13.946807788
 21
901.9686231165
 31
0.0
  0
LINE
  5
7B
330
75
100
AcDbEntity
  8
$DDT_AUDIT_GENERATED_(77)
  6
Continuous
 62
     7
100
AcDbLine
 10
71.946807788
 20
901.9686231165
 30
0.0
 11
71.946807788
 21
969.9686231165
 31
0.0
  0
LINE
  5
7C
330
75
100
AcDbEntity
  8
$DDT_AUDIT_GENERATED_(77)
  6
Continuous
 62
     7
100
AcDbLine
 10
13.946807788
 20
969.9686231165
 30
0.0
 11
13.946807788
 21
901.9686231165
 31
0.0
  0
ARC
  5
7E
330
75
100
AcDbEntity
  8
$DDT_AUDIT_GENERATED_(7D)
  6
Continuous
 62
     7
100
AcDbCircle
 10
29.078008759
 20
1054.8814667489
 30
0.0
 40
1.629301085176685
100
AcDbArc
 50
170.1252323237
 51
179.7716853277
  0
SPLINE
  5
7F
330
75
100
AcDbEntity
  8
$DDT_AUDIT_GENERATED_(7D)
  6
Continuous
 62
     7
100
AcDbSpline
210
0.0
220
0.0
230
1.0
 70
     8
 71
     3
 72
    13
 73
     9
 74
     0
 42
0.0000000005406692
 43
0.0000000001
 40
0.3552665661556743
 40
0.3552665661556743
 40
0.3552665661556743
 40
0.3552665661556743
 40
0.3629922741445504
 40
0.5091723583871299
 40
0.6336587530201696
 40
0.7569830531521616
 40
0.999999129387518
 40
1.0
 40
1.0
 40
1.0
 40
1.0
 10
31.07975502723576
 20
1057.527039679814
 30
0.0
 10
31.11074822595054
 20
1057.53381125069
 30
0.0
 10
31.73388926458614
 20
1057.668210412565
 30
0.0
 10
33.06497097406295
 20
1057.892872765172
 30
0.0
 10
35.35596948803676
 20
1058.147915280552
 30
0.0
 10
38.54500209919912
 20
1058.382100499276
 30
0.0
 10
41.20457838761754
 20
1058.4554367451
 30
0.0
 10
42.94684312721938
 20
1058.455438887222
 30
0.0
 10
42.94684936885304
 20
1058.45543888723
 30
0.0
  0
ELLIPSE
  5
80
330
75
100
AcDbEntity
  8
$DDT_AUDIT_GENERATED_(7D)
  6
Continuous
 62
     7
100
AcDbEllipse
 10
42.9468490933
 20
1043.2029159277
 30
0.0
 11
15.49811222341744
 21
2.783091673785876E-7
 31
0.0
210
0.0
220
0.0
230
1.0
 40
0.139173101
 41
3.141592653589829
 42
3.144589086646569
  0
ARC
  5
81
330
75
100
AcDbEntity
  8
$DDT_AUDIT_GENERATED_(7D)
  6
Continuous
 62
     7
100
AcDbCircle
 10
34.6161919828
 20
943.725985282
 30
0.0
 40
8.195085810060354
100
AcDbArc
 50
151.3475982331
 51
196.9484111647
  0
ELLIPSE
  5
82
330
75
100
AcDbEntity
  8
$DDT_AUDIT_GENERATED_(7D)
  6
Continuous
 62
     7
100
AcDbEllipse
 10
42.9468490933
 20
1043.0048623139
 30
0.0
 11
15.29811222341763
 21
1.387778780781446E-14
 31
0.0
210
0.0
220
0.0
230
1.0
 40
0.139173101
 41
1.570796308779558
 42
2.781545484748463
  0
ELLIPSE
  5
83
330
75
100
AcDbEntity
  8
$DDT_AUDIT_GENERATED_(7D)
  6
Continuous
 62
     7
100
AcDbEllipse
 10
42.9468490933
 20
1043.0048623139
 30
0.0
 11
15.29811222341763
 21
1.387778780781446E-14
 31
0.0
210
0.0
220
0.0
230
1.0
 40
0.139173101
 41
3.667194710983385
 42
3.853949543147445
  0
ELLIPSE
  5
84
330
75
100
AcDbEntity
  8
$DDT_AUDIT_GENERATED_(7D)
  6
Continuous
 62
     7
100
AcDbEllipse
 10
42.9468493689
 20
1043.0048623139
 30
0.0
 11
-14.90000000000001
 21
0.0
 31
0.0
210
0.0
220
0.0
230
1.0
 40
0.139173101
 41
2.555716326256615
 42
6.283185307179586
  0
ELLIPSE
  5
85
330
75
100
AcDbEntity
  8
$DDT_AUDIT_GENERATED_(7D)
  6
Continuous
 62
     7
100
AcDbEllipse
 10
42.9468493689
 20
1043.0048623139
 30
0.0
 11
-14.90000000000001
 21
0.0
 31
0.0
210
0.0
220
0.0
230
1.0
 40
0.139173101
 41
0.0
 42
0.5858763273331933
  0
ARC
  5
86
330
75
100
AcDbEntity
  8
$DDT_AUDIT_GENERATED_(7D)
  6
Continuous
 62
     7
100
AcDbCircle
 10
42.1371973462
 20
948.8651067231
 30
0.0
 40
17.105741854809
100
AcDbArc
 50
206.1096585123
 51
272.7129476784
  0
ARC
  5
87
330
75
100
AcDbEntity
  8
$DDT_AUDIT_GENERATED_(7D)
  6
Continuous
 62
     7
100
AcDbCircle
 10
43.7565013916
 20
948.8651067231
 30
0.0
 40
17.10574185480906
100
AcDbArc
 50
267.2870523216
 51
333.8903414877
  0
ARC
  5
88
330
75
100
AcDbEntity
  8
$DDT_AUDIT_GENERATED_(7D)
  6
Continuous
 62
     7
100
AcDbCircle
 10
56.8156899788
 20
1054.8814667489
 30
0.0
 40
1.629301085176722
100
AcDbArc
 50
0.2283146723
 51
9.8747676763
  0
SPLINE
  5
89
330
75
100
AcDbEntity
  8
$DDT_AUDIT_GENERATED_(7D)
  6
Continuous
 62
     7
100
AcDbSpline
210
0.0
220
0.0
230
1.0
 70
    12
 71
     3
 72
    14
 73
    10
 74
     0
 42
0.0000000005474885
 43
0.0000000001
 40
0.347154112692704
 40
0.347154112692704
 40
0.347154112692704
 40
0.347154112692704
 40
0.4999995529536929
 40
0.4999995529536929
 40
0.7499993294305405
 40
0.7499993294305405
 40
0.9999991059073887
 40
0.9999991059073887
 40
1.0
 40
1.0
 40
1.0
 40
1.0
 10
54.8140881821864
 20
1057.52689783475
 30
0.0
 41
0.9999999999999849
 10
54.19308923036892
 20
1057.662527485961
 30
0.0
 41
0.9999999999999849
 10
53.46033124777849
 20
1057.787506341004
 30
0.0
 41
0.9999999999999849
 10
51.30721662836751
 20
1058.078132065688
 30
0.0
 41
0.9999999999999847
 10
49.74885117112516
 20
1058.219255150207
 30
0.0
 41
0.9999999999999847
 10
46.44056402928837
 20
1058.407735628188
 30
0.0
 41
0.9999999999999847
 10
44.69212591490631
 20
1058.45543650564
 30
0.0
 41
0.9999999999999847
 10
42.94686185230105
 20
1058.455438887215
 30
0.0
 41
0.9999999999999847
 10
42.94685561060693
 20
1058.455438887222
 30
0.0
 41
0.9999999999999847
 10
42.94684936885304
 20
1058.45543888723
 30
0.0
 41
0.9999999999999847
  0
ELLIPSE
  5
8A
330
75
100
AcDbEntity
  8
$DDT_AUDIT_GENERATED_(7D)
  6
Continuous
 62
     7
100
AcDbEllipse
 10
42.9468496445
 20
1043.0048623139
 30
0.0
 11
-15.29811222341763
 21
1.387778780781446E-14
 31
0.0
210
0.0
220
0.0
230
1.0
 40
0.139173101
 41
3.502220503293014
 42
4.712388998400028
  0
ELLIPSE
  5
8B
330
75
100
AcDbEntity
  8
$DDT_AUDIT_GENERATED_(7D)
  6
Continuous
 62
     7
100
AcDbEllipse
 10
42.9468496445
 20
1043.0048623139
 30
0.0
 11
-15.29811222341763
 21
1.387778780781446E-14
 31
0.0
210
0.0
220
0.0
230
1.0
 40
0.139173101
 41
-3.853949543147434
 42
-3.667446935922797
  0
ELLIPSE
  5
8C
330
75
100
AcDbEntity
  8
$DDT_AUDIT_GENERATED_(7D)
  6
Continuous
 62
     7
100
AcDbEllipse
 10
42.9468496445
 20
1043.2029159277
 30
0.0
 11
-15.49811222341745
 21
2.783091673785876E-7
 31
0.0
210
0.0
220
0.0
230
1.0
 40
0.139173101
 41
3.139304643388796
 42
3.141592653589758
  0
ARC
  5
8D
330
75
100
AcDbEntity
  8
$DDT_AUDIT_GENERATED_(7D)
  6
Continuous
 62
     7
100
AcDbCircle
 10
51.2775067551
 20
943.725985282
 30
0.0
 40
8.195085810060434
100
AcDbArc
 50
343.0515888353
 51
28.6524730082
  0
ARC
  5
8E
330
75
100
AcDbEntity
  8
$DDT_AUDIT_GENERATED_(7D)
  6
Continuous
 62
     7
100
AcDbCircle
 10
110443.3857475496
 20
996.7211314211
 30
0.0
 40
110415.952343618
100
AcDbArc
 50
179.9698197248
 51
180.0276485817
  0
LINE
  5
8F
330
75
100
AcDbEntity
  8
$DDT_AUDIT_GENERATED_(7D)
  6
Continuous
 62
     7
100
AcDbLine
 10
27.448720582
 20
1054.9077853326
 30
0.0
 11
27.4487368699
 21
1043.202915237
 31
0.0
  0
SPLINE
  5
90
330
75
100
AcDbEntity
  8
$DDT_AUDIT_GENERATED_(7D)
  6
Continuous
 62
     7
100
AcDbSpline
210
0.0
220
0.0
230
1.0
 70
     8
 71
     3
 72
    31
 73
    27
 74
     0
 42
0.00000000060481
 43
0.0000000001
 40
0.0
 40
0.0
 40
0.0
 40
0.0
 40
0.0697640307461246
 40
0.1413657122662058
 40
0.2091271831173105
 40
0.2731052411808982
 40
0.3332848759379686
 40
0.3896038506447604
 40
0.4420208732539506
 40
0.4905119784540424
 40
0.535038106228074
 40
0.5755394185811629
 40
0.6119685316150152
 40
0.6442891406943329
 40
0.6776102225950621
 40
0.7054128376698471
 40
0.7320300766891092
 40
0.758539672101627
 40
0.7849749305340578
 40
0.8069720125699121
 40
0.8293178726030838
 40
0.8581639779987796
 40
0.885746508483055
 40
0.9185825595077192
 40
0.956706714222689
 40
1.0
 40
1.0
 40
1.0
 40
1.0
 10
42.94687017655133
 20
1058.419878547813
 30
0.0
 10
42.36698891181059
 20
1058.417505492062
 30
0.0
 10
41.37497169916026
 20
1058.412311555209
 30
0.0
 10
39.77822739488968
 20
1058.371161215347
 30
0.0
 10
38.29685036381363
 20
1058.309430601351
 30
0.0
 10
36.93384519824478
 20
1058.229737059837
 30
0.0
 10
35.70680367815338
 20
1058.137037222964
 30
0.0
 10
34.61340660360244
 20
1058.035394073658
 30
0.0
 10
33.65216637840836
 20
1057.928507963753
 30
0.0
 10
32.81782460558016
 20
1057.819609760458
 30
0.0
 10
32.10337794771151
 20
1057.711548039758
 30
0.0
 10
31.4988897256382
 20
1057.606981658068
 30
0.0
 10
30.99383670887526
 20
1057.508048899415
 30
0.0
 10
30.55561468431163
 20
1057.411718949527
 30
0.0
 10
30.18379483067273
 20
1057.319803980475
 30
0.0
 10
29.86229451063285
 20
1057.230735139946
 30
0.0
 10
29.57540157343108
 20
1057.140752427998
 30
0.0
 10
29.30359375800927
 20
1057.04390989207
 30
0.0
 10
29.05823716667896
 20
1056.944068213435
 30
0.0
 10
28.83445390395294
 20
1056.839466423337
 30
0.0
 10
28.61871067129868
 20
1056.725712689451
 30
0.0
 10
28.35416604677968
 20
1056.556738407222
 30
0.0
 10
28.07302245105045
 20
1056.324092407079
 30
0.0
 10
27.80679671660073
 20
1056.02594917179
 30
0.0
 10
27.5705171259462
 20
1055.623568046129
 30
0.0
 10
27.50824590921011
 20
1055.340309895817
 30
0.0
 10
27.47196772412137
 20
1055.160438387737
 30
0.0
  0
SPLINE
  5
91
330
75
100
AcDbEntity
  8
$DDT_AUDIT_GENERATED_(7D)
  6
Continuous
 62
     7
100
AcDbSpline
210
0.0
220
0.0
230
1.0
 70
     8
 71
     3
 72
    17
 73
    13
 74
     0
 42
0.0000000037199408
 43
0.0000000001
 40
0.0
 40
0.0
 40
0.0
 40
0.0
 40
0.0383319996342929
 40
0.1265469284438566
 40
0.217616551140802
 40
0.3193519068329046
 40
0.4329078750340449
 40
0.5512542770884141
 40
0.6681701398202344
 40
0.7834946144098269
 40
0.8977191039590992
 40
1.0
 40
1.0
 40
1.0
 40
1.0
 10
27.45581126864593
 20
1043.192254393001
 30
0.0
 10
27.45441829702101
 20
1043.166257654201
 30
0.0
 10
27.45103023875276
 20
1043.093527282123
 30
0.0
 10
27.50150345295308
 20
1042.962648264492
 30
0.0
 10
27.59581087699607
 20
1042.820571904489
 30
0.0
 10
27.73965921339588
 20
1042.682673468746
 30
0.0
 10
27.9377528493937
 20
1042.546293561305
 30
0.0
 10
28.19396299395392
 20
1042.412088067853
 30
0.0
 10
28.50305374229282
 20
1042.282743863232
 30
0.0
 10
28.85646955528209
 20
1042.160323179042
 30
0.0
 10
29.2499979690439
 20
1042.043886791532
 30
0.0
 10
29.51708142977452
 20
1041.977687676469
 30
0.0
 10
29.66754305139441
 20
1041.940747556256
 30
0.0
  0
SPLINE
  5
92
330
75
100
AcDbEntity
  8
$DDT_AUDIT_GENERATED_(7D)
  6
Continuous
 62
     7
100
AcDbSpline
210
0.0
220
0.0
230
1.0
 70
     8
 71
     3
 72
    54
 73
    50
 74
     0
 42
0.0000000000897371
 43
0.0000000001
 40
0.0
 40
0.0
 40
0.0
 40
0.0
 40
0.0034927520077782
 40
0.0399617086516372
 40
0.0790875647400407
 40
0.1131591893846903
 40
0.1492517590960931
 40
0.1835898356536373
 40
0.2164201144648581
 40
0.2479762830371256
 40
0.2784349185038646
 40
0.3079353098334798
 40
0.3364435120426202
 40
0.3637839898415745
 40
0.3901286079206091
 40
0.4156135071081861
 40
0.4403460911951167
 40
0.4644131690088673
 40
0.4878863532567669
 40
0.5108259270259452
 40
0.5332768899077064
 40
0.5550767847285966
 40
0.5762543575993618
 40
0.5968714497660285
 40
0.6169800280589898
 40
0.6366241393096004
 40
0.6558416511220575
 40
0.6746655299217006
 40
0.6931247969276545
 40
0.7112452565286669
 40
0.7290500603227751
 40
0.7465528839179538
 40
0.7636900172378308
 40
0.7804991926964292
 40
0.7970110536650512
 40
0.8132449629435848
 40
0.8292187504340736
 40
0.8449489694367691
 40
0.860451067988387
 40
0.8757395316856734
 40
0.8908280036744202
 40
0.9057293859789759
 40
0.9204559253710918
 40
0.9350192861833482
 40
0.9494306117655038
 40
0.9637005802614746
 40
0.977832504760253
 40
0.9918228191537172
 40
1.0
 40
1.0
 40
1.0
 40
1.0
 10
58.4474232465222
 20
943.4453522322976
 30
0.0
 10
58.44739593496507
 20
943.6346050968411
 30
0.0
 10
58.44712784159712
 20
945.4970223912683
 30
0.0
 10
58.44673371955863
 20
949.4926673025859
 30
0.0
 10
58.4463971402856
 20
954.7727003121851
 30
0.0
 10
58.44624383493847
 20
960.0554584615267
 30
0.0
 10
58.44624210749031
 20
965.0510052445935
 30
0.0
 10
58.4463660094642
 20
969.9459708601419
 30
0.0
 10
58.4465822132131
 20
974.5797300585492
 30
0.0
 10
58.44686534763984
 20
978.9865718433613
 30
0.0
 10
58.44719582881827
 20
983.1934416013171
 30
0.0
 10
58.44755617181301
 20
987.2153868572576
 30
0.0
 10
58.44792959358063
 20
991.049909917895
 30
0.0
 10
58.44830313289227
 20
994.6964133432896
 30
0.0
 10
58.44866666682598
 20
998.1625692613211
 30
0.0
 10
58.44901354289208
 20
1001.468269215319
 30
0.0
 10
58.44933822471315
 20
1004.629256767659
 30
0.0
 10
58.44963611956254
 20
1007.658141215973
 30
0.0
 10
58.44990298744334
 20
1010.565215896101
 30
0.0
 10
58.4501361835831
 20
1013.35885346418
 30
0.0
 10
58.45032859395761
 20
1016.037599867374
 30
0.0
 10
58.45047908766704
 20
1018.598292318603
 30
0.0
 10
58.45058840390698
 20
1021.039226281755
 30
0.0
 10
58.45065755074069
 20
1023.367103340252
 30
0.0
 10
58.45068753153848
 20
1025.589010602249
 30
0.0
 10
58.45067917751715
 20
1027.7109205361
 30
0.0
 10
58.45063320903292
 20
1029.737924339528
 30
0.0
 10
58.45055024388321
 20
1031.6744130122
 30
0.0
 10
58.45043084716115
 20
1033.524210785801
 30
0.0
 10
58.45027543246488
 20
1035.290683759225
 30
0.0
 10
58.4500847018279
 20
1036.976566364852
 30
0.0
 10
58.4498585393128
 20
1038.581832928513
 30
0.0
 10
58.4495921419077
 20
1040.106525650828
 30
0.0
 10
58.44929613193933
 20
1041.551641660206
 30
0.0
 10
58.44897682296398
 20
1042.920485477435
 30
0.0
 10
58.44864071082205
 20
1044.215639663254
 30
0.0
 10
58.44829356961772
 20
1045.43919115707
 30
0.0
 10
58.44794073006249
 20
1046.593034640269
 30
0.0
 10
58.44758707332957
 20
1047.678895302468
 30
0.0
 10
58.44723709969844
 20
1048.698349072385
 30
0.0
 10
58.44689497617882
 20
1049.652832718875
 30
0.0
 10
58.446564551303
 20
1050.543676596475
 30
0.0
 10
58.44624948272924
 20
1051.372043476759
 30
0.0
 10
58.44595292311483
 20
1052.139202527481
 30
0.0
 10
58.44567880949599
 20
1052.845565694166
 30
0.0
 10
58.44542728577789
 20
1053.494159558821
 30
0.0
 10
58.44521195975348
 20
1054.07745042772
 30
0.0
 10
58.44505473946703
 20
1054.551093843551
 30
0.0
 10
58.44500159527956
 20
1054.782051914003
 30
0.0
 10
58.44497889116655
 20
1054.881957297493
 30
0.0
  0
LINE
  5
93
330
75
100
AcDbEntity
  8
$DDT_AUDIT_GENERATED_(7D)
  6
Continuous
 62
     7
100
AcDbLine
 10
58.4449618679
 20
1043.202915237
 30
0.0
 11
58.4449781558
 21
1054.9077853326
 31
0.0
  0
SPLINE
  5
94
330
75
100
AcDbEntity
  8
$DDT_AUDIT_GENERATED_(7D)
  6
Continuous
 62
     7
100
AcDbSpline
210
0.0
220
0.0
230
1.0
 70
     8
 71
     3
 72
    32
 73
    28
 74
     0
 42
0.0000000006047995
 43
0.0000000001
 40
0.0
 40
0.0
 40
0.0
 40
0.0
 40
0.0432933296238004
 40
0.0814175229500887
 40
0.1178356890647209
 40
0.1476832664027876
 40
0.1711674656252634
 40
0.1899477604371467
 40
0.2084221742047206
 40
0.2269124964839179
 40
0.2454300340894258
 40
0.2709573602205446
 40
0.2965877781708789
 40
0.3235304076169674
 40
0.3557102067852944
 40
0.3880308485982742
 40
0.4244599985268006
 40
0.4649613518988023
 40
0.5094875247680006
 40
0.5579786790789079
 40
0.6103957547750039
 40
0.6667147865205204
 40
0.7268944822263146
 40
0.790872605085593
 40
0.8586341445641535
 40
0.9302358986009822
 40
1.0
 40
1.0
 40
1.0
 40
1.0
 10
58.42173101370477
 20
1055.160438387737
 30
0.0
 10
58.38545282861601
 20
1055.340309895817
 30
0.0
 10
58.32315245815168
 20
1055.623594125977
 30
0.0
 10
58.07958153098018
 20
1056.038486491595
 30
0.0
 10
57.79384682677441
 20
1056.352039013444
 30
0.0
 10
57.50602200868853
 20
1056.579510104355
 30
0.0
 10
57.26595254471211
 20
1056.729541729891
 30
0.0
 10
57.0867716570161
 20
1056.825060746613
 30
0.0
 10
56.91224564476563
 20
1056.908941873062
 30
0.0
 10
56.73373814015358
 20
1056.985968796635
 30
0.0
 10
56.52606922900602
 20
1057.067265638064
 30
0.0
 10
56.2869070283263
 20
1057.151002979648
 30
0.0
 10
56.00924503547465
 20
1057.237104720369
 30
0.0
 10
55.69758699637536
 20
1057.322894521152
 30
0.0
 10
55.33317053933379
 20
1057.412801415795
 30
0.0
 10
54.89986615134661
 20
1057.508047266557
 30
0.0
 10
54.39480771191269
 20
1057.606982173095
 30
0.0
 10
53.7903211930975
 20
1057.711547880135
 30
0.0
 10
53.07587400913408
 20
1057.819609809216
 30
0.0
 10
52.24153239654432
 20
1057.92850794904
 30
0.0
 10
51.28029212308444
 20
1058.035394078061
 30
0.0
 10
50.18689506293042
 20
1058.137037221662
 30
0.0
 10
48.95985353857147
 20
1058.229737060223
 30
0.0
 10
47.59684837424968
 20
1058.309430601241
 30
0.0
 10
46.11547134280169
 20
1058.371161215381
 30
0.0
 10
44.51872703865284
 20
1058.4123115552
 30
0.0
 10
43.52670982599458
 20
1058.417505492062
 30
0.0
 10
42.94682856127478
 20
1058.419878547813
 30
0.0
  0
SPLINE
  5
95
330
75
100
AcDbEntity
  8
$DDT_AUDIT_GENERATED_(7D)
  6
Continuous
 62
     7
100
AcDbSpline
210
0.0
220
0.0
230
1.0
 70
     8
 71
     3
 72
    17
 73
    13
 74
     0
 42
0.0000000037132861
 43
0.0000000001
 40
0.0
 40
0.0
 40
0.0
 40
0.0
 40
0.1025078679601779
 40
0.2154171897901725
 40
0.3288222637955025
 40
0.442969970181905
 40
0.5582437316057361
 40
0.6751488376452776
 40
0.793712314263232
 40
0.8865698181799434
 40
0.9714803244316875
 40
1.0
 40
1.0
 40
1.0
 40
1.0
 10
56.22440710551607
 20
1041.940260986386
 30
0.0
 10
56.37543801957737
 20
1041.977355655988
 30
0.0
 10
56.64154153703289
 20
1042.043338383635
 30
0.0
 10
57.03251010870684
 20
1042.158892218474
 30
0.0
 10
57.38129644405937
 20
1042.279348985215
 30
0.0
 10
57.68587740434664
 20
1042.40589180396
 30
0.0
 10
57.9436808499714
 20
1042.539019936485
 30
0.0
 10
58.15494628918335
 20
1042.682001586665
 30
0.0
 10
58.30832356997774
 20
1042.830368891642
 30
0.0
 10
58.40197183148262
 20
1042.983407247366
 30
0.0
 10
58.44563476906956
 20
1043.11002038599
 30
0.0
 10
58.44050427756946
 20
1043.175298733058
 30
0.0
 10
58.43888291986602
 20
1043.194598758848
 30
0.0
  0
ELLIPSE
  5
97
330
75
100
AcDbEntity
  8
$DDT_AUDIT_GENERATED_(96)
  6
Continuous
 62
     7
100
AcDbEllipse
 10
42.9468493689
 20
1042.1136210521
 30
0.0
 11
12.0
 21
0.0
 31
0.0
210
0.0
220
0.0
230
1.0
 40
0.139173101
 41
0.0
 42
3.435791012455175
  0
ELLIPSE
  5
98
330
75
100
AcDbEntity
  8
$DDT_AUDIT_GENERATED_(96)
  6
Continuous
 62
     7
100
AcDbEllipse
 10
42.9468493689
 20
1042.1136210521
 30
0.0
 11
12.0
 21
0.0
 31
0.0
210
0.0
220
0.0
230
1.0
 40
0.139173101
 41
5.990240465324161
 42
6.283185307179586
  0
ELLIPSE
  5
99
330
75
100
AcDbEntity
  8
$DDT_AUDIT_GENERATED_(96)
  6
Continuous
 62
     7
100
AcDbEllipse
 10
42.9468493689
 20
1043.0048623139
 30
0.0
 11
-14.75
 21
0.0
 31
0.0
210
0.0
220
0.0
230
1.0
 40
0.139173101
 41
0.0
 42
0.4438618863944597
  0
ELLIPSE
  5
9A
330
75
100
AcDbEntity
  8
$DDT_AUDIT_GENERATED_(96)
  6
Continuous
 62
     7
100
AcDbEllipse
 10
42.9468493689
 20
1043.0048623139
 30
0.0
 11
-14.75
 21
0.0
 31
0.0
210
0.0
220
0.0
230
1.0
 40
0.139173101
 41
2.69773076719533
 42
6.283185307179586
  0
ELLIPSE
  5
9B
330
75
100
AcDbEntity
  8
$DDT_AUDIT_GENERATED_(96)
  6
Continuous
 62
     7
100
AcDbEllipse
 10
42.9468493689
 20
1042.1136210521
 30
0.0
 11
-10.40000000000002
 21
0.0
 31
0.0
210
0.0
220
0.0
230
1.0
 40
0.139173101
 41
3.249985798113006
 42
6.174792162656373
  0
LINE
  5
9C
330
75
100
AcDbEntity
  8
$DDT_AUDIT_GENERATED_(96)
  6
Continuous
 62
     7
100
AcDbLine
 10
57.6968493689
 20
1043.0048623139
 30
0.0
 11
57.6968493689
 21
1043.2983658125
 31
0.0
  0
LINE
  5
9D
330
75
100
AcDbEntity
  8
$DDT_AUDIT_GENERATED_(96)
  6
Continuous
 62
     7
100
AcDbLine
 10
28.1968493689
 20
1043.2983658125
 30
0.0
 11
28.1968493689
 21
1043.0048623139
 31
0.0
  0
LINE
  5
9E
330
75
100
AcDbEntity
  8
$DDT_AUDIT_GENERATED_(96)
  6
Continuous
 62
     7
100
AcDbLine
 10
29.6261245063
 20
1042.1233263451
 30
0.0
 11
31.4655425258
 21
1041.5849588069
 31
0.0
  0
LINE
  5
9F
330
75
100
AcDbEntity
  8
$DDT_AUDIT_GENERATED_(96)
  6
Continuous
 62
     7
100
AcDbLine
 10
54.4231199595
 20
1041.5834847782
 30
0.0
 11
56.2675742315
 21
1042.1233263451
 31
0.0
  0
LINE
  5
A1
330
75
100
AcDbEntity
  8
$DDT_AUDIT_GENERATED_(A0)
  6
Continuous
 62
     7
100
AcDbLine
 10
71.446807788
 20
970.0686231165
 30
0.0
 11
71.446807788
 21
970.4686231165
 31
0.0
  0
LINE
  5
A2
330
75
100
AcDbEntity
  8
$DDT_AUDIT_GENERATED_(A0)
  6
Continuous
 62
     7
100
AcDbLine
 10
14.446807788
 20
970.4686231165
 30
0.0
 11
14.446807788
 21
970.0686231165
 31
0.0
  0
ARC
  5
A3
330
75
100
AcDbEntity
  8
$DDT_AUDIT_GENERATED_(A0)
  6
Continuous
 62
     7
100
AcDbCircle
 10
14.546807788
 20
970.4686231165
 30
0.0
 40
0.1000000000000029
100
AcDbArc
 50
90.0
 51
180.0
  0
ARC
  5
A4
330
75
100
AcDbEntity
  8
$DDT_AUDIT_GENERATED_(A0)
  6
Continuous
 62
     7
100
AcDbCircle
 10
71.346807788
 20
970.4686231165
 30
0.0
 40
0.0999999999999994
100
AcDbArc
 50
0.0
 51
90.0
  0
ARC
  5
A5
330
75
100
AcDbEntity
  8
$DDT_AUDIT_GENERATED_(A0)
  6
Continuous
 62
     7
100
AcDbCircle
 10
71.346807788
 20
970.0686231165
 30
0.0
 40
0.1000000000000029
100
AcDbArc
 50
270.0
 51
0.0
  0
ARC
  5
A6
330
75
100
AcDbEntity
  8
$DDT_AUDIT_GENERATED_(A0)
  6
Continuous
 62
     7
100
AcDbCircle
 10
14.546807788
 20
970.0686231165
 30
0.0
 40
0.0999999999999994
100
AcDbArc
 50
180.0
 51
270.0
  0
ARC
  5
A8
330
75
100
AcDbEntity
  8
$DDT_AUDIT_GENERATED_(A7)
  6
Continuous
 62
     7
100
AcDbCircle
 10
61.336822948
 20
1047.8549073273
 30
0.0
 40
2.225678706901939
100
AcDbArc
 50
48.387444249
 51
59.3934734211
  0
ARC
  5
A9
330
75
100
AcDbEntity
  8
$DDT_AUDIT_GENERATED_(A7)
  6
Continuous
 62
     7
100
AcDbCircle
 10
63.4323858497
 20
1050.0447099537
 30
0.0
 40
0.8175154328685986
100
AcDbArc
 50
199.35695672
 51
228.4883672037
  0
SPLINE
  5
AA
330
75
100
AcDbEntity
  8
$DDT_AUDIT_GENERATED_(A7)
  6
Continuous
 62
     7
100
AcDbSpline
210
0.0
220
0.0
230
1.0
 70
     8
 71
     3
 72
    10
 73
     6
 74
     0
 42
0.0000000004804941
 43
0.0000000001
 40
0.6450084091019539
 40
0.6450084091019539
 40
0.6450084091019539
 40
0.6450084091019539
 40
0.75
 40
0.75
 40
0.8532791355352459
 40
0.8532791355352459
 40
0.8532791355352459
 40
0.8532791355352459
 10
69.31361096107709
 20
1043.399318982586
 30
0.0
 10
69.04365473528188
 20
1043.755583491151
 30
0.0
 10
68.64704876808753
 20
1044.242199262334
 30
0.0
 10
67.663576233553
 20
1045.337295595568
 30
0.0
 10
67.07160971665378
 20
1045.952170116043
 30
0.0
 10
66.39048624995412
 20
1046.591760148413
 30
0.0
  0
ARC
  5
AB
330
75
100
AcDbEntity
  8
$DDT_AUDIT_GENERATED_(A7)
  6
Continuous
 62
     7
100
AcDbCircle
 10
61.3141692968
 20
1049.240498138
 30
0.0
 40
1.448629009255423
100
AcDbArc
 50
21.5986566514
 51
46.5123371268
  0
ARC
  5
AC
330
75
100
AcDbEntity
  8
$DDT_AUDIT_GENERATED_(A7)
  6
Continuous
 62
     7
100
AcDbCircle
 10
24.5755350419
 20
1049.2436553858
 30
0.0
 40
1.443832700042804
100
AcDbArc
 50
133.494044918
 51
158.4608465496
  0
ARC
  5
AD
330
75
100
AcDbEntity
  8
$DDT_AUDIT_GENERATED_(A7)
  6
Continuous
 62
     7
100
AcDbCircle
 10
24.5567924722
 20
1047.8549070396
 30
0.0
 40
2.225679140177552
100
AcDbArc
 50
120.8653778568
 51
125.6572285812
  0
ARC
  5
AE
330
75
100
AcDbEntity
  8
$DDT_AUDIT_GENERATED_(A7)
  6
Continuous
 62
     7
100
AcDbCircle
 10
22.4611974461
 20
1050.0447295063
 30
0.0
 40
0.817550514280369
100
AcDbArc
 50
310.9257180433
 51
340.6422505142
  0
SPLINE
  5
AF
330
75
100
AcDbEntity
  8
$DDT_AUDIT_GENERATED_(A7)
  6
Continuous
 62
     7
100
AcDbSpline
210
0.0
220
0.0
230
1.0
 70
     8
 71
     3
 72
    10
 73
     6
 74
     0
 42
0.0000000004941004
 43
0.0000000001
 40
0.1472761161903144
 40
0.1472761161903144
 40
0.1472761161903144
 40
0.1472761161903144
 40
0.2499999999999999
 40
0.2499999999999999
 40
0.3700507098541574
 40
0.3700507098541574
 40
0.3700507098541574
 40
0.3700507098541574
 10
19.5014666115015
 20
1046.590167527569
 30
0.0
 10
18.8265993022028
 20
1045.95628862848
 30
0.0
 10
18.2358240105353
 20
1045.343430347953
 30
0.0
 10
17.17682133599243
 20
1044.1648949665
 30
0.0
 10
16.74358705922566
 20
1043.624398496615
 30
0.0
 10
16.47457706913117
 20
1043.258131777892
 30
0.0
  0
SPLINE
  5
B0
330
75
100
AcDbEntity
  8
$DDT_AUDIT_GENERATED_(A7)
  6
Continuous
 62
     7
100
AcDbSpline
210
0.0
220
0.0
230
1.0
 70
    12
 71
     3
 72
    14
 73
    10
 74
     0
 42
0.0000000060217835
 43
0.0000000001
 40
0.0
 40
0.0
 40
0.0
 40
0.0
 40
0.0624999999999999
 40
0.0624999999999999
 40
0.1249999999999999
 40
0.1249999999999999
 40
0.2499999999999997
 40
0.2499999999999997
 40
0.3707964761747018
 40
0.3707964761747018
 40
0.3707964761747018
 40
0.3707964761747018
 10
59.8955015063847
 20
1046.235563286653
 30
0.0
 41
1.0
 10
59.8952445828039
 20
1046.173983891049
 30
0.0
 41
1.0
 10
59.88281841849036
 20
1046.131625056678
 30
0.0
 41
1.0
 10
59.85466706016175
 20
1046.055217993986
 30
0.0
 41
1.0
 10
59.8374661377756
 20
1046.022690258198
 30
0.0
 41
1.0
 10
59.78168697409911
 20
1045.934179531138
 30
0.0
 41
1.0
 10
59.73891773709266
 20
1045.887454540791
 30
0.0
 41
1.0
 10
59.65259470315356
 20
1045.808162758032
 30
0.0
 41
1.0
 10
59.60921936302696
 20
1045.775230894679
 30
0.0
 41
1.0
 10
59.56559285411723
 20
1045.746616338991
 30
0.0
 41
1.0
  0
SPLINE
  5
B1
330
75
100
AcDbEntity
  8
$DDT_AUDIT_GENERATED_(A7)
  6
Continuous
 62
     7
100
AcDbSpline
210
0.0
220
0.0
230
1.0
 70
     8
 71
     3
 72
    14
 73
    10
 74
     0
 42
0.0000000051796809
 43
0.0000000001
 40
0.0
 40
0.0
 40
0.0
 40
0.0
 40
0.0181254560311377
 40
0.0450029763597589
 40
0.0828980525965766
 40
0.1325883503755988
 40
0.194405879457741
 40
0.2685185804100206
 40
0.3190475455377173
 40
0.3190475455377173
 40
0.3190475455377173
 40
0.3190475455377173
 10
25.99811681778436
 20
1046.23556160061
 30
0.0
 10
26.00040429416074
 20
1046.207787519984
 30
0.0
 10
26.00608377858941
 20
1046.138828356054
 30
0.0
 10
26.03497837969243
 20
1046.065661007332
 30
0.0
 10
26.07490508282194
 20
1045.988376315502
 30
0.0
 10
26.13043370927389
 20
1045.915188428653
 30
0.0
 10
26.19885696327443
 20
1045.844380549972
 30
0.0
 10
26.26665960623221
 20
1045.78909978857
 30
0.0
 10
26.31108960683939
 20
1045.758216869673
 30
0.0
 10
26.32891511618681
 20
1045.746524364524
 30
0.0
  0
SPLINE
  5
B2
330
75
100
AcDbEntity
  8
$DDT_AUDIT_GENERATED_(A7)
  6
Continuous
 62
     7
100
AcDbSpline
210
0.0
220
0.0
230
1.0
 70
     8
 71
     3
 72
     8
 73
     4
 74
     0
 42
0.0000000002040167
 43
0.0000000001
 40
0.0
 40
0.0
 40
0.0
 40
0.0
 40
0.001468641733081
 40
0.001468641733081
 40
0.001468641733081
 40
0.001468641733081
 10
69.94656077579761
 20
1016.457646822115
 30
0.0
 10
69.9467285540456
 20
1016.481649928825
 30
0.0
 10
69.94681521036276
 20
1016.505645130465
 30
0.0
 10
69.94682072165764
 20
1016.529632424785
 30
0.0
  0
SPLINE
  5
B3
330
75
100
AcDbEntity
  8
$DDT_AUDIT_GENERATED_(A7)
  6
Continuous
 62
     7
100
AcDbSpline
210
0.0
220
0.0
230
1.0
 70
     8
 71
     3
 72
     8
 73
     4
 74
     0
 42
0.0000000002035464
 43
0.0000000001
 40
0.9985336001906595
 40
0.9985336001906595
 40
0.9985336001906595
 40
0.9985336001906595
 40
1.0
 40
1.0
 40
1.0
 40
1.0
 10
15.94676328601653
 20
1016.529688618385
 30
0.0
 10
15.9467623742572
 20
1016.505673361918
 30
0.0
 10
15.94684581890121
 20
1016.481659333711
 30
0.0
 10
15.94701366288801
 20
1016.457646822115
 30
0.0
  0
SPLINE
  5
B4
330
75
100
AcDbEntity
  8
$DDT_AUDIT_GENERATED_(A7)
  6
Continuous
 62
     7
100
AcDbSpline
210
0.0
220
0.0
230
1.0
 70
     8
 71
     3
 72
     8
 73
     4
 74
     0
 42
0.0000000369324268
 43
0.0000000001
 40
0.0
 40
0.0
 40
0.0
 40
0.0
 40
1.0
 40
1.0
 40
1.0
 40
1.0
 10
15.94701366288801
 20
1016.457646822115
 30
0.0
 10
15.94819624727038
 20
1016.288461010118
 30
0.0
 10
15.95407509677599
 20
1016.199328584631
 30
0.0
 10
15.96632383167371
 20
1016.199328585612
 30
0.0
  0
LINE
  5
B5
330
75
100
AcDbEntity
  8
$DDT_AUDIT_GENERATED_(A7)
  6
Continuous
 62
     7
100
AcDbLine
 10
69.6274679625
 20
1015.8993285856
 30
0.0
 11
58.4654365003
 21
1015.8993285856
 31
0.0
  0
LINE
  5
B6
330
75
100
AcDbEntity
  8
$DDT_AUDIT_GENERATED_(A7)
  6
Continuous
 62
     7
100
AcDbLine
 10
27.4341615088
 20
1015.8993285856
 30
0.0
 11
16.2661064761
 21
1015.8993285856
 31
0.0
  0
ELLIPSE
  5
B7
330
75
100
AcDbEntity
  8
$DDT_AUDIT_GENERATED_(A7)
  6
Continuous
 62
     7
100
AcDbEllipse
 10
69.6274679625
 20
1016.1993285856
 30
0.0
 11
0.0
 21
0.3000000000000692
 31
0.0
210
0.0
220
0.0
230
1.0
 40
1.0
 41
3.14159257355336
 42
4.71238898038469
  0
LINE
  5
B8
330
75
100
AcDbEntity
  8
$DDT_AUDIT_GENERATED_(A7)
  6
Continuous
 62
     7
100
AcDbLine
 10
15.9467618152
 20
1042.1473679657
 30
0.0
 11
15.9467618152
 21
1016.5296885969
 31
0.0
  0
LINE
  5
B9
330
75
100
AcDbEntity
  8
$DDT_AUDIT_GENERATED_(A7)
  6
Continuous
 62
     7
100
AcDbLine
 10
69.9468126235
 20
1016.5296326728
 30
0.0
 11
69.9468126235
 21
1042.1524212764
 31
0.0
  0
ARC
  5
BA
330
75
100
AcDbEntity
  8
$DDT_AUDIT_GENERATED_(A7)
  6
Continuous
 62
     7
100
AcDbCircle
 10
47.2542565556
 20
1026.8174215586
 30
0.0
 40
27.50362393059405
100
AcDbArc
 50
45.9716490754
 51
56.04831148
  0
ARC
  5
BB
330
75
100
AcDbEntity
  8
$DDT_AUDIT_GENERATED_(A7)
  6
Continuous
 62
     7
100
AcDbCircle
 10
42.9468084186
 20
1021.032683015
 30
0.0
 40
35.12838852765318
100
AcDbArc
 50
57.7351269815
 51
63.8402248609
  0
ARC
  5
BC
330
75
100
AcDbEntity
  8
$DDT_AUDIT_GENERATED_(A7)
  6
Continuous
 62
     7
100
AcDbCircle
 10
42.9468084186
 20
1021.032683015
 30
0.0
 40
35.12838852765318
100
AcDbArc
 50
116.1596240296
 51
122.2648577112
  0
ARC
  5
BD
330
75
100
AcDbEntity
  8
$DDT_AUDIT_GENERATED_(A7)
  6
Continuous
 62
     7
100
AcDbCircle
 10
38.5952448723
 20
1026.8723193065
 30
0.0
 40
27.43326670969774
100
AcDbArc
 50
123.9525915125
 51
134.0547884172
  0
LINE
  5
BE
330
75
100
AcDbEntity
  8
$DDT_AUDIT_GENERATED_(A7)
  6
Continuous
 62
     7
100
AcDbLine
 10
61.7067580253
 20
1050.7560185118
 30
0.0
 11
61.6766226633
 21
1050.7773612239
 31
0.0
  0
ARC
  5
BF
330
75
100
AcDbEntity
  8
$DDT_AUDIT_GENERATED_(A7)
  6
Continuous
 62
     7
100
AcDbCircle
 10
59.4780230626
 20
1047.2579868855
 30
0.0
 40
4.147708378486924
100
AcDbArc
 50
46.9358555431
 51
57.4971684436
  0
ARC
  5
C0
330
75
100
AcDbEntity
  8
$DDT_AUDIT_GENERATED_(A7)
  6
Continuous
 62
     7
100
AcDbCircle
 10
26.414403656
 20
1047.2596785522
 30
0.0
 40
4.145642972412863
100
AcDbArc
 50
122.5015630732
 51
133.0624523305
  0
LINE
  5
C1
330
75
100
AcDbEntity
  8
$DDT_AUDIT_GENERATED_(A7)
  6
Continuous
 62
     7
100
AcDbLine
 10
24.2169891358
 20
1050.7773588328
 30
0.0
 11
24.1868559269
 21
1050.7560176046
 31
0.0
  0
SPLINE
  5
C2
330
75
100
AcDbEntity
  8
$DDT_AUDIT_GENERATED_(A7)
  6
Continuous
 62
     7
100
AcDbSpline
210
0.0
220
0.0
230
1.0
 70
     8
 71
     3
 72
    16
 73
    12
 74
     0
 42
0.0000000083461627
 43
0.0000000001
 40
0.0
 40
0.0
 40
0.0
 40
0.0
 40
0.022476308887373
 40
0.2669706783812349
 40
0.5359760518702317
 40
0.7040268814170804
 40
0.8083161493663006
 40
0.8723310523392755
 40
0.9287344493051495
 40
0.9809916176040893
 40
1.0
 40
1.0
 40
1.0
 40
1.0
 10
16.44044424538517
 20
1043.214522793283
 30
0.0
 10
16.43443834482223
 20
1043.206532553847
 30
0.0
 10
16.37312193961795
 20
1043.124928434652
 30
0.0
 10
16.27096407033963
 20
1042.978489587351
 30
0.0
 10
16.16312678412229
 20
1042.814440775035
 30
0.0
 10
16.08675780684373
 20
1042.67997648463
 30
0.0
 10
16.03488791140343
 20
1042.569239420166
 30
0.0
 10
15.9956384710103
 20
1042.463438413103
 30
0.0
 10
15.96734003795374
 20
1042.351449806726
 30
0.0
 10
15.94764672649166
 20
1042.240927937394
 30
0.0
 10
15.94995014778049
 20
1042.169624842441
 30
0.0
 10
15.95067773604327
 20
1042.14729921904
 30
0.0
  0
SPLINE
  5
C3
330
75
100
AcDbEntity
  8
$DDT_AUDIT_GENERATED_(A7)
  6
Continuous
 62
     7
100
AcDbSpline
210
0.0
220
0.0
230
1.0
 70
     8
 71
     3
 72
    17
 73
    13
 74
     0
 42
0.000000007241937
 43
0.0000000001
 40
0.0
 40
0.0
 40
0.0
 40
0.0
 40
0.0338882295056174
 40
0.0764502287954924
 40
0.1235560982825306
 40
0.1800430906397067
 40
0.2529992840898456
 40
0.3550056738167163
 40
0.5171112304885264
 40
0.7404576217512338
 40
0.9524856289535357
 40
1.0
 40
1.0
 40
1.0
 40
1.0
 10
69.94470234751147
 20
1042.152860031469
 30
0.0
 10
69.94332560879224
 20
1042.196212210915
 30
0.0
 10
69.9405931187388
 20
1042.278561796627
 30
0.0
 10
69.91758774910195
 20
1042.391554307874
 30
0.0
 10
69.88860912153008
 20
1042.490732742517
 30
0.0
 10
69.85390327803177
 20
1042.57961205684
 30
0.0
 10
69.81278283424585
 20
1042.66694370552
 30
0.0
 10
69.75681659592097
 20
1042.769081137232
 30
0.0
 10
69.67376856747863
 20
1042.902975392366
 30
0.0
 10
69.55167101820614
 20
1043.080385409246
 30
0.0
 10
69.43216034535284
 20
1043.245742661224
 30
0.0
 10
69.35629311705924
 20
1043.344369808978
 30
0.0
 10
69.34003574823052
 20
1043.365490605145
 30
0.0
  0
SPLINE
  5
C4
330
75
100
AcDbEntity
  8
$DDT_AUDIT_GENERATED_(A7)
  6
Continuous
 62
     7
100
AcDbSpline
210
0.0
220
0.0
230
1.0
 70
     8
 71
     3
 72
    12
 73
     8
 74
     0
 42
0.0000000017951325
 43
0.0000000001
 40
0.0
 40
0.0
 40
0.0
 40
0.0
 40
0.0179076904586617
 40
0.095286495146968
 40
0.1721799672781862
 40
0.2495887334639319
 40
0.2739122824890332
 40
0.2739122824890332
 40
0.2739122824890332
 40
0.2739122824890332
 10
26.32768142122425
 20
1045.743561414213
 30
0.0
 10
26.35308836067258
 20
1045.728083716048
 30
0.0
 10
26.46886723072335
 20
1045.657200229137
 30
0.0
 10
26.70652136788214
 20
1045.467813352341
 30
0.0
 10
27.01958391695867
 20
1045.182469561555
 30
0.0
 10
27.26818910913838
 20
1044.918411445669
 30
0.0
 10
27.41068367057148
 20
1044.754023985539
 30
0.0
 10
27.44480570623606
 20
1044.713918172142
 30
0.0
  0
SPLINE
  5
C5
330
75
100
AcDbEntity
  8
$DDT_AUDIT_GENERATED_(A7)
  6
Continuous
 62
     7
100
AcDbSpline
210
0.0
220
0.0
230
1.0
 70
     8
 71
     3
 72
    12
 73
     8
 74
     0
 42
0.0000000017929812
 43
0.0000000001
 40
0.7260723105119129
 40
0.7260723105119129
 40
0.7260723105119129
 40
0.7260723105119129
 40
0.7571587825904544
 40
0.836643828680045
 40
0.9148762017817011
 40
0.9921773065963242
 40
1.0
 40
1.0
 40
1.0
 40
1.0
 10
58.44897133054893
 20
1044.714093140731
 30
0.0
 10
58.49258596586184
 20
1044.765350842505
 30
0.0
 10
58.64740821159857
 20
1044.943010984968
 30
0.0
 10
58.90992110845543
 20
1045.218226929438
 30
0.0
 10
59.22643544046576
 20
1045.500094616767
 30
0.0
 10
59.45191151778563
 20
1045.67764363334
 30
0.0
 10
59.55574738288902
 20
1045.739314852697
 30
0.0
 10
59.56684103761948
 20
1045.745889640514
 30
0.0
  0
SPLINE
  5
C6
330
75
100
AcDbEntity
  8
$DDT_AUDIT_GENERATED_(A7)
  6
Continuous
 62
     7
100
AcDbSpline
210
0.0
220
0.0
230
1.0
 70
     8
 71
     3
 72
    15
 73
    11
 74
     0
 42
0.0000000146811765
 43
0.0000000001
 40
0.0
 40
0.0
 40
0.0
 40
0.0
 40
0.0470419932242548
 40
0.2990367274768677
 40
0.5666945398753244
 40
0.6572037317185652
 40
0.730636324978544
 40
0.8051666007799652
 40
0.8907050738075598
 40
0.9008862438482673
 40
0.9008862438482673
 40
0.9008862438482673
 40
0.9008862438482673
 10
15.94710206561891
 20
1016.456892477047
 30
0.0
 10
15.94715731952677
 20
1016.444896402091
 30
0.0
 10
15.94746740165314
 20
1016.379788472252
 30
0.0
 10
15.9507129484462
 20
1016.273460037325
 30
0.0
 10
15.95504988904212
 20
1016.198911450352
 30
0.0
 10
15.97107200177168
 20
1016.12140890424
 30
0.0
 10
15.99842323528098
 20
1016.053163420275
 30
0.0
 10
16.05248171597578
 20
1015.980266235448
 30
0.0
 10
16.10844625668571
 20
1015.941990231686
 30
0.0
 10
16.14445466380507
 20
1015.924590897753
 30
0.0
 10
16.1483264069045
 20
1015.922802895791
 30
0.0
  0
SPLINE
  5
C7
330
75
100
AcDbEntity
  8
$DDT_AUDIT_GENERATED_(A7)
  6
Continuous
 62
     7
100
AcDbSpline
210
0.0
220
0.0
230
1.0
 70
     8
 71
     3
 72
    17
 73
    13
 74
     0
 42
0.0000000140442308
 43
0.0000000001
 40
0.0448255112437122
 40
0.0448255112437122
 40
0.0448255112437122
 40
0.0448255112437122
 40
0.0875422893173242
 40
0.1669133386916671
 40
0.2339258098644921
 40
0.2935224860005152
 40
0.3488187464463803
 40
0.4140695056303778
 40
0.519288813748146
 40
0.7050904596397688
 40
0.9490677348082309
 40
1.0
 40
1.0
 40
1.0
 40
1.0
 10
69.68366771573707
 20
1015.906309938036
 30
0.0
 10
69.70048662083644
 20
1015.908959273171
 30
0.0
 10
69.74638643821434
 20
1015.919373654176
 30
0.0
 10
69.81498856070381
 20
1015.959181002687
 30
0.0
 10
69.87101074886952
 20
1016.017385548411
 30
0.0
 10
69.90406099999214
 20
1016.073928854544
 30
0.0
 10
69.92161380960898
 20
1016.12157816516
 30
0.0
 10
69.93182225450656
 20
1016.164985170589
 30
0.0
 10
69.93880470544916
 20
1016.215453939009
 30
0.0
 10
69.94372038353552
 20
1016.292034997901
 30
0.0
 10
69.94625732102917
 20
1016.37658854905
 30
0.0
 10
69.9463262686988
 20
1016.445473340165
 30
0.0
 10
69.94633408015757
 20
1016.459369703082
 30
0.0
  0
LINE
  5
C9
330
75
100
AcDbEntity
  8
$DDT_AUDIT_GENERATED_(C8)
  6
Continuous
 62
     7
100
AcDbLine
 10
71.3474364137
 20
970.5686231165
 30
0.0
 11
58.462392284
 21
970.5686231165
 31
0.0
  0
LINE
  5
CA
330
75
100
AcDbEntity
  8
$DDT_AUDIT_GENERATED_(C8)
  6
Continuous
 62
     7
100
AcDbLine
 10
27.4348505847
 20
970.5686231165
 30
0.0
 11
14.5461791623
 21
970.5686231165
 31
0.0
  0
LINE
  5
CB
330
75
100
AcDbEntity
  8
$DDT_AUDIT_GENERATED_(C8)
  6
Continuous
 62
     7
100
AcDbLine
 10
71.9372820996
 20
971.0584688024
 30
0.0
 11
58.4541342441
 21
971.0584688024
 31
0.0
  0
LINE
  5
CC
330
75
100
AcDbEntity
  8
$DDT_AUDIT_GENERATED_(C8)
  6
Continuous
 62
     7
100
AcDbLine
 10
27.4346428015
 20
971.0584688024
 30
0.0
 11
13.9563334764
 21
971.0584688024
 31
0.0
  0
LINE
  5
CD
330
75
100
AcDbEntity
  8
$DDT_AUDIT_GENERATED_(C8)
  6
Continuous
 62
     7
100
AcDbLine
 10
68.770858274
 20
1014.0652450366
 30
0.0
 11
58.464823951
 21
1014.0652450366
 31
0.0
  0
LINE
  5
CE
330
75
100
AcDbEntity
  8
$DDT_AUDIT_GENERATED_(C8)
  6
Continuous
 62
     7
100
AcDbLine
 10
27.4300141316
 20
1014.0652450366
 30
0.0
 11
17.1227573021
 21
1014.0652450366
 31
0.0
  0
LINE
  5
CF
330
75
100
AcDbEntity
  8
$DDT_AUDIT_GENERATED_(C8)
  6
Continuous
 62
     7
100
AcDbLine
 10
14.0563334764
 20
971.0584688024
 30
0.0
 11
14.5461791623
 21
970.5686231165
 31
0.0
  0
LINE
  5
D0
330
75
100
AcDbEntity
  8
$DDT_AUDIT_GENERATED_(C8)
  6
Continuous
 62
     7
100
AcDbLine
 10
71.3474364137
 20
970.5686231165
 30
0.0
 11
71.8372820996
 21
971.0584688024
 31
0.0
  0
ARC
  5
D1
330
75
100
AcDbEntity
  8
$DDT_AUDIT_GENERATED_(C8)
  6
Continuous
 62
     7
100
AcDbCircle
 10
706.4672952332
 20
956.4579528887
 30
0.0
 40
692.6648592344261
100
AcDbArc
 50
175.3055434556
 51
178.7921865962
  0
ARC
  5
D2
330
75
100
AcDbEntity
  8
$DDT_AUDIT_GENERATED_(C8)
  6
Continuous
 62
     7
100
AcDbCircle
 10
-620.5736796572
 20
956.4579528887
 30
0.0
 40
692.6648592344261
100
AcDbArc
 50
1.2078134038
 51
4.6944565444
  0
ARC
  5
D3
330
75
100
AcDbEntity
  8
$DDT_AUDIT_GENERATED_(C8)
  6
Continuous
 62
     7
100
AcDbCircle
 10
68.770858274
 20
1013.0652450367
 30
0.0
 40
0.9999999999376198
100
AcDbArc
 50
4.6944565446
 51
90.0000000009
  0
ARC
  5
D4
330
75
100
AcDbEntity
  8
$DDT_AUDIT_GENERATED_(C8)
  6
Continuous
 62
     7
100
AcDbCircle
 10
17.122757302
 20
1013.0652450367
 30
0.0
 40
0.9999999999430464
100
AcDbArc
 50
89.9999999991
 51
175.3055434554
  0
ARC
  5
D5
330
75
100
AcDbEntity
  8
$DDT_AUDIT_GENERATED_(C8)
  6
Continuous
 62
     7
100
AcDbCircle
 10
68.3263625238
 20
1014.5652450366
 30
0.0
 40
0.4999999999933252
100
AcDbArc
 50
198.709613237
 51
270.0000000009
  0
ARC
  5
D6
330
75
100
AcDbEntity
  8
$DDT_AUDIT_GENERATED_(C8)
  6
Continuous
 62
     7
100
AcDbCircle
 10
17.5672530522
 20
1014.5652450366
 30
0.0
 40
0.4999999999933307
100
AcDbArc
 50
269.9999999991
 51
341.290386763
  0
ARC
  5
D7
330
75
100
AcDbEntity
  8
$DDT_AUDIT_GENERATED_(C8)
  6
Continuous
 62
     7
100
AcDbCircle
 10
42.9510464783
 20
1005.9685578081
 30
0.0
 40
26.29999999999999
100
AcDbArc
 50
157.7891130569
 51
161.290386763
  0
ARC
  5
D8
330
75
100
AcDbEntity
  8
$DDT_AUDIT_GENERATED_(C8)
  6
Continuous
 62
     7
100
AcDbCircle
 10
42.9425690978
 20
1005.9685578081
 30
0.0
 40
26.3
100
AcDbArc
 50
18.709613237
 51
22.2036722102
  0
ELLIPSE
  5
DA
330
75
100
AcDbEntity
  8
$DDT_AUDIT_GENERATED_(D9)
  6
Continuous
 62
     7
100
AcDbEllipse
 10
42.9468493689
 20
1024.7839298491
 30
0.0
 11
10.5
 21
-1.387778780781446E-14
 31
0.0
210
0.0
220
0.0
230
1.0
 40
0.139173101
 41
0.0
 42
3.76953337209572
  0
ELLIPSE
  5
DB
330
75
100
AcDbEntity
  8
$DDT_AUDIT_GENERATED_(D9)
  6
Continuous
 62
     7
100
AcDbEllipse
 10
42.9468493689
 20
1024.7839298491
 30
0.0
 11
10.5
 21
-1.387778780781446E-14
 31
0.0
210
0.0
220
0.0
230
1.0
 40
0.139173101
 41
5.655244588673657
 42
6.283185307179586
  0
ELLIPSE
  5
DC
330
75
100
AcDbEntity
  8
$DDT_AUDIT_GENERATED_(D9)
  6
Continuous
 62
     7
100
AcDbEllipse
 10
42.9468493689
 20
1024.7839298491
 30
0.0
 11
-10.05
 21
0.0
 31
0.0
210
0.0
220
0.0
230
1.0
 40
0.139173101
 41
2.652191596031716
 42
6.283185307179586
  0
ELLIPSE
  5
DD
330
75
100
AcDbEntity
  8
$DDT_AUDIT_GENERATED_(D9)
  6
Continuous
 62
     7
100
AcDbEllipse
 10
42.9468493689
 20
1024.7839298491
 30
0.0
 11
-10.05
 21
0.0
 31
0.0
210
0.0
220
0.0
230
1.0
 40
0.139173101
 41
0.0
 42
0.4894010575580747
  0
ELLIPSE
  5
DE
330
75
100
AcDbEntity
  8
$DDT_AUDIT_GENERATED_(D9)
  6
Continuous
 62
     7
100
AcDbEllipse
 10
42.9468493689
 20
1041.4699468074
 30
0.0
 11
-11.49999999999999
 21
0.0
 31
0.0
210
0.0
220
0.0
230
1.0
 40
0.139173101
 41
3.138657026092817
 42
3.141592653589793
  0
ELLIPSE
  5
DF
330
75
100
AcDbEntity
  8
$DDT_AUDIT_GENERATED_(D9)
  6
Continuous
 62
     7
100
AcDbEllipse
 10
42.9468493689
 20
1041.6184870177
 30
0.0
 11
11.34999999999999
 21
0.0
 31
0.0
210
0.0
220
0.0
230
1.0
 40
0.139173101
 41
0.405665873847194
 42
2.825647171081166
  0
ARC
  5
E0
330
75
100
AcDbEntity
  8
$DDT_AUDIT_GENERATED_(D9)
  6
Continuous
 62
     7
100
AcDbCircle
 10
48.113690114
 20
1030.4199494875
 30
0.0
 40
16.66047616480743
100
AcDbArc
 50
179.8192121023
 51
200.0561828004
  0
ARC
  5
E1
330
75
100
AcDbEntity
  8
$DDT_AUDIT_GENERATED_(D9)
  6
Continuous
 62
     7
100
AcDbCircle
 10
37.9556900657
 20
1030.4045887198
 30
0.0
 40
16.48485216493611
100
AcDbArc
 50
339.7780128547
 51
0.2365200337
  0
LINE
  5
E2
330
75
100
AcDbEntity
  8
$DDT_AUDIT_GENERATED_(D9)
  6
Continuous
 62
     7
100
AcDbLine
 10
54.4468493689
 20
1030.4725868068
 30
0.0
 11
54.4468493689
 21
1041.4699468074
 31
0.0
  0
LINE
  5
E3
330
75
100
AcDbEntity
  8
$DDT_AUDIT_GENERATED_(D9)
  6
Continuous
 62
     7
100
AcDbLine
 10
31.4468493689
 20
1041.4699468074
 30
0.0
 11
31.4468493689
 21
1030.4725868068
 31
0.0
  0
SPLINE
  5
E4
330
75
100
AcDbEntity
  8
$DDT_AUDIT_GENERATED_(D9)
  6
Continuous
 62
     7
100
AcDbSpline
210
0.0
220
0.0
230
1.0
 70
     8
 71
     3
 72
    15
 73
    11
 74
     0
 42
0.0000000072978389
 43
0.0000000001
 40
0.0
 40
0.0
 40
0.0
 40
0.0
 40
0.0376084625692359
 40
0.1682214053893685
 40
0.3014077302405792
 40
0.4515943767965527
 40
0.6213854643249728
 40
0.7965559883071083
 40
0.9688549414631571
 40
1.0
 40
1.0
 40
1.0
 40
1.0
 10
54.44176448958
 20
1041.462609041035
 30
0.0
 10
54.44368351652211
 20
1041.47734489308
 30
0.0
 10
54.45069121733138
 20
1041.533444343896
 30
0.0
 10
54.41251920974624
 20
1041.642099492968
 30
0.0
 10
54.33175671919174
 20
1041.7634347469
 30
0.0
 10
54.20307905142057
 20
1041.880024680574
 30
0.0
 10
54.02133201185589
 20
1041.99543940712
 30
0.0
 10
53.78086488909954
 20
1042.107536650775
 30
0.0
 10
53.56966741934975
 20
1042.189975001073
 30
0.0
 10
53.44218018352387
 20
1042.228474260364
 30
0.0
 10
53.41937902504782
 20
1042.235340434494
 30
0.0
  0
SPLINE
  5
E5
330
75
100
AcDbEntity
  8
$DDT_AUDIT_GENERATED_(D9)
  6
Continuous
 62
     7
100
AcDbSpline
210
0.0
220
0.0
230
1.0
 70
     8
 71
     3
 72
    13
 73
     9
 74
     0
 42
0.0000000106054474
 43
0.0000000001
 40
0.0
 40
0.0
 40
0.0
 40
0.0
 40
0.02600869352332
 40
0.2507863656733015
 40
0.4791039118325657
 40
0.6814147391289873
 40
0.8559834294703103
 40
1.0
 40
1.0
 40
1.0
 40
1.0
 10
32.08490703247679
 20
1042.091021491464
 30
0.0
 10
32.07316679366532
 20
1042.086422480835
 30
0.0
 10
31.97599563295692
 20
1042.048267748982
 30
0.0
 10
31.81997899820689
 20
1041.963957635783
 30
0.0
 10
31.6466839525558
 20
1041.846613766264
 30
0.0
 10
31.5302863699058
 20
1041.724503490119
 30
0.0
 10
31.4592277656188
 20
1041.596732476623
 30
0.0
 10
31.45239133509658
 20
1041.516163038638
 30
0.0
 10
31.44931469810561
 20
1041.47274770384
 30
0.0
  0
ELLIPSE
  5
E7
330
75
100
AcDbEntity
  8
$DDT_AUDIT_GENERATED_(E6)
  6
Continuous
 62
     7
100
AcDbEllipse
 10
42.9468493689
 20
1024.3383092182
 30
0.0
 11
-9.000000000000005
 21
1.387778780781446E-14
 31
0.0
210
0.0
220
0.0
230
1.0
 40
0.139173101
 41
0.0
 42
6.283185307179586
  0
ELLIPSE
  5
E8
330
75
100
AcDbEntity
  8
$DDT_AUDIT_GENERATED_(E6)
  6
Continuous
 62
     7
100
AcDbEllipse
 10
42.9468493689
 20
1024.3383092182
 30
0.0
 11
5.249999999999997
 21
0.0
 31
0.0
210
0.0
220
0.0
230
1.0
 40
0.139173101
 41
0.0
 42
6.283185307179586
  0
ELLIPSE
  5
E9
330
75
100
AcDbEntity
  8
$DDT_AUDIT_GENERATED_(E6)
  6
Continuous
 62
     7
100
AcDbEllipse
 10
42.9468493689
 20
1024.3383092182
 30
0.0
 11
6.25
 21
0.0
 31
0.0
210
0.0
220
0.0
230
1.0
 40
0.139173101
 41
0.0
 42
6.283185307179586
  0
ELLIPSE
  5
EA
330
75
100
AcDbEntity
  8
$DDT_AUDIT_GENERATED_(E6)
  6
Continuous
 62
     7
100
AcDbEllipse
 10
42.9468493689
 20
1024.3383092182
 30
0.0
 11
-2.750000000000002
 21
0.0
 31
0.0
210
0.0
220
0.0
230
1.0
 40
0.139173101
 41
0.0
 42
6.283185307179586
  0
ELLIPSE
  5
EB
330
75
100
AcDbEntity
  8
$DDT_AUDIT_GENERATED_(E6)
  6
Continuous
 62
     7
100
AcDbEllipse
 10
42.9468493689
 20
1024.3383092182
 30
0.0
 11
-2.15
 21
0.0
 31
0.0
210
0.0
220
0.0
230
1.0
 40
0.139173101
 41
0.0
 42
6.283185307179586
  0
ELLIPSE
  5
EC
330
75
100
AcDbEntity
  8
$DDT_AUDIT_GENERATED_(E6)
  6
Continuous
 62
     7
100
AcDbEllipse
 10
42.9468493689
 20
1024.5363628319
 30
0.0
 11
0.5196299438963559
 21
0.0
 31
0.0
210
0.0
220
0.0
230
1.0
 40
0.139173101
 41
0.0
 42
6.283185307179586
  0
ELLIPSE
  5
ED
330
75
100
AcDbEntity
  8
$DDT_AUDIT_GENERATED_(E6)
  6
Continuous
 62
     7
100
AcDbEllipse
 10
42.9468493689
 20
1024.3383092182
 30
0.0
 11
-8.700000000000005
 21
0.0
 31
0.0
210
0.0
220
0.0
230
1.0
 40
0.139173101
 41
0.0
 42
6.283185307179586
  0
ARC
  5
EE
330
75
100
AcDbEntity
  8
$DDT_AUDIT_GENERATED_(E6)
  6
Continuous
 62
     7
100
AcDbCircle
 10
42.9468493689
 20
1084.4242670915
 30
0.0
 40
61.0708756205477
100
AcDbArc
 50
269.906181458
 51
270.093818542
  0
ELLIPSE
  5
EF
330
75
100
AcDbEntity
  8
$DDT_AUDIT_GENERATED_(E6)
  6
Continuous
 62
     7
100
AcDbEllipse
 10
42.9468493689
 20
1024.5363628319
 30
0.0
 11
8.500000000011271
 21
-4.996003610813204E-13
 31
0.0
210
0.0
220
0.0
230
1.0
 40
0.139173101
 41
4.724153957673135
 42
4.962423390895778
  0
LINE
  5
F0
330
75
100
AcDbEntity
  8
$DDT_AUDIT_GENERATED_(E6)
  6
Continuous
 62
     7
100
AcDbLine
 10
42.8468493689
 20
1023.4685886828
 30
0.0
 11
42.8468493689
 21
1023.3534733431
 31
0.0
  0
LINE
  5
F1
330
75
100
AcDbEntity
  8
$DDT_AUDIT_GENERATED_(E6)
  6
Continuous
 62
     7
100
AcDbLine
 10
43.0468493689
 20
1023.4685886828
 30
0.0
 11
43.0468493689
 21
1023.3534733431
 31
0.0
  0
ELLIPSE
  5
F2
330
75
100
AcDbEntity
  8
$DDT_AUDIT_GENERATED_(E6)
  6
Continuous
 62
     7
100
AcDbEllipse
 10
42.9468492557
 20
1024.5363627731
 30
0.0
 11
-8.499999766562663
 21
1.552116768444023E-8
 31
0.0
210
0.0
220
0.0
230
1.0
 40
0.1391730979
 41
1.297231968084609
 42
1.32076192326656
  0
ELLIPSE
  5
F3
330
75
100
AcDbEntity
  8
$DDT_AUDIT_GENERATED_(E6)
  6
Continuous
 62
     7
100
AcDbEllipse
 10
42.9468493689
 20
1024.5363628319
 30
0.0
 11
-8.500000000018886
 21
-6.938893903907228E-13
 31
0.0
210
0.0
220
0.0
230
1.0
 40
0.139173101
 41
1.320761916283785
 42
1.55903134950622
  0
LINE
  5
F4
330
75
100
AcDbEntity
  8
$DDT_AUDIT_GENERATED_(E6)
  6
Continuous
 62
     7
100
AcDbLine
 10
40.6504471547
 20
1023.3973813899
 30
0.0
 11
40.6504471547
 21
1023.5293191118
 31
0.0
  0
LINE
  5
F5
330
75
100
AcDbEntity
  8
$DDT_AUDIT_GENERATED_(E6)
  6
Continuous
 62
     7
100
AcDbLine
 10
40.8814168446
 20
1023.5173472972
 30
0.0
 11
40.6504471547
 21
1023.3973813899
 31
0.0
  0
LINE
  5
F6
330
75
100
AcDbEntity
  8
$DDT_AUDIT_GENERATED_(E6)
  6
Continuous
 62
     7
100
AcDbLine
 10
41.071545813
 20
1023.5085557754
 30
0.0
 11
40.8436323199
 21
1023.3901772601
 31
0.0
  0
ELLIPSE
  5
F7
330
75
100
AcDbEntity
  8
$DDT_AUDIT_GENERATED_(E6)
  6
Continuous
 62
     7
100
AcDbEllipse
 10
42.9468491314
 20
1024.5363627746
 30
0.0
 11
-8.499999703136352
 21
2.920910735504378E-8
 31
0.0
210
0.0
220
0.0
230
1.0
 40
0.139173099
 41
1.035432586154187
 42
1.058962541387922
  0
ELLIPSE
  5
F8
330
75
100
AcDbEntity
  8
$DDT_AUDIT_GENERATED_(E6)
  6
Continuous
 62
     7
100
AcDbEllipse
 10
42.9468493689
 20
1024.5363628319
 30
0.0
 11
-8.500000000015145
 21
-1.401656568589260E-12
 31
0.0
210
0.0
220
0.0
230
1.0
 40
0.139173101
 41
1.058962528484298
 42
1.297231961706887
  0
LINE
  5
F9
330
75
100
AcDbEntity
  8
$DDT_AUDIT_GENERATED_(E6)
  6
Continuous
 62
     7
100
AcDbLine
 10
38.6105409564
 20
1023.5189091398
 30
0.0
 11
38.6105409564
 21
1023.7118921985
 31
0.0
  0
LINE
  5
FA
330
75
100
AcDbEntity
  8
$DDT_AUDIT_GENERATED_(E6)
  6
Continuous
 62
     7
100
AcDbLine
 10
39.1454934096
 20
1023.6478620402
 30
0.0
 11
38.6105409564
 21
1023.5189091398
 31
0.0
  0
LINE
  5
FB
330
75
100
AcDbEntity
  8
$DDT_AUDIT_GENERATED_(E6)
  6
Continuous
 62
     7
100
AcDbLine
 10
39.3072378907
 20
1023.6311820966
 30
0.0
 11
38.7837460371
 21
1023.5049918297
 31
0.0
  0
ELLIPSE
  5
FC
330
75
100
AcDbEntity
  8
$DDT_AUDIT_GENERATED_(E6)
  6
Continuous
 62
     7
100
AcDbEllipse
 10
42.9468490832
 20
1024.5363627921
 30
0.0
 11
-8.499999696937323
 21
2.866157311487427E-8
 31
0.0
210
0.0
220
0.0
230
1.0
 40
0.139173101
 41
0.7736331981772461
 42
0.7971631533128902
  0
ELLIPSE
  5
FD
330
75
100
AcDbEntity
  8
$DDT_AUDIT_GENERATED_(E6)
  6
Continuous
 62
     7
100
AcDbEllipse
 10
42.9468493689
 20
1024.5363628319
 30
0.0
 11
-8.500000000021705
 21
-2.123301534595612E-12
 31
0.0
210
0.0
220
0.0
230
1.0
 40
0.139173101
 41
0.7971631406847925
 42
1.035432573907314
  0
LINE
  5
FE
330
75
100
AcDbEntity
  8
$DDT_AUDIT_GENERATED_(E6)
  6
Continuous
 62
     7
100
AcDbLine
 10
36.8661470103
 20
1023.7097746773
 30
0.0
 11
36.8661470103
 21
1024.0316981768
 31
0.0
  0
LINE
  5
FF
330
75
100
AcDbEntity
  8
$DDT_AUDIT_GENERATED_(E6)
  6
Continuous
 62
     7
100
AcDbLine
 10
37.8149651115
 20
1023.8418246347
 30
0.0
 11
36.8661470103
 21
1023.7097746773
 31
0.0
  0
LINE
  5
100
330
75
100
AcDbEntity
  8
$DDT_AUDIT_GENERATED_(E6)
  6
Continuous
 62
     7
100
AcDbLine
 10
37.9333131987
 20
1023.8189314076
 30
0.0
 11
37.0075683665
 21
1023.6900926286
 31
0.0
  0
ELLIPSE
  5
101
330
75
100
AcDbEntity
  8
$DDT_AUDIT_GENERATED_(E6)
  6
Continuous
 62
     7
100
AcDbEllipse
 10
42.9468489005
 20
1024.5363627942
 30
0.0
 11
-8.499999526704833
 21
3.327133013542038E-8
 31
0.0
210
0.0
220
0.0
230
1.0
 40
0.1391731032
 41
0.5118338122629579
 42
0.5353637675876574
  0
ELLIPSE
  5
102
330
75
100
AcDbEntity
  8
$DDT_AUDIT_GENERATED_(E6)
  6
Continuous
 62
     7
100
AcDbEllipse
 10
42.9468493689
 20
1024.5363628319
 30
0.0
 11
-8.500000000005402
 21
-6.245004513516506E-13
 31
0.0
210
0.0
220
0.0
230
1.0
 40
0.139173101
 41
0.535363752886236
 42
0.7736331861090973
  0
LINE
  5
103
330
75
100
AcDbEntity
  8
$DDT_AUDIT_GENERATED_(E6)
  6
Continuous
 62
     7
100
AcDbLine
 10
35.5361428811
 20
1023.9569708316
 30
0.0
 11
35.5361428811
 21
1024.2455995451
 31
0.0
  0
LINE
  5
104
330
75
100
AcDbEntity
  8
$DDT_AUDIT_GENERATED_(E6)
  6
Continuous
 62
     7
100
AcDbLine
 10
36.9924107671
 20
1024.073984326
 30
0.0
 11
35.5361428811
 21
1023.9569708316
 31
0.0
  0
LINE
  5
105
330
75
100
AcDbEntity
  8
$DDT_AUDIT_GENERATED_(E6)
  6
Continuous
 62
     7
100
AcDbLine
 10
37.057568156
 20
1024.0470791773
 30
0.0
 11
35.6361428811
 21
1023.9328653434
 31
0.0
  0
ELLIPSE
  5
106
330
75
100
AcDbEntity
  8
$DDT_AUDIT_GENERATED_(E6)
  6
Continuous
 62
     7
100
AcDbEllipse
 10
42.9468488471
 20
1024.5363628125
 30
0.0
 11
-8.499999477890357
 21
1.915349823189416E-8
 31
0.0
210
0.0
220
0.0
230
1.0
 40
0.1391731048
 41
0.2500344183965539
 42
0.2735643737203476
  0
ELLIPSE
  5
107
330
75
100
AcDbEntity
  8
$DDT_AUDIT_GENERATED_(E6)
  6
Continuous
 62
     7
100
AcDbEllipse
 10
42.9468493689
 20
1024.5363628319
 30
0.0
 11
-8.500000000028223
 21
-1.845745778439323E-12
 31
0.0
210
0.0
220
0.0
230
1.0
 40
0.139173101
 41
0.273564365086764
 42
0.5118337983093103
  0
LINE
  5
108
330
75
100
AcDbEntity
  8
$DDT_AUDIT_GENERATED_(E6)
  6
Continuous
 62
     7
100
AcDbLine
 10
34.7111661523
 20
1024.2436515932
 30
0.0
 11
34.7111661523
 21
1024.5224455218
 31
0.0
  0
LINE
  5
109
330
75
100
AcDbEntity
  8
$DDT_AUDIT_GENERATED_(E6)
  6
Continuous
 62
     7
100
AcDbLine
 10
36.6985927974
 20
1024.3177653562
 30
0.0
 11
34.7111661523
 21
1024.2436515932
 31
0.0
  0
LINE
  5
10A
330
75
100
AcDbEntity
  8
$DDT_AUDIT_GENERATED_(E6)
  6
Continuous
 62
     7
100
AcDbLine
 10
36.7067961426
 20
1024.2892547505
 30
0.0
 11
34.7629299613
 21
1024.2167654147
 31
0.0
  0
ARC
  5
10B
330
75
100
AcDbEntity
  8
$DDT_AUDIT_GENERATED_(E6)
  6
Continuous
 62
     7
100
AcDbCircle
 10
34.6120640228
 20
1024.5363628319
 30
0.0
 40
0.1652136269220279
100
AcDbArc
 50
175.1677761493
 51
184.8322238507
  0
ELLIPSE
  5
10C
330
75
100
AcDbEntity
  8
$DDT_AUDIT_GENERATED_(E6)
  6
Continuous
 62
     7
100
AcDbEllipse
 10
42.9468493689
 20
1024.5363628319
 30
0.0
 11
-8.500000000025636
 21
1.110223024625157E-13
 31
0.0
210
0.0
220
0.0
230
1.0
 40
0.139173101
 41
0.0117649772881403
 42
0.2500344105106912
  0
ARC
  5
10D
330
75
100
AcDbEntity
  8
$DDT_AUDIT_GENERATED_(E6)
  6
Continuous
 62
     7
100
AcDbCircle
 10
36.818691124
 20
1024.5363628319
 30
0.0
 40
0.1218391792417571
100
AcDbArc
 50
173.4409649348
 51
180.0
  0
LINE
  5
10E
330
75
100
AcDbEntity
  8
$DDT_AUDIT_GENERATED_(E6)
  6
Continuous
 62
     7
100
AcDbLine
 10
36.6976494201
 20
1024.550280142
 30
0.0
 11
36.6976494201
 21
1024.7549954874
 31
0.0
  0
LINE
  5
10F
330
75
100
AcDbEntity
  8
$DDT_AUDIT_GENERATED_(E6)
  6
Continuous
 62
     7
100
AcDbLine
 10
36.6976494201
 20
1024.550280142
 30
0.0
 11
34.4474376246
 21
1024.550280142
 31
0.0
  0
LINE
  5
110
330
75
100
AcDbEntity
  8
$DDT_AUDIT_GENERATED_(E6)
  6
Continuous
 62
     7
100
AcDbLine
 10
36.6968493689
 20
1024.5224455218
 30
0.0
 11
34.4474376246
 21
1024.5224455218
 31
0.0
  0
ELLIPSE
  5
111
330
75
100
AcDbEntity
  8
$DDT_AUDIT_GENERATED_(E6)
  6
Continuous
 62
     7
100
AcDbEllipse
 10
42.9468493689
 20
1024.5363628319
 30
0.0
 11
-8.500000000021117
 21
3.053113317719180E-13
 31
0.0
210
0.0
220
0.0
230
1.0
 40
0.139173101
 41
-0.0585174152636583
 42
-0.0117649772880739
  0
ELLIPSE
  5
112
330
75
100
AcDbEntity
  8
$DDT_AUDIT_GENERATED_(E6)
  6
Continuous
 62
     7
100
AcDbEllipse
 10
42.9468494248
 20
1024.5363628299
 30
0.0
 11
-6.250000055871069
 21
2.017747080529375E-9
 31
0.0
210
0.0
220
0.0
230
1.0
 40
0.1391731004
 41
-0.2778000692691656
 42
-0.2457987039264964
  0
LINE
  5
113
330
75
100
AcDbEntity
  8
$DDT_AUDIT_GENERATED_(E6)
  6
Continuous
 62
     7
100
AcDbLine
 10
36.9364676492
 20
1024.7749061596
 30
0.0
 11
36.9364676492
 21
1025.0032364583
 31
0.0
  0
LINE
  5
114
330
75
100
AcDbEntity
  8
$DDT_AUDIT_GENERATED_(E6)
  6
Continuous
 62
     7
100
AcDbLine
 10
36.9364676492
 20
1024.7749061596
 30
0.0
 11
35.0465319487
 21
1024.8453843567
 31
0.0
  0
LINE
  5
115
330
75
100
AcDbEntity
  8
$DDT_AUDIT_GENERATED_(E6)
  6
Continuous
 62
     7
100
AcDbLine
 10
36.8847038402
 20
1024.7480199811
 30
0.0
 11
34.963854831
 21
1024.8196509762
 31
0.0
  0
ELLIPSE
  5
116
330
75
100
AcDbEntity
  8
$DDT_AUDIT_GENERATED_(E6)
  6
Continuous
 62
     7
100
AcDbEllipse
 10
42.9468493968
 20
1024.5363628297
 30
0.0
 11
-6.25000002820457
 21
1.985009379090741E-9
 31
0.0
210
0.0
220
0.0
230
1.0
 40
0.1391731008
 41
-0.5395994571411702
 42
-0.5075980917330316
  0
LINE
  5
117
330
75
100
AcDbEntity
  8
$DDT_AUDIT_GENERATED_(E6)
  6
Continuous
 62
     7
100
AcDbLine
 10
37.5848834599
 20
1024.9832758437
 30
0.0
 11
37.5848834599
 21
1025.262922206
 31
0.0
  0
LINE
  5
118
330
75
100
AcDbEntity
  8
$DDT_AUDIT_GENERATED_(E6)
  6
Continuous
 62
     7
100
AcDbLine
 10
37.5848834599
 20
1024.9832758437
 30
0.0
 11
36.1675231339
 21
1025.0971630524
 31
0.0
  0
LINE
  5
119
330
75
100
AcDbEntity
  8
$DDT_AUDIT_GENERATED_(E6)
  6
Continuous
 62
     7
100
AcDbLine
 10
37.4848834599
 20
1024.9591703555
 30
0.0
 11
36.0427357262
 21
1025.0750492727
 31
0.0
  0
ELLIPSE
  5
11A
330
75
100
AcDbEntity
  8
$DDT_AUDIT_GENERATED_(E6)
  6
Continuous
 62
     7
100
AcDbEllipse
 10
42.9468493913
 20
1024.5363628288
 30
0.0
 11
-6.250000023768692
 21
2.241859475837771E-9
 31
0.0
210
0.0
220
0.0
230
1.0
 40
0.139173101
 41
-0.8013988447847007
 42
-0.7693974793752059
  0
LINE
  5
11B
330
75
100
AcDbEntity
  8
$DDT_AUDIT_GENERATED_(E6)
  6
Continuous
 62
     7
100
AcDbLine
 10
38.5987083862
 20
1025.1611891446
 30
0.0
 11
38.5987083862
 21
1025.387047287
 31
0.0
  0
LINE
  5
11C
330
75
100
AcDbEntity
  8
$DDT_AUDIT_GENERATED_(E6)
  6
Continuous
 62
     7
100
AcDbLine
 10
38.5987083862
 20
1025.1611891446
 30
0.0
 11
37.6272048034
 21
1025.2963963108
 31
0.0
  0
LINE
  5
11D
330
75
100
AcDbEntity
  8
$DDT_AUDIT_GENERATED_(E6)
  6
Continuous
 62
     7
100
AcDbLine
 10
38.45728703
 20
1025.1415070959
 30
0.0
 11
37.4693146357
 21
1025.2790062777
 31
0.0
  0
ELLIPSE
  5
11E
330
75
100
AcDbEntity
  8
$DDT_AUDIT_GENERATED_(E6)
  6
Continuous
 62
     7
100
AcDbEllipse
 10
42.9468493577
 20
1024.5363628346
 30
0.0
 11
-6.249999986032182
 21
-1.370556446111948E-9
 31
0.0
210
0.0
220
0.0
230
1.0
 40
0.1391731008
 41
-1.063198234774765
 42
-1.03119686922687
  0
LINE
  5
11F
330
75
100
AcDbEntity
  8
$DDT_AUDIT_GENERATED_(E6)
  6
Continuous
 62
     7
100
AcDbLine
 10
39.9088519349
 20
1025.2965215648
 30
0.0
 11
39.9088519349
 21
1025.4728950083
 31
0.0
  0
LINE
  5
120
330
75
100
AcDbEntity
  8
$DDT_AUDIT_GENERATED_(E6)
  6
Continuous
 62
     7
100
AcDbLine
 10
39.9088519349
 20
1025.2965215648
 30
0.0
 11
39.3186274155
 21
1025.4387980666
 31
0.0
  0
LINE
  5
121
330
75
100
AcDbEntity
  8
$DDT_AUDIT_GENERATED_(E6)
  6
Continuous
 62
     7
100
AcDbLine
 10
39.7356468541
 20
1025.2826042547
 30
0.0
 11
39.1372157084
 21
1025.4268590039
 31
0.0
  0
ELLIPSE
  5
122
330
75
100
AcDbEntity
  8
$DDT_AUDIT_GENERATED_(E6)
  6
Continuous
 62
     7
100
AcDbEllipse
 10
42.9468493876
 20
1024.5363628222
 30
0.0
 11
-6.250000038470161
 21
2.561728607020086E-9
 31
0.0
210
0.0
220
0.0
230
1.0
 40
0.1391731017
 41
-1.324997620141076
 42
-1.292996254835079
  0
LINE
  5
123
330
75
100
AcDbEntity
  8
$DDT_AUDIT_GENERATED_(E6)
  6
Continuous
 62
     7
100
AcDbLine
 10
41.4260299881
 20
1025.3800504236
 30
0.0
 11
41.4260299881
 21
1025.5304721132
 31
0.0
  0
LINE
  5
124
330
75
100
AcDbEntity
  8
$DDT_AUDIT_GENERATED_(E6)
  6
Continuous
 62
     7
100
AcDbLine
 10
41.4260299881
 20
1025.3800504236
 30
0.0
 11
41.1507494568
 21
1025.5230314299
 31
0.0
  0
LINE
  5
125
330
75
100
AcDbEntity
  8
$DDT_AUDIT_GENERATED_(E6)
  6
Continuous
 62
     7
100
AcDbLine
 10
41.2328448229
 20
1025.3728462938
 30
0.0
 11
40.9553707342
 21
1025.5169666362
 31
0.0
  0
ARC
  5
126
330
75
100
AcDbEntity
  8
$DDT_AUDIT_GENERATED_(E6)
  6
Continuous
 62
     7
100
AcDbCircle
 10
42.9468493689
 20
980.5037286333
 30
0.0
 40
44.90246608655885
100
AcDbArc
 50
89.8723993761
 51
90.1276006239
  0
LINE
  5
127
330
75
100
AcDbEntity
  8
$DDT_AUDIT_GENERATED_(E6)
  6
Continuous
 62
     7
100
AcDbLine
 10
43.0468493689
 20
1025.4060833673
 30
0.0
 11
43.0468493689
 21
1025.5490352093
 31
0.0
  0
LINE
  5
128
330
75
100
AcDbEntity
  8
$DDT_AUDIT_GENERATED_(E6)
  6
Continuous
 62
     7
100
AcDbLine
 10
42.8468493689
 20
1025.4060833673
 30
0.0
 11
42.8468493689
 21
1025.5490352093
 31
0.0
  0
ELLIPSE
  5
129
330
75
100
AcDbEntity
  8
$DDT_AUDIT_GENERATED_(E6)
  6
Continuous
 62
     7
100
AcDbEllipse
 10
42.946849354
 20
1024.5363628242
 30
0.0
 11
6.250000030766968
 21
2.041186664136774E-9
 31
0.0
210
0.0
220
0.0
230
1.0
 40
0.1391731015
 41
1.292996255126889
 42
1.324997620469782
  0
LINE
  5
12A
330
75
100
AcDbEntity
  8
$DDT_AUDIT_GENERATED_(E6)
  6
Continuous
 62
     7
100
AcDbLine
 10
44.6608539149
 20
1025.3728462938
 30
0.0
 11
44.9383280037
 21
1025.5169666362
 31
0.0
  0
LINE
  5
12B
330
75
100
AcDbEntity
  8
$DDT_AUDIT_GENERATED_(E6)
  6
Continuous
 62
     7
100
AcDbLine
 10
44.4676687497
 20
1025.3800504236
 30
0.0
 11
44.742949281
 21
1025.5230314299
 31
0.0
  0
LINE
  5
12C
330
75
100
AcDbEntity
  8
$DDT_AUDIT_GENERATED_(E6)
  6
Continuous
 62
     7
100
AcDbLine
 10
44.4676687497
 20
1025.3800504236
 30
0.0
 11
44.4676687497
 21
1025.5304721132
 31
0.0
  0
ELLIPSE
  5
12D
330
75
100
AcDbEntity
  8
$DDT_AUDIT_GENERATED_(E6)
  6
Continuous
 62
     7
100
AcDbEllipse
 10
42.9468493992
 20
1024.5363628392
 30
0.0
 11
6.249999962162651
 21
-3.714500929064002E-9
 31
0.0
210
0.0
220
0.0
230
1.0
 40
0.1391731006
 41
1.03119687055071
 42
1.063198236196405
  0
LINE
  5
12E
330
75
100
AcDbEntity
  8
$DDT_AUDIT_GENERATED_(E6)
  6
Continuous
 62
     7
100
AcDbLine
 10
46.1580518837
 20
1025.2826042547
 30
0.0
 11
46.7564830294
 21
1025.4268590039
 31
0.0
  0
LINE
  5
12F
330
75
100
AcDbEntity
  8
$DDT_AUDIT_GENERATED_(E6)
  6
Continuous
 62
     7
100
AcDbLine
 10
45.9848468029
 20
1025.2965215648
 30
0.0
 11
46.5750713223
 21
1025.4387980666
 31
0.0
  0
LINE
  5
130
330
75
100
AcDbEntity
  8
$DDT_AUDIT_GENERATED_(E6)
  6
Continuous
 62
     7
100
AcDbLine
 10
45.9848468029
 20
1025.2965215648
 30
0.0
 11
45.9848468029
 21
1025.4728950083
 31
0.0
  0
ELLIPSE
  5
131
330
75
100
AcDbEntity
  8
$DDT_AUDIT_GENERATED_(E6)
  6
Continuous
 62
     7
100
AcDbEllipse
 10
42.9468493465
 20
1024.5363628288
 30
0.0
 11
6.250000023822956
 21
2.246786090509545E-9
 31
0.0
210
0.0
220
0.0
230
1.0
 40
0.139173101
 41
0.769397479372952
 42
0.8013988447822348
  0
LINE
  5
132
330
75
100
AcDbEntity
  8
$DDT_AUDIT_GENERATED_(E6)
  6
Continuous
 62
     7
100
AcDbLine
 10
47.4364117078
 20
1025.1415070959
 30
0.0
 11
48.4243841021
 21
1025.2790062777
 31
0.0
  0
LINE
  5
133
330
75
100
AcDbEntity
  8
$DDT_AUDIT_GENERATED_(E6)
  6
Continuous
 62
     7
100
AcDbLine
 10
47.2949903516
 20
1025.1611891446
 30
0.0
 11
48.2664939344
 21
1025.2963963108
 31
0.0
  0
LINE
  5
134
330
75
100
AcDbEntity
  8
$DDT_AUDIT_GENERATED_(E6)
  6
Continuous
 62
     7
100
AcDbLine
 10
47.2949903516
 20
1025.1611891446
 30
0.0
 11
47.2949903516
 21
1025.387047287
 31
0.0
  0
ELLIPSE
  5
135
330
75
100
AcDbEntity
  8
$DDT_AUDIT_GENERATED_(E6)
  6
Continuous
 62
     7
100
AcDbEllipse
 10
42.9468493189
 20
1024.5363628279
 30
0.0
 11
6.25000005050171
 21
3.551089977626987E-9
 31
0.0
210
0.0
220
0.0
230
1.0
 40
0.1391731006
 41
0.507598090848322
 42
0.5395994561912268
  0
LINE
  5
136
330
75
100
AcDbEntity
  8
$DDT_AUDIT_GENERATED_(E6)
  6
Continuous
 62
     7
100
AcDbLine
 10
48.4088152779
 20
1024.9591703555
 30
0.0
 11
49.8509630117
 21
1025.0750492727
 31
0.0
  0
LINE
  5
137
330
75
100
AcDbEntity
  8
$DDT_AUDIT_GENERATED_(E6)
  6
Continuous
 62
     7
100
AcDbLine
 10
48.3088152779
 20
1024.9832758437
 30
0.0
 11
49.7261756039
 21
1025.0971630524
 31
0.0
  0
LINE
  5
138
330
75
100
AcDbEntity
  8
$DDT_AUDIT_GENERATED_(E6)
  6
Continuous
 62
     7
100
AcDbLine
 10
48.3088152779
 20
1024.9832758437
 30
0.0
 11
48.3088152779
 21
1025.262922206
 31
0.0
  0
ELLIPSE
  5
139
330
75
100
AcDbEntity
  8
$DDT_AUDIT_GENERATED_(E6)
  6
Continuous
 62
     7
100
AcDbEllipse
 10
42.9468493908
 20
1024.5363628327
 30
0.0
 11
6.249999978057241
 21
-7.858436124053013E-10
 31
0.0
210
0.0
220
0.0
230
1.0
 40
0.1391731012
 41
0.2457987054964656
 42
0.2778000710451849
  0
LINE
  5
13A
330
75
100
AcDbEntity
  8
$DDT_AUDIT_GENERATED_(E6)
  6
Continuous
 62
     7
100
AcDbLine
 10
49.0089948976
 20
1024.7480199811
 30
0.0
 11
50.9298439068
 21
1024.8196509762
 31
0.0
  0
LINE
  5
13B
330
75
100
AcDbEntity
  8
$DDT_AUDIT_GENERATED_(E6)
  6
Continuous
 62
     7
100
AcDbLine
 10
48.9572310886
 20
1024.7749061596
 30
0.0
 11
50.8471667892
 21
1024.8453843567
 31
0.0
  0
LINE
  5
13C
330
75
100
AcDbEntity
  8
$DDT_AUDIT_GENERATED_(E6)
  6
Continuous
 62
     7
100
AcDbLine
 10
48.9572310886
 20
1024.7749061596
 30
0.0
 11
48.9572310886
 21
1025.0032364583
 31
0.0
  0
ARC
  5
13D
330
75
100
AcDbEntity
  8
$DDT_AUDIT_GENERATED_(E6)
  6
Continuous
 62
     7
100
AcDbCircle
 10
51.281634715
 20
1024.5363628319
 30
0.0
 40
0.1652136269221915
100
AcDbArc
 50
355.1677761493
 51
4.8322238507
  0
ELLIPSE
  5
13E
330
75
100
AcDbEntity
  8
$DDT_AUDIT_GENERATED_(E6)
  6
Continuous
 62
     7
100
AcDbEllipse
 10
42.9468493689
 20
1024.5363628319
 30
0.0
 11
8.500000000026546
 21
-9.714451465470120E-14
 31
0.0
210
0.0
220
0.0
230
1.0
 40
0.139173101
 41
0.0117649772880648
 42
0.0585174152635557
  0
ARC
  5
13F
330
75
100
AcDbEntity
  8
$DDT_AUDIT_GENERATED_(E6)
  6
Continuous
 62
     7
100
AcDbCircle
 10
49.0750076138
 20
1024.5363628319
 30
0.0
 40
0.121839179241702
100
AcDbArc
 50
0.0
 51
6.5590350652
  0
LINE
  5
140
330
75
100
AcDbEntity
  8
$DDT_AUDIT_GENERATED_(E6)
  6
Continuous
 62
     7
100
AcDbLine
 10
49.1968493689
 20
1024.5224455218
 30
0.0
 11
51.4462611133
 21
1024.5224455218
 31
0.0
  0
LINE
  5
141
330
75
100
AcDbEntity
  8
$DDT_AUDIT_GENERATED_(E6)
  6
Continuous
 62
     7
100
AcDbLine
 10
49.1960493177
 20
1024.550280142
 30
0.0
 11
51.4462611133
 21
1024.550280142
 31
0.0
  0
LINE
  5
142
330
75
100
AcDbEntity
  8
$DDT_AUDIT_GENERATED_(E6)
  6
Continuous
 62
     7
100
AcDbLine
 10
49.1960493177
 20
1024.550280142
 30
0.0
 11
49.1960493177
 21
1024.7549954874
 31
0.0
  0
ELLIPSE
  5
143
330
75
100
AcDbEntity
  8
$DDT_AUDIT_GENERATED_(E6)
  6
Continuous
 62
     7
100
AcDbEllipse
 10
42.9468496064
 20
1024.5363628231
 30
0.0
 11
8.499999762414365
 21
8.707812249042490E-9
 31
0.0
210
0.0
220
0.0
230
1.0
 40
0.1391731027
 41
-0.273564369015558
 42
-0.2500344140992148
  0
ELLIPSE
  5
144
330
75
100
AcDbEntity
  8
$DDT_AUDIT_GENERATED_(E6)
  6
Continuous
 62
     7
100
AcDbEllipse
 10
42.9468493689
 20
1024.5363628319
 30
0.0
 11
8.500000000004547
 21
4.996003610813204E-13
 31
0.0
210
0.0
220
0.0
230
1.0
 40
0.139173101
 41
6.033150896668627
 42
6.271420329891503
  0
LINE
  5
145
330
75
100
AcDbEntity
  8
$DDT_AUDIT_GENERATED_(E6)
  6
Continuous
 62
     7
100
AcDbLine
 10
51.1825325856
 20
1024.2436515932
 30
0.0
 11
51.1825325856
 21
1024.5224455218
 31
0.0
  0
LINE
  5
146
330
75
100
AcDbEntity
  8
$DDT_AUDIT_GENERATED_(E6)
  6
Continuous
 62
     7
100
AcDbLine
 10
49.1869025952
 20
1024.2892547505
 30
0.0
 11
51.1307687765
 21
1024.2167654147
 31
0.0
  0
LINE
  5
147
330
75
100
AcDbEntity
  8
$DDT_AUDIT_GENERATED_(E6)
  6
Continuous
 62
     7
100
AcDbLine
 10
49.1951059405
 20
1024.3177653562
 30
0.0
 11
51.1825325856
 21
1024.2436515932
 31
0.0
  0
ELLIPSE
  5
148
330
75
100
AcDbEntity
  8
$DDT_AUDIT_GENERATED_(E6)
  6
Continuous
 62
     7
100
AcDbEllipse
 10
42.9468497777
 20
1024.5363627991
 30
0.0
 11
8.499999586999811
 21
2.899049056370728E-8
 31
0.0
210
0.0
220
0.0
230
1.0
 40
0.1391731029
 41
-0.5353637657110308
 42
-0.5118338104815177
  0
ELLIPSE
  5
149
330
75
100
AcDbEntity
  8
$DDT_AUDIT_GENERATED_(E6)
  6
Continuous
 62
     7
100
AcDbEllipse
 10
42.9468493689
 20
1024.5363628319
 30
0.0
 11
8.500000000029971
 21
-1.942890293094024E-12
 31
0.0
210
0.0
220
0.0
230
1.0
 40
0.139173101
 41
-0.5118337983092669
 42
-0.2735643650867496
  0
LINE
  5
14A
330
75
100
AcDbEntity
  8
$DDT_AUDIT_GENERATED_(E6)
  6
Continuous
 62
     7
100
AcDbLine
 10
50.3575558567
 20
1023.9569708316
 30
0.0
 11
50.3575558567
 21
1024.2455995451
 31
0.0
  0
LINE
  5
14B
330
75
100
AcDbEntity
  8
$DDT_AUDIT_GENERATED_(E6)
  6
Continuous
 62
     7
100
AcDbLine
 10
48.8361305818
 20
1024.0470791773
 30
0.0
 11
50.2575558567
 21
1023.9328653434
 31
0.0
  0
LINE
  5
14C
330
75
100
AcDbEntity
  8
$DDT_AUDIT_GENERATED_(E6)
  6
Continuous
 62
     7
100
AcDbLine
 10
48.9012879707
 20
1024.073984326
 30
0.0
 11
50.3575558567
 21
1023.9569708316
 31
0.0
  0
ELLIPSE
  5
14D
330
75
100
AcDbEntity
  8
$DDT_AUDIT_GENERATED_(E6)
  6
Continuous
 62
     7
100
AcDbEllipse
 10
42.9468497039
 20
1024.5363627853
 30
0.0
 11
8.499999644654551
 21
3.357734923437050E-8
 31
0.0
210
0.0
220
0.0
230
1.0
 40
0.139173101
 41
-0.7971631554995433
 42
-0.773633200267585
  0
ELLIPSE
  5
14E
330
75
100
AcDbEntity
  8
$DDT_AUDIT_GENERATED_(E6)
  6
Continuous
 62
     7
100
AcDbEllipse
 10
42.9468493689
 20
1024.5363628319
 30
0.0
 11
8.500000000024208
 21
-2.220446049250313E-12
 31
0.0
210
0.0
220
0.0
230
1.0
 40
0.139173101
 41
-0.7736331861082437
 42
-0.5353637528857078
  0
LINE
  5
14F
330
75
100
AcDbEntity
  8
$DDT_AUDIT_GENERATED_(E6)
  6
Continuous
 62
     7
100
AcDbLine
 10
49.0275517276
 20
1023.7097746773
 30
0.0
 11
49.0275517276
 21
1024.0316981768
 31
0.0
  0
LINE
  5
150
330
75
100
AcDbEntity
  8
$DDT_AUDIT_GENERATED_(E6)
  6
Continuous
 62
     7
100
AcDbLine
 10
47.9603855392
 20
1023.8189314076
 30
0.0
 11
48.8861303713
 21
1023.6900926286
 31
0.0
  0
LINE
  5
151
330
75
100
AcDbEntity
  8
$DDT_AUDIT_GENERATED_(E6)
  6
Continuous
 62
     7
100
AcDbLine
 10
48.0787336263
 20
1023.8418246347
 30
0.0
 11
49.0275517276
 21
1023.7097746773
 31
0.0
  0
ELLIPSE
  5
152
330
75
100
AcDbEntity
  8
$DDT_AUDIT_GENERATED_(E6)
  6
Continuous
 62
     7
100
AcDbEllipse
 10
42.9468496219
 20
1024.5363627709
 30
0.0
 11
8.499999683749898
 21
3.110717239351857E-8
 31
0.0
210
0.0
220
0.0
230
1.0
 40
0.1391730989
 41
-1.058962542224421
 42
-1.035432586947704
  0
ELLIPSE
  5
153
330
75
100
AcDbEntity
  8
$DDT_AUDIT_GENERATED_(E6)
  6
Continuous
 62
     7
100
AcDbEllipse
 10
42.9468493689
 20
1024.5363628319
 30
0.0
 11
8.50000000001261
 21
-1.221245327087672E-12
 31
0.0
210
0.0
220
0.0
230
1.0
 40
0.139173101
 41
-1.035432573907795
 42
-0.7971631406850843
  0
LINE
  5
154
330
75
100
AcDbEntity
  8
$DDT_AUDIT_GENERATED_(E6)
  6
Continuous
 62
     7
100
AcDbLine
 10
47.2831577815
 20
1023.5189091398
 30
0.0
 11
47.2831577815
 21
1023.7118921985
 31
0.0
  0
LINE
  5
155
330
75
100
AcDbEntity
  8
$DDT_AUDIT_GENERATED_(E6)
  6
Continuous
 62
     7
100
AcDbLine
 10
46.5864608471
 20
1023.6311820966
 30
0.0
 11
47.1099527007
 21
1023.5049918297
 31
0.0
  0
LINE
  5
156
330
75
100
AcDbEntity
  8
$DDT_AUDIT_GENERATED_(E6)
  6
Continuous
 62
     7
100
AcDbLine
 10
46.7482053283
 20
1023.6478620402
 30
0.0
 11
47.2831577815
 21
1023.5189091398
 31
0.0
  0
ELLIPSE
  5
157
330
75
100
AcDbEntity
  8
$DDT_AUDIT_GENERATED_(E6)
  6
Continuous
 62
     7
100
AcDbEllipse
 10
42.946849482
 20
1024.5363627732
 30
0.0
 11
8.499999767162377
 21
1.550387596083169E-8
 31
0.0
210
0.0
220
0.0
230
1.0
 40
0.1391730979
 41
-1.320761923268112
 42
-1.297231968087854
  0
ELLIPSE
  5
158
330
75
100
AcDbEntity
  8
$DDT_AUDIT_GENERATED_(E6)
  6
Continuous
 62
     7
100
AcDbEllipse
 10
42.9468493689
 20
1024.5363628319
 30
0.0
 11
8.499999999987223
 21
1.054711873393899E-12
 31
0.0
210
0.0
220
0.0
230
1.0
 40
0.139173101
 41
-1.297231961708285
 42
-1.05896252848498
  0
LINE
  5
159
330
75
100
AcDbEntity
  8
$DDT_AUDIT_GENERATED_(E6)
  6
Continuous
 62
     7
100
AcDbLine
 10
45.2432515831
 20
1023.3973813899
 30
0.0
 11
45.2432515831
 21
1023.5293191118
 31
0.0
  0
LINE
  5
15A
330
75
100
AcDbEntity
  8
$DDT_AUDIT_GENERATED_(E6)
  6
Continuous
 62
     7
100
AcDbLine
 10
44.8221529249
 20
1023.5085557754
 30
0.0
 11
45.0500664179
 21
1023.3901772601
 31
0.0
  0
LINE
  5
15B
330
75
100
AcDbEntity
  8
$DDT_AUDIT_GENERATED_(E6)
  6
Continuous
 62
     7
100
AcDbLine
 10
45.0122818932
 20
1023.5173472972
 30
0.0
 11
45.2432515831
 21
1023.3973813899
 31
0.0
  0
ARC
  5
15C
330
75
100
AcDbEntity
  8
$DDT_AUDIT_GENERATED_(E6)
  6
Continuous
 62
     7
100
AcDbCircle
 10
42.9468493689
 20
1061.5079539519
 30
0.0
 40
37.70225001067438
100
AcDbArc
 50
269.734053076
 51
270.265946924
  0
LINE
  5
15D
330
75
100
AcDbEntity
  8
$DDT_AUDIT_GENERATED_(E6)
  6
Continuous
 62
     7
100
AcDbLine
 10
42.7718493689
 20
1023.9563589178
 30
0.0
 11
42.7718493689
 21
1023.8061100862
 31
0.0
  0
LINE
  5
15E
330
75
100
AcDbEntity
  8
$DDT_AUDIT_GENERATED_(E6)
  6
Continuous
 62
     7
100
AcDbLine
 10
43.1218493689
 20
1023.9563589178
 30
0.0
 11
43.1218493689
 21
1023.8061100862
 31
0.0
  0
ELLIPSE
  5
15F
330
75
100
AcDbEntity
  8
$DDT_AUDIT_GENERATED_(E6)
  6
Continuous
 62
     7
100
AcDbEllipse
 10
42.9468493686
 20
1024.5363628319
 30
0.0
 11
-5.249999999657164
 21
3.028133299665114E-11
 31
0.0
210
0.0
220
0.0
230
1.0
 40
0.139173101
 41
1.013858041956728
 42
1.080537060482825
  0
LINE
  5
160
330
75
100
AcDbEntity
  8
$DDT_AUDIT_GENERATED_(E6)
  6
Continuous
 62
     7
100
AcDbLine
 10
40.8774952452
 20
1024.0862455033
 30
0.0
 11
40.1717536619
 21
1023.9161230493
 31
0.0
  0
LINE
  5
161
330
75
100
AcDbEntity
  8
$DDT_AUDIT_GENERATED_(E6)
  6
Continuous
 62
     7
100
AcDbLine
 10
41.1336187982
 20
1024.0505641655
 30
0.0
 11
40.4748625532
 21
1023.8917677566
 31
0.0
  0
LINE
  5
162
330
75
100
AcDbEntity
  8
$DDT_AUDIT_GENERATED_(E6)
  6
Continuous
 62
     7
100
AcDbLine
 10
40.1717536619
 20
1024.2852563064
 30
0.0
 11
40.1717536619
 21
1023.9161230493
 31
0.0
  0
ELLIPSE
  5
163
330
75
100
AcDbEntity
  8
$DDT_AUDIT_GENERATED_(E6)
  6
Continuous
 62
     7
100
AcDbEllipse
 10
42.9468493681
 20
1024.5363628319
 30
0.0
 11
-5.249999999224498
 21
5.408173908705294E-11
 31
0.0
210
0.0
220
0.0
230
1.0
 40
0.139173101
 41
0.4902592663721369
 42
0.5569382849004068
  0
LINE
  5
164
330
75
100
AcDbEntity
  8
$DDT_AUDIT_GENERATED_(E6)
  6
Continuous
 62
     7
100
AcDbLine
 10
40.1968493689
 20
1024.3435189264
 30
0.0
 11
38.3152426085
 21
1024.1923287612
 31
0.0
  0
LINE
  5
165
330
75
100
AcDbEntity
  8
$DDT_AUDIT_GENERATED_(E6)
  6
Continuous
 62
     7
100
AcDbLine
 10
40.2196691968
 20
1024.2891063976
 30
0.0
 11
38.4902426085
 21
1024.1501441569
 31
0.0
  0
LINE
  5
166
330
75
100
AcDbEntity
  8
$DDT_AUDIT_GENERATED_(E6)
  6
Continuous
 62
     7
100
AcDbLine
 10
38.3152426085
 20
1024.5120075392
 30
0.0
 11
38.3152426085
 21
1024.1923287612
 31
0.0
  0
LINE
  5
167
330
75
100
AcDbEntity
  8
$DDT_AUDIT_GENERATED_(E6)
  6
Continuous
 62
     7
100
AcDbLine
 10
40.2024231994
 20
1024.7287588711
 30
0.0
 11
40.2024231994
 21
1024.5607181246
 31
0.0
  0
ELLIPSE
  5
168
330
75
100
AcDbEntity
  8
$DDT_AUDIT_GENERATED_(E6)
  6
Continuous
 62
     7
100
AcDbEllipse
 10
42.9468493689
 20
1024.5363628319
 30
0.0
 11
2.749999999995068
 21
1.748601263784622E-12
 31
0.0
210
0.0
220
0.0
230
1.0
 40
0.139173101
 41
3.077913261332576
 42
3.141592653589977
  0
LINE
  5
169
330
75
100
AcDbEntity
  8
$DDT_AUDIT_GENERATED_(E6)
  6
Continuous
 62
     7
100
AcDbLine
 10
40.2024231994
 20
1024.5607181246
 30
0.0
 11
37.9459834771
 21
1024.5607181246
 31
0.0
  0
LINE
  5
16A
330
75
100
AcDbEntity
  8
$DDT_AUDIT_GENERATED_(E6)
  6
Continuous
 62
     7
100
AcDbLine
 10
40.1968493689
 20
1024.5120075392
 30
0.0
 11
37.8473580777
 21
1024.5120075392
 31
0.0
  0
LINE
  5
16B
330
75
100
AcDbEntity
  8
$DDT_AUDIT_GENERATED_(E6)
  6
Continuous
 62
     7
100
AcDbLine
 10
40.6576065873
 20
1024.9958467798
 30
0.0
 11
40.6576065873
 21
1024.7484302843
 31
0.0
  0
ELLIPSE
  5
16C
330
75
100
AcDbEntity
  8
$DDT_AUDIT_GENERATED_(E6)
  6
Continuous
 62
     7
100
AcDbEllipse
 10
42.9468493689
 20
1024.5363628319
 30
0.0
 11
-2.749999999995429
 21
-1.013078509970455E-12
 31
0.0
210
0.0
220
0.0
230
1.0
 40
0.139173101
 41
-0.5872781678558772
 42
-0.4599193833417523
  0
LINE
  5
16D
330
75
100
AcDbEntity
  8
$DDT_AUDIT_GENERATED_(E6)
  6
Continuous
 62
     7
100
AcDbLine
 10
40.6576065873
 20
1024.7484302843
 30
0.0
 11
39.2703466487
 21
1024.8598988778
 31
0.0
  0
LINE
  5
16E
330
75
100
AcDbEntity
  8
$DDT_AUDIT_GENERATED_(E6)
  6
Continuous
 62
     7
100
AcDbLine
 10
40.4826065873
 20
1024.7062456799
 30
0.0
 11
39.0221019306
 21
1024.8235996058
 31
0.0
  0
LINE
  5
16F
330
75
100
AcDbEntity
  8
$DDT_AUDIT_GENERATED_(E6)
  6
Continuous
 62
     7
100
AcDbLine
 10
41.7261907298
 20
1025.0489441953
 30
0.0
 11
41.7261907298
 21
1024.8793191413
 31
0.0
  0
ELLIPSE
  5
170
330
75
100
AcDbEntity
  8
$DDT_AUDIT_GENERATED_(E6)
  6
Continuous
 62
     7
100
AcDbEllipse
 10
42.9468493689
 20
1024.5363628319
 30
0.0
 11
-2.74999999999516
 21
-4.024558464266193E-13
 31
0.0
210
0.0
220
0.0
230
1.0
 40
0.139173101
 41
-1.110876943454279
 42
-0.9835181589400435
  0
LINE
  5
171
330
75
100
AcDbEntity
  8
$DDT_AUDIT_GENERATED_(E6)
  6
Continuous
 62
     7
100
AcDbLine
 10
41.7261907298
 20
1024.8793191413
 30
0.0
 11
41.1273096695
 21
1025.0236823446
 31
0.0
  0
LINE
  5
172
330
75
100
AcDbEntity
  8
$DDT_AUDIT_GENERATED_(E6)
  6
Continuous
 62
     7
100
AcDbLine
 10
41.4230818385
 20
1024.8549638487
 30
0.0
 11
40.8002481851
 21
1025.0051009414
 31
0.0
  0
ARC
  5
173
330
75
100
AcDbEntity
  8
$DDT_AUDIT_GENERATED_(E6)
  6
Continuous
 62
     7
100
AcDbCircle
 10
42.9468493689
 20
1005.1987972876
 30
0.0
 40
19.72029234443987
100
AcDbArc
 50
89.4915444028
 51
90.5084555972
  0
LINE
  5
174
330
75
100
AcDbEntity
  8
$DDT_AUDIT_GENERATED_(E6)
  6
Continuous
 62
     7
100
AcDbLine
 10
43.1218493689
 20
1024.9183131323
 30
0.0
 11
43.1218493689
 21
1025.0685619638
 31
0.0
  0
LINE
  5
175
330
75
100
AcDbEntity
  8
$DDT_AUDIT_GENERATED_(E6)
  6
Continuous
 62
     7
100
AcDbLine
 10
42.7718493689
 20
1024.9183131323
 30
0.0
 11
42.7718493689
 21
1025.0685619638
 31
0.0
  0
ELLIPSE
  5
176
330
75
100
AcDbEntity
  8
$DDT_AUDIT_GENERATED_(E6)
  6
Continuous
 62
     7
100
AcDbEllipse
 10
42.9468493689
 20
1024.5363628319
 30
0.0
 11
2.749999999995874
 21
-3.469446951953614E-13
 31
0.0
210
0.0
220
0.0
230
1.0
 40
0.139173101
 41
0.9835181589401416
 42
1.110876943454336
  0
LINE
  5
177
330
75
100
AcDbEntity
  8
$DDT_AUDIT_GENERATED_(E6)
  6
Continuous
 62
     7
100
AcDbLine
 10
44.167508008
 20
1025.0489441953
 30
0.0
 11
44.167508008
 21
1024.8793191413
 31
0.0
  0
LINE
  5
178
330
75
100
AcDbEntity
  8
$DDT_AUDIT_GENERATED_(E6)
  6
Continuous
 62
     7
100
AcDbLine
 10
44.4706168993
 20
1024.8549638487
 30
0.0
 11
45.0934505527
 21
1025.0051009414
 31
0.0
  0
LINE
  5
179
330
75
100
AcDbEntity
  8
$DDT_AUDIT_GENERATED_(E6)
  6
Continuous
 62
     7
100
AcDbLine
 10
44.167508008
 20
1024.8793191413
 30
0.0
 11
44.7663890683
 21
1025.0236823446
 31
0.0
  0
ELLIPSE
  5
17A
330
75
100
AcDbEntity
  8
$DDT_AUDIT_GENERATED_(E6)
  6
Continuous
 62
     7
100
AcDbEllipse
 10
42.9468493689
 20
1024.5363628319
 30
0.0
 11
2.750000000019287
 21
6.800116025829083E-13
 31
0.0
210
0.0
220
0.0
230
1.0
 40
0.139173101
 41
0.4599193833397329
 42
0.5872781678533441
  0
LINE
  5
17B
330
75
100
AcDbEntity
  8
$DDT_AUDIT_GENERATED_(E6)
  6
Continuous
 62
     7
100
AcDbLine
 10
45.2360921505
 20
1024.9958467798
 30
0.0
 11
45.2360921505
 21
1024.7484302843
 31
0.0
  0
LINE
  5
17C
330
75
100
AcDbEntity
  8
$DDT_AUDIT_GENERATED_(E6)
  6
Continuous
 62
     7
100
AcDbLine
 10
45.4110921505
 20
1024.7062456799
 30
0.0
 11
46.8715968073
 21
1024.8235996058
 31
0.0
  0
LINE
  5
17D
330
75
100
AcDbEntity
  8
$DDT_AUDIT_GENERATED_(E6)
  6
Continuous
 62
     7
100
AcDbLine
 10
45.2360921505
 20
1024.7484302843
 30
0.0
 11
46.6233520891
 21
1024.8598988778
 31
0.0
  0
ELLIPSE
  5
17E
330
75
100
AcDbEntity
  8
$DDT_AUDIT_GENERATED_(E6)
  6
Continuous
 62
     7
100
AcDbEllipse
 10
42.9468493689
 20
1024.5363628319
 30
0.0
 11
-2.749999999997305
 21
0.0
 31
0.0
210
0.0
220
0.0
230
1.0
 40
0.139173101
 41
3.141592653589793
 42
3.205272045846806
  0
LINE
  5
17F
330
75
100
AcDbEntity
  8
$DDT_AUDIT_GENERATED_(E6)
  6
Continuous
 62
     7
100
AcDbLine
 10
45.6912755384
 20
1024.7287588711
 30
0.0
 11
45.6912755384
 21
1024.5607181246
 31
0.0
  0
LINE
  5
180
330
75
100
AcDbEntity
  8
$DDT_AUDIT_GENERATED_(E6)
  6
Continuous
 62
     7
100
AcDbLine
 10
45.6968493689
 20
1024.5120075392
 30
0.0
 11
48.0463406601
 21
1024.5120075392
 31
0.0
  0
LINE
  5
181
330
75
100
AcDbEntity
  8
$DDT_AUDIT_GENERATED_(E6)
  6
Continuous
 62
     7
100
AcDbLine
 10
45.6912755384
 20
1024.5607181246
 30
0.0
 11
47.9477152607
 21
1024.5607181246
 31
0.0
  0
ELLIPSE
  5
182
330
75
100
AcDbEntity
  8
$DDT_AUDIT_GENERATED_(E6)
  6
Continuous
 62
     7
100
AcDbEllipse
 10
42.9468493697
 20
1024.5363628319
 30
0.0
 11
5.249999999231195
 21
5.358213872597162E-11
 31
0.0
210
0.0
220
0.0
230
1.0
 40
0.139173101
 41
-0.5569382849000588
 42
-0.4902592663718117
  0
LINE
  5
183
330
75
100
AcDbEntity
  8
$DDT_AUDIT_GENERATED_(E6)
  6
Continuous
 62
     7
100
AcDbLine
 10
45.674029541
 20
1024.2891063976
 30
0.0
 11
47.4034561293
 21
1024.1501441569
 31
0.0
  0
LINE
  5
184
330
75
100
AcDbEntity
  8
$DDT_AUDIT_GENERATED_(E6)
  6
Continuous
 62
     7
100
AcDbLine
 10
45.6968493689
 20
1024.3435189264
 30
0.0
 11
47.5784561293
 21
1024.1923287612
 31
0.0
  0
LINE
  5
185
330
75
100
AcDbEntity
  8
$DDT_AUDIT_GENERATED_(E6)
  6
Continuous
 62
     7
100
AcDbLine
 10
47.5784561293
 20
1024.5120075392
 30
0.0
 11
47.5784561293
 21
1024.1923287612
 31
0.0
  0
ELLIPSE
  5
186
330
75
100
AcDbEntity
  8
$DDT_AUDIT_GENERATED_(E6)
  6
Continuous
 62
     7
100
AcDbEllipse
 10
42.94684937
 20
1024.5363628316
 30
0.0
 11
5.249999998624508
 21
1.351002643090737E-10
 31
0.0
210
0.0
220
0.0
230
1.0
 40
0.1391731009
 41
-1.080537060559254
 42
-1.013858042022683
  0
LINE
  5
187
330
75
100
AcDbEntity
  8
$DDT_AUDIT_GENERATED_(E6)
  6
Continuous
 62
     7
100
AcDbLine
 10
44.7600799397
 20
1024.0505641655
 30
0.0
 11
45.4188361846
 21
1023.8917677566
 31
0.0
  0
LINE
  5
188
330
75
100
AcDbEntity
  8
$DDT_AUDIT_GENERATED_(E6)
  6
Continuous
 62
     7
100
AcDbLine
 10
45.0162034926
 20
1024.0862455033
 30
0.0
 11
45.7219450759
 21
1023.9161230493
 31
0.0
  0
LINE
  5
189
330
75
100
AcDbEntity
  8
$DDT_AUDIT_GENERATED_(E6)
  6
Continuous
 62
     7
100
AcDbLine
 10
45.7219450759
 20
1024.2852563064
 30
0.0
 11
45.7219450759
 21
1023.9161230493
 31
0.0
  0
LINE
  5
18A
330
75
100
AcDbEntity
  8
$DDT_AUDIT_GENERATED_(E6)
  6
Continuous
 62
     7
100
AcDbLine
 10
33.9468493689
 20
1025.4063697767
 30
0.0
 11
33.9468493689
 21
1024.3383092182
 31
0.0
  0
LINE
  5
18B
330
75
100
AcDbEntity
  8
$DDT_AUDIT_GENERATED_(E6)
  6
Continuous
 62
     7
100
AcDbLine
 10
51.9468493689
 20
1024.3383092182
 30
0.0
 11
51.9468493689
 21
1025.4063697767
 31
0.0
  0
LINE
  5
18C
330
75
100
AcDbEntity
  8
$DDT_AUDIT_GENERATED_(E6)
  6
Continuous
 62
     7
100
AcDbLine
 10
36.6968493689
 20
1024.5363628319
 30
0.0
 11
36.6968493689
 21
1024.3383092182
 31
0.0
  0
LINE
  5
18D
330
75
100
AcDbEntity
  8
$DDT_AUDIT_GENERATED_(E6)
  6
Continuous
 62
     7
100
AcDbLine
 10
49.1968493689
 20
1024.3383092182
 30
0.0
 11
49.1968493689
 21
1024.5363628319
 31
0.0
  0
LINE
  5
18E
330
75
100
AcDbEntity
  8
$DDT_AUDIT_GENERATED_(E6)
  6
Continuous
 62
     7
100
AcDbLine
 10
40.1968493689
 20
1024.5363628319
 30
0.0
 11
40.1968493689
 21
1024.3383092182
 31
0.0
  0
LINE
  5
18F
330
75
100
AcDbEntity
  8
$DDT_AUDIT_GENERATED_(E6)
  6
Continuous
 62
     7
100
AcDbLine
 10
45.6968493689
 20
1024.3383092182
 30
0.0
 11
45.6968493689
 21
1024.5363628319
 31
0.0
  0
LINE
  5
190
330
75
100
AcDbEntity
  8
$DDT_AUDIT_GENERATED_(E6)
  6
Continuous
 62
     7
100
AcDbLine
 10
42.427219425
 20
1024.628660623
 30
0.0
 11
42.427219425
 21
1024.5363628319
 31
0.0
  0
LINE
  5
191
330
75
100
AcDbEntity
  8
$DDT_AUDIT_GENERATED_(E6)
  6
Continuous
 62
     7
100
AcDbLine
 10
43.4664793128
 20
1024.5363628319
 30
0.0
 11
43.4664793128
 21
1024.628660623
 31
0.0
  0
ENDBLK
  5
193
330
75
100
AcDbEntity
  8
0
100
AcDbBlockEnd
  0
BLOCK
  5
1EE
330
194
100
AcDbEntity
  8
0
100
AcDbBlockBegin
  2
SE1
 70
     0
 10
0.0
 20
0.0
 30
0.0
  3
SE1
  1

  0
LINE
  5
196
330
194
100
AcDbEntity
  8
$DDT_AUDIT_GENERATED_(77)
  6
Continuous
 62
     7
100
AcDbLine
 10
138.7038515162
 20
969.9686231165
 30
0.0
 11
196.7038515162
 21
969.9686231165
 31
0.0
  0
LINE
  5
197
330
194
100
AcDbEntity
  8
$DDT_AUDIT_GENERATED_(77)
  6
Continuous
 62
     7
100
AcDbLine
 10
138.7038515162
 20
901.9686231165
 30
0.0
 11
196.7038515162
 21
901.9686231165
 31
0.0
  0
ARC
  5
198
330
194
100
AcDbEntity
  8
$DDT_AUDIT_GENERATED_(77)
  6
Continuous
 62
     7
100
AcDbCircle
 10
109.7702653649
 20
963.1686231167
 30
0.0
 40
29.00262759774629
100
AcDbArc
 50
356.0457869831
 51
3.9542132731
  0
LINE
  5
199
330
194
100
AcDbEntity
  8
$DDT_AUDIT_GENERATED_(77)
  6
Continuous
 62
     7
100
AcDbLine
 10
196.7038515162
 20
901.9686231165
 30
0.0
 11
196.7038515162
 21
932.074811425
 31
0.0
  0
LINE
  5
19A
330
194
100
AcDbEntity
  8
$DDT_AUDIT_GENERATED_(77)
  6
Continuous
 62
     7
100
AcDbLine
 10
196.7038515162
 20
953.9873926901
 30
0.0
 11
196.7038515162
 21
969.9686231165
 31
0.0
  0
LINE
  5
19B
330
194
100
AcDbEntity
  8
$DDT_AUDIT_GENERATED_(77)
  6
Continuous
 62
     7
100
AcDbLine
 10
138.7038515162
 20
961.1932769455
 30
0.0
 11
138.7038515162
 21
901.9686231165
 31
0.0
  0
LINE
  5
19C
330
194
100
AcDbEntity
  8
$DDT_AUDIT_GENERATED_(77)
  6
Continuous
 62
     7
100
AcDbLine
 10
138.7038515162
 20
969.9686231165
 30
0.0
 11
138.7038515162
 21
965.1686231165
 31
0.0
  0
ARC
  5
19D
330
194
100
AcDbEntity
  8
$DDT_AUDIT_GENERATED_(7D)
  6
Continuous
 62
     7
100
AcDbCircle
 10
390.9009670236
 20
1040.8700644732
 30
0.0
 40
1.000000000010032
100
AcDbArc
 50
9.7725967937
 51
102.6051519947
  0
ARC
  5
19E
330
194
100
AcDbEntity
  8
$DDT_AUDIT_GENERATED_(7D)
  6
Continuous
 62
     7
100
AcDbCircle
 10
419.0498283949
 20
958.9570373608
 30
0.0
 40
98.49967801296333
100
AcDbArc
 50
97.8935746234
 51
97.9864566882
  0
ARC
  5
19F
330
194
100
AcDbEntity
  8
$DDT_AUDIT_GENERATED_(7D)
  6
Continuous
 62
     7
100
AcDbCircle
 10
392.0835540551
 20
1041.0737502924
 30
0.0
 40
0.2000000000000387
100
AcDbArc
 50
189.7725967932
 51
277.9999999998
  0
ARC
  5
1A0
330
194
100
AcDbEntity
  8
$DDT_AUDIT_GENERATED_(7D)
  6
Continuous
 62
     7
100
AcDbCircle
 10
-47.3046792233
 20
1149.6805215615
 30
0.0
 40
312.6934307424834
100
AcDbArc
 50
320.3712110021
 51
321.3067611418
  0
ARC
  5
1A1
330
194
100
AcDbEntity
  8
$DDT_AUDIT_GENERATED_(7D)
  6
Continuous
 62
     7
100
AcDbCircle
 10
203.7273020441
 20
943.6906727859
 30
0.0
 40
12.12035672632301
100
AcDbArc
 50
147.2853158504
 51
191.1973578508
  0
LINE
  5
1A2
330
194
100
AcDbEntity
  8
$DDT_AUDIT_GENERATED_(7D)
  6
Continuous
 62
     7
100
AcDbLine
 10
422.4104214177
 20
1045.1339480309
 30
0.0
 11
392.1463837189
 21
1040.8806149113
 31
0.0
  0
LINE
  5
1A3
330
194
100
AcDbEntity
  8
$DDT_AUDIT_GENERATED_(7D)
  6
Continuous
 62
     7
100
AcDbLine
 10
379.9378440402
 20
1039.1648165543
 30
0.0
 11
390.6827360294
 21
1041.845961616
 31
0.0
  0
SPLINE
  5
1A4
330
194
100
AcDbEntity
  8
$DDT_AUDIT_GENERATED_(7D)
  6
Continuous
 62
     7
100
AcDbSpline
210
0.0
220
0.0
230
1.0
 70
     8
 71
     3
 72
    10
 73
     6
 74
     0
 42
0.0000000007476224
 43
0.0000000001
 40
0.0
 40
0.0
 40
0.0
 40
0.0
 40
0.5000000000000001
 40
0.5000000000000001
 40
1.0
 40
1.0
 40
1.0
 40
1.0
 10
418.5535690243962
 20
1058.45543888723
 30
0.0
 10
416.3241181115761
 20
1058.443504216206
 30
0.0
 10
414.0966416354115
 20
1058.358010959884
 30
0.0
 10
409.6520314027763
 20
1058.037294752599
 30
0.0
 10
407.4331212233216
 20
1057.801931173776
 30
0.0
 10
405.225207077877
 20
1057.491629076791
 30
0.0
  0
SPLINE
  5
1A5
330
194
100
AcDbEntity
  8
$DDT_AUDIT_GENERATED_(7D)
  6
Continuous
 62
     7
100
AcDbSpline
210
0.0
220
0.0
230
1.0
 70
     8
 71
     3
 72
    16
 73
    12
 74
     0
 42
0.000000000042999
 43
0.0000000001
 40
0.0
 40
0.0
 40
0.0
 40
0.0
 40
0.2499999999999999
 40
0.2499999999999999
 40
0.3749999999999998
 40
0.3749999999999998
 40
0.4999999999999998
 40
0.4999999999999998
 40
0.7499999999999999
 40
0.7499999999999999
 40
1.0
 40
1.0
 40
1.0
 40
1.0
 10
405.225207077877
 20
1057.491629076791
 30
0.0
 10
385.9527911303214
 20
1054.783058312071
 30
0.0
 10
367.4171088964409
 20
1049.502022122825
 30
0.0
 10
340.349552252317
 20
1039.010680585624
 30
0.0
 10
331.45315579825
 20
1035.080376453574
 30
0.0
 10
313.9958813729879
 20
1026.601033419165
 30
0.0
 10
305.4406818659233
 20
1022.057492742687
 30
0.0
 10
280.1704327742984
 20
1007.73420415387
 30
0.0
 10
263.8267699011981
 20
997.2602622401771
 30
0.0
 10
231.8527423809175
 20
975.3546173827585
 30
0.0
 10
216.2143910936596
 20
963.9124976266631
 30
0.0
 10
200.7634920790007
 20
952.2073157313109
 30
0.0
  0
SPLINE
  5
1A6
330
194
100
AcDbEntity
  8
$DDT_AUDIT_GENERATED_(7D)
  6
Continuous
 62
     7
100
AcDbSpline
210
0.0
220
0.0
230
1.0
 70
     8
 71
     3
 72
    20
 73
    16
 74
     0
 42
0.0000000027779355
 43
0.0000000001
 40
0.0
 40
0.0
 40
0.0
 40
0.0
 40
0.25
 40
0.25
 40
0.375
 40
0.375
 40
0.5
 40
0.5
 40
0.625
 40
0.625
 40
0.75
 40
0.75
 40
0.875
 40
0.875
 40
1.0
 40
1.0
 40
1.0
 40
1.0
 10
418.5535690243962
 20
1058.45543888723
 30
0.0
 10
418.8555344617583
 20
1058.457055365141
 30
0.0
 10
419.1509988686157
 20
1058.404833662687
 30
0.0
 10
419.5742261785682
 20
1058.248511100501
 30
0.0
 10
419.7088115060455
 20
1058.184451640922
 30
0.0
 10
419.9653746777148
 20
1058.033116451209
 30
0.0
 10
420.0884399972008
 20
1057.944836614292
 30
0.0
 10
420.3153303041784
 20
1057.748700777584
 30
0.0
 10
420.418780916815
 20
1057.641581094652
 30
0.0
 10
420.6060404719937
 20
1057.409552840208
 30
0.0
 10
420.6904908357038
 20
1057.283240097051
 30
0.0
 10
420.8336735928639
 20
1057.020533992642
 30
0.0
 10
420.8929266535737
 20
1056.883985163761
 30
0.0
 10
420.9869020126613
 20
1056.600557381249
 30
0.0
 10
421.0216162751514
 20
1056.452870785977
 30
0.0
 10
421.0426217847728
 20
1056.303407432358
 30
0.0
  0
LINE
  5
1A7
330
194
100
AcDbEntity
  8
$DDT_AUDIT_GENERATED_(7D)
  6
Continuous
 62
     7
100
AcDbLine
 10
421.0426217848
 20
1056.3034074324
 30
0.0
 11
422.5806404113
 21
1045.3598362648
 31
0.0
  0
ARC
  5
1A8
330
194
100
AcDbEntity
  8
$DDT_AUDIT_GENERATED_(7D)
  6
Continuous
 62
     7
100
AcDbCircle
 10
422.3825867975
 20
1045.3320016447
 30
0.0
 40
0.2000000000000131
100
AcDbArc
 50
278.0
 51
8.0
  0
ARC
  5
1A9
330
194
100
AcDbEntity
  8
$DDT_AUDIT_GENERATED_(7D)
  6
Continuous
 62
     7
100
AcDbCircle
 10
222.0806699993
 20
950.8482924891
 30
0.0
 40
31.70336436962638
100
AcDbArc
 50
197.4580800461
 51
216.977814468
  0
SPLINE
  5
1AA
330
194
100
AcDbEntity
  8
$DDT_AUDIT_GENERATED_(7D)
  6
Continuous
 62
     7
100
AcDbSpline
210
0.0
220
0.0
230
1.0
 70
     8
 71
     3
 72
    26
 73
    22
 74
     0
 42
0.0000000017978341
 43
0.0000000001
 40
0.0
 40
0.0
 40
0.0
 40
0.0
 40
0.1250000000000055
 40
0.1250000000000055
 40
0.1875000000000063
 40
0.1875000000000063
 40
0.2500000000000072
 40
0.2500000000000072
 40
0.3750000000000055
 40
0.3750000000000055
 40
0.5000000000000038
 40
0.5000000000000038
 40
0.6250000000000021
 40
0.6250000000000021
 40
0.6875000000000019
 40
0.6875000000000019
 40
0.7500000000000016
 40
0.7500000000000016
 40
0.8750000000000009
 40
0.8750000000000009
 40
1.0
 40
1.0
 40
1.0
 40
1.0
 10
196.7538515162091
 20
954.200048872291
 30
0.0
 10
196.7538515162091
 20
953.9668508226442
 30
0.0
 10
196.7858561426752
 20
953.7391032532207
 30
0.0
 10
196.8806709371055
 20
953.4054534117909
 30
0.0
 10
196.9204984738383
 20
953.2951824347176
 30
0.0
 10
197.0137903125299
 20
953.0840535793084
 30
0.0
 10
197.0674213087389
 20
952.982360203599
 30
0.0
 10
197.2490882105196
 20
952.6887927483481
 30
0.0
 10
197.3996995561237
 20
952.5074247358783
 30
0.0
 10
197.7395000014462
 20
952.1976514472054
 30
0.0
 10
197.9323899405039
 20
952.0650733140487
 30
0.0
 10
198.3500496949131
 20
951.8575024803968
 30
0.0
 10
198.5682423879072
 20
951.7848030979012
 30
0.0
 10
198.9092248639515
 20
951.7212184066428
 30
0.0
 10
199.0256983599493
 20
951.7078077468245
 30
0.0
 10
199.2562849596048
 20
951.6973875351282
 30
0.0
 10
199.3712204425516
 20
951.7001554183385
 30
0.0
 10
199.7149627288982
 20
951.7321859438623
 30
0.0
 10
199.9444085631822
 20
951.7863407451321
 30
0.0
 10
200.3730410017535
 20
951.9527681035206
 30
0.0
 10
200.5776114862234
 20
952.066497637347
 30
0.0
 10
200.7634920790007
 20
952.2073157313109
 30
0.0
  0
SPLINE
  5
1AB
330
194
100
AcDbEntity
  8
$DDT_AUDIT_GENERATED_(7D)
  6
Continuous
 62
     7
100
AcDbSpline
210
0.0
220
0.0
230
1.0
 70
     8
 71
     3
 72
    16
 73
    12
 74
     0
 42
0.000000000047211
 43
0.0000000001
 40
0.0
 40
0.0
 40
0.0
 40
0.0
 40
0.125
 40
0.125
 40
0.25
 40
0.25
 40
0.5
 40
0.5
 40
0.75
 40
0.75
 40
1.0
 40
1.0
 40
1.0
 40
1.0
 10
379.9378440402037
 20
1039.164816554307
 30
0.0
 10
371.4053667673307
 20
1036.818185866267
 30
0.0
 10
363.033031772878
 20
1034.007922349961
 30
0.0
 10
346.5421914429409
 20
1027.652525276645
 30
0.0
 10
338.4329131906543
 20
1024.109351961423
 30
0.0
 10
314.5699808888918
 20
1012.694705881395
 30
0.0
 10
299.1942399891507
 20
1004.018048239182
 30
0.0
 10
269.1570457995459
 20
985.4346072841458
 30
0.0
 10
254.5503680635368
 20
975.5561690357938
 30
0.0
 10
225.8220422823648
 20
955.1084399900972
 30
0.0
 10
211.7032630529517
 20
944.5350629920298
 30
0.0
 10
197.7272637993632
 20
933.7583171856091
 30
0.0
  0
SPLINE
  5
1AC
330
194
100
AcDbEntity
  8
$DDT_AUDIT_GENERATED_(7D)
  6
Continuous
 62
     7
100
AcDbSpline
210
0.0
220
0.0
230
1.0
 70
     8
 71
     3
 72
    12
 73
     8
 74
     0
 42
0.0000000043530638
 43
0.0000000001
 40
0.0
 40
0.0
 40
0.0
 40
0.0
 40
0.2500000000000089
 40
0.2500000000000089
 40
0.5000000000000179
 40
0.5000000000000179
 40
1.0
 40
1.0
 40
1.0
 40
1.0
 10
197.7272637993632
 20
933.7583171856091
 30
0.0
 10
197.5752241806092
 20
933.6410810371171
 30
0.0
 10
197.4394557776008
 20
933.5088304264451
 30
0.0
 10
197.1992599757001
 20
933.2154089124605
 30
0.0
 10
197.0944259444575
 20
933.052424789073
 30
0.0
 10
196.843411237015
 20
932.5423524510431
 30
0.0
 10
196.7538515162092
 20
932.1625179513666
 30
0.0
 10
196.7538515162091
 20
931.778536909209
 30
0.0
  0
LINE
  5
1AD
330
194
100
AcDbEntity
  8
$DDT_AUDIT_GENERATED_(96)
  6
Continuous
 62
     7
100
AcDbLine
 10
395.5032283368
 20
1040.4435438406
 30
0.0
 11
419.2696619866
 21
1043.7836982636
 31
0.0
  0
LINE
  5
1AE
330
194
100
AcDbEntity
  8
$DDT_AUDIT_GENERATED_(96)
  6
Continuous
 62
     7
100
AcDbLine
 10
392.6547353569
 20
1040.9520590748
 30
0.0
 11
395.5032283368
 21
1040.4435438406
 31
0.0
  0
LINE
  5
1AF
330
194
100
AcDbEntity
  8
$DDT_AUDIT_GENERATED_(96)
  6
Continuous
 62
     7
100
AcDbLine
 10
419.2696619866
 20
1043.7836982636
 30
0.0
 11
421.8676433848
 21
1045.0576655531
 31
0.0
  0
LINE
  5
1B0
330
194
100
AcDbEntity
  8
$DDT_AUDIT_GENERATED_(96)
  6
Continuous
 62
     7
100
AcDbLine
 10
417.7548196271
 20
1043.0658872677
 30
0.0
 11
417.6852330767
 21
1043.5610213021
 31
0.0
  0
LINE
  5
1B1
330
194
100
AcDbEntity
  8
$DDT_AUDIT_GENERATED_(96)
  6
Continuous
 62
     7
100
AcDbLine
 10
397.0876572468
 20
1040.6662208021
 30
0.0
 11
397.1572437973
 21
1040.1710867677
 31
0.0
  0
LINE
  5
1B2
330
194
100
AcDbEntity
  8
$DDT_AUDIT_GENERATED_(A0)
  6
Continuous
 62
     7
100
AcDbLine
 10
196.2038515162
 20
970.0686231165
 30
0.0
 11
196.2038515162
 21
970.4686231165
 31
0.0
  0
LINE
  5
1B3
330
194
100
AcDbEntity
  8
$DDT_AUDIT_GENERATED_(A0)
  6
Continuous
 62
     7
100
AcDbLine
 10
139.2038515162
 20
970.4686231165
 30
0.0
 11
139.2038515162
 21
970.0686231165
 31
0.0
  0
ARC
  5
1B4
330
194
100
AcDbEntity
  8
$DDT_AUDIT_GENERATED_(A0)
  6
Continuous
 62
     7
100
AcDbCircle
 10
139.3038515162
 20
970.4686231165
 30
0.0
 40
0.1000000000000029
100
AcDbArc
 50
90.0
 51
180.0
  0
ARC
  5
1B5
330
194
100
AcDbEntity
  8
$DDT_AUDIT_GENERATED_(A0)
  6
Continuous
 62
     7
100
AcDbCircle
 10
196.1038515162
 20
970.4686231165
 30
0.0
 40
0.0999999999999994
100
AcDbArc
 50
0.0
 51
90.0
  0
ARC
  5
1B6
330
194
100
AcDbEntity
  8
$DDT_AUDIT_GENERATED_(A0)
  6
Continuous
 62
     7
100
AcDbCircle
 10
196.1038515162
 20
970.0686231165
 30
0.0
 40
0.1000000000000029
100
AcDbArc
 50
270.0
 51
0.0
  0
ARC
  5
1B7
330
194
100
AcDbEntity
  8
$DDT_AUDIT_GENERATED_(A0)
  6
Continuous
 62
     7
100
AcDbCircle
 10
139.3038515162
 20
970.0686231165
 30
0.0
 40
0.0999999999999994
100
AcDbArc
 50
180.0
 51
270.0
  0
ARC
  5
1B8
330
194
100
AcDbEntity
  8
$DDT_AUDIT_GENERATED_(A7)
  6
Continuous
 62
     7
100
AcDbCircle
 10
162.159676224
 20
508.7286800856
 30
0.0
 40
537.781402656216
100
AcDbArc
 50
80.3536684585
 51
86.5763358313
  0
ELLIPSE
  5
1B9
330
194
100
AcDbEntity
  8
$DDT_AUDIT_GENERATED_(A7)
  6
Continuous
 62
     7
100
AcDbEllipse
 10
252.3625290131
 20
1039.3689460208
 30
0.0
 11
0.08203126677035211
 21
0.4932249702437053
 31
0.0
210
0.0
220
0.0
230
1.0
 40
0.0706587324
 41
2.799089173601158
 42
3.142015899660784
  0
ELLIPSE
  5
1BA
330
194
100
AcDbEntity
  8
$DDT_AUDIT_GENERATED_(A7)
  6
Continuous
 62
     7
100
AcDbEllipse
 10
252.6809179096
 20
1039.3188317529
 30
0.0
 11
0.07290163039409826
 21
0.4946568025266663
 31
0.0
210
0.0
220
0.0
230
0.9999999999999999
 40
0.0709813694
 41
3.067695558191012
 42
3.143044605033024
  0
ARC
  5
1BB
330
194
100
AcDbEntity
  8
$DDT_AUDIT_GENERATED_(A7)
  6
Continuous
 62
     7
100
AcDbCircle
 10
254.5415625164
 20
1051.2718959054
 30
0.0
 40
12.58272560821702
100
AcDbArc
 50
261.1316813924
 51
266.3858797175
  0
ARC
  5
1BC
330
194
100
AcDbEntity
  8
$DDT_AUDIT_GENERATED_(A7)
  6
Continuous
 62
     7
100
AcDbCircle
 10
254.545554222
 20
1051.254654991
 30
0.0
 40
12.56622476829211
100
AcDbArc
 50
261.1096674609
 51
264.9234646247
  0
SPLINE
  5
1BD
330
194
100
AcDbEntity
  8
$DDT_AUDIT_GENERATED_(A7)
  6
Continuous
 62
     7
100
AcDbSpline
210
0.0
220
0.0
230
1.0
 70
     8
 71
     3
 72
    31
 73
    27
 74
     0
 42
0.0000000020669264
 43
0.0000000001
 40
0.0
 40
0.0
 40
0.0
 40
0.0
 40
0.0062788237255882
 40
0.0133665887531181
 40
0.0215997302673255
 40
0.0311948046263378
 40
0.0422887741819548
 40
0.0549700228850689
 40
0.0692975001788394
 40
0.0853119104037299
 40
0.1030422793165076
 40
0.1225099052401252
 40
0.143730812154788
 40
0.1667173219110851
 40
0.191479092584452
 40
0.2180238233630169
 40
0.2463577451004964
 40
0.2764859694174882
 40
0.3084127421675814
 40
0.3421416308056743
 40
0.3776756651481202
 40
0.4150174446614116
 40
0.4541692213085435
 40
0.5866092221569733
 40
0.7248292158578896
 40
0.7329771093358495
 40
0.7329771093358495
 40
0.7329771093358495
 40
0.7329771093358495
 10
189.5837334095557
 20
1046.23556160061
 30
0.0
 10
189.5861757660442
 20
1046.225443624224
 30
0.0
 10
189.5913751435387
 20
1046.203904107388
 30
0.0
 10
189.6106610775388
 20
1046.173592293681
 30
0.0
 10
189.637827925033
 20
1046.143347533479
 30
0.0
 10
189.674016745172
 20
1046.113245727946
 30
0.0
 10
189.7188928361921
 20
1046.083207891345
 30
0.0
 10
189.7726385500213
 20
1046.053300524381
 30
0.0
 10
189.835251222146
 20
1046.023587146118
 30
0.0
 10
189.906773089783
 20
1045.994148926356
 30
0.0
 10
189.987220490854
 20
1045.965064756989
 30
0.0
 10
190.0766107082866
 20
1045.936411933701
 30
0.0
 10
190.1749562344378
 20
1045.908263430809
 30
0.0
 10
190.2822682967001
 20
1045.880687597709
 30
0.0
 10
190.3985568333294
 20
1045.853747673442
 30
0.0
 10
190.523831146326
 20
1045.827501597347
 30
0.0
 10
190.6581001210359
 20
1045.802001875467
 30
0.0
 10
190.8013723291844
 20
1045.777295353799
 30
0.0
 10
190.953656454549
 20
1045.753423601731
 30
0.0
 10
191.1149599989895
 20
1045.730420909674
 30
0.0
 10
191.2852947904959
 20
1045.708322054548
 30
0.0
 10
191.4646548998289
 20
1045.687130726905
 30
0.0
 10
191.7998714999903
 20
1045.651226437735
 30
0.0
 10
192.2977483941284
 20
1045.606779276174
 30
0.0
 10
192.7470154334814
 20
1045.577579175226
 30
0.0
 10
192.982794834087
 20
1045.564928417801
 30
0.0
 10
192.9959194046641
 20
1045.564233108793
 30
0.0
  0
LINE
  5
1BE
330
194
100
AcDbEntity
  8
$DDT_AUDIT_GENERATED_(A7)
  6
Continuous
 62
     7
100
AcDbLine
 10
194.4711641355
 20
1015.8993286639
 30
0.0
 11
168.7873244085
 21
1015.8993285856
 31
0.0
  0
ARC
  5
1BF
330
194
100
AcDbEntity
  8
$DDT_AUDIT_GENERATED_(A7)
  6
Continuous
 62
     7
100
AcDbCircle
 10
168.787348564
 20
1017.8994128469
 30
0.0
 40
2.00008426146761
100
AcDbArc
 50
238.0006921481
 51
269.9993080266
  0
LINE
  5
1C0
330
194
100
AcDbEntity
  8
$DDT_AUDIT_GENERATED_(A7)
  6
Continuous
 62
     7
100
AcDbLine
 10
140.9121357186
 20
1032.9593228661
 30
0.0
 11
167.7274858739
 21
1016.2032323933
 31
0.0
  0
ARC
  5
1C1
330
194
100
AcDbEntity
  8
$DDT_AUDIT_GENERATED_(A7)
  6
Continuous
 62
     7
100
AcDbCircle
 10
226.5516248546
 20
1028.209650626
 30
0.0
 40
31.97597963039817
100
AcDbArc
 50
173.6606853555
 51
179.2682639955
  0
LINE
  5
1C2
330
194
100
AcDbEntity
  8
$DDT_AUDIT_GENERATED_(A7)
  6
Continuous
 62
     7
100
AcDbLine
 10
140.7711140298
 20
1054.9222392441
 30
0.0
 11
140.7711140962
 21
1033.1697442722
 31
0.0
  0
LINE
  5
1C3
330
194
100
AcDbEntity
  8
$DDT_AUDIT_GENERATED_(A7)
  6
Continuous
 62
     7
100
AcDbLine
 10
194.7711649089
 20
1031.6999323762
 30
0.0
 11
194.7711648668
 21
1045.5127691762
 31
0.0
  0
LINE
  5
1C4
330
194
100
AcDbEntity
  8
$DDT_AUDIT_GENERATED_(A7)
  6
Continuous
 62
     7
100
AcDbLine
 10
194.7711649562
 20
1016.1993286648
 30
0.0
 11
194.7711649303
 21
1024.6789792555
 31
0.0
  0
SPLINE
  5
1C5
330
194
100
AcDbEntity
  8
$DDT_AUDIT_GENERATED_(A7)
  6
Continuous
 62
     7
100
AcDbSpline
210
0.0
220
0.0
230
1.0
 70
     8
 71
     3
 72
    15
 73
    11
 74
     0
 42
0.0000000000802092
 43
0.0000000001
 40
0.0
 40
0.0
 40
0.0
 40
0.0
 40
0.1358032002841856
 40
0.274341718114494
 40
0.4079585737847902
 40
0.5367537722035343
 40
0.6608389766887569
 40
0.7803390546320963
 40
0.8953938029248019
 40
1.0
 40
1.0
 40
1.0
 40
1.0
 10
265.4517808518046
 20
1043.182080674854
 30
0.0
 10
259.3719832309999
 20
1044.432919200762
 30
0.0
 10
249.0163843880556
 20
1046.542710310306
 30
0.0
 10
231.9814044535242
 20
1049.503923868398
 30
0.0
 10
215.5820665771951
 20
1051.922591147522
 30
0.0
 10
199.6167279420471
 20
1053.817300156901
 30
0.0
 10
184.1824400363799
 20
1055.172355127522
 30
0.0
 10
169.3814179693128
 20
1055.979861030016
 30
0.0
 10
155.0007565460905
 20
1056.277847383333
 30
0.0
 10
146.5315081579497
 20
1056.052719481053
 30
0.0
 10
141.7522833957751
 20
1055.914630283153
 30
0.0
  0
LINE
  5
1C6
330
194
100
AcDbEntity
  8
$DDT_AUDIT_GENERATED_(A7)
  6
Continuous
 62
     7
100
AcDbLine
 10
263.0850430229
 20
1039.167804155
 30
0.0
 11
266.0145583292
 21
1041.520863995
 31
0.0
  0
ARC
  5
1C7
330
194
100
AcDbEntity
  8
$DDT_AUDIT_GENERATED_(A7)
  6
Continuous
 62
     7
100
AcDbCircle
 10
141.7594919858
 20
1054.9468258103
 30
0.0
 40
0.97952546135482
100
AcDbArc
 50
90.5593005576
 51
181.4509649346
  0
LINE
  5
1C8
330
194
100
AcDbEntity
  8
$DDT_AUDIT_GENERATED_(A7)
  6
Continuous
 62
     7
100
AcDbLine
 10
192.7952963028
 20
1045.5505763353
 30
0.0
 11
194.3333673262
 21
1045.4723371726
 31
0.0
  0
ARC
  5
1C9
330
194
100
AcDbEntity
  8
$DDT_AUDIT_GENERATED_(A7)
  6
Continuous
 62
     7
100
AcDbCircle
 10
253.0616014907
 20
1043.083507565
 30
0.0
 40
4.279279484058348
100
AcDbArc
 50
259.4837942217
 51
263.9228803077
  0
ARC
  5
1CA
330
194
100
AcDbEntity
  8
$DDT_AUDIT_GENERATED_(A7)
  6
Continuous
 62
     7
100
AcDbCircle
 10
257.140358338
 20
1082.6923313365
 30
0.0
 40
44.09632131385113
100
AcDbArc
 50
265.1776977155
 51
269.2647743626
  0
ARC
  5
1CB
330
194
100
AcDbEntity
  8
$DDT_AUDIT_GENERATED_(A7)
  6
Continuous
 62
     7
100
AcDbCircle
 10
257.140358338
 20
1082.6923313365
 30
0.0
 40
44.09632131385113
100
AcDbArc
 50
273.7619947335
 51
277.1466957027
  0
SPLINE
  5
1CC
330
194
100
AcDbEntity
  8
$DDT_AUDIT_GENERATED_(A7)
  6
Continuous
 62
     7
100
AcDbSpline
210
0.0
220
0.0
230
1.0
 70
     8
 71
     3
 72
    23
 73
    19
 74
     0
 42
0.0000000010380061
 43
0.0000000001
 40
0.0
 40
0.0
 40
0.0
 40
0.0
 40
0.0086840565856987
 40
0.1114895491618251
 40
0.2075507296442096
 40
0.2997455358480978
 40
0.3959754366656321
 40
0.4993143500162692
 40
0.6031152294641234
 40
0.7061814450474755
 40
0.8077511230876502
 40
0.9076807929325651
 40
0.9577627447482072
 40
0.9720952313938526
 40
0.9768749349421277
 40
0.9825191557872633
 40
0.9975987431978217
 40
1.0
 40
1.0
 40
1.0
 40
1.0
 10
253.5493238707223
 20
1038.746828602961
 30
0.0
 10
253.5987484062294
 20
1038.742200068956
 30
0.0
 10
254.1447557052543
 20
1038.691201359893
 30
0.0
 10
255.2160340422411
 20
1038.627620802167
 30
0.0
 10
256.6005781241766
 20
1038.583441037496
 30
0.0
 10
257.8626412246851
 20
1038.598538646978
 30
0.0
 10
259.0379556745535
 20
1038.633949527575
 30
0.0
 10
260.1187307805224
 20
1038.692168352474
 30
0.0
 10
261.0537344325516
 20
1038.76242384194
 30
0.0
 10
261.7959990401696
 20
1038.833381463616
 30
0.0
 10
262.3260965823406
 20
1038.894851218039
 30
0.0
 10
262.5850794775429
 20
1038.929207010187
 30
0.0
 10
262.6660828319426
 20
1038.943438459639
 30
0.0
 10
262.71277671269
 20
1038.950197676199
 30
0.0
 10
262.7939777536597
 20
1038.969763097874
 30
0.0
 10
262.9159645964517
 20
1039.010142839523
 30
0.0
 10
263.0393330188847
 20
1039.062758006503
 30
0.0
 10
263.1040136509474
 20
1039.124002152579
 30
0.0
 10
263.1143484592184
 20
1039.133804449125
 30
0.0
  0
ARC
  5
1CD
330
194
100
AcDbEntity
  8
$DDT_AUDIT_GENERATED_(A7)
  6
Continuous
 62
     7
100
AcDbCircle
 10
253.0529737139
 20
1042.9821992839
 30
0.0
 40
4.177944159939229
100
AcDbArc
 50
259.4567019043
 51
263.9183605237
  0
ARC
  5
1CE
330
194
100
AcDbEntity
  8
$DDT_AUDIT_GENERATED_(A7)
  6
Continuous
 62
     7
100
AcDbCircle
 10
265.2778878465
 20
1042.2075580055
 30
0.0
 40
0.9978179506292052
100
AcDbArc
 50
308.9738604963
 51
79.8970777095
  0
SPLINE
  5
1CF
330
194
100
AcDbEntity
  8
$DDT_AUDIT_GENERATED_(A7)
  6
Continuous
 62
     7
100
AcDbSpline
210
0.0
220
0.0
230
1.0
 70
     8
 71
     3
 72
     8
 73
     4
 74
     0
 42
0.0000000099221171
 43
0.0000000001
 40
0.0
 40
0.0
 40
0.0
 40
0.0
 40
1.0
 40
1.0
 40
1.0
 40
1.0
 10
192.1042310537465
 20
1045.192271233969
 30
0.0
 10
192.4788712264854
 20
1045.45848141485
 30
0.0
 10
192.7780393049131
 20
1045.582368743601
 30
0.0
 10
193.0017352890296
 20
1045.563933220223
 30
0.0
  0
ARC
  5
1D0
330
194
100
AcDbEntity
  8
$DDT_AUDIT_GENERATED_(A7)
  6
Continuous
 62
     7
100
AcDbCircle
 10
194.4711649518
 20
1016.1993286639
 30
0.0
 40
0.2999999999510142
100
AcDbArc
 50
269.9999895771
 51
1.117776181
  0
ARC
  5
1D1
330
194
100
AcDbEntity
  8
$DDT_AUDIT_GENERATED_(A7)
  6
Continuous
 62
     7
100
AcDbCircle
 10
141.0711147075
 20
1033.2137352745
 30
0.0
 40
0.299999987427897
100
AcDbArc
 50
188.6068150302
 51
238.0002784318
  0
LINE
  5
1D2
330
194
100
AcDbEntity
  8
$DDT_AUDIT_GENERATED_(A7)
  6
Continuous
 62
     7
100
AcDbLine
 10
194.7817209284
 20
1031.7358409533
 30
0.0
 11
194.7711649088
 21
1031.7403217177
 31
0.0
  0
LINE
  5
1D3
330
194
100
AcDbEntity
  8
$DDT_AUDIT_GENERATED_(C8)
  6
Continuous
 62
     7
100
AcDbLine
 10
196.104480142
 20
970.5686231165
 30
0.0
 11
139.3032228905
 21
970.5686231165
 31
0.0
  0
LINE
  5
1D4
330
194
100
AcDbEntity
  8
$DDT_AUDIT_GENERATED_(C8)
  6
Continuous
 62
     7
100
AcDbLine
 10
196.6943258278
 20
971.0584688024
 30
0.0
 11
138.7133772046
 21
971.0584688024
 31
0.0
  0
LINE
  5
1D5
330
194
100
AcDbEntity
  8
$DDT_AUDIT_GENERATED_(C8)
  6
Continuous
 62
     7
100
AcDbLine
 10
193.5279020022
 20
1014.0652450366
 30
0.0
 11
141.8798010303
 21
1014.0652450366
 31
0.0
  0
LINE
  5
1D6
330
194
100
AcDbEntity
  8
$DDT_AUDIT_GENERATED_(C8)
  6
Continuous
 62
     7
100
AcDbLine
 10
138.8133772046
 20
971.0584688024
 30
0.0
 11
139.3032228905
 21
970.5686231165
 31
0.0
  0
LINE
  5
1D7
330
194
100
AcDbEntity
  8
$DDT_AUDIT_GENERATED_(C8)
  6
Continuous
 62
     7
100
AcDbLine
 10
196.104480142
 20
970.5686231165
 30
0.0
 11
196.5943258278
 21
971.0584688024
 31
0.0
  0
ARC
  5
1D8
330
194
100
AcDbEntity
  8
$DDT_AUDIT_GENERATED_(C8)
  6
Continuous
 62
     7
100
AcDbCircle
 10
831.2243389614
 20
956.4579528887
 30
0.0
 40
692.6648592344262
100
AcDbArc
 50
175.3055434556
 51
178.7921865962
  0
ARC
  5
1D9
330
194
100
AcDbEntity
  8
$DDT_AUDIT_GENERATED_(C8)
  6
Continuous
 62
     7
100
AcDbCircle
 10
-495.8166359289
 20
956.4579528887
 30
0.0
 40
692.664859234426
100
AcDbArc
 50
1.2078134038
 51
4.6944565444
  0
ARC
  5
1DA
330
194
100
AcDbEntity
  8
$DDT_AUDIT_GENERATED_(C8)
  6
Continuous
 62
     7
100
AcDbCircle
 10
193.5279020022
 20
1013.0652450367
 30
0.0
 40
0.9999999999376198
100
AcDbArc
 50
4.6944565446
 51
90.0000000009
  0
ARC
  5
1DB
330
194
100
AcDbEntity
  8
$DDT_AUDIT_GENERATED_(C8)
  6
Continuous
 62
     7
100
AcDbCircle
 10
141.8798010303
 20
1013.0652450367
 30
0.0
 40
0.9999999999430464
100
AcDbArc
 50
89.9999999991
 51
175.3055434554
  0
ARC
  5
1DC
330
194
100
AcDbEntity
  8
$DDT_AUDIT_GENERATED_(C8)
  6
Continuous
 62
     7
100
AcDbCircle
 10
193.083406252
 20
1014.5652450366
 30
0.0
 40
0.4999999999933252
100
AcDbArc
 50
198.709613237
 51
270.0000000009
  0
ARC
  5
1DD
330
194
100
AcDbEntity
  8
$DDT_AUDIT_GENERATED_(C8)
  6
Continuous
 62
     7
100
AcDbCircle
 10
142.3242967804
 20
1014.5652450366
 30
0.0
 40
0.4999999999933307
100
AcDbArc
 50
269.9999999991
 51
341.290386763
  0
ARC
  5
1DE
330
194
100
AcDbEntity
  8
$DDT_AUDIT_GENERATED_(C8)
  6
Continuous
 62
     7
100
AcDbCircle
 10
167.7080902065
 20
1005.9685578081
 30
0.0
 40
26.29999999999999
100
AcDbArc
 50
128.6156058206
 51
161.290386763
  0
ARC
  5
1DF
330
194
100
AcDbEntity
  8
$DDT_AUDIT_GENERATED_(C8)
  6
Continuous
 62
     7
100
AcDbCircle
 10
167.699612826
 20
1005.9685578081
 30
0.0
 40
26.3
100
AcDbArc
 50
18.709613237
 51
22.2718359538
  0
LINE
  5
1E1
330
194
100
AcDbEntity
  8
$DDT_AUDIT_GENERATED_(1E0)
  6
Continuous
 62
     7
100
AcDbLine
 10
194.5778929605
 20
1028.6241151251
 30
0.0
 11
194.7966013709
 21
1024.4509100516
 31
0.0
  0
LINE
  5
1E2
330
194
100
AcDbEntity
  8
$DDT_AUDIT_GENERATED_(1E0)
  6
Continuous
 62
     7
100
AcDbLine
 10
194.771164931
 20
1024.4617071797
 30
0.0
 11
194.7966013709
 21
1024.4509100516
 31
0.0
  0
LINE
  5
1E3
330
194
100
AcDbEntity
  8
$DDT_AUDIT_GENERATED_(D9)
  6
Continuous
 62
     7
100
AcDbLine
 10
399.4241597068
 20
1023.322612289
 30
0.0
 11
420.2197891503
 21
1026.2452474092
 31
0.0
  0
LINE
  5
1E4
330
194
100
AcDbEntity
  8
$DDT_AUDIT_GENERATED_(D9)
  6
Continuous
 62
     7
100
AcDbLine
 10
418.6955742924
 20
1043.1981017136
 30
0.0
 11
396.216489132
 21
1040.0388723218
 31
0.0
  0
ARC
  5
1E5
330
194
100
AcDbEntity
  8
$DDT_AUDIT_GENERATED_(D9)
  6
Continuous
 62
     7
100
AcDbCircle
 10
414.4689602094
 20
1031.2380388621
 30
0.0
 40
16.9999999999998
100
AcDbArc
 50
188.0
 51
207.7499227956
  0
ARC
  5
1E6
330
194
100
AcDbEntity
  8
$DDT_AUDIT_GENERATED_(D9)
  6
Continuous
 62
     7
100
AcDbCircle
 10
403.5760114533
 20
1029.7071347516
 30
0.0
 40
16.99999999999983
100
AcDbArc
 50
348.2500772044
 51
8.0
  0
LINE
  5
1E7
330
194
100
AcDbEntity
  8
$DDT_AUDIT_GENERATED_(D9)
  6
Continuous
 62
     7
100
AcDbLine
 10
420.4105686219
 20
1032.0730774679
 30
0.0
 11
418.8649904679
 21
1043.0704374684
 31
0.0
  0
LINE
  5
1E8
330
194
100
AcDbEntity
  8
$DDT_AUDIT_GENERATED_(D9)
  6
Continuous
 62
     7
100
AcDbLine
 10
396.0888248868
 20
1039.8694561464
 30
0.0
 11
397.6344030408
 21
1028.8720961458
 31
0.0
  0
ARC
  5
1E9
330
194
100
AcDbEntity
  8
$DDT_AUDIT_GENERATED_(D9)
  6
Continuous
 62
     7
100
AcDbCircle
 10
418.7164502576
 20
1043.0495615033
 30
0.0
 40
0.1500000000000076
100
AcDbArc
 50
8.0
 51
98.0
  0
ARC
  5
1EA
330
194
100
AcDbEntity
  8
$DDT_AUDIT_GENERATED_(D9)
  6
Continuous
 62
     7
100
AcDbCircle
 10
396.2373650972
 20
1039.8903321115
 30
0.0
 40
0.1499999999999919
100
AcDbArc
 50
98.0
 51
188.0
  0
LINE
  5
1EB
330
194
100
AcDbEntity
  8
$DDT_AUDIT_GENERATED_(E6)
  6
Continuous
 62
     7
100
AcDbLine
 10
418.7970149427
 20
1025.5908671268
 30
0.0
 11
400.9721897053
 21
1023.0857513095
 31
0.0
  0
LINE
  5
1EC
330
194
100
AcDbEntity
  8
$DDT_AUDIT_GENERATED_(E6)
  6
Continuous
 62
     7
100
AcDbLine
 10
400.9095618099
 20
1023.5313719405
 30
0.0
 11
400.9721897053
 21
1023.0857513095
 31
0.0
  0
LINE
  5
1ED
330
194
100
AcDbEntity
  8
$DDT_AUDIT_GENERATED_(E6)
  6
Continuous
 62
     7
100
AcDbLine
 10
418.7970149427
 20
1025.5908671268
 30
0.0
 11
418.7343870472
 21
1026.0364877577
 31
0.0
  0
ENDBLK
  5
1EF
330
194
100
AcDbEntity
  8
0
100
AcDbBlockEnd
  0
BLOCK
  5
21F
330
1F0
100
AcDbEntity
  8
0
100
AcDbBlockBegin
  2
SE2
 70
     0
 10
0.0
 20
0.0
 30
0.0
  3
SE2
  1

  0
ARC
  5
1F2
330
1F0
100
AcDbEntity
  8
$DDT_AUDIT_GENERATED_(77)
  6
Continuous
 62
     7
100
AcDbCircle
 10
42.946807788
 20
361.2267888951
 30
0.0
 40
29.00000000000001
100
AcDbArc
 50
305.4682509377
 51
360.0
  0
ARC
  5
1F3
330
1F0
100
AcDbEntity
  8
$DDT_AUDIT_GENERATED_(77)
  6
Continuous
 62
     7
100
AcDbCircle
 10
42.946807788
 20
361.2267888951
 30
0.0
 40
29.00000000000001
100
AcDbArc
 50
0.0
 51
234.5199099175
  0
ELLIPSE
  5
1F4
330
1F0
100
AcDbEntity
  8
$DDT_AUDIT_GENERATED_(7D)
  6
Continuous
 62
     7
100
AcDbEllipse
 10
42.9468490933
 20
121.6972856606
 30
0.0
 11
15.4981122234174
 21
1.980272834600783E-6
 31
0.0
210
0.0
220
0.0
230
0.9999999999999999
 40
0.9902680687
 41
3.141602332636724
 42
4.712388871635943
  0
ARC
  5
1F5
330
1F0
100
AcDbEntity
  8
$DDT_AUDIT_GENERATED_(7D)
  6
Continuous
 62
     7
100
AcDbCircle
 10
42.9373894698
 20
123.3957062158
 30
0.0
 40
15.50769047460868
100
AcDbArc
 50
359.1334801852
 51
359.7923783199
  0
ELLIPSE
  5
1F6
330
1F0
100
AcDbEntity
  8
$DDT_AUDIT_GENERATED_(7D)
  6
Continuous
 62
     7
100
AcDbEllipse
 10
42.9468496445
 20
121.6972856606
 30
0.0
 11
-15.4981122234174
 21
1.980274888513378E-6
 31
0.0
210
0.0
220
0.0
230
0.9999999999999999
 40
0.9902680687
 41
1.570796435543774
 42
3.141582974611685
  0
SPLINE
  5
1F7
330
1F0
100
AcDbEntity
  8
$DDT_AUDIT_GENERATED_(7D)
  6
Continuous
 62
     7
100
AcDbSpline
210
0.0
220
0.0
230
1.0
 70
     8
 71
     3
 72
    51
 73
    47
 74
     0
 42
0.0000000000467935
 43
0.0000000001
 40
0.0828311857308273
 40
0.0828311857308273
 40
0.0828311857308273
 40
0.0828311857308273
 40
0.1132237561298118
 40
0.1493102684654232
 40
0.1836433701275746
 40
0.2164694862061672
 40
0.248022087592511
 40
0.2784776076197361
 40
0.3079752409121529
 40
0.3364803099118082
 40
0.3638181079478912
 40
0.3901603960318796
 40
0.4156432325737887
 40
0.4403739627713921
 40
0.4644393522917048
 40
0.4879109809844724
 40
0.5108491079802815
 40
0.5332977886575168
 40
0.5550965686494772
 40
0.57627311413361
 40
0.5968892371701786
 40
0.6169968900073187
 40
0.6366401074543477
 40
0.6558567467263151
 40
0.6746797648981739
 40
0.6931381744233228
 40
0.7112577711366092
 40
0.7290616979628497
 40
0.7465636092811094
 40
0.7636996127043194
 40
0.7805090551062772
 40
0.7970211773831375
 40
0.8132553415577782
 40
0.8292293843056042
 40
0.8449598662452217
 40
0.8604622436128645
 40
0.8757510115622007
 40
0.8908398247939145
 40
0.9057415997824652
 40
0.9204686019462873
 40
0.9350325204098262
 40
0.94944453247127
 40
0.9637153643661286
 40
0.9778534660446854
 40
0.9918490225708796
 40
1.0
 40
1.0
 40
1.0
 40
1.0
 10
27.44730574052728
 20
319.3421123927697
 30
0.0
 10
27.44736680913059
 20
317.3835365984901
 30
0.0
 10
27.44745507234753
 20
313.0732682926941
 30
0.0
 10
27.44745652189148
 20
306.5275899428282
 30
0.0
 10
27.44733246797986
 20
299.7853183870851
 30
0.0
 10
27.44711616385036
 20
293.3079509293955
 30
0.0
 10
27.44683296763249
 20
287.0526738657924
 30
0.0
 10
27.44650245144569
 20
280.9854476012633
 30
0.0
 10
27.4461421010199
 20
275.0894302072323
 30
0.0
 10
27.44576869004634
 20
269.3703386329042
 30
0.0
 10
27.44539517564859
 20
263.8319755788178
 30
0.0
 10
27.44503167324798
 20
258.4671301269216
 30
0.0
 10
27.44468483331881
 20
253.249352768726
 30
0.0
 10
27.444360190762
 20
248.1576734323683
 30
0.0
 10
27.44406233722023
 20
243.1752891423799
 30
0.0
 10
27.44379551172279
 20
238.2884267047543
 30
0.0
 10
27.44356236168982
 20
233.4861500543817
 30
0.0
 10
27.44336999823764
 20
228.7735009838287
 30
0.0
 10
27.44321954497817
 20
224.1575665244272
 30
0.0
 10
27.44311026415058
 20
219.6446368718562
 30
0.0
 10
27.44304114982572
 20
215.2260201785123
 30
0.0
 10
27.44301119883294
 20
210.8917490636098
 30
0.0
 10
27.44301957988933
 20
206.6334487439577
 30
0.0
 10
27.44306557252027
 20
202.4440106720313
 30
0.0
 10
27.44314855875048
 20
198.3173276734165
 30
0.0
 10
27.44326797310505
 20
194.2480962796815
 30
0.0
 10
27.44342340194389
 20
190.2316686983587
 30
0.0
 10
27.44361414145164
 20
186.2644710982022
 30
0.0
 10
27.44384031059391
 20
182.3496027226696
 30
0.0
 10
27.44410671189427
 20
178.4888096128217
 30
0.0
 10
27.44440272676152
 20
174.6828469610787
 30
0.0
 10
27.44472204633746
 20
170.9261542469675
 30
0.0
 10
27.4450581664893
 20
167.214735882116
 30
0.0
 10
27.44540531321739
 20
163.5455170679791
 30
0.0
 10
27.44575815599478
 20
159.9156875790499
 30
0.0
 10
27.44611181388584
 20
156.3226646235363
 30
0.0
 10
27.44646178689223
 20
152.7640569896535
 30
0.0
 10
27.44680390831666
 20
149.2376637155861
 30
0.0
 10
27.44713433000839
 20
145.7413671744075
 30
0.0
 10
27.44744939460602
 20
142.2734301256942
 30
0.0
 10
27.44774595021189
 20
138.8313255650228
 30
0.0
 10
27.4480200589458
 20
135.4159629213825
 30
0.0
 10
27.44827161179807
 20
132.016245517143
 30
0.0
 10
27.44848696278765
 20
128.6677742091219
 30
0.0
 10
27.44864410886842
 20
125.7066186290385
 30
0.0
 10
27.44869716611256
 20
124.0551083528604
 30
0.0
 10
27.44871978187431
 20
123.3386123710713
 30
0.0
  0
LINE
  5
1F8
330
1F0
100
AcDbEntity
  8
$DDT_AUDIT_GENERATED_(7D)
  6
Continuous
 62
     7
100
AcDbLine
 10
27.4487205828
 20
123.3421473554
 30
0.0
 11
27.4487368706
 21
121.6971351421
 31
0.0
  0
ARC
  5
1F9
330
1F0
100
AcDbEntity
  8
$DDT_AUDIT_GENERATED_(7D)
  6
Continuous
 62
     7
100
AcDbCircle
 10
28.5072316473
 20
123.1626217411
 30
0.0
 40
1.057390936726267
100
AcDbArc
 50
168.2580155577
 51
180.685564288
  0
SPLINE
  5
1FA
330
1F0
100
AcDbEntity
  8
$DDT_AUDIT_GENERATED_(7D)
  6
Continuous
 62
     7
100
AcDbSpline
210
0.0
220
0.0
230
1.0
 70
     8
 71
     3
 72
    53
 73
    49
 74
     0
 42
0.0000000000468033
 43
0.0000000001
 40
0.0
 40
0.0
 40
0.0
 40
0.0
 40
0.0089097653482998
 40
0.0226515379744117
 40
0.0365081472230652
 40
0.0504904161104725
 40
0.0646214568332623
 40
0.0788889055537502
 40
0.0933005848021848
 40
0.1078665758265701
 40
0.1225973403370178
 40
0.1375037793009255
 40
0.1525972859557298
 40
0.1678898068237682
 40
0.1833939121543898
 40
0.1991228776556053
 40
0.2150907798270418
 40
0.2313126077862891
 40
0.2478043952363191
 40
0.2645833735262264
 40
0.2816500859230554
 40
0.2990521860702928
 40
0.3167323477524461
 40
0.3347092841884695
 40
0.3530025930256442
 40
0.3716338437376767
 40
0.3906269396704804
 40
0.410008582530409
 40
0.4298088611464845
 40
0.4500620078673142
 40
0.4708073848382685
 40
0.492090791712423
 40
0.5139722814381248
 40
0.5364631745235653
 40
0.5594244614426942
 40
0.5829022251191633
 40
0.6069494117066037
 40
0.6316279526516771
 40
0.6570112450771055
 40
0.6831875986329241
 40
0.710265144917947
 40
0.7383796366845825
 40
0.7675970966613068
 40
0.7976193749241768
 40
0.8286045581140599
 40
0.8606788519979914
 40
0.8940019947768465
 40
0.9172280454117524
 40
0.9172280454117524
 40
0.9172280454117524
 40
0.9172280454117524
 10
58.44497924339086
 20
123.3701713339741
 30
0.0
 10
58.44500487846523
 20
124.1531507018551
 30
0.0
 10
58.44506111923076
 20
125.8396377571956
 30
0.0
 10
58.44522053867205
 20
128.8157603980484
 30
0.0
 10
58.4454332430248
 20
132.0991975494135
 30
0.0
 10
58.44567991944131
 20
135.4305423584945
 30
0.0
 10
58.44594841389232
 20
138.7771785469209
 30
0.0
 10
58.44623841205163
 20
142.1487892017935
 30
0.0
 10
58.44654605149115
 20
145.5424775017595
 30
0.0
 10
58.44686830984665
 20
148.9602873315524
 30
0.0
 10
58.44720173695504
 20
152.4036383412763
 30
0.0
 10
58.44754272415089
 20
155.8742737170469
 30
0.0
 10
58.44788739455965
 20
159.3739758078507
 30
0.0
 10
58.44823159483607
 20
162.904659418076
 30
0.0
 10
58.44857085779853
 20
166.4683644040259
 30
0.0
 10
58.44890035340681
 20
170.0672784773649
 30
0.0
 10
58.44921488786869
 20
173.7037558875117
 30
0.0
 10
58.44950868237141
 20
177.3803390459151
 30
0.0
 10
58.44977596118063
 20
181.0997934435943
 30
0.0
 10
58.45000831649313
 20
184.8637584985921
 30
0.0
 10
58.45020439059977
 20
188.6763245584272
 30
0.0
 10
58.45036875962646
 20
192.5358701253673
 30
0.0
 10
58.45049939080351
 20
196.4420856867789
 30
0.0
 10
58.450596198793
 20
200.3926966497058
 30
0.0
 10
58.45065878617362
 20
204.3912275669186
 30
0.0
 10
58.45068686298635
 20
208.4415514909838
 30
0.0
 10
58.45068006489039
 20
212.5480215260272
 30
0.0
 10
58.45063799314253
 20
216.715566743487
 30
0.0
 10
58.45056020679064
 20
220.9498140740514
 30
0.0
 10
58.45044616339115
 20
225.2572442832259
 30
0.0
 10
58.45029540753679
 20
229.6454004234751
 30
0.0
 10
58.45010674636654
 20
234.1235709488465
 30
0.0
 10
58.44988146996524
 20
238.6990611712021
 30
0.0
 10
58.44962507496455
 20
243.3658035207006
 30
0.0
 10
58.44934075182854
 20
248.1169771964128
 30
0.0
 10
58.44903326485663
 20
252.9489043470703
 30
0.0
 10
58.44870698330966
 20
257.871737630154
 30
0.0
 10
58.44836701538833
 20
262.8974088940748
 30
0.0
 10
58.44801928740458
 20
268.040149717436
 30
0.0
 10
58.44767080916826
 20
273.3172047994145
 30
0.0
 10
58.44732996553324
 20
278.7498477345267
 30
0.0
 10
58.44700751178872
 20
284.3578577408079
 30
0.0
 10
58.44671946527884
 20
290.1330873239937
 30
0.0
 10
58.44648171230936
 20
296.0690440503541
 30
0.0
 10
58.4463124188356
 20
302.1647202459198
 30
0.0
 10
58.44623212916255
 20
308.44463949893
 30
0.0
 10
58.44626234564637
 20
314.2032979010662
 30
0.0
 10
58.44634691425711
 20
317.8444834742022
 30
0.0
 10
58.44639351814973
 20
319.3451512560754
 30
0.0
  0
LINE
  5
1FB
330
1F0
100
AcDbEntity
  8
$DDT_AUDIT_GENERATED_(7D)
  6
Continuous
 62
     7
100
AcDbLine
 10
58.4449618672
 20
121.6971351421
 30
0.0
 11
58.444978155
 21
123.3421473554
 31
0.0
  0
ARC
  5
1FC
330
1F0
100
AcDbEntity
  8
$DDT_AUDIT_GENERATED_(7D)
  6
Continuous
 62
     7
100
AcDbCircle
 10
57.3864670905
 20
123.1626217411
 30
0.0
 40
1.057390936715737
100
AcDbArc
 50
359.314435712
 51
11.7419844423
  0
LINE
  5
1FD
330
1F0
100
AcDbEntity
  8
$DDT_AUDIT_GENERATED_(A7)
  6
Continuous
 62
     7
100
AcDbLine
 10
60.5672926419
 20
340.7017601139
 30
0.0
 11
60.5837331252
 21
340.7159320125
 31
0.0
  0
ARC
  5
1FE
330
1F0
100
AcDbEntity
  8
$DDT_AUDIT_GENERATED_(A7)
  6
Continuous
 62
     7
100
AcDbCircle
 10
61.8853386702
 20
339.171127329
 30
0.0
 40
2.019904987162291
100
AcDbArc
 50
135.100940237
 51
161.0644342643
  0
LINE
  5
1FF
330
1F0
100
AcDbEntity
  8
$DDT_AUDIT_GENERATED_(A7)
  6
Continuous
 62
     7
100
AcDbLine
 10
60.5672926419
 20
340.7017601139
 30
0.0
 11
60.454536102
 21
340.5968973553
 31
0.0
  0
ARC
  5
200
330
1F0
100
AcDbEntity
  8
$DDT_AUDIT_GENERATED_(A7)
  6
Continuous
 62
     7
100
AcDbCircle
 10
42.9467872162
 20
361.1595009582
 30
0.0
 40
27.00002540158696
100
AcDbArc
 50
138.3656159932
 51
229.2613866528
  0
ARC
  5
201
330
1F0
100
AcDbEntity
  8
$DDT_AUDIT_GENERATED_(A7)
  6
Continuous
 62
     7
100
AcDbCircle
 10
42.9467885519
 20
361.1594997946
 30
0.0
 40
27.00002717294524
100
AcDbArc
 50
136.2739889982
 51
138.3656160309
  0
ARC
  5
202
330
1F0
100
AcDbEntity
  8
$DDT_AUDIT_GENERATED_(A7)
  6
Continuous
 62
     7
100
AcDbCircle
 10
43.4955041875
 20
360.6295835036
 30
0.0
 40
27.76284238070618
100
AcDbArc
 50
135.7305864231
 51
136.2664195754
  0
ARC
  5
203
330
1F0
100
AcDbEntity
  8
$DDT_AUDIT_GENERATED_(A7)
  6
Continuous
 62
     7
100
AcDbCircle
 10
42.9467872193
 20
361.159501014
 30
0.0
 40
27.00002536725202
100
AcDbArc
 50
44.2769410625
 51
135.7230170439
  0
ARC
  5
204
330
1F0
100
AcDbEntity
  8
$DDT_AUDIT_GENERATED_(A7)
  6
Continuous
 62
     7
100
AcDbCircle
 10
42.3882930827
 20
360.6201428495
 30
0.0
 40
27.77643336550654
100
AcDbArc
 50
43.7335908913
 51
44.2692394751
  0
ARC
  5
205
330
1F0
100
AcDbEntity
  8
$DDT_AUDIT_GENERATED_(A7)
  6
Continuous
 62
     7
100
AcDbCircle
 10
42.946785885
 20
361.1594997929
 30
0.0
 40
27.00002717547404
100
AcDbArc
 50
41.6342573867
 51
43.7258892602
  0
ARC
  5
206
330
1F0
100
AcDbEntity
  8
$DDT_AUDIT_GENERATED_(A7)
  6
Continuous
 62
     7
100
AcDbCircle
 10
42.9467872264
 20
361.1595009579
 30
0.0
 40
27.0000253989003
100
AcDbArc
 50
310.7387277253
 51
41.6342574301
  0
LINE
  5
207
330
1F0
100
AcDbEntity
  8
$DDT_AUDIT_GENERATED_(A7)
  6
Continuous
 62
     7
100
AcDbLine
 10
25.4390821715
 20
340.5968596088
 30
0.0
 11
25.3263226381
 21
340.7017249368
 31
0.0
  0
ARC
  5
208
330
1F0
100
AcDbEntity
  8
$DDT_AUDIT_GENERATED_(A7)
  6
Continuous
 62
     7
100
AcDbCircle
 10
24.0082883161
 20
339.1710949248
 30
0.0
 40
2.019895044511101
100
AcDbArc
 50
18.9355092688
 51
44.8991268692
  0
SPLINE
  5
209
330
1F0
100
AcDbEntity
  8
$DDT_AUDIT_GENERATED_(A7)
  6
Continuous
 62
     7
100
AcDbSpline
210
0.0
220
0.0
230
1.0
 70
     8
 71
     3
 72
    10
 73
     6
 74
     0
 42
0.0000000001587843
 43
0.0000000001
 40
0.0
 40
0.0
 40
0.0
 40
0.0
 40
0.5
 40
0.5
 40
1.0
 40
1.0
 40
1.0
 40
1.0
 10
25.99811681778436
 20
339.3469070017405
 30
0.0
 10
26.76342060600231
 20
328.8033817229416
 30
0.0
 10
27.52314078559039
 20
318.3025758512957
 30
0.0
 10
29.03368971984231
 20
297.3689911540732
 30
0.0
 10
29.78450591364073
 20
286.9363084299182
 30
0.0
 10
30.5316430142771
 20
276.5317739319654
 30
0.0
  0
LINE
  5
20A
330
1F0
100
AcDbEntity
  8
$DDT_AUDIT_GENERATED_(A7)
  6
Continuous
 62
     7
100
AcDbLine
 10
59.8955015064
 20
339.3469448623
 30
0.0
 11
59.8735593258
 21
339.3280341599
 31
0.0
  0
LINE
  5
20B
330
1F0
100
AcDbEntity
  8
$DDT_AUDIT_GENERATED_(A7)
  6
Continuous
 62
     7
100
AcDbLine
 10
55.0514219618
 20
272.482369195
 30
0.0
 11
55.338953908
 21
276.2114629415
 31
0.0
  0
SPLINE
  5
20C
330
1F0
100
AcDbEntity
  8
$DDT_AUDIT_GENERATED_(A7)
  6
Continuous
 62
     7
100
AcDbSpline
210
0.0
220
0.0
230
1.0
 70
     8
 71
     3
 72
    10
 73
     6
 74
     0
 42
0.0000000001587641
 43
0.0000000001
 40
0.0
 40
0.0
 40
0.0
 40
0.0
 40
0.5000000000000002
 40
0.5000000000000002
 40
1.0
 40
1.0
 40
1.0
 40
1.0
 10
55.36140245241806
 20
276.5238346583487
 30
0.0
 10
56.10863301843054
 20
286.9296825578438
 30
0.0
 10
56.85954349763509
 20
297.3636852778715
 30
0.0
 10
58.37028316241078
 20
318.299927267004
 30
0.0
 10
59.13009977983383
 20
328.8020703778745
 30
0.0
 10
59.8955015063847
 20
339.3469448622695
 30
0.0
  0
LINE
  5
20D
330
1F0
100
AcDbEntity
  8
$DDT_AUDIT_GENERATED_(A7)
  6
Continuous
 62
     7
100
AcDbLine
 10
55.338953908
 20
276.2114629415
 30
0.0
 11
55.3614024524
 21
276.5238346583
 31
0.0
  0
LINE
  5
20E
330
1F0
100
AcDbEntity
  8
$DDT_AUDIT_GENERATED_(A7)
  6
Continuous
 62
     7
100
AcDbLine
 10
30.5545242366
 20
276.2133850355
 30
0.0
 11
30.8420734197
 21
272.4840422714
 31
0.0
  0
LINE
  5
20F
330
1F0
100
AcDbEntity
  8
$DDT_AUDIT_GENERATED_(A7)
  6
Continuous
 62
     7
100
AcDbLine
 10
30.5316430143
 20
276.531773932
 30
0.0
 11
30.5545242366
 21
276.2133850355
 31
0.0
  0
LINE
  5
210
330
1F0
100
AcDbEntity
  8
$DDT_AUDIT_GENERATED_(A7)
  6
Continuous
 62
     7
100
AcDbLine
 10
25.3098821724
 20
340.715896763
 30
0.0
 11
25.3263226381
 21
340.7017249368
 31
0.0
  0
ARC
  5
211
330
1F0
100
AcDbEntity
  8
$DDT_AUDIT_GENERATED_(A7)
  6
Continuous
 62
     7
100
AcDbCircle
 10
42.9467875123
 20
361.1595004543
 30
0.0
 40
27.00002483675546
100
AcDbArc
 50
310.5439939933
 51
310.7847885929
  0
ARC
  5
212
330
1F0
100
AcDbEntity
  8
$DDT_AUDIT_GENERATED_(A7)
  6
Continuous
 62
     7
100
AcDbCircle
 10
42.9467869133
 20
361.1595004356
 30
0.0
 40
27.00002481403533
100
AcDbArc
 50
229.2153259144
 51
229.4539214659
  0
SPLINE
  5
213
330
1F0
100
AcDbEntity
  8
$DDT_AUDIT_GENERATED_(A7)
  6
Continuous
 62
     7
100
AcDbSpline
210
0.0
220
0.0
230
1.0
 70
    12
 71
     3
 72
    10
 73
     6
 74
     0
 42
0.000000005141064
 43
0.0000000001
 40
0.0
 40
0.0
 40
0.0
 40
0.0
 40
0.0624999999999999
 40
0.0624999999999999
 40
0.0628143569089121
 40
0.0628143569089121
 40
0.0628143569089121
 40
0.0628143569089121
 10
59.8955015063847
 20
339.3469448622695
 30
0.0
 41
1.0
 10
59.8952445828039
 20
339.3380315397272
 30
0.0
 41
1.0
 10
59.88281841849036
 20
339.2867599510717
 30
0.0
 41
1.0
 10
59.86867194273417
 20
339.2285460024646
 30
0.0
 41
1.0
 10
59.86860106707992
 20
339.2282543707577
 30
0.0
 41
1.0
 10
59.86853011258382
 20
339.2279624420393
 30
0.0
 41
1.0
  0
ELLIPSE
  5
214
330
1F0
100
AcDbEntity
  8
$DDT_AUDIT_GENERATED_(A7)
  6
Continuous
 62
     7
100
AcDbEllipse
 10
61.8901723334
 20
339.2015949974
 30
0.0
 11
-1.306438799729661
 21
1.514337367494057
 31
0.0
210
0.0
220
0.0
230
0.9999999999999999
 40
0.9999596406
 41
0.0
 42
0.7862474029920788
  0
ELLIPSE
  5
215
330
1F0
100
AcDbEntity
  8
$DDT_AUDIT_GENERATED_(A7)
  6
Continuous
 62
     7
100
AcDbEllipse
 10
24.0034459907
 20
339.2015571369
 30
0.0
 11
-1.306435793611019
 21
-1.514339960892265
 31
0.0
210
0.0
220
0.0
230
1.0
 40
0.9999596408
 41
2.355343265585481
 42
3.141592653589804
  0
ARC
  5
216
330
1F0
100
AcDbEntity
  8
$DDT_AUDIT_GENERATED_(A7)
  6
Continuous
 62
     7
100
AcDbCircle
 10
45.9497539023
 20
273.0031694319
 30
0.0
 40
9.116570186545937
100
AcDbArc
 50
339.0259180962
 51
356.7227705837
  0
ARC
  5
217
330
1F0
100
AcDbEntity
  8
$DDT_AUDIT_GENERATED_(A7)
  6
Continuous
 62
     7
100
AcDbCircle
 10
47.8607618003
 20
272.4138199688
 30
0.0
 40
7.135545060135802
100
AcDbArc
 50
322.7459537099
 51
337.9542454838
  0
ARC
  5
218
330
1F0
100
AcDbEntity
  8
$DDT_AUDIT_GENERATED_(A7)
  6
Continuous
 62
     7
100
AcDbCircle
 10
42.9432171024
 20
275.6864024087
 30
0.0
 40
13.03035887055704
100
AcDbArc
 50
215.6212808017
 51
324.3839276356
  0
ARC
  5
219
330
1F0
100
AcDbEntity
  8
$DDT_AUDIT_GENERATED_(A7)
  6
Continuous
 62
     7
100
AcDbCircle
 10
37.7347668651
 20
272.1886596181
 30
0.0
 40
6.760050661456952
100
AcDbArc
 50
201.2177397478
 51
217.2345128759
  0
ARC
  5
21A
330
1F0
100
AcDbEntity
  8
$DDT_AUDIT_GENERATED_(A7)
  6
Continuous
 62
     7
100
AcDbCircle
 10
39.7505612149
 20
272.9706686879
 30
0.0
 40
8.921781517341824
100
AcDbArc
 50
183.1292007006
 51
201.2131514387
  0
ARC
  5
21B
330
1F0
100
AcDbEntity
  8
$DDT_AUDIT_GENERATED_(A7)
  6
Continuous
 62
     7
100
AcDbCircle
 10
61.6931373671
 20
339.2628319049
 30
0.0
 40
1.825182597305282
100
AcDbArc
 50
130.9764084349
 51
181.1236617106
  0
ARC
  5
21C
330
1F0
100
AcDbEntity
  8
$DDT_AUDIT_GENERATED_(A7)
  6
Continuous
 62
     7
100
AcDbCircle
 10
24.2004794903
 20
339.262793802
 30
0.0
 40
1.825183954840271
100
AcDbArc
 50
358.8763650252
 51
49.0237053664
  0
ARC
  5
21D
330
1F0
100
AcDbEntity
  8
$DDT_AUDIT_GENERATED_(C8)
  6
Continuous
 62
     7
100
AcDbCircle
 10
42.946807788
 20
361.2267888951
 30
0.0
 40
28.99047431159973
100
AcDbArc
 50
305.5196300385
 51
360.0
  0
ARC
  5
21E
330
1F0
100
AcDbEntity
  8
$DDT_AUDIT_GENERATED_(C8)
  6
Continuous
 62
     7
100
AcDbCircle
 10
42.946807788
 20
361.2267888951
 30
0.0
 40
28.99047431159973
100
AcDbArc
 50
0.0
 51
234.485623128
  0
ENDBLK
  5
220
330
1F0
100
AcDbEntity
  8
0
100
AcDbBlockEnd
  0
ENDSEC
  0
SECTION
  2
ENTITIES
  0
INSERT
  5
5F
330
1F
100
AcDbEntity
  8
Default
100
AcDbBlockReference
  2
SEANNOT_GROUP
 10
0.0
 20
0.0
 30
0.0
  0
INSERT
  5
66
330
1F
100
AcDbEntity
  8
Default
100
AcDbBlockReference
  2
SEANNOT_GROUP1
 10
0.0
 20
0.0
 30
0.0
  0
INSERT
  5
6C
330
1F
100
AcDbEntity
  8
Default
100
AcDbBlockReference
  2
SEANNOT_GROUP2
 10
0.0
 20
0.0
 30
0.0
  0
INSERT
  5
76
330
1F
100
AcDbEntity
  8
Default
100
AcDbBlockReference
  2
SE
 10
0.0
 20
0.0
 30
0.0
  0
INSERT
  5
195
330
1F
100
AcDbEntity
  8
Default
100
AcDbBlockReference
  2
SE1
 10
0.0
 20
0.0
 30
0.0
  0
INSERT
  5
1F1
330
1F
100
AcDbEntity
  8
Default
100
AcDbBlockReference
  2
SE2
 10
0.0
 20
0.0
 30
0.0
  0
TEXT
  5
222
330
1F
100
AcDbEntity
  8
Default
  6
Continuous
 62
     7
100
AcDbText
 10
5.9362635081
 20
53.4225120485
 30
0.0
 40
10.0
  1
Grohe AG^J
  7
SEACAD_seiso_ttf
 11
5.9362635081
 21
63.4225120485
 31
0.0
100
AcDbText
 73
     3
  0
TEXT
  5
223
330
1F
100
AcDbEntity
  8
Default
  6
Continuous
 62
     7
100
AcDbText
 10
5.9362635081
 20
37.0588756849
 30
0.0
 40
10.0
  1
 
  7
SEACAD_seiso_ttf
 11
5.9362635081
 21
47.0588756849
 31
0.0
100
AcDbText
 73
     3
  0
TEXT
  5
224
330
1F
100
AcDbEntity
  8
Default
  6
Continuous
 62
     7
100
AcDbText
 10
5.9362635081
 20
20.6952393213
 30
0.0
 40
10.0
  1
ecn:
  7
SEACAD_seiso_ttf
 11
5.9362635081
 21
30.6952393213
 31
0.0
100
AcDbText
 73
     3
  0
TEXT
  5
225
330
1F
100
AcDbEntity
  8
Default
  6
Continuous
 62
     7
100
AcDbText
 10
5.9362635081
 20
4.3316029576
 30
0.0
 40
10.0
  1
unit: mm
  7
SEACAD_seiso_ttf
 11
5.9362635081
 21
14.3316029576
 31
0.0
100
AcDbText
 73
     3
  0
LINE
  5
226
330
1F
100
AcDbEntity
  8
Default
  6
Continuous
 62
     7
100
AcDbLine
 10
0.0
 20
0.0
 30
0.0
 11
100.0
 21
0.0
 31
0.0
  0
LINE
  5
227
330
1F
100
AcDbEntity
  8
Default
  6
Continuous
 62
     7
100
AcDbLine
 10
0.0
 20
0.0
 30
0.0
 11
0.0
 21
100.0
 31
0.0
  0
TEXT
  5
228
330
1F
100
AcDbEntity
  8
Default
  6
Continuous
 62
     7
100
AcDbText
 10
24.3923665681
 20
-18.2375342018
 30
0.0
 40
10.0
  1
100 mm
  7
SEACAD_seiso_ttf
 11
24.3923665681
 21
-8.2375342018
 31
0.0
100
AcDbText
 73
     3
  0
TEXT
  5
229
330
1F
100
AcDbEntity
  8
Default
  6
Continuous
 62
     7
100
AcDbText
 10
-7.6150308803
 20
24.6231930421
 30
0.0
 40
10.0
  1
100 mm
 50
90.0
  7
SEACAD_seiso_ttf
 11
-17.6150308803
 21
24.6231930421
 31
0.0
100
AcDbText
 73
     3
  0
TEXT
  5
22A
330
1F
100
AcDbEntity
  8
Default
  6
Continuous
 62
     7
100
AcDbText
 10
28.4878128572
 20
20.0907663715
 30
0.0
 40
10.0
  1
214271
  7
SEACAD_seiso_ttf
 11
28.4878128572
 21
30.0907663715
 31
0.0
100
AcDbText
 73
     3
  0
TEXT
  5
22B
330
1F
100
AcDbEntity
  8
Default
  6
Continuous
 62
     7
100
AcDbText
 10
5.9012241913
 20
36.7242780188
 30
0.0
 40
10.0
  1
32442000
  7
SEACAD_seiso_ttf
 11
5.9012241913
 21
46.7242780188
 31
0.0
100
AcDbText
 73
     3
  0
ENDSEC
  0
SECTION
  2
OBJECTS
  0
DICTIONARY
  5
C
330
0
100
AcDbDictionary
281
     1
  3
ACAD_GROUP
350
D
  3
ACAD_LAYOUT
350
1A
  3
ACAD_MLEADERSTYLE
350
22F
  3
ACAD_MLINESTYLE
350
17
  3
ACAD_PLOTSETTINGS
350
19
  3
ACAD_PLOTSTYLENAME
350
E
  3
ACAD_SCALELIST
350
3B
  3
ACAD_TABLESTYLE
350
22E
  3
ACAD_VISUALSTYLE
350
2A
  3
AcDbVariableDictionary
350
22C
  0
DICTIONARY
  5
D
102
{ACAD_REACTORS
330
C
102
}
330
C
100
AcDbDictionary
281
     1
  0
DICTIONARY
  5
1A
102
{ACAD_REACTORS
330
C
102
}
330
C
100
AcDbDictionary
281
     1
  3
Layout1
350
1E
  3
Model
350
22
  0
DICTIONARY
  5
22F
102
{ACAD_REACTORS
330
C
102
}
330
C
100
AcDbDictionary
281
     1
  0
DICTIONARY
  5
17
102
{ACAD_REACTORS
330
C
102
}
330
C
100
AcDbDictionary
281
     1
  3
Standard
350
18
  0
DICTIONARY
  5
19
102
{ACAD_REACTORS
330
C
102
}
330
C
100
AcDbDictionary
281
     1
  0
ACDBDICTIONARYWDFLT
  5
E
102
{ACAD_REACTORS
330
C
102
}
330
C
100
AcDbDictionary
281
     1
  3
Normal
350
F
100
AcDbDictionaryWithDefault
340
F
  0
DICTIONARY
  5
3B
102
{ACAD_REACTORS
330
C
102
}
330
C
100
AcDbDictionary
281
     1
  3
A0
350
3C
  3
A1
350
3D
  3
A2
350
3E
  3
A3
350
3F
  3
A4
350
40
  3
A5
350
41
  3
A6
350
42
  3
A7
350
43
  3
A8
350
44
  3
A9
350
45
  3
B0
350
46
  3
B1
350
47
  3
B2
350
48
  3
B3
350
49
  3
B4
350
4A
  3
B5
350
4B
  3
B6
350
4C
  3
B7
350
4D
  3
B8
350
4E
  3
B9
350
4F
  3
C0
350
50
  3
C1
350
51
  3
C2
350
52
  3
C3
350
53
  3
C4
350
54
  3
C5
350
55
  3
C6
350
56
  3
C7
350
57
  3
C8
350
58
  3
C9
350
59
  3
D0
350
5A
  3
D1
350
5B
  3
D2
350
5C
  0
DICTIONARY
  5
22E
102
{ACAD_REACTORS
330
C
102
}
330
C
100
AcDbDictionary
281
     1
  0
DICTIONARY
  5
2A
102
{ACAD_REACTORS
330
C
102
}
330
C
100
AcDbDictionary
281
     1
  3
2dWireframe
350
2F
  3
3D Hidden
350
31
  3
3dWireframe
350
30
  3
Basic
350
32
  3
Brighten
350
36
  3
ColorChange
350
3A
  3
Conceptual
350
34
  3
Dim
350
35
  3
Facepattern
350
39
  3
Flat
350
2B
  3
FlatWithEdges
350
2C
  3
Gouraud
350
2D
  3
GouraudWithEdges
350
2E
  3
Linepattern
350
38
  3
Realistic
350
33
  3
Thicken
350
37
  0
DICTIONARY
  5
22C
102
{ACAD_REACTORS
330
C
102
}
330
C
100
AcDbDictionary
281
     1
  3
CANNOSCALE
350
22D
  3
PSOLHEIGHT
350
231
  3
PSOLWIDTH
350
230
  0
LAYOUT
  5
1E
102
{ACAD_REACTORS
330
1A
102
}
330
1A
100
AcDbPlotSettings
  1

  2
none_device
  4

  6

 40
0.0
 41
0.0
 42
0.0
 43
0.0
 44
0.0
 45
0.0
 46
0.0
 47
0.0
 48
0.0
 49
0.0
140
0.0
141
0.0
142
1.0
143
1.0
 70
   688
 72
     0
 73
     0
 74
     5
  7

 75
    16
147
1.0
148
0.0
149
0.0
100
AcDbLayout
  1
Layout1
 70
     1
 71
     1
 10
0.0
 20
0.0
 11
3000.0
 21
4500.0
 12
0.0
 22
0.0
 32
0.0
 14
0.0
 24
0.0
 34
0.0
 15
3000.0
 25
4500.0
 35
0.0
146
0.0
 13
0.0
 23
0.0
 33
0.0
 16
1.0
 26
0.0
 36
0.0
 17
0.0
 27
1.0
 37
0.0
 76
     0
330
1B
  0
LAYOUT
  5
22
102
{ACAD_REACTORS
330
1A
102
}
330
1A
100
AcDbPlotSettings
  1

  2
none_device
  4

  6

 40
0.0
 41
0.0
 42
0.0
 43
0.0
 44
0.0
 45
0.0
 46
0.0
 47
0.0
 48
0.0
 49
0.0
140
0.0
141
0.0
142
1.0
143
1.0
 70
  1712
 72
     0
 73
     0
 74
     0
  7

 75
     0
147
1.0
148
0.0
149
0.0
100
AcDbLayout
  1
Model
 70
     1
 71
     0
 10
0.0
 20
0.0
 11
3000.0
 21
4500.0
 12
0.0
 22
0.0
 32
0.0
 14
0.0
 24
0.0
 34
0.0
 15
3000.0
 25
4500.0
 35
0.0
146
0.0
 13
0.0
 23
0.0
 33
0.0
 16
1.0
 26
0.0
 36
0.0
 17
0.0
 27
1.0
 37
0.0
 76
     0
330
1F
331
29
  0
MLINESTYLE
  5
18
102
{ACAD_REACTORS
330
17
102
}
330
17
100
AcDbMlineStyle
  2
Standard
 70
     0
  3

 62
   256
 51
90.0
 52
90.0
 71
     2
 49
0.5
 62
   256
  6
BYLAYER
 49
-0.5
 62
   256
  6
BYLAYER
  0
ACDBPLACEHOLDER
  5
F
102
{ACAD_REACTORS
330
E
102
}
330
E
  0
SCALE
  5
3C
102
{ACAD_REACTORS
330
3B
102
}
330
3B
100
AcDbScale
 70
     0
300
1:1
140
1.0
141
1.0
290
     1
  0
SCALE
  5
3D
102
{ACAD_REACTORS
330
3B
102
}
330
3B
100
AcDbScale
 70
     0
300
1:2
140
1.0
141
2.0
290
     0
  0
SCALE
  5
3E
102
{ACAD_REACTORS
330
3B
102
}
330
3B
100
AcDbScale
 70
     0
300
1:4
140
1.0
141
4.0
290
     0
  0
SCALE
  5
3F
102
{ACAD_REACTORS
330
3B
102
}
330
3B
100
AcDbScale
 70
     0
300
1:5
140
1.0
141
5.0
290
     0
  0
SCALE
  5
40
102
{ACAD_REACTORS
330
3B
102
}
330
3B
100
AcDbScale
 70
     0
300
1:8
140
1.0
141
8.0
290
     0
  0
SCALE
  5
41
102
{ACAD_REACTORS
330
3B
102
}
330
3B
100
AcDbScale
 70
     0
300
1:10
140
1.0
141
10.0
290
     0
  0
SCALE
  5
42
102
{ACAD_REACTORS
330
3B
102
}
330
3B
100
AcDbScale
 70
     0
300
1:16
140
1.0
141
16.0
290
     0
  0
SCALE
  5
43
102
{ACAD_REACTORS
330
3B
102
}
330
3B
100
AcDbScale
 70
     0
300
1:20
140
1.0
141
20.0
290
     0
  0
SCALE
  5
44
102
{ACAD_REACTORS
330
3B
102
}
330
3B
100
AcDbScale
 70
     0
300
1:30
140
1.0
141
30.0
290
     0
  0
SCALE
  5
45
102
{ACAD_REACTORS
330
3B
102
}
330
3B
100
AcDbScale
 70
     0
300
1:40
140
1.0
141
40.0
290
     0
  0
SCALE
  5
46
102
{ACAD_REACTORS
330
3B
102
}
330
3B
100
AcDbScale
 70
     0
300
1:50
140
1.0
141
50.0
290
     0
  0
SCALE
  5
47
102
{ACAD_REACTORS
330
3B
102
}
330
3B
100
AcDbScale
 70
     0
300
1:100
140
1.0
141
100.0
290
     0
  0
SCALE
  5
48
102
{ACAD_REACTORS
330
3B
102
}
330
3B
100
AcDbScale
 70
     0
300
2:1
140
2.0
141
1.0
290
     0
  0
SCALE
  5
49
102
{ACAD_REACTORS
330
3B
102
}
330
3B
100
AcDbScale
 70
     0
300
4:1
140
4.0
141
1.0
290
     0
  0
SCALE
  5
4A
102
{ACAD_REACTORS
330
3B
102
}
330
3B
100
AcDbScale
 70
     0
300
8:1
140
8.0
141
1.0
290
     0
  0
SCALE
  5
4B
102
{ACAD_REACTORS
330
3B
102
}
330
3B
100
AcDbScale
 70
     0
300
10:1
140
10.0
141
1.0
290
     0
  0
SCALE
  5
4C
102
{ACAD_REACTORS
330
3B
102
}
330
3B
100
AcDbScale
 70
     0
300
100:1
140
100.0
141
1.0
290
     0
  0
SCALE
  5
4D
102
{ACAD_REACTORS
330
3B
102
}
330
3B
100
AcDbScale
 70
     0
300
1/128" = 1'-0"
140
0.0078125
141
12.0
290
     0
  0
SCALE
  5
4E
102
{ACAD_REACTORS
330
3B
102
}
330
3B
100
AcDbScale
 70
     0
300
1/64" = 1'-0"
140
0.015625
141
12.0
290
     0
  0
SCALE
  5
4F
102
{ACAD_REACTORS
330
3B
102
}
330
3B
100
AcDbScale
 70
     0
300
1/32" = 1'-0"
140
0.03125
141
12.0
290
     0
  0
SCALE
  5
50
102
{ACAD_REACTORS
330
3B
102
}
330
3B
100
AcDbScale
 70
     0
300
1/16" = 1'-0"
140
0.0625
141
12.0
290
     0
  0
SCALE
  5
51
102
{ACAD_REACTORS
330
3B
102
}
330
3B
100
AcDbScale
 70
     0
300
3/32" = 1'-0"
140
0.09375
141
12.0
290
     0
  0
SCALE
  5
52
102
{ACAD_REACTORS
330
3B
102
}
330
3B
100
AcDbScale
 70
     0
300
1/8" = 1'-0"
140
0.125
141
12.0
290
     0
  0
SCALE
  5
53
102
{ACAD_REACTORS
330
3B
102
}
330
3B
100
AcDbScale
 70
     0
300
3/16" = 1'-0"
140
0.1875
141
12.0
290
     0
  0
SCALE
  5
54
102
{ACAD_REACTORS
330
3B
102
}
330
3B
100
AcDbScale
 70
     0
300
1/4" = 1'-0"
140
0.25
141
12.0
290
     0
  0
SCALE
  5
55
102
{ACAD_REACTORS
330
3B
102
}
330
3B
100
AcDbScale
 70
     0
300
3/8" = 1'-0"
140
0.375
141
12.0
290
     0
  0
SCALE
  5
56
102
{ACAD_REACTORS
330
3B
102
}
330
3B
100
AcDbScale
 70
     0
300
1/2" = 1'-0"
140
0.5
141
12.0
290
     0
  0
SCALE
  5
57
102
{ACAD_REACTORS
330
3B
102
}
330
3B
100
AcDbScale
 70
     0
300
3/4" = 1'-0"
140
0.75
141
12.0
290
     0
  0
SCALE
  5
58
102
{ACAD_REACTORS
330
3B
102
}
330
3B
100
AcDbScale
 70
     0
300
1" = 1'-0"
140
1.0
141
12.0
290
     0
  0
SCALE
  5
59
102
{ACAD_REACTORS
330
3B
102
}
330
3B
100
AcDbScale
 70
     0
300
1-1/2" = 1'-0"
140
1.5
141
12.0
290
     0
  0
SCALE
  5
5A
102
{ACAD_REACTORS
330
3B
102
}
330
3B
100
AcDbScale
 70
     0
300
3" = 1'-0"
140
3.0
141
12.0
290
     0
  0
SCALE
  5
5B
102
{ACAD_REACTORS
330
3B
102
}
330
3B
100
AcDbScale
 70
     0
300
6" = 1'-0"
140
6.0
141
12.0
290
     0
  0
SCALE
  5
5C
102
{ACAD_REACTORS
330
3B
102
}
330
3B
100
AcDbScale
 70
     0
300
1'-0" = 1'-0"
140
12.0
141
12.0
290
     0
  0
VISUALSTYLE
  5
2F
102
{ACAD_REACTORS
330
2A
102
}
330
2A
100
AcDbVisualStyle
  2
2dWireframe
 70
     4
 71
     0
 72
     2
 73
     0
 90
        0
 40
-0.6
 41
-30.0
 62
     5
 63
     7
 74
     1
 91
        4
 64
     7
 65
   257
 75
     1
175
     1
 42
1.0
 92
        0
 66
   257
 43
1.0
 76
     1
 77
     6
 78
     2
 67
     7
 79
     5
170
     0
171
     0
290
     0
174
     0
 93
        1
 44
0.0
173
     0
291
     0
 45
0.0
1001
ACAD
1000
AcDbSavedByObjectVersion
1070
     0
  0
VISUALSTYLE
  5
31
102
{ACAD_REACTORS
330
2A
102
}
330
2A
100
AcDbVisualStyle
  2
3D Hidden
 70
     6
 71
     1
 72
     2
 73
     2
 90
        0
 40
-0.6
 41
-30.0
 62
     5
 63
     7
 74
     2
 91
        2
 64
     7
 65
   257
 75
     2
175
     1
 42
40.0
 92
        0
 66
   257
 43
1.0
 76
     1
 77
     6
 78
     2
 67
     7
 79
     3
170
     0
171
     0
290
     0
174
     0
 93
        1
 44
0.0
173
     0
291
     0
 45
0.0
1001
ACAD
1000
AcDbSavedByObjectVersion
1070
     0
  0
VISUALSTYLE
  5
30
102
{ACAD_REACTORS
330
2A
102
}
330
2A
100
AcDbVisualStyle
  2
3dWireframe
 70
     5
 71
     0
 72
     2
 73
     0
 90
        0
 40
-0.6
 41
-30.0
 62
     5
 63
     7
 74
     1
 91
        4
 64
     7
 65
   257
 75
     1
175
     1
 42
1.0
 92
        0
 66
   257
 43
1.0
 76
     1
 77
     6
 78
     2
 67
     7
 79
     5
170
     0
171
     0
290
     0
174
     0
 93
        1
 44
0.0
173
     0
291
     0
 45
0.0
1001
ACAD
1000
AcDbSavedByObjectVersion
1070
     0
  0
VISUALSTYLE
  5
32
102
{ACAD_REACTORS
330
2A
102
}
330
2A
100
AcDbVisualStyle
  2
Basic
 70
     7
 71
     1
 72
     0
 73
     1
 90
        0
 40
-0.6
 41
-30.0
 62
     5
 63
     7
 74
     0
 91
        4
 64
     7
 65
   257
 75
     1
175
     1
 42
1.0
 92
        8
 66
     7
 43
1.0
 76
     1
 77
     6
 78
     2
 67
     7
 79
     5
170
     0
171
     0
290
     0
174
     0
 93
        1
 44
0.0
173
     0
291
     1
 45
0.0
1001
ACAD
1000
AcDbSavedByObjectVersion
1070
     0
  0
VISUALSTYLE
  5
36
102
{ACAD_REACTORS
330
2A
102
}
330
2A
100
AcDbVisualStyle
  2
Brighten
 70
    12
 71
     2
 72
     2
 73
     0
 90
        0
 40
-0.6
 41
-30.0
 62
     5
 63
     7
 74
     1
 91
        4
 64
     7
 65
   257
 75
     1
175
     1
 42
1.0
 92
        8
 66
     7
 43
1.0
 76
     1
 77
     6
 78
     2
 67
     7
 79
     5
170
     0
171
     0
290
     0
174
     0
 93
        1
 44
50.0
173
     0
291
     1
 45
0.0
1001
ACAD
1000
AcDbSavedByObjectVersion
1070
     0
  0
VISUALSTYLE
  5
3A
102
{ACAD_REACTORS
330
2A
102
}
330
2A
100
AcDbVisualStyle
  2
ColorChange
 70
    16
 71
     2
 72
     2
 73
     3
 90
        0
 40
-0.6
 41
-30.0
 62
     5
 63
     8
 74
     1
 91
        4
 64
     7
 65
   257
 75
     1
175
     1
 42
1.0
 92
        8
 66
     8
 43
1.0
 76
     1
 77
     6
 78
     2
 67
     7
 79
     5
170
     0
171
     0
290
     0
174
     0
 93
        1
 44
0.0
173
     0
291
     1
 45
0.0
1001
ACAD
1000
AcDbSavedByObjectVersion
1070
     0
  0
VISUALSTYLE
  5
34
102
{ACAD_REACTORS
330
2A
102
}
330
2A
100
AcDbVisualStyle
  2
Conceptual
 70
     9
 71
     3
 72
     2
 73
     0
 90
        0
 40
-0.6
 41
-30.0
 62
     5
 63
     7
 74
     2
 91
        2
 64
     7
 65
   257
 75
     1
175
     1
 42
40.0
 92
        8
 66
     7
 43
1.0
 76
     1
 77
     6
 78
     2
 67
     7
 79
     3
170
     0
171
     0
290
     0
174
     0
 93
        1
 44
0.0
173
     0
291
     0
 45
0.0
1001
ACAD
1000
AcDbSavedByObjectVersion
1070
     0
  0
VISUALSTYLE
  5
35
102
{ACAD_REACTORS
330
2A
102
}
330
2A
100
AcDbVisualStyle
  2
Dim
 70
    11
 71
     2
 72
     2
 73
     0
 90
        0
 40
-0.6
 41
-30.0
 62
     5
 63
     7
 74
     1
 91
        4
 64
     7
 65
   257
 75
     1
175
     1
 42
1.0
 92
        8
 66
     7
 43
1.0
 76
     1
 77
     6
 78
     2
 67
     7
 79
     5
170
     0
171
     0
290
     0
174
     0
 93
        1
 44
-50.0
173
     0
291
     1
 45
0.0
1001
ACAD
1000
AcDbSavedByObjectVersion
1070
     0
  0
VISUALSTYLE
  5
39
102
{ACAD_REACTORS
330
2A
102
}
330
2A
100
AcDbVisualStyle
  2
Facepattern
 70
    15
 71
     2
 72
     2
 73
     0
 90
        0
 40
-0.6
 41
-30.0
 62
     5
 63
     7
 74
     1
 91
        4
 64
     7
 65
   257
 75
     1
175
     1
 42
1.0
 92
        8
 66
     7
 43
1.0
 76
     1
 77
     6
 78
     2
 67
     7
 79
     5
170
     0
171
     0
290
     0
174
     0
 93
        1
 44
0.0
173
     0
291
     1
 45
0.0
1001
ACAD
1000
AcDbSavedByObjectVersion
1070
     0
  0
VISUALSTYLE
  5
2B
102
{ACAD_REACTORS
330
2A
102
}
330
2A
100
AcDbVisualStyle
  2
Flat
 70
     0
 71
     2
 72
     1
 73
     1
 90
        2
 40
-0.6
 41
30.0
 62
     5
 63
     7
 74
     0
 91
        4
 64
     7
 65
   257
 75
     1
175
     1
 42
1.0
 92
        8
 66
     7
 43
1.0
 76
     1
 77
     6
 78
     2
 67
     7
 79
     5
170
     0
171
     0
290
     0
174
     0
 93
       13
 44
0.0
173
     0
291
     1
 45
0.0
1001
ACAD
1000
AcDbSavedByObjectVersion
1070
     0
  0
VISUALSTYLE
  5
2C
102
{ACAD_REACTORS
330
2A
102
}
330
2A
100
AcDbVisualStyle
  2
FlatWithEdges
 70
     1
 71
     2
 72
     1
 73
     1
 90
        2
 40
-0.6
 41
30.0
 62
     5
 63
     7
 74
     1
 91
        4
 64
     7
 65
   257
 75
     1
175
     1
 42
1.0
 92
        0
 66
   257
 43
1.0
 76
     1
 77
     6
 78
     2
 67
     7
 79
     5
170
     0
171
     0
290
     0
174
     0
 93
       13
 44
0.0
173
     0
291
     1
 45
0.0
1001
ACAD
1000
AcDbSavedByObjectVersion
1070
     0
  0
VISUALSTYLE
  5
2D
102
{ACAD_REACTORS
330
2A
102
}
330
2A
100
AcDbVisualStyle
  2
Gouraud
 70
     2
 71
     2
 72
     2
 73
     1
 90
        2
 40
-0.6
 41
30.0
 62
     5
 63
     7
 74
     0
 91
        4
 64
     7
 65
   257
 75
     1
175
     1
 42
1.0
 92
        0
 66
     7
 43
1.0
 76
     1
 77
     6
 78
     2
 67
     7
 79
     5
170
     0
171
     0
290
     0
174
     0
 93
       13
 44
0.0
173
     0
291
     1
 45
0.0
1001
ACAD
1000
AcDbSavedByObjectVersion
1070
     0
  0
VISUALSTYLE
  5
2E
102
{ACAD_REACTORS
330
2A
102
}
330
2A
100
AcDbVisualStyle
  2
GouraudWithEdges
 70
     3
 71
     2
 72
     2
 73
     1
 90
        2
 40
-0.6
 41
30.0
 62
     5
 63
     7
 74
     1
 91
        4
 64
     7
 65
   257
 75
     1
175
     1
 42
1.0
 92
        0
 66
   257
 43
1.0
 76
     1
 77
     6
 78
     2
 67
     7
 79
     5
170
     0
171
     0
290
     0
174
     0
 93
       13
 44
0.0
173
     0
291
     1
 45
0.0
1001
ACAD
1000
AcDbSavedByObjectVersion
1070
     0
  0
VISUALSTYLE
  5
38
102
{ACAD_REACTORS
330
2A
102
}
330
2A
100
AcDbVisualStyle
  2
Linepattern
 70
    14
 71
     2
 72
     2
 73
     0
 90
        0
 40
-0.6
 41
-30.0
 62
     5
 63
     7
 74
     1
 91
        4
 64
     7
 65
   257
 75
     7
175
     7
 42
1.0
 92
        8
 66
     7
 43
1.0
 76
     1
 77
     6
 78
     2
 67
     7
 79
     5
170
     0
171
     0
290
     0
174
     0
 93
        1
 44
0.0
173
     0
291
     1
 45
0.0
1001
ACAD
1000
AcDbSavedByObjectVersion
1070
     0
  0
VISUALSTYLE
  5
33
102
{ACAD_REACTORS
330
2A
102
}
330
2A
100
AcDbVisualStyle
  2
Realistic
 70
     8
 71
     2
 72
     2
 73
     0
 90
        0
 40
-0.6
 41
-30.0
 62
     5
 63
     7
 74
     1
 91
        0
 64
     7
 65
   257
 75
     1
175
     1
 42
1.0
 92
        8
 66
     8
 43
1.0
 76
     1
 77
     6
 78
     2
 67
     7
 79
     5
170
     0
171
     0
290
     0
174
     0
 93
       13
 44
0.0
173
     0
291
     0
 45
0.0
1001
ACAD
1000
AcDbSavedByObjectVersion
1070
     0
  0
VISUALSTYLE
  5
37
102
{ACAD_REACTORS
330
2A
102
}
330
2A
100
AcDbVisualStyle
  2
Thicken
 70
    13
 71
     2
 72
     2
 73
     0
 90
        0
 40
-0.6
 41
-30.0
 62
     5
 63
     7
 74
     1
 91
        4
 64
     7
 65
   257
 75
     1
175
     1
 42
1.0
 92
       12
 66
     7
 43
1.0
 76
     1
 77
     6
 78
     2
 67
     7
 79
     5
170
     0
171
     0
290
     0
174
     0
 93
        1
 44
0.0
173
     0
291
     1
 45
0.0
1001
ACAD
1000
AcDbSavedByObjectVersion
1070
     0
  0
DICTIONARYVAR
  5
22D
102
{ACAD_REACTORS
330
22C
102
}
330
22C
100
DictionaryVariables
280
     0
  1
1:1
  0
DICTIONARYVAR
  5
231
102
{ACAD_REACTORS
330
22C
102
}
330
22C
100
DictionaryVariables
280
     0
  1
80.000000
  0
DICTIONARYVAR
  5
230
102
{ACAD_REACTORS
330
22C
102
}
330
22C
100
DictionaryVariables
280
     0
  1
5.000000
  0
ENDSEC
  0
EOF
