  0
SECTION
  2
HEADER
  9
$ACADVER
  1
AC1015
  9
$ACADMAINTVER
 70
     6
  9
$DWGCODEPAGE
  3
ANSI_1252
  9
$INSBASE
 10
0.0
 20
0.0
 30
0.0
  9
$EXTMIN
 10
0.0
 20
0.0
 30
0.0
  9
$EXTMAX
 10
3000.0
 20
4500.0
 30
0.0
  9
$LIMMIN
 10
0.0
 20
0.0
  9
$LIMMAX
 10
3000.0
 20
4500.0
  9
$ORTHOMODE
 70
     0
  9
$REGENMODE
 70
     1
  9
$FILLMODE
 70
     1
  9
$QTEXTMODE
 70
     0
  9
$MIRRTEXT
 70
     1
  9
$LTSCALE
 40
1.0
  9
$ATTMODE
 70
     1
  9
$TEXTSIZE
 40
2.5
  9
$TRACEWID
 40
1.0
  9
$TEXTSTYLE
  7
Standard
  9
$CLAYER
  8
0
  9
$CELTYPE
  6
ByLayer
  9
$CECOLOR
 62
   256
  9
$CELTSCALE
 40
1.0
  9
$DISPSILH
 70
     0
  9
$DIMSCALE
 40
1.0
  9
$DIMASZ
 40
2.5
  9
$DIMEXO
 40
0.625
  9
$DIMDLI
 40
3.75
  9
$DIMRND
 40
0.0
  9
$DIMDLE
 40
0.0
  9
$DIMEXE
 40
1.25
  9
$DIMTP
 40
0.0
  9
$DIMTM
 40
0.0
  9
$DIMTXT
 40
2.5
  9
$DIMCEN
 40
2.5
  9
$DIMTSZ
 40
0.0
  9
$DIMTOL
 70
     0
  9
$DIMLIM
 70
     0
  9
$DIMTIH
 70
     0
  9
$DIMTOH
 70
     0
  9
$DIMSE1
 70
     0
  9
$DIMSE2
 70
     0
  9
$DIMTAD
 70
     1
  9
$DIMZIN
 70
     8
  9
$DIMBLK
  1

  9
$DIMASO
 70
     1
  9
$DIMSHO
 70
     1
  9
$DIMPOST
  1

  9
$DIMAPOST
  1

  9
$DIMALT
 70
     0
  9
$DIMALTD
 70
     3
  9
$DIMALTF
 40
0.0393700787
  9
$DIMLFAC
 40
1.0
  9
$DIMTOFL
 70
     1
  9
$DIMTVP
 40
0.0
  9
$DIMTIX
 70
     0
  9
$DIMSOXD
 70
     0
  9
$DIMSAH
 70
     0
  9
$DIMBLK1
  1

  9
$DIMBLK2
  1

  9
$DIMSTYLE
  2
ISO-25
  9
$DIMCLRD
 70
     0
  9
$DIMCLRE
 70
     0
  9
$DIMCLRT
 70
     0
  9
$DIMTFAC
 40
1.0
  9
$DIMGAP
 40
0.625
  9
$DIMJUST
 70
     0
  9
$DIMSD1
 70
     0
  9
$DIMSD2
 70
     0
  9
$DIMTOLJ
 70
     0
  9
$DIMTZIN
 70
     8
  9
$DIMALTZ
 70
     0
  9
$DIMALTTZ
 70
     0
  9
$DIMUPT
 70
     0
  9
$DIMDEC
 70
     2
  9
$DIMTDEC
 70
     2
  9
$DIMALTU
 70
     2
  9
$DIMALTTD
 70
     3
  9
$DIMTXSTY
  7
Standard
  9
$DIMAUNIT
 70
     0
  9
$DIMADEC
 70
     0
  9
$DIMALTRND
 40
0.0
  9
$DIMAZIN
 70
     0
  9
$DIMDSEP
 70
    44
  9
$DIMATFIT
 70
     3
  9
$DIMFRAC
 70
     0
  9
$DIMLDRBLK
  1

  9
$DIMLUNIT
 70
     2
  9
$DIMLWD
 70
    -2
  9
$DIMLWE
 70
    -2
  9
$DIMTMOVE
 70
     0
  9
$LUNITS
 70
     2
  9
$LUPREC
 70
     4
  9
$SKETCHINC
 40
1.0
  9
$FILLETRAD
 40
10.0
  9
$AUNITS
 70
     0
  9
$AUPREC
 70
     0
  9
$MENU
  1
.
  9
$ELEVATION
 40
0.0
  9
$PELEVATION
 40
0.0
  9
$THICKNESS
 40
0.0
  9
$LIMCHECK
 70
     0
  9
$CHAMFERA
 40
10.0
  9
$CHAMFERB
 40
10.0
  9
$CHAMFERC
 40
20.0
  9
$CHAMFERD
 40
0.0
  9
$SKPOLY
 70
     0
  9
$TDCREATE
 40
2455796.470999375
  9
$TDUCREATE
 40
2455796.387666041
  9
$TDUPDATE
 40
2455796.470999387
  9
$TDUUPDATE
 40
2455796.387666053
  9
$TDINDWG
 40
0.0000000116
  9
$TDUSRTIMER
 40
0.0000000116
  9
$USRTIMER
 70
     1
  9
$ANGBASE
 50
0.0
  9
$ANGDIR
 70
     0
  9
$PDMODE
 70
     0
  9
$PDSIZE
 40
0.0
  9
$PLINEWID
 40
0.0
  9
$SPLFRAME
 70
     0
  9
$SPLINETYPE
 70
     6
  9
$SPLINESEGS
 70
     8
  9
$HANDSEED
  5
1EE
  9
$SURFTAB1
 70
     6
  9
$SURFTAB2
 70
     6
  9
$SURFTYPE
 70
     6
  9
$SURFU
 70
     6
  9
$SURFV
 70
     6
  9
$UCSBASE
  2

  9
$UCSNAME
  2

  9
$UCSORG
 10
0.0
 20
0.0
 30
0.0
  9
$UCSXDIR
 10
1.0
 20
0.0
 30
0.0
  9
$UCSYDIR
 10
0.0
 20
1.0
 30
0.0
  9
$UCSORTHOREF
  2

  9
$UCSORTHOVIEW
 70
     0
  9
$UCSORGTOP
 10
0.0
 20
0.0
 30
0.0
  9
$UCSORGBOTTOM
 10
0.0
 20
0.0
 30
0.0
  9
$UCSORGLEFT
 10
0.0
 20
0.0
 30
0.0
  9
$UCSORGRIGHT
 10
0.0
 20
0.0
 30
0.0
  9
$UCSORGFRONT
 10
0.0
 20
0.0
 30
0.0
  9
$UCSORGBACK
 10
0.0
 20
0.0
 30
0.0
  9
$PUCSBASE
  2

  9
$PUCSNAME
  2

  9
$PUCSORG
 10
0.0
 20
0.0
 30
0.0
  9
$PUCSXDIR
 10
1.0
 20
0.0
 30
0.0
  9
$PUCSYDIR
 10
0.0
 20
1.0
 30
0.0
  9
$PUCSORTHOREF
  2

  9
$PUCSORTHOVIEW
 70
     0
  9
$PUCSORGTOP
 10
0.0
 20
0.0
 30
0.0
  9
$PUCSORGBOTTOM
 10
0.0
 20
0.0
 30
0.0
  9
$PUCSORGLEFT
 10
0.0
 20
0.0
 30
0.0
  9
$PUCSORGRIGHT
 10
0.0
 20
0.0
 30
0.0
  9
$PUCSORGFRONT
 10
0.0
 20
0.0
 30
0.0
  9
$PUCSORGBACK
 10
0.0
 20
0.0
 30
0.0
  9
$USERI1
 70
     0
  9
$USERI2
 70
     0
  9
$USERI3
 70
     0
  9
$USERI4
 70
     0
  9
$USERI5
 70
     0
  9
$USERR1
 40
0.0
  9
$USERR2
 40
0.0
  9
$USERR3
 40
0.0
  9
$USERR4
 40
0.0
  9
$USERR5
 40
0.0
  9
$WORLDVIEW
 70
     1
  9
$SHADEDGE
 70
     3
  9
$SHADEDIF
 70
    70
  9
$TILEMODE
 70
     1
  9
$MAXACTVP
 70
    64
  9
$PINSBASE
 10
0.0
 20
0.0
 30
0.0
  9
$PLIMCHECK
 70
     0
  9
$PEXTMIN
 10
0.0
 20
0.0
 30
0.0
  9
$PEXTMAX
 10
3000.0
 20
4500.0
 30
0.0
  9
$PLIMMIN
 10
0.0
 20
0.0
  9
$PLIMMAX
 10
3000.0
 20
4500.0
  9
$UNITMODE
 70
     0
  9
$VISRETAIN
 70
     1
  9
$PLINEGEN
 70
     0
  9
$PSLTSCALE
 70
     1
  9
$TREEDEPTH
 70
  3020
  9
$CMLSTYLE
  2
Standard
  9
$CMLJUST
 70
     0
  9
$CMLSCALE
 40
20.0
  9
$PROXYGRAPHICS
 70
     1
  9
$MEASUREMENT
 70
     1
  9
$CELWEIGHT
370
    -1
  9
$ENDCAPS
280
     0
  9
$JOINSTYLE
280
     0
  9
$LWDISPLAY
290
     0
  9
$INSUNITS
 70
     4
  9
$HYPERLINKBASE
  1

  9
$STYLESHEET
  1

  9
$XEDIT
290
     1
  9
$CEPSNTYPE
380
     0
  9
$PSTYLEMODE
290
     1
  9
$FINGERPRINTGUID
  2
{3EA66179-39D4-4479-BC8E-CE6A6E341928}
  9
$VERSIONGUID
  2
{FAEB1C32-E019-11D5-929B-00C0DF256EC4}
  9
$EXTNAMES
290
     1
  9
$PSVPSCALE
 40
0.0
  9
$OLESTARTUP
290
     0
  0
ENDSEC
  0
SECTION
  2
CLASSES
  0
CLASS
  1
ACDBDICTIONARYWDFLT
  2
AcDbDictionaryWithDefault
  3
ObjectDBX Classes
 90
        0
280
     0
281
     0
  0
CLASS
  1
VISUALSTYLE
  2
AcDbVisualStyle
  3
ObjectDBX Classes
 90
     4095
280
     0
281
     0
  0
CLASS
  1
SCALE
  2
AcDbScale
  3
ObjectDBX Classes
 90
     1153
280
     0
281
     0
  0
CLASS
  1
DICTIONARYVAR
  2
AcDbDictionaryVar
  3
ObjectDBX Classes
 90
        0
280
     0
281
     0
  0
CLASS
  1
ACDBPLACEHOLDER
  2
AcDbPlaceHolder
  3
ObjectDBX Classes
 90
        0
280
     0
281
     0
  0
CLASS
  1
LAYOUT
  2
AcDbLayout
  3
ObjectDBX Classes
 90
        0
280
     0
281
     0
  0
ENDSEC
  0
SECTION
  2
TABLES
  0
TABLE
  2
VPORT
  5
8
330
0
100
AcDbSymbolTable
 70
     1
  0
VPORT
  5
29
330
8
100
AcDbSymbolTableRecord
100
AcDbViewportTableRecord
  2
*Active
 70
     0
 10
0.0
 20
0.0
 11
1.0
 21
1.0
 12
344.1869158879
 22
148.5
 13
0.0
 23
0.0
 14
10.0
 24
10.0
 15
10.0
 25
10.0
 16
0.0
 26
0.0
 36
1.0
 17
0.0
 27
0.0
 37
0.0
 40
297.0
 41
1.9729729729
 42
50.0
 43
0.0
 44
0.0
 50
0.0
 51
0.0
 71
     0
 72
   100
 73
     1
 74
     3
 75
     0
 76
     0
 77
     0
 78
     0
281
     0
 65
     1
110
0.0
120
0.0
130
0.0
111
1.0
121
0.0
131
0.0
112
0.0
122
1.0
132
0.0
 79
     0
146
0.0
  0
ENDTAB
  0
TABLE
  2
LTYPE
  5
5
330
0
100
AcDbSymbolTable
 70
     2
  0
LTYPE
  5
14
330
5
100
AcDbSymbolTableRecord
100
AcDbLinetypeTableRecord
  2
ByBlock
 70
     0
  3

 72
    65
 73
     0
 40
0.0
  0
LTYPE
  5
15
330
5
100
AcDbSymbolTableRecord
100
AcDbLinetypeTableRecord
  2
ByLayer
 70
     0
  3

 72
    65
 73
     0
 40
0.0
  0
LTYPE
  5
16
330
5
100
AcDbSymbolTableRecord
100
AcDbLinetypeTableRecord
  2
Continuous
 70
     0
  3
Solid line
 72
    65
 73
     0
 40
0.0
  0
LTYPE
  5
60
330
5
100
AcDbSymbolTableRecord
100
AcDbLinetypeTableRecord
  2
CENTER2
 70
     0
  3
Center (.5x) ___ _ ___ _ ___ _ ___ _ ___ _ ___
 72
    65
 73
     4
 40
28.575
 49
19.05
 74
     4
 75
     0
340
0
 46
0.0
 50
0.0
 44
0.0
 45
0.0
 49
-3.175
 74
     4
 75
     0
340
0
 46
0.0
 50
0.0
 44
0.0
 45
0.0
 49
3.175
 74
     4
 75
     0
340
0
 46
0.0
 50
0.0
 44
0.0
 45
0.0
 49
-3.175
 74
     4
 75
     0
340
0
 46
0.0
 50
0.0
 44
0.0
 45
0.0
  0
ENDTAB
  0
TABLE
  2
LAYER
  5
2
330
0
100
AcDbSymbolTable
 70
     9
  0
LAYER
  5
10
330
2
100
AcDbSymbolTableRecord
100
AcDbLayerTableRecord
  2
0
 70
     0
 62
     7
  6
Continuous
370
    -3
390
F
  0
LAYER
  5
5D
330
2
100
AcDbSymbolTableRecord
100
AcDbLayerTableRecord
  2
Default
 70
     0
 62
     7
  6
Continuous
370
    -3
390
F
  0
LAYER
  5
77
330
2
100
AcDbSymbolTableRecord
100
AcDbLayerTableRecord
  2
$DDT_AUDIT_GENERATED_(77)
 70
     0
 62
     7
  6
Continuous
370
    -3
390
F
  0
LAYER
  5
89
330
2
100
AcDbSymbolTableRecord
100
AcDbLayerTableRecord
  2
$DDT_AUDIT_GENERATED_(89)
 70
     0
 62
     7
  6
Continuous
370
    -3
390
F
  0
LAYER
  5
9A
330
2
100
AcDbSymbolTableRecord
100
AcDbLayerTableRecord
  2
$DDT_AUDIT_GENERATED_(9A)
 70
     0
 62
     7
  6
Continuous
370
    -3
390
F
  0
LAYER
  5
AD
330
2
100
AcDbSymbolTableRecord
100
AcDbLayerTableRecord
  2
$DDT_AUDIT_GENERATED_(AD)
 70
     0
 62
     7
  6
Continuous
370
    -3
390
F
  0
LAYER
  5
B4
330
2
100
AcDbSymbolTableRecord
100
AcDbLayerTableRecord
  2
06828131_MOUSSEU
 70
     0
 62
     7
  6
Continuous
370
    -3
390
F
  0
LAYER
  5
162
330
2
100
AcDbSymbolTableRecord
100
AcDbLayerTableRecord
  2
$DDT_AUDIT_GENERATED_(162)
 70
     0
 62
     7
  6
Continuous
370
    -3
390
F
  0
LAYER
  5
1A0
330
2
100
AcDbSymbolTableRecord
100
AcDbLayerTableRecord
  2
$DDT_AUDIT_GENERATED_(1A0)
 70
     0
 62
     7
  6
Continuous
370
    -3
390
F
  0
ENDTAB
  0
TABLE
  2
STYLE
  5
3
330
0
100
AcDbSymbolTable
 70
     2
  0
STYLE
  5
11
330
3
100
AcDbSymbolTableRecord
100
AcDbTextStyleTableRecord
  2
Standard
 70
     0
 40
0.0
 41
1.0
 50
0.0
 71
     0
 42
2.5
  3
txt
  4

  0
STYLE
  5
1DD
330
3
100
AcDbSymbolTableRecord
100
AcDbTextStyleTableRecord
  2
SEACAD_seiso_ttf
 70
     0
 40
0.0
 41
1.0
 50
0.0
 71
     0
 42
0.2
  3
seiso.ttf
  4

  0
ENDTAB
  0
TABLE
  2
VIEW
  5
6
330
0
100
AcDbSymbolTable
 70
     0
  0
ENDTAB
  0
TABLE
  2
UCS
  5
7
330
0
100
AcDbSymbolTable
 70
     0
  0
ENDTAB
  0
TABLE
  2
APPID
  5
9
330
0
100
AcDbSymbolTable
 70
     1
  0
APPID
  5
12
330
9
100
AcDbSymbolTableRecord
100
AcDbRegAppTableRecord
  2
ACAD
 70
     0
  0
ENDTAB
  0
TABLE
  2
DIMSTYLE
  5
A
330
0
100
AcDbSymbolTable
 70
     1
100
AcDbDimStyleTable
  0
DIMSTYLE
105
27
330
A
100
AcDbSymbolTableRecord
100
AcDbDimStyleTableRecord
  2
ISO-25
 70
     0
 41
2.5
 42
0.625
 43
3.75
 44
1.25
 73
     0
 74
     0
 77
     1
 78
     8
140
2.5
141
2.5
143
0.0393700787
147
0.625
171
     3
172
     1
271
     2
272
     2
274
     3
278
    44
283
     0
284
     8
340
11
  0
ENDTAB
  0
TABLE
  2
BLOCK_RECORD
  5
1
330
0
100
AcDbSymbolTable
 70
     7
  0
BLOCK_RECORD
  5
1F
330
1
100
AcDbSymbolTableRecord
100
AcDbBlockTableRecord
  2
*Model_Space
340
22
  0
BLOCK_RECORD
  5
1B
330
1
100
AcDbSymbolTableRecord
100
AcDbBlockTableRecord
  2
*Paper_Space
340
1E
  0
BLOCK_RECORD
  5
5E
330
1
100
AcDbSymbolTableRecord
100
AcDbBlockTableRecord
  2
SEANNOT_GROUP
340
0
102
{BLKREFS
331
5F
102
}
  0
BLOCK_RECORD
  5
65
330
1
100
AcDbSymbolTableRecord
100
AcDbBlockTableRecord
  2
SEANNOT_GROUP1
340
0
102
{BLKREFS
331
66
102
}
  0
BLOCK_RECORD
  5
6B
330
1
100
AcDbSymbolTableRecord
100
AcDbBlockTableRecord
  2
SEANNOT_GROUP2
340
0
102
{BLKREFS
331
6C
102
}
  0
BLOCK_RECORD
  5
75
330
1
100
AcDbSymbolTableRecord
100
AcDbBlockTableRecord
  2
SE
340
0
102
{BLKREFS
331
76
102
}
  0
BLOCK_RECORD
  5
16B
330
1
100
AcDbSymbolTableRecord
100
AcDbBlockTableRecord
  2
SE1
340
0
102
{BLKREFS
331
16C
102
}
  0
BLOCK_RECORD
  5
1B3
330
1
100
AcDbSymbolTableRecord
100
AcDbBlockTableRecord
  2
SE2
340
0
102
{BLKREFS
331
1B4
102
}
  0
ENDTAB
  0
ENDSEC
  0
SECTION
  2
BLOCKS
  0
BLOCK
  5
20
330
1F
100
AcDbEntity
  8
0
100
AcDbBlockBegin
  2
*Model_Space
 70
     0
 10
0.0
 20
0.0
 30
0.0
  3
*Model_Space
  1

  0
ENDBLK
  5
21
330
1F
100
AcDbEntity
  8
0
100
AcDbBlockEnd
  0
BLOCK
  5
1C
330
1B
100
AcDbEntity
 67
     1
  8
0
100
AcDbBlockBegin
  2
*Paper_Space
 70
     0
 10
0.0
 20
0.0
 30
0.0
  3
*Paper_Space
  1

  0
ENDBLK
  5
1D
330
1B
100
AcDbEntity
 67
     1
  8
0
100
AcDbBlockEnd
  0
BLOCK
  5
63
330
5E
100
AcDbEntity
  8
0
100
AcDbBlockBegin
  2
SEANNOT_GROUP
 70
     0
 10
0.0
 20
0.0
 30
0.0
  3
SEANNOT_GROUP
  1

  0
LINE
  5
61
330
5E
100
AcDbEntity
  8
Default
  6
CENTER2
 62
     7
100
AcDbLine
 10
62.946807341
 20
920.8916592277
 30
0.0
 11
22.9468082351
 21
920.8916592277
 31
0.0
  0
LINE
  5
62
330
5E
100
AcDbEntity
  8
Default
  6
CENTER2
 62
     7
100
AcDbLine
 10
42.946807788
 20
940.8916587807
 30
0.0
 11
42.946807788
 21
900.8916596748
 31
0.0
  0
ENDBLK
  5
64
330
5E
100
AcDbEntity
  8
0
100
AcDbBlockEnd
  0
BLOCK
  5
69
330
65
100
AcDbEntity
  8
0
100
AcDbBlockBegin
  2
SEANNOT_GROUP1
 70
     0
 10
0.0
 20
0.0
 30
0.0
  3
SEANNOT_GROUP1
  1

  0
LINE
  5
67
330
65
100
AcDbEntity
  8
Default
  6
CENTER2
 62
     7
100
AcDbLine
 10
196.7400737433
 20
920.8916592277
 30
0.0
 11
156.7400746374
 21
920.8916592277
 31
0.0
  0
LINE
  5
68
330
65
100
AcDbEntity
  8
Default
  6
CENTER2
 62
     7
100
AcDbLine
 10
176.7400741903
 20
940.8916587807
 30
0.0
 11
176.7400741903
 21
900.8916596748
 31
0.0
  0
ENDBLK
  5
6A
330
65
100
AcDbEntity
  8
0
100
AcDbBlockEnd
  0
BLOCK
  5
73
330
6B
100
AcDbEntity
  8
0
100
AcDbBlockBegin
  2
SEANNOT_GROUP2
 70
     0
 10
0.0
 20
0.0
 30
0.0
  3
SEANNOT_GROUP2
  1

  0
LINE
  5
6D
330
6B
100
AcDbEntity
  8
Default
  6
CENTER2
 62
     7
100
AcDbLine
 10
62.946807341
 20
363.6353900343
 30
0.0
 11
22.9468082351
 21
363.6353900343
 31
0.0
  0
LINE
  5
6E
330
6B
100
AcDbEntity
  8
Default
  6
CENTER2
 62
     7
100
AcDbLine
 10
42.946807788
 20
383.6353895873
 30
0.0
 11
42.946807788
 21
343.6353904814
 31
0.0
  0
LINE
  5
6F
330
6B
100
AcDbEntity
  8
Default
  6
CENTER2
 62
     7
100
AcDbLine
 10
67.9468072292
 20
363.6353900343
 30
0.0
 11
75.446807788
 21
363.6353900343
 31
0.0
  0
LINE
  5
70
330
6B
100
AcDbEntity
  8
Default
  6
CENTER2
 62
     7
100
AcDbLine
 10
42.946807788
 20
388.6353894755
 30
0.0
 11
42.946807788
 21
396.1353900343
 31
0.0
  0
LINE
  5
71
330
6B
100
AcDbEntity
  8
Default
  6
CENTER2
 62
     7
100
AcDbLine
 10
17.9468083468
 20
363.6353900343
 30
0.0
 11
10.446807788
 21
363.6353900343
 31
0.0
  0
LINE
  5
72
330
6B
100
AcDbEntity
  8
Default
  6
CENTER2
 62
     7
100
AcDbLine
 10
42.946807788
 20
338.6353905931
 30
0.0
 11
42.946807788
 21
331.1353900343
 31
0.0
  0
ENDBLK
  5
74
330
6B
100
AcDbEntity
  8
0
100
AcDbBlockEnd
  0
BLOCK
  5
169
330
75
100
AcDbEntity
  8
0
100
AcDbBlockBegin
  2
SE
 70
     0
 10
0.0
 20
0.0
 30
0.0
  3
SE
  1

  0
LINE
  5
78
330
75
100
AcDbEntity
  8
$DDT_AUDIT_GENERATED_(77)
  6
Continuous
 62
     7
100
AcDbLine
 10
71.946807788
 20
920.8916592277
 30
0.0
 11
13.946807788
 21
920.8916592277
 31
0.0
  0
ELLIPSE
  5
79
330
75
100
AcDbEntity
  8
$DDT_AUDIT_GENERATED_(77)
  6
Continuous
 62
     7
100
AcDbEllipse
 10
42.946807788
 20
1086.7828269007
 30
0.0
 11
14.00000000000004
 21
-2.775557561562892E-14
 31
0.0
210
0.0
220
0.0
230
1.0
 40
0.8660254038
 41
6.183397437317972
 42
6.283185307179586
  0
ELLIPSE
  5
7A
330
75
100
AcDbEntity
  8
$DDT_AUDIT_GENERATED_(77)
  6
Continuous
 62
     7
100
AcDbEllipse
 10
42.946807788
 20
1086.7828269007
 30
0.0
 11
14.00000000000004
 21
-2.775557561562892E-14
 31
0.0
210
0.0
220
0.0
230
1.0
 40
0.8660254038
 41
3.039778434771571
 42
3.237205530334271
  0
ELLIPSE
  5
7B
330
75
100
AcDbEntity
  8
$DDT_AUDIT_GENERATED_(77)
  6
Continuous
 62
     7
100
AcDbEllipse
 10
42.946807788
 20
1086.7828269007
 30
0.0
 11
14.00000000000004
 21
-2.775557561562892E-14
 31
0.0
210
0.0
220
0.0
230
1.0
 40
0.8660254038
 41
0.0
 42
0.097220876157527
  0
SPLINE
  5
7C
330
75
100
AcDbEntity
  8
$DDT_AUDIT_GENERATED_(77)
  6
Continuous
 62
     7
100
AcDbSpline
210
0.0
220
0.0
230
1.0
 70
     8
 71
     3
 72
    10
 73
     6
 74
     0
 42
0.0000000000961691
 43
0.0000000001
 40
0.2185380622494029
 40
0.2185380622494029
 40
0.2185380622494029
 40
0.2185380622494029
 40
0.2187500000000005
 40
0.2187500000000005
 40
0.2190051388275566
 40
0.2190051388275566
 40
0.2190051388275566
 40
0.2190051388275566
 10
56.94677614551176
 20
959.114283455562
 30
0.0
 10
56.94678840066123
 20
959.1216315345721
 30
0.0
 10
56.94679708853815
 20
959.1289787279225
 30
0.0
 10
56.94680839085889
 20
959.1451687761139
 30
0.0
 10
56.94680953283156
 20
959.1540109944929
 30
0.0
 10
56.94680565316713
 20
959.1628516817766
 30
0.0
  0
LINE
  5
7D
330
75
100
AcDbEntity
  8
$DDT_AUDIT_GENERATED_(77)
  6
Continuous
 62
     7
100
AcDbLine
 10
71.946807788
 20
988.8916592277
 30
0.0
 11
56.946807788
 21
988.8916592277
 31
0.0
  0
LINE
  5
7E
330
75
100
AcDbEntity
  8
$DDT_AUDIT_GENERATED_(77)
  6
Continuous
 62
     7
100
AcDbLine
 10
28.946807788
 20
988.8916592277
 30
0.0
 11
13.946807788
 21
988.8916592277
 31
0.0
  0
ELLIPSE
  5
7F
330
75
100
AcDbEntity
  8
$DDT_AUDIT_GENERATED_(77)
  6
Continuous
 62
     7
100
AcDbEllipse
 10
42.946807788
 20
1073.0141449014
 30
0.0
 11
-11.75000000000617
 21
0.0
 31
0.0
210
0.0
220
0.0
230
1.0
 40
0.1736481777
 41
-3.386281435286982
 42
-3.318027728062242
  0
ELLIPSE
  5
80
330
75
100
AcDbEntity
  8
$DDT_AUDIT_GENERATED_(77)
  6
Continuous
 62
     7
100
AcDbEllipse
 10
42.946807788
 20
1073.0141449014
 30
0.0
 11
-11.75000000000617
 21
0.0
 31
0.0
210
0.0
220
0.0
230
1.0
 40
0.1736481777
 41
0.1658845698746591
 42
0.2446887816972121
  0
SPLINE
  5
81
330
75
100
AcDbEntity
  8
$DDT_AUDIT_GENERATED_(77)
  6
Continuous
 62
     7
100
AcDbSpline
210
0.0
220
0.0
230
1.0
 70
     8
 71
     3
 72
     8
 73
     4
 74
     0
 42
0.0000000002306849
 43
0.0000000001
 40
0.2722156068063056
 40
0.2722156068063056
 40
0.2722156068063056
 40
0.2722156068063056
 40
0.2725760648089304
 40
0.2725760648089304
 40
0.2725760648089304
 40
0.2725760648089304
 10
54.69667265343211
 20
1072.36727483732
 30
0.0
 10
54.6966979375209
 20
1072.372505164921
 30
0.0
 10
54.6967119360941
 20
1072.377713725028
 30
0.0
 10
54.69671458687563
 20
1072.382900314135
 30
0.0
  0
SPLINE
  5
82
330
75
100
AcDbEntity
  8
$DDT_AUDIT_GENERATED_(77)
  6
Continuous
 62
     7
100
AcDbSpline
210
0.0
220
0.0
230
1.0
 70
     8
 71
     3
 72
     8
 73
     4
 74
     0
 42
0.0000000002335385
 43
0.0000000001
 40
0.7269289597660087
 40
0.7269289597660087
 40
0.7269289597660087
 40
0.7269289597660087
 40
0.7280258208423801
 40
0.7280258208423801
 40
0.7280258208423801
 40
0.7280258208423801
 10
31.19727751250574
 20
1072.427855380076
 30
0.0
 10
31.19708477954308
 20
1072.41240944865
 30
0.0
 10
31.19699927365261
 20
1072.396752250571
 30
0.0
 10
31.19701921662445
 20
1072.380889802903
 30
0.0
  0
LINE
  5
83
330
75
100
AcDbEntity
  8
$DDT_AUDIT_GENERATED_(77)
  6
Continuous
 62
     7
100
AcDbLine
 10
71.946807788
 20
920.8916592277
 30
0.0
 11
71.946807788
 21
988.8916592277
 31
0.0
  0
LINE
  5
84
330
75
100
AcDbEntity
  8
$DDT_AUDIT_GENERATED_(77)
  6
Continuous
 62
     7
100
AcDbLine
 10
13.946807788
 20
988.8916592277
 30
0.0
 11
13.946807788
 21
920.8916592277
 31
0.0
  0
LINE
  5
85
330
75
100
AcDbEntity
  8
$DDT_AUDIT_GENERATED_(77)
  6
Continuous
 62
     7
100
AcDbLine
 10
28.946807788
 20
1086.7828269007
 30
0.0
 11
28.946807788
 21
959.1542193163
 31
0.0
  0
LINE
  5
86
330
75
100
AcDbEntity
  8
$DDT_AUDIT_GENERATED_(77)
  6
Continuous
 62
     7
100
AcDbLine
 10
56.946807788
 20
959.1606679761
 30
0.0
 11
56.946807788
 21
1086.7828269007
 31
0.0
  0
SPLINE
  5
87
330
75
100
AcDbEntity
  8
$DDT_AUDIT_GENERATED_(77)
  6
Continuous
 62
     7
100
AcDbSpline
210
0.0
220
0.0
230
1.0
 70
     8
 71
     3
 72
    56
 73
    52
 74
     0
 42
0.0000000002574557
 43
0.0000000001
 40
0.0
 40
0.0
 40
0.0
 40
0.0
 40
0.0094168366061215
 40
0.0301757458887658
 40
0.0509415129348318
 40
0.0717183694946883
 40
0.0925099700542555
 40
0.1133192536986094
 40
0.1341483630345769
 40
0.1549986218445436
 40
0.1758705671491409
 40
0.1967640264893852
 40
0.2176782280483671
 40
0.2386119299428696
 40
0.2595635555142726
 40
0.2805313233493028
 40
0.3015133635209533
 40
0.3225078145945961
 40
0.3435128988160443
 40
0.3645269752680815
 40
0.3855485724945065
 40
0.4065764031407135
 40
0.427609363633025
 40
0.448646521956573
 40
0.4696870963425818
 40
0.4907304272738131
 40
0.5117759447699717
 40
0.5328231288701403
 40
0.5538713162056988
 40
0.5749199699651887
 40
0.5959684790001764
 40
0.6170161205379587
 40
0.6380620255167792
 40
0.6591051481314583
 40
0.6801442416910438
 40
0.7011778433990753
 40
0.7222042711428395
 40
0.7432216357075474
 40
0.7642278718688716
 40
0.7852207913955185
 40
0.8061981599477451
 40
0.827157798074704
 40
0.8480977039798241
 40
0.8690161925910124
 40
0.8899120420862832
 40
0.9107846359201796
 40
0.9316340862205607
 40
0.9524613238089469
 40
0.9732681414844837
 40
0.9940571807123046
 40
1.0
 40
1.0
 40
1.0
 40
1.0
 10
56.87262319984595
 20
1087.986990272095
 30
0.0
 10
56.86034636329897
 20
1088.111864393427
 30
0.0
 10
56.82600860004548
 20
1088.452362347374
 30
0.0
 10
56.7074682458686
 20
1089.076839417869
 30
0.0
 10
56.52391475595911
 20
1089.80758597141
 30
0.0
 10
56.28560534649418
 20
1090.533323046469
 30
0.0
 10
55.99791440984967
 20
1091.243206409408
 30
0.0
 10
55.66067586377473
 20
1091.936784198545
 30
0.0
 10
55.27543721739843
 20
1092.610875360275
 30
0.0
 10
54.84351551527288
 20
1093.263100295346
 30
0.0
 10
54.36651894819725
 20
1093.890947044576
 30
0.0
 10
53.84620478077631
 20
1094.492036768095
 30
0.0
 10
53.28451273860269
 20
1095.064068309958
 30
0.0
 10
52.6835485658867
 20
1095.604849006385
 30
0.0
 10
52.04557836225105
 20
1096.11230176469
 30
0.0
 10
51.37301779632727
 20
1096.584477343014
 30
0.0
 10
50.66842095071017
 20
1097.019563664034
 30
0.0
 10
49.93446804861173
 20
1097.415894140558
 30
0.0
 10
49.17395275840779
 20
1097.771954438943
 30
0.0
 10
48.3897693062571
 20
1098.086387922463
 30
0.0
 10
47.58489965130449
 20
1098.357999883539
 30
0.0
 10
46.76240086865204
 20
1098.585760751968
 30
0.0
 10
45.92539282374604
 20
1098.768808453102
 30
0.0
 10
45.07704616671761
 20
1098.906450077504
 30
0.0
 10
44.22057063938652
 20
1098.998162997825
 30
0.0
 10
43.35920366517228
 20
1099.043595541805
 30
0.0
 10
42.4961992311387
 20
1099.042567305135
 30
0.0
 10
41.63481908645862
 20
1098.995069300524
 30
0.0
 10
40.77831982445021
 20
1098.901264155091
 30
0.0
 10
39.92994214867119
 20
1098.761485707424
 30
0.0
 10
39.09289817961818
 20
1098.576237808701
 30
0.0
 10
38.27036290020608
 20
1098.346193697802
 30
0.0
 10
37.46546328003959
 20
1098.072195029564
 30
0.0
 10
36.68126722216196
 20
1097.75525063988
 30
0.0
 10
35.92077226248568
 20
1097.396534981767
 30
0.0
 10
35.18689395359319
 20
1096.99738613024
 30
0.0
 10
34.48245388289295
 20
1096.559303217251
 30
0.0
 10
33.81016729700955
 20
1096.083943099913
 30
0.0
 10
33.17263039412607
 20
1095.573116085076
 30
0.0
 10
32.57230728161851
 20
1095.028780294847
 30
0.0
 10
32.01151720934518
 20
1094.453035060184
 30
0.0
 10
31.49242086096546
 20
1093.848110783334
 30
0.0
 10
31.01701179513652
 20
1093.216363921333
 30
0.0
 10
30.58709234227392
 20
1092.560244403402
 30
0.0
 10
30.20431339865357
 20
1091.882357511596
 30
0.0
 10
29.86998449689962
 20
1091.185166576359
 30
0.0
 10
29.58575028810804
 20
1090.472028702593
 30
0.0
 10
29.35105073135087
 20
1089.743261125471
 30
0.0
 10
29.17257834113647
 20
1089.010725353582
 30
0.0
 10
29.06317177401834
 20
1088.425875463714
 30
0.0
 10
29.03390385339854
 20
1088.122822438385
 30
0.0
 10
29.026416763179
 20
1088.04399633042
 30
0.0
  0
SPLINE
  5
88
330
75
100
AcDbEntity
  8
$DDT_AUDIT_GENERATED_(77)
  6
Continuous
 62
     7
100
AcDbSpline
210
0.0
220
0.0
230
1.0
 70
     8
 71
     3
 72
    68
 73
    64
 74
     0
 42
0.0000000003945996
 43
0.0000000001
 40
0.0
 40
0.0
 40
0.0
 40
0.0
 40
0.0035703990652386
 40
0.0148720015196705
 40
0.0261612550052635
 40
0.0369396127866031
 40
0.047402249034055
 40
0.0580708076899745
 40
0.0671943917997525
 40
0.0760193648372531
 40
0.0883577960997834
 40
0.1004426110518847
 40
0.1131303548293702
 40
0.1269875863401531
 40
0.1422237177264365
 40
0.1589185874089108
 40
0.1770345352218848
 40
0.1963519167861
 40
0.2166518022437792
 40
0.2382995237363885
 40
0.2599739764836895
 40
0.2815038497627306
 40
0.3027738681161972
 40
0.3236952218095084
 40
0.344228134797842
 40
0.3644504641304754
 40
0.3846159458860909
 40
0.4046625663052574
 40
0.4245097924610441
 40
0.4440931071070096
 40
0.463367897468763
 40
0.4823154846239786
 40
0.5010999487804815
 40
0.5200440182681871
 40
0.5391886600359005
 40
0.5584913512100504
 40
0.5779018137993668
 40
0.5973651638855538
 40
0.6168058882540935
 40
0.6361751905223483
 40
0.6559790129954016
 40
0.6761043679640043
 40
0.6965556618329882
 40
0.7173192240172963
 40
0.7383641469854836
 40
0.7596704176880751
 40
0.7813093299770842
 40
0.802456953627972
 40
0.8232697784439825
 40
0.8434604992298712
 40
0.8627875301136514
 40
0.8790674684084457
 40
0.8918585627666787
 40
0.9037947522402043
 40
0.9147810073133856
 40
0.9264593459083265
 40
0.9379273663040554
 40
0.9507151388933198
 40
0.9599547231708366
 40
0.9695360143913737
 40
0.9791151408187296
 40
0.9894769531045718
 40
1.0
 40
1.0
 40
1.0
 40
1.0
 10
31.19859892909474
 20
1072.417491218081
 30
0.0
 10
31.19851032915464
 20
1072.440645074316
 30
0.0
 10
31.19826921169289
 20
1072.522528940923
 30
0.0
 10
31.21078961742883
 20
1072.638097078134
 30
0.0
 10
31.23187468717319
 20
1072.738220499263
 30
0.0
 10
31.24938113124256
 20
1072.778461323494
 30
0.0
 10
31.24735661890583
 20
1072.765942048038
 30
0.0
 10
31.19457008640107
 20
1072.721607812032
 30
0.0
 10
31.16570493672099
 20
1072.711663852417
 30
0.0
 10
31.16030427249829
 20
1072.711759592122
 30
0.0
 10
31.1980753693094
 20
1072.714466552553
 30
0.0
 10
31.29139226638228
 20
1072.70158521539
 30
0.0
 10
31.42928695113414
 20
1072.666269306028
 30
0.0
 10
31.61442036914217
 20
1072.603756608283
 30
0.0
 10
31.85135411965932
 20
1072.510852672732
 30
0.0
 10
32.14456008145789
 20
1072.387092444601
 30
0.0
 10
32.49691611966881
 20
1072.235466088837
 30
0.0
 10
32.91266541685105
 20
1072.063909881225
 30
0.0
 10
33.3864833125706
 20
1071.880476407224
 30
0.0
 10
33.91840777427517
 20
1071.68593221822
 30
0.0
 10
34.49957356924797
 20
1071.488389296846
 30
0.0
 10
35.11509714622095
 20
1071.295755417919
 30
0.0
 10
35.75907485274828
 20
1071.112575946336
 30
0.0
 10
36.42631188534931
 20
1070.942512650467
 30
0.0
 10
37.11331276091617
 20
1070.788792203867
 30
0.0
 10
37.8196999251112
 20
1070.651674222813
 30
0.0
 10
38.54462236509374
 20
1070.530997153872
 30
0.0
 10
39.28610685338717
 20
1070.427438053943
 30
0.0
 10
40.0381706537506
 20
1070.342173527476
 30
0.0
 10
40.79480896921295
 20
1070.276185546998
 30
0.0
 10
41.5505870286653
 20
1070.230095023167
 30
0.0
 10
42.30295581373417
 20
1070.204451009055
 30
0.0
 10
43.05400597512115
 20
1070.198542170297
 30
0.0
 10
43.80702294652257
 20
1070.21153542101
 30
0.0
 10
44.56268983032392
 20
1070.243395331838
 30
0.0
 10
45.31672478578002
 20
1070.294021188945
 30
0.0
 10
46.06357470243334
 20
1070.363156870469
 30
0.0
 10
46.79738075538383
 20
1070.450269323614
 30
0.0
 10
47.51215542066271
 20
1070.554885429394
 30
0.0
 10
48.20987937995169
 20
1070.676338226843
 30
0.0
 10
48.89193813523243
 20
1070.81366949057
 30
0.0
 10
49.55960322520772
 20
1070.966466945631
 30
0.0
 10
50.20833688909065
 20
1071.132877883584
 30
0.0
 10
50.83477873959074
 20
1071.311133353956
 30
0.0
 10
51.43506726478672
 20
1071.499029513572
 30
0.0
 10
52.0077357762829
 20
1071.695238340764
 30
0.0
 10
52.54175612041821
 20
1071.89620457268
 30
0.0
 10
53.03034033782132
 20
1072.091184346447
 30
0.0
 10
53.46653258963635
 20
1072.270463587583
 30
0.0
 10
53.84830812863445
 20
1072.42654901464
 30
0.0
 10
54.16052470740699
 20
1072.548221800004
 30
0.0
 10
54.39633779017817
 20
1072.631026872193
 30
0.0
 10
54.56484872336708
 20
1072.681838381178
 30
0.0
 10
54.67333949049303
 20
1072.704787339303
 30
0.0
 10
54.73736812551176
 20
1072.709694131308
 30
0.0
 10
54.74761727776568
 20
1072.705475635177
 30
0.0
 10
54.7027945248884
 20
1072.718135196307
 30
0.0
 10
54.65627312592705
 20
1072.756929223078
 30
0.0
 10
54.64391453249766
 20
1072.781534966965
 30
0.0
 10
54.65895362174148
 20
1072.749684663609
 30
0.0
 10
54.67783898720533
 20
1072.669143331474
 30
0.0
 10
54.69349761373916
 20
1072.540452656678
 30
0.0
 10
54.69503616157061
 20
1072.432142305838
 30
0.0
 10
54.69582895972103
 20
1072.366270200578
 30
0.0
  0
LINE
  5
8A
330
75
100
AcDbEntity
  8
$DDT_AUDIT_GENERATED_(89)
  6
Continuous
 62
     7
100
AcDbLine
 10
71.3474364137
 20
989.4916592277
 30
0.0
 11
56.946807788
 21
989.4916592277
 31
0.0
  0
LINE
  5
8B
330
75
100
AcDbEntity
  8
$DDT_AUDIT_GENERATED_(89)
  6
Continuous
 62
     7
100
AcDbLine
 10
28.946807788
 20
989.4916592277
 30
0.0
 11
14.5461791623
 21
989.4916592277
 31
0.0
  0
LINE
  5
8C
330
75
100
AcDbEntity
  8
$DDT_AUDIT_GENERATED_(89)
  6
Continuous
 62
     7
100
AcDbLine
 10
71.9372820996
 20
989.9815049136
 30
0.0
 11
56.946807788
 21
989.9815049136
 31
0.0
  0
LINE
  5
8D
330
75
100
AcDbEntity
  8
$DDT_AUDIT_GENERATED_(89)
  6
Continuous
 62
     7
100
AcDbLine
 10
28.946807788
 20
989.9815049136
 30
0.0
 11
13.9563334764
 21
989.9815049136
 31
0.0
  0
LINE
  5
8E
330
75
100
AcDbEntity
  8
$DDT_AUDIT_GENERATED_(89)
  6
Continuous
 62
     7
100
AcDbLine
 10
68.770858274
 20
1032.9882811478
 30
0.0
 11
56.946807788
 21
1032.9882811478
 31
0.0
  0
LINE
  5
8F
330
75
100
AcDbEntity
  8
$DDT_AUDIT_GENERATED_(89)
  6
Continuous
 62
     7
100
AcDbLine
 10
28.946807788
 20
1032.9882811478
 30
0.0
 11
17.1227573021
 21
1032.9882811478
 31
0.0
  0
LINE
  5
90
330
75
100
AcDbEntity
  8
$DDT_AUDIT_GENERATED_(89)
  6
Continuous
 62
     7
100
AcDbLine
 10
14.0563334764
 20
989.9815049136
 30
0.0
 11
14.5461791623
 21
989.4916592277
 31
0.0
  0
LINE
  5
91
330
75
100
AcDbEntity
  8
$DDT_AUDIT_GENERATED_(89)
  6
Continuous
 62
     7
100
AcDbLine
 10
71.3474364137
 20
989.4916592277
 30
0.0
 11
71.8372820996
 21
989.9815049136
 31
0.0
  0
ARC
  5
92
330
75
100
AcDbEntity
  8
$DDT_AUDIT_GENERATED_(89)
  6
Continuous
 62
     7
100
AcDbCircle
 10
706.4672952332
 20
975.3809889999
 30
0.0
 40
692.6648592344261
100
AcDbArc
 50
175.3055434556
 51
178.7921865962
  0
ARC
  5
93
330
75
100
AcDbEntity
  8
$DDT_AUDIT_GENERATED_(89)
  6
Continuous
 62
     7
100
AcDbCircle
 10
-620.5736796572
 20
975.3809889999
 30
0.0
 40
692.664859234426
100
AcDbArc
 50
1.2078134038
 51
4.6944565444
  0
ARC
  5
94
330
75
100
AcDbEntity
  8
$DDT_AUDIT_GENERATED_(89)
  6
Continuous
 62
     7
100
AcDbCircle
 10
68.770858274
 20
1031.9882811479
 30
0.0
 40
0.9999999999376198
100
AcDbArc
 50
4.6944565446
 51
90.0000000009
  0
ARC
  5
95
330
75
100
AcDbEntity
  8
$DDT_AUDIT_GENERATED_(89)
  6
Continuous
 62
     7
100
AcDbCircle
 10
17.122757302
 20
1031.9882811479
 30
0.0
 40
0.9999999999430464
100
AcDbArc
 50
89.9999999991
 51
175.3055434554
  0
ARC
  5
96
330
75
100
AcDbEntity
  8
$DDT_AUDIT_GENERATED_(89)
  6
Continuous
 62
     7
100
AcDbCircle
 10
68.3263625238
 20
1033.4882811478
 30
0.0
 40
0.4999999999933252
100
AcDbArc
 50
198.709613237
 51
270.0000000009
  0
ARC
  5
97
330
75
100
AcDbEntity
  8
$DDT_AUDIT_GENERATED_(89)
  6
Continuous
 62
     7
100
AcDbCircle
 10
17.5672530522
 20
1033.4882811478
 30
0.0
 40
0.4999999999933307
100
AcDbArc
 50
269.9999999991
 51
341.290386763
  0
ARC
  5
98
330
75
100
AcDbEntity
  8
$DDT_AUDIT_GENERATED_(89)
  6
Continuous
 62
     7
100
AcDbCircle
 10
42.9510464783
 20
1024.8915939193
 30
0.0
 40
26.3
100
AcDbArc
 50
154.5129326558
 51
161.290386763
  0
ARC
  5
99
330
75
100
AcDbEntity
  8
$DDT_AUDIT_GENERATED_(89)
  6
Continuous
 62
     7
100
AcDbCircle
 10
42.9425690978
 20
1024.8915939193
 30
0.0
 40
26.3
100
AcDbArc
 50
18.709613237
 51
25.4870673442
  0
ELLIPSE
  5
9B
330
75
100
AcDbEntity
  8
$DDT_AUDIT_GENERATED_(9A)
  6
Continuous
 62
     7
100
AcDbEllipse
 10
42.946807788
 20
1070.8258961766
 30
0.0
 11
27.19999999999994
 21
0.0
 31
0.0
210
0.0
220
0.0
230
1.0
 40
0.0261769483
 41
-4.171724414095666
 42
-3.525306137497068
  0
ELLIPSE
  5
9C
330
75
100
AcDbEntity
  8
$DDT_AUDIT_GENERATED_(9A)
  6
Continuous
 62
     7
100
AcDbEllipse
 10
42.946807788
 20
1070.8258961766
 30
0.0
 11
-27.20000000000012
 21
-2.775557561562891E-14
 31
0.0
210
0.0
220
0.0
230
1.0
 40
0.0261769483
 41
3.490508760848706
 42
4.17172441409566
  0
ELLIPSE
  5
9D
330
75
100
AcDbEntity
  8
$DDT_AUDIT_GENERATED_(9A)
  6
Continuous
 62
     7
100
AcDbEllipse
 10
42.946807788
 20
1035.8378898025
 30
0.0
 11
27.64145437562938
 21
0.0
 31
0.0
210
0.0
220
0.0
230
1.0
 40
0.0261769483
 41
-0.5140403761421952
 42
-0.1651867548394428
  0
ELLIPSE
  5
9E
330
75
100
AcDbEntity
  8
$DDT_AUDIT_GENERATED_(9A)
  6
Continuous
 62
     7
100
AcDbEllipse
 10
42.946807788
 20
1035.8378898025
 30
0.0
 11
27.64145437562938
 21
0.0
 31
0.0
210
0.0
220
0.0
230
1.0
 40
0.0261769483
 41
3.326869531220234
 42
3.655633029731989
  0
ELLIPSE
  5
9F
330
75
100
AcDbEntity
  8
$DDT_AUDIT_GENERATED_(9A)
  6
Continuous
 62
     7
100
AcDbEllipse
 10
42.946807788
 20
1035.8378898025
 30
0.0
 11
27.64145437562938
 21
0.0
 31
0.0
210
0.0
220
0.0
230
1.0
 40
0.0261769483
 41
-4.181284889284083
 42
-3.26442649165715
  0
ELLIPSE
  5
A0
330
75
100
AcDbEntity
  8
$DDT_AUDIT_GENERATED_(9A)
  6
Continuous
 62
     7
100
AcDbEllipse
 10
42.946807788
 20
1035.8378898025
 30
0.0
 11
27.64145437562938
 21
0.0
 31
0.0
210
0.0
220
0.0
230
1.0
 40
0.0261769483
 41
0.1357329603724992
 42
1.03969223569429
  0
ELLIPSE
  5
A1
330
75
100
AcDbEntity
  8
$DDT_AUDIT_GENERATED_(9A)
  6
Continuous
 62
     7
100
AcDbEllipse
 10
42.946807788
 20
1035.8378898025
 30
0.0
 11
-27.8
 21
0.0
 31
0.0
210
0.0
220
0.0
230
1.0
 40
0.0261769483
 41
0.1311874551494294
 42
0.5237921961888624
  0
ELLIPSE
  5
A2
330
75
100
AcDbEntity
  8
$DDT_AUDIT_GENERATED_(9A)
  6
Continuous
 62
     7
100
AcDbEllipse
 10
42.946807788
 20
1035.8378898025
 30
0.0
 11
-27.8
 21
0.0
 31
0.0
210
0.0
220
0.0
230
1.0
 40
0.0261769483
 41
-3.665384849778652
 42
-3.237256723429274
  0
ELLIPSE
  5
A3
330
75
100
AcDbEntity
  8
$DDT_AUDIT_GENERATED_(9A)
  6
Continuous
 62
     7
100
AcDbEllipse
 10
42.946807788
 20
1035.8378898025
 30
0.0
 11
-27.8
 21
0.0
 31
0.0
210
0.0
220
0.0
230
1.0
 40
0.0261769483
 41
3.226308098691529
 42
4.184631601405602
  0
ELLIPSE
  5
A4
330
75
100
AcDbEntity
  8
$DDT_AUDIT_GENERATED_(9A)
  6
Continuous
 62
     7
100
AcDbEllipse
 10
42.946807788
 20
1035.8378898025
 30
0.0
 11
-27.8
 21
0.0
 31
0.0
210
0.0
220
0.0
230
1.0
 40
0.0261769483
 41
-1.043038947815811
 42
-0.0603838290113057
  0
LINE
  5
A5
330
75
100
AcDbEntity
  8
$DDT_AUDIT_GENERATED_(9A)
  6
Continuous
 62
     7
100
AcDbLine
 10
70.946807788
 20
1036.0378212674
 30
0.0
 11
70.946807788
 21
1070.0261703166
 31
0.0
  0
LINE
  5
A6
330
75
100
AcDbEntity
  8
$DDT_AUDIT_GENERATED_(9A)
  6
Continuous
 62
     7
100
AcDbLine
 10
14.946807788
 20
1070.0261703166
 30
0.0
 11
14.946807788
 21
1036.0378212674
 31
0.0
  0
SPLINE
  5
A7
330
75
100
AcDbEntity
  8
$DDT_AUDIT_GENERATED_(9A)
  6
Continuous
 62
     7
100
AcDbSpline
210
0.0
220
0.0
230
1.0
 70
     8
 71
     3
 72
    23
 73
    19
 74
     0
 42
0.0000000034684236
 43
0.0000000001
 40
0.0
 40
0.0
 40
0.0
 40
0.0
 40
0.0007514006908221
 40
0.0287264445421979
 40
0.0551059595892308
 40
0.0808038104413242
 40
0.1069368467116869
 40
0.1350063339163083
 40
0.1672043585686954
 40
0.2066654326427171
 40
0.2583309338655944
 40
0.3318040815949321
 40
0.4540652381396773
 40
0.5836057325703856
 40
0.7066634928879164
 40
0.8368942299030638
 40
0.9633747915129783
 40
1.0
 40
1.0
 40
1.0
 40
1.0
 10
70.94616323870974
 20
1070.025969223841
 30
0.0
 10
70.94639973482167
 20
1070.027987217747
 30
0.0
 10
70.95417454552344
 20
1070.094528013099
 30
0.0
 10
70.92462521846167
 20
1070.237552797727
 30
0.0
 10
70.85860699399515
 20
1070.4106078289
 30
0.0
 10
70.76579296051072
 20
1070.547494504756
 30
0.0
 10
70.66824625129038
 20
1070.647725426827
 30
0.0
 10
70.57256478474486
 20
1070.720481900265
 30
0.0
 10
70.48044012461307
 20
1070.774230647608
 30
0.0
 10
70.38801446802172
 20
1070.816168796651
 30
0.0
 10
70.28624424502699
 20
1070.852042923688
 30
0.0
 10
70.15091218732675
 20
1070.88850378591
 30
0.0
 10
69.97097953938079
 20
1070.923884725353
 30
0.0
 10
69.72866591819059
 20
1070.959584585799
 30
0.0
 10
69.43505720512485
 20
1070.993839807947
 30
0.0
 10
69.094809636601
 20
1071.026225846289
 30
0.0
 10
68.78974322679358
 20
1071.051595284086
 30
0.0
 10
68.60861738393224
 20
1071.064110612791
 30
0.0
 10
68.56090603381166
 20
1071.067396348639
 30
0.0
  0
SPLINE
  5
A8
330
75
100
AcDbEntity
  8
$DDT_AUDIT_GENERATED_(9A)
  6
Continuous
 62
     7
100
AcDbSpline
210
0.0
220
0.0
230
1.0
 70
     8
 71
     3
 72
    22
 73
    18
 74
     0
 42
0.0000000030982243
 43
0.0000000001
 40
0.0
 40
0.0
 40
0.0
 40
0.0
 40
0.0385710833959165
 40
0.1510534838247951
 40
0.2641520955115325
 40
0.3782900520706828
 40
0.4943557468122172
 40
0.6145640232734797
 40
0.7464781338527394
 40
0.8063579415368587
 40
0.8434776878101785
 40
0.875322972776033
 40
0.9027927189464692
 40
0.9279328449837091
 40
0.952241071390538
 40
0.9764352948925613
 40
1.0
 40
1.0
 40
1.0
 40
1.0
 10
17.6777092616654
 20
1071.090923187239
 30
0.0
 10
17.61808182449283
 20
1071.087192640799
 30
0.0
 10
17.41935765514546
 20
1071.074715907872
 30
0.0
 10
17.08818161832358
 20
1071.050134095536
 30
0.0
 10
16.71655163719781
 20
1071.019033223495
 30
0.0
 10
16.38941426542543
 20
1070.986333401125
 30
0.0
 10
16.10556183612377
 20
1070.951778831053
 30
0.0
 10
15.85466730339808
 20
1070.91211900282
 30
0.0
 10
15.67438476555457
 20
1070.873163070768
 30
0.0
 10
15.52628398602373
 20
1070.824697892697
 30
0.0
 10
15.42318390855532
 20
1070.779376473604
 30
0.0
 10
15.327433669008
 20
1070.725027437325
 30
0.0
 10
15.22538210409112
 20
1070.648323085102
 30
0.0
 10
15.12152728806999
 20
1070.540646718433
 30
0.0
 10
15.02863892986043
 20
1070.397664754881
 30
0.0
 10
14.96013934992532
 20
1070.217382352737
 30
0.0
 10
14.95168120550114
 20
1070.097124558511
 30
0.0
 10
14.94745233734552
 20
1070.02637140939
 30
0.0
  0
SPLINE
  5
A9
330
75
100
AcDbEntity
  8
$DDT_AUDIT_GENERATED_(9A)
  6
Continuous
 62
     7
100
AcDbSpline
210
0.0
220
0.0
230
1.0
 70
     8
 71
     3
 72
    10
 73
     6
 74
     0
 42
0.0000000411569404
 43
0.0000000001
 40
0.0
 40
0.0
 40
0.0
 40
0.0
 40
0.1436721387991658
 40
0.3863185333439487
 40
0.5397203706283296
 40
0.5397203706283296
 40
0.5397203706283296
 40
0.5397203706283296
 10
70.25333442102101
 20
1035.943126800761
 30
0.0
 10
70.27605415331591
 20
1035.938916769363
 30
0.0
 10
70.3267845737329
 20
1035.929555624859
 30
0.0
 10
70.36916271622863
 20
1035.917814614053
 30
0.0
 10
70.38075286154634
 20
1035.913460807182
 30
0.0
 10
70.38082268490272
 20
1035.913514893564
 30
0.0
  0
SPLINE
  5
AA
330
75
100
AcDbEntity
  8
$DDT_AUDIT_GENERATED_(9A)
  6
Continuous
 62
     7
100
AcDbSpline
210
0.0
220
0.0
230
1.0
 70
     8
 71
     3
 72
    10
 73
     6
 74
     0
 42
0.0000000545317256
 43
0.0000000001
 40
0.5150665529760327
 40
0.5150665529760327
 40
0.5150665529760327
 40
0.5150665529760327
 40
0.5670383801874956
 40
0.7774143997052666
 40
1.0
 40
1.0
 40
1.0
 40
1.0
 10
15.51271836693887
 20
1035.913518971038
 30
0.0
 10
15.51273179824215
 20
1035.913525308649
 30
0.0
 10
15.51492225903719
 20
1035.914411347757
 30
0.0
 10
15.53577946531399
 20
1035.921428629155
 30
0.0
 10
15.57427569107092
 20
1035.929851840743
 30
0.0
 10
15.59880783590973
 20
1035.935328892659
 30
0.0
  0
SPLINE
  5
AB
330
75
100
AcDbEntity
  8
$DDT_AUDIT_GENERATED_(9A)
  6
Continuous
 62
     7
100
AcDbSpline
210
0.0
220
0.0
230
1.0
 70
     8
 71
     3
 72
    13
 73
     9
 74
     0
 42
0.0000000184377709
 43
0.0000000001
 40
0.0
 40
0.0
 40
0.0
 40
0.0
 40
0.0785925538143931
 40
0.1816097918069856
 40
0.2934513582304361
 40
0.4435174712310443
 40
0.6825952037141486
 40
1.0
 40
1.0
 40
1.0
 40
1.0
 10
14.95195240708829
 20
1036.034384198164
 30
0.0
 10
14.95412652620818
 20
1036.003461840351
 30
0.0
 10
14.95799725864227
 20
1035.943947820823
 30
0.0
 10
15.01021015946968
 20
1035.878460326589
 30
0.0
 10
15.06045026759319
 20
1035.838280321327
 30
0.0
 10
15.12256341256996
 20
1035.806381990761
 30
0.0
 10
15.20840476200885
 20
1035.776625785109
 30
0.0
 10
15.29175603478891
 20
1035.758255573689
 30
0.0
 10
15.34818255978161
 20
1035.746630015655
 30
0.0
  0
SPLINE
  5
AC
330
75
100
AcDbEntity
  8
$DDT_AUDIT_GENERATED_(9A)
  6
Continuous
 62
     7
100
AcDbSpline
210
0.0
220
0.0
230
1.0
 70
     8
 71
     3
 72
    12
 73
     8
 74
     0
 42
0.0000000236515057
 43
0.0000000001
 40
0.0
 40
0.0
 40
0.0
 40
0.0
 40
0.379584766294554
 40
0.6685510851885623
 40
0.8147030357465912
 40
0.9512461358551025
 40
1.0
 40
1.0
 40
1.0
 40
1.0
 10
70.6698105586321
 20
1035.776659333977
 30
0.0
 10
70.7103585534175
 20
1035.786543352117
 30
0.0
 10
70.77171190635084
 20
1035.80579519272
 30
0.0
 10
70.84634799132584
 20
1035.843961799223
 30
0.0
 10
70.90859277126968
 20
1035.906567396756
 30
0.0
 10
70.94937255541053
 20
1035.983160795387
 30
0.0
 10
70.94268142477598
 20
1036.026745058181
 30
0.0
 10
70.9406479406216
 20
1036.040382806355
 30
0.0
  0
ELLIPSE
  5
AE
330
75
100
AcDbEntity
  8
$DDT_AUDIT_GENERATED_(AD)
  6
Continuous
 62
     7
100
AcDbEllipse
 10
42.946807788
 20
1056.2724131002
 30
0.0
 11
10.05000000000001
 21
0.0
 31
0.0
210
0.0
220
0.0
230
1.0
 40
0.1736481777
 41
0.0
 42
3.684825365521097
  0
ELLIPSE
  5
AF
330
75
100
AcDbEntity
  8
$DDT_AUDIT_GENERATED_(AD)
  6
Continuous
 62
     7
100
AcDbEllipse
 10
42.946807788
 20
1056.2724131002
 30
0.0
 11
10.05000000000001
 21
0.0
 31
0.0
210
0.0
220
0.0
230
1.0
 40
0.1736481777
 41
5.739952595248282
 42
6.283185307179586
  0
LINE
  5
B0
330
75
100
AcDbEntity
  8
$DDT_AUDIT_GENERATED_(AD)
  6
Continuous
 62
     7
100
AcDbLine
 10
54.346807788
 20
1057.2572208532
 30
0.0
 11
54.346807788
 21
1072.6118395022
 31
0.0
  0
LINE
  5
B1
330
75
100
AcDbEntity
  8
$DDT_AUDIT_GENERATED_(AD)
  6
Continuous
 62
     7
100
AcDbLine
 10
31.546807788
 20
1072.6246378673
 30
0.0
 11
31.546807788
 21
1057.2572208532
 31
0.0
  0
SPLINE
  5
B2
330
75
100
AcDbEntity
  8
$DDT_AUDIT_GENERATED_(AD)
  6
Continuous
 62
     7
100
AcDbSpline
210
0.0
220
0.0
230
1.0
 70
     8
 71
     3
 72
    21
 73
    17
 74
     0
 42
0.0000000005353195
 43
0.0000000001
 40
0.0
 40
0.0
 40
0.0
 40
0.0
 40
0.0053996658721478
 40
0.0183324305193078
 40
0.0311726079441703
 40
0.0443687873467095
 40
0.058473154690261
 40
0.0742126076808407
 40
0.0925655055419511
 40
0.1146175697624141
 40
0.1401583131799656
 40
0.1658959840166929
 40
0.1904738745411455
 40
0.2142222588635308
 40
0.2374464231731128
 40
0.2474071591701414
 40
0.2474071591701414
 40
0.2474071591701414
 40
0.2474071591701414
 10
31.55346692957574
 20
1057.25840413397
 30
0.0
 10
31.55149279820877
 20
1057.218246855318
 30
0.0
 10
31.54638561785225
 20
1057.10236672362
 30
0.0
 10
31.5919971630064
 20
1056.890098702975
 30
0.0
 10
31.68120894225874
 20
1056.657950391394
 30
0.0
 10
31.80790646763409
 20
1056.44922076147
 30
0.0
 10
31.96413939421912
 20
1056.262619175581
 30
0.0
 10
32.15444819383713
 20
1056.089766780993
 30
0.0
 10
32.39066612248329
 20
1055.922646738468
 30
0.0
 10
32.68976277122628
 20
1055.756450975162
 30
0.0
 10
33.05720851182131
 20
1055.595175072727
 30
0.0
 10
33.48292466604476
 20
1055.444758154733
 30
0.0
 10
33.9456806797829
 20
1055.309526053343
 30
0.0
 10
34.43737830158769
 20
1055.188113498665
 30
0.0
 10
34.86279808572006
 20
1055.098208645126
 30
0.0
 10
35.12438743301713
 20
1055.048537696492
 30
0.0
 10
35.20410715094511
 20
1055.033876506461
 30
0.0
  0
SPLINE
  5
B3
330
75
100
AcDbEntity
  8
$DDT_AUDIT_GENERATED_(AD)
  6
Continuous
 62
     7
100
AcDbSpline
210
0.0
220
0.0
230
1.0
 70
     8
 71
     3
 72
    20
 73
    16
 74
     0
 42
0.0000000005357045
 43
0.0000000001
 40
0.7532686378154967
 40
0.7532686378154967
 40
0.7532686378154967
 40
0.7532686378154967
 40
0.7717465232314098
 40
0.7945724672963965
 40
0.8176889158240345
 40
0.8412332563534571
 40
0.8654297605658454
 40
0.8906343722498966
 40
0.9139661529710466
 40
0.9326498644151403
 40
0.9484532109968603
 40
0.9625475301211969
 40
0.9756287903801559
 40
0.9881739879530589
 40
1.0
 40
1.0
 40
1.0
 40
1.0
 10
50.70303988462782
 20
1055.036369553721
 30
0.0
 10
50.85067047282087
 20
1055.063618471201
 30
0.0
 10
51.17141229575937
 20
1055.126433827621
 30
0.0
 10
51.63825084902167
 20
1055.23100496628
 30
0.0
 10
52.10074007063019
 20
1055.351928392449
 30
0.0
 10
52.52979142010194
 20
1055.484420661088
 30
0.0
 10
52.92811353476819
 20
1055.632464482161
 30
0.0
 10
53.28424569608867
 20
1055.796657739217
 30
0.0
 10
53.58222925307033
 20
1055.972901616442
 30
0.0
 10
53.81992189929634
 20
1056.156661702187
 30
0.0
 10
54.00569193056874
 20
1056.345900872598
 30
0.0
 10
54.1532301788806
 20
1056.550403666638
 30
0.0
 10
54.26242325236444
 20
1056.772289727263
 30
0.0
 10
54.33428891265706
 20
1057.015444620016
 30
0.0
 10
54.34083169867495
 20
1057.16827273684
 30
0.0
 10
54.34376421732041
 20
1057.256595458884
 30
0.0
  0
ELLIPSE
  5
B5
330
75
100
AcDbEntity
  8
06828131_MOUSSEU
  6
Continuous
 62
     7
100
AcDbEllipse
 10
42.946807788
 20
1055.8292496113
 30
0.0
 11
9.0
 21
0.0
 31
0.0
210
0.0
220
0.0
230
1.0
 40
0.1736481777
 41
0.0
 42
6.283185307179586
  0
ELLIPSE
  5
B6
330
75
100
AcDbEntity
  8
06828131_MOUSSEU
  6
Continuous
 62
     7
100
AcDbEllipse
 10
42.946807788
 20
1055.8292496113
 30
0.0
 11
5.250000000000003
 21
0.0
 31
0.0
210
0.0
220
0.0
230
1.0
 40
0.1736481777
 41
0.0
 42
6.283185307179586
  0
ELLIPSE
  5
B7
330
75
100
AcDbEntity
  8
06828131_MOUSSEU
  6
Continuous
 62
     7
100
AcDbEllipse
 10
42.946807788
 20
1055.8292496113
 30
0.0
 11
6.250000000000001
 21
0.0
 31
0.0
210
0.0
220
0.0
230
1.0
 40
0.1736481777
 41
0.0
 42
6.283185307179586
  0
ELLIPSE
  5
B8
330
75
100
AcDbEntity
  8
06828131_MOUSSEU
  6
Continuous
 62
     7
100
AcDbEllipse
 10
42.946807788
 20
1055.8292496113
 30
0.0
 11
2.750000000000002
 21
0.0
 31
0.0
210
0.0
220
0.0
230
1.0
 40
0.1736481777
 41
0.0
 42
6.283185307179586
  0
ELLIPSE
  5
B9
330
75
100
AcDbEntity
  8
06828131_MOUSSEU
  6
Continuous
 62
     7
100
AcDbEllipse
 10
42.946807788
 20
1055.8292496113
 30
0.0
 11
-2.15
 21
0.0
 31
0.0
210
0.0
220
0.0
230
1.0
 40
0.1736481777
 41
0.0
 42
6.283185307179586
  0
ELLIPSE
  5
BA
330
75
100
AcDbEntity
  8
06828131_MOUSSEU
  6
Continuous
 62
     7
100
AcDbEllipse
 10
42.946807788
 20
1056.0262111619
 30
0.0
 11
0.5196299438963562
 21
-1.387778780781446E-14
 31
0.0
210
0.0
220
0.0
230
1.0
 40
0.1736481777
 41
0.0
 42
6.283185307179586
  0
ELLIPSE
  5
BB
330
75
100
AcDbEntity
  8
06828131_MOUSSEU
  6
Continuous
 62
     7
100
AcDbEllipse
 10
42.946807788
 20
1055.8292496113
 30
0.0
 11
8.699999999999999
 21
0.0
 31
0.0
210
0.0
220
0.0
230
1.0
 40
0.1736481777
 41
0.0
 42
6.283185307179586
  0
ARC
  5
BC
330
75
100
AcDbEntity
  8
06828131_MOUSSEU
  6
Continuous
 62
     7
100
AcDbCircle
 10
42.946807788
 20
1021.123665137
 30
0.0
 40
35.98784714392382
100
AcDbArc
 50
89.8407911065
 51
90.1592088935
  0
LINE
  5
BD
330
75
100
AcDbEntity
  8
06828131_MOUSSEU
  6
Continuous
 62
     7
100
AcDbLine
 10
43.046807788
 20
1057.1113733449
 30
0.0
 11
43.046807788
 21
1057.3398889559
 31
0.0
  0
LINE
  5
BE
330
75
100
AcDbEntity
  8
06828131_MOUSSEU
  6
Continuous
 62
     7
100
AcDbLine
 10
42.846807788
 20
1057.1113733449
 30
0.0
 11
42.846807788
 21
1057.3398889559
 31
0.0
  0
LINE
  5
BF
330
75
100
AcDbEntity
  8
06828131_MOUSSEU
  6
Continuous
 62
     7
100
AcDbLine
 10
44.6711319889
 20
1056.0467507309
 30
0.0
 11
43.4664377319
 21
1056.167528344
 31
0.0
  0
LINE
  5
C0
330
75
100
AcDbEntity
  8
06828131_MOUSSEU
  6
Continuous
 62
     7
100
AcDbLine
 10
41.2224835871
 20
1056.0467507309
 30
0.0
 11
42.4271778441
 21
1056.167528344
 31
0.0
  0
ELLIPSE
  5
C1
330
75
100
AcDbEntity
  8
06828131_MOUSSEU
  6
Continuous
 62
     7
100
AcDbEllipse
 10
42.946807771
 20
1056.0262111509
 30
0.0
 11
6.250000035170181
 21
2.943784105369219E-9
 31
0.0
210
0.0
220
0.0
230
1.0
 40
0.1736481785
 41
1.292996254939982
 42
1.324997620261773
  0
LINE
  5
C2
330
75
100
AcDbEntity
  8
06828131_MOUSSEU
  6
Continuous
 62
     7
100
AcDbLine
 10
44.6608123341
 20
1057.0699029946
 30
0.0
 11
45.0110045758
 21
1057.2968499172
 31
0.0
  0
LINE
  5
C3
330
75
100
AcDbEntity
  8
06828131_MOUSSEU
  6
Continuous
 62
     7
100
AcDbLine
 10
44.4676271688
 20
1057.0788916857
 30
0.0
 11
44.8160716152
 21
1057.3047059253
 31
0.0
  0
LINE
  5
C4
330
75
100
AcDbEntity
  8
06828131_MOUSSEU
  6
Continuous
 62
     7
100
AcDbLine
 10
44.4676271688
 20
1057.0788916857
 30
0.0
 11
44.4676271688
 21
1057.3167275276
 31
0.0
  0
ELLIPSE
  5
C5
330
75
100
AcDbEntity
  8
06828131_MOUSSEU
  6
Continuous
 62
     7
100
AcDbEllipse
 10
42.9468077521
 20
1056.0262111511
 30
0.0
 11
6.250000044930274
 21
5.582229123390903E-9
 31
0.0
210
0.0
220
0.0
230
1.0
 40
0.1736481782
 41
1.031196865902687
 42
1.06319823120921
  0
LINE
  5
C6
330
75
100
AcDbEntity
  8
06828131_MOUSSEU
  6
Continuous
 62
     7
100
AcDbLine
 10
46.1580103028
 20
1056.9573067707
 30
0.0
 11
46.8859880238
 21
1057.1762587854
 31
0.0
  0
LINE
  5
C7
330
75
100
AcDbEntity
  8
06828131_MOUSSEU
  6
Continuous
 62
     7
100
AcDbLine
 10
45.984805222
 20
1056.9746715885
 30
0.0
 11
46.7062498985
 21
1057.191658676
 31
0.0
  0
LINE
  5
C8
330
75
100
AcDbEntity
  8
06828131_MOUSSEU
  6
Continuous
 62
     7
100
AcDbLine
 10
45.984805222
 20
1056.9746715885
 30
0.0
 11
45.984805222
 21
1057.2448877879
 31
0.0
  0
ELLIPSE
  5
C9
330
75
100
AcDbEntity
  8
06828131_MOUSSEU
  6
Continuous
 62
     7
100
AcDbEllipse
 10
42.9468077473
 20
1056.0262111548
 30
0.0
 11
6.250000043227413
 21
5.177733242156535E-9
 31
0.0
210
0.0
220
0.0
230
1.0
 40
0.1736481777
 41
0.769397478276429
 42
0.8013988436194998
  0
LINE
  5
CA
330
75
100
AcDbEntity
  8
06828131_MOUSSEU
  6
Continuous
 62
     7
100
AcDbLine
 10
47.4363701269
 20
1056.7812579198
 30
0.0
 11
48.5821575386
 21
1056.9802218158
 31
0.0
  0
LINE
  5
CB
330
75
100
AcDbEntity
  8
06828131_MOUSSEU
  6
Continuous
 62
     7
100
AcDbLine
 10
47.2949487707
 20
1056.8058154806
 30
0.0
 11
48.4276421165
 21
1057.002505616
 31
0.0
  0
LINE
  5
CC
330
75
100
AcDbEntity
  8
06828131_MOUSSEU
  6
Continuous
 62
     7
100
AcDbLine
 10
47.2949487707
 20
1056.8058154806
 30
0.0
 11
47.2949487707
 21
1057.1377744142
 31
0.0
  0
ELLIPSE
  5
CD
330
75
100
AcDbEntity
  8
06828131_MOUSSEU
  6
Continuous
 62
     7
100
AcDbEllipse
 10
42.9468077381
 20
1056.0262111569
 30
0.0
 11
6.250000050418323
 21
4.450551038814865E-9
 31
0.0
210
0.0
220
0.0
230
1.0
 40
0.1736481773
 41
0.507598090806815
 42
0.5395994561499161
  0
LINE
  5
CE
330
75
100
AcDbEntity
  8
06828131_MOUSSEU
  6
Continuous
 62
     7
100
AcDbLine
 10
48.408773697
 20
1056.5537538801
 30
0.0
 11
50.0012368628
 21
1056.713407584
 31
0.0
  0
LINE
  5
CF
330
75
100
AcDbEntity
  8
06828131_MOUSSEU
  6
Continuous
 62
     7
100
AcDbLine
 10
48.308773697
 20
1056.5838306267
 30
0.0
 11
49.8815535281
 21
1056.7415109617
 31
0.0
  0
LINE
  5
D0
330
75
100
AcDbEntity
  8
06828131_MOUSSEU
  6
Continuous
 62
     7
100
AcDbLine
 10
48.308773697
 20
1056.5838306267
 30
0.0
 11
48.308773697
 21
1056.9327492099
 31
0.0
  0
ELLIPSE
  5
D1
330
75
100
AcDbEntity
  8
06828131_MOUSSEU
  6
Continuous
 62
     7
100
AcDbEllipse
 10
42.946807758
 20
1056.0262111606
 30
0.0
 11
6.250000030066468
 21
1.359537482592543E-9
 31
0.0
210
0.0
220
0.0
230
1.0
 40
0.1736481773
 41
0.245798704433674
 42
0.277800069844696
  0
LINE
  5
D2
330
75
100
AcDbEntity
  8
06828131_MOUSSEU
  6
Continuous
 62
     7
100
AcDbLine
 10
49.0089533167
 20
1056.290298676
 30
0.0
 11
51.0374725751
 21
1056.3846834233
 31
0.0
  0
LINE
  5
D3
330
75
100
AcDbEntity
  8
06828131_MOUSSEU
  6
Continuous
 62
     7
100
AcDbLine
 10
48.9571895077
 20
1056.3238449279
 30
0.0
 11
50.9611836851
 21
1056.4170885504
 31
0.0
  0
LINE
  5
D4
330
75
100
AcDbEntity
  8
06828131_MOUSSEU
  6
Continuous
 62
     7
100
AcDbLine
 10
48.9571895077
 20
1056.3238449279
 30
0.0
 11
48.9571895077
 21
1056.6087357581
 31
0.0
  0
ARC
  5
D5
330
75
100
AcDbEntity
  8
06828131_MOUSSEU
  6
Continuous
 62
     7
100
AcDbCircle
 10
51.1899309088
 20
1056.0262111619
 30
0.0
 40
0.2568762259794977
100
AcDbArc
 50
356.1238526717
 51
3.8761473283
  0
ELLIPSE
  5
D6
330
75
100
AcDbEntity
  8
06828131_MOUSSEU
  6
Continuous
 62
     7
100
AcDbEllipse
 10
42.946807788
 20
1056.0262111619
 30
0.0
 11
8.500000000035403
 21
1.401656568589260E-12
 31
0.0
210
0.0
220
0.0
230
1.0
 40
0.1736481777
 41
0.0117649772879893
 42
0.1119139225535258
  0
ARC
  5
D7
330
75
100
AcDbEntity
  8
06828131_MOUSSEU
  6
Continuous
 62
     7
100
AcDbCircle
 10
49.0075713013
 20
1056.0262111619
 30
0.0
 40
0.1892348465219808
100
AcDbArc
 50
0.0
 51
5.2650577285
  0
LINE
  5
D8
330
75
100
AcDbEntity
  8
06828131_MOUSSEU
  6
Continuous
 62
     7
100
AcDbLine
 10
49.196807788
 20
1056.0088463442
 30
0.0
 11
51.4462195324
 21
1056.0088463442
 31
0.0
  0
LINE
  5
D9
330
75
100
AcDbEntity
  8
06828131_MOUSSEU
  6
Continuous
 62
     7
100
AcDbLine
 10
49.1960077368
 20
1056.0435759797
 30
0.0
 11
51.4462195324
 21
1056.0435759797
 31
0.0
  0
LINE
  5
DA
330
75
100
AcDbEntity
  8
06828131_MOUSSEU
  6
Continuous
 62
     7
100
AcDbLine
 10
49.1960077368
 20
1056.0435759797
 30
0.0
 11
49.1960077368
 21
1056.2990021103
 31
0.0
  0
ELLIPSE
  5
DB
330
75
100
AcDbEntity
  8
06828131_MOUSSEU
  6
Continuous
 62
     7
100
AcDbEllipse
 10
42.9468083085
 20
1056.0262111377
 30
0.0
 11
8.499999479170654
 21
2.415830036017752E-8
 31
0.0
210
0.0
220
0.0
230
1.0
 40
0.1736481824
 41
-0.273564373878
 42
-0.2500344185558676
  0
ELLIPSE
  5
DC
330
75
100
AcDbEntity
  8
06828131_MOUSSEU
  6
Continuous
 62
     7
100
AcDbEllipse
 10
42.946807788
 20
1056.0262111619
 30
0.0
 11
8.500000000026352
 21
-1.207367539279858E-12
 31
0.0
210
0.0
220
0.0
230
1.0
 40
0.1736481777
 41
6.033150896668957
 42
6.27142032989155
  0
LINE
  5
DD
330
75
100
AcDbEntity
  8
06828131_MOUSSEU
  6
Continuous
 62
     7
100
AcDbLine
 10
51.1824910047
 20
1055.6609913541
 30
0.0
 11
51.1824910047
 21
1056.0088463442
 31
0.0
  0
LINE
  5
DE
330
75
100
AcDbEntity
  8
06828131_MOUSSEU
  6
Continuous
 62
     7
100
AcDbLine
 10
49.1644374954
 20
1055.7189343774
 30
0.0
 11
51.1307271957
 21
1055.6274451022
 31
0.0
  0
LINE
  5
DF
330
75
100
AcDbEntity
  8
06828131_MOUSSEU
  6
Continuous
 62
     7
100
AcDbLine
 10
49.1817991728
 20
1055.7540813222
 30
0.0
 11
51.1824910047
 21
1055.6609913541
 31
0.0
  0
ELLIPSE
  5
E0
330
75
100
AcDbEntity
  8
06828131_MOUSSEU
  6
Continuous
 62
     7
100
AcDbEllipse
 10
42.9468081386
 20
1056.0262111269
 30
0.0
 11
8.499999645824694
 21
3.131234160846930E-8
 31
0.0
210
0.0
220
0.0
230
1.0
 40
0.1736481797
 41
-0.5353637641199711
 42
-0.5118338089837042
  0
ELLIPSE
  5
E1
330
75
100
AcDbEntity
  8
06828131_MOUSSEU
  6
Continuous
 62
     7
100
AcDbEllipse
 10
42.946807788
 20
1056.0262111619
 30
0.0
 11
8.500000000001751
 21
-4.163336342344337E-13
 31
0.0
210
0.0
220
0.0
230
1.0
 40
0.1736481777
 41
-0.5118337983101631
 42
-0.2735643650872221
  0
LINE
  5
E2
330
75
100
AcDbEntity
  8
06828131_MOUSSEU
  6
Continuous
 62
     7
100
AcDbLine
 10
50.3575142759
 20
1055.3032958549
 30
0.0
 11
50.3575142759
 21
1055.6634218403
 31
0.0
  0
LINE
  5
E3
330
75
100
AcDbEntity
  8
06828131_MOUSSEU
  6
Continuous
 62
     7
100
AcDbLine
 10
48.7464103775
 20
1055.4247160719
 30
0.0
 11
50.2575142759
 21
1055.2732191083
 31
0.0
  0
LINE
  5
E4
330
75
100
AcDbEntity
  8
06828131_MOUSSEU
  6
Continuous
 62
     7
100
AcDbLine
 10
48.8188419406
 20
1055.4575567149
 30
0.0
 11
50.3575142759
 21
1055.3032958549
 31
0.0
  0
ELLIPSE
  5
E5
330
75
100
AcDbEntity
  8
06828131_MOUSSEU
  6
Continuous
 62
     7
100
AcDbEllipse
 10
42.9468079624
 20
1056.0262111317
 30
0.0
 11
8.499999815105001
 21
2.207985183577676E-8
 31
0.0
210
0.0
220
0.0
230
1.0
 40
0.1736481777
 41
-0.7971631485638122
 42
-0.7736331936465355
  0
ELLIPSE
  5
E6
330
75
100
AcDbEntity
  8
06828131_MOUSSEU
  6
Continuous
 62
     7
100
AcDbEllipse
 10
42.946807788
 20
1056.0262111619
 30
0.0
 11
8.499999999983809
 21
1.720845688168993E-12
 31
0.0
210
0.0
220
0.0
230
1.0
 40
0.1736481777
 41
-0.773633186110108
 42
-0.5353637528868846
  0
LINE
  5
E7
330
75
100
AcDbEntity
  8
06828131_MOUSSEU
  6
Continuous
 62
     7
100
AcDbLine
 10
49.0275101467
 20
1054.9948658392
 30
0.0
 11
49.0275101467
 21
1055.3965341835
 31
0.0
  0
LINE
  5
E8
330
75
100
AcDbEntity
  8
06828131_MOUSSEU
  6
Continuous
 62
     7
100
AcDbLine
 10
47.8346737616
 20
1055.1528845822
 30
0.0
 11
48.8860887904
 21
1054.9703082784
 31
0.0
  0
LINE
  5
E9
330
75
100
AcDbEntity
  8
06828131_MOUSSEU
  6
Continuous
 62
     7
100
AcDbLine
 10
47.9577932942
 20
1055.1806202213
 30
0.0
 11
49.0275101467
 21
1054.9948658392
 31
0.0
  0
ELLIPSE
  5
EA
330
75
100
AcDbEntity
  8
06828131_MOUSSEU
  6
Continuous
 62
     7
100
AcDbEllipse
 10
42.9468080247
 20
1056.0262110908
 30
0.0
 11
8.499999704149177
 21
3.668815251600677E-8
 31
0.0
210
0.0
220
0.0
230
1.0
 40
0.1736481753
 41
-1.058962541619474
 42
-1.035432586388091
  0
ELLIPSE
  5
EB
330
75
100
AcDbEntity
  8
06828131_MOUSSEU
  6
Continuous
 62
     7
100
AcDbEllipse
 10
42.946807788
 20
1056.0262111619
 30
0.0
 11
8.499999999985729
 21
1.706967900361178E-12
 31
0.0
210
0.0
220
0.0
230
1.0
 40
0.1736481777
 41
-1.035432573909301
 42
-0.797163140686032
  0
LINE
  5
EC
330
75
100
AcDbEntity
  8
06828131_MOUSSEU
  6
Continuous
 62
     7
100
AcDbLine
 10
47.2831162006
 20
1054.7567203029
 30
0.0
 11
47.2831162006
 21
1055.0476605457
 31
0.0
  0
LINE
  5
ED
330
75
100
AcDbEntity
  8
06828131_MOUSSEU
  6
Continuous
 62
     7
100
AcDbLine
 10
46.4676120873
 20
1054.9325381378
 30
0.0
 11
47.1099111198
 21
1054.7393554851
 31
0.0
  0
LINE
  5
EE
330
75
100
AcDbEntity
  8
06828131_MOUSSEU
  6
Continuous
 62
     7
100
AcDbLine
 10
46.6317043417
 20
1054.9526437972
 30
0.0
 11
47.2831162006
 21
1054.7567203029
 31
0.0
  0
ELLIPSE
  5
EF
330
75
100
AcDbEntity
  8
06828131_MOUSSEU
  6
Continuous
 62
     7
100
AcDbEllipse
 10
42.9468079099
 20
1056.0262110829
 30
0.0
 11
8.499999748896316
 21
2.108201113681929E-8
 31
0.0
210
0.0
220
0.0
230
1.0
 40
0.1736481735
 41
-1.320761923963834
 42
-1.29723196873628
  0
ELLIPSE
  5
F0
330
75
100
AcDbEntity
  8
06828131_MOUSSEU
  6
Continuous
 62
     7
100
AcDbEllipse
 10
42.946807788
 20
1056.0262111619
 30
0.0
 11
8.500000000002984
 21
-2.359223927328458E-13
 31
0.0
210
0.0
220
0.0
230
1.0
 40
0.1736481777
 41
-1.297231961707513
 42
-1.058962528484612
  0
LINE
  5
F1
330
75
100
AcDbEntity
  8
06828131_MOUSSEU
  6
Continuous
 62
     7
100
AcDbLine
 10
45.2432100023
 20
1054.6050884706
 30
0.0
 11
45.2432100023
 21
1054.8198616136
 31
0.0
  0
LINE
  5
F2
330
75
100
AcDbEntity
  8
06828131_MOUSSEU
  6
Continuous
 62
     7
100
AcDbLine
 10
44.7506223426
 20
1054.7901317043
 30
0.0
 11
45.050024837
 21
1054.5960997795
 31
0.0
  0
LINE
  5
F3
330
75
100
AcDbEntity
  8
06828131_MOUSSEU
  6
Continuous
 62
     7
100
AcDbLine
 10
44.9413731237
 20
1054.8006980317
 30
0.0
 11
45.2432100023
 21
1054.6050884706
 31
0.0
  0
ARC
  5
F4
330
75
100
AcDbEntity
  8
06828131_MOUSSEU
  6
Continuous
 62
     7
100
AcDbCircle
 10
42.946807788
 20
1103.4964652799
 30
0.0
 40
48.94626363161557
100
AcDbArc
 50
269.8829413828
 51
270.1170586172
  0
ELLIPSE
  5
F5
330
75
100
AcDbEntity
  8
06828131_MOUSSEU
  6
Continuous
 62
     7
100
AcDbEllipse
 10
42.946807788
 20
1056.0262111619
 30
0.0
 11
8.500000000008749
 21
-4.440892098500626E-13
 31
0.0
210
0.0
220
0.0
230
1.0
 40
0.1736481777
 41
4.724153957673015
 42
4.962423390895761
  0
LINE
  5
F6
330
75
100
AcDbEntity
  8
06828131_MOUSSEU
  6
Continuous
 62
     7
100
AcDbLine
 10
42.846807788
 20
1054.7440874283
 30
0.0
 11
42.846807788
 21
1054.5503038013
 31
0.0
  0
LINE
  5
F7
330
75
100
AcDbEntity
  8
06828131_MOUSSEU
  6
Continuous
 62
     7
100
AcDbLine
 10
43.046807788
 20
1054.7440874283
 30
0.0
 11
43.046807788
 21
1054.5503038013
 31
0.0
  0
ELLIPSE
  5
F8
330
75
100
AcDbEntity
  8
06828131_MOUSSEU
  6
Continuous
 62
     7
100
AcDbEllipse
 10
42.9468076655
 20
1056.0262110825
 30
0.0
 11
-8.499999747457171
 21
2.120756348311659E-8
 31
0.0
210
0.0
220
0.0
230
1.0
 40
0.1736481735
 41
1.297231968778469
 42
1.320761924009745
  0
ELLIPSE
  5
F9
330
75
100
AcDbEntity
  8
06828131_MOUSSEU
  6
Continuous
 62
     7
100
AcDbEllipse
 10
42.946807788
 20
1056.0262111619
 30
0.0
 11
-8.500000000005883
 21
-3.330669073875469E-13
 31
0.0
210
0.0
220
0.0
230
1.0
 40
0.1736481777
 41
1.320761916283802
 42
1.559031349506626
  0
LINE
  5
FA
330
75
100
AcDbEntity
  8
06828131_MOUSSEU
  6
Continuous
 62
     7
100
AcDbLine
 10
40.6504055738
 20
1054.6050884706
 30
0.0
 11
40.6504055738
 21
1054.8198616136
 31
0.0
  0
LINE
  5
FB
330
75
100
AcDbEntity
  8
06828131_MOUSSEU
  6
Continuous
 62
     7
100
AcDbLine
 10
40.9522424524
 20
1054.8006980317
 30
0.0
 11
40.6504055738
 21
1054.6050884706
 31
0.0
  0
LINE
  5
FC
330
75
100
AcDbEntity
  8
06828131_MOUSSEU
  6
Continuous
 62
     7
100
AcDbLine
 10
41.1429932335
 20
1054.7901317043
 30
0.0
 11
40.8435907391
 21
1054.5960997795
 31
0.0
  0
ELLIPSE
  5
FD
330
75
100
AcDbEntity
  8
06828131_MOUSSEU
  6
Continuous
 62
     7
100
AcDbEllipse
 10
42.9468075863
 20
1056.0262111011
 30
0.0
 11
-8.49999974777567
 21
3.131568615533098E-8
 31
0.0
210
0.0
220
0.0
230
1.0
 40
0.1736481756
 41
1.035432584536558
 42
1.058962539671437
  0
ELLIPSE
  5
FE
330
75
100
AcDbEntity
  8
06828131_MOUSSEU
  6
Continuous
 62
     7
100
AcDbEllipse
 10
42.946807788
 20
1056.0262111619
 30
0.0
 11
-8.500000000008695
 21
-8.465450562766819E-13
 31
0.0
210
0.0
220
0.0
230
1.0
 40
0.1736481777
 41
1.058962528484444
 42
1.297231961707202
  0
LINE
  5
FF
330
75
100
AcDbEntity
  8
06828131_MOUSSEU
  6
Continuous
 62
     7
100
AcDbLine
 10
38.6104993755
 20
1054.7567203029
 30
0.0
 11
38.6104993755
 21
1055.0476605457
 31
0.0
  0
LINE
  5
100
330
75
100
AcDbEntity
  8
06828131_MOUSSEU
  6
Continuous
 62
     7
100
AcDbLine
 10
39.2619112343
 20
1054.9526437972
 30
0.0
 11
38.6104993755
 21
1054.7567203029
 31
0.0
  0
LINE
  5
101
330
75
100
AcDbEntity
  8
06828131_MOUSSEU
  6
Continuous
 62
     7
100
AcDbLine
 10
39.4260034888
 20
1054.9325381378
 30
0.0
 11
38.7837044562
 21
1054.7393554851
 31
0.0
  0
ELLIPSE
  5
102
330
75
100
AcDbEntity
  8
06828131_MOUSSEU
  6
Continuous
 62
     7
100
AcDbEllipse
 10
42.9468074544
 20
1056.026211104
 30
0.0
 11
-8.499999646119228
 21
4.221109572988269E-8
 31
0.0
210
0.0
220
0.0
230
1.0
 40
0.1736481777
 41
0.7736332005244081
 42
0.7971631557537064
  0
ELLIPSE
  5
103
330
75
100
AcDbEntity
  8
06828131_MOUSSEU
  6
Continuous
 62
     7
100
AcDbEllipse
 10
42.946807788
 20
1056.0262111619
 30
0.0
 11
-8.500000000022226
 21
-2.955968803064479E-12
 31
0.0
210
0.0
220
0.0
230
1.0
 40
0.1736481777
 41
0.797163140684759
 42
1.035432573907283
  0
LINE
  5
104
330
75
100
AcDbEntity
  8
06828131_MOUSSEU
  6
Continuous
 62
     7
100
AcDbLine
 10
36.8661054294
 20
1054.9948658392
 30
0.0
 11
36.8661054294
 21
1055.3965341835
 31
0.0
  0
LINE
  5
105
330
75
100
AcDbEntity
  8
06828131_MOUSSEU
  6
Continuous
 62
     7
100
AcDbLine
 10
37.9358222818
 20
1055.1806202213
 30
0.0
 11
36.8661054294
 21
1054.9948658392
 31
0.0
  0
LINE
  5
106
330
75
100
AcDbEntity
  8
06828131_MOUSSEU
  6
Continuous
 62
     7
100
AcDbLine
 10
38.0589418145
 20
1055.1528845822
 30
0.0
 11
37.0075267856
 21
1054.9703082784
 31
0.0
  0
ELLIPSE
  5
107
330
75
100
AcDbEntity
  8
06828131_MOUSSEU
  6
Continuous
 62
     7
100
AcDbEllipse
 10
42.946807439
 20
1056.0262111269
 30
0.0
 11
-8.499999647323522
 21
3.126672531994501E-8
 31
0.0
210
0.0
220
0.0
230
1.0
 40
0.1736481797
 41
0.5118338089340417
 42
0.5353637640682088
  0
ELLIPSE
  5
108
330
75
100
AcDbEntity
  8
06828131_MOUSSEU
  6
Continuous
 62
     7
100
AcDbEllipse
 10
42.9468077881
 20
1056.0262111619
 30
0.0
 11
-8.500000000027878
 21
-2.553512956637860E-12
 31
0.0
210
0.0
220
0.0
230
1.0
 40
0.1736481777
 41
0.5353637528856268
 42
0.773633186108085
  0
LINE
  5
109
330
75
100
AcDbEntity
  8
06828131_MOUSSEU
  6
Continuous
 62
     7
100
AcDbLine
 10
35.5361013002
 20
1055.3032958549
 30
0.0
 11
35.5361013002
 21
1055.6634218403
 31
0.0
  0
LINE
  5
10A
330
75
100
AcDbEntity
  8
06828131_MOUSSEU
  6
Continuous
 62
     7
100
AcDbLine
 10
37.0747736354
 20
1055.4575567149
 30
0.0
 11
35.5361013002
 21
1055.3032958549
 31
0.0
  0
LINE
  5
10B
330
75
100
AcDbEntity
  8
06828131_MOUSSEU
  6
Continuous
 62
     7
100
AcDbLine
 10
37.1472051986
 20
1055.4247160719
 30
0.0
 11
35.6361013002
 21
1055.2732191083
 31
0.0
  0
ELLIPSE
  5
10C
330
75
100
AcDbEntity
  8
06828131_MOUSSEU
  6
Continuous
 62
     7
100
AcDbEllipse
 10
42.9468073979
 20
1056.0262111437
 30
0.0
 11
-8.499999609623687
 21
1.816589934033885E-8
 31
0.0
210
0.0
220
0.0
230
1.0
 40
0.1736481812
 41
0.2500344165421781
 42
0.2735643716774352
  0
ELLIPSE
  5
10D
330
75
100
AcDbEntity
  8
06828131_MOUSSEU
  6
Continuous
 62
     7
100
AcDbEllipse
 10
42.946807788
 20
1056.0262111619
 30
0.0
 11
-8.500000000004263
 21
3.469446951953614E-13
 31
0.0
210
0.0
220
0.0
230
1.0
 40
0.1736481777
 41
0.2735643650872115
 42
0.5118337983101091
  0
LINE
  5
10E
330
75
100
AcDbEntity
  8
06828131_MOUSSEU
  6
Continuous
 62
     7
100
AcDbLine
 10
34.7111245714
 20
1055.6609913541
 30
0.0
 11
34.7111245714
 21
1056.0088463442
 31
0.0
  0
LINE
  5
10F
330
75
100
AcDbEntity
  8
06828131_MOUSSEU
  6
Continuous
 62
     7
100
AcDbLine
 10
36.7118164032
 20
1055.7540813222
 30
0.0
 11
34.7111245714
 21
1055.6609913541
 31
0.0
  0
LINE
  5
110
330
75
100
AcDbEntity
  8
06828131_MOUSSEU
  6
Continuous
 62
     7
100
AcDbLine
 10
36.7291780807
 20
1055.7189343774
 30
0.0
 11
34.7628883804
 21
1055.6274451022
 31
0.0
  0
ARC
  5
111
330
75
100
AcDbEntity
  8
06828131_MOUSSEU
  6
Continuous
 62
     7
100
AcDbCircle
 10
34.7036846673
 20
1056.0262111619
 30
0.0
 40
0.2568762259794977
100
AcDbArc
 50
176.1238526717
 51
183.8761473283
  0
ELLIPSE
  5
112
330
75
100
AcDbEntity
  8
06828131_MOUSSEU
  6
Continuous
 62
     7
100
AcDbEllipse
 10
42.9468077881
 20
1056.0262111619
 30
0.0
 11
-8.500000000035465
 21
-1.401656568589260E-12
 31
0.0
210
0.0
220
0.0
230
1.0
 40
0.1736481777
 41
0.0117649772879044
 42
0.2500344105105202
  0
ARC
  5
113
330
75
100
AcDbEntity
  8
06828131_MOUSSEU
  6
Continuous
 62
     7
100
AcDbCircle
 10
36.8860442748
 20
1056.0262111619
 30
0.0
 40
0.1892348465219799
100
AcDbArc
 50
174.7349422715
 51
180.0
  0
LINE
  5
114
330
75
100
AcDbEntity
  8
06828131_MOUSSEU
  6
Continuous
 62
     7
100
AcDbLine
 10
36.6976078392
 20
1056.0435759797
 30
0.0
 11
36.6976078392
 21
1056.2990021103
 31
0.0
  0
LINE
  5
115
330
75
100
AcDbEntity
  8
06828131_MOUSSEU
  6
Continuous
 62
     7
100
AcDbLine
 10
36.6976078392
 20
1056.0435759797
 30
0.0
 11
34.4473960437
 21
1056.0435759797
 31
0.0
  0
LINE
  5
116
330
75
100
AcDbEntity
  8
06828131_MOUSSEU
  6
Continuous
 62
     7
100
AcDbLine
 10
36.696807788
 20
1056.0088463442
 30
0.0
 11
34.4473960437
 21
1056.0088463442
 31
0.0
  0
ELLIPSE
  5
117
330
75
100
AcDbEntity
  8
06828131_MOUSSEU
  6
Continuous
 62
     7
100
AcDbEllipse
 10
42.9468077881
 20
1056.0262111619
 30
0.0
 11
-8.50000000002804
 21
1.249000902703301E-12
 31
0.0
210
0.0
220
0.0
230
1.0
 40
0.1736481777
 41
6.171271384626047
 42
6.271420329891672
  0
ELLIPSE
  5
118
330
75
100
AcDbEntity
  8
06828131_MOUSSEU
  6
Continuous
 62
     7
100
AcDbEllipse
 10
42.9468078437
 20
1056.0262111593
 30
0.0
 11
-6.250000055674086
 21
2.599656601098843E-9
 31
0.0
210
0.0
220
0.0
230
1.0
 40
0.173648177
 41
-0.2778000692462657
 42
-0.2457987039031115
  0
LINE
  5
119
330
75
100
AcDbEntity
  8
06828131_MOUSSEU
  6
Continuous
 62
     7
100
AcDbLine
 10
36.9364260684
 20
1056.3238449279
 30
0.0
 11
36.9364260684
 21
1056.6087357581
 31
0.0
  0
LINE
  5
11A
330
75
100
AcDbEntity
  8
06828131_MOUSSEU
  6
Continuous
 62
     7
100
AcDbLine
 10
36.9364260684
 20
1056.3238449279
 30
0.0
 11
34.932431891
 21
1056.4170885504
 31
0.0
  0
LINE
  5
11B
330
75
100
AcDbEntity
  8
06828131_MOUSSEU
  6
Continuous
 62
     7
100
AcDbLine
 10
36.8846622593
 20
1056.290298676
 30
0.0
 11
34.856143001
 21
1056.3846834233
 31
0.0
  0
ELLIPSE
  5
11C
330
75
100
AcDbEntity
  8
06828131_MOUSSEU
  6
Continuous
 62
     7
100
AcDbEllipse
 10
42.9468077936
 20
1056.0262111614
 30
0.0
 11
-6.250000005624464
 21
5.056371987777197E-10
 31
0.0
210
0.0
220
0.0
230
1.0
 40
0.1736481776
 41
-0.539599458098218
 42
-0.5075980926240495
  0
LINE
  5
11D
330
75
100
AcDbEntity
  8
06828131_MOUSSEU
  6
Continuous
 62
     7
100
AcDbLine
 10
37.584841879
 20
1056.5838306267
 30
0.0
 11
37.584841879
 21
1056.9327492099
 31
0.0
  0
LINE
  5
11E
330
75
100
AcDbEntity
  8
06828131_MOUSSEU
  6
Continuous
 62
     7
100
AcDbLine
 10
37.584841879
 20
1056.5838306267
 30
0.0
 11
36.012062048
 21
1056.7415109617
 31
0.0
  0
LINE
  5
11F
330
75
100
AcDbEntity
  8
06828131_MOUSSEU
  6
Continuous
 62
     7
100
AcDbLine
 10
37.484841879
 20
1056.5537538801
 30
0.0
 11
35.8923787133
 21
1056.713407584
 31
0.0
  0
ELLIPSE
  5
120
330
75
100
AcDbEntity
  8
06828131_MOUSSEU
  6
Continuous
 62
     7
100
AcDbEllipse
 10
42.9468077907
 20
1056.0262111614
 30
0.0
 11
-6.250000002816174
 21
3.533145997991483E-10
 31
0.0
210
0.0
220
0.0
230
1.0
 40
0.1736481777
 41
-0.8013988459786763
 42
-0.76939748049766
  0
LINE
  5
121
330
75
100
AcDbEntity
  8
06828131_MOUSSEU
  6
Continuous
 62
     7
100
AcDbLine
 10
38.5986668054
 20
1056.8058154806
 30
0.0
 11
38.5986668054
 21
1057.1377744142
 31
0.0
  0
LINE
  5
122
330
75
100
AcDbEntity
  8
06828131_MOUSSEU
  6
Continuous
 62
     7
100
AcDbLine
 10
38.5986668054
 20
1056.8058154806
 30
0.0
 11
37.4659734595
 21
1057.002505616
 31
0.0
  0
LINE
  5
123
330
75
100
AcDbEntity
  8
06828131_MOUSSEU
  6
Continuous
 62
     7
100
AcDbLine
 10
38.4572454491
 20
1056.7812579198
 30
0.0
 11
37.3114580375
 21
1056.9802218158
 31
0.0
  0
ELLIPSE
  5
124
330
75
100
AcDbEntity
  8
06828131_MOUSSEU
  6
Continuous
 62
     7
100
AcDbEllipse
 10
42.9468078038
 20
1056.0262111572
 30
0.0
 11
-6.250000019652408
 21
2.451053249252766E-9
 31
0.0
210
0.0
220
0.0
230
1.0
 40
0.1736481779
 41
-1.063198232742891
 42
-1.031196867332714
  0
LINE
  5
125
330
75
100
AcDbEntity
  8
06828131_MOUSSEU
  6
Continuous
 62
     7
100
AcDbLine
 10
39.908810354
 20
1056.9746715885
 30
0.0
 11
39.908810354
 21
1057.2448877879
 31
0.0
  0
LINE
  5
126
330
75
100
AcDbEntity
  8
06828131_MOUSSEU
  6
Continuous
 62
     7
100
AcDbLine
 10
39.908810354
 20
1056.9746715885
 30
0.0
 11
39.1873656775
 21
1057.191658676
 31
0.0
  0
LINE
  5
127
330
75
100
AcDbEntity
  8
06828131_MOUSSEU
  6
Continuous
 62
     7
100
AcDbLine
 10
39.7356052733
 20
1056.9573067707
 30
0.0
 11
39.0076275523
 21
1057.1762587854
 31
0.0
  0
ELLIPSE
  5
128
330
75
100
AcDbEntity
  8
06828131_MOUSSEU
  6
Continuous
 62
     7
100
AcDbEllipse
 10
42.9468078027
 20
1056.0262111524
 30
0.0
 11
-6.250000030261649
 21
2.538788623773769E-9
 31
0.0
210
0.0
220
0.0
230
1.0
 40
0.1736481783
 41
-1.324997620462163
 42
-1.292996255116638
  0
LINE
  5
129
330
75
100
AcDbEntity
  8
06828131_MOUSSEU
  6
Continuous
 62
     7
100
AcDbLine
 10
41.4259884073
 20
1057.0788916857
 30
0.0
 11
41.4259884073
 21
1057.3167275276
 31
0.0
  0
LINE
  5
12A
330
75
100
AcDbEntity
  8
06828131_MOUSSEU
  6
Continuous
 62
     7
100
AcDbLine
 10
41.4259884073
 20
1057.0788916857
 30
0.0
 11
41.0775439608
 21
1057.3047059253
 31
0.0
  0
LINE
  5
12B
330
75
100
AcDbEntity
  8
06828131_MOUSSEU
  6
Continuous
 62
     7
100
AcDbLine
 10
41.232803242
 20
1057.0699029946
 30
0.0
 11
40.8826110002
 21
1057.2968499172
 31
0.0
  0
ARC
  5
12C
330
75
100
AcDbEntity
  8
06828131_MOUSSEU
  6
Continuous
 62
     7
100
AcDbCircle
 10
42.946807788
 20
1040.6982553467
 30
0.0
 40
15.80548925698569
100
AcDbArc
 50
89.3656022836
 51
90.6343977164
  0
LINE
  5
12D
330
75
100
AcDbEntity
  8
06828131_MOUSSEU
  6
Continuous
 62
     7
100
AcDbLine
 10
43.121807788
 20
1056.502775765
 30
0.0
 11
43.121807788
 21
1056.7403959295
 31
0.0
  0
LINE
  5
12E
330
75
100
AcDbEntity
  8
06828131_MOUSSEU
  6
Continuous
 62
     7
100
AcDbLine
 10
42.771807788
 20
1056.502775765
 30
0.0
 11
42.771807788
 21
1056.7403959295
 31
0.0
  0
ELLIPSE
  5
12F
330
75
100
AcDbEntity
  8
06828131_MOUSSEU
  6
Continuous
 62
     7
100
AcDbEllipse
 10
42.946807788
 20
1056.0262111619
 30
0.0
 11
2.750000000031386
 21
3.955169525227120E-12
 31
0.0
210
0.0
220
0.0
230
1.0
 40
0.1736481777
 41
0.9835181589360577
 42
1.110876943448923
  0
LINE
  5
130
330
75
100
AcDbEntity
  8
06828131_MOUSSEU
  6
Continuous
 62
     7
100
AcDbLine
 10
44.1674664271
 20
1056.7159185719
 30
0.0
 11
44.1674664271
 21
1056.4541224303
 31
0.0
  0
LINE
  5
131
330
75
100
AcDbEntity
  8
06828131_MOUSSEU
  6
Continuous
 62
     7
100
AcDbLine
 10
44.4705753185
 20
1056.4237339992
 30
0.0
 11
45.2248824607
 21
1056.6506050472
 31
0.0
  0
LINE
  5
132
330
75
100
AcDbEntity
  8
06828131_MOUSSEU
  6
Continuous
 62
     7
100
AcDbLine
 10
44.1674664271
 20
1056.4541224303
 30
0.0
 11
44.9027471977
 21
1056.6752709647
 31
0.0
  0
ELLIPSE
  5
133
330
75
100
AcDbEntity
  8
06828131_MOUSSEU
  6
Continuous
 62
     7
100
AcDbEllipse
 10
42.946807788
 20
1056.0262111619
 30
0.0
 11
2.750000000015593
 21
7.216449660063518E-13
 31
0.0
210
0.0
220
0.0
230
1.0
 40
0.1736481777
 41
0.4599193833400133
 42
0.5872781678535856
  0
LINE
  5
134
330
75
100
AcDbEntity
  8
06828131_MOUSSEU
  6
Continuous
 62
     7
100
AcDbLine
 10
45.2360505697
 20
1056.6496682018
 30
0.0
 11
45.2360505697
 21
1056.2908106168
 31
0.0
  0
LINE
  5
135
330
75
100
AcDbEntity
  8
06828131_MOUSSEU
  6
Continuous
 62
     7
100
AcDbLine
 10
45.4110505697
 20
1056.2381763102
 30
0.0
 11
47.035718811
 21
1056.4010587604
 31
0.0
  0
LINE
  5
136
330
75
100
AcDbEntity
  8
06828131_MOUSSEU
  6
Continuous
 62
     7
100
AcDbLine
 10
45.2360505697
 20
1056.2908106168
 30
0.0
 11
46.8029519729
 21
1056.4479016051
 31
0.0
  0
ELLIPSE
  5
137
330
75
100
AcDbEntity
  8
06828131_MOUSSEU
  6
Continuous
 62
     7
100
AcDbEllipse
 10
42.946807788
 20
1056.0262111619
 30
0.0
 11
-2.750000000000353
 21
0.0
 31
0.0
210
0.0
220
0.0
230
1.0
 40
0.1736481777
 41
3.141592653589793
 42
3.205272045846815
  0
LINE
  5
138
330
75
100
AcDbEntity
  8
06828131_MOUSSEU
  6
Continuous
 62
     7
100
AcDbLine
 10
45.6912339576
 20
1056.2662663261
 30
0.0
 11
45.6912339576
 21
1056.056599593
 31
0.0
  0
LINE
  5
139
330
75
100
AcDbEntity
  8
06828131_MOUSSEU
  6
Continuous
 62
     7
100
AcDbLine
 10
45.696807788
 20
1055.9958227308
 30
0.0
 11
48.108428389
 21
1055.9958227308
 31
0.0
  0
LINE
  5
13A
330
75
100
AcDbEntity
  8
06828131_MOUSSEU
  6
Continuous
 62
     7
100
AcDbLine
 10
45.6912339576
 20
1056.056599593
 30
0.0
 11
48.0309348295
 21
1056.056599593
 31
0.0
  0
ELLIPSE
  5
13B
330
75
100
AcDbEntity
  8
06828131_MOUSSEU
  6
Continuous
 62
     7
100
AcDbEllipse
 10
42.9468077912
 20
1056.0262111616
 30
0.0
 11
5.249999996767376
 21
2.914751773275270E-10
 31
0.0
210
0.0
220
0.0
230
1.0
 40
0.1736481777
 41
-0.5569382850332953
 42
-0.4902592664872518
  0
LINE
  5
13C
330
75
100
AcDbEntity
  8
06828131_MOUSSEU
  6
Continuous
 62
     7
100
AcDbLine
 10
45.6270933579
 20
1055.7224073909
 30
0.0
 11
47.4034145484
 21
1055.5443208496
 31
0.0
  0
LINE
  5
13D
330
75
100
AcDbEntity
  8
06828131_MOUSSEU
  6
Continuous
 62
     7
100
AcDbLine
 10
45.685866392
 20
1055.7866941275
 30
0.0
 11
47.5784145484
 21
1055.5969551562
 31
0.0
  0
LINE
  5
13E
330
75
100
AcDbEntity
  8
06828131_MOUSSEU
  6
Continuous
 62
     7
100
AcDbLine
 10
47.5784145484
 20
1055.9958227308
 30
0.0
 11
47.5784145484
 21
1055.5969551562
 31
0.0
  0
ELLIPSE
  5
13F
330
75
100
AcDbEntity
  8
06828131_MOUSSEU
  6
Continuous
 62
     7
100
AcDbEllipse
 10
42.9468077891
 20
1056.0262111616
 30
0.0
 11
5.249999998647097
 21
1.693090112553364E-10
 31
0.0
210
0.0
220
0.0
230
1.0
 40
0.1736481776
 41
-1.080537060559599
 42
-1.013858042023235
  0
LINE
  5
140
330
75
100
AcDbEntity
  8
06828131_MOUSSEU
  6
Continuous
 62
     7
100
AcDbLine
 10
44.6473503766
 20
1055.4539664139
 30
0.0
 11
45.4187946037
 21
1055.2219410883
 31
0.0
  0
LINE
  5
141
330
75
100
AcDbEntity
  8
06828131_MOUSSEU
  6
Continuous
 62
     7
100
AcDbLine
 10
44.913494707
 20
1055.4954725824
 30
0.0
 11
45.721903495
 21
1055.2523295194
 31
0.0
  0
LINE
  5
142
330
75
100
AcDbEntity
  8
06828131_MOUSSEU
  6
Continuous
 62
     7
100
AcDbLine
 10
45.721903495
 20
1055.7129021226
 30
0.0
 11
45.721903495
 21
1055.2523295194
 31
0.0
  0
ARC
  5
143
330
75
100
AcDbEntity
  8
06828131_MOUSSEU
  6
Continuous
 62
     7
100
AcDbCircle
 10
42.946807788
 20
1085.3318087981
 30
0.0
 40
30.21725070549421
100
AcDbArc
 50
269.6681757198
 51
270.3318242802
  0
LINE
  5
144
330
75
100
AcDbEntity
  8
06828131_MOUSSEU
  6
Continuous
 62
     7
100
AcDbLine
 10
42.771807788
 20
1055.3526850082
 30
0.0
 11
42.771807788
 21
1055.1150648438
 31
0.0
  0
LINE
  5
145
330
75
100
AcDbEntity
  8
06828131_MOUSSEU
  6
Continuous
 62
     7
100
AcDbLine
 10
43.121807788
 20
1055.3526850082
 30
0.0
 11
43.121807788
 21
1055.1150648438
 31
0.0
  0
ELLIPSE
  5
146
330
75
100
AcDbEntity
  8
06828131_MOUSSEU
  6
Continuous
 62
     7
100
AcDbEllipse
 10
42.9468077878
 20
1056.0262111618
 30
0.0
 11
-5.249999999679249
 21
4.136968545509489E-11
 31
0.0
210
0.0
220
0.0
230
1.0
 40
0.1736481777
 41
1.013858041956334
 42
1.08053706048218
  0
LINE
  5
147
330
75
100
AcDbEntity
  8
06828131_MOUSSEU
  6
Continuous
 62
     7
100
AcDbLine
 10
40.9801208691
 20
1055.4954725824
 30
0.0
 11
40.171712081
 21
1055.2523295194
 31
0.0
  0
LINE
  5
148
330
75
100
AcDbEntity
  8
06828131_MOUSSEU
  6
Continuous
 62
     7
100
AcDbLine
 10
41.2462651994
 20
1055.4539664139
 30
0.0
 11
40.4748209723
 21
1055.2219410883
 31
0.0
  0
LINE
  5
149
330
75
100
AcDbEntity
  8
06828131_MOUSSEU
  6
Continuous
 62
     7
100
AcDbLine
 10
40.171712081
 20
1055.7129021226
 30
0.0
 11
40.171712081
 21
1055.2523295194
 31
0.0
  0
ELLIPSE
  5
14A
330
75
100
AcDbEntity
  8
06828131_MOUSSEU
  6
Continuous
 62
     7
100
AcDbEllipse
 10
42.9468077875
 20
1056.0262111619
 30
0.0
 11
-5.249999999463043
 21
5.244416012573083E-11
 31
0.0
210
0.0
220
0.0
230
1.0
 40
0.1736481777
 41
0.4902592663620838
 42
0.5569382848886091
  0
LINE
  5
14B
330
75
100
AcDbEntity
  8
06828131_MOUSSEU
  6
Continuous
 62
     7
100
AcDbLine
 10
40.2077491841
 20
1055.7866941275
 30
0.0
 11
38.3152010276
 21
1055.5969551562
 31
0.0
  0
LINE
  5
14C
330
75
100
AcDbEntity
  8
06828131_MOUSSEU
  6
Continuous
 62
     7
100
AcDbLine
 10
40.2665222181
 20
1055.7224073909
 30
0.0
 11
38.4902010276
 21
1055.5443208496
 31
0.0
  0
LINE
  5
14D
330
75
100
AcDbEntity
  8
06828131_MOUSSEU
  6
Continuous
 62
     7
100
AcDbLine
 10
38.3152010276
 20
1055.9958227308
 30
0.0
 11
38.3152010276
 21
1055.5969551562
 31
0.0
  0
LINE
  5
14E
330
75
100
AcDbEntity
  8
06828131_MOUSSEU
  6
Continuous
 62
     7
100
AcDbLine
 10
40.2023816185
 20
1056.2662663261
 30
0.0
 11
40.2023816185
 21
1056.056599593
 31
0.0
  0
ELLIPSE
  5
14F
330
75
100
AcDbEntity
  8
06828131_MOUSSEU
  6
Continuous
 62
     7
100
AcDbEllipse
 10
42.946807788
 20
1056.0262111619
 30
0.0
 11
2.750000000003455
 21
-1.762479051592436E-12
 31
0.0
210
0.0
220
0.0
230
1.0
 40
0.1736481777
 41
3.0779132613329
 42
3.141592653589675
  0
LINE
  5
150
330
75
100
AcDbEntity
  8
06828131_MOUSSEU
  6
Continuous
 62
     7
100
AcDbLine
 10
40.2023816185
 20
1056.056599593
 30
0.0
 11
37.8626807466
 21
1056.056599593
 31
0.0
  0
LINE
  5
151
330
75
100
AcDbEntity
  8
06828131_MOUSSEU
  6
Continuous
 62
     7
100
AcDbLine
 10
40.196807788
 20
1055.9958227308
 30
0.0
 11
37.7851871871
 21
1055.9958227308
 31
0.0
  0
LINE
  5
152
330
75
100
AcDbEntity
  8
06828131_MOUSSEU
  6
Continuous
 62
     7
100
AcDbLine
 10
40.6575650064
 20
1056.6496682018
 30
0.0
 11
40.6575650064
 21
1056.2908106168
 31
0.0
  0
ELLIPSE
  5
153
330
75
100
AcDbEntity
  8
06828131_MOUSSEU
  6
Continuous
 62
     7
100
AcDbEllipse
 10
42.9468077881
 20
1056.0262111619
 30
0.0
 11
-2.750000000080888
 21
7.979727989493313E-12
 31
0.0
210
0.0
220
0.0
230
1.0
 40
0.1736481777
 41
-0.5872781678464394
 42
-0.4599193833345172
  0
LINE
  5
154
330
75
100
AcDbEntity
  8
06828131_MOUSSEU
  6
Continuous
 62
     7
100
AcDbLine
 10
40.6575650064
 20
1056.2908106168
 30
0.0
 11
39.0906636031
 21
1056.4479016051
 31
0.0
  0
LINE
  5
155
330
75
100
AcDbEntity
  8
06828131_MOUSSEU
  6
Continuous
 62
     7
100
AcDbLine
 10
40.4825650064
 20
1056.2381763102
 30
0.0
 11
38.8578967651
 21
1056.4010587604
 31
0.0
  0
LINE
  5
156
330
75
100
AcDbEntity
  8
06828131_MOUSSEU
  6
Continuous
 62
     7
100
AcDbLine
 10
41.7261491489
 20
1056.7159185719
 30
0.0
 11
41.7261491489
 21
1056.4541224303
 31
0.0
  0
ELLIPSE
  5
157
330
75
100
AcDbEntity
  8
06828131_MOUSSEU
  6
Continuous
 62
     7
100
AcDbEllipse
 10
42.946807788
 20
1056.0262111619
 30
0.0
 11
-2.749999999955764
 21
-5.384581669432009E-12
 31
0.0
210
0.0
220
0.0
230
1.0
 40
0.1736481777
 41
-1.110876943460264
 42
-0.9835181589445741
  0
LINE
  5
158
330
75
100
AcDbEntity
  8
06828131_MOUSSEU
  6
Continuous
 62
     7
100
AcDbLine
 10
41.7261491489
 20
1056.4541224303
 30
0.0
 11
40.9908683783
 21
1056.6752709647
 31
0.0
  0
LINE
  5
159
330
75
100
AcDbEntity
  8
06828131_MOUSSEU
  6
Continuous
 62
     7
100
AcDbLine
 10
41.4230402576
 20
1056.4237339992
 30
0.0
 11
40.6687331154
 21
1056.6506050472
 31
0.0
  0
LINE
  5
15A
330
75
100
AcDbEntity
  8
06828131_MOUSSEU
  6
Continuous
 62
     7
100
AcDbLine
 10
33.946807788
 20
1057.0490398937
 30
0.0
 11
33.946807788
 21
1055.8292496113
 31
0.0
  0
LINE
  5
15B
330
75
100
AcDbEntity
  8
06828131_MOUSSEU
  6
Continuous
 62
     7
100
AcDbLine
 10
51.946807788
 20
1055.8292496113
 30
0.0
 11
51.946807788
 21
1057.0490398937
 31
0.0
  0
LINE
  5
15C
330
75
100
AcDbEntity
  8
06828131_MOUSSEU
  6
Continuous
 62
     7
100
AcDbLine
 10
36.696807788
 20
1056.0262111619
 30
0.0
 11
36.696807788
 21
1055.8292496113
 31
0.0
  0
LINE
  5
15D
330
75
100
AcDbEntity
  8
06828131_MOUSSEU
  6
Continuous
 62
     7
100
AcDbLine
 10
49.196807788
 20
1055.8292496113
 30
0.0
 11
49.196807788
 21
1056.0262111619
 31
0.0
  0
LINE
  5
15E
330
75
100
AcDbEntity
  8
06828131_MOUSSEU
  6
Continuous
 62
     7
100
AcDbLine
 10
40.196807788
 20
1056.0262111619
 30
0.0
 11
40.196807788
 21
1055.8292496113
 31
0.0
  0
LINE
  5
15F
330
75
100
AcDbEntity
  8
06828131_MOUSSEU
  6
Continuous
 62
     7
100
AcDbLine
 10
45.696807788
 20
1055.8292496113
 30
0.0
 11
45.696807788
 21
1056.0262111619
 31
0.0
  0
LINE
  5
160
330
75
100
AcDbEntity
  8
06828131_MOUSSEU
  6
Continuous
 62
     7
100
AcDbLine
 10
42.4271778441
 20
1056.1915250222
 30
0.0
 11
42.4271778441
 21
1056.0262111619
 31
0.0
  0
LINE
  5
161
330
75
100
AcDbEntity
  8
06828131_MOUSSEU
  6
Continuous
 62
     7
100
AcDbLine
 10
43.4664377319
 20
1056.0262111619
 30
0.0
 11
43.4664377319
 21
1056.1915250222
 31
0.0
  0
LINE
  5
163
330
75
100
AcDbEntity
  8
$DDT_AUDIT_GENERATED_(162)
  6
Continuous
 62
     7
100
AcDbLine
 10
71.446807788
 20
988.9916592277
 30
0.0
 11
71.446807788
 21
989.3916592277
 31
0.0
  0
LINE
  5
164
330
75
100
AcDbEntity
  8
$DDT_AUDIT_GENERATED_(162)
  6
Continuous
 62
     7
100
AcDbLine
 10
14.446807788
 20
989.3916592277
 30
0.0
 11
14.446807788
 21
988.9916592277
 31
0.0
  0
ARC
  5
165
330
75
100
AcDbEntity
  8
$DDT_AUDIT_GENERATED_(162)
  6
Continuous
 62
     7
100
AcDbCircle
 10
14.546807788
 20
989.3916592277
 30
0.0
 40
0.1000000000000029
100
AcDbArc
 50
90.0
 51
180.0
  0
ARC
  5
166
330
75
100
AcDbEntity
  8
$DDT_AUDIT_GENERATED_(162)
  6
Continuous
 62
     7
100
AcDbCircle
 10
71.346807788
 20
989.3916592277
 30
0.0
 40
0.0999999999999994
100
AcDbArc
 50
0.0
 51
90.0
  0
ARC
  5
167
330
75
100
AcDbEntity
  8
$DDT_AUDIT_GENERATED_(162)
  6
Continuous
 62
     7
100
AcDbCircle
 10
71.346807788
 20
988.9916592277
 30
0.0
 40
0.1000000000000029
100
AcDbArc
 50
270.0
 51
0.0
  0
ARC
  5
168
330
75
100
AcDbEntity
  8
$DDT_AUDIT_GENERATED_(162)
  6
Continuous
 62
     7
100
AcDbCircle
 10
14.546807788
 20
988.9916592277
 30
0.0
 40
0.0999999999999994
100
AcDbArc
 50
180.0
 51
270.0
  0
ENDBLK
  5
16A
330
75
100
AcDbEntity
  8
0
100
AcDbBlockEnd
  0
BLOCK
  5
1B1
330
16B
100
AcDbEntity
  8
0
100
AcDbBlockBegin
  2
SE1
 70
     0
 10
0.0
 20
0.0
 30
0.0
  3
SE1
  1

  0
LINE
  5
16D
330
16B
100
AcDbEntity
  8
$DDT_AUDIT_GENERATED_(77)
  6
Continuous
 62
     7
100
AcDbLine
 10
205.7400741903
 20
920.8916592277
 30
0.0
 11
147.7400741903
 21
920.8916592277
 31
0.0
  0
LINE
  5
16E
330
16B
100
AcDbEntity
  8
$DDT_AUDIT_GENERATED_(77)
  6
Continuous
 62
     7
100
AcDbLine
 10
420.8914896285
 20
1098.5411571499
 30
0.0
 11
433.8914896285
 21
1076.0244966515
 31
0.0
  0
LINE
  5
16F
330
16B
100
AcDbEntity
  8
$DDT_AUDIT_GENERATED_(77)
  6
Continuous
 62
     7
100
AcDbLine
 10
205.7400741903
 20
988.8916592277
 30
0.0
 11
147.7400741903
 21
988.8916592277
 31
0.0
  0
ARC
  5
170
330
16B
100
AcDbEntity
  8
$DDT_AUDIT_GENERATED_(77)
  6
Continuous
 62
     7
100
AcDbCircle
 10
118.806488039
 20
982.0916592279
 30
0.0
 40
29.00262759774944
100
AcDbArc
 50
356.0457869831
 51
3.9542132731
  0
LINE
  5
171
330
16B
100
AcDbEntity
  8
$DDT_AUDIT_GENERATED_(77)
  6
Continuous
 62
     7
100
AcDbLine
 10
205.7400741903
 20
985.8682678941
 30
0.0
 11
205.7400741903
 21
988.8916592277
 31
0.0
  0
LINE
  5
172
330
16B
100
AcDbEntity
  8
$DDT_AUDIT_GENERATED_(77)
  6
Continuous
 62
     7
100
AcDbLine
 10
205.7400741903
 20
920.8916592277
 30
0.0
 11
205.7400741903
 21
939.6824133788
 31
0.0
  0
LINE
  5
173
330
16B
100
AcDbEntity
  8
$DDT_AUDIT_GENERATED_(77)
  6
Continuous
 62
     7
100
AcDbLine
 10
147.7400741903
 20
980.1163130567
 30
0.0
 11
147.7400741903
 21
920.8916592277
 31
0.0
  0
LINE
  5
174
330
16B
100
AcDbEntity
  8
$DDT_AUDIT_GENERATED_(77)
  6
Continuous
 62
     7
100
AcDbLine
 10
147.7400741903
 20
988.8916592277
 30
0.0
 11
147.7400741903
 21
984.0916592277
 31
0.0
  0
LINE
  5
175
330
16B
100
AcDbEntity
  8
$DDT_AUDIT_GENERATED_(77)
  6
Continuous
 62
     7
100
AcDbLine
 10
419.5254642247
 20
1098.9071825537
 30
0.0
 11
214.7246648332
 21
980.6653858948
 31
0.0
  0
LINE
  5
176
330
16B
100
AcDbEntity
  8
$DDT_AUDIT_GENERATED_(77)
  6
Continuous
 62
     7
100
AcDbLine
 10
425.8954127501
 20
1070.253258975
 30
0.0
 11
433.5254642247
 21
1074.6584712478
 31
0.0
  0
LINE
  5
177
330
16B
100
AcDbEntity
  8
$DDT_AUDIT_GENERATED_(77)
  6
Continuous
 62
     7
100
AcDbLine
 10
208.7400741903
 20
944.8785658015
 30
0.0
 11
403.3408480084
 21
1057.2313749499
 31
0.0
  0
ARC
  5
178
330
16B
100
AcDbEntity
  8
$DDT_AUDIT_GENERATED_(77)
  6
Continuous
 62
     7
100
AcDbCircle
 10
420.0254642247
 20
1098.0411571499
 30
0.0
 40
0.9999999999999898
100
AcDbArc
 50
30.0
 51
120.0
  0
ARC
  5
179
330
16B
100
AcDbEntity
  8
$DDT_AUDIT_GENERATED_(77)
  6
Continuous
 62
     7
100
AcDbCircle
 10
433.0254642247
 20
1075.5244966515
 30
0.0
 40
1.000000000000004
100
AcDbArc
 50
300.0
 51
30.0
  0
ARC
  5
17A
330
16B
100
AcDbEntity
  8
$DDT_AUDIT_GENERATED_(77)
  6
Continuous
 62
     7
100
AcDbCircle
 10
211.7283491147
 20
985.8589233686
 30
0.0
 40
5.97887940553767
100
AcDbArc
 50
179.9015548561
 51
299.9840076247
  0
ARC
  5
17B
330
16B
100
AcDbEntity
  8
$DDT_AUDIT_GENERATED_(77)
  6
Continuous
 62
     7
100
AcDbCircle
 10
211.7305796456
 20
939.6884937847
 30
0.0
 40
5.987781396455024
100
AcDbArc
 50
119.8839844545
 51
179.9552289892
  0
SPLINE
  5
17C
330
16B
100
AcDbEntity
  8
$DDT_AUDIT_GENERATED_(77)
  6
Continuous
 62
     7
100
AcDbSpline
210
0.0
220
0.0
230
1.0
 70
     8
 71
     3
 72
    43
 73
    39
 74
     0
 42
0.0000000003213762
 43
0.0000000001
 40
0.0097369355767957
 40
0.0097369355767957
 40
0.0097369355767957
 40
0.0097369355767957
 40
0.0098561374448027
 40
0.0201396797174684
 40
0.0418744373462802
 40
0.070220922911704
 40
0.1006746055480937
 40
0.133428941630631
 40
0.1686595152587192
 40
0.206157966724014
 40
0.2452725952908064
 40
0.2859285887204293
 40
0.3346761273665128
 40
0.3844393682307933
 40
0.4334816758940941
 40
0.4756329000139376
 40
0.5045538364237834
 40
0.5315445400386908
 40
0.5560609591046842
 40
0.5785067288076811
 40
0.6022447498952519
 40
0.6260073216323543
 40
0.6544267496505858
 40
0.6862183606193372
 40
0.7222765182733474
 40
0.7624837923779857
 40
0.8014822451681942
 40
0.8405356442581542
 40
0.8788184635461909
 40
0.9159404724297936
 40
0.9518881047813169
 40
0.9873809281731908
 40
0.9898710719056735
 40
0.9915395282995817
 40
0.9929117826185124
 40
0.9948488023790614
 40
0.9977858093701352
 40
1.0
 40
1.0
 40
1.0
 40
1.0
 10
403.5448440157297
 20
1057.455448498482
 30
0.0
 10
403.5448454590699
 20
1057.455451936854
 30
0.0
 10
403.5450263747631
 20
1057.455864418348
 30
0.0
 10
403.558279149399
 20
1057.482748179353
 30
0.0
 10
403.6209800958581
 20
1057.607678394908
 30
0.0
 10
403.7779244950593
 20
1057.917548750513
 30
0.0
 10
404.0379916324435
 20
1058.426787727119
 30
0.0
 10
404.3947656948483
 20
1059.119638832405
 30
0.0
 10
404.8493416960287
 20
1059.993355156105
 30
0.0
 10
405.3970505503315
 20
1061.035640527445
 30
0.0
 10
406.0416283686725
 20
1062.236296355342
 30
0.0
 10
406.7817842750684
 20
1063.635570206095
 30
0.0
 10
407.6426481652899
 20
1065.213925366021
 30
0.0
 10
408.6559941573983
 20
1066.919173414893
 30
0.0
 10
409.752731542635
 20
1068.532056424135
 30
0.0
 10
410.8022076675505
 20
1069.860522916451
 30
0.0
 10
411.7572486445661
 20
1070.880159069905
 30
0.0
 10
412.6614960484613
 20
1071.603629885607
 30
0.0
 10
413.5803112633088
 20
1072.147927106837
 30
0.0
 10
414.5278192840948
 20
1072.526723552374
 30
0.0
 10
415.5078012254843
 20
1072.705041394822
 30
0.0
 10
416.5625537640027
 20
1072.727498445113
 30
0.0
 10
417.6915693676328
 20
1072.624085628232
 30
0.0
 10
418.9189795149723
 20
1072.384286191838
 30
0.0
 10
420.2125737640534
 20
1072.043190389767
 30
0.0
 10
421.4773896311248
 20
1071.674073266682
 30
0.0
 10
422.6296661009322
 20
1071.301054267994
 30
0.0
 10
423.6072427637547
 20
1070.959385561483
 30
0.0
 10
424.3992300240326
 20
1070.664590031849
 30
0.0
 10
424.9766397023085
 20
1070.438375673195
 30
0.0
 10
425.3708651594983
 20
1070.281675650529
 30
0.0
 10
425.4305181707365
 20
1070.253264461079
 30
0.0
 10
425.5234716272627
 20
1070.22378028127
 30
0.0
 10
425.5526091681982
 20
1070.215901749726
 30
0.0
 10
425.6033886877763
 20
1070.206020569235
 30
0.0
 10
425.6889200929316
 20
1070.200750086469
 30
0.0
 10
425.7936294272719
 20
1070.212363371551
 30
0.0
 10
425.8548916928689
 20
1070.245501127392
 30
0.0
 10
425.885443437578
 20
1070.262496626417
 30
0.0
  0
ARC
  5
17D
330
16B
100
AcDbEntity
  8
$DDT_AUDIT_GENERATED_(77)
  6
Continuous
 62
     7
100
AcDbCircle
 10
403.0616724609
 20
1057.7062702369
 30
0.0
 40
0.5469529294036733
100
AcDbArc
 50
306.6094615492
 51
337.9026189848
  0
SPLINE
  5
17E
330
16B
100
AcDbEntity
  8
$DDT_AUDIT_GENERATED_(77)
  6
Continuous
 62
     7
100
AcDbSpline
210
0.0
220
0.0
230
1.0
 70
     8
 71
     3
 72
    10
 73
     6
 74
     0
 42
0.0000000008426363
 43
0.0000000001
 40
0.0
 40
0.0
 40
0.0
 40
0.0
 40
0.014905417657951
 40
0.0451608995178155
 40
0.0555914008789657
 40
0.0555914008789657
 40
0.0555914008789657
 40
0.0555914008789657
 10
403.5684494152657
 20
1057.500516438586
 30
0.0
 10
403.5850450065578
 20
1057.533222010367
 30
0.0
 10
403.6296852678828
 20
1057.621141737082
 30
0.0
 10
403.7375663755432
 20
1057.834201277683
 30
0.0
 10
403.8394562786411
 20
1058.034596320837
 30
0.0
 10
403.8670502442682
 20
1058.088804952393
 30
0.0
  0
LINE
  5
17F
330
16B
100
AcDbEntity
  8
$DDT_AUDIT_GENERATED_(89)
  6
Continuous
 62
     7
100
AcDbLine
 10
205.1340401322
 20
989.4916592277
 30
0.0
 11
148.3327828808
 21
989.4916592277
 31
0.0
  0
LINE
  5
180
330
16B
100
AcDbEntity
  8
$DDT_AUDIT_GENERATED_(89)
  6
Continuous
 62
     7
100
AcDbLine
 10
205.7238858181
 20
989.9815049136
 30
0.0
 11
147.7429371949
 21
989.9815049136
 31
0.0
  0
LINE
  5
181
330
16B
100
AcDbEntity
  8
$DDT_AUDIT_GENERATED_(89)
  6
Continuous
 62
     7
100
AcDbLine
 10
202.5574619924
 20
1032.9882811478
 30
0.0
 11
150.9093610205
 21
1032.9882811478
 31
0.0
  0
LINE
  5
182
330
16B
100
AcDbEntity
  8
$DDT_AUDIT_GENERATED_(89)
  6
Continuous
 62
     7
100
AcDbLine
 10
147.8429371949
 20
989.9815049136
 30
0.0
 11
148.3327828808
 21
989.4916592277
 31
0.0
  0
LINE
  5
183
330
16B
100
AcDbEntity
  8
$DDT_AUDIT_GENERATED_(89)
  6
Continuous
 62
     7
100
AcDbLine
 10
205.1340401322
 20
989.4916592277
 30
0.0
 11
205.6238858181
 21
989.9815049136
 31
0.0
  0
ARC
  5
184
330
16B
100
AcDbEntity
  8
$DDT_AUDIT_GENERATED_(89)
  6
Continuous
 62
     7
100
AcDbCircle
 10
840.2538989517
 20
975.3809889999
 30
0.0
 40
692.6648592344261
100
AcDbArc
 50
175.3055434556
 51
178.7921865962
  0
ARC
  5
185
330
16B
100
AcDbEntity
  8
$DDT_AUDIT_GENERATED_(89)
  6
Continuous
 62
     7
100
AcDbCircle
 10
-486.7870759387
 20
975.3809889999
 30
0.0
 40
692.664859234426
100
AcDbArc
 50
1.2078134038
 51
4.6944565444
  0
ARC
  5
186
330
16B
100
AcDbEntity
  8
$DDT_AUDIT_GENERATED_(89)
  6
Continuous
 62
     7
100
AcDbCircle
 10
202.5574619925
 20
1031.9882811479
 30
0.0
 40
0.9999999999376198
100
AcDbArc
 50
4.6944565446
 51
90.0000000009
  0
ARC
  5
187
330
16B
100
AcDbEntity
  8
$DDT_AUDIT_GENERATED_(89)
  6
Continuous
 62
     7
100
AcDbCircle
 10
150.9093610205
 20
1031.9882811479
 30
0.0
 40
0.9999999999430464
100
AcDbArc
 50
89.9999999991
 51
175.3055434554
  0
ARC
  5
188
330
16B
100
AcDbEntity
  8
$DDT_AUDIT_GENERATED_(89)
  6
Continuous
 62
     7
100
AcDbCircle
 10
202.1129662423
 20
1033.4882811478
 30
0.0
 40
0.4999999999933252
100
AcDbArc
 50
198.709613237
 51
270.0000000009
  0
ARC
  5
189
330
16B
100
AcDbEntity
  8
$DDT_AUDIT_GENERATED_(89)
  6
Continuous
 62
     7
100
AcDbCircle
 10
151.3538567707
 20
1033.4882811478
 30
0.0
 40
0.4999999999933307
100
AcDbArc
 50
269.9999999991
 51
341.290386763
  0
ARC
  5
18A
330
16B
100
AcDbEntity
  8
$DDT_AUDIT_GENERATED_(89)
  6
Continuous
 62
     7
100
AcDbCircle
 10
176.7376501967
 20
1024.8915939193
 30
0.0
 40
26.3
100
AcDbArc
 50
156.8951874097
 51
161.290386763
  0
ARC
  5
18B
330
16B
100
AcDbEntity
  8
$DDT_AUDIT_GENERATED_(89)
  6
Continuous
 62
     7
100
AcDbCircle
 10
176.7291728162
 20
1024.8915939193
 30
0.0
 40
26.3
100
AcDbArc
 50
18.709613237
 51
26.1042808658
  0
LINE
  5
18C
330
16B
100
AcDbEntity
  8
$DDT_AUDIT_GENERATED_(9A)
  6
Continuous
 62
     7
100
AcDbLine
 10
150.3228376046
 20
1070.1658424655
 30
0.0
 11
200.7357061641
 21
1071.4859498877
 31
0.0
  0
LINE
  5
18D
330
16B
100
AcDbEntity
  8
$DDT_AUDIT_GENERATED_(9A)
  6
Continuous
 62
     7
100
AcDbLine
 10
201.3977460232
 20
1071.4848369951
 30
0.0
 11
201.1121398942
 21
1071.6958757103
 31
0.0
  0
ARC
  5
18E
330
16B
100
AcDbEntity
  8
$DDT_AUDIT_GENERATED_(9A)
  6
Continuous
 62
     7
100
AcDbCircle
 10
200.6530896158
 20
1070.7939699215
 30
0.0
 40
1.015780723699522
100
AcDbArc
 50
0.6617685715
 51
42.8541203127
  0
LINE
  5
18F
330
16B
100
AcDbEntity
  8
$DDT_AUDIT_GENERATED_(9A)
  6
Continuous
 62
     7
100
AcDbLine
 10
201.1121398942
 20
1071.6958757103
 30
0.0
 11
201.4154657495
 21
1071.5037500189
 31
0.0
  0
ARC
  5
190
330
16B
100
AcDbEntity
  8
$DDT_AUDIT_GENERATED_(9A)
  6
Continuous
 62
     7
100
AcDbCircle
 10
216.4903267715
 20
1267.2589910431
 30
0.0
 40
199.2592835669817
100
AcDbArc
 50
284.4089416564
 51
284.9524258047
  0
ARC
  5
191
330
16B
100
AcDbEntity
  8
$DDT_AUDIT_GENERATED_(9A)
  6
Continuous
 62
     7
100
AcDbCircle
 10
293.3586840227
 20
1061.1338226699
 30
0.0
 40
29.16300243071476
100
AcDbArc
 50
164.3005520403
 51
175.131024967
  0
ARC
  5
192
330
16B
100
AcDbEntity
  8
$DDT_AUDIT_GENERATED_(9A)
  6
Continuous
 62
     7
100
AcDbCircle
 10
237.6275329492
 20
1048.2755427727
 30
0.0
 40
33.6766101422339
100
AcDbArc
 50
175.4120328948
 51
187.5879636111
  0
LINE
  5
193
330
16B
100
AcDbEntity
  8
$DDT_AUDIT_GENERATED_(9A)
  6
Continuous
 62
     7
100
AcDbLine
 10
204.2359387094
 20
1036.5656089654
 30
0.0
 11
148.6549914408
 21
1035.1101706395
 31
0.0
  0
LINE
  5
194
330
16B
100
AcDbEntity
  8
$DDT_AUDIT_GENERATED_(9A)
  6
Continuous
 62
     7
100
AcDbLine
 10
204.055956088
 20
1051.0791779817
 30
0.0
 11
203.8337558607
 21
1059.564662316
 31
0.0
  0
LINE
  5
195
330
16B
100
AcDbEntity
  8
$DDT_AUDIT_GENERATED_(9A)
  6
Continuous
 62
     7
100
AcDbLine
 10
204.4306347847
 20
1036.7707758201
 30
0.0
 11
204.245055856
 21
1043.8577491854
 31
0.0
  0
LINE
  5
196
330
16B
100
AcDbEntity
  8
$DDT_AUDIT_GENERATED_(9A)
  6
Continuous
 62
     7
100
AcDbLine
 10
147.5207849758
 20
1070.78345806
 30
0.0
 11
148.4498245861
 21
1035.3048667148
 31
0.0
  0
ARC
  5
197
330
16B
100
AcDbEntity
  8
$DDT_AUDIT_GENERATED_(9A)
  6
Continuous
 62
     7
100
AcDbCircle
 10
148.3148652451
 20
1070.8243842037
 30
0.0
 40
0.7896263235087693
100
AcDbArc
 50
88.5284688719
 51
182.5796448441
  0
ARC
  5
198
330
16B
100
AcDbEntity
  8
$DDT_AUDIT_GENERATED_(9A)
  6
Continuous
 62
     7
100
AcDbCircle
 10
205.8331149735
 20
1059.6153167628
 30
0.0
 40
1.999999993895143
100
AcDbArc
 50
91.5000000364
 51
181.4999986133
  0
LINE
  5
199
330
16B
100
AcDbEntity
  8
$DDT_AUDIT_GENERATED_(9A)
  6
Continuous
 62
     7
100
AcDbLine
 10
205.7802963571
 20
1061.6146192059
 30
0.0
 11
263.5917254908
 21
1063.128464755
 31
0.0
  0
LINE
  5
19A
330
16B
100
AcDbEntity
  8
$DDT_AUDIT_GENERATED_(9A)
  6
Continuous
 62
     7
100
AcDbLine
 10
267.8258194215
 20
1074.7445372402
 30
0.0
 11
148.3342963292
 21
1071.6155415884
 31
0.0
  0
LINE
  5
19B
330
16B
100
AcDbEntity
  8
$DDT_AUDIT_GENERATED_(9A)
  6
Continuous
 62
     7
100
AcDbLine
 10
264.3136228034
 20
1063.6383164186
 30
0.0
 11
268.6377099609
 21
1073.5830360414
 31
0.0
  0
ARC
  5
19C
330
16B
100
AcDbEntity
  8
$DDT_AUDIT_GENERATED_(9A)
  6
Continuous
 62
     7
100
AcDbCircle
 10
263.6203268074
 20
1063.8452413394
 30
0.0
 40
0.7031074023494531
100
AcDbArc
 50
267.7260098214
 51
324.5269596709
  0
ARC
  5
19D
330
16B
100
AcDbEntity
  8
$DDT_AUDIT_GENERATED_(9A)
  6
Continuous
 62
     7
100
AcDbCircle
 10
267.9235356239
 20
1073.9468217947
 30
0.0
 40
0.7999999999947587
100
AcDbArc
 50
333.1840562117
 51
104.8472495212
  0
ARC
  5
19E
330
16B
100
AcDbEntity
  8
$DDT_AUDIT_GENERATED_(9A)
  6
Continuous
 62
     7
100
AcDbCircle
 10
204.2307033198
 20
1036.7655404304
 30
0.0
 40
0.2000000000000007
100
AcDbArc
 50
271.5
 51
1.5
  0
ARC
  5
19F
330
16B
100
AcDbEntity
  8
$DDT_AUDIT_GENERATED_(9A)
  6
Continuous
 62
     7
100
AcDbCircle
 10
148.6497560511
 20
1035.3101021045
 30
0.0
 40
0.1999999999999973
100
AcDbArc
 50
181.5
 51
271.5
  0
LINE
  5
1A1
330
16B
100
AcDbEntity
  8
$DDT_AUDIT_GENERATED_(1A0)
  6
Continuous
 62
     7
100
AcDbLine
 10
204.0979059038
 20
1051.0613713413
 30
0.0
 11
204.0833355671
 21
1050.9864134567
 31
0.0
  0
LINE
  5
1A2
330
16B
100
AcDbEntity
  8
$DDT_AUDIT_GENERATED_(1A0)
  6
Continuous
 62
     7
100
AcDbLine
 10
204.0979059038
 20
1051.0613713413
 30
0.0
 11
204.055956088
 21
1051.0791779817
 31
0.0
  0
LINE
  5
1A3
330
16B
100
AcDbEntity
  8
$DDT_AUDIT_GENERATED_(AD)
  6
Continuous
 62
     7
100
AcDbLine
 10
426.0172673052
 20
1058.0783541479
 30
0.0
 11
405.5332660426
 21
1054.4664720524
 31
0.0
  0
LINE
  5
1A4
330
16B
100
AcDbEntity
  8
$DDT_AUDIT_GENERATED_(AD)
  6
Continuous
 62
     7
100
AcDbLine
 10
426.8284268806
 20
1059.2368100786
 30
0.0
 11
424.8442834832
 21
1070.4894464556
 31
0.0
  0
LINE
  5
1A5
330
16B
100
AcDbEntity
  8
$DDT_AUDIT_GENERATED_(AD)
  6
Continuous
 62
     7
100
AcDbLine
 10
403.8756799826
 20
1058.1083392556
 30
0.0
 11
404.3748101119
 21
1055.2776316278
 31
0.0
  0
ARC
  5
1A6
330
16B
100
AcDbEntity
  8
$DDT_AUDIT_GENERATED_(AD)
  6
Continuous
 62
     7
100
AcDbCircle
 10
425.8436191276
 20
1059.0631619009
 30
0.0
 40
1.000000000000005
100
AcDbArc
 50
280.0
 51
10.0
  0
ARC
  5
1A7
330
16B
100
AcDbEntity
  8
$DDT_AUDIT_GENERATED_(AD)
  6
Continuous
 62
     7
100
AcDbCircle
 10
405.3596178649
 20
1055.4512798055
 30
0.0
 40
1.000000000000005
100
AcDbArc
 50
190.0
 51
280.0
  0
LINE
  5
1A8
330
16B
100
AcDbEntity
  8
06828131_MOUSSEU
  6
Continuous
 62
     7
100
AcDbLine
 10
406.9901385768
 20
1054.2664160123
 30
0.0
 11
424.716678131
 21
1057.3920832103
 31
0.0
  0
LINE
  5
1A9
330
16B
100
AcDbEntity
  8
06828131_MOUSSEU
  6
Continuous
 62
     7
100
AcDbLine
 10
406.9119968968
 20
1054.7095795012
 30
0.0
 11
406.9901385768
 21
1054.2664160123
 31
0.0
  0
LINE
  5
1AA
330
16B
100
AcDbEntity
  8
06828131_MOUSSEU
  6
Continuous
 62
     7
100
AcDbLine
 10
424.716678131
 20
1057.3920832103
 30
0.0
 11
424.638536451
 21
1057.8352466992
 31
0.0
  0
LINE
  5
1AB
330
16B
100
AcDbEntity
  8
$DDT_AUDIT_GENERATED_(162)
  6
Continuous
 62
     7
100
AcDbLine
 10
205.2334115065
 20
988.9916592277
 30
0.0
 11
205.2334115065
 21
989.3916592277
 31
0.0
  0
LINE
  5
1AC
330
16B
100
AcDbEntity
  8
$DDT_AUDIT_GENERATED_(162)
  6
Continuous
 62
     7
100
AcDbLine
 10
148.2334115065
 20
989.3916592277
 30
0.0
 11
148.2334115065
 21
988.9916592277
 31
0.0
  0
ARC
  5
1AD
330
16B
100
AcDbEntity
  8
$DDT_AUDIT_GENERATED_(162)
  6
Continuous
 62
     7
100
AcDbCircle
 10
148.3334115065
 20
989.3916592277
 30
0.0
 40
0.1000000000000029
100
AcDbArc
 50
90.0
 51
180.0
  0
ARC
  5
1AE
330
16B
100
AcDbEntity
  8
$DDT_AUDIT_GENERATED_(162)
  6
Continuous
 62
     7
100
AcDbCircle
 10
205.1334115065
 20
989.3916592277
 30
0.0
 40
0.0999999999999994
100
AcDbArc
 50
0.0
 51
90.0
  0
ARC
  5
1AF
330
16B
100
AcDbEntity
  8
$DDT_AUDIT_GENERATED_(162)
  6
Continuous
 62
     7
100
AcDbCircle
 10
205.1334115065
 20
988.9916592277
 30
0.0
 40
0.1000000000000029
100
AcDbArc
 50
270.0
 51
0.0
  0
ARC
  5
1B0
330
16B
100
AcDbEntity
  8
$DDT_AUDIT_GENERATED_(162)
  6
Continuous
 62
     7
100
AcDbCircle
 10
148.3334115065
 20
988.9916592277
 30
0.0
 40
0.0999999999999994
100
AcDbArc
 50
180.0
 51
270.0
  0
ENDBLK
  5
1B2
330
16B
100
AcDbEntity
  8
0
100
AcDbBlockEnd
  0
BLOCK
  5
1DB
330
1B3
100
AcDbEntity
  8
0
100
AcDbBlockBegin
  2
SE2
 70
     0
 10
0.0
 20
0.0
 30
0.0
  3
SE2
  1

  0
ARC
  5
1B5
330
1B3
100
AcDbEntity
  8
$DDT_AUDIT_GENERATED_(77)
  6
Continuous
 62
     7
100
AcDbCircle
 10
42.946807788
 20
363.6353900343
 30
0.0
 40
29.0
100
AcDbArc
 50
290.1712713465
 51
360.0
  0
ARC
  5
1B6
330
1B3
100
AcDbEntity
  8
$DDT_AUDIT_GENERATED_(77)
  6
Continuous
 62
     7
100
AcDbCircle
 10
42.946807788
 20
363.6353900343
 30
0.0
 40
29.0
100
AcDbArc
 50
146.1517845415
 51
249.8287286535
  0
ARC
  5
1B7
330
1B3
100
AcDbEntity
  8
$DDT_AUDIT_GENERATED_(77)
  6
Continuous
 62
     7
100
AcDbCircle
 10
42.946807788
 20
363.6353900343
 30
0.0
 40
29.0
100
AcDbArc
 50
0.0
 51
48.8058210516
  0
LINE
  5
1B8
330
1B3
100
AcDbEntity
  8
$DDT_AUDIT_GENERATED_(77)
  6
Continuous
 62
     7
100
AcDbLine
 10
56.946807788
 20
113.85
 30
0.0
 11
56.946807788
 21
334.8980634292
 31
0.0
  0
LINE
  5
1B9
330
1B3
100
AcDbEntity
  8
$DDT_AUDIT_GENERATED_(77)
  6
Continuous
 62
     7
100
AcDbLine
 10
28.946807788
 20
334.9092328355
 30
0.0
 11
28.946807788
 21
113.85
 31
0.0
  0
SPLINE
  5
1BA
330
1B3
100
AcDbEntity
  8
$DDT_AUDIT_GENERATED_(77)
  6
Continuous
 62
     7
100
AcDbSpline
210
0.0
220
0.0
230
1.0
 70
     8
 71
     3
 72
    33
 73
    29
 74
     0
 42
0.0000000005777661
 43
0.0000000001
 40
0.0
 40
0.0
 40
0.0
 40
0.0
 40
0.0212088880964882
 40
0.0577503869719887
 40
0.0943561010301745
 40
0.1312370067715973
 40
0.1685672626015627
 40
0.206464272865329
 40
0.2449751621030641
 40
0.2840745124526749
 40
0.3236767412809264
 40
0.363660681703127
 40
0.4038977377345903
 40
0.4442739700901209
 40
0.4847000093324375
 40
0.5251019947170211
 40
0.5654491725848579
 40
0.6057262414801117
 40
0.645928210370372
 40
0.6860565379360185
 40
0.7261164797030281
 40
0.7661153687735337
 40
0.8060615544290933
 40
0.8459637800596288
 40
0.8858308446386566
 40
0.9256714429150512
 40
0.9654941161186458
 40
1.0
 40
1.0
 40
1.0
 40
1.0
 10
28.95330014137962
 20
113.8354363833719
 30
0.0
 10
28.95247694813033
 20
113.7346050468635
 30
0.0
 10
28.95172837956454
 20
113.5016298018211
 30
0.0
 10
29.00793359312593
 20
113.0857066337488
 30
0.0
 10
29.11681602202003
 20
112.6217587025355
 30
0.0
 10
29.27942024724637
 20
112.1603697498636
 30
0.0
 10
29.49267234499217
 20
111.7073212199246
 30
0.0
 10
29.75740219296426
 20
111.2622403988847
 30
0.0
 10
30.07335222694764
 20
110.8268318219935
 30
0.0
 10
30.44015083564109
 20
110.4027189479892
 30
0.0
 10
30.85673563602609
 20
109.9919471702776
 30
0.0
 10
31.32138581041155
 20
109.5966254347974
 30
0.0
 10
31.83179948514054
 20
109.2187631736541
 30
0.0
 10
32.38529506407411
 20
108.8601152719001
 30
0.0
 10
32.9789502763016
 20
108.5221634039584
 30
0.0
 10
33.6098234752554
 20
108.206072544656
 30
0.0
 10
34.27503060629271
 20
107.9127583716083
 30
0.0
 10
34.97183005874759
 20
107.642937632564
 30
0.0
 10
35.69749488187365
 20
107.3972334318204
 30
0.0
 10
36.44928244678474
 20
107.1762027224193
 30
0.0
 10
37.22443092188512
 20
106.980348332756
 30
0.0
 10
38.02008134353001
 20
106.8101280414667
 30
0.0
 10
38.83351099764556
 20
106.6659353141713
 30
0.0
 10
39.66123934518323
 20
106.5481632161223
 30
0.0
 10
40.50236102226877
 20
106.4569476995725
 30
0.0
 10
41.34614381515925
 20
106.3931025558288
 30
0.0
 10
42.17956478722895
 20
106.3563221928997
 30
0.0
 10
42.67464288709325
 20
106.3518708284551
 30
0.0
 10
42.94680778802765
 20
106.3499999999999
 30
0.0
  0
SPLINE
  5
1BB
330
1B3
100
AcDbEntity
  8
$DDT_AUDIT_GENERATED_(77)
  6
Continuous
 62
     7
100
AcDbSpline
210
0.0
220
0.0
230
1.0
 70
     8
 71
     3
 72
    33
 73
    29
 74
     0
 42
0.0000000005774037
 43
0.0000000001
 40
0.0
 40
0.0
 40
0.0
 40
0.0
 40
0.0210252306668135
 40
0.0608017960740834
 40
0.1005907043226752
 40
0.1403957073196369
 40
0.1802254134034881
 40
0.2200886794499596
 40
0.2599946511385637
 40
0.2999527508798133
 40
0.3399725747015039
 40
0.3800636388380408
 40
0.4202348835285702
 40
0.4604937931067092
 40
0.5008449260998209
 40
0.541287573437909
 40
0.5818122074801272
 40
0.6223954338347745
 40
0.6629804230539866
 40
0.7034787088701028
 40
0.7437769727885344
 40
0.7837360024166385
 40
0.8232105566264917
 40
0.8620816603154645
 40
0.9002907835771699
 40
0.9378612063686782
 40
0.9748984675780634
 40
1.0
 40
1.0
 40
1.0
 40
1.0
 10
42.94680778802765
 20
106.3499999999999
 30
0.0
 10
43.1127887473753
 20
106.3506957142683
 30
0.0
 10
43.52051657865536
 20
106.3530318556924
 30
0.0
 10
44.25960669806648
 20
106.3774232311665
 30
0.0
 10
45.10438912008715
 20
106.4321955198267
 30
0.0
 10
45.94865964669125
 20
106.5142452599665
 30
0.0
 10
46.78008201034474
 20
106.6229208430434
 30
0.0
 10
47.59817193318563
 20
106.758051492099
 30
0.0
 10
48.399344720359
 20
106.9192634252895
 30
0.0
 10
49.1809284431543
 20
107.1061713047451
 30
0.0
 10
49.94009664146913
 20
107.3183371771806
 30
0.0
 10
50.67415993735708
 20
107.5552930254756
 30
0.0
 10
51.38048717866942
 20
107.8165465502922
 30
0.0
 10
52.05651816645285
 20
108.1015899520933
 30
0.0
 10
52.69974146372266
 20
108.4099031752815
 30
0.0
 10
53.30766896346179
 20
108.7409484655775
 30
0.0
 10
53.87779792826371
 20
109.0941488239242
 30
0.0
 10
54.40750937783616
 20
109.4688004297073
 30
0.0
 10
54.89403613215526
 20
109.8639649271118
 30
0.0
 10
55.33451282159485
 20
110.2783541102494
 30
0.0
 10
55.72610759892299
 20
110.7102504148285
 30
0.0
 10
56.06617544848547
 20
111.1573890364543
 30
0.0
 10
56.35257104382015
 20
111.6171129251901
 30
0.0
 10
56.58359965436694
 20
112.0859273846197
 30
0.0
 10
56.75927766426257
 20
112.5619546882985
 30
0.0
 10
56.8772237202995
 20
113.037262173171
 30
0.0
 10
56.93998740513069
 20
113.4761867802523
 30
0.0
 10
56.94117930216321
 20
113.7266149047589
 30
0.0
 10
56.94105478415909
 20
113.8460596613985
 30
0.0
  0
ARC
  5
1BC
330
1B3
100
AcDbEntity
  8
$DDT_AUDIT_GENERATED_(77)
  6
Continuous
 62
     7
100
AcDbCircle
 10
62.9380137847
 20
334.9154028071
 30
0.0
 40
5.990014895032721
100
AcDbArc
 50
125.7100351437
 51
180.1718460204
  0
ARC
  5
1BD
330
1B3
100
AcDbEntity
  8
$DDT_AUDIT_GENERATED_(77)
  6
Continuous
 62
     7
100
AcDbCircle
 10
22.9655680473
 20
334.9245120385
 30
0.0
 40
5.976650974523235
100
AcDbArc
 50
359.8447498897
 51
54.294693551
  0
ARC
  5
1BE
330
1B3
100
AcDbEntity
  8
$DDT_AUDIT_GENERATED_(89)
  6
Continuous
 62
     7
100
AcDbCircle
 10
42.946807788
 20
363.6420527182
 30
0.0
 40
28.99047431159973
100
AcDbArc
 50
290.1781874934
 51
0.0
  0
ARC
  5
1BF
330
1B3
100
AcDbEntity
  8
$DDT_AUDIT_GENERATED_(89)
  6
Continuous
 62
     7
100
AcDbCircle
 10
42.946807788
 20
363.6420527182
 30
0.0
 40
28.99047431159973
100
AcDbArc
 50
121.9288433778
 51
249.8218125066
  0
ARC
  5
1C0
330
1B3
100
AcDbEntity
  8
$DDT_AUDIT_GENERATED_(89)
  6
Continuous
 62
     7
100
AcDbCircle
 10
42.946807788
 20
363.6420527182
 30
0.0
 40
28.99047431159973
100
AcDbArc
 50
0.0
 51
58.0711566222
  0
ARC
  5
1C1
330
1B3
100
AcDbEntity
  8
$DDT_AUDIT_GENERATED_(9A)
  6
Continuous
 62
     7
100
AcDbCircle
 10
42.946807788
 20
365.0234990541
 30
0.0
 40
27.83145513282959
100
AcDbArc
 50
70.1058454775
 51
109.8941545225
  0
ELLIPSE
  5
1C2
330
1B3
100
AcDbEntity
  8
$DDT_AUDIT_GENERATED_(9A)
  6
Continuous
 62
     7
100
AcDbEllipse
 10
42.946807788
 20
364.8252507817
 30
0.0
 11
-28.00000000000245
 21
-2.571922709526664E-11
 31
0.0
210
0.0
220
0.0
230
1.0
 40
0.999657325
 41
1.95519310128956
 42
4.32799220588819
  0
ELLIPSE
  5
1C3
330
1B3
100
AcDbEntity
  8
$DDT_AUDIT_GENERATED_(9A)
  6
Continuous
 62
     7
100
AcDbEllipse
 10
42.946807788
 20
364.8252507817
 30
0.0
 11
28.00000000000238
 21
-5.514382353521974E-11
 31
0.0
210
0.0
220
0.0
230
1.0
 40
0.999657325
 41
1.955193101292442
 42
4.32799220589108
  0
ARC
  5
1C4
330
1B3
100
AcDbEntity
  8
$DDT_AUDIT_GENERATED_(9A)
  6
Continuous
 62
     7
100
AcDbCircle
 10
46.936557146
 20
354.9671584997
 30
0.0
 40
17.35690230641994
100
AcDbArc
 50
290.4738819368
 51
292.0293418955
  0
LINE
  5
1C5
330
1B3
100
AcDbEntity
  8
$DDT_AUDIT_GENERATED_(9A)
  6
Continuous
 62
     7
100
AcDbLine
 10
52.946807788
 20
390.4414609489
 30
0.0
 11
52.946807788
 21
274.2803982931
 31
0.0
  0
ELLIPSE
  5
1C6
330
1B3
100
AcDbEntity
  8
$DDT_AUDIT_GENERATED_(9A)
  6
Continuous
 62
     7
100
AcDbEllipse
 10
52.146807788
 20
390.4414609489
 30
0.0
 11
0.7999999999998859
 21
6.397660179402465E-12
 31
0.0
210
0.0
220
0.0
230
1.0
 40
0.999657325
 41
0.0
 42
1.225755291655672
  0
ELLIPSE
  5
1C7
330
1B3
100
AcDbEntity
  8
$DDT_AUDIT_GENERATED_(9A)
  6
Continuous
 62
     7
100
AcDbEllipse
 10
33.746807788
 20
390.4414609489
 30
0.0
 11
-0.7999999999997228
 21
1.243449787580175E-11
 31
0.0
210
0.0
220
0.0
230
1.0
 40
0.999657325
 41
5.057430015531588
 42
6.283185307179586
  0
ARC
  5
1C8
330
1B3
100
AcDbEntity
  8
$DDT_AUDIT_GENERATED_(9A)
  6
Continuous
 62
     7
100
AcDbCircle
 10
53.668347935
 20
338.973914419
 30
0.0
 40
0.7126931636134087
100
AcDbArc
 50
179.6941997953
 51
202.0236922273
  0
LINE
  5
1C9
330
1B3
100
AcDbEntity
  8
$DDT_AUDIT_GENERATED_(9A)
  6
Continuous
 62
     7
100
AcDbLine
 10
52.946807788
 20
339.2633243305
 30
0.0
 11
52.9556649222
 21
338.9777182014
 31
0.0
  0
ARC
  5
1CA
330
1B3
100
AcDbEntity
  8
$DDT_AUDIT_GENERATED_(9A)
  6
Continuous
 62
     7
100
AcDbCircle
 10
38.979228601
 20
355.024164252
 30
0.0
 40
17.41806181441614
100
AcDbArc
 50
247.9733890908
 51
249.5233870785
  0
ARC
  5
1CB
330
1B3
100
AcDbEntity
  8
$DDT_AUDIT_GENERATED_(9A)
  6
Continuous
 62
     7
100
AcDbCircle
 10
42.9468077881
 20
361.1797410908
 30
0.0
 40
24.62234885778678
100
AcDbArc
 50
293.980550529
 51
294.1173304318
  0
ARC
  5
1CC
330
1B3
100
AcDbEntity
  8
$DDT_AUDIT_GENERATED_(9A)
  6
Continuous
 62
     7
100
AcDbCircle
 10
42.9468077881
 20
361.1797410908
 30
0.0
 40
24.62234885778678
100
AcDbArc
 50
245.8826695692
 51
246.0418660496
  0
LINE
  5
1CD
330
1B3
100
AcDbEntity
  8
$DDT_AUDIT_GENERATED_(9A)
  6
Continuous
 62
     7
100
AcDbLine
 10
32.937950654
 20
338.9777182014
 30
0.0
 11
32.946807788
 21
339.2633243305
 31
0.0
  0
ARC
  5
1CE
330
1B3
100
AcDbEntity
  8
$DDT_AUDIT_GENERATED_(9A)
  6
Continuous
 62
     7
100
AcDbCircle
 10
32.2423280049
 20
338.9706417854
 30
0.0
 40
0.6956586415014214
100
AcDbArc
 50
337.6992709128
 51
351.3706082221
  0
ARC
  5
1CF
330
1B3
100
AcDbEntity
  8
$DDT_AUDIT_GENERATED_(9A)
  6
Continuous
 62
     7
100
AcDbCircle
 10
32.2423280049
 20
338.9706417854
 30
0.0
 40
0.6956586415014214
100
AcDbArc
 50
355.6325654837
 51
0.5828372467
  0
LINE
  5
1D0
330
1B3
100
AcDbEntity
  8
$DDT_AUDIT_GENERATED_(9A)
  6
Continuous
 62
     7
100
AcDbLine
 10
32.946807788
 20
274.2803982931
 30
0.0
 11
32.946807788
 21
390.4414609489
 31
0.0
  0
ELLIPSE
  5
1D1
330
1B3
100
AcDbEntity
  8
$DDT_AUDIT_GENERATED_(9A)
  6
Continuous
 62
     7
100
AcDbEllipse
 10
42.946807788
 20
363.9352345392
 30
0.0
 11
-28.00000000000034
 21
5.540834718126275E-10
 31
0.0
210
0.0
220
0.0
230
1.0
 40
0.999657325
 41
0.0000000000000011
 42
1.205589105524317
  0
ELLIPSE
  5
1D2
330
1B3
100
AcDbEntity
  8
$DDT_AUDIT_GENERATED_(9A)
  6
Continuous
 62
     7
100
AcDbEllipse
 10
42.946807788
 20
363.9352345392
 30
0.0
 11
-28.00000000000034
 21
5.540834718126275E-10
 31
0.0
210
0.0
220
0.0
230
1.0
 40
0.999657325
 41
1.936003548105041
 42
3.141592653589794
  0
LINE
  5
1D3
330
1B3
100
AcDbEntity
  8
$DDT_AUDIT_GENERATED_(9A)
  6
Continuous
 62
     7
100
AcDbLine
 10
70.946807788
 20
363.9352345392
 30
0.0
 11
70.946807788
 21
364.8252507817
 31
0.0
  0
LINE
  5
1D4
330
1B3
100
AcDbEntity
  8
$DDT_AUDIT_GENERATED_(9A)
  6
Continuous
 62
     7
100
AcDbLine
 10
14.946807788
 20
364.8252507817
 30
0.0
 11
14.946807788
 21
363.9352345392
 31
0.0
  0
SPLINE
  5
1D5
330
1B3
100
AcDbEntity
  8
$DDT_AUDIT_GENERATED_(9A)
  6
Continuous
 62
     7
100
AcDbSpline
210
0.0
220
0.0
230
1.0
 70
     8
 71
     3
 72
    14
 73
    10
 74
     0
 42
0.0000000070376349
 43
0.0000000001
 40
0.0
 40
0.0
 40
0.0
 40
0.0
 40
0.0631886409619026
 40
0.1901196468272314
 40
0.3136697903231699
 40
0.4331596992817389
 40
0.5307613757155261
 40
0.6136843943533413
 40
0.6642161288487521
 40
0.6642161288487521
 40
0.6642161288487521
 40
0.6642161288487521
 10
53.38953283450609
 20
390.7962981005655
 30
0.0
 10
53.34741882950623
 20
390.8133093100594
 30
0.0
 10
53.23929590526039
 20
390.8569760881886
 30
0.0
 10
53.04896687366351
 20
390.9328033466684
 30
0.0
 10
52.84874927796049
 20
391.0121675777042
 30
0.0
 10
52.68966108705613
 20
391.0753487361222
 30
0.0
 10
52.58115563864426
 20
391.1191726874693
 30
0.0
 10
52.52688607156433
 20
391.141996612395
 30
0.0
 10
52.51379939163229
 20
391.1479296754644
 30
0.0
 10
52.51388193306406
 20
391.1478990662358
 30
0.0
  0
SPLINE
  5
1D6
330
1B3
100
AcDbEntity
  8
$DDT_AUDIT_GENERATED_(9A)
  6
Continuous
 62
     7
100
AcDbSpline
210
0.0
220
0.0
230
1.0
 70
     8
 71
     3
 72
    15
 73
    11
 74
     0
 42
0.0000000066893194
 43
0.0000000001
 40
0.3279702172895009
 40
0.3279702172895009
 40
0.3279702172895009
 40
0.3279702172895009
 40
0.3514299271556494
 40
0.410821281847343
 40
0.4888163380019514
 40
0.5854832877981682
 40
0.6916787023838836
 40
0.805510779397053
 40
0.9240775549401963
 40
1.0
 40
1.0
 40
1.0
 40
1.0
 10
33.37915087778556
 20
391.1476290607378
 30
0.0
 10
33.37917968768988
 20
391.1476438104711
 30
0.0
 10
33.37525450049444
 20
391.1458190623684
 30
0.0
 10
33.34712104692859
 20
391.1336314207978
 30
0.0
 10
33.27699722117522
 20
391.104740749221
 30
0.0
 10
33.16138229172074
 20
391.0583933974752
 30
0.0
 10
33.00099321875282
 20
390.994798360756
 30
0.0
 10
32.8077429463203
 20
390.9181296694566
 30
0.0
 10
32.6132915897121
 20
390.8405308318125
 30
0.0
 10
32.49925144670508
 20
390.7944018987391
 30
0.0
 10
32.44697841005289
 20
390.7732518882538
 30
0.0
  0
SPLINE
  5
1D7
330
1B3
100
AcDbEntity
  8
$DDT_AUDIT_GENERATED_(9A)
  6
Continuous
 62
     7
100
AcDbSpline
210
0.0
220
0.0
230
1.0
 70
     8
 71
     3
 72
     9
 73
     5
 74
     0
 42
0.0000001154994026
 43
0.0000000001
 40
0.6406925652381363
 40
0.6406925652381363
 40
0.6406925652381363
 40
0.6406925652381363
 40
0.6764000258868998
 40
1.0
 40
1.0
 40
1.0
 40
1.0
 10
52.94903145718655
 20
338.6749267824983
 30
0.0
 10
52.94950523700026
 20
338.6746616344607
 30
0.0
 10
52.95467835574883
 20
338.6728523385161
 30
0.0
 10
52.96429561292528
 20
338.6796859036429
 30
0.0
 10
52.97453551767845
 20
338.688154171145
 30
0.0
  0
ARC
  5
1D8
330
1B3
100
AcDbEntity
  8
$DDT_AUDIT_GENERATED_(9A)
  6
Continuous
 62
     7
100
AcDbCircle
 10
33.746807788
 20
274.2803982931
 30
0.0
 40
0.800000000000002
100
AcDbArc
 50
180.0
 51
247.8462901012
  0
ARC
  5
1D9
330
1B3
100
AcDbEntity
  8
$DDT_AUDIT_GENERATED_(9A)
  6
Continuous
 62
     7
100
AcDbCircle
 10
52.146807788
 20
274.2803982931
 30
0.0
 40
0.799999999999998
100
AcDbArc
 50
292.1537098988
 51
0.0
  0
ARC
  5
1DA
330
1B3
100
AcDbEntity
  8
$DDT_AUDIT_GENERATED_(9A)
  6
Continuous
 62
     7
100
AcDbCircle
 10
42.9473311344
 20
296.5191990949
 30
0.0
 40
24.86510524738249
100
AcDbArc
 50
247.5346270397
 51
292.4629863825
  0
ENDBLK
  5
1DC
330
1B3
100
AcDbEntity
  8
0
100
AcDbBlockEnd
  0
ENDSEC
  0
SECTION
  2
ENTITIES
  0
INSERT
  5
5F
330
1F
100
AcDbEntity
  8
Default
100
AcDbBlockReference
  2
SEANNOT_GROUP
 10
0.0
 20
0.0
 30
0.0
  0
INSERT
  5
66
330
1F
100
AcDbEntity
  8
Default
100
AcDbBlockReference
  2
SEANNOT_GROUP1
 10
0.0
 20
0.0
 30
0.0
  0
INSERT
  5
6C
330
1F
100
AcDbEntity
  8
Default
100
AcDbBlockReference
  2
SEANNOT_GROUP2
 10
0.0
 20
0.0
 30
0.0
  0
INSERT
  5
76
330
1F
100
AcDbEntity
  8
Default
100
AcDbBlockReference
  2
SE
 10
0.0
 20
0.0
 30
0.0
  0
INSERT
  5
16C
330
1F
100
AcDbEntity
  8
Default
100
AcDbBlockReference
  2
SE1
 10
0.0
 20
0.0
 30
0.0
  0
INSERT
  5
1B4
330
1F
100
AcDbEntity
  8
Default
100
AcDbBlockReference
  2
SE2
 10
0.0
 20
0.0
 30
0.0
  0
TEXT
  5
1DE
330
1F
100
AcDbEntity
  8
Default
  6
Continuous
 62
     7
100
AcDbText
 10
5.9362635081
 20
53.4225120485
 30
0.0
 40
10.0
  1
Grohe AG^J
  7
SEACAD_seiso_ttf
 11
5.9362635081
 21
63.4225120485
 31
0.0
100
AcDbText
 73
     3
  0
TEXT
  5
1DF
330
1F
100
AcDbEntity
  8
Default
  6
Continuous
 62
     7
100
AcDbText
 10
5.9362635081
 20
37.0588756849
 30
0.0
 40
10.0
  1
 
  7
SEACAD_seiso_ttf
 11
5.9362635081
 21
47.0588756849
 31
0.0
100
AcDbText
 73
     3
  0
TEXT
  5
1E0
330
1F
100
AcDbEntity
  8
Default
  6
Continuous
 62
     7
100
AcDbText
 10
5.9362635081
 20
20.6952393213
 30
0.0
 40
10.0
  1
ecn:
  7
SEACAD_seiso_ttf
 11
5.9362635081
 21
30.6952393213
 31
0.0
100
AcDbText
 73
     3
  0
TEXT
  5
1E1
330
1F
100
AcDbEntity
  8
Default
  6
Continuous
 62
     7
100
AcDbText
 10
5.9362635081
 20
4.3316029576
 30
0.0
 40
10.0
  1
unit: mm
  7
SEACAD_seiso_ttf
 11
5.9362635081
 21
14.3316029576
 31
0.0
100
AcDbText
 73
     3
  0
LINE
  5
1E2
330
1F
100
AcDbEntity
  8
Default
  6
Continuous
 62
     7
100
AcDbLine
 10
0.0
 20
0.0
 30
0.0
 11
100.0
 21
0.0
 31
0.0
  0
LINE
  5
1E3
330
1F
100
AcDbEntity
  8
Default
  6
Continuous
 62
     7
100
AcDbLine
 10
0.0
 20
0.0
 30
0.0
 11
0.0
 21
100.0
 31
0.0
  0
TEXT
  5
1E4
330
1F
100
AcDbEntity
  8
Default
  6
Continuous
 62
     7
100
AcDbText
 10
24.3923665681
 20
-18.2375342018
 30
0.0
 40
10.0
  1
100 mm
  7
SEACAD_seiso_ttf
 11
24.3923665681
 21
-8.2375342018
 31
0.0
100
AcDbText
 73
     3
  0
TEXT
  5
1E5
330
1F
100
AcDbEntity
  8
Default
  6
Continuous
 62
     7
100
AcDbText
 10
-7.6150308803
 20
24.6231930421
 30
0.0
 40
10.0
  1
100 mm
 50
90.0
  7
SEACAD_seiso_ttf
 11
-17.6150308803
 21
24.6231930421
 31
0.0
100
AcDbText
 73
     3
  0
TEXT
  5
1E6
330
1F
100
AcDbEntity
  8
Default
  6
Continuous
 62
     7
100
AcDbText
 10
28.4878128572
 20
20.0907663715
 30
0.0
 40
10.0
  1
214095
  7
SEACAD_seiso_ttf
 11
28.4878128572
 21
30.0907663715
 31
0.0
100
AcDbText
 73
     3
  0
TEXT
  5
1E7
330
1F
100
AcDbEntity
  8
Default
  6
Continuous
 62
     7
100
AcDbText
 10
5.9012241913
 20
36.7242780188
 30
0.0
 40
10.0
  1
32669000
  7
SEACAD_seiso_ttf
 11
5.9012241913
 21
46.7242780188
 31
0.0
100
AcDbText
 73
     3
  0
ENDSEC
  0
SECTION
  2
OBJECTS
  0
DICTIONARY
  5
C
330
0
100
AcDbDictionary
281
     1
  3
ACAD_GROUP
350
D
  3
ACAD_LAYOUT
350
1A
  3
ACAD_MLEADERSTYLE
350
1EB
  3
ACAD_MLINESTYLE
350
17
  3
ACAD_PLOTSETTINGS
350
19
  3
ACAD_PLOTSTYLENAME
350
E
  3
ACAD_SCALELIST
350
3B
  3
ACAD_TABLESTYLE
350
1EA
  3
ACAD_VISUALSTYLE
350
2A
  3
AcDbVariableDictionary
350
1E8
  0
DICTIONARY
  5
D
102
{ACAD_REACTORS
330
C
102
}
330
C
100
AcDbDictionary
281
     1
  0
DICTIONARY
  5
1A
102
{ACAD_REACTORS
330
C
102
}
330
C
100
AcDbDictionary
281
     1
  3
Layout1
350
1E
  3
Model
350
22
  0
DICTIONARY
  5
1EB
102
{ACAD_REACTORS
330
C
102
}
330
C
100
AcDbDictionary
281
     1
  0
DICTIONARY
  5
17
102
{ACAD_REACTORS
330
C
102
}
330
C
100
AcDbDictionary
281
     1
  3
Standard
350
18
  0
DICTIONARY
  5
19
102
{ACAD_REACTORS
330
C
102
}
330
C
100
AcDbDictionary
281
     1
  0
ACDBDICTIONARYWDFLT
  5
E
102
{ACAD_REACTORS
330
C
102
}
330
C
100
AcDbDictionary
281
     1
  3
Normal
350
F
100
AcDbDictionaryWithDefault
340
F
  0
DICTIONARY
  5
3B
102
{ACAD_REACTORS
330
C
102
}
330
C
100
AcDbDictionary
281
     1
  3
A0
350
3C
  3
A1
350
3D
  3
A2
350
3E
  3
A3
350
3F
  3
A4
350
40
  3
A5
350
41
  3
A6
350
42
  3
A7
350
43
  3
A8
350
44
  3
A9
350
45
  3
B0
350
46
  3
B1
350
47
  3
B2
350
48
  3
B3
350
49
  3
B4
350
4A
  3
B5
350
4B
  3
B6
350
4C
  3
B7
350
4D
  3
B8
350
4E
  3
B9
350
4F
  3
C0
350
50
  3
C1
350
51
  3
C2
350
52
  3
C3
350
53
  3
C4
350
54
  3
C5
350
55
  3
C6
350
56
  3
C7
350
57
  3
C8
350
58
  3
C9
350
59
  3
D0
350
5A
  3
D1
350
5B
  3
D2
350
5C
  0
DICTIONARY
  5
1EA
102
{ACAD_REACTORS
330
C
102
}
330
C
100
AcDbDictionary
281
     1
  0
DICTIONARY
  5
2A
102
{ACAD_REACTORS
330
C
102
}
330
C
100
AcDbDictionary
281
     1
  3
2dWireframe
350
2F
  3
3D Hidden
350
31
  3
3dWireframe
350
30
  3
Basic
350
32
  3
Brighten
350
36
  3
ColorChange
350
3A
  3
Conceptual
350
34
  3
Dim
350
35
  3
Facepattern
350
39
  3
Flat
350
2B
  3
FlatWithEdges
350
2C
  3
Gouraud
350
2D
  3
GouraudWithEdges
350
2E
  3
Linepattern
350
38
  3
Realistic
350
33
  3
Thicken
350
37
  0
DICTIONARY
  5
1E8
102
{ACAD_REACTORS
330
C
102
}
330
C
100
AcDbDictionary
281
     1
  3
CANNOSCALE
350
1E9
  3
PSOLHEIGHT
350
1ED
  3
PSOLWIDTH
350
1EC
  0
LAYOUT
  5
1E
102
{ACAD_REACTORS
330
1A
102
}
330
1A
100
AcDbPlotSettings
  1

  2
none_device
  4

  6

 40
0.0
 41
0.0
 42
0.0
 43
0.0
 44
0.0
 45
0.0
 46
0.0
 47
0.0
 48
0.0
 49
0.0
140
0.0
141
0.0
142
1.0
143
1.0
 70
   688
 72
     0
 73
     0
 74
     5
  7

 75
    16
147
1.0
148
0.0
149
0.0
100
AcDbLayout
  1
Layout1
 70
     1
 71
     1
 10
0.0
 20
0.0
 11
3000.0
 21
4500.0
 12
0.0
 22
0.0
 32
0.0
 14
0.0
 24
0.0
 34
0.0
 15
3000.0
 25
4500.0
 35
0.0
146
0.0
 13
0.0
 23
0.0
 33
0.0
 16
1.0
 26
0.0
 36
0.0
 17
0.0
 27
1.0
 37
0.0
 76
     0
330
1B
  0
LAYOUT
  5
22
102
{ACAD_REACTORS
330
1A
102
}
330
1A
100
AcDbPlotSettings
  1

  2
none_device
  4

  6

 40
0.0
 41
0.0
 42
0.0
 43
0.0
 44
0.0
 45
0.0
 46
0.0
 47
0.0
 48
0.0
 49
0.0
140
0.0
141
0.0
142
1.0
143
1.0
 70
  1712
 72
     0
 73
     0
 74
     0
  7

 75
     0
147
1.0
148
0.0
149
0.0
100
AcDbLayout
  1
Model
 70
     1
 71
     0
 10
0.0
 20
0.0
 11
3000.0
 21
4500.0
 12
0.0
 22
0.0
 32
0.0
 14
0.0
 24
0.0
 34
0.0
 15
3000.0
 25
4500.0
 35
0.0
146
0.0
 13
0.0
 23
0.0
 33
0.0
 16
1.0
 26
0.0
 36
0.0
 17
0.0
 27
1.0
 37
0.0
 76
     0
330
1F
331
29
  0
MLINESTYLE
  5
18
102
{ACAD_REACTORS
330
17
102
}
330
17
100
AcDbMlineStyle
  2
Standard
 70
     0
  3

 62
   256
 51
90.0
 52
90.0
 71
     2
 49
0.5
 62
   256
  6
BYLAYER
 49
-0.5
 62
   256
  6
BYLAYER
  0
ACDBPLACEHOLDER
  5
F
102
{ACAD_REACTORS
330
E
102
}
330
E
  0
SCALE
  5
3C
102
{ACAD_REACTORS
330
3B
102
}
330
3B
100
AcDbScale
 70
     0
300
1:1
140
1.0
141
1.0
290
     1
  0
SCALE
  5
3D
102
{ACAD_REACTORS
330
3B
102
}
330
3B
100
AcDbScale
 70
     0
300
1:2
140
1.0
141
2.0
290
     0
  0
SCALE
  5
3E
102
{ACAD_REACTORS
330
3B
102
}
330
3B
100
AcDbScale
 70
     0
300
1:4
140
1.0
141
4.0
290
     0
  0
SCALE
  5
3F
102
{ACAD_REACTORS
330
3B
102
}
330
3B
100
AcDbScale
 70
     0
300
1:5
140
1.0
141
5.0
290
     0
  0
SCALE
  5
40
102
{ACAD_REACTORS
330
3B
102
}
330
3B
100
AcDbScale
 70
     0
300
1:8
140
1.0
141
8.0
290
     0
  0
SCALE
  5
41
102
{ACAD_REACTORS
330
3B
102
}
330
3B
100
AcDbScale
 70
     0
300
1:10
140
1.0
141
10.0
290
     0
  0
SCALE
  5
42
102
{ACAD_REACTORS
330
3B
102
}
330
3B
100
AcDbScale
 70
     0
300
1:16
140
1.0
141
16.0
290
     0
  0
SCALE
  5
43
102
{ACAD_REACTORS
330
3B
102
}
330
3B
100
AcDbScale
 70
     0
300
1:20
140
1.0
141
20.0
290
     0
  0
SCALE
  5
44
102
{ACAD_REACTORS
330
3B
102
}
330
3B
100
AcDbScale
 70
     0
300
1:30
140
1.0
141
30.0
290
     0
  0
SCALE
  5
45
102
{ACAD_REACTORS
330
3B
102
}
330
3B
100
AcDbScale
 70
     0
300
1:40
140
1.0
141
40.0
290
     0
  0
SCALE
  5
46
102
{ACAD_REACTORS
330
3B
102
}
330
3B
100
AcDbScale
 70
     0
300
1:50
140
1.0
141
50.0
290
     0
  0
SCALE
  5
47
102
{ACAD_REACTORS
330
3B
102
}
330
3B
100
AcDbScale
 70
     0
300
1:100
140
1.0
141
100.0
290
     0
  0
SCALE
  5
48
102
{ACAD_REACTORS
330
3B
102
}
330
3B
100
AcDbScale
 70
     0
300
2:1
140
2.0
141
1.0
290
     0
  0
SCALE
  5
49
102
{ACAD_REACTORS
330
3B
102
}
330
3B
100
AcDbScale
 70
     0
300
4:1
140
4.0
141
1.0
290
     0
  0
SCALE
  5
4A
102
{ACAD_REACTORS
330
3B
102
}
330
3B
100
AcDbScale
 70
     0
300
8:1
140
8.0
141
1.0
290
     0
  0
SCALE
  5
4B
102
{ACAD_REACTORS
330
3B
102
}
330
3B
100
AcDbScale
 70
     0
300
10:1
140
10.0
141
1.0
290
     0
  0
SCALE
  5
4C
102
{ACAD_REACTORS
330
3B
102
}
330
3B
100
AcDbScale
 70
     0
300
100:1
140
100.0
141
1.0
290
     0
  0
SCALE
  5
4D
102
{ACAD_REACTORS
330
3B
102
}
330
3B
100
AcDbScale
 70
     0
300
1/128" = 1'-0"
140
0.0078125
141
12.0
290
     0
  0
SCALE
  5
4E
102
{ACAD_REACTORS
330
3B
102
}
330
3B
100
AcDbScale
 70
     0
300
1/64" = 1'-0"
140
0.015625
141
12.0
290
     0
  0
SCALE
  5
4F
102
{ACAD_REACTORS
330
3B
102
}
330
3B
100
AcDbScale
 70
     0
300
1/32" = 1'-0"
140
0.03125
141
12.0
290
     0
  0
SCALE
  5
50
102
{ACAD_REACTORS
330
3B
102
}
330
3B
100
AcDbScale
 70
     0
300
1/16" = 1'-0"
140
0.0625
141
12.0
290
     0
  0
SCALE
  5
51
102
{ACAD_REACTORS
330
3B
102
}
330
3B
100
AcDbScale
 70
     0
300
3/32" = 1'-0"
140
0.09375
141
12.0
290
     0
  0
SCALE
  5
52
102
{ACAD_REACTORS
330
3B
102
}
330
3B
100
AcDbScale
 70
     0
300
1/8" = 1'-0"
140
0.125
141
12.0
290
     0
  0
SCALE
  5
53
102
{ACAD_REACTORS
330
3B
102
}
330
3B
100
AcDbScale
 70
     0
300
3/16" = 1'-0"
140
0.1875
141
12.0
290
     0
  0
SCALE
  5
54
102
{ACAD_REACTORS
330
3B
102
}
330
3B
100
AcDbScale
 70
     0
300
1/4" = 1'-0"
140
0.25
141
12.0
290
     0
  0
SCALE
  5
55
102
{ACAD_REACTORS
330
3B
102
}
330
3B
100
AcDbScale
 70
     0
300
3/8" = 1'-0"
140
0.375
141
12.0
290
     0
  0
SCALE
  5
56
102
{ACAD_REACTORS
330
3B
102
}
330
3B
100
AcDbScale
 70
     0
300
1/2" = 1'-0"
140
0.5
141
12.0
290
     0
  0
SCALE
  5
57
102
{ACAD_REACTORS
330
3B
102
}
330
3B
100
AcDbScale
 70
     0
300
3/4" = 1'-0"
140
0.75
141
12.0
290
     0
  0
SCALE
  5
58
102
{ACAD_REACTORS
330
3B
102
}
330
3B
100
AcDbScale
 70
     0
300
1" = 1'-0"
140
1.0
141
12.0
290
     0
  0
SCALE
  5
59
102
{ACAD_REACTORS
330
3B
102
}
330
3B
100
AcDbScale
 70
     0
300
1-1/2" = 1'-0"
140
1.5
141
12.0
290
     0
  0
SCALE
  5
5A
102
{ACAD_REACTORS
330
3B
102
}
330
3B
100
AcDbScale
 70
     0
300
3" = 1'-0"
140
3.0
141
12.0
290
     0
  0
SCALE
  5
5B
102
{ACAD_REACTORS
330
3B
102
}
330
3B
100
AcDbScale
 70
     0
300
6" = 1'-0"
140
6.0
141
12.0
290
     0
  0
SCALE
  5
5C
102
{ACAD_REACTORS
330
3B
102
}
330
3B
100
AcDbScale
 70
     0
300
1'-0" = 1'-0"
140
12.0
141
12.0
290
     0
  0
VISUALSTYLE
  5
2F
102
{ACAD_REACTORS
330
2A
102
}
330
2A
100
AcDbVisualStyle
  2
2dWireframe
 70
     4
 71
     0
 72
     2
 73
     0
 90
        0
 40
-0.6
 41
-30.0
 62
     5
 63
     7
 74
     1
 91
        4
 64
     7
 65
   257
 75
     1
175
     1
 42
1.0
 92
        0
 66
   257
 43
1.0
 76
     1
 77
     6
 78
     2
 67
     7
 79
     5
170
     0
171
     0
290
     0
174
     0
 93
        1
 44
0.0
173
     0
291
     0
 45
0.0
1001
ACAD
1000
AcDbSavedByObjectVersion
1070
     0
  0
VISUALSTYLE
  5
31
102
{ACAD_REACTORS
330
2A
102
}
330
2A
100
AcDbVisualStyle
  2
3D Hidden
 70
     6
 71
     1
 72
     2
 73
     2
 90
        0
 40
-0.6
 41
-30.0
 62
     5
 63
     7
 74
     2
 91
        2
 64
     7
 65
   257
 75
     2
175
     1
 42
40.0
 92
        0
 66
   257
 43
1.0
 76
     1
 77
     6
 78
     2
 67
     7
 79
     3
170
     0
171
     0
290
     0
174
     0
 93
        1
 44
0.0
173
     0
291
     0
 45
0.0
1001
ACAD
1000
AcDbSavedByObjectVersion
1070
     0
  0
VISUALSTYLE
  5
30
102
{ACAD_REACTORS
330
2A
102
}
330
2A
100
AcDbVisualStyle
  2
3dWireframe
 70
     5
 71
     0
 72
     2
 73
     0
 90
        0
 40
-0.6
 41
-30.0
 62
     5
 63
     7
 74
     1
 91
        4
 64
     7
 65
   257
 75
     1
175
     1
 42
1.0
 92
        0
 66
   257
 43
1.0
 76
     1
 77
     6
 78
     2
 67
     7
 79
     5
170
     0
171
     0
290
     0
174
     0
 93
        1
 44
0.0
173
     0
291
     0
 45
0.0
1001
ACAD
1000
AcDbSavedByObjectVersion
1070
     0
  0
VISUALSTYLE
  5
32
102
{ACAD_REACTORS
330
2A
102
}
330
2A
100
AcDbVisualStyle
  2
Basic
 70
     7
 71
     1
 72
     0
 73
     1
 90
        0
 40
-0.6
 41
-30.0
 62
     5
 63
     7
 74
     0
 91
        4
 64
     7
 65
   257
 75
     1
175
     1
 42
1.0
 92
        8
 66
     7
 43
1.0
 76
     1
 77
     6
 78
     2
 67
     7
 79
     5
170
     0
171
     0
290
     0
174
     0
 93
        1
 44
0.0
173
     0
291
     1
 45
0.0
1001
ACAD
1000
AcDbSavedByObjectVersion
1070
     0
  0
VISUALSTYLE
  5
36
102
{ACAD_REACTORS
330
2A
102
}
330
2A
100
AcDbVisualStyle
  2
Brighten
 70
    12
 71
     2
 72
     2
 73
     0
 90
        0
 40
-0.6
 41
-30.0
 62
     5
 63
     7
 74
     1
 91
        4
 64
     7
 65
   257
 75
     1
175
     1
 42
1.0
 92
        8
 66
     7
 43
1.0
 76
     1
 77
     6
 78
     2
 67
     7
 79
     5
170
     0
171
     0
290
     0
174
     0
 93
        1
 44
50.0
173
     0
291
     1
 45
0.0
1001
ACAD
1000
AcDbSavedByObjectVersion
1070
     0
  0
VISUALSTYLE
  5
3A
102
{ACAD_REACTORS
330
2A
102
}
330
2A
100
AcDbVisualStyle
  2
ColorChange
 70
    16
 71
     2
 72
     2
 73
     3
 90
        0
 40
-0.6
 41
-30.0
 62
     5
 63
     8
 74
     1
 91
        4
 64
     7
 65
   257
 75
     1
175
     1
 42
1.0
 92
        8
 66
     8
 43
1.0
 76
     1
 77
     6
 78
     2
 67
     7
 79
     5
170
     0
171
     0
290
     0
174
     0
 93
        1
 44
0.0
173
     0
291
     1
 45
0.0
1001
ACAD
1000
AcDbSavedByObjectVersion
1070
     0
  0
VISUALSTYLE
  5
34
102
{ACAD_REACTORS
330
2A
102
}
330
2A
100
AcDbVisualStyle
  2
Conceptual
 70
     9
 71
     3
 72
     2
 73
     0
 90
        0
 40
-0.6
 41
-30.0
 62
     5
 63
     7
 74
     2
 91
        2
 64
     7
 65
   257
 75
     1
175
     1
 42
40.0
 92
        8
 66
     7
 43
1.0
 76
     1
 77
     6
 78
     2
 67
     7
 79
     3
170
     0
171
     0
290
     0
174
     0
 93
        1
 44
0.0
173
     0
291
     0
 45
0.0
1001
ACAD
1000
AcDbSavedByObjectVersion
1070
     0
  0
VISUALSTYLE
  5
35
102
{ACAD_REACTORS
330
2A
102
}
330
2A
100
AcDbVisualStyle
  2
Dim
 70
    11
 71
     2
 72
     2
 73
     0
 90
        0
 40
-0.6
 41
-30.0
 62
     5
 63
     7
 74
     1
 91
        4
 64
     7
 65
   257
 75
     1
175
     1
 42
1.0
 92
        8
 66
     7
 43
1.0
 76
     1
 77
     6
 78
     2
 67
     7
 79
     5
170
     0
171
     0
290
     0
174
     0
 93
        1
 44
-50.0
173
     0
291
     1
 45
0.0
1001
ACAD
1000
AcDbSavedByObjectVersion
1070
     0
  0
VISUALSTYLE
  5
39
102
{ACAD_REACTORS
330
2A
102
}
330
2A
100
AcDbVisualStyle
  2
Facepattern
 70
    15
 71
     2
 72
     2
 73
     0
 90
        0
 40
-0.6
 41
-30.0
 62
     5
 63
     7
 74
     1
 91
        4
 64
     7
 65
   257
 75
     1
175
     1
 42
1.0
 92
        8
 66
     7
 43
1.0
 76
     1
 77
     6
 78
     2
 67
     7
 79
     5
170
     0
171
     0
290
     0
174
     0
 93
        1
 44
0.0
173
     0
291
     1
 45
0.0
1001
ACAD
1000
AcDbSavedByObjectVersion
1070
     0
  0
VISUALSTYLE
  5
2B
102
{ACAD_REACTORS
330
2A
102
}
330
2A
100
AcDbVisualStyle
  2
Flat
 70
     0
 71
     2
 72
     1
 73
     1
 90
        2
 40
-0.6
 41
30.0
 62
     5
 63
     7
 74
     0
 91
        4
 64
     7
 65
   257
 75
     1
175
     1
 42
1.0
 92
        8
 66
     7
 43
1.0
 76
     1
 77
     6
 78
     2
 67
     7
 79
     5
170
     0
171
     0
290
     0
174
     0
 93
       13
 44
0.0
173
     0
291
     1
 45
0.0
1001
ACAD
1000
AcDbSavedByObjectVersion
1070
     0
  0
VISUALSTYLE
  5
2C
102
{ACAD_REACTORS
330
2A
102
}
330
2A
100
AcDbVisualStyle
  2
FlatWithEdges
 70
     1
 71
     2
 72
     1
 73
     1
 90
        2
 40
-0.6
 41
30.0
 62
     5
 63
     7
 74
     1
 91
        4
 64
     7
 65
   257
 75
     1
175
     1
 42
1.0
 92
        0
 66
   257
 43
1.0
 76
     1
 77
     6
 78
     2
 67
     7
 79
     5
170
     0
171
     0
290
     0
174
     0
 93
       13
 44
0.0
173
     0
291
     1
 45
0.0
1001
ACAD
1000
AcDbSavedByObjectVersion
1070
     0
  0
VISUALSTYLE
  5
2D
102
{ACAD_REACTORS
330
2A
102
}
330
2A
100
AcDbVisualStyle
  2
Gouraud
 70
     2
 71
     2
 72
     2
 73
     1
 90
        2
 40
-0.6
 41
30.0
 62
     5
 63
     7
 74
     0
 91
        4
 64
     7
 65
   257
 75
     1
175
     1
 42
1.0
 92
        0
 66
     7
 43
1.0
 76
     1
 77
     6
 78
     2
 67
     7
 79
     5
170
     0
171
     0
290
     0
174
     0
 93
       13
 44
0.0
173
     0
291
     1
 45
0.0
1001
ACAD
1000
AcDbSavedByObjectVersion
1070
     0
  0
VISUALSTYLE
  5
2E
102
{ACAD_REACTORS
330
2A
102
}
330
2A
100
AcDbVisualStyle
  2
GouraudWithEdges
 70
     3
 71
     2
 72
     2
 73
     1
 90
        2
 40
-0.6
 41
30.0
 62
     5
 63
     7
 74
     1
 91
        4
 64
     7
 65
   257
 75
     1
175
     1
 42
1.0
 92
        0
 66
   257
 43
1.0
 76
     1
 77
     6
 78
     2
 67
     7
 79
     5
170
     0
171
     0
290
     0
174
     0
 93
       13
 44
0.0
173
     0
291
     1
 45
0.0
1001
ACAD
1000
AcDbSavedByObjectVersion
1070
     0
  0
VISUALSTYLE
  5
38
102
{ACAD_REACTORS
330
2A
102
}
330
2A
100
AcDbVisualStyle
  2
Linepattern
 70
    14
 71
     2
 72
     2
 73
     0
 90
        0
 40
-0.6
 41
-30.0
 62
     5
 63
     7
 74
     1
 91
        4
 64
     7
 65
   257
 75
     7
175
     7
 42
1.0
 92
        8
 66
     7
 43
1.0
 76
     1
 77
     6
 78
     2
 67
     7
 79
     5
170
     0
171
     0
290
     0
174
     0
 93
        1
 44
0.0
173
     0
291
     1
 45
0.0
1001
ACAD
1000
AcDbSavedByObjectVersion
1070
     0
  0
VISUALSTYLE
  5
33
102
{ACAD_REACTORS
330
2A
102
}
330
2A
100
AcDbVisualStyle
  2
Realistic
 70
     8
 71
     2
 72
     2
 73
     0
 90
        0
 40
-0.6
 41
-30.0
 62
     5
 63
     7
 74
     1
 91
        0
 64
     7
 65
   257
 75
     1
175
     1
 42
1.0
 92
        8
 66
     8
 43
1.0
 76
     1
 77
     6
 78
     2
 67
     7
 79
     5
170
     0
171
     0
290
     0
174
     0
 93
       13
 44
0.0
173
     0
291
     0
 45
0.0
1001
ACAD
1000
AcDbSavedByObjectVersion
1070
     0
  0
VISUALSTYLE
  5
37
102
{ACAD_REACTORS
330
2A
102
}
330
2A
100
AcDbVisualStyle
  2
Thicken
 70
    13
 71
     2
 72
     2
 73
     0
 90
        0
 40
-0.6
 41
-30.0
 62
     5
 63
     7
 74
     1
 91
        4
 64
     7
 65
   257
 75
     1
175
     1
 42
1.0
 92
       12
 66
     7
 43
1.0
 76
     1
 77
     6
 78
     2
 67
     7
 79
     5
170
     0
171
     0
290
     0
174
     0
 93
        1
 44
0.0
173
     0
291
     1
 45
0.0
1001
ACAD
1000
AcDbSavedByObjectVersion
1070
     0
  0
DICTIONARYVAR
  5
1E9
102
{ACAD_REACTORS
330
1E8
102
}
330
1E8
100
DictionaryVariables
280
     0
  1
1:1
  0
DICTIONARYVAR
  5
1ED
102
{ACAD_REACTORS
330
1E8
102
}
330
1E8
100
DictionaryVariables
280
     0
  1
80.000000
  0
DICTIONARYVAR
  5
1EC
102
{ACAD_REACTORS
330
1E8
102
}
330
1E8
100
DictionaryVariables
280
     0
  1
5.000000
  0
ENDSEC
  0
EOF
