  0
SECTION
  2
HEADER
  9
$ACADVER
  1
AC1015
  9
$ACADMAINTVER
 70
     6
  9
$DWGCODEPAGE
  3
ANSI_1252
  9
$INSBASE
 10
0.0
 20
0.0
 30
0.0
  9
$EXTMIN
 10
0.0
 20
0.0
 30
0.0
  9
$EXTMAX
 10
3000.0
 20
4500.0
 30
0.0
  9
$LIMMIN
 10
0.0
 20
0.0
  9
$LIMMAX
 10
3000.0
 20
4500.0
  9
$ORTHOMODE
 70
     0
  9
$REGENMODE
 70
     1
  9
$FILLMODE
 70
     1
  9
$QTEXTMODE
 70
     0
  9
$MIRRTEXT
 70
     1
  9
$LTSCALE
 40
1.0
  9
$ATTMODE
 70
     1
  9
$TEXTSIZE
 40
2.5
  9
$TRACEWID
 40
1.0
  9
$TEXTSTYLE
  7
Standard
  9
$CLAYER
  8
0
  9
$CELTYPE
  6
ByLayer
  9
$CECOLOR
 62
   256
  9
$CELTSCALE
 40
1.0
  9
$DISPSILH
 70
     0
  9
$DIMSCALE
 40
1.0
  9
$DIMASZ
 40
2.5
  9
$DIMEXO
 40
0.625
  9
$DIMDLI
 40
3.75
  9
$DIMRND
 40
0.0
  9
$DIMDLE
 40
0.0
  9
$DIMEXE
 40
1.25
  9
$DIMTP
 40
0.0
  9
$DIMTM
 40
0.0
  9
$DIMTXT
 40
2.5
  9
$DIMCEN
 40
2.5
  9
$DIMTSZ
 40
0.0
  9
$DIMTOL
 70
     0
  9
$DIMLIM
 70
     0
  9
$DIMTIH
 70
     0
  9
$DIMTOH
 70
     0
  9
$DIMSE1
 70
     0
  9
$DIMSE2
 70
     0
  9
$DIMTAD
 70
     1
  9
$DIMZIN
 70
     8
  9
$DIMBLK
  1

  9
$DIMASO
 70
     1
  9
$DIMSHO
 70
     1
  9
$DIMPOST
  1

  9
$DIMAPOST
  1

  9
$DIMALT
 70
     0
  9
$DIMALTD
 70
     3
  9
$DIMALTF
 40
0.0393700787
  9
$DIMLFAC
 40
1.0
  9
$DIMTOFL
 70
     1
  9
$DIMTVP
 40
0.0
  9
$DIMTIX
 70
     0
  9
$DIMSOXD
 70
     0
  9
$DIMSAH
 70
     0
  9
$DIMBLK1
  1

  9
$DIMBLK2
  1

  9
$DIMSTYLE
  2
ISO-25
  9
$DIMCLRD
 70
     0
  9
$DIMCLRE
 70
     0
  9
$DIMCLRT
 70
     0
  9
$DIMTFAC
 40
1.0
  9
$DIMGAP
 40
0.625
  9
$DIMJUST
 70
     0
  9
$DIMSD1
 70
     0
  9
$DIMSD2
 70
     0
  9
$DIMTOLJ
 70
     0
  9
$DIMTZIN
 70
     8
  9
$DIMALTZ
 70
     0
  9
$DIMALTTZ
 70
     0
  9
$DIMUPT
 70
     0
  9
$DIMDEC
 70
     2
  9
$DIMTDEC
 70
     2
  9
$DIMALTU
 70
     2
  9
$DIMALTTD
 70
     3
  9
$DIMTXSTY
  7
Standard
  9
$DIMAUNIT
 70
     0
  9
$DIMADEC
 70
     0
  9
$DIMALTRND
 40
0.0
  9
$DIMAZIN
 70
     0
  9
$DIMDSEP
 70
    44
  9
$DIMATFIT
 70
     3
  9
$DIMFRAC
 70
     0
  9
$DIMLDRBLK
  1

  9
$DIMLUNIT
 70
     2
  9
$DIMLWD
 70
    -2
  9
$DIMLWE
 70
    -2
  9
$DIMTMOVE
 70
     0
  9
$LUNITS
 70
     2
  9
$LUPREC
 70
     4
  9
$SKETCHINC
 40
1.0
  9
$FILLETRAD
 40
10.0
  9
$AUNITS
 70
     0
  9
$AUPREC
 70
     0
  9
$MENU
  1
.
  9
$ELEVATION
 40
0.0
  9
$PELEVATION
 40
0.0
  9
$THICKNESS
 40
0.0
  9
$LIMCHECK
 70
     0
  9
$CHAMFERA
 40
10.0
  9
$CHAMFERB
 40
10.0
  9
$CHAMFERC
 40
20.0
  9
$CHAMFERD
 40
0.0
  9
$SKPOLY
 70
     0
  9
$TDCREATE
 40
2455796.376297431
  9
$TDUCREATE
 40
2455796.292964097
  9
$TDUPDATE
 40
2455796.376297442
  9
$TDUUPDATE
 40
2455796.292964109
  9
$TDINDWG
 40
0.0000000116
  9
$TDUSRTIMER
 40
0.0000000116
  9
$USRTIMER
 70
     1
  9
$ANGBASE
 50
0.0
  9
$ANGDIR
 70
     0
  9
$PDMODE
 70
     0
  9
$PDSIZE
 40
0.0
  9
$PLINEWID
 40
0.0
  9
$SPLFRAME
 70
     0
  9
$SPLINETYPE
 70
     6
  9
$SPLINESEGS
 70
     8
  9
$HANDSEED
  5
20C
  9
$SURFTAB1
 70
     6
  9
$SURFTAB2
 70
     6
  9
$SURFTYPE
 70
     6
  9
$SURFU
 70
     6
  9
$SURFV
 70
     6
  9
$UCSBASE
  2

  9
$UCSNAME
  2

  9
$UCSORG
 10
0.0
 20
0.0
 30
0.0
  9
$UCSXDIR
 10
1.0
 20
0.0
 30
0.0
  9
$UCSYDIR
 10
0.0
 20
1.0
 30
0.0
  9
$UCSORTHOREF
  2

  9
$UCSORTHOVIEW
 70
     0
  9
$UCSORGTOP
 10
0.0
 20
0.0
 30
0.0
  9
$UCSORGBOTTOM
 10
0.0
 20
0.0
 30
0.0
  9
$UCSORGLEFT
 10
0.0
 20
0.0
 30
0.0
  9
$UCSORGRIGHT
 10
0.0
 20
0.0
 30
0.0
  9
$UCSORGFRONT
 10
0.0
 20
0.0
 30
0.0
  9
$UCSORGBACK
 10
0.0
 20
0.0
 30
0.0
  9
$PUCSBASE
  2

  9
$PUCSNAME
  2

  9
$PUCSORG
 10
0.0
 20
0.0
 30
0.0
  9
$PUCSXDIR
 10
1.0
 20
0.0
 30
0.0
  9
$PUCSYDIR
 10
0.0
 20
1.0
 30
0.0
  9
$PUCSORTHOREF
  2

  9
$PUCSORTHOVIEW
 70
     0
  9
$PUCSORGTOP
 10
0.0
 20
0.0
 30
0.0
  9
$PUCSORGBOTTOM
 10
0.0
 20
0.0
 30
0.0
  9
$PUCSORGLEFT
 10
0.0
 20
0.0
 30
0.0
  9
$PUCSORGRIGHT
 10
0.0
 20
0.0
 30
0.0
  9
$PUCSORGFRONT
 10
0.0
 20
0.0
 30
0.0
  9
$PUCSORGBACK
 10
0.0
 20
0.0
 30
0.0
  9
$USERI1
 70
     0
  9
$USERI2
 70
     0
  9
$USERI3
 70
     0
  9
$USERI4
 70
     0
  9
$USERI5
 70
     0
  9
$USERR1
 40
0.0
  9
$USERR2
 40
0.0
  9
$USERR3
 40
0.0
  9
$USERR4
 40
0.0
  9
$USERR5
 40
0.0
  9
$WORLDVIEW
 70
     1
  9
$SHADEDGE
 70
     3
  9
$SHADEDIF
 70
    70
  9
$TILEMODE
 70
     1
  9
$MAXACTVP
 70
    64
  9
$PINSBASE
 10
0.0
 20
0.0
 30
0.0
  9
$PLIMCHECK
 70
     0
  9
$PEXTMIN
 10
0.0
 20
0.0
 30
0.0
  9
$PEXTMAX
 10
3000.0
 20
4500.0
 30
0.0
  9
$PLIMMIN
 10
0.0
 20
0.0
  9
$PLIMMAX
 10
3000.0
 20
4500.0
  9
$UNITMODE
 70
     0
  9
$VISRETAIN
 70
     1
  9
$PLINEGEN
 70
     0
  9
$PSLTSCALE
 70
     1
  9
$TREEDEPTH
 70
  3020
  9
$CMLSTYLE
  2
Standard
  9
$CMLJUST
 70
     0
  9
$CMLSCALE
 40
20.0
  9
$PROXYGRAPHICS
 70
     1
  9
$MEASUREMENT
 70
     1
  9
$CELWEIGHT
370
    -1
  9
$ENDCAPS
280
     0
  9
$JOINSTYLE
280
     0
  9
$LWDISPLAY
290
     0
  9
$INSUNITS
 70
     4
  9
$HYPERLINKBASE
  1

  9
$STYLESHEET
  1

  9
$XEDIT
290
     1
  9
$CEPSNTYPE
380
     0
  9
$PSTYLEMODE
290
     1
  9
$FINGERPRINTGUID
  2
{45557D67-B042-4D8A-89C3-819D5A36EA48}
  9
$VERSIONGUID
  2
{FAEB1C32-E019-11D5-929B-00C0DF256EC4}
  9
$EXTNAMES
290
     1
  9
$PSVPSCALE
 40
0.0
  9
$OLESTARTUP
290
     0
  0
ENDSEC
  0
SECTION
  2
CLASSES
  0
CLASS
  1
ACDBDICTIONARYWDFLT
  2
AcDbDictionaryWithDefault
  3
ObjectDBX Classes
 90
        0
280
     0
281
     0
  0
CLASS
  1
VISUALSTYLE
  2
AcDbVisualStyle
  3
ObjectDBX Classes
 90
     4095
280
     0
281
     0
  0
CLASS
  1
SCALE
  2
AcDbScale
  3
ObjectDBX Classes
 90
     1153
280
     0
281
     0
  0
CLASS
  1
DICTIONARYVAR
  2
AcDbDictionaryVar
  3
ObjectDBX Classes
 90
        0
280
     0
281
     0
  0
CLASS
  1
ACDBPLACEHOLDER
  2
AcDbPlaceHolder
  3
ObjectDBX Classes
 90
        0
280
     0
281
     0
  0
CLASS
  1
LAYOUT
  2
AcDbLayout
  3
ObjectDBX Classes
 90
        0
280
     0
281
     0
  0
ENDSEC
  0
SECTION
  2
TABLES
  0
TABLE
  2
VPORT
  5
8
330
0
100
AcDbSymbolTable
 70
     1
  0
VPORT
  5
29
330
8
100
AcDbSymbolTableRecord
100
AcDbViewportTableRecord
  2
*Active
 70
     0
 10
0.0
 20
0.0
 11
1.0
 21
1.0
 12
344.1869158879
 22
148.5
 13
0.0
 23
0.0
 14
10.0
 24
10.0
 15
10.0
 25
10.0
 16
0.0
 26
0.0
 36
1.0
 17
0.0
 27
0.0
 37
0.0
 40
297.0
 41
1.9729729729
 42
50.0
 43
0.0
 44
0.0
 50
0.0
 51
0.0
 71
     0
 72
   100
 73
     1
 74
     3
 75
     0
 76
     0
 77
     0
 78
     0
281
     0
 65
     1
110
0.0
120
0.0
130
0.0
111
1.0
121
0.0
131
0.0
112
0.0
122
1.0
132
0.0
 79
     0
146
0.0
  0
ENDTAB
  0
TABLE
  2
LTYPE
  5
5
330
0
100
AcDbSymbolTable
 70
     2
  0
LTYPE
  5
14
330
5
100
AcDbSymbolTableRecord
100
AcDbLinetypeTableRecord
  2
ByBlock
 70
     0
  3

 72
    65
 73
     0
 40
0.0
  0
LTYPE
  5
15
330
5
100
AcDbSymbolTableRecord
100
AcDbLinetypeTableRecord
  2
ByLayer
 70
     0
  3

 72
    65
 73
     0
 40
0.0
  0
LTYPE
  5
16
330
5
100
AcDbSymbolTableRecord
100
AcDbLinetypeTableRecord
  2
Continuous
 70
     0
  3
Solid line
 72
    65
 73
     0
 40
0.0
  0
LTYPE
  5
60
330
5
100
AcDbSymbolTableRecord
100
AcDbLinetypeTableRecord
  2
CENTER2
 70
     0
  3
Center (.5x) ___ _ ___ _ ___ _ ___ _ ___ _ ___
 72
    65
 73
     4
 40
28.575
 49
19.05
 74
     4
 75
     0
340
0
 46
0.0
 50
0.0
 44
0.0
 45
0.0
 49
-3.175
 74
     4
 75
     0
340
0
 46
0.0
 50
0.0
 44
0.0
 45
0.0
 49
3.175
 74
     4
 75
     0
340
0
 46
0.0
 50
0.0
 44
0.0
 45
0.0
 49
-3.175
 74
     4
 75
     0
340
0
 46
0.0
 50
0.0
 44
0.0
 45
0.0
  0
ENDTAB
  0
TABLE
  2
LAYER
  5
2
330
0
100
AcDbSymbolTable
 70
    14
  0
LAYER
  5
10
330
2
100
AcDbSymbolTableRecord
100
AcDbLayerTableRecord
  2
0
 70
     0
 62
     7
  6
Continuous
370
    -3
390
F
  0
LAYER
  5
5D
330
2
100
AcDbSymbolTableRecord
100
AcDbLayerTableRecord
  2
Default
 70
     0
 62
     7
  6
Continuous
370
    -3
390
F
  0
LAYER
  5
77
330
2
100
AcDbSymbolTableRecord
100
AcDbLayerTableRecord
  2
$DDT_AUDIT_GENERATED_(77)
 70
     0
 62
     7
  6
Continuous
370
    -3
390
F
  0
LAYER
  5
84
330
2
100
AcDbSymbolTableRecord
100
AcDbLayerTableRecord
  2
$DDT_AUDIT_GENERATED_(84)
 70
     0
 62
     7
  6
Continuous
370
    -3
390
F
  0
LAYER
  5
88
330
2
100
AcDbSymbolTableRecord
100
AcDbLayerTableRecord
  2
$DDT_AUDIT_GENERATED_(88)
 70
     0
 62
     7
  6
Continuous
370
    -3
390
F
  0
LAYER
  5
91
330
2
100
AcDbSymbolTableRecord
100
AcDbLayerTableRecord
  2
$DDT_AUDIT_GENERATED_(91)
 70
     0
 62
     7
  6
Continuous
370
    -3
390
F
  0
LAYER
  5
95
330
2
100
AcDbSymbolTableRecord
100
AcDbLayerTableRecord
  2
$DDT_AUDIT_GENERATED_(95)
 70
     0
 62
     7
  6
Continuous
370
    -3
390
F
  0
LAYER
  5
A4
330
2
100
AcDbSymbolTableRecord
100
AcDbLayerTableRecord
  2
$DDT_AUDIT_GENERATED_(A4)
 70
     0
 62
     7
  6
Continuous
370
    -3
390
F
  0
LAYER
  5
B1
330
2
100
AcDbSymbolTableRecord
100
AcDbLayerTableRecord
  2
$DDT_AUDIT_GENERATED_(B1)
 70
     0
 62
     7
  6
Continuous
370
    -3
390
F
  0
LAYER
  5
160
330
2
100
AcDbSymbolTableRecord
100
AcDbLayerTableRecord
  2
$DDT_AUDIT_GENERATED_(160)
 70
     0
 62
     7
  6
Continuous
370
    -3
390
F
  0
LAYER
  5
16C
330
2
100
AcDbSymbolTableRecord
100
AcDbLayerTableRecord
  2
$DDT_AUDIT_GENERATED_(16C)
 70
     0
 62
     7
  6
Continuous
370
    -3
390
F
  0
LAYER
  5
1A2
330
2
100
AcDbSymbolTableRecord
100
AcDbLayerTableRecord
  2
$DDT_AUDIT_GENERATED_(1A2)
 70
     0
 62
     7
  6
Continuous
370
    -3
390
F
  0
LAYER
  5
1A6
330
2
100
AcDbSymbolTableRecord
100
AcDbLayerTableRecord
  2
$DDT_AUDIT_GENERATED_(1A6)
 70
     0
 62
     7
  6
Continuous
370
    -3
390
F
  0
LAYER
  5
1CB
330
2
100
AcDbSymbolTableRecord
100
AcDbLayerTableRecord
  2
$DDT_AUDIT_GENERATED_(1CB)
 70
     0
 62
     7
  6
Continuous
370
    -3
390
F
  0
ENDTAB
  0
TABLE
  2
STYLE
  5
3
330
0
100
AcDbSymbolTable
 70
     2
  0
STYLE
  5
11
330
3
100
AcDbSymbolTableRecord
100
AcDbTextStyleTableRecord
  2
Standard
 70
     0
 40
0.0
 41
1.0
 50
0.0
 71
     0
 42
2.5
  3
txt
  4

  0
STYLE
  5
1FB
330
3
100
AcDbSymbolTableRecord
100
AcDbTextStyleTableRecord
  2
SEACAD_seiso_ttf
 70
     0
 40
0.0
 41
1.0
 50
0.0
 71
     0
 42
0.2
  3
seiso.ttf
  4

  0
ENDTAB
  0
TABLE
  2
VIEW
  5
6
330
0
100
AcDbSymbolTable
 70
     0
  0
ENDTAB
  0
TABLE
  2
UCS
  5
7
330
0
100
AcDbSymbolTable
 70
     0
  0
ENDTAB
  0
TABLE
  2
APPID
  5
9
330
0
100
AcDbSymbolTable
 70
     1
  0
APPID
  5
12
330
9
100
AcDbSymbolTableRecord
100
AcDbRegAppTableRecord
  2
ACAD
 70
     0
  0
ENDTAB
  0
TABLE
  2
DIMSTYLE
  5
A
330
0
100
AcDbSymbolTable
 70
     1
100
AcDbDimStyleTable
  0
DIMSTYLE
105
27
330
A
100
AcDbSymbolTableRecord
100
AcDbDimStyleTableRecord
  2
ISO-25
 70
     0
 41
2.5
 42
0.625
 43
3.75
 44
1.25
 73
     0
 74
     0
 77
     1
 78
     8
140
2.5
141
2.5
143
0.0393700787
147
0.625
171
     3
172
     1
271
     2
272
     2
274
     3
278
    44
283
     0
284
     8
340
11
  0
ENDTAB
  0
TABLE
  2
BLOCK_RECORD
  5
1
330
0
100
AcDbSymbolTable
 70
     7
  0
BLOCK_RECORD
  5
1F
330
1
100
AcDbSymbolTableRecord
100
AcDbBlockTableRecord
  2
*Model_Space
340
22
  0
BLOCK_RECORD
  5
1B
330
1
100
AcDbSymbolTableRecord
100
AcDbBlockTableRecord
  2
*Paper_Space
340
1E
  0
BLOCK_RECORD
  5
5E
330
1
100
AcDbSymbolTableRecord
100
AcDbBlockTableRecord
  2
SEANNOT_GROUP
340
0
102
{BLKREFS
331
5F
102
}
  0
BLOCK_RECORD
  5
65
330
1
100
AcDbSymbolTableRecord
100
AcDbBlockTableRecord
  2
SEANNOT_GROUP1
340
0
102
{BLKREFS
331
66
102
}
  0
BLOCK_RECORD
  5
6B
330
1
100
AcDbSymbolTableRecord
100
AcDbBlockTableRecord
  2
SEANNOT_GROUP2
340
0
102
{BLKREFS
331
6C
102
}
  0
BLOCK_RECORD
  5
75
330
1
100
AcDbSymbolTableRecord
100
AcDbBlockTableRecord
  2
SE
340
0
102
{BLKREFS
331
76
102
}
  0
BLOCK_RECORD
  5
180
330
1
100
AcDbSymbolTableRecord
100
AcDbBlockTableRecord
  2
SE1
340
0
102
{BLKREFS
331
181
102
}
  0
BLOCK_RECORD
  5
1BC
330
1
100
AcDbSymbolTableRecord
100
AcDbBlockTableRecord
  2
SE2
340
0
102
{BLKREFS
331
1BD
102
}
  0
ENDTAB
  0
ENDSEC
  0
SECTION
  2
BLOCKS
  0
BLOCK
  5
20
330
1F
100
AcDbEntity
  8
0
100
AcDbBlockBegin
  2
*Model_Space
 70
     0
 10
0.0
 20
0.0
 30
0.0
  3
*Model_Space
  1

  0
ENDBLK
  5
21
330
1F
100
AcDbEntity
  8
0
100
AcDbBlockEnd
  0
BLOCK
  5
1C
330
1B
100
AcDbEntity
 67
     1
  8
0
100
AcDbBlockBegin
  2
*Paper_Space
 70
     0
 10
0.0
 20
0.0
 30
0.0
  3
*Paper_Space
  1

  0
ENDBLK
  5
1D
330
1B
100
AcDbEntity
 67
     1
  8
0
100
AcDbBlockEnd
  0
BLOCK
  5
63
330
5E
100
AcDbEntity
  8
0
100
AcDbBlockBegin
  2
SEANNOT_GROUP
 70
     0
 10
0.0
 20
0.0
 30
0.0
  3
SEANNOT_GROUP
  1

  0
LINE
  5
61
330
5E
100
AcDbEntity
  8
Default
  6
CENTER2
 62
     7
100
AcDbLine
 10
62.9440068062
 20
876.4947329106
 30
0.0
 11
22.9440077002
 21
876.4947329106
 31
0.0
  0
LINE
  5
62
330
5E
100
AcDbEntity
  8
Default
  6
CENTER2
 62
     7
100
AcDbLine
 10
42.9440072532
 20
896.4947324636
 30
0.0
 11
42.9440072532
 21
856.4947333576
 31
0.0
  0
ENDBLK
  5
64
330
5E
100
AcDbEntity
  8
0
100
AcDbBlockEnd
  0
BLOCK
  5
69
330
65
100
AcDbEntity
  8
0
100
AcDbBlockBegin
  2
SEANNOT_GROUP1
 70
     0
 10
0.0
 20
0.0
 30
0.0
  3
SEANNOT_GROUP1
  1

  0
LINE
  5
67
330
65
100
AcDbEntity
  8
Default
  6
CENTER2
 62
     7
100
AcDbLine
 10
255.874374488
 20
876.4947329106
 30
0.0
 11
215.8743753821
 21
876.4947329106
 31
0.0
  0
LINE
  5
68
330
65
100
AcDbEntity
  8
Default
  6
CENTER2
 62
     7
100
AcDbLine
 10
235.8743749351
 20
896.4947324636
 30
0.0
 11
235.8743749351
 21
856.4947333576
 31
0.0
  0
ENDBLK
  5
6A
330
65
100
AcDbEntity
  8
0
100
AcDbBlockEnd
  0
BLOCK
  5
73
330
6B
100
AcDbEntity
  8
0
100
AcDbBlockBegin
  2
SEANNOT_GROUP2
 70
     0
 10
0.0
 20
0.0
 30
0.0
  3
SEANNOT_GROUP2
  1

  0
LINE
  5
6D
330
6B
100
AcDbEntity
  8
Default
  6
CENTER2
 62
     7
100
AcDbLine
 10
62.9440068062
 20
340.1643652287
 30
0.0
 11
22.9440077002
 21
340.1643652287
 31
0.0
  0
LINE
  5
6E
330
6B
100
AcDbEntity
  8
Default
  6
CENTER2
 62
     7
100
AcDbLine
 10
42.9440072532
 20
360.1643647817
 30
0.0
 11
42.9440072532
 21
320.1643656758
 31
0.0
  0
LINE
  5
6F
330
6B
100
AcDbEntity
  8
Default
  6
CENTER2
 62
     7
100
AcDbLine
 10
67.9440066944
 20
340.1643652287
 30
0.0
 11
57.9440072532
 21
340.1643652287
 31
0.0
  0
LINE
  5
70
330
6B
100
AcDbEntity
  8
Default
  6
CENTER2
 62
     7
100
AcDbLine
 10
42.9440072532
 20
365.1643646699
 30
0.0
 11
42.9440072532
 21
355.1643652287
 31
0.0
  0
LINE
  5
71
330
6B
100
AcDbEntity
  8
Default
  6
CENTER2
 62
     7
100
AcDbLine
 10
17.944007812
 20
340.1643652287
 30
0.0
 11
27.9440072532
 21
340.1643652287
 31
0.0
  0
LINE
  5
72
330
6B
100
AcDbEntity
  8
Default
  6
CENTER2
 62
     7
100
AcDbLine
 10
42.9440072532
 20
315.1643657875
 30
0.0
 11
42.9440072532
 21
325.1643652287
 31
0.0
  0
ENDBLK
  5
74
330
6B
100
AcDbEntity
  8
0
100
AcDbBlockEnd
  0
BLOCK
  5
17E
330
75
100
AcDbEntity
  8
0
100
AcDbBlockBegin
  2
SE
 70
     0
 10
0.0
 20
0.0
 30
0.0
  3
SE
  1

  0
LINE
  5
78
330
75
100
AcDbEntity
  8
$DDT_AUDIT_GENERATED_(77)
  6
Continuous
 62
     7
100
AcDbLine
 10
87.8440072532
 20
990.1947329106
 30
0.0
 11
87.8440072532
 21
939.1947329106
 31
0.0
  0
SPLINE
  5
79
330
75
100
AcDbEntity
  8
$DDT_AUDIT_GENERATED_(77)
  6
Continuous
 62
     7
100
AcDbSpline
210
0.0
220
0.0
230
1.0
 70
     8
 71
     3
 72
    34
 73
    30
 74
     0
 42
0.0000000001250112
 43
0.0000000001
 40
0.5003300637028509
 40
0.5003300637028509
 40
0.5003300637028509
 40
0.5003300637028509
 40
0.5312499999999989
 40
0.5312499999999989
 40
0.562499999999999
 40
0.562499999999999
 40
0.624999999999999
 40
0.624999999999999
 40
0.656249999999999
 40
0.656249999999999
 40
0.6874999999999991
 40
0.6874999999999991
 40
0.7187499999999991
 40
0.7187499999999991
 40
0.7499999999999992
 40
0.7499999999999992
 40
0.7812499999999993
 40
0.7812499999999993
 40
0.8124999999999996
 40
0.8124999999999996
 40
0.8749999999999997
 40
0.8749999999999997
 40
0.9062499999999997
 40
0.9062499999999997
 40
0.9374999999999998
 40
0.9374999999999998
 40
0.9687499999999998
 40
0.9687499999999998
 40
1.0
 40
1.0
 40
1.0
 40
1.0
 10
61.14400638252847
 20
938.6947336718057
 30
0.0
 10
61.14395336556166
 20
938.6947801592981
 30
0.0
 10
61.01884499001579
 20
938.7827902826155
 30
0.0
 10
60.52811710015602
 20
939.1226922111941
 30
0.0
 10
60.16564574841442
 20
939.372371330903
 30
0.0
 10
58.74961006317766
 20
940.3208589009963
 30
0.0
 10
57.40011551350229
 20
941.2013361394797
 30
0.0
 10
54.95463771011136
 20
942.5912173434784
 30
0.0
 10
54.07243160581204
 20
943.0638000268857
 30
0.0
 10
52.15827355159799
 20
943.9834284546833
 30
0.0
 10
51.12862575774106
 20
944.4282586092347
 30
0.0
 10
48.96804210935876
 20
945.2003491939709
 30
0.0
 10
47.81465498874223
 20
945.5347993055294
 30
0.0
 10
45.41952382505704
 20
945.9995990869428
 30
0.0
 10
44.1958637276582
 20
946.1271241305552
 30
0.0
 10
41.68903398839606
 20
946.1269137313997
 30
0.0
 10
40.4616686792813
 20
945.9985741303176
 30
0.0
 10
38.07032618514124
 20
945.5339104988378
 30
0.0
 10
36.91402770681604
 20
945.1984747654357
 30
0.0
 10
33.67511774380852
 20
944.0402896581558
 30
0.0
 10
31.74364080571633
 20
943.0519767629432
 30
0.0
 10
29.29789057815685
 20
941.6615683085226
 30
0.0
 10
28.54775227012603
 20
941.205276131984
 30
0.0
 10
27.24116490360308
 20
940.3825614717285
 30
0.0
 10
26.67653597603034
 20
940.0113609380556
 30
0.0
 10
25.73693084731393
 20
939.3822516292349
 30
0.0
 10
25.3645700718266
 20
939.1259024855468
 30
0.0
 10
24.8723300170146
 20
938.7850050884068
 30
0.0
 10
24.74400725319044
 20
938.6947329105873
 30
0.0
 10
24.74400725319045
 20
938.6947329105873
 30
0.0
  0
ARC
  5
7A
330
75
100
AcDbEntity
  8
$DDT_AUDIT_GENERATED_(77)
  6
Continuous
 62
     7
100
AcDbCircle
 10
42.9440075484
 20
1012.7502631106
 30
0.0
 40
25.88530322634087
100
AcDbArc
 50
238.4351677547
 51
301.5648318117
  0
ARC
  5
7B
330
75
100
AcDbEntity
  8
$DDT_AUDIT_GENERATED_(77)
  6
Continuous
 62
     7
100
AcDbCircle
 10
115.5040072532
 20
964.6947329106
 30
0.0
 40
100.0
100
AcDbArc
 50
165.1504721945
 51
194.8495278055
  0
ARC
  5
7C
330
75
100
AcDbEntity
  8
$DDT_AUDIT_GENERATED_(77)
  6
Continuous
 62
     7
100
AcDbCircle
 10
87.3440072532
 20
939.1947329106
 30
0.0
 40
0.5000000000000004
100
AcDbArc
 50
270.0
 51
0.0
  0
ARC
  5
7D
330
75
100
AcDbEntity
  8
$DDT_AUDIT_GENERATED_(77)
  6
Continuous
 62
     7
100
AcDbCircle
 10
87.3440072532
 20
990.1947329106
 30
0.0
 40
0.5000000000000004
100
AcDbArc
 50
0.0
 51
90.0
  0
ARC
  5
7E
330
75
100
AcDbEntity
  8
$DDT_AUDIT_GENERATED_(77)
  6
Continuous
 62
     7
100
AcDbCircle
 10
19.3270869448
 20
990.1947329106
 30
0.0
 40
0.5000000000000004
100
AcDbArc
 50
90.0
 51
165.1504721945
  0
ARC
  5
7F
330
75
100
AcDbEntity
  8
$DDT_AUDIT_GENERATED_(77)
  6
Continuous
 62
     7
100
AcDbCircle
 10
19.3270869448
 20
939.1947329106
 30
0.0
 40
0.49999999999999
100
AcDbArc
 50
194.8495278055
 51
270.0
  0
LINE
  5
80
330
75
100
AcDbEntity
  8
$DDT_AUDIT_GENERATED_(77)
  6
Continuous
 62
     7
100
AcDbLine
 10
29.4267686119
 20
990.6947329106
 30
0.0
 11
19.3270869448
 21
990.6947329106
 31
0.0
  0
LINE
  5
81
330
75
100
AcDbEntity
  8
$DDT_AUDIT_GENERATED_(77)
  6
Continuous
 62
     7
100
AcDbLine
 10
87.3440072532
 20
990.6947329106
 30
0.0
 11
56.482577556
 21
990.6947329106
 31
0.0
  0
LINE
  5
82
330
75
100
AcDbEntity
  8
$DDT_AUDIT_GENERATED_(77)
  6
Continuous
 62
     7
100
AcDbLine
 10
61.143360794
 20
938.6947329106
 30
0.0
 11
87.3440072532
 21
938.6947329106
 31
0.0
  0
LINE
  5
83
330
75
100
AcDbEntity
  8
$DDT_AUDIT_GENERATED_(77)
  6
Continuous
 62
     7
100
AcDbLine
 10
19.3270869448
 20
938.6947329106
 30
0.0
 11
24.7440072532
 21
938.6947329106
 31
0.0
  0
LINE
  5
85
330
75
100
AcDbEntity
  8
$DDT_AUDIT_GENERATED_(84)
  6
Continuous
 62
     7
100
AcDbLine
 10
24.9440072532
 20
880.9947329106
 30
0.0
 11
60.9440072532
 21
880.9947329106
 31
0.0
  0
LINE
  5
86
330
75
100
AcDbEntity
  8
$DDT_AUDIT_GENERATED_(84)
  6
Continuous
 62
     7
100
AcDbLine
 10
24.9440072532
 20
938.8342716331
 30
0.0
 11
24.9440072532
 21
880.9947329106
 31
0.0
  0
LINE
  5
87
330
75
100
AcDbEntity
  8
$DDT_AUDIT_GENERATED_(84)
  6
Continuous
 62
     7
100
AcDbLine
 10
60.9440072532
 20
880.9947329106
 30
0.0
 11
60.9440072532
 21
938.8343332972
 31
0.0
  0
LINE
  5
89
330
75
100
AcDbEntity
  8
$DDT_AUDIT_GENERATED_(88)
  6
Continuous
 62
     7
100
AcDbLine
 10
15.9440072532
 20
876.4947329106
 30
0.0
 11
69.9440072532
 21
876.4947329106
 31
0.0
  0
LINE
  5
8A
330
75
100
AcDbEntity
  8
$DDT_AUDIT_GENERATED_(88)
  6
Continuous
 62
     7
100
AcDbLine
 10
24.9440072532
 20
880.9947329106
 30
0.0
 11
60.9440072532
 21
880.9947329106
 31
0.0
  0
LINE
  5
8B
330
75
100
AcDbEntity
  8
$DDT_AUDIT_GENERATED_(88)
  6
Continuous
 62
     7
100
AcDbLine
 10
15.9440072532
 20
879.375751482
 30
0.0
 11
15.9440072532
 21
876.4947329106
 31
0.0
  0
LINE
  5
8C
330
75
100
AcDbEntity
  8
$DDT_AUDIT_GENERATED_(88)
  6
Continuous
 62
     7
100
AcDbLine
 10
69.9440072532
 20
876.4947329106
 30
0.0
 11
69.9440072532
 21
879.375751482
 31
0.0
  0
ARC
  5
8D
330
75
100
AcDbEntity
  8
$DDT_AUDIT_GENERATED_(88)
  6
Continuous
 62
     7
100
AcDbCircle
 10
33.6467527663
 20
781.3741415625
 30
0.0
 40
100.0
100
AcDbArc
 50
94.9926216254
 51
99.9560038527
  0
ARC
  5
8E
330
75
100
AcDbEntity
  8
$DDT_AUDIT_GENERATED_(88)
  6
Continuous
 62
     7
100
AcDbCircle
 10
52.2412617401
 20
781.3741415625
 30
0.0
 40
100.0
100
AcDbArc
 50
80.0439961473
 51
85.0073783746
  0
ARC
  5
8F
330
75
100
AcDbEntity
  8
$DDT_AUDIT_GENERATED_(88)
  6
Continuous
 62
     7
100
AcDbCircle
 10
69.4440072532
 20
879.375751482
 30
0.0
 40
0.5000000000000004
100
AcDbArc
 50
0.0
 51
80.0439961473
  0
ARC
  5
90
330
75
100
AcDbEntity
  8
$DDT_AUDIT_GENERATED_(88)
  6
Continuous
 62
     7
100
AcDbCircle
 10
16.4440072532
 20
879.375751482
 30
0.0
 40
0.5000000000000148
100
AcDbArc
 50
99.9560038527
 51
180.0
  0
LINE
  5
92
330
75
100
AcDbEntity
  8
$DDT_AUDIT_GENERATED_(91)
  6
Continuous
 62
     7
100
AcDbLine
 10
29.4440072532
 20
1006.6947329106
 30
0.0
 11
56.4440072532
 21
1006.6947329106
 31
0.0
  0
LINE
  5
93
330
75
100
AcDbEntity
  8
$DDT_AUDIT_GENERATED_(91)
  6
Continuous
 62
     7
100
AcDbLine
 10
29.4440072532
 20
1006.6947329106
 30
0.0
 11
29.4440072532
 21
990.6820024412
 31
0.0
  0
LINE
  5
94
330
75
100
AcDbEntity
  8
$DDT_AUDIT_GENERATED_(91)
  6
Continuous
 62
     7
100
AcDbLine
 10
56.4440072532
 20
990.6940181732
 30
0.0
 11
56.4440072532
 21
1006.6947329106
 31
0.0
  0
ELLIPSE
  5
96
330
75
100
AcDbEntity
  8
$DDT_AUDIT_GENERATED_(95)
  6
Continuous
 62
     7
100
AcDbEllipse
 10
42.9440072532
 20
1124.6408473289
 30
0.0
 11
11.00000000000023
 21
0.0
 31
0.0
210
0.0
220
0.0
230
1.0
 40
0.1736481777
 41
0.3134132646105913
 42
2.828179391105661
  0
ARC
  5
97
330
75
100
AcDbEntity
  8
$DDT_AUDIT_GENERATED_(95)
  6
Continuous
 62
     7
100
AcDbCircle
 10
42.9440072532
 20
1221.1947329106
 30
0.0
 40
11.5
100
AcDbArc
 50
0.0
 51
180.0
  0
LINE
  5
98
330
75
100
AcDbEntity
  8
$DDT_AUDIT_GENERATED_(95)
  6
Continuous
 62
     7
100
AcDbLine
 10
54.4440072532
 20
1110.6947329106
 30
0.0
 11
54.4440072532
 21
1113.381971932
 31
0.0
  0
LINE
  5
99
330
75
100
AcDbEntity
  8
$DDT_AUDIT_GENERATED_(95)
  6
Continuous
 62
     7
100
AcDbLine
 10
54.4440072532
 20
1124.3186927383
 30
0.0
 11
54.4440072532
 21
1125.9436255307
 31
0.0
  0
LINE
  5
9A
330
75
100
AcDbEntity
  8
$DDT_AUDIT_GENERATED_(95)
  6
Continuous
 62
     7
100
AcDbLine
 10
54.4440072532
 20
1129.8828565428
 30
0.0
 11
54.4440072532
 21
1221.1947329106
 31
0.0
  0
LINE
  5
9B
330
75
100
AcDbEntity
  8
$DDT_AUDIT_GENERATED_(95)
  6
Continuous
 62
     7
100
AcDbLine
 10
31.4440072532
 20
1221.1947329106
 30
0.0
 11
31.4440072532
 21
1129.8828565428
 31
0.0
  0
LINE
  5
9C
330
75
100
AcDbEntity
  8
$DDT_AUDIT_GENERATED_(95)
  6
Continuous
 62
     7
100
AcDbLine
 10
31.4440072532
 20
1125.9436255307
 30
0.0
 11
31.4440072532
 21
1124.3719160461
 31
0.0
  0
LINE
  5
9D
330
75
100
AcDbEntity
  8
$DDT_AUDIT_GENERATED_(95)
  6
Continuous
 62
     7
100
AcDbLine
 10
31.4440072532
 20
1113.381971932
 30
0.0
 11
31.4440072532
 21
1110.6947329106
 31
0.0
  0
LINE
  5
9E
330
75
100
AcDbEntity
  8
$DDT_AUDIT_GENERATED_(95)
  6
Continuous
 62
     7
100
AcDbLine
 10
54.4440072532
 20
1006.6947329106
 30
0.0
 11
54.4440072532
 21
1110.6947329106
 31
0.0
  0
LINE
  5
9F
330
75
100
AcDbEntity
  8
$DDT_AUDIT_GENERATED_(95)
  6
Continuous
 62
     7
100
AcDbLine
 10
31.4440072532
 20
1110.6947329106
 30
0.0
 11
31.4440072532
 21
1006.6947329106
 31
0.0
  0
LINE
  5
A0
330
75
100
AcDbEntity
  8
$DDT_AUDIT_GENERATED_(95)
  6
Continuous
 62
     7
100
AcDbLine
 10
54.4440072532
 20
1125.9436255307
 30
0.0
 11
54.4440072532
 21
1129.8828565428
 31
0.0
  0
LINE
  5
A1
330
75
100
AcDbEntity
  8
$DDT_AUDIT_GENERATED_(95)
  6
Continuous
 62
     7
100
AcDbLine
 10
31.4440072532
 20
1129.8828565428
 30
0.0
 11
31.4440072532
 21
1125.9436255307
 31
0.0
  0
ARC
  5
A2
330
75
100
AcDbEntity
  8
$DDT_AUDIT_GENERATED_(95)
  6
Continuous
 62
     7
100
AcDbCircle
 10
33.7707904741
 20
1125.9321748582
 30
0.0
 40
2.319189176807034
100
AcDbArc
 50
179.711030348
 51
208.4743341797
  0
ARC
  5
A3
330
75
100
AcDbEntity
  8
$DDT_AUDIT_GENERATED_(95)
  6
Continuous
 62
     7
100
AcDbCircle
 10
52.1343607417
 20
1125.9254459812
 30
0.0
 40
2.30219124229322
100
AcDbArc
 50
330.6972974253
 51
0.4491061957
  0
ELLIPSE
  5
A5
330
75
100
AcDbEntity
  8
$DDT_AUDIT_GENERATED_(A4)
  6
Continuous
 62
     7
100
AcDbEllipse
 10
42.9440072532
 20
1107.7246821
 30
0.0
 11
-10.49999999999999
 21
0.0
 31
0.0
210
0.0
220
0.0
230
1.0
 40
0.1736481777
 41
0.0
 42
0.7305796389830317
  0
ELLIPSE
  5
A6
330
75
100
AcDbEntity
  8
$DDT_AUDIT_GENERATED_(A4)
  6
Continuous
 62
     7
100
AcDbEllipse
 10
42.9440072532
 20
1107.7246821
 30
0.0
 11
-10.49999999999999
 21
0.0
 31
0.0
210
0.0
220
0.0
230
1.0
 40
0.1736481777
 41
2.411013014231116
 42
6.283185307179586
  0
ELLIPSE
  5
A7
330
75
100
AcDbEntity
  8
$DDT_AUDIT_GENERATED_(A4)
  6
Continuous
 62
     7
100
AcDbEllipse
 10
42.9440072532
 20
1107.7246821
 30
0.0
 11
-10.05
 21
0.0
 31
0.0
210
0.0
220
0.0
230
1.0
 40
0.1736481777
 41
2.598359941738392
 42
6.283185307179586
  0
ELLIPSE
  5
A8
330
75
100
AcDbEntity
  8
$DDT_AUDIT_GENERATED_(A4)
  6
Continuous
 62
     7
100
AcDbEllipse
 10
42.9440072532
 20
1107.7246821
 30
0.0
 11
-10.05
 21
0.0
 31
0.0
210
0.0
220
0.0
230
1.0
 40
0.1736481777
 41
0.0
 42
0.543232711612634
  0
ELLIPSE
  5
A9
330
75
100
AcDbEntity
  8
$DDT_AUDIT_GENERATED_(A4)
  6
Continuous
 62
     7
100
AcDbEllipse
 10
42.9440072532
 20
1124.3186927383
 30
0.0
 11
-11.49999999999999
 21
0.0
 31
0.0
210
0.0
220
0.0
230
1.0
 40
0.1736481777
 41
3.141592653589793
 42
3.149324686088724
  0
ELLIPSE
  5
AA
330
75
100
AcDbEntity
  8
$DDT_AUDIT_GENERATED_(A4)
  6
Continuous
 62
     7
100
AcDbEllipse
 10
42.9440072532
 20
1124.4664139012
 30
0.0
 11
-11.35
 21
0.0
 31
0.0
210
0.0
220
0.0
230
1.0
 40
0.1736481777
 41
3.318808883644167
 42
6.056595028122279
  0
ARC
  5
AB
330
75
100
AcDbEntity
  8
$DDT_AUDIT_GENERATED_(A4)
  6
Continuous
 62
     7
100
AcDbCircle
 10
47.7622672545
 20
1113.2688900749
 30
0.0
 40
16.30588956561075
100
AcDbArc
 50
179.6024537654
 51
200.3252048088
  0
ARC
  5
AC
330
75
100
AcDbEntity
  8
$DDT_AUDIT_GENERATED_(A4)
  6
Continuous
 62
     7
100
AcDbCircle
 10
38.0447469729
 20
1113.2696914336
 30
0.0
 40
16.38688255102932
100
AcDbArc
 50
339.7190672056
 51
0.392878148
  0
LINE
  5
AD
330
75
100
AcDbEntity
  8
$DDT_AUDIT_GENERATED_(A4)
  6
Continuous
 62
     7
100
AcDbLine
 10
54.4440072532
 20
1113.381971932
 30
0.0
 11
54.4440072532
 21
1124.3186927383
 31
0.0
  0
LINE
  5
AE
330
75
100
AcDbEntity
  8
$DDT_AUDIT_GENERATED_(A4)
  6
Continuous
 62
     7
100
AcDbLine
 10
31.4440072532
 20
1124.3186927383
 30
0.0
 11
31.4440072532
 21
1113.381971932
 31
0.0
  0
ARC
  5
AF
330
75
100
AcDbEntity
  8
$DDT_AUDIT_GENERATED_(A4)
  6
Continuous
 62
     7
100
AcDbCircle
 10
53.9198695259
 20
1124.3468333731
 30
0.0
 40
0.5130645507518335
100
AcDbArc
 50
359.2122882662
 51
53.6556644476
  0
SPLINE
  5
B0
330
75
100
AcDbEntity
  8
$DDT_AUDIT_GENERATED_(A4)
  6
Continuous
 62
     7
100
AcDbSpline
210
0.0
220
0.0
230
1.0
 70
     8
 71
     3
 72
    11
 73
     7
 74
     0
 42
0.0000000143800461
 43
0.0000000001
 40
0.0
 40
0.0
 40
0.0
 40
0.0
 40
0.1365507320995987
 40
0.5258836546750569
 40
0.8724501248380013
 40
1.0
 40
1.0
 40
1.0
 40
1.0
 10
31.80254610527475
 20
1124.878160489831
 30
0.0
 10
31.76766079862035
 20
1124.85504988646
 30
0.0
 10
31.65350267733665
 20
1124.778438599591
 30
0.0
 10
31.5319582749934
 20
1124.624460114903
 30
0.0
 10
31.44285576638822
 20
1124.449142166597
 30
0.0
 10
31.45303671658921
 20
1124.356063092058
 30
0.0
 10
31.4564289586975
 20
1124.32664295285
 30
0.0
  0
ELLIPSE
  5
B2
330
75
100
AcDbEntity
  8
$DDT_AUDIT_GENERATED_(B1)
  6
Continuous
 62
     7
100
AcDbEllipse
 10
42.9440072532
 20
1107.2815186112
 30
0.0
 11
9.000000000000002
 21
0.0
 31
0.0
210
0.0
220
0.0
230
1.0
 40
0.1736481777
 41
0.0
 42
6.283185307179586
  0
ELLIPSE
  5
B3
330
75
100
AcDbEntity
  8
$DDT_AUDIT_GENERATED_(B1)
  6
Continuous
 62
     7
100
AcDbEllipse
 10
42.9440072532
 20
1107.2815186112
 30
0.0
 11
5.250000000000001
 21
0.0
 31
0.0
210
0.0
220
0.0
230
1.0
 40
0.1736481777
 41
0.0
 42
6.283185307179586
  0
ELLIPSE
  5
B4
330
75
100
AcDbEntity
  8
$DDT_AUDIT_GENERATED_(B1)
  6
Continuous
 62
     7
100
AcDbEllipse
 10
42.9440072532
 20
1107.2815186112
 30
0.0
 11
-6.249999999999998
 21
0.0
 31
0.0
210
0.0
220
0.0
230
1.0
 40
0.1736481777
 41
0.0
 42
6.283185307179586
  0
ELLIPSE
  5
B5
330
75
100
AcDbEntity
  8
$DDT_AUDIT_GENERATED_(B1)
  6
Continuous
 62
     7
100
AcDbEllipse
 10
42.9440072532
 20
1107.2815186112
 30
0.0
 11
2.750000000000003
 21
0.0
 31
0.0
210
0.0
220
0.0
230
1.0
 40
0.1736481777
 41
0.0
 42
6.283185307179586
  0
ELLIPSE
  5
B6
330
75
100
AcDbEntity
  8
$DDT_AUDIT_GENERATED_(B1)
  6
Continuous
 62
     7
100
AcDbEllipse
 10
42.9440072532
 20
1107.2815186112
 30
0.0
 11
-2.150000000000003
 21
0.0
 31
0.0
210
0.0
220
0.0
230
1.0
 40
0.1736481777
 41
0.0
 42
6.283185307179586
  0
ELLIPSE
  5
B7
330
75
100
AcDbEntity
  8
$DDT_AUDIT_GENERATED_(B1)
  6
Continuous
 62
     7
100
AcDbEllipse
 10
42.9440072532
 20
1107.4784801618
 30
0.0
 11
0.5196299438963575
 21
0.0
 31
0.0
210
0.0
220
0.0
230
1.0
 40
0.1736481777
 41
0.0
 42
6.283185307179586
  0
ELLIPSE
  5
B8
330
75
100
AcDbEntity
  8
$DDT_AUDIT_GENERATED_(B1)
  6
Continuous
 62
     7
100
AcDbEllipse
 10
42.9440072532
 20
1107.2815186112
 30
0.0
 11
8.700000000000003
 21
0.0
 31
0.0
210
0.0
220
0.0
230
1.0
 40
0.1736481777
 41
0.0
 42
6.283185307179586
  0
ARC
  5
B9
330
75
100
AcDbEntity
  8
$DDT_AUDIT_GENERATED_(B1)
  6
Continuous
 62
     7
100
AcDbCircle
 10
42.9440072532
 20
1154.9487342764
 30
0.0
 40
48.94626362829185
100
AcDbArc
 50
269.8829413828
 51
270.1170586172
  0
ELLIPSE
  5
BA
330
75
100
AcDbEntity
  8
$DDT_AUDIT_GENERATED_(B1)
  6
Continuous
 62
     7
100
AcDbEllipse
 10
42.9440072532
 20
1107.4784801617
 30
0.0
 11
8.499999999988828
 21
4.718447854656915E-13
 31
0.0
210
0.0
220
0.0
230
1.0
 40
0.1736481777
 41
4.724153957672432
 42
4.962423390895712
  0
LINE
  5
BB
330
75
100
AcDbEntity
  8
$DDT_AUDIT_GENERATED_(B1)
  6
Continuous
 62
     7
100
AcDbLine
 10
42.8440072532
 20
1106.1963564282
 30
0.0
 11
42.8440072532
 21
1106.0025728011
 31
0.0
  0
LINE
  5
BC
330
75
100
AcDbEntity
  8
$DDT_AUDIT_GENERATED_(B1)
  6
Continuous
 62
     7
100
AcDbLine
 10
43.0440072532
 20
1106.1963564282
 30
0.0
 11
43.0440072532
 21
1106.0025728011
 31
0.0
  0
LINE
  5
BD
330
75
100
AcDbEntity
  8
$DDT_AUDIT_GENERATED_(B1)
  6
Continuous
 62
     7
100
AcDbLine
 10
43.1940072532
 20
1107.3512101459
 30
0.0
 11
43.1940072532
 21
1107.3993767402
 31
0.0
  0
LINE
  5
BE
330
75
100
AcDbEntity
  8
$DDT_AUDIT_GENERATED_(B1)
  6
Continuous
 62
     7
100
AcDbLine
 10
42.6940072532
 20
1107.3512101459
 30
0.0
 11
42.6940072532
 21
1107.3993767402
 31
0.0
  0
ARC
  5
BF
330
75
100
AcDbEntity
  8
$DDT_AUDIT_GENERATED_(B1)
  6
Continuous
 62
     7
100
AcDbCircle
 10
42.9440072532
 20
1119.6485787627
 30
0.0
 40
12.29990954833279
100
AcDbArc
 50
268.8353628735
 51
271.1646371265
  0
ELLIPSE
  5
C0
330
75
100
AcDbEntity
  8
$DDT_AUDIT_GENERATED_(B1)
  6
Continuous
 62
     7
100
AcDbEllipse
 10
42.9440071395
 20
1107.4784800879
 30
0.0
 11
-8.499999765538668
 21
1.968494811599442E-8
 31
0.0
210
0.0
220
0.0
230
1.0
 40
0.1736481738
 41
1.297231968257628
 42
1.3207619234423
  0
ELLIPSE
  5
C1
330
75
100
AcDbEntity
  8
$DDT_AUDIT_GENERATED_(B1)
  6
Continuous
 62
     7
100
AcDbEllipse
 10
42.9440072532
 20
1107.4784801618
 30
0.0
 11
-8.499999999997277
 21
1.665334536937735E-13
 31
0.0
210
0.0
220
0.0
230
1.0
 40
0.1736481777
 41
1.320761916283836
 42
1.559031349506882
  0
LINE
  5
C2
330
75
100
AcDbEntity
  8
$DDT_AUDIT_GENERATED_(B1)
  6
Continuous
 62
     7
100
AcDbLine
 10
40.647605039
 20
1106.0573574704
 30
0.0
 11
40.647605039
 21
1106.2721306134
 31
0.0
  0
LINE
  5
C3
330
75
100
AcDbEntity
  8
$DDT_AUDIT_GENERATED_(B1)
  6
Continuous
 62
     7
100
AcDbLine
 10
40.9494419175
 20
1106.2529670315
 30
0.0
 11
40.647605039
 21
1106.0573574704
 31
0.0
  0
LINE
  5
C4
330
75
100
AcDbEntity
  8
$DDT_AUDIT_GENERATED_(B1)
  6
Continuous
 62
     7
100
AcDbLine
 10
41.1401926986
 20
1106.2424007041
 30
0.0
 11
40.8407902042
 21
1106.0483687793
 31
0.0
  0
ELLIPSE
  5
C5
330
75
100
AcDbEntity
  8
$DDT_AUDIT_GENERATED_(B1)
  6
Continuous
 62
     7
100
AcDbEllipse
 10
42.9440070515
 20
1107.478480101
 30
0.0
 11
-8.499999747812385
 21
3.128014514075517E-8
 31
0.0
210
0.0
220
0.0
230
1.0
 40
0.1736481756
 41
1.035432584530973
 42
1.058962539665919
  0
ELLIPSE
  5
C6
330
75
100
AcDbEntity
  8
$DDT_AUDIT_GENERATED_(B1)
  6
Continuous
 62
     7
100
AcDbEllipse
 10
42.9440072532
 20
1107.4784801618
 30
0.0
 11
-8.500000000008029
 21
-1.026956297778270E-12
 31
0.0
210
0.0
220
0.0
230
1.0
 40
0.1736481777
 41
1.058962528484462
 42
1.29723196170723
  0
LINE
  5
C7
330
75
100
AcDbEntity
  8
$DDT_AUDIT_GENERATED_(B1)
  6
Continuous
 62
     7
100
AcDbLine
 10
38.6076988406
 20
1106.2089893027
 30
0.0
 11
38.6076988406
 21
1106.4999295456
 31
0.0
  0
LINE
  5
C8
330
75
100
AcDbEntity
  8
$DDT_AUDIT_GENERATED_(B1)
  6
Continuous
 62
     7
100
AcDbLine
 10
39.2591106995
 20
1106.404912797
 30
0.0
 11
38.6076988406
 21
1106.2089893027
 31
0.0
  0
LINE
  5
C9
330
75
100
AcDbEntity
  8
$DDT_AUDIT_GENERATED_(B1)
  6
Continuous
 62
     7
100
AcDbLine
 10
39.4232029539
 20
1106.3848071376
 30
0.0
 11
38.7809039214
 21
1106.1916244849
 31
0.0
  0
ELLIPSE
  5
CA
330
75
100
AcDbEntity
  8
$DDT_AUDIT_GENERATED_(B1)
  6
Continuous
 62
     7
100
AcDbEllipse
 10
42.9440068713
 20
1107.4784800956
 30
0.0
 11
-8.499999594955652
 21
4.828934474510049E-8
 31
0.0
210
0.0
220
0.0
230
1.0
 40
0.1736481777
 41
0.7736332026159103
 42
0.7971631579393743
  0
ELLIPSE
  5
CB
330
75
100
AcDbEntity
  8
$DDT_AUDIT_GENERATED_(B1)
  6
Continuous
 62
     7
100
AcDbEllipse
 10
42.9440072532
 20
1107.4784801618
 30
0.0
 11
-8.500000000013031
 21
-1.415534356397075E-12
 31
0.0
210
0.0
220
0.0
230
1.0
 40
0.1736481777
 41
0.7971631406850838
 42
1.035432573907784
  0
LINE
  5
CC
330
75
100
AcDbEntity
  8
$DDT_AUDIT_GENERATED_(B1)
  6
Continuous
 62
     7
100
AcDbLine
 10
36.8633048945
 20
1106.447134839
 30
0.0
 11
36.8633048945
 21
1106.8488031833
 31
0.0
  0
LINE
  5
CD
330
75
100
AcDbEntity
  8
$DDT_AUDIT_GENERATED_(B1)
  6
Continuous
 62
     7
100
AcDbLine
 10
37.933021747
 20
1106.6328892211
 30
0.0
 11
36.8633048945
 21
1106.447134839
 31
0.0
  0
LINE
  5
CE
330
75
100
AcDbEntity
  8
$DDT_AUDIT_GENERATED_(B1)
  6
Continuous
 62
     7
100
AcDbLine
 10
38.0561412797
 20
1106.605153582
 30
0.0
 11
37.0047262508
 21
1106.4225772782
 31
0.0
  0
ELLIPSE
  5
CF
330
75
100
AcDbEntity
  8
$DDT_AUDIT_GENERATED_(B1)
  6
Continuous
 62
     7
100
AcDbEllipse
 10
42.9440069035
 20
1107.4784801266
 30
0.0
 11
-8.499999646686268
 21
3.136771398182248E-8
 31
0.0
210
0.0
220
0.0
230
1.0
 40
0.1736481797
 41
0.5118338089543737
 42
0.5353637640895813
  0
ELLIPSE
  5
D0
330
75
100
AcDbEntity
  8
$DDT_AUDIT_GENERATED_(B1)
  6
Continuous
 62
     7
100
AcDbEllipse
 10
42.9440072532
 20
1107.4784801618
 30
0.0
 11
-8.500000000019
 21
-1.609823385706477E-12
 31
0.0
210
0.0
220
0.0
230
1.0
 40
0.1736481777
 41
0.5353637528858727
 42
0.7736331861084743
  0
LINE
  5
D1
330
75
100
AcDbEntity
  8
$DDT_AUDIT_GENERATED_(B1)
  6
Continuous
 62
     7
100
AcDbLine
 10
35.5333007654
 20
1106.7555648547
 30
0.0
 11
35.5333007654
 21
1107.1156908402
 31
0.0
  0
LINE
  5
D2
330
75
100
AcDbEntity
  8
$DDT_AUDIT_GENERATED_(B1)
  6
Continuous
 62
     7
100
AcDbLine
 10
37.0719731006
 20
1106.9098257147
 30
0.0
 11
35.5333007654
 21
1106.7555648547
 31
0.0
  0
LINE
  5
D3
330
75
100
AcDbEntity
  8
$DDT_AUDIT_GENERATED_(B1)
  6
Continuous
 62
     7
100
AcDbLine
 10
37.1444046637
 20
1106.8769850718
 30
0.0
 11
35.6333007654
 21
1106.7254881081
 31
0.0
  0
ELLIPSE
  5
D4
330
75
100
AcDbEntity
  8
$DDT_AUDIT_GENERATED_(B1)
  6
Continuous
 62
     7
100
AcDbEllipse
 10
42.9440068633
 20
1107.4784801435
 30
0.0
 11
-8.499999609908324
 21
1.815278483086047E-8
 31
0.0
210
0.0
220
0.0
230
1.0
 40
0.1736481812
 41
0.2500344165381269
 42
0.2735643716729876
  0
ELLIPSE
  5
D5
330
75
100
AcDbEntity
  8
$DDT_AUDIT_GENERATED_(B1)
  6
Continuous
 62
     7
100
AcDbEllipse
 10
42.9440072532
 20
1107.4784801618
 30
0.0
 11
-8.500000000026354
 21
-2.109423746787797E-12
 31
0.0
210
0.0
220
0.0
230
1.0
 40
0.1736481777
 41
0.2735643650868252
 42
0.5118337983093636
  0
LINE
  5
D6
330
75
100
AcDbEntity
  8
$DDT_AUDIT_GENERATED_(B1)
  6
Continuous
 62
     7
100
AcDbLine
 10
34.7083240365
 20
1107.113260354
 30
0.0
 11
34.7083240365
 21
1107.461115344
 31
0.0
  0
LINE
  5
D7
330
75
100
AcDbEntity
  8
$DDT_AUDIT_GENERATED_(B1)
  6
Continuous
 62
     7
100
AcDbLine
 10
36.7090158684
 20
1107.2063503221
 30
0.0
 11
34.7083240365
 21
1107.113260354
 31
0.0
  0
LINE
  5
D8
330
75
100
AcDbEntity
  8
$DDT_AUDIT_GENERATED_(B1)
  6
Continuous
 62
     7
100
AcDbLine
 10
36.7263775458
 20
1107.1712033772
 30
0.0
 11
34.7600878456
 21
1107.0797141021
 31
0.0
  0
ARC
  5
D9
330
75
100
AcDbEntity
  8
$DDT_AUDIT_GENERATED_(B1)
  6
Continuous
 62
     7
100
AcDbCircle
 10
34.7008841324
 20
1107.4784801618
 30
0.0
 40
0.2568762259796828
100
AcDbArc
 50
176.1238526717
 51
183.8761473283
  0
ELLIPSE
  5
DA
330
75
100
AcDbEntity
  8
$DDT_AUDIT_GENERATED_(B1)
  6
Continuous
 62
     7
100
AcDbEllipse
 10
42.9440072532
 20
1107.4784801618
 30
0.0
 11
-8.500000000034085
 21
-1.387778780781446E-12
 31
0.0
210
0.0
220
0.0
230
1.0
 40
0.1736481777
 41
0.0117649772879704
 42
0.2500344105104857
  0
ARC
  5
DB
330
75
100
AcDbEntity
  8
$DDT_AUDIT_GENERATED_(B1)
  6
Continuous
 62
     7
100
AcDbCircle
 10
36.8832437399
 20
1107.4784801618
 30
0.0
 40
0.1892348465219799
100
AcDbArc
 50
174.7349422715
 51
180.0
  0
LINE
  5
DC
330
75
100
AcDbEntity
  8
$DDT_AUDIT_GENERATED_(B1)
  6
Continuous
 62
     7
100
AcDbLine
 10
36.6948073044
 20
1107.4958449795
 30
0.0
 11
36.6948073044
 21
1107.7512711101
 31
0.0
  0
LINE
  5
DD
330
75
100
AcDbEntity
  8
$DDT_AUDIT_GENERATED_(B1)
  6
Continuous
 62
     7
100
AcDbLine
 10
36.6948073044
 20
1107.4958449795
 30
0.0
 11
34.4445955088
 21
1107.4958449795
 31
0.0
  0
LINE
  5
DE
330
75
100
AcDbEntity
  8
$DDT_AUDIT_GENERATED_(B1)
  6
Continuous
 62
     7
100
AcDbLine
 10
36.6940072532
 20
1107.461115344
 30
0.0
 11
34.4445955088
 21
1107.461115344
 31
0.0
  0
ELLIPSE
  5
DF
330
75
100
AcDbEntity
  8
$DDT_AUDIT_GENERATED_(B1)
  6
Continuous
 62
     7
100
AcDbEllipse
 10
42.9440072532
 20
1107.4784801618
 30
0.0
 11
-8.500000000002492
 21
6.383782391594650E-13
 31
0.0
210
0.0
220
0.0
230
1.0
 40
0.1736481777
 41
6.171271385087263
 42
6.271420329891465
  0
ELLIPSE
  5
E0
330
75
100
AcDbEntity
  8
$DDT_AUDIT_GENERATED_(B1)
  6
Continuous
 62
     7
100
AcDbEllipse
 10
42.9440072844
 20
1107.4784801603
 30
0.0
 11
-6.250000031215008
 21
1.466798904559141E-9
 31
0.0
210
0.0
220
0.0
230
1.0
 40
0.1736481773
 41
-0.2778000698162444
 42
-0.2457987044082923
  0
LINE
  5
E1
330
75
100
AcDbEntity
  8
$DDT_AUDIT_GENERATED_(B1)
  6
Continuous
 62
     7
100
AcDbLine
 10
36.9336255335
 20
1107.7761139277
 30
0.0
 11
36.9336255335
 21
1108.0610047579
 31
0.0
  0
LINE
  5
E2
330
75
100
AcDbEntity
  8
$DDT_AUDIT_GENERATED_(B1)
  6
Continuous
 62
     7
100
AcDbLine
 10
36.9336255335
 20
1107.7761139277
 30
0.0
 11
34.9296313561
 21
1107.8693575503
 31
0.0
  0
LINE
  5
E3
330
75
100
AcDbEntity
  8
$DDT_AUDIT_GENERATED_(B1)
  6
Continuous
 62
     7
100
AcDbLine
 10
36.8818617245
 20
1107.7425676758
 30
0.0
 11
34.8533424661
 21
1107.8369524231
 31
0.0
  0
ELLIPSE
  5
E4
330
75
100
AcDbEntity
  8
$DDT_AUDIT_GENERATED_(B1)
  6
Continuous
 62
     7
100
AcDbEllipse
 10
42.9440072807
 20
1107.4784801589
 30
0.0
 11
-6.250000027817087
 21
2.520594843957724E-9
 31
0.0
210
0.0
220
0.0
230
1.0
 40
0.1736481775
 41
-0.5395994571315681
 42
-0.5075980917222696
  0
LINE
  5
E5
330
75
100
AcDbEntity
  8
$DDT_AUDIT_GENERATED_(B1)
  6
Continuous
 62
     7
100
AcDbLine
 10
37.5820413442
 20
1108.0360996266
 30
0.0
 11
37.5820413442
 21
1108.3850182098
 31
0.0
  0
LINE
  5
E6
330
75
100
AcDbEntity
  8
$DDT_AUDIT_GENERATED_(B1)
  6
Continuous
 62
     7
100
AcDbLine
 10
37.5820413442
 20
1108.0360996266
 30
0.0
 11
36.0092615131
 21
1108.1937799615
 31
0.0
  0
LINE
  5
E7
330
75
100
AcDbEntity
  8
$DDT_AUDIT_GENERATED_(B1)
  6
Continuous
 62
     7
100
AcDbLine
 10
37.4820413442
 20
1108.0060228799
 30
0.0
 11
35.8895781784
 21
1108.1656765838
 31
0.0
  0
ELLIPSE
  5
E8
330
75
100
AcDbEntity
  8
$DDT_AUDIT_GENERATED_(B1)
  6
Continuous
 62
     7
100
AcDbEllipse
 10
42.9440072369
 20
1107.4784801646
 30
0.0
 11
-6.24999998270237
 21
-2.108119234733863E-9
 31
0.0
210
0.0
220
0.0
230
1.0
 40
0.1736481777
 41
-0.8013988471540756
 42
-0.7693974816044395
  0
LINE
  5
E9
330
75
100
AcDbEntity
  8
$DDT_AUDIT_GENERATED_(B1)
  6
Continuous
 62
     7
100
AcDbLine
 10
38.5958662705
 20
1108.2580844804
 30
0.0
 11
38.5958662705
 21
1108.590043414
 31
0.0
  0
LINE
  5
EA
330
75
100
AcDbEntity
  8
$DDT_AUDIT_GENERATED_(B1)
  6
Continuous
 62
     7
100
AcDbLine
 10
38.5958662705
 20
1108.2580844804
 30
0.0
 11
37.4631729247
 21
1108.4547746158
 31
0.0
  0
LINE
  5
EB
330
75
100
AcDbEntity
  8
$DDT_AUDIT_GENERATED_(B1)
  6
Continuous
 62
     7
100
AcDbLine
 10
38.4544449143
 20
1108.2335269196
 30
0.0
 11
37.3086575027
 21
1108.4324908157
 31
0.0
  0
ELLIPSE
  5
EC
330
75
100
AcDbEntity
  8
$DDT_AUDIT_GENERATED_(B1)
  6
Continuous
 62
     7
100
AcDbEllipse
 10
42.9440072825
 20
1107.478480153
 30
0.0
 11
-6.250000036570919
 21
4.538092124306559E-9
 31
0.0
210
0.0
220
0.0
230
1.0
 40
0.1736481781
 41
-1.063198231711977
 42
-1.031196866371095
  0
LINE
  5
ED
330
75
100
AcDbEntity
  8
$DDT_AUDIT_GENERATED_(B1)
  6
Continuous
 62
     7
100
AcDbLine
 10
39.9060098192
 20
1108.4269405883
 30
0.0
 11
39.9060098192
 21
1108.6971567877
 31
0.0
  0
LINE
  5
EE
330
75
100
AcDbEntity
  8
$DDT_AUDIT_GENERATED_(B1)
  6
Continuous
 62
     7
100
AcDbLine
 10
39.9060098192
 20
1108.4269405883
 30
0.0
 11
39.1845651427
 21
1108.6439276758
 31
0.0
  0
LINE
  5
EF
330
75
100
AcDbEntity
  8
$DDT_AUDIT_GENERATED_(B1)
  6
Continuous
 62
     7
100
AcDbLine
 10
39.7328047384
 20
1108.4095757706
 30
0.0
 11
39.0048270174
 21
1108.6285277853
 31
0.0
  0
ELLIPSE
  5
F0
330
75
100
AcDbEntity
  8
$DDT_AUDIT_GENERATED_(B1)
  6
Continuous
 62
     7
100
AcDbEllipse
 10
42.9440072732
 20
1107.4784801488
 30
0.0
 11
-6.250000041125765
 21
3.469891041163464E-9
 31
0.0
210
0.0
220
0.0
230
1.0
 40
0.1736481786
 41
-1.324997619991253
 42
-1.292996254697856
  0
LINE
  5
F1
330
75
100
AcDbEntity
  8
$DDT_AUDIT_GENERATED_(B1)
  6
Continuous
 62
     7
100
AcDbLine
 10
41.4231878724
 20
1108.5311606856
 30
0.0
 11
41.4231878724
 21
1108.7689965274
 31
0.0
  0
LINE
  5
F2
330
75
100
AcDbEntity
  8
$DDT_AUDIT_GENERATED_(B1)
  6
Continuous
 62
     7
100
AcDbLine
 10
41.4231878724
 20
1108.5311606856
 30
0.0
 11
41.074743426
 21
1108.7569749252
 31
0.0
  0
LINE
  5
F3
330
75
100
AcDbEntity
  8
$DDT_AUDIT_GENERATED_(B1)
  6
Continuous
 62
     7
100
AcDbLine
 10
41.2300027072
 20
1108.5221719945
 30
0.0
 11
40.8798104654
 21
1108.749118917
 31
0.0
  0
ARC
  5
F4
330
75
100
AcDbEntity
  8
$DDT_AUDIT_GENERATED_(B1)
  6
Continuous
 62
     7
100
AcDbCircle
 10
42.9440072532
 20
1072.5759341369
 30
0.0
 40
35.98784714392578
100
AcDbArc
 50
89.8407911065
 51
90.1592088935
  0
LINE
  5
F5
330
75
100
AcDbEntity
  8
$DDT_AUDIT_GENERATED_(B1)
  6
Continuous
 62
     7
100
AcDbLine
 10
43.0440072532
 20
1108.5636423447
 30
0.0
 11
43.0440072532
 21
1108.7921579558
 31
0.0
  0
LINE
  5
F6
330
75
100
AcDbEntity
  8
$DDT_AUDIT_GENERATED_(B1)
  6
Continuous
 62
     7
100
AcDbLine
 10
42.8440072532
 20
1108.5636423447
 30
0.0
 11
42.8440072532
 21
1108.7921579558
 31
0.0
  0
ELLIPSE
  5
F7
330
75
100
AcDbEntity
  8
$DDT_AUDIT_GENERATED_(B1)
  6
Continuous
 62
     7
100
AcDbEllipse
 10
42.9440072382
 20
1107.478480152
 30
0.0
 11
6.250000030932207
 21
2.598726789315720E-9
 31
0.0
210
0.0
220
0.0
230
1.0
 40
0.1736481784
 41
1.292996255092766
 42
1.324997620434921
  0
LINE
  5
F8
330
75
100
AcDbEntity
  8
$DDT_AUDIT_GENERATED_(B1)
  6
Continuous
 62
     7
100
AcDbLine
 10
44.6580117992
 20
1108.5221719945
 30
0.0
 11
45.008204041
 21
1108.749118917
 31
0.0
  0
LINE
  5
F9
330
75
100
AcDbEntity
  8
$DDT_AUDIT_GENERATED_(B1)
  6
Continuous
 62
     7
100
AcDbLine
 10
44.464826634
 20
1108.5311606856
 30
0.0
 11
44.8132710804
 21
1108.7569749252
 31
0.0
  0
LINE
  5
FA
330
75
100
AcDbEntity
  8
$DDT_AUDIT_GENERATED_(B1)
  6
Continuous
 62
     7
100
AcDbLine
 10
44.464826634
 20
1108.5311606856
 30
0.0
 11
44.464826634
 21
1108.7689965274
 31
0.0
  0
ELLIPSE
  5
FB
330
75
100
AcDbEntity
  8
$DDT_AUDIT_GENERATED_(B1)
  6
Continuous
 62
     7
100
AcDbEllipse
 10
42.9440072369
 20
1107.4784801569
 30
0.0
 11
6.250000020333754
 21
2.521066688743190E-9
 31
0.0
210
0.0
220
0.0
230
1.0
 40
0.1736481779
 41
1.03119686729711
 42
1.063198232704433
  0
LINE
  5
FC
330
75
100
AcDbEntity
  8
$DDT_AUDIT_GENERATED_(B1)
  6
Continuous
 62
     7
100
AcDbLine
 10
46.155209768
 20
1108.4095757706
 30
0.0
 11
46.883187489
 21
1108.6285277853
 31
0.0
  0
LINE
  5
FD
330
75
100
AcDbEntity
  8
$DDT_AUDIT_GENERATED_(B1)
  6
Continuous
 62
     7
100
AcDbLine
 10
45.9820046872
 20
1108.4269405883
 30
0.0
 11
46.7034493637
 21
1108.6439276758
 31
0.0
  0
LINE
  5
FE
330
75
100
AcDbEntity
  8
$DDT_AUDIT_GENERATED_(B1)
  6
Continuous
 62
     7
100
AcDbLine
 10
45.9820046872
 20
1108.4269405883
 30
0.0
 11
45.9820046872
 21
1108.6971567877
 31
0.0
  0
ELLIPSE
  5
FF
330
75
100
AcDbEntity
  8
$DDT_AUDIT_GENERATED_(B1)
  6
Continuous
 62
     7
100
AcDbEllipse
 10
42.9440072125
 20
1107.4784801546
 30
0.0
 11
6.250000043181631
 21
5.191153062966691E-9
 31
0.0
210
0.0
220
0.0
230
1.0
 40
0.1736481777
 41
0.7693974782791914
 42
0.8013988436224322
  0
LINE
  5
100
330
75
100
AcDbEntity
  8
$DDT_AUDIT_GENERATED_(B1)
  6
Continuous
 62
     7
100
AcDbLine
 10
47.4335695921
 20
1108.2335269196
 30
0.0
 11
48.5793570037
 21
1108.4324908157
 31
0.0
  0
LINE
  5
101
330
75
100
AcDbEntity
  8
$DDT_AUDIT_GENERATED_(B1)
  6
Continuous
 62
     7
100
AcDbLine
 10
47.2921482359
 20
1108.2580844804
 30
0.0
 11
48.4248415817
 21
1108.4547746158
 31
0.0
  0
LINE
  5
102
330
75
100
AcDbEntity
  8
$DDT_AUDIT_GENERATED_(B1)
  6
Continuous
 62
     7
100
AcDbLine
 10
47.2921482359
 20
1108.2580844804
 30
0.0
 11
47.2921482359
 21
1108.590043414
 31
0.0
  0
ELLIPSE
  5
103
330
75
100
AcDbEntity
  8
$DDT_AUDIT_GENERATED_(B1)
  6
Continuous
 62
     7
100
AcDbEllipse
 10
42.9440072267
 20
1107.4784801591
 30
0.0
 11
6.250000026807856
 21
2.382261055089430E-9
 31
0.0
210
0.0
220
0.0
230
1.0
 40
0.1736481775
 41
0.5075980917646717
 42
0.5395994571768593
  0
LINE
  5
104
330
75
100
AcDbEntity
  8
$DDT_AUDIT_GENERATED_(B1)
  6
Continuous
 62
     7
100
AcDbLine
 10
48.4059731622
 20
1108.0060228799
 30
0.0
 11
49.998436328
 21
1108.1656765838
 31
0.0
  0
LINE
  5
105
330
75
100
AcDbEntity
  8
$DDT_AUDIT_GENERATED_(B1)
  6
Continuous
 62
     7
100
AcDbLine
 10
48.3059731622
 20
1108.0360996266
 30
0.0
 11
49.8787529933
 21
1108.1937799615
 31
0.0
  0
LINE
  5
106
330
75
100
AcDbEntity
  8
$DDT_AUDIT_GENERATED_(B1)
  6
Continuous
 62
     7
100
AcDbLine
 10
48.3059731622
 20
1108.0360996266
 30
0.0
 11
48.3059731622
 21
1108.3850182098
 31
0.0
  0
ELLIPSE
  5
107
330
75
100
AcDbEntity
  8
$DDT_AUDIT_GENERATED_(B1)
  6
Continuous
 62
     7
100
AcDbEllipse
 10
42.9440071977
 20
1107.4784801592
 30
0.0
 11
6.250000055526887
 21
2.592842607285206E-9
 31
0.0
210
0.0
220
0.0
230
1.0
 40
0.173648177
 41
0.2457987039060583
 42
0.2778000692495676
  0
LINE
  5
108
330
75
100
AcDbEntity
  8
$DDT_AUDIT_GENERATED_(B1)
  6
Continuous
 62
     7
100
AcDbLine
 10
49.0061527819
 20
1107.7425676758
 30
0.0
 11
51.0346720402
 21
1107.8369524231
 31
0.0
  0
LINE
  5
109
330
75
100
AcDbEntity
  8
$DDT_AUDIT_GENERATED_(B1)
  6
Continuous
 62
     7
100
AcDbLine
 10
48.9543889729
 20
1107.7761139277
 30
0.0
 11
50.9583831503
 21
1107.8693575503
 31
0.0
  0
LINE
  5
10A
330
75
100
AcDbEntity
  8
$DDT_AUDIT_GENERATED_(B1)
  6
Continuous
 62
     7
100
AcDbLine
 10
48.9543889729
 20
1107.7761139277
 30
0.0
 11
48.9543889729
 21
1108.0610047579
 31
0.0
  0
ARC
  5
10B
330
75
100
AcDbEntity
  8
$DDT_AUDIT_GENERATED_(B1)
  6
Continuous
 62
     7
100
AcDbCircle
 10
51.187130374
 20
1107.4784801618
 30
0.0
 40
0.2568762259793074
100
AcDbArc
 50
356.1238526717
 51
3.8761473283
  0
ELLIPSE
  5
10C
330
75
100
AcDbEntity
  8
$DDT_AUDIT_GENERATED_(B1)
  6
Continuous
 62
     7
100
AcDbEllipse
 10
42.9440072532
 20
1107.4784801618
 30
0.0
 11
8.500000000033845
 21
1.360023205165817E-12
 31
0.0
210
0.0
220
0.0
230
1.0
 40
0.1736481777
 41
0.0117649772881214
 42
0.1119139221247169
  0
ARC
  5
10D
330
75
100
AcDbEntity
  8
$DDT_AUDIT_GENERATED_(B1)
  6
Continuous
 62
     7
100
AcDbCircle
 10
49.0047707664
 20
1107.4784801618
 30
0.0
 40
0.1892348465219825
100
AcDbArc
 50
0.0
 51
5.2650577286
  0
LINE
  5
10E
330
75
100
AcDbEntity
  8
$DDT_AUDIT_GENERATED_(B1)
  6
Continuous
 62
     7
100
AcDbLine
 10
49.1940072532
 20
1107.461115344
 30
0.0
 11
51.4434189975
 21
1107.461115344
 31
0.0
  0
LINE
  5
10F
330
75
100
AcDbEntity
  8
$DDT_AUDIT_GENERATED_(B1)
  6
Continuous
 62
     7
100
AcDbLine
 10
49.193207202
 20
1107.4958449795
 30
0.0
 11
51.4434189975
 21
1107.4958449795
 31
0.0
  0
LINE
  5
110
330
75
100
AcDbEntity
  8
$DDT_AUDIT_GENERATED_(B1)
  6
Continuous
 62
     7
100
AcDbLine
 10
49.193207202
 20
1107.4958449795
 30
0.0
 11
49.193207202
 21
1107.7512711101
 31
0.0
  0
ELLIPSE
  5
111
330
75
100
AcDbEntity
  8
$DDT_AUDIT_GENERATED_(B1)
  6
Continuous
 62
     7
100
AcDbEllipse
 10
42.9440076426
 20
1107.4784801437
 30
0.0
 11
8.499999610309734
 21
1.793459825094601E-8
 31
0.0
210
0.0
220
0.0
230
1.0
 40
0.1736481812
 41
-0.2735643716632152
 42
-0.2500344165290365
  0
ELLIPSE
  5
112
330
75
100
AcDbEntity
  8
$DDT_AUDIT_GENERATED_(B1)
  6
Continuous
 62
     7
100
AcDbEllipse
 10
42.9440072532
 20
1107.4784801618
 30
0.0
 11
8.500000000026485
 21
-1.193489751472043E-12
 31
0.0
210
0.0
220
0.0
230
1.0
 40
0.1736481777
 41
6.033150896668949
 42
6.271420329891635
  0
LINE
  5
113
330
75
100
AcDbEntity
  8
$DDT_AUDIT_GENERATED_(B1)
  6
Continuous
 62
     7
100
AcDbLine
 10
51.1796904698
 20
1107.113260354
 30
0.0
 11
51.1796904698
 21
1107.461115344
 31
0.0
  0
LINE
  5
114
330
75
100
AcDbEntity
  8
$DDT_AUDIT_GENERATED_(B1)
  6
Continuous
 62
     7
100
AcDbLine
 10
49.1616369606
 20
1107.1712033772
 30
0.0
 11
51.1279266608
 21
1107.0797141021
 31
0.0
  0
LINE
  5
115
330
75
100
AcDbEntity
  8
$DDT_AUDIT_GENERATED_(B1)
  6
Continuous
 62
     7
100
AcDbLine
 10
49.178998638
 20
1107.2063503221
 30
0.0
 11
51.1796904698
 21
1107.113260354
 31
0.0
  0
ELLIPSE
  5
116
330
75
100
AcDbEntity
  8
$DDT_AUDIT_GENERATED_(B1)
  6
Continuous
 62
     7
100
AcDbEllipse
 10
42.944007662
 20
1107.4784801207
 30
0.0
 11
8.499999586962833
 21
3.666092429632783E-8
 31
0.0
210
0.0
220
0.0
230
1.0
 40
0.1736481801
 41
-0.5353637659861823
 42
-0.5118338107566327
  0
ELLIPSE
  5
117
330
75
100
AcDbEntity
  8
$DDT_AUDIT_GENERATED_(B1)
  6
Continuous
 62
     7
100
AcDbEllipse
 10
42.9440072532
 20
1107.4784801618
 30
0.0
 11
8.500000000012657
 21
-1.165734175856414E-12
 31
0.0
210
0.0
220
0.0
230
1.0
 40
0.1736481777
 41
-0.5118337983097865
 42
-0.2735643650870054
  0
LINE
  5
118
330
75
100
AcDbEntity
  8
$DDT_AUDIT_GENERATED_(B1)
  6
Continuous
 62
     7
100
AcDbLine
 10
50.354713741
 20
1106.7555648547
 30
0.0
 11
50.354713741
 21
1107.1156908402
 31
0.0
  0
LINE
  5
119
330
75
100
AcDbEntity
  8
$DDT_AUDIT_GENERATED_(B1)
  6
Continuous
 62
     7
100
AcDbLine
 10
48.7436098427
 20
1106.8769850718
 30
0.0
 11
50.254713741
 21
1106.7254881081
 31
0.0
  0
LINE
  5
11A
330
75
100
AcDbEntity
  8
$DDT_AUDIT_GENERATED_(B1)
  6
Continuous
 62
     7
100
AcDbLine
 10
48.8160414058
 20
1106.9098257147
 30
0.0
 11
50.354713741
 21
1106.7555648547
 31
0.0
  0
ELLIPSE
  5
11B
330
75
100
AcDbEntity
  8
$DDT_AUDIT_GENERATED_(B1)
  6
Continuous
 62
     7
100
AcDbEllipse
 10
42.9440076349
 20
1107.4784800955
 30
0.0
 11
8.499999595057997
 21
4.826569699467598E-8
 31
0.0
210
0.0
220
0.0
230
1.0
 40
0.1736481777
 41
-0.7971631579191172
 42
-0.773633202595482
  0
ELLIPSE
  5
11C
330
75
100
AcDbEntity
  8
$DDT_AUDIT_GENERATED_(B1)
  6
Continuous
 62
     7
100
AcDbEllipse
 10
42.9440072532
 20
1107.4784801618
 30
0.0
 11
8.500000000026532
 21
-2.414735078559715E-12
 31
0.0
210
0.0
220
0.0
230
1.0
 40
0.1736481777
 41
-0.7736331861081629
 42
-0.5353637528856217
  0
LINE
  5
11D
330
75
100
AcDbEntity
  8
$DDT_AUDIT_GENERATED_(B1)
  6
Continuous
 62
     7
100
AcDbLine
 10
49.0247096118
 20
1106.447134839
 30
0.0
 11
49.0247096118
 21
1106.8488031833
 31
0.0
  0
LINE
  5
11E
330
75
100
AcDbEntity
  8
$DDT_AUDIT_GENERATED_(B1)
  6
Continuous
 62
     7
100
AcDbLine
 10
47.8318732267
 20
1106.605153582
 30
0.0
 11
48.8832882556
 21
1106.4225772782
 31
0.0
  0
LINE
  5
11F
330
75
100
AcDbEntity
  8
$DDT_AUDIT_GENERATED_(B1)
  6
Continuous
 62
     7
100
AcDbLine
 10
47.9549927594
 20
1106.6328892211
 30
0.0
 11
49.0247096118
 21
1106.447134839
 31
0.0
  0
ELLIPSE
  5
120
330
75
100
AcDbEntity
  8
$DDT_AUDIT_GENERATED_(B1)
  6
Continuous
 62
     7
100
AcDbEllipse
 10
42.9440074715
 20
1107.4784800961
 30
0.0
 11
8.499999727203354
 21
3.386257940718451E-8
 31
0.0
210
0.0
220
0.0
230
1.0
 40
0.1736481754
 41
-1.058962540602419
 42
-1.035432585422131
  0
ELLIPSE
  5
121
330
75
100
AcDbEntity
  8
$DDT_AUDIT_GENERATED_(B1)
  6
Continuous
 62
     7
100
AcDbEllipse
 10
42.9440072532
 20
1107.4784801618
 30
0.0
 11
8.500000000021366
 21
-2.470246229790973E-12
 31
0.0
210
0.0
220
0.0
230
1.0
 40
0.1736481777
 41
-1.035432573907309
 42
-0.7971631406847788
  0
LINE
  5
122
330
75
100
AcDbEntity
  8
$DDT_AUDIT_GENERATED_(B1)
  6
Continuous
 62
     7
100
AcDbLine
 10
47.2803156657
 20
1106.2089893027
 30
0.0
 11
47.2803156657
 21
1106.4999295456
 31
0.0
  0
LINE
  5
123
330
75
100
AcDbEntity
  8
$DDT_AUDIT_GENERATED_(B1)
  6
Continuous
 62
     7
100
AcDbLine
 10
46.4648115524
 20
1106.3848071376
 30
0.0
 11
47.107110585
 21
1106.1916244849
 31
0.0
  0
LINE
  5
124
330
75
100
AcDbEntity
  8
$DDT_AUDIT_GENERATED_(B1)
  6
Continuous
 62
     7
100
AcDbLine
 10
46.6289038069
 20
1106.404912797
 30
0.0
 11
47.2803156657
 21
1106.2089893027
 31
0.0
  0
ELLIPSE
  5
125
330
75
100
AcDbEntity
  8
$DDT_AUDIT_GENERATED_(B1)
  6
Continuous
 62
     7
100
AcDbEllipse
 10
42.9440073665
 20
1107.4784800885
 30
0.0
 11
8.499999766581997
 21
1.957048412215556E-8
 31
0.0
210
0.0
220
0.0
230
1.0
 40
0.1736481738
 41
-1.320761923429817
 42
-1.297231968247959
  0
ELLIPSE
  5
126
330
75
100
AcDbEntity
  8
$DDT_AUDIT_GENERATED_(B1)
  6
Continuous
 62
     7
100
AcDbEllipse
 10
42.9440072532
 20
1107.4784801618
 30
0.0
 11
8.500000000007978
 21
-9.992007221626409E-13
 31
0.0
210
0.0
220
0.0
230
1.0
 40
0.1736481777
 41
-1.297231961707272
 42
-1.058962528484514
  0
LINE
  5
127
330
75
100
AcDbEntity
  8
$DDT_AUDIT_GENERATED_(B1)
  6
Continuous
 62
     7
100
AcDbLine
 10
45.2404094674
 20
1106.0573574704
 30
0.0
 11
45.2404094674
 21
1106.2721306134
 31
0.0
  0
LINE
  5
128
330
75
100
AcDbEntity
  8
$DDT_AUDIT_GENERATED_(B1)
  6
Continuous
 62
     7
100
AcDbLine
 10
44.7478218078
 20
1106.2424007041
 30
0.0
 11
45.0472243022
 21
1106.0483687793
 31
0.0
  0
LINE
  5
129
330
75
100
AcDbEntity
  8
$DDT_AUDIT_GENERATED_(B1)
  6
Continuous
 62
     7
100
AcDbLine
 10
44.9385725888
 20
1106.2529670315
 30
0.0
 11
45.2404094674
 21
1106.0573574704
 31
0.0
  0
ARC
  5
12A
330
75
100
AcDbEntity
  8
$DDT_AUDIT_GENERATED_(B1)
  6
Continuous
 62
     7
100
AcDbCircle
 10
42.9440072532
 20
1136.7840777983
 30
0.0
 40
30.21725070590804
100
AcDbArc
 50
269.6681757198
 51
270.3318242802
  0
LINE
  5
12B
330
75
100
AcDbEntity
  8
$DDT_AUDIT_GENERATED_(B1)
  6
Continuous
 62
     7
100
AcDbLine
 10
42.7690072532
 20
1106.8049540081
 30
0.0
 11
42.7690072532
 21
1106.5673338436
 31
0.0
  0
LINE
  5
12C
330
75
100
AcDbEntity
  8
$DDT_AUDIT_GENERATED_(B1)
  6
Continuous
 62
     7
100
AcDbLine
 10
43.1190072532
 20
1106.8049540081
 30
0.0
 11
43.1190072532
 21
1106.5673338436
 31
0.0
  0
ELLIPSE
  5
12D
330
75
100
AcDbEntity
  8
$DDT_AUDIT_GENERATED_(B1)
  6
Continuous
 62
     7
100
AcDbEllipse
 10
42.9440072513
 20
1107.4784801612
 30
0.0
 11
-5.249999997668938
 21
2.911282326323317E-10
 31
0.0
210
0.0
220
0.0
230
1.0
 40
0.1736481776
 41
1.013858042087512
 42
1.080537060633768
  0
LINE
  5
12E
330
75
100
AcDbEntity
  8
$DDT_AUDIT_GENERATED_(B1)
  6
Continuous
 62
     7
100
AcDbLine
 10
40.9773203343
 20
1106.9477415822
 30
0.0
 11
40.1689115462
 21
1106.7045985192
 31
0.0
  0
LINE
  5
12F
330
75
100
AcDbEntity
  8
$DDT_AUDIT_GENERATED_(B1)
  6
Continuous
 62
     7
100
AcDbLine
 10
41.2434646646
 20
1106.9062354138
 30
0.0
 11
40.4720204375
 21
1106.6742100881
 31
0.0
  0
LINE
  5
130
330
75
100
AcDbEntity
  8
$DDT_AUDIT_GENERATED_(B1)
  6
Continuous
 62
     7
100
AcDbLine
 10
40.1689115462
 20
1107.1651711224
 30
0.0
 11
40.1689115462
 21
1106.7045985192
 31
0.0
  0
ELLIPSE
  5
131
330
75
100
AcDbEntity
  8
$DDT_AUDIT_GENERATED_(B1)
  6
Continuous
 62
     7
100
AcDbEllipse
 10
42.9440072501
 20
1107.4784801614
 30
0.0
 11
-5.249999996881943
 21
2.813027588643990E-10
 31
0.0
210
0.0
220
0.0
230
1.0
 40
0.1736481777
 41
0.4902592664819794
 42
0.5569382850271954
  0
LINE
  5
132
330
75
100
AcDbEntity
  8
$DDT_AUDIT_GENERATED_(B1)
  6
Continuous
 62
     7
100
AcDbLine
 10
40.2049486492
 20
1107.2389631273
 30
0.0
 11
38.3124004928
 21
1107.049224156
 31
0.0
  0
LINE
  5
133
330
75
100
AcDbEntity
  8
$DDT_AUDIT_GENERATED_(B1)
  6
Continuous
 62
     7
100
AcDbLine
 10
40.2637216833
 20
1107.1746763907
 30
0.0
 11
38.4874004928
 21
1106.9965898494
 31
0.0
  0
LINE
  5
134
330
75
100
AcDbEntity
  8
$DDT_AUDIT_GENERATED_(B1)
  6
Continuous
 62
     7
100
AcDbLine
 10
38.3124004928
 20
1107.4480917307
 30
0.0
 11
38.3124004928
 21
1107.049224156
 31
0.0
  0
LINE
  5
135
330
75
100
AcDbEntity
  8
$DDT_AUDIT_GENERATED_(B1)
  6
Continuous
 62
     7
100
AcDbLine
 10
40.1995810837
 20
1107.7185353259
 30
0.0
 11
40.1995810837
 21
1107.5088685928
 31
0.0
  0
ELLIPSE
  5
136
330
75
100
AcDbEntity
  8
$DDT_AUDIT_GENERATED_(B1)
  6
Continuous
 62
     7
100
AcDbEllipse
 10
42.9440072532
 20
1107.4784801618
 30
0.0
 11
2.750000000007867
 21
0.0
 31
0.0
210
0.0
220
0.0
230
1.0
 40
0.1736481777
 41
3.077913261332879
 42
3.141592653590269
  0
LINE
  5
137
330
75
100
AcDbEntity
  8
$DDT_AUDIT_GENERATED_(B1)
  6
Continuous
 62
     7
100
AcDbLine
 10
40.1995810837
 20
1107.5088685928
 30
0.0
 11
37.8598802117
 21
1107.5088685928
 31
0.0
  0
LINE
  5
138
330
75
100
AcDbEntity
  8
$DDT_AUDIT_GENERATED_(B1)
  6
Continuous
 62
     7
100
AcDbLine
 10
40.1940072532
 20
1107.4480917307
 30
0.0
 11
37.7823866522
 21
1107.4480917307
 31
0.0
  0
LINE
  5
139
330
75
100
AcDbEntity
  8
$DDT_AUDIT_GENERATED_(B1)
  6
Continuous
 62
     7
100
AcDbLine
 10
40.6547644716
 20
1108.1019372017
 30
0.0
 11
40.6547644716
 21
1107.7430796166
 31
0.0
  0
ELLIPSE
  5
13A
330
75
100
AcDbEntity
  8
$DDT_AUDIT_GENERATED_(B1)
  6
Continuous
 62
     7
100
AcDbEllipse
 10
42.9440072533
 20
1107.4784801617
 30
0.0
 11
-2.750000000081385
 21
3.469446951953614E-12
 31
0.0
210
0.0
220
0.0
230
1.0
 40
0.1736481777
 41
-0.5872781678467254
 42
-0.4599193833348938
  0
LINE
  5
13B
330
75
100
AcDbEntity
  8
$DDT_AUDIT_GENERATED_(B1)
  6
Continuous
 62
     7
100
AcDbLine
 10
40.6547644716
 20
1107.7430796166
 30
0.0
 11
39.0878630683
 21
1107.900170605
 31
0.0
  0
LINE
  5
13C
330
75
100
AcDbEntity
  8
$DDT_AUDIT_GENERATED_(B1)
  6
Continuous
 62
     7
100
AcDbLine
 10
40.4797644716
 20
1107.69044531
 30
0.0
 11
38.8550962302
 21
1107.8533277602
 31
0.0
  0
LINE
  5
13D
330
75
100
AcDbEntity
  8
$DDT_AUDIT_GENERATED_(B1)
  6
Continuous
 62
     7
100
AcDbLine
 10
41.7233486141
 20
1108.1681875718
 30
0.0
 11
41.7233486141
 21
1107.9063914301
 31
0.0
  0
ELLIPSE
  5
13E
330
75
100
AcDbEntity
  8
$DDT_AUDIT_GENERATED_(B1)
  6
Continuous
 62
     7
100
AcDbEllipse
 10
42.9440072532
 20
1107.4784801618
 30
0.0
 11
-2.749999999999898
 21
8.326672684688674E-14
 31
0.0
210
0.0
220
0.0
230
1.0
 40
0.1736481777
 41
-1.110876943453593
 42
-0.9835181589395567
  0
LINE
  5
13F
330
75
100
AcDbEntity
  8
$DDT_AUDIT_GENERATED_(B1)
  6
Continuous
 62
     7
100
AcDbLine
 10
41.7233486141
 20
1107.9063914301
 30
0.0
 11
40.9880678435
 21
1108.1275399645
 31
0.0
  0
LINE
  5
140
330
75
100
AcDbEntity
  8
$DDT_AUDIT_GENERATED_(B1)
  6
Continuous
 62
     7
100
AcDbLine
 10
41.4202397228
 20
1107.876002999
 30
0.0
 11
40.6659325806
 21
1108.102874047
 31
0.0
  0
ARC
  5
141
330
75
100
AcDbEntity
  8
$DDT_AUDIT_GENERATED_(B1)
  6
Continuous
 62
     7
100
AcDbCircle
 10
42.9440072532
 20
1092.1505243465
 30
0.0
 40
15.80548925698506
100
AcDbArc
 50
89.3656022836
 51
90.6343977164
  0
LINE
  5
142
330
75
100
AcDbEntity
  8
$DDT_AUDIT_GENERATED_(B1)
  6
Continuous
 62
     7
100
AcDbLine
 10
43.1190072532
 20
1107.9550447648
 30
0.0
 11
43.1190072532
 21
1108.1926649293
 31
0.0
  0
LINE
  5
143
330
75
100
AcDbEntity
  8
$DDT_AUDIT_GENERATED_(B1)
  6
Continuous
 62
     7
100
AcDbLine
 10
42.7690072532
 20
1107.9550447648
 30
0.0
 11
42.7690072532
 21
1108.1926649293
 31
0.0
  0
ELLIPSE
  5
144
330
75
100
AcDbEntity
  8
$DDT_AUDIT_GENERATED_(B1)
  6
Continuous
 62
     7
100
AcDbEllipse
 10
42.9440072532
 20
1107.4784801618
 30
0.0
 11
2.749999999997459
 21
-2.498001805406602E-13
 31
0.0
210
0.0
220
0.0
230
1.0
 40
0.1736481777
 41
0.9835181589399712
 42
1.11087694345408
  0
LINE
  5
145
330
75
100
AcDbEntity
  8
$DDT_AUDIT_GENERATED_(B1)
  6
Continuous
 62
     7
100
AcDbLine
 10
44.1646658923
 20
1108.1681875718
 30
0.0
 11
44.1646658923
 21
1107.9063914301
 31
0.0
  0
LINE
  5
146
330
75
100
AcDbEntity
  8
$DDT_AUDIT_GENERATED_(B1)
  6
Continuous
 62
     7
100
AcDbLine
 10
44.4677747836
 20
1107.876002999
 30
0.0
 11
45.2220819258
 21
1108.102874047
 31
0.0
  0
LINE
  5
147
330
75
100
AcDbEntity
  8
$DDT_AUDIT_GENERATED_(B1)
  6
Continuous
 62
     7
100
AcDbLine
 10
44.1646658923
 20
1107.9063914301
 30
0.0
 11
44.8999466629
 21
1108.1275399645
 31
0.0
  0
ELLIPSE
  5
148
330
75
100
AcDbEntity
  8
$DDT_AUDIT_GENERATED_(B1)
  6
Continuous
 62
     7
100
AcDbEllipse
 10
42.9440072532
 20
1107.4784801618
 30
0.0
 11
2.749999999950635
 21
-1.998401444325282E-12
 31
0.0
210
0.0
220
0.0
230
1.0
 40
0.1736481777
 41
0.4599193833451563
 42
0.5872781678605504
  0
LINE
  5
149
330
75
100
AcDbEntity
  8
$DDT_AUDIT_GENERATED_(B1)
  6
Continuous
 62
     7
100
AcDbLine
 10
45.2332500348
 20
1108.1019372017
 30
0.0
 11
45.2332500348
 21
1107.7430796166
 31
0.0
  0
LINE
  5
14A
330
75
100
AcDbEntity
  8
$DDT_AUDIT_GENERATED_(B1)
  6
Continuous
 62
     7
100
AcDbLine
 10
45.4082500348
 20
1107.69044531
 30
0.0
 11
47.0329182761
 21
1107.8533277602
 31
0.0
  0
LINE
  5
14B
330
75
100
AcDbEntity
  8
$DDT_AUDIT_GENERATED_(B1)
  6
Continuous
 62
     7
100
AcDbLine
 10
45.2332500348
 20
1107.7430796166
 30
0.0
 11
46.8001514381
 21
1107.900170605
 31
0.0
  0
ELLIPSE
  5
14C
330
75
100
AcDbEntity
  8
$DDT_AUDIT_GENERATED_(B1)
  6
Continuous
 62
     7
100
AcDbEllipse
 10
42.9440072532
 20
1107.4784801618
 30
0.0
 11
-2.750000000009519
 21
0.0
 31
0.0
210
0.0
220
0.0
230
1.0
 40
0.1736481777
 41
3.141592653589317
 42
3.205272045846665
  0
LINE
  5
14D
330
75
100
AcDbEntity
  8
$DDT_AUDIT_GENERATED_(B1)
  6
Continuous
 62
     7
100
AcDbLine
 10
45.6884334227
 20
1107.7185353259
 30
0.0
 11
45.6884334227
 21
1107.5088685928
 31
0.0
  0
LINE
  5
14E
330
75
100
AcDbEntity
  8
$DDT_AUDIT_GENERATED_(B1)
  6
Continuous
 62
     7
100
AcDbLine
 10
45.6940072532
 20
1107.4480917307
 30
0.0
 11
48.1056278542
 21
1107.4480917307
 31
0.0
  0
LINE
  5
14F
330
75
100
AcDbEntity
  8
$DDT_AUDIT_GENERATED_(B1)
  6
Continuous
 62
     7
100
AcDbLine
 10
45.6884334227
 20
1107.5088685928
 30
0.0
 11
48.0281342946
 21
1107.5088685928
 31
0.0
  0
ELLIPSE
  5
150
330
75
100
AcDbEntity
  8
$DDT_AUDIT_GENERATED_(B1)
  6
Continuous
 62
     7
100
AcDbEllipse
 10
42.9440072559
 20
1107.4784801615
 30
0.0
 11
5.249999997264953
 21
2.473021787352536E-10
 31
0.0
210
0.0
220
0.0
230
1.0
 40
0.1736481777
 41
-0.5569382850066598
 42
-0.4902592664642427
  0
LINE
  5
151
330
75
100
AcDbEntity
  8
$DDT_AUDIT_GENERATED_(B1)
  6
Continuous
 62
     7
100
AcDbLine
 10
45.6242928231
 20
1107.1746763907
 30
0.0
 11
47.4006140136
 21
1106.9965898494
 31
0.0
  0
LINE
  5
152
330
75
100
AcDbEntity
  8
$DDT_AUDIT_GENERATED_(B1)
  6
Continuous
 62
     7
100
AcDbLine
 10
45.6830658572
 20
1107.2389631273
 30
0.0
 11
47.5756140136
 21
1107.049224156
 31
0.0
  0
LINE
  5
153
330
75
100
AcDbEntity
  8
$DDT_AUDIT_GENERATED_(B1)
  6
Continuous
 62
     7
100
AcDbLine
 10
47.5756140136
 20
1107.4480917307
 30
0.0
 11
47.5756140136
 21
1107.049224156
 31
0.0
  0
ELLIPSE
  5
154
330
75
100
AcDbEntity
  8
$DDT_AUDIT_GENERATED_(B1)
  6
Continuous
 62
     7
100
AcDbEllipse
 10
42.9440072529
 20
1107.4784801619
 30
0.0
 11
5.250000000412848
 21
-4.982125823005390E-11
 31
0.0
210
0.0
220
0.0
230
1.0
 40
0.1736481777
 41
-1.08053706042671
 42
-1.013858041908337
  0
LINE
  5
155
330
75
100
AcDbEntity
  8
$DDT_AUDIT_GENERATED_(B1)
  6
Continuous
 62
     7
100
AcDbLine
 10
44.6445498418
 20
1106.9062354138
 30
0.0
 11
45.4159940689
 21
1106.6742100881
 31
0.0
  0
LINE
  5
156
330
75
100
AcDbEntity
  8
$DDT_AUDIT_GENERATED_(B1)
  6
Continuous
 62
     7
100
AcDbLine
 10
44.9106941721
 20
1106.9477415822
 30
0.0
 11
45.7191029602
 21
1106.7045985192
 31
0.0
  0
LINE
  5
157
330
75
100
AcDbEntity
  8
$DDT_AUDIT_GENERATED_(B1)
  6
Continuous
 62
     7
100
AcDbLine
 10
45.7191029602
 20
1107.1651711224
 30
0.0
 11
45.7191029602
 21
1106.7045985192
 31
0.0
  0
LINE
  5
158
330
75
100
AcDbEntity
  8
$DDT_AUDIT_GENERATED_(B1)
  6
Continuous
 62
     7
100
AcDbLine
 10
33.9440072532
 20
1108.5013088935
 30
0.0
 11
33.9440072532
 21
1107.2815186112
 31
0.0
  0
LINE
  5
159
330
75
100
AcDbEntity
  8
$DDT_AUDIT_GENERATED_(B1)
  6
Continuous
 62
     7
100
AcDbLine
 10
51.9440072532
 20
1107.2815186112
 30
0.0
 11
51.9440072532
 21
1108.5013088935
 31
0.0
  0
LINE
  5
15A
330
75
100
AcDbEntity
  8
$DDT_AUDIT_GENERATED_(B1)
  6
Continuous
 62
     7
100
AcDbLine
 10
36.6940072532
 20
1107.4784801618
 30
0.0
 11
36.6940072532
 21
1107.2815186112
 31
0.0
  0
LINE
  5
15B
330
75
100
AcDbEntity
  8
$DDT_AUDIT_GENERATED_(B1)
  6
Continuous
 62
     7
100
AcDbLine
 10
49.1940072532
 20
1107.2815186112
 30
0.0
 11
49.1940072532
 21
1107.4784801618
 31
0.0
  0
LINE
  5
15C
330
75
100
AcDbEntity
  8
$DDT_AUDIT_GENERATED_(B1)
  6
Continuous
 62
     7
100
AcDbLine
 10
40.1940072532
 20
1107.4784801618
 30
0.0
 11
40.1940072532
 21
1107.2815186112
 31
0.0
  0
LINE
  5
15D
330
75
100
AcDbEntity
  8
$DDT_AUDIT_GENERATED_(B1)
  6
Continuous
 62
     7
100
AcDbLine
 10
45.6940072532
 20
1107.2815186112
 30
0.0
 11
45.6940072532
 21
1107.4784801618
 31
0.0
  0
LINE
  5
15E
330
75
100
AcDbEntity
  8
$DDT_AUDIT_GENERATED_(B1)
  6
Continuous
 62
     7
100
AcDbLine
 10
42.4243773093
 20
1107.643794022
 30
0.0
 11
42.4243773093
 21
1107.4784801618
 31
0.0
  0
LINE
  5
15F
330
75
100
AcDbEntity
  8
$DDT_AUDIT_GENERATED_(B1)
  6
Continuous
 62
     7
100
AcDbLine
 10
43.4636371971
 20
1107.4784801618
 30
0.0
 11
43.4636371971
 21
1107.643794022
 31
0.0
  0
LINE
  5
161
330
75
100
AcDbEntity
  8
$DDT_AUDIT_GENERATED_(160)
  6
Continuous
 62
     7
100
AcDbLine
 10
111.1440072532
 20
989.9957514951
 30
0.0
 11
111.1440072532
 21
939.393714326
 31
0.0
  0
LINE
  5
162
330
75
100
AcDbEntity
  8
$DDT_AUDIT_GENERATED_(160)
  6
Continuous
 62
     7
100
AcDbLine
 10
87.8440072532
 20
939.1947329106
 30
0.0
 11
87.8440072532
 21
990.1947329106
 31
0.0
  0
LINE
  5
163
330
75
100
AcDbEntity
  8
$DDT_AUDIT_GENERATED_(160)
  6
Continuous
 62
     7
100
AcDbLine
 10
88.3439882167
 20
990.6903698667
 30
0.0
 11
88.3439882167
 21
938.6990959545
 31
0.0
  0
ARC
  5
164
330
75
100
AcDbEntity
  8
$DDT_AUDIT_GENERATED_(160)
  6
Continuous
 62
     7
100
AcDbCircle
 10
105.0740072532
 20
964.6947329106
 30
0.0
 40
25.00000000000012
100
AcDbArc
 50
74.7637306737
 51
75.9481422426
  0
ARC
  5
165
330
75
100
AcDbEntity
  8
$DDT_AUDIT_GENERATED_(160)
  6
Continuous
 62
     7
100
AcDbCircle
 10
105.0740072532
 20
964.6947329106
 30
0.0
 40
25.00000000000011
100
AcDbArc
 50
284.0518577574
 51
319.3621462048
  0
LINE
  5
166
330
75
100
AcDbEntity
  8
$DDT_AUDIT_GENERATED_(160)
  6
Continuous
 62
     7
100
AcDbLine
 10
88.3439882167
 20
938.6990959545
 30
0.0
 11
110.6483702971
 21
938.8937333626
 31
0.0
  0
LINE
  5
167
330
75
100
AcDbEntity
  8
$DDT_AUDIT_GENERATED_(160)
  6
Continuous
 62
     7
100
AcDbLine
 10
110.6483702971
 20
990.4957324586
 30
0.0
 11
88.3439882167
 21
990.6903698667
 31
0.0
  0
ARC
  5
168
330
75
100
AcDbEntity
  8
$DDT_AUDIT_GENERATED_(160)
  6
Continuous
 62
     7
100
AcDbCircle
 10
110.6440072532
 20
989.9957514951
 30
0.0
 40
0.5000000000000004
100
AcDbArc
 50
0.0
 51
89.500025649
  0
ARC
  5
169
330
75
100
AcDbEntity
  8
$DDT_AUDIT_GENERATED_(160)
  6
Continuous
 62
     7
100
AcDbCircle
 10
110.6440072532
 20
939.393714326
 30
0.0
 40
0.5000000000000024
100
AcDbArc
 50
270.499974351
 51
0.0
  0
LINE
  5
16A
330
75
100
AcDbEntity
  8
$DDT_AUDIT_GENERATED_(160)
  6
Continuous
 62
     7
100
AcDbLine
 10
88.3439882167
 20
990.6903698667
 30
0.0
 11
87.8440072532
 21
990.1947329106
 31
0.0
  0
LINE
  5
16B
330
75
100
AcDbEntity
  8
$DDT_AUDIT_GENERATED_(160)
  6
Continuous
 62
     7
100
AcDbLine
 10
87.8440072532
 20
939.1947329106
 30
0.0
 11
88.3439882167
 21
938.6990959545
 31
0.0
  0
LINE
  5
16D
330
75
100
AcDbEntity
  8
$DDT_AUDIT_GENERATED_(16C)
  6
Continuous
 62
     7
100
AcDbLine
 10
136.2882852704
 20
1045.8055201092
 30
0.0
 11
136.2882852704
 21
991.8592891899
 31
0.0
  0
ARC
  5
16E
330
75
100
AcDbEntity
  8
$DDT_AUDIT_GENERATED_(16C)
  6
Continuous
 62
     7
100
AcDbCircle
 10
127.1093406898
 20
1045.8055201092
 30
0.0
 40
9.178944580626473
100
AcDbArc
 50
0.0
 51
180.0
  0
LINE
  5
16F
330
75
100
AcDbEntity
  8
$DDT_AUDIT_GENERATED_(16C)
  6
Continuous
 62
     7
100
AcDbLine
 10
117.9303961091
 20
991.8533411223
 30
0.0
 11
117.9303961091
 21
1045.8055201092
 31
0.0
  0
ARC
  5
170
330
75
100
AcDbEntity
  8
$DDT_AUDIT_GENERATED_(16C)
  6
Continuous
 62
     7
100
AcDbCircle
 10
291.73400434
 20
1057.486709344
 30
0.0
 40
200.0609259465882
100
AcDbArc
 50
206.0180280182
 51
216.4256378446
  0
LINE
  5
171
330
75
100
AcDbEntity
  8
$DDT_AUDIT_GENERATED_(16C)
  6
Continuous
 62
     7
100
AcDbLine
 10
111.6440072532
 20
990.6947329106
 30
0.0
 11
111.6440072532
 21
971.0451599203
 31
0.0
  0
ARC
  5
172
330
75
100
AcDbEntity
  8
$DDT_AUDIT_GENERATED_(16C)
  6
Continuous
 62
     7
100
AcDbCircle
 10
114.6440072505
 20
971.04515992
 30
0.0
 40
2.999999997318108
100
AcDbArc
 50
179.9999999942
 51
206.0180282733
  0
ARC
  5
173
330
75
100
AcDbEntity
  8
$DDT_AUDIT_GENERATED_(16C)
  6
Continuous
 62
     7
100
AcDbCircle
 10
136.7993856813
 20
912.475219844
 30
0.0
 40
26.42363409284835
100
AcDbArc
 50
82.8736830864
 51
97.1263180339
  0
ARC
  5
174
330
75
100
AcDbEntity
  8
$DDT_AUDIT_GENERATED_(16C)
  6
Continuous
 62
     7
100
AcDbCircle
 10
46.0440072532
 20
964.6337792404
 30
0.0
 40
100.0
100
AcDbArc
 50
345.2850576416
 51
0.0
  0
ARC
  5
175
330
75
100
AcDbEntity
  8
$DDT_AUDIT_GENERATED_(16C)
  6
Continuous
 62
     7
100
AcDbCircle
 10
46.0440072532
 20
964.6337792404
 30
0.0
 40
100.0
100
AcDbArc
 50
0.0
 51
14.7975383962
  0
LINE
  5
176
330
75
100
AcDbEntity
  8
$DDT_AUDIT_GENERATED_(16C)
  6
Continuous
 62
     7
100
AcDbLine
 10
116.7303961091
 20
990.6947329106
 30
0.0
 11
111.6440072532
 21
990.6947329106
 31
0.0
  0
LINE
  5
177
330
75
100
AcDbEntity
  8
$DDT_AUDIT_GENERATED_(16C)
  6
Continuous
 62
     7
100
AcDbLine
 10
142.0508399592
 20
990.6947329106
 30
0.0
 11
137.4882852704
 21
990.6947329106
 31
0.0
  0
LINE
  5
178
330
75
100
AcDbEntity
  8
$DDT_AUDIT_GENERATED_(16C)
  6
Continuous
 62
     7
100
AcDbLine
 10
140.0383847001
 20
938.6947329106
 30
0.0
 11
142.0829488306
 21
938.6947329106
 31
0.0
  0
LINE
  5
179
330
75
100
AcDbEntity
  8
$DDT_AUDIT_GENERATED_(16C)
  6
Continuous
 62
     7
100
AcDbLine
 10
130.7428913388
 20
938.6947329106
 30
0.0
 11
133.5213415659
 21
938.6947329106
 31
0.0
  0
ARC
  5
17A
330
75
100
AcDbEntity
  8
$DDT_AUDIT_GENERATED_(16C)
  6
Continuous
 62
     7
100
AcDbCircle
 10
137.4882852704
 20
991.8947329106
 30
0.0
 40
1.2
100
AcDbArc
 50
180.0
 51
270.0
  0
ARC
  5
17B
330
75
100
AcDbEntity
  8
$DDT_AUDIT_GENERATED_(16C)
  6
Continuous
 62
     7
100
AcDbCircle
 10
116.7303961091
 20
991.8947329106
 30
0.0
 40
1.2
100
AcDbArc
 50
270.0
 51
0.0
  0
SPLINE
  5
17C
330
75
100
AcDbEntity
  8
$DDT_AUDIT_GENERATED_(16C)
  6
Continuous
 62
     7
100
AcDbSpline
210
0.0
220
0.0
230
1.0
 70
     8
 71
     3
 72
    13
 73
     9
 74
     0
 42
0.0000000106382361
 43
0.0000000001
 40
0.0
 40
0.0
 40
0.0
 40
0.0
 40
0.126379619958145
 40
0.3789062733844389
 40
0.5827869241667906
 40
0.7548961131575042
 40
0.898771646968143
 40
1.0
 40
1.0
 40
1.0
 40
1.0
 10
142.0829269927629
 20
938.7102941647354
 30
0.0
 10
142.1258403452825
 20
938.7072227848954
 30
0.0
 10
142.2365669866267
 20
938.7007055325444
 30
0.0
 10
142.4144613442039
 20
938.7715939980229
 30
0.0
 10
142.571397896027
 20
938.8869927715187
 30
0.0
 10
142.6729315861424
 20
939.012833332301
 30
0.0
 10
142.7338563413639
 20
939.1309085323356
 30
0.0
 10
142.7530207091369
 20
939.1990584097522
 30
0.0
 10
142.7619693639
 20
939.2322892678227
 30
0.0
  0
ARC
  5
17D
330
75
100
AcDbEntity
  8
$DDT_AUDIT_GENERATED_(16C)
  6
Continuous
 62
     7
100
AcDbCircle
 10
142.0669354233
 20
990.0046562721
 30
0.0
 40
0.6785440815983395
100
AcDbArc
 50
10.2337077781
 51
91.5254448162
  0
ENDBLK
  5
17F
330
75
100
AcDbEntity
  8
0
100
AcDbBlockEnd
  0
BLOCK
  5
1BA
330
180
100
AcDbEntity
  8
0
100
AcDbBlockBegin
  2
SE1
 70
     0
 10
0.0
 20
0.0
 30
0.0
  3
SE1
  1

  0
CIRCLE
  5
182
330
180
100
AcDbEntity
  8
$DDT_AUDIT_GENERATED_(77)
  6
Continuous
 62
     7
100
AcDbCircle
 10
235.8743749351
 20
964.6947329106
 30
0.0
 40
26.0
  0
LINE
  5
183
330
180
100
AcDbEntity
  8
$DDT_AUDIT_GENERATED_(84)
  6
Continuous
 62
     7
100
AcDbLine
 10
253.8743749351
 20
880.9947329106
 30
0.0
 11
217.8743749351
 21
880.9947329106
 31
0.0
  0
LINE
  5
184
330
180
100
AcDbEntity
  8
$DDT_AUDIT_GENERATED_(84)
  6
Continuous
 62
     7
100
AcDbLine
 10
217.8743749351
 20
945.9330698713
 30
0.0
 11
217.8743749351
 21
880.9947329106
 31
0.0
  0
LINE
  5
185
330
180
100
AcDbEntity
  8
$DDT_AUDIT_GENERATED_(84)
  6
Continuous
 62
     7
100
AcDbLine
 10
253.8743749351
 20
880.9947329106
 30
0.0
 11
253.8743749351
 21
945.9330698713
 31
0.0
  0
LINE
  5
186
330
180
100
AcDbEntity
  8
$DDT_AUDIT_GENERATED_(88)
  6
Continuous
 62
     7
100
AcDbLine
 10
262.8743749351
 20
876.4947329106
 30
0.0
 11
208.8743749351
 21
876.4947329106
 31
0.0
  0
LINE
  5
187
330
180
100
AcDbEntity
  8
$DDT_AUDIT_GENERATED_(88)
  6
Continuous
 62
     7
100
AcDbLine
 10
253.8743749351
 20
880.9947329106
 30
0.0
 11
217.8743749351
 21
880.9947329106
 31
0.0
  0
LINE
  5
188
330
180
100
AcDbEntity
  8
$DDT_AUDIT_GENERATED_(88)
  6
Continuous
 62
     7
100
AcDbLine
 10
208.8743749351
 20
879.375751482
 30
0.0
 11
208.8743749351
 21
876.4947329106
 31
0.0
  0
LINE
  5
189
330
180
100
AcDbEntity
  8
$DDT_AUDIT_GENERATED_(88)
  6
Continuous
 62
     7
100
AcDbLine
 10
262.8743749351
 20
876.4947329106
 30
0.0
 11
262.8743749351
 21
879.375751482
 31
0.0
  0
ARC
  5
18A
330
180
100
AcDbEntity
  8
$DDT_AUDIT_GENERATED_(88)
  6
Continuous
 62
     7
100
AcDbCircle
 10
226.5771204481
 20
781.3741415625
 30
0.0
 40
100.0
100
AcDbArc
 50
94.9926216254
 51
99.9560038527
  0
ARC
  5
18B
330
180
100
AcDbEntity
  8
$DDT_AUDIT_GENERATED_(88)
  6
Continuous
 62
     7
100
AcDbCircle
 10
245.171629422
 20
781.3741415625
 30
0.0
 40
100.0
100
AcDbArc
 50
80.0439961473
 51
85.0073783746
  0
ARC
  5
18C
330
180
100
AcDbEntity
  8
$DDT_AUDIT_GENERATED_(88)
  6
Continuous
 62
     7
100
AcDbCircle
 10
262.3743749351
 20
879.375751482
 30
0.0
 40
0.5000000000000004
100
AcDbArc
 50
0.0
 51
80.0439961473
  0
ARC
  5
18D
330
180
100
AcDbEntity
  8
$DDT_AUDIT_GENERATED_(88)
  6
Continuous
 62
     7
100
AcDbCircle
 10
209.3743749351
 20
879.375751482
 30
0.0
 40
0.5000000000000148
100
AcDbArc
 50
99.9560038527
 51
180.0
  0
LINE
  5
18E
330
180
100
AcDbEntity
  8
$DDT_AUDIT_GENERATED_(91)
  6
Continuous
 62
     7
100
AcDbLine
 10
249.3743749351
 20
1006.6947329106
 30
0.0
 11
222.3743749351
 21
1006.6947329106
 31
0.0
  0
LINE
  5
18F
330
180
100
AcDbEntity
  8
$DDT_AUDIT_GENERATED_(91)
  6
Continuous
 62
     7
100
AcDbLine
 10
222.3743749351
 20
1002.3447329106
 30
0.0
 11
232.9743749351
 21
1002.3447329106
 31
0.0
  0
LINE
  5
190
330
180
100
AcDbEntity
  8
$DDT_AUDIT_GENERATED_(91)
  6
Continuous
 62
     7
100
AcDbLine
 10
232.9743749351
 20
1002.3447329106
 30
0.0
 11
232.9743749351
 21
1003.8947329106
 31
0.0
  0
LINE
  5
191
330
180
100
AcDbEntity
  8
$DDT_AUDIT_GENERATED_(91)
  6
Continuous
 62
     7
100
AcDbLine
 10
232.9743749351
 20
1003.8947329106
 30
0.0
 11
222.3743749351
 21
1003.8947329106
 31
0.0
  0
LINE
  5
192
330
180
100
AcDbEntity
  8
$DDT_AUDIT_GENERATED_(91)
  6
Continuous
 62
     7
100
AcDbLine
 10
222.3743749351
 20
1002.3447329106
 30
0.0
 11
222.3743749351
 21
986.9152189539
 31
0.0
  0
LINE
  5
193
330
180
100
AcDbEntity
  8
$DDT_AUDIT_GENERATED_(91)
  6
Continuous
 62
     7
100
AcDbLine
 10
222.3743749351
 20
1006.6947329106
 30
0.0
 11
222.3743749351
 21
1003.8947329106
 31
0.0
  0
LINE
  5
194
330
180
100
AcDbEntity
  8
$DDT_AUDIT_GENERATED_(91)
  6
Continuous
 62
     7
100
AcDbLine
 10
249.3743749351
 20
986.9152189539
 30
0.0
 11
249.3743749351
 21
1006.6947329106
 31
0.0
  0
LINE
  5
195
330
180
100
AcDbEntity
  8
$DDT_AUDIT_GENERATED_(95)
  6
Continuous
 62
     7
100
AcDbLine
 10
445.2870540173
 20
1122.7307173746
 30
0.0
 11
466.9528245836
 21
1126.5509772832
 31
0.0
  0
ARC
  5
196
330
180
100
AcDbEntity
  8
$DDT_AUDIT_GENERATED_(95)
  6
Continuous
 62
     7
100
AcDbCircle
 10
346.3743749351
 20
1110.6947329106
 30
0.0
 40
98.99999999999999
100
AcDbArc
 50
90.0
 51
180.0
  0
ARC
  5
197
330
180
100
AcDbEntity
  8
$DDT_AUDIT_GENERATED_(95)
  6
Continuous
 62
     7
100
AcDbCircle
 10
346.3743749351
 20
1110.6947329106
 30
0.0
 40
99.0
100
AcDbArc
 50
10.0
 51
90.0
  0
ARC
  5
198
330
180
100
AcDbEntity
  8
$DDT_AUDIT_GENERATED_(95)
  6
Continuous
 62
     7
100
AcDbCircle
 10
346.3743749351
 20
1110.6947329106
 30
0.0
 40
122.0
100
AcDbArc
 50
10.0
 51
180.0
  0
LINE
  5
199
330
180
100
AcDbEntity
  8
$DDT_AUDIT_GENERATED_(95)
  6
Continuous
 62
     7
100
AcDbLine
 10
247.3743749351
 20
1006.6947329106
 30
0.0
 11
247.3743749351
 21
1110.6947329106
 31
0.0
  0
LINE
  5
19A
330
180
100
AcDbEntity
  8
$DDT_AUDIT_GENERATED_(95)
  6
Continuous
 62
     7
100
AcDbLine
 10
224.3743749351
 20
1110.6947329106
 30
0.0
 11
224.3743749351
 21
1006.6947329106
 31
0.0
  0
LINE
  5
19B
330
180
100
AcDbEntity
  8
$DDT_AUDIT_GENERATED_(95)
  6
Continuous
 62
     7
100
AcDbLine
 10
467.2155135132
 20
1127.9405795739
 30
0.0
 11
466.5209208025
 21
1131.879810586
 31
0.0
  0
LINE
  5
19C
330
180
100
AcDbEntity
  8
$DDT_AUDIT_GENERATED_(95)
  6
Continuous
 62
     7
100
AcDbLine
 10
443.8703424833
 20
1127.8859024996
 30
0.0
 11
444.5649351939
 21
1123.9466714876
 31
0.0
  0
ARC
  5
19D
330
180
100
AcDbEntity
  8
$DDT_AUDIT_GENERATED_(95)
  6
Continuous
 62
     7
100
AcDbCircle
 10
465.2458980072
 20
1127.5932832186
 30
0.0
 40
2.000000000012557
100
AcDbArc
 50
328.5903778909
 51
10.0
  0
ARC
  5
19E
330
180
100
AcDbEntity
  8
$DDT_AUDIT_GENERATED_(95)
  6
Continuous
 62
     7
100
AcDbCircle
 10
446.5345507
 20
1124.2939678429
 30
0.0
 40
2.000000000012636
100
AcDbArc
 50
190.0
 51
231.4096221091
  0
LINE
  5
19F
330
180
100
AcDbEntity
  8
$DDT_AUDIT_GENERATED_(95)
  6
Continuous
 62
     7
100
AcDbLine
 10
466.9835819032
 20
1126.3765438556
 30
0.0
 11
466.9528245836
 21
1126.5509772832
 31
0.0
  0
LINE
  5
1A0
330
180
100
AcDbEntity
  8
$DDT_AUDIT_GENERATED_(95)
  6
Continuous
 62
     7
100
AcDbLine
 10
445.2870540173
 20
1122.7307173746
 30
0.0
 11
445.3178113369
 21
1122.5562839469
 31
0.0
  0
LINE
  5
1A1
330
180
100
AcDbEntity
  8
$DDT_AUDIT_GENERATED_(95)
  6
Continuous
 62
     7
100
AcDbLine
 10
466.9835819032
 20
1126.3765438556
 30
0.0
 11
445.3178113369
 21
1122.5562839469
 31
0.0
  0
LINE
  5
1A3
330
180
100
AcDbEntity
  8
$DDT_AUDIT_GENERATED_(1A2)
  6
Continuous
 62
     7
100
AcDbLine
 10
232.9743749351
 20
1003.7947329106
 30
0.0
 11
227.2243749351
 21
1003.7947329106
 31
0.0
  0
LINE
  5
1A4
330
180
100
AcDbEntity
  8
$DDT_AUDIT_GENERATED_(1A2)
  6
Continuous
 62
     7
100
AcDbLine
 10
228.5243749351
 20
1003.7947329106
 30
0.0
 11
228.5243749351
 21
1003.5697329106
 31
0.0
  0
LINE
  5
1A5
330
180
100
AcDbEntity
  8
$DDT_AUDIT_GENERATED_(1A2)
  6
Continuous
 62
     7
100
AcDbLine
 10
227.2243749351
 20
1003.8947329106
 30
0.0
 11
227.2243749351
 21
1003.7947329106
 31
0.0
  0
LINE
  5
1A7
330
180
100
AcDbEntity
  8
$DDT_AUDIT_GENERATED_(1A6)
  6
Continuous
 62
     7
100
AcDbLine
 10
232.3767273099
 20
1003.5697329106
 30
0.0
 11
222.3743749351
 21
1003.5697329106
 31
0.0
  0
LINE
  5
1A8
330
180
100
AcDbEntity
  8
$DDT_AUDIT_GENERATED_(1A6)
  6
Continuous
 62
     7
100
AcDbLine
 10
232.3767273099
 20
1003.5697329106
 30
0.0
 11
232.8767273099
 21
1003.5697329106
 31
0.0
  0
LINE
  5
1A9
330
180
100
AcDbEntity
  8
$DDT_AUDIT_GENERATED_(1A6)
  6
Continuous
 62
     7
100
AcDbLine
 10
232.3767273099
 20
1002.0697329106
 30
0.0
 11
222.3743749351
 21
1002.0697329106
 31
0.0
  0
LINE
  5
1AA
330
180
100
AcDbEntity
  8
$DDT_AUDIT_GENERATED_(1A6)
  6
Continuous
 62
     7
100
AcDbLine
 10
232.8767273099
 20
1003.5697329106
 30
0.0
 11
232.8767273099
 21
1002.3447329106
 31
0.0
  0
LINE
  5
1AB
330
180
100
AcDbEntity
  8
$DDT_AUDIT_GENERATED_(1A6)
  6
Continuous
 62
     7
100
AcDbLine
 10
232.3767273099
 20
1003.5697329106
 30
0.0
 11
232.3767273099
 21
1002.0697329106
 31
0.0
  0
LINE
  5
1AC
330
180
100
AcDbEntity
  8
$DDT_AUDIT_GENERATED_(1A6)
  6
Continuous
 62
     7
100
AcDbLine
 10
222.3743749351
 20
1003.5697329106
 30
0.0
 11
222.3743749351
 21
1002.0697329106
 31
0.0
  0
LINE
  5
1AD
330
180
100
AcDbEntity
  8
$DDT_AUDIT_GENERATED_(A4)
  6
Continuous
 62
     7
100
AcDbLine
 10
448.7622342338
 20
1105.9013762345
 30
0.0
 11
469.443197047
 21
1109.5479879655
 31
0.0
  0
LINE
  5
1AE
330
180
100
AcDbEntity
  8
$DDT_AUDIT_GENERATED_(A4)
  6
Continuous
 62
     7
100
AcDbLine
 10
467.3282646168
 20
1126.4373207177
 30
0.0
 11
444.9731286234
 21
1122.4955070847
 31
0.0
  0
ARC
  5
1AF
330
180
100
AcDbEntity
  8
$DDT_AUDIT_GENERATED_(A4)
  6
Continuous
 62
     7
100
AcDbCircle
 10
463.5216254469
 20
1114.3370369091
 30
0.0
 40
16.99999999999983
100
AcDbArc
 50
190.0
 51
209.7499227956
  0
ARC
  5
1B0
330
180
100
AcDbEntity
  8
$DDT_AUDIT_GENERATED_(A4)
  6
Continuous
 62
     7
100
AcDbCircle
 10
452.6887401638
 20
1112.4269069548
 30
0.0
 40
16.9999999999998
100
AcDbArc
 50
350.2500772044
 51
10.0
  0
LINE
  5
1B1
330
180
100
AcDbEntity
  8
$DDT_AUDIT_GENERATED_(A4)
  6
Continuous
 62
     7
100
AcDbLine
 10
469.430471965
 20
1115.3789259752
 30
0.0
 11
467.5020330064
 21
1126.3156467814
 31
0.0
  0
LINE
  5
1B2
330
180
100
AcDbEntity
  8
$DDT_AUDIT_GENERATED_(A4)
  6
Continuous
 62
     7
100
AcDbLine
 10
444.8514546871
 20
1122.3217386951
 30
0.0
 11
446.7798936457
 21
1111.3850178888
 31
0.0
  0
ARC
  5
1B3
330
180
100
AcDbEntity
  8
$DDT_AUDIT_GENERATED_(A4)
  6
Continuous
 62
     7
100
AcDbCircle
 10
467.3543118434
 20
1126.2895995548
 30
0.0
 40
0.1500000000000037
100
AcDbArc
 50
10.0
 51
100.0
  0
ARC
  5
1B4
330
180
100
AcDbEntity
  8
$DDT_AUDIT_GENERATED_(A4)
  6
Continuous
 62
     7
100
AcDbCircle
 10
444.99917585
 20
1122.3477859217
 30
0.0
 40
0.1500000000000037
100
AcDbArc
 50
100.0
 51
190.0
  0
LINE
  5
1B5
330
180
100
AcDbEntity
  8
$DDT_AUDIT_GENERATED_(B1)
  6
Continuous
 62
     7
100
AcDbLine
 10
468.0441270975
 20
1108.8443522102
 30
0.0
 11
450.3175875432
 21
1105.7186850121
 31
0.0
  0
LINE
  5
1B6
330
180
100
AcDbEntity
  8
$DDT_AUDIT_GENERATED_(B1)
  6
Continuous
 62
     7
100
AcDbLine
 10
450.2394458633
 20
1106.161848501
 30
0.0
 11
450.3175875432
 21
1105.7186850121
 31
0.0
  0
LINE
  5
1B7
330
180
100
AcDbEntity
  8
$DDT_AUDIT_GENERATED_(B1)
  6
Continuous
 62
     7
100
AcDbLine
 10
468.0441270975
 20
1108.8443522102
 30
0.0
 11
467.9659854175
 21
1109.287515699
 31
0.0
  0
ARC
  5
1B8
330
180
100
AcDbEntity
  8
$DDT_AUDIT_GENERATED_(16C)
  6
Continuous
 62
     7
100
AcDbCircle
 10
235.8743749351
 20
964.6947329106
 30
0.0
 40
26.0
100
AcDbArc
 50
168.8351054873
 51
176.6702187662
  0
ARC
  5
1B9
330
180
100
AcDbEntity
  8
$DDT_AUDIT_GENERATED_(16C)
  6
Continuous
 62
     7
100
AcDbCircle
 10
235.8743749351
 20
964.6947329106
 30
0.0
 40
26.0
100
AcDbArc
 50
3.8647611052
 51
11.1648945128
  0
ENDBLK
  5
1BB
330
180
100
AcDbEntity
  8
0
100
AcDbBlockEnd
  0
BLOCK
  5
1F9
330
1BC
100
AcDbEntity
  8
0
100
AcDbBlockBegin
  2
SE2
 70
     0
 10
0.0
 20
0.0
 30
0.0
  3
SE2
  1

  0
LINE
  5
1BE
330
1BC
100
AcDbEntity
  8
$DDT_AUDIT_GENERATED_(77)
  6
Continuous
 62
     7
100
AcDbLine
 10
87.8440072532
 20
314.6643652287
 30
0.0
 11
87.8440072532
 21
365.6643652287
 31
0.0
  0
ARC
  5
1BF
330
1BC
100
AcDbEntity
  8
$DDT_AUDIT_GENERATED_(77)
  6
Continuous
 62
     7
100
AcDbCircle
 10
42.9440072532
 20
340.1643652287
 30
0.0
 40
13.55
100
AcDbArc
 50
328.2968551007
 51
0.0
  0
ARC
  5
1C0
330
1BC
100
AcDbEntity
  8
$DDT_AUDIT_GENERATED_(77)
  6
Continuous
 62
     7
100
AcDbCircle
 10
42.9440072532
 20
340.1643652287
 30
0.0
 40
13.55
100
AcDbArc
 50
0.0
 51
211.894381728
  0
ARC
  5
1C1
330
1BC
100
AcDbEntity
  8
$DDT_AUDIT_GENERATED_(77)
  6
Continuous
 62
     7
100
AcDbCircle
 10
115.5040072532
 20
340.1643652287
 30
0.0
 40
100.0
100
AcDbArc
 50
165.1504721945
 51
194.8495278055
  0
ARC
  5
1C2
330
1BC
100
AcDbEntity
  8
$DDT_AUDIT_GENERATED_(77)
  6
Continuous
 62
     7
100
AcDbCircle
 10
87.3440072532
 20
314.6643652287
 30
0.0
 40
0.5000000000000004
100
AcDbArc
 50
270.0
 51
0.0
  0
ARC
  5
1C3
330
1BC
100
AcDbEntity
  8
$DDT_AUDIT_GENERATED_(77)
  6
Continuous
 62
     7
100
AcDbCircle
 10
87.3440072532
 20
365.6643652287
 30
0.0
 40
0.5000000000000004
100
AcDbArc
 50
0.0
 51
90.0
  0
ARC
  5
1C4
330
1BC
100
AcDbEntity
  8
$DDT_AUDIT_GENERATED_(77)
  6
Continuous
 62
     7
100
AcDbCircle
 10
19.3270869448
 20
365.6643652287
 30
0.0
 40
0.5000000000000004
100
AcDbArc
 50
90.0
 51
165.1504721945
  0
ARC
  5
1C5
330
1BC
100
AcDbEntity
  8
$DDT_AUDIT_GENERATED_(77)
  6
Continuous
 62
     7
100
AcDbCircle
 10
19.3270869448
 20
314.6643652287
 30
0.0
 40
0.4999999999999919
100
AcDbArc
 50
194.8495278055
 51
270.0
  0
LINE
  5
1C6
330
1BC
100
AcDbEntity
  8
$DDT_AUDIT_GENERATED_(77)
  6
Continuous
 62
     7
100
AcDbLine
 10
87.3440072532
 20
366.1643652287
 30
0.0
 11
19.3270869448
 21
366.1643652287
 31
0.0
  0
LINE
  5
1C7
330
1BC
100
AcDbEntity
  8
$DDT_AUDIT_GENERATED_(77)
  6
Continuous
 62
     7
100
AcDbLine
 10
19.3270869448
 20
314.1643652287
 30
0.0
 11
31.4440072532
 21
314.1643652287
 31
0.0
  0
LINE
  5
1C8
330
1BC
100
AcDbEntity
  8
$DDT_AUDIT_GENERATED_(77)
  6
Continuous
 62
     7
100
AcDbLine
 10
54.4440072532
 20
314.1643652287
 30
0.0
 11
87.3440072532
 21
314.1643652287
 31
0.0
  0
ARC
  5
1C9
330
1BC
100
AcDbEntity
  8
$DDT_AUDIT_GENERATED_(91)
  6
Continuous
 62
     7
100
AcDbCircle
 10
42.9440072532
 20
340.1643652287
 30
0.0
 40
13.5
100
AcDbArc
 50
0.0
 51
211.5863380965
  0
ARC
  5
1CA
330
1BC
100
AcDbEntity
  8
$DDT_AUDIT_GENERATED_(91)
  6
Continuous
 62
     7
100
AcDbCircle
 10
42.9440072532
 20
340.1643652287
 30
0.0
 40
13.5
100
AcDbArc
 50
328.4136619035
 51
0.0
  0
LINE
  5
1CC
330
1BC
100
AcDbEntity
  8
$DDT_AUDIT_GENERATED_(1CB)
  6
Continuous
 62
     7
100
AcDbLine
 10
56.1440072532
 20
337.1643652287
 30
0.0
 11
56.1440072532
 21
337.3341708891
 31
0.0
  0
LINE
  5
1CD
330
1BC
100
AcDbEntity
  8
$DDT_AUDIT_GENERATED_(1CB)
  6
Continuous
 62
     7
100
AcDbLine
 10
56.1440072532
 20
342.9945595683
 30
0.0
 11
56.1440072532
 21
343.1643652287
 31
0.0
  0
ARC
  5
1CE
330
1BC
100
AcDbEntity
  8
$DDT_AUDIT_GENERATED_(95)
  6
Continuous
 62
     7
100
AcDbCircle
 10
42.9440072532
 20
340.1643652287
 30
0.0
 40
11.5
100
AcDbArc
 50
0.0
 51
180.0
  0
ELLIPSE
  5
1CF
330
1BC
100
AcDbEntity
  8
$DDT_AUDIT_GENERATED_(95)
  6
Continuous
 62
     7
100
AcDbEllipse
 10
42.9440072532
 20
120.1485158102
 30
0.0
 11
-11.50000000000004
 21
-5.828670879282072E-13
 31
0.0
210
0.0
220
0.0
230
1.0
 40
0.984807753
 41
2.840984751524784
 42
3.141592653589793
  0
ELLIPSE
  5
1D0
330
1BC
100
AcDbEntity
  8
$DDT_AUDIT_GENERATED_(95)
  6
Continuous
 62
     7
100
AcDbEllipse
 10
42.9440072532
 20
120.1485158102
 30
0.0
 11
-11.50000000000004
 21
-5.828670879282072E-13
 31
0.0
210
0.0
220
0.0
230
1.0
 40
0.984807753
 41
0.0
 42
0.3071227999244928
  0
LINE
  5
1D1
330
1BC
100
AcDbEntity
  8
$DDT_AUDIT_GENERATED_(95)
  6
Continuous
 62
     7
100
AcDbLine
 10
54.4440072532
 20
120.8431085209
 30
0.0
 11
54.4440072532
 21
340.1643652287
 31
0.0
  0
LINE
  5
1D2
330
1BC
100
AcDbEntity
  8
$DDT_AUDIT_GENERATED_(95)
  6
Continuous
 62
     7
100
AcDbLine
 10
31.4440072532
 20
340.1643652287
 30
0.0
 11
31.4440072532
 21
120.8431085209
 31
0.0
  0
LINE
  5
1D3
330
1BC
100
AcDbEntity
  8
$DDT_AUDIT_GENERATED_(95)
  6
Continuous
 62
     7
100
AcDbLine
 10
54.4440072532
 20
120.1485158102
 30
0.0
 11
54.4440072532
 21
120.8431085209
 31
0.0
  0
LINE
  5
1D4
330
1BC
100
AcDbEntity
  8
$DDT_AUDIT_GENERATED_(95)
  6
Continuous
 62
     7
100
AcDbLine
 10
31.4440072532
 20
120.8431085209
 30
0.0
 11
31.4440072532
 21
120.1485158102
 31
0.0
  0
ARC
  5
1D5
330
1BC
100
AcDbEntity
  8
$DDT_AUDIT_GENERATED_(95)
  6
Continuous
 62
     7
100
AcDbCircle
 10
42.9436532543
 20
120.3357880801
 30
0.0
 40
11.53146526175546
100
AcDbArc
 50
198.3217790894
 51
342.0474833891
  0
ELLIPSE
  5
1D6
330
1BC
100
AcDbEntity
  8
$DDT_AUDIT_GENERATED_(A4)
  6
Continuous
 62
     7
100
AcDbEllipse
 10
42.9440072532
 20
119.8619963171
 30
0.0
 11
11.49999999999995
 21
-1.471045507628332E-12
 31
0.0
210
0.0
220
0.0
230
1.0
 40
0.984807753
 41
3.141592653589921
 42
6.283185307179586
  0
ARC
  5
1D7
330
1BC
100
AcDbEntity
  8
$DDT_AUDIT_GENERATED_(A4)
  6
Continuous
 62
     7
100
AcDbCircle
 10
42.9858690872
 20
117.8805656692
 30
0.0
 40
11.53064165880765
100
AcDbArc
 50
179.7613121027
 51
269.7919880133
  0
ARC
  5
1D8
330
1BC
100
AcDbEntity
  8
$DDT_AUDIT_GENERATED_(A4)
  6
Continuous
 62
     7
100
AcDbCircle
 10
42.9012513151
 20
117.8917465844
 30
0.0
 40
11.5418257779471
100
AcDbArc
 50
270.2122489504
 51
0.1595335581
  0
LINE
  5
1D9
330
1BC
100
AcDbEntity
  8
$DDT_AUDIT_GENERATED_(A4)
  6
Continuous
 62
     7
100
AcDbLine
 10
54.4440072532
 20
117.9335573584
 30
0.0
 11
54.4440072532
 21
119.8619963171
 31
0.0
  0
LINE
  5
1DA
330
1BC
100
AcDbEntity
  8
$DDT_AUDIT_GENERATED_(A4)
  6
Continuous
 62
     7
100
AcDbLine
 10
31.4440072532
 20
119.8619963171
 30
0.0
 11
31.4440072532
 21
117.9335573584
 31
0.0
  0
LINE
  5
1DB
330
1BC
100
AcDbEntity
  8
$DDT_AUDIT_GENERATED_(160)
  6
Continuous
 62
     7
100
AcDbLine
 10
111.1440072532
 20
314.8633466442
 30
0.0
 11
111.1440072532
 21
365.4653838133
 31
0.0
  0
LINE
  5
1DC
330
1BC
100
AcDbEntity
  8
$DDT_AUDIT_GENERATED_(160)
  6
Continuous
 62
     7
100
AcDbLine
 10
87.8440072532
 20
365.6643652287
 30
0.0
 11
87.8440072532
 21
314.6643652287
 31
0.0
  0
LINE
  5
1DD
330
1BC
100
AcDbEntity
  8
$DDT_AUDIT_GENERATED_(160)
  6
Continuous
 62
     7
100
AcDbLine
 10
88.3439882167
 20
314.1687282727
 30
0.0
 11
88.3439882167
 21
366.1600021848
 31
0.0
  0
ARC
  5
1DE
330
1BC
100
AcDbEntity
  8
$DDT_AUDIT_GENERATED_(160)
  6
Continuous
 62
     7
100
AcDbCircle
 10
105.0740072532
 20
340.1643652287
 30
0.0
 40
25.00000000000012
100
AcDbArc
 50
74.7637306737
 51
75.9481422426
  0
ARC
  5
1DF
330
1BC
100
AcDbEntity
  8
$DDT_AUDIT_GENERATED_(160)
  6
Continuous
 62
     7
100
AcDbCircle
 10
105.0740072532
 20
340.1643652287
 30
0.0
 40
25.00000000000011
100
AcDbArc
 50
284.0518577574
 51
285.2362693263
  0
LINE
  5
1E0
330
1BC
100
AcDbEntity
  8
$DDT_AUDIT_GENERATED_(160)
  6
Continuous
 62
     7
100
AcDbLine
 10
88.3439882167
 20
314.1687282727
 30
0.0
 11
110.6483702971
 21
314.3633656807
 31
0.0
  0
LINE
  5
1E1
330
1BC
100
AcDbEntity
  8
$DDT_AUDIT_GENERATED_(160)
  6
Continuous
 62
     7
100
AcDbLine
 10
110.6483702971
 20
365.9653647768
 30
0.0
 11
88.3439882167
 21
366.1600021848
 31
0.0
  0
ARC
  5
1E2
330
1BC
100
AcDbEntity
  8
$DDT_AUDIT_GENERATED_(160)
  6
Continuous
 62
     7
100
AcDbCircle
 10
110.6440072532
 20
365.4653838133
 30
0.0
 40
0.5000000000000004
100
AcDbArc
 50
0.0
 51
89.500025649
  0
ARC
  5
1E3
330
1BC
100
AcDbEntity
  8
$DDT_AUDIT_GENERATED_(160)
  6
Continuous
 62
     7
100
AcDbCircle
 10
110.6440072532
 20
314.8633466442
 30
0.0
 40
0.5000000000000024
100
AcDbArc
 50
270.499974351
 51
0.0
  0
LINE
  5
1E4
330
1BC
100
AcDbEntity
  8
$DDT_AUDIT_GENERATED_(160)
  6
Continuous
 62
     7
100
AcDbLine
 10
88.3439882167
 20
366.1600021848
 30
0.0
 11
87.8440072532
 21
365.6643652287
 31
0.0
  0
LINE
  5
1E5
330
1BC
100
AcDbEntity
  8
$DDT_AUDIT_GENERATED_(160)
  6
Continuous
 62
     7
100
AcDbLine
 10
87.8440072532
 20
314.6643652287
 30
0.0
 11
88.3439882167
 21
314.1687282727
 31
0.0
  0
SPLINE
  5
1E6
330
1BC
100
AcDbEntity
  8
$DDT_AUDIT_GENERATED_(16C)
  6
Continuous
 62
     7
100
AcDbSpline
210
0.0
220
0.0
230
1.0
 70
     8
 71
     3
 72
    18
 73
    14
 74
     0
 42
0.0000000007462463
 43
0.0000000001
 40
0.0
 40
0.0
 40
0.0
 40
0.0
 40
0.1250000000000007
 40
0.1250000000000007
 40
0.2500000000000014
 40
0.2500000000000014
 40
0.5000000000000014
 40
0.5000000000000014
 40
0.6250000000000014
 40
0.6250000000000014
 40
0.7500000000000016
 40
0.7500000000000016
 40
1.0
 40
1.0
 40
1.0
 40
1.0
 10
133.8301595310822
 20
336.2765941381556
 30
0.0
 10
133.8301595310823
 20
336.2765941381556
 30
0.0
 10
133.6552974850601
 20
336.2736129353578
 30
0.0
 10
132.9812311336944
 20
336.2627524281017
 30
0.0
 10
132.4825732552439
 20
336.2549155686593
 30
0.0
 10
130.6270513788318
 20
336.2283935791031
 30
0.0
 10
128.8798448549781
 20
336.2070840894045
 30
0.0
 10
126.2625197624346
 20
336.1851482851377
 30
0.0
 10
125.3856510826307
 20
336.179301500833
 30
0.0
 10
123.7648834375762
 20
336.1709040468049
 30
0.0
 10
123.0261833071245
 20
336.1683315072252
 30
0.0
 10
121.1476971186961
 20
336.163706601192
 30
0.0
 10
120.4303961091358
 20
336.1643652287229
 30
0.0
 10
120.4303961091353
 20
336.164365228723
 30
0.0
  0
ARC
  5
1E7
330
1BC
100
AcDbEntity
  8
$DDT_AUDIT_GENERATED_(16C)
  6
Continuous
 62
     7
100
AcDbCircle
 10
120.4303961091
 20
338.6643652287
 30
0.0
 40
2.499999999999947
100
AcDbArc
 50
180.0
 51
270.0
  0
ARC
  5
1E8
330
1BC
100
AcDbEntity
  8
$DDT_AUDIT_GENERATED_(16C)
  6
Continuous
 62
     7
100
AcDbCircle
 10
133.7882852704
 20
338.7762434228
 30
0.0
 40
2.500000000000044
100
AcDbArc
 50
270.9597322427
 51
0.0
  0
SPLINE
  5
1E9
330
1BC
100
AcDbEntity
  8
$DDT_AUDIT_GENERATED_(16C)
  6
Continuous
 62
     7
100
AcDbSpline
210
0.0
220
0.0
230
1.0
 70
     8
 71
     3
 72
    18
 73
    14
 74
     0
 42
0.0000000007462463
 43
0.0000000001
 40
0.0
 40
0.0
 40
0.0
 40
0.0
 40
0.1250000000000002
 40
0.1250000000000002
 40
0.2500000000000004
 40
0.2500000000000004
 40
0.4999999999999992
 40
0.4999999999999992
 40
0.624999999999999
 40
0.624999999999999
 40
0.7499999999999987
 40
0.7499999999999987
 40
1.0
 40
1.0
 40
1.0
 40
1.0
 10
120.4303961091353
 20
344.1643652287233
 30
0.0
 10
120.4303961091358
 20
344.1643652287233
 30
0.0
 10
120.6052552086189
 20
344.16441711756
 30
0.0
 10
121.279340661832
 20
344.1639857855037
 30
0.0
 10
121.7780178053839
 20
344.1634693041456
 30
0.0
 10
123.6336661098599
 20
344.1589086377144
 30
0.0
 10
125.3810210274076
 20
344.1509502200858
 30
0.0
 10
127.9983555243775
 20
344.1290439512249
 30
0.0
 10
128.8751884614086
 20
344.1202028951556
 30
0.0
 10
130.4958631098539
 20
344.101452197776
 30
0.0
 10
131.2345006730084
 20
344.0916515673273
 30
0.0
 10
133.1128562918653
 20
344.0648112978537
 30
0.0
 10
133.8301595310823
 20
344.0521363192906
 30
0.0
 10
133.8301595310822
 20
344.0521363192906
 30
0.0
  0
LINE
  5
1EA
330
1BC
100
AcDbEntity
  8
$DDT_AUDIT_GENERATED_(16C)
  6
Continuous
 62
     7
100
AcDbLine
 10
136.2882852704
 20
341.5524870346
 30
0.0
 11
136.2882852704
 21
338.7762434228
 31
0.0
  0
LINE
  5
1EB
330
1BC
100
AcDbEntity
  8
$DDT_AUDIT_GENERATED_(16C)
  6
Continuous
 62
     7
100
AcDbLine
 10
117.9303961091
 20
341.6643652287
 30
0.0
 11
117.9303961091
 21
338.6643652287
 31
0.0
  0
ARC
  5
1EC
330
1BC
100
AcDbEntity
  8
$DDT_AUDIT_GENERATED_(16C)
  6
Continuous
 62
     7
100
AcDbCircle
 10
120.4303961091
 20
341.6643652287
 30
0.0
 40
2.499999999999965
100
AcDbArc
 50
90.0
 51
180.0
  0
ARC
  5
1ED
330
1BC
100
AcDbEntity
  8
$DDT_AUDIT_GENERATED_(16C)
  6
Continuous
 62
     7
100
AcDbCircle
 10
133.7882852704
 20
341.5524870346
 30
0.0
 40
2.5
100
AcDbArc
 50
0.0
 51
89.0402677573
  0
ARC
  5
1EE
330
1BC
100
AcDbEntity
  8
$DDT_AUDIT_GENERATED_(16C)
  6
Continuous
 62
     7
100
AcDbCircle
 10
1031.2923080346
 20
340.0732312501
 30
0.0
 40
889.6054290443142
100
AcDbArc
 50
181.6689109253
 51
181.6689179416
  0
SPLINE
  5
1EF
330
1BC
100
AcDbEntity
  8
$DDT_AUDIT_GENERATED_(16C)
  6
Continuous
 62
     7
100
AcDbSpline
210
0.0
220
0.0
230
1.0
 70
     8
 71
     3
 72
     8
 73
     4
 74
     0
 42
0.0000000002156743
 43
0.0000000001
 40
0.0
 40
0.0
 40
0.0
 40
0.0
 40
0.0566826699826574
 40
0.0566826699826574
 40
0.0566826699826574
 40
0.0566826699826574
 10
111.948039051402
 20
365.6722887043111
 30
0.0
 10
112.763739799793
 20
366.0021114348762
 30
0.0
 10
113.618776105838
 20
366.1629664418807
 30
0.0
 10
114.4970432296252
 20
366.162526338164
 30
0.0
  0
SPLINE
  5
1F0
330
1BC
100
AcDbEntity
  8
$DDT_AUDIT_GENERATED_(16C)
  6
Continuous
 62
     7
100
AcDbSpline
210
0.0
220
0.0
230
1.0
 70
     8
 71
     3
 72
     8
 73
     4
 74
     0
 42
0.0000000002146847
 43
0.0000000001
 40
0.9436273114945697
 40
0.9436273114945697
 40
0.9436273114945697
 40
0.9436273114945697
 40
1.0
 40
1.0
 40
1.0
 40
1.0
 10
114.4945099524783
 20
314.1644102003254
 30
0.0
 10
113.6236325212157
 20
314.1645940767364
 30
0.0
 10
112.7673178231792
 20
314.3251722745833
 30
0.0
 10
111.9480390515257
 20
314.6564417531473
 30
0.0
  0
SPLINE
  5
1F1
330
1BC
100
AcDbEntity
  8
$DDT_AUDIT_GENERATED_(16C)
  6
Continuous
 62
     7
100
AcDbSpline
210
0.0
220
0.0
230
1.0
 70
     8
 71
     3
 72
    10
 73
     6
 74
     0
 42
0.0000000219638294
 43
0.0000000001
 40
0.0
 40
0.0
 40
0.0
 40
0.0
 40
0.5
 40
0.5
 40
1.0
 40
1.0
 40
1.0
 40
1.0
 10
111.6440072531904
 20
365.3769033158397
 30
0.0
 10
111.6440072531904
 20
365.433272167204
 30
0.0
 10
111.6689312157209
 20
365.4866565982693
 30
0.0
 10
111.7711058993339
 20
365.5863158766419
 30
0.0
 10
111.8469093048958
 20
365.6313976186988
 30
0.0
 10
111.948039051402
 20
365.6722887043111
 30
0.0
  0
LINE
  5
1F2
330
1BC
100
AcDbEntity
  8
$DDT_AUDIT_GENERATED_(16C)
  6
Continuous
 62
     7
100
AcDbLine
 10
111.6440072532
 20
314.9518271416
 30
0.0
 11
111.6440072532
 21
365.3769033158
 31
0.0
  0
SPLINE
  5
1F3
330
1BC
100
AcDbEntity
  8
$DDT_AUDIT_GENERATED_(16C)
  6
Continuous
 62
     7
100
AcDbSpline
210
0.0
220
0.0
230
1.0
 70
     8
 71
     3
 72
    10
 73
     6
 74
     0
 42
0.000000021961377
 43
0.0000000001
 40
0.0
 40
0.0
 40
0.0
 40
0.0
 40
0.5
 40
0.5
 40
1.0
 40
1.0
 40
1.0
 40
1.0
 10
111.9480390515257
 20
314.6564417531473
 30
0.0
 10
111.8480174599437
 20
314.6968847642251
 30
0.0
 10
111.7723069133078
 20
314.7416085164899
 30
0.0
 10
111.6696402648594
 20
314.8410236393975
 30
0.0
 10
111.6440072531904
 20
314.8946907878577
 30
0.0
 10
111.6440072531904
 20
314.9518271416068
 30
0.0
  0
ARC
  5
1F4
330
1BC
100
AcDbEntity
  8
$DDT_AUDIT_GENERATED_(16C)
  6
Continuous
 62
     7
100
AcDbCircle
 10
46.0440072532
 20
340.1744785628
 30
0.0
 40
100.0
100
AcDbArc
 50
345.2425611288
 51
14.7432132996
  0
LINE
  5
1F5
330
1BC
100
AcDbEntity
  8
$DDT_AUDIT_GENERATED_(16C)
  6
Continuous
 62
     7
100
AcDbLine
 10
142.0695646184
 20
366.1643652287
 30
0.0
 11
114.5009428853
 21
366.1643652287
 31
0.0
  0
LINE
  5
1F6
330
1BC
100
AcDbEntity
  8
$DDT_AUDIT_GENERATED_(16C)
  6
Continuous
 62
     7
100
AcDbLine
 10
114.4974655756
 20
314.1643652287
 30
0.0
 11
142.0642374858
 21
314.1643652287
 31
0.0
  0
SPLINE
  5
1F7
330
1BC
100
AcDbEntity
  8
$DDT_AUDIT_GENERATED_(16C)
  6
Continuous
 62
     7
100
AcDbSpline
210
0.0
220
0.0
230
1.0
 70
     8
 71
     3
 72
    12
 73
     8
 74
     0
 42
0.0000000105945897
 43
0.0000000001
 40
0.0
 40
0.0
 40
0.0
 40
0.0
 40
0.1641591102665392
 40
0.4566495923296874
 40
0.7205642184404993
 40
0.9900097239177995
 40
1.0
 40
1.0
 40
1.0
 40
1.0
 10
142.7471900743299
 20
365.6262475418267
 30
0.0
 10
142.7319301463323
 20
365.6782139218092
 30
0.0
 10
142.6932381243883
 20
365.8010749986208
 30
0.0
 10
142.5477509368066
 20
365.9908233237139
 30
0.0
 10
142.3301510510708
 20
366.1161948898691
 30
0.0
 10
142.1529065122601
 20
366.1699945832529
 30
0.0
 10
142.0722425987582
 20
366.1550179183936
 30
0.0
 10
142.0689018683043
 20
366.1543953587979
 30
0.0
  0
ARC
  5
1F8
330
1BC
100
AcDbEntity
  8
$DDT_AUDIT_GENERATED_(16C)
  6
Continuous
 62
     7
100
AcDbCircle
 10
142.069594447
 20
314.8649985503
 30
0.0
 40
0.6924852679174703
100
AcDbArc
 50
269.5514028903
 51
346.170696346
  0
ENDBLK
  5
1FA
330
1BC
100
AcDbEntity
  8
0
100
AcDbBlockEnd
  0
ENDSEC
  0
SECTION
  2
ENTITIES
  0
INSERT
  5
5F
330
1F
100
AcDbEntity
  8
Default
100
AcDbBlockReference
  2
SEANNOT_GROUP
 10
0.0
 20
0.0
 30
0.0
  0
INSERT
  5
66
330
1F
100
AcDbEntity
  8
Default
100
AcDbBlockReference
  2
SEANNOT_GROUP1
 10
0.0
 20
0.0
 30
0.0
  0
INSERT
  5
6C
330
1F
100
AcDbEntity
  8
Default
100
AcDbBlockReference
  2
SEANNOT_GROUP2
 10
0.0
 20
0.0
 30
0.0
  0
INSERT
  5
76
330
1F
100
AcDbEntity
  8
Default
100
AcDbBlockReference
  2
SE
 10
0.0
 20
0.0
 30
0.0
  0
INSERT
  5
181
330
1F
100
AcDbEntity
  8
Default
100
AcDbBlockReference
  2
SE1
 10
0.0
 20
0.0
 30
0.0
  0
INSERT
  5
1BD
330
1F
100
AcDbEntity
  8
Default
100
AcDbBlockReference
  2
SE2
 10
0.0
 20
0.0
 30
0.0
  0
TEXT
  5
1FC
330
1F
100
AcDbEntity
  8
Default
  6
Continuous
 62
     7
100
AcDbText
 10
5.9362635081
 20
53.4225120485
 30
0.0
 40
10.0
  1
Grohe AG^J
  7
SEACAD_seiso_ttf
 11
5.9362635081
 21
63.4225120485
 31
0.0
100
AcDbText
 73
     3
  0
TEXT
  5
1FD
330
1F
100
AcDbEntity
  8
Default
  6
Continuous
 62
     7
100
AcDbText
 10
5.9362635081
 20
37.0588756849
 30
0.0
 40
10.0
  1
 
  7
SEACAD_seiso_ttf
 11
5.9362635081
 21
47.0588756849
 31
0.0
100
AcDbText
 73
     3
  0
TEXT
  5
1FE
330
1F
100
AcDbEntity
  8
Default
  6
Continuous
 62
     7
100
AcDbText
 10
5.9362635081
 20
20.6952393213
 30
0.0
 40
10.0
  1
ecn:
  7
SEACAD_seiso_ttf
 11
5.9362635081
 21
30.6952393213
 31
0.0
100
AcDbText
 73
     3
  0
TEXT
  5
1FF
330
1F
100
AcDbEntity
  8
Default
  6
Continuous
 62
     7
100
AcDbText
 10
5.9362635081
 20
4.3316029576
 30
0.0
 40
10.0
  1
unit: mm
  7
SEACAD_seiso_ttf
 11
5.9362635081
 21
14.3316029576
 31
0.0
100
AcDbText
 73
     3
  0
LINE
  5
200
330
1F
100
AcDbEntity
  8
Default
  6
Continuous
 62
     7
100
AcDbLine
 10
0.0
 20
0.0
 30
0.0
 11
100.0
 21
0.0
 31
0.0
  0
LINE
  5
201
330
1F
100
AcDbEntity
  8
Default
  6
Continuous
 62
     7
100
AcDbLine
 10
0.0
 20
0.0
 30
0.0
 11
0.0
 21
100.0
 31
0.0
  0
TEXT
  5
202
330
1F
100
AcDbEntity
  8
Default
  6
Continuous
 62
     7
100
AcDbText
 10
24.3923665681
 20
-18.2375342018
 30
0.0
 40
10.0
  1
100 mm
  7
SEACAD_seiso_ttf
 11
24.3923665681
 21
-8.2375342018
 31
0.0
100
AcDbText
 73
     3
  0
TEXT
  5
203
330
1F
100
AcDbEntity
  8
Default
  6
Continuous
 62
     7
100
AcDbText
 10
-7.6150308803
 20
24.6231930421
 30
0.0
 40
10.0
  1
100 mm
 50
90.0
  7
SEACAD_seiso_ttf
 11
-17.6150308803
 21
24.6231930421
 31
0.0
100
AcDbText
 73
     3
  0
TEXT
  5
204
330
1F
100
AcDbEntity
  8
Default
  6
Continuous
 62
     7
100
AcDbText
 10
28.4878128572
 20
20.0907663715
 30
0.0
 40
10.0
  1
217532
  7
SEACAD_seiso_ttf
 11
28.4878128572
 21
30.0907663715
 31
0.0
100
AcDbText
 73
     3
  0
TEXT
  5
205
330
1F
100
AcDbEntity
  8
Default
  6
Continuous
 62
     7
100
AcDbText
 10
5.9012241913
 20
36.7242780188
 30
0.0
 40
10.0
  1
32452000
  7
SEACAD_seiso_ttf
 11
5.9012241913
 21
46.7242780188
 31
0.0
100
AcDbText
 73
     3
  0
ENDSEC
  0
SECTION
  2
OBJECTS
  0
DICTIONARY
  5
C
330
0
100
AcDbDictionary
281
     1
  3
ACAD_GROUP
350
D
  3
ACAD_LAYOUT
350
1A
  3
ACAD_MLEADERSTYLE
350
209
  3
ACAD_MLINESTYLE
350
17
  3
ACAD_PLOTSETTINGS
350
19
  3
ACAD_PLOTSTYLENAME
350
E
  3
ACAD_SCALELIST
350
3B
  3
ACAD_TABLESTYLE
350
208
  3
ACAD_VISUALSTYLE
350
2A
  3
AcDbVariableDictionary
350
206
  0
DICTIONARY
  5
D
102
{ACAD_REACTORS
330
C
102
}
330
C
100
AcDbDictionary
281
     1
  0
DICTIONARY
  5
1A
102
{ACAD_REACTORS
330
C
102
}
330
C
100
AcDbDictionary
281
     1
  3
Layout1
350
1E
  3
Model
350
22
  0
DICTIONARY
  5
209
102
{ACAD_REACTORS
330
C
102
}
330
C
100
AcDbDictionary
281
     1
  0
DICTIONARY
  5
17
102
{ACAD_REACTORS
330
C
102
}
330
C
100
AcDbDictionary
281
     1
  3
Standard
350
18
  0
DICTIONARY
  5
19
102
{ACAD_REACTORS
330
C
102
}
330
C
100
AcDbDictionary
281
     1
  0
ACDBDICTIONARYWDFLT
  5
E
102
{ACAD_REACTORS
330
C
102
}
330
C
100
AcDbDictionary
281
     1
  3
Normal
350
F
100
AcDbDictionaryWithDefault
340
F
  0
DICTIONARY
  5
3B
102
{ACAD_REACTORS
330
C
102
}
330
C
100
AcDbDictionary
281
     1
  3
A0
350
3C
  3
A1
350
3D
  3
A2
350
3E
  3
A3
350
3F
  3
A4
350
40
  3
A5
350
41
  3
A6
350
42
  3
A7
350
43
  3
A8
350
44
  3
A9
350
45
  3
B0
350
46
  3
B1
350
47
  3
B2
350
48
  3
B3
350
49
  3
B4
350
4A
  3
B5
350
4B
  3
B6
350
4C
  3
B7
350
4D
  3
B8
350
4E
  3
B9
350
4F
  3
C0
350
50
  3
C1
350
51
  3
C2
350
52
  3
C3
350
53
  3
C4
350
54
  3
C5
350
55
  3
C6
350
56
  3
C7
350
57
  3
C8
350
58
  3
C9
350
59
  3
D0
350
5A
  3
D1
350
5B
  3
D2
350
5C
  0
DICTIONARY
  5
208
102
{ACAD_REACTORS
330
C
102
}
330
C
100
AcDbDictionary
281
     1
  0
DICTIONARY
  5
2A
102
{ACAD_REACTORS
330
C
102
}
330
C
100
AcDbDictionary
281
     1
  3
2dWireframe
350
2F
  3
3D Hidden
350
31
  3
3dWireframe
350
30
  3
Basic
350
32
  3
Brighten
350
36
  3
ColorChange
350
3A
  3
Conceptual
350
34
  3
Dim
350
35
  3
Facepattern
350
39
  3
Flat
350
2B
  3
FlatWithEdges
350
2C
  3
Gouraud
350
2D
  3
GouraudWithEdges
350
2E
  3
Linepattern
350
38
  3
Realistic
350
33
  3
Thicken
350
37
  0
DICTIONARY
  5
206
102
{ACAD_REACTORS
330
C
102
}
330
C
100
AcDbDictionary
281
     1
  3
CANNOSCALE
350
207
  3
PSOLHEIGHT
350
20B
  3
PSOLWIDTH
350
20A
  0
LAYOUT
  5
1E
102
{ACAD_REACTORS
330
1A
102
}
330
1A
100
AcDbPlotSettings
  1

  2
none_device
  4

  6

 40
0.0
 41
0.0
 42
0.0
 43
0.0
 44
0.0
 45
0.0
 46
0.0
 47
0.0
 48
0.0
 49
0.0
140
0.0
141
0.0
142
1.0
143
1.0
 70
   688
 72
     0
 73
     0
 74
     5
  7

 75
    16
147
1.0
148
0.0
149
0.0
100
AcDbLayout
  1
Layout1
 70
     1
 71
     1
 10
0.0
 20
0.0
 11
3000.0
 21
4500.0
 12
0.0
 22
0.0
 32
0.0
 14
0.0
 24
0.0
 34
0.0
 15
3000.0
 25
4500.0
 35
0.0
146
0.0
 13
0.0
 23
0.0
 33
0.0
 16
1.0
 26
0.0
 36
0.0
 17
0.0
 27
1.0
 37
0.0
 76
     0
330
1B
  0
LAYOUT
  5
22
102
{ACAD_REACTORS
330
1A
102
}
330
1A
100
AcDbPlotSettings
  1

  2
none_device
  4

  6

 40
0.0
 41
0.0
 42
0.0
 43
0.0
 44
0.0
 45
0.0
 46
0.0
 47
0.0
 48
0.0
 49
0.0
140
0.0
141
0.0
142
1.0
143
1.0
 70
  1712
 72
     0
 73
     0
 74
     0
  7

 75
     0
147
1.0
148
0.0
149
0.0
100
AcDbLayout
  1
Model
 70
     1
 71
     0
 10
0.0
 20
0.0
 11
3000.0
 21
4500.0
 12
0.0
 22
0.0
 32
0.0
 14
0.0
 24
0.0
 34
0.0
 15
3000.0
 25
4500.0
 35
0.0
146
0.0
 13
0.0
 23
0.0
 33
0.0
 16
1.0
 26
0.0
 36
0.0
 17
0.0
 27
1.0
 37
0.0
 76
     0
330
1F
331
29
  0
MLINESTYLE
  5
18
102
{ACAD_REACTORS
330
17
102
}
330
17
100
AcDbMlineStyle
  2
Standard
 70
     0
  3

 62
   256
 51
90.0
 52
90.0
 71
     2
 49
0.5
 62
   256
  6
BYLAYER
 49
-0.5
 62
   256
  6
BYLAYER
  0
ACDBPLACEHOLDER
  5
F
102
{ACAD_REACTORS
330
E
102
}
330
E
  0
SCALE
  5
3C
102
{ACAD_REACTORS
330
3B
102
}
330
3B
100
AcDbScale
 70
     0
300
1:1
140
1.0
141
1.0
290
     1
  0
SCALE
  5
3D
102
{ACAD_REACTORS
330
3B
102
}
330
3B
100
AcDbScale
 70
     0
300
1:2
140
1.0
141
2.0
290
     0
  0
SCALE
  5
3E
102
{ACAD_REACTORS
330
3B
102
}
330
3B
100
AcDbScale
 70
     0
300
1:4
140
1.0
141
4.0
290
     0
  0
SCALE
  5
3F
102
{ACAD_REACTORS
330
3B
102
}
330
3B
100
AcDbScale
 70
     0
300
1:5
140
1.0
141
5.0
290
     0
  0
SCALE
  5
40
102
{ACAD_REACTORS
330
3B
102
}
330
3B
100
AcDbScale
 70
     0
300
1:8
140
1.0
141
8.0
290
     0
  0
SCALE
  5
41
102
{ACAD_REACTORS
330
3B
102
}
330
3B
100
AcDbScale
 70
     0
300
1:10
140
1.0
141
10.0
290
     0
  0
SCALE
  5
42
102
{ACAD_REACTORS
330
3B
102
}
330
3B
100
AcDbScale
 70
     0
300
1:16
140
1.0
141
16.0
290
     0
  0
SCALE
  5
43
102
{ACAD_REACTORS
330
3B
102
}
330
3B
100
AcDbScale
 70
     0
300
1:20
140
1.0
141
20.0
290
     0
  0
SCALE
  5
44
102
{ACAD_REACTORS
330
3B
102
}
330
3B
100
AcDbScale
 70
     0
300
1:30
140
1.0
141
30.0
290
     0
  0
SCALE
  5
45
102
{ACAD_REACTORS
330
3B
102
}
330
3B
100
AcDbScale
 70
     0
300
1:40
140
1.0
141
40.0
290
     0
  0
SCALE
  5
46
102
{ACAD_REACTORS
330
3B
102
}
330
3B
100
AcDbScale
 70
     0
300
1:50
140
1.0
141
50.0
290
     0
  0
SCALE
  5
47
102
{ACAD_REACTORS
330
3B
102
}
330
3B
100
AcDbScale
 70
     0
300
1:100
140
1.0
141
100.0
290
     0
  0
SCALE
  5
48
102
{ACAD_REACTORS
330
3B
102
}
330
3B
100
AcDbScale
 70
     0
300
2:1
140
2.0
141
1.0
290
     0
  0
SCALE
  5
49
102
{ACAD_REACTORS
330
3B
102
}
330
3B
100
AcDbScale
 70
     0
300
4:1
140
4.0
141
1.0
290
     0
  0
SCALE
  5
4A
102
{ACAD_REACTORS
330
3B
102
}
330
3B
100
AcDbScale
 70
     0
300
8:1
140
8.0
141
1.0
290
     0
  0
SCALE
  5
4B
102
{ACAD_REACTORS
330
3B
102
}
330
3B
100
AcDbScale
 70
     0
300
10:1
140
10.0
141
1.0
290
     0
  0
SCALE
  5
4C
102
{ACAD_REACTORS
330
3B
102
}
330
3B
100
AcDbScale
 70
     0
300
100:1
140
100.0
141
1.0
290
     0
  0
SCALE
  5
4D
102
{ACAD_REACTORS
330
3B
102
}
330
3B
100
AcDbScale
 70
     0
300
1/128" = 1'-0"
140
0.0078125
141
12.0
290
     0
  0
SCALE
  5
4E
102
{ACAD_REACTORS
330
3B
102
}
330
3B
100
AcDbScale
 70
     0
300
1/64" = 1'-0"
140
0.015625
141
12.0
290
     0
  0
SCALE
  5
4F
102
{ACAD_REACTORS
330
3B
102
}
330
3B
100
AcDbScale
 70
     0
300
1/32" = 1'-0"
140
0.03125
141
12.0
290
     0
  0
SCALE
  5
50
102
{ACAD_REACTORS
330
3B
102
}
330
3B
100
AcDbScale
 70
     0
300
1/16" = 1'-0"
140
0.0625
141
12.0
290
     0
  0
SCALE
  5
51
102
{ACAD_REACTORS
330
3B
102
}
330
3B
100
AcDbScale
 70
     0
300
3/32" = 1'-0"
140
0.09375
141
12.0
290
     0
  0
SCALE
  5
52
102
{ACAD_REACTORS
330
3B
102
}
330
3B
100
AcDbScale
 70
     0
300
1/8" = 1'-0"
140
0.125
141
12.0
290
     0
  0
SCALE
  5
53
102
{ACAD_REACTORS
330
3B
102
}
330
3B
100
AcDbScale
 70
     0
300
3/16" = 1'-0"
140
0.1875
141
12.0
290
     0
  0
SCALE
  5
54
102
{ACAD_REACTORS
330
3B
102
}
330
3B
100
AcDbScale
 70
     0
300
1/4" = 1'-0"
140
0.25
141
12.0
290
     0
  0
SCALE
  5
55
102
{ACAD_REACTORS
330
3B
102
}
330
3B
100
AcDbScale
 70
     0
300
3/8" = 1'-0"
140
0.375
141
12.0
290
     0
  0
SCALE
  5
56
102
{ACAD_REACTORS
330
3B
102
}
330
3B
100
AcDbScale
 70
     0
300
1/2" = 1'-0"
140
0.5
141
12.0
290
     0
  0
SCALE
  5
57
102
{ACAD_REACTORS
330
3B
102
}
330
3B
100
AcDbScale
 70
     0
300
3/4" = 1'-0"
140
0.75
141
12.0
290
     0
  0
SCALE
  5
58
102
{ACAD_REACTORS
330
3B
102
}
330
3B
100
AcDbScale
 70
     0
300
1" = 1'-0"
140
1.0
141
12.0
290
     0
  0
SCALE
  5
59
102
{ACAD_REACTORS
330
3B
102
}
330
3B
100
AcDbScale
 70
     0
300
1-1/2" = 1'-0"
140
1.5
141
12.0
290
     0
  0
SCALE
  5
5A
102
{ACAD_REACTORS
330
3B
102
}
330
3B
100
AcDbScale
 70
     0
300
3" = 1'-0"
140
3.0
141
12.0
290
     0
  0
SCALE
  5
5B
102
{ACAD_REACTORS
330
3B
102
}
330
3B
100
AcDbScale
 70
     0
300
6" = 1'-0"
140
6.0
141
12.0
290
     0
  0
SCALE
  5
5C
102
{ACAD_REACTORS
330
3B
102
}
330
3B
100
AcDbScale
 70
     0
300
1'-0" = 1'-0"
140
12.0
141
12.0
290
     0
  0
VISUALSTYLE
  5
2F
102
{ACAD_REACTORS
330
2A
102
}
330
2A
100
AcDbVisualStyle
  2
2dWireframe
 70
     4
 71
     0
 72
     2
 73
     0
 90
        0
 40
-0.6
 41
-30.0
 62
     5
 63
     7
 74
     1
 91
        4
 64
     7
 65
   257
 75
     1
175
     1
 42
1.0
 92
        0
 66
   257
 43
1.0
 76
     1
 77
     6
 78
     2
 67
     7
 79
     5
170
     0
171
     0
290
     0
174
     0
 93
        1
 44
0.0
173
     0
291
     0
 45
0.0
1001
ACAD
1000
AcDbSavedByObjectVersion
1070
     0
  0
VISUALSTYLE
  5
31
102
{ACAD_REACTORS
330
2A
102
}
330
2A
100
AcDbVisualStyle
  2
3D Hidden
 70
     6
 71
     1
 72
     2
 73
     2
 90
        0
 40
-0.6
 41
-30.0
 62
     5
 63
     7
 74
     2
 91
        2
 64
     7
 65
   257
 75
     2
175
     1
 42
40.0
 92
        0
 66
   257
 43
1.0
 76
     1
 77
     6
 78
     2
 67
     7
 79
     3
170
     0
171
     0
290
     0
174
     0
 93
        1
 44
0.0
173
     0
291
     0
 45
0.0
1001
ACAD
1000
AcDbSavedByObjectVersion
1070
     0
  0
VISUALSTYLE
  5
30
102
{ACAD_REACTORS
330
2A
102
}
330
2A
100
AcDbVisualStyle
  2
3dWireframe
 70
     5
 71
     0
 72
     2
 73
     0
 90
        0
 40
-0.6
 41
-30.0
 62
     5
 63
     7
 74
     1
 91
        4
 64
     7
 65
   257
 75
     1
175
     1
 42
1.0
 92
        0
 66
   257
 43
1.0
 76
     1
 77
     6
 78
     2
 67
     7
 79
     5
170
     0
171
     0
290
     0
174
     0
 93
        1
 44
0.0
173
     0
291
     0
 45
0.0
1001
ACAD
1000
AcDbSavedByObjectVersion
1070
     0
  0
VISUALSTYLE
  5
32
102
{ACAD_REACTORS
330
2A
102
}
330
2A
100
AcDbVisualStyle
  2
Basic
 70
     7
 71
     1
 72
     0
 73
     1
 90
        0
 40
-0.6
 41
-30.0
 62
     5
 63
     7
 74
     0
 91
        4
 64
     7
 65
   257
 75
     1
175
     1
 42
1.0
 92
        8
 66
     7
 43
1.0
 76
     1
 77
     6
 78
     2
 67
     7
 79
     5
170
     0
171
     0
290
     0
174
     0
 93
        1
 44
0.0
173
     0
291
     1
 45
0.0
1001
ACAD
1000
AcDbSavedByObjectVersion
1070
     0
  0
VISUALSTYLE
  5
36
102
{ACAD_REACTORS
330
2A
102
}
330
2A
100
AcDbVisualStyle
  2
Brighten
 70
    12
 71
     2
 72
     2
 73
     0
 90
        0
 40
-0.6
 41
-30.0
 62
     5
 63
     7
 74
     1
 91
        4
 64
     7
 65
   257
 75
     1
175
     1
 42
1.0
 92
        8
 66
     7
 43
1.0
 76
     1
 77
     6
 78
     2
 67
     7
 79
     5
170
     0
171
     0
290
     0
174
     0
 93
        1
 44
50.0
173
     0
291
     1
 45
0.0
1001
ACAD
1000
AcDbSavedByObjectVersion
1070
     0
  0
VISUALSTYLE
  5
3A
102
{ACAD_REACTORS
330
2A
102
}
330
2A
100
AcDbVisualStyle
  2
ColorChange
 70
    16
 71
     2
 72
     2
 73
     3
 90
        0
 40
-0.6
 41
-30.0
 62
     5
 63
     8
 74
     1
 91
        4
 64
     7
 65
   257
 75
     1
175
     1
 42
1.0
 92
        8
 66
     8
 43
1.0
 76
     1
 77
     6
 78
     2
 67
     7
 79
     5
170
     0
171
     0
290
     0
174
     0
 93
        1
 44
0.0
173
     0
291
     1
 45
0.0
1001
ACAD
1000
AcDbSavedByObjectVersion
1070
     0
  0
VISUALSTYLE
  5
34
102
{ACAD_REACTORS
330
2A
102
}
330
2A
100
AcDbVisualStyle
  2
Conceptual
 70
     9
 71
     3
 72
     2
 73
     0
 90
        0
 40
-0.6
 41
-30.0
 62
     5
 63
     7
 74
     2
 91
        2
 64
     7
 65
   257
 75
     1
175
     1
 42
40.0
 92
        8
 66
     7
 43
1.0
 76
     1
 77
     6
 78
     2
 67
     7
 79
     3
170
     0
171
     0
290
     0
174
     0
 93
        1
 44
0.0
173
     0
291
     0
 45
0.0
1001
ACAD
1000
AcDbSavedByObjectVersion
1070
     0
  0
VISUALSTYLE
  5
35
102
{ACAD_REACTORS
330
2A
102
}
330
2A
100
AcDbVisualStyle
  2
Dim
 70
    11
 71
     2
 72
     2
 73
     0
 90
        0
 40
-0.6
 41
-30.0
 62
     5
 63
     7
 74
     1
 91
        4
 64
     7
 65
   257
 75
     1
175
     1
 42
1.0
 92
        8
 66
     7
 43
1.0
 76
     1
 77
     6
 78
     2
 67
     7
 79
     5
170
     0
171
     0
290
     0
174
     0
 93
        1
 44
-50.0
173
     0
291
     1
 45
0.0
1001
ACAD
1000
AcDbSavedByObjectVersion
1070
     0
  0
VISUALSTYLE
  5
39
102
{ACAD_REACTORS
330
2A
102
}
330
2A
100
AcDbVisualStyle
  2
Facepattern
 70
    15
 71
     2
 72
     2
 73
     0
 90
        0
 40
-0.6
 41
-30.0
 62
     5
 63
     7
 74
     1
 91
        4
 64
     7
 65
   257
 75
     1
175
     1
 42
1.0
 92
        8
 66
     7
 43
1.0
 76
     1
 77
     6
 78
     2
 67
     7
 79
     5
170
     0
171
     0
290
     0
174
     0
 93
        1
 44
0.0
173
     0
291
     1
 45
0.0
1001
ACAD
1000
AcDbSavedByObjectVersion
1070
     0
  0
VISUALSTYLE
  5
2B
102
{ACAD_REACTORS
330
2A
102
}
330
2A
100
AcDbVisualStyle
  2
Flat
 70
     0
 71
     2
 72
     1
 73
     1
 90
        2
 40
-0.6
 41
30.0
 62
     5
 63
     7
 74
     0
 91
        4
 64
     7
 65
   257
 75
     1
175
     1
 42
1.0
 92
        8
 66
     7
 43
1.0
 76
     1
 77
     6
 78
     2
 67
     7
 79
     5
170
     0
171
     0
290
     0
174
     0
 93
       13
 44
0.0
173
     0
291
     1
 45
0.0
1001
ACAD
1000
AcDbSavedByObjectVersion
1070
     0
  0
VISUALSTYLE
  5
2C
102
{ACAD_REACTORS
330
2A
102
}
330
2A
100
AcDbVisualStyle
  2
FlatWithEdges
 70
     1
 71
     2
 72
     1
 73
     1
 90
        2
 40
-0.6
 41
30.0
 62
     5
 63
     7
 74
     1
 91
        4
 64
     7
 65
   257
 75
     1
175
     1
 42
1.0
 92
        0
 66
   257
 43
1.0
 76
     1
 77
     6
 78
     2
 67
     7
 79
     5
170
     0
171
     0
290
     0
174
     0
 93
       13
 44
0.0
173
     0
291
     1
 45
0.0
1001
ACAD
1000
AcDbSavedByObjectVersion
1070
     0
  0
VISUALSTYLE
  5
2D
102
{ACAD_REACTORS
330
2A
102
}
330
2A
100
AcDbVisualStyle
  2
Gouraud
 70
     2
 71
     2
 72
     2
 73
     1
 90
        2
 40
-0.6
 41
30.0
 62
     5
 63
     7
 74
     0
 91
        4
 64
     7
 65
   257
 75
     1
175
     1
 42
1.0
 92
        0
 66
     7
 43
1.0
 76
     1
 77
     6
 78
     2
 67
     7
 79
     5
170
     0
171
     0
290
     0
174
     0
 93
       13
 44
0.0
173
     0
291
     1
 45
0.0
1001
ACAD
1000
AcDbSavedByObjectVersion
1070
     0
  0
VISUALSTYLE
  5
2E
102
{ACAD_REACTORS
330
2A
102
}
330
2A
100
AcDbVisualStyle
  2
GouraudWithEdges
 70
     3
 71
     2
 72
     2
 73
     1
 90
        2
 40
-0.6
 41
30.0
 62
     5
 63
     7
 74
     1
 91
        4
 64
     7
 65
   257
 75
     1
175
     1
 42
1.0
 92
        0
 66
   257
 43
1.0
 76
     1
 77
     6
 78
     2
 67
     7
 79
     5
170
     0
171
     0
290
     0
174
     0
 93
       13
 44
0.0
173
     0
291
     1
 45
0.0
1001
ACAD
1000
AcDbSavedByObjectVersion
1070
     0
  0
VISUALSTYLE
  5
38
102
{ACAD_REACTORS
330
2A
102
}
330
2A
100
AcDbVisualStyle
  2
Linepattern
 70
    14
 71
     2
 72
     2
 73
     0
 90
        0
 40
-0.6
 41
-30.0
 62
     5
 63
     7
 74
     1
 91
        4
 64
     7
 65
   257
 75
     7
175
     7
 42
1.0
 92
        8
 66
     7
 43
1.0
 76
     1
 77
     6
 78
     2
 67
     7
 79
     5
170
     0
171
     0
290
     0
174
     0
 93
        1
 44
0.0
173
     0
291
     1
 45
0.0
1001
ACAD
1000
AcDbSavedByObjectVersion
1070
     0
  0
VISUALSTYLE
  5
33
102
{ACAD_REACTORS
330
2A
102
}
330
2A
100
AcDbVisualStyle
  2
Realistic
 70
     8
 71
     2
 72
     2
 73
     0
 90
        0
 40
-0.6
 41
-30.0
 62
     5
 63
     7
 74
     1
 91
        0
 64
     7
 65
   257
 75
     1
175
     1
 42
1.0
 92
        8
 66
     8
 43
1.0
 76
     1
 77
     6
 78
     2
 67
     7
 79
     5
170
     0
171
     0
290
     0
174
     0
 93
       13
 44
0.0
173
     0
291
     0
 45
0.0
1001
ACAD
1000
AcDbSavedByObjectVersion
1070
     0
  0
VISUALSTYLE
  5
37
102
{ACAD_REACTORS
330
2A
102
}
330
2A
100
AcDbVisualStyle
  2
Thicken
 70
    13
 71
     2
 72
     2
 73
     0
 90
        0
 40
-0.6
 41
-30.0
 62
     5
 63
     7
 74
     1
 91
        4
 64
     7
 65
   257
 75
     1
175
     1
 42
1.0
 92
       12
 66
     7
 43
1.0
 76
     1
 77
     6
 78
     2
 67
     7
 79
     5
170
     0
171
     0
290
     0
174
     0
 93
        1
 44
0.0
173
     0
291
     1
 45
0.0
1001
ACAD
1000
AcDbSavedByObjectVersion
1070
     0
  0
DICTIONARYVAR
  5
207
102
{ACAD_REACTORS
330
206
102
}
330
206
100
DictionaryVariables
280
     0
  1
1:1
  0
DICTIONARYVAR
  5
20B
102
{ACAD_REACTORS
330
206
102
}
330
206
100
DictionaryVariables
280
     0
  1
80.000000
  0
DICTIONARYVAR
  5
20A
102
{ACAD_REACTORS
330
206
102
}
330
206
100
DictionaryVariables
280
     0
  1
5.000000
  0
ENDSEC
  0
EOF
