  0
SECTION
  2
HEADER
  9
$ACADVER
  1
AC1015
  9
$ACADMAINTVER
 70
     6
  9
$DWGCODEPAGE
  3
ANSI_1252
  9
$INSBASE
 10
0.0
 20
0.0
 30
0.0
  9
$EXTMIN
 10
0.0
 20
0.0
 30
0.0
  9
$EXTMAX
 10
3000.0
 20
4500.0
 30
0.0
  9
$LIMMIN
 10
0.0
 20
0.0
  9
$LIMMAX
 10
3000.0
 20
4500.0
  9
$ORTHOMODE
 70
     0
  9
$REGENMODE
 70
     1
  9
$FILLMODE
 70
     1
  9
$QTEXTMODE
 70
     0
  9
$MIRRTEXT
 70
     1
  9
$LTSCALE
 40
1.0
  9
$ATTMODE
 70
     1
  9
$TEXTSIZE
 40
2.5
  9
$TRACEWID
 40
1.0
  9
$TEXTSTYLE
  7
Standard
  9
$CLAYER
  8
0
  9
$CELTYPE
  6
ByLayer
  9
$CECOLOR
 62
   256
  9
$CELTSCALE
 40
1.0
  9
$DISPSILH
 70
     0
  9
$DIMSCALE
 40
1.0
  9
$DIMASZ
 40
2.5
  9
$DIMEXO
 40
0.625
  9
$DIMDLI
 40
3.75
  9
$DIMRND
 40
0.0
  9
$DIMDLE
 40
0.0
  9
$DIMEXE
 40
1.25
  9
$DIMTP
 40
0.0
  9
$DIMTM
 40
0.0
  9
$DIMTXT
 40
2.5
  9
$DIMCEN
 40
2.5
  9
$DIMTSZ
 40
0.0
  9
$DIMTOL
 70
     0
  9
$DIMLIM
 70
     0
  9
$DIMTIH
 70
     0
  9
$DIMTOH
 70
     0
  9
$DIMSE1
 70
     0
  9
$DIMSE2
 70
     0
  9
$DIMTAD
 70
     1
  9
$DIMZIN
 70
     8
  9
$DIMBLK
  1

  9
$DIMASO
 70
     1
  9
$DIMSHO
 70
     1
  9
$DIMPOST
  1

  9
$DIMAPOST
  1

  9
$DIMALT
 70
     0
  9
$DIMALTD
 70
     3
  9
$DIMALTF
 40
0.0393700787
  9
$DIMLFAC
 40
1.0
  9
$DIMTOFL
 70
     1
  9
$DIMTVP
 40
0.0
  9
$DIMTIX
 70
     0
  9
$DIMSOXD
 70
     0
  9
$DIMSAH
 70
     0
  9
$DIMBLK1
  1

  9
$DIMBLK2
  1

  9
$DIMSTYLE
  2
ISO-25
  9
$DIMCLRD
 70
     0
  9
$DIMCLRE
 70
     0
  9
$DIMCLRT
 70
     0
  9
$DIMTFAC
 40
1.0
  9
$DIMGAP
 40
0.625
  9
$DIMJUST
 70
     0
  9
$DIMSD1
 70
     0
  9
$DIMSD2
 70
     0
  9
$DIMTOLJ
 70
     0
  9
$DIMTZIN
 70
     8
  9
$DIMALTZ
 70
     0
  9
$DIMALTTZ
 70
     0
  9
$DIMUPT
 70
     0
  9
$DIMDEC
 70
     2
  9
$DIMTDEC
 70
     2
  9
$DIMALTU
 70
     2
  9
$DIMALTTD
 70
     3
  9
$DIMTXSTY
  7
Standard
  9
$DIMAUNIT
 70
     0
  9
$DIMADEC
 70
     0
  9
$DIMALTRND
 40
0.0
  9
$DIMAZIN
 70
     0
  9
$DIMDSEP
 70
    44
  9
$DIMATFIT
 70
     3
  9
$DIMFRAC
 70
     0
  9
$DIMLDRBLK
  1

  9
$DIMLUNIT
 70
     2
  9
$DIMLWD
 70
    -2
  9
$DIMLWE
 70
    -2
  9
$DIMTMOVE
 70
     0
  9
$LUNITS
 70
     2
  9
$LUPREC
 70
     4
  9
$SKETCHINC
 40
1.0
  9
$FILLETRAD
 40
10.0
  9
$AUNITS
 70
     0
  9
$AUPREC
 70
     0
  9
$MENU
  1
.
  9
$ELEVATION
 40
0.0
  9
$PELEVATION
 40
0.0
  9
$THICKNESS
 40
0.0
  9
$LIMCHECK
 70
     0
  9
$CHAMFERA
 40
10.0
  9
$CHAMFERB
 40
10.0
  9
$CHAMFERC
 40
20.0
  9
$CHAMFERD
 40
0.0
  9
$SKPOLY
 70
     0
  9
$TDCREATE
 40
2455790.556726945
  9
$TDUCREATE
 40
2455790.473393611
  9
$TDUPDATE
 40
2455790.556726956
  9
$TDUUPDATE
 40
2455790.473393623
  9
$TDINDWG
 40
0.0000000116
  9
$TDUSRTIMER
 40
0.0000000116
  9
$USRTIMER
 70
     1
  9
$ANGBASE
 50
0.0
  9
$ANGDIR
 70
     0
  9
$PDMODE
 70
     0
  9
$PDSIZE
 40
0.0
  9
$PLINEWID
 40
0.0
  9
$SPLFRAME
 70
     0
  9
$SPLINETYPE
 70
     6
  9
$SPLINESEGS
 70
     8
  9
$HANDSEED
  5
19D
  9
$SURFTAB1
 70
     6
  9
$SURFTAB2
 70
     6
  9
$SURFTYPE
 70
     6
  9
$SURFU
 70
     6
  9
$SURFV
 70
     6
  9
$UCSBASE
  2

  9
$UCSNAME
  2

  9
$UCSORG
 10
0.0
 20
0.0
 30
0.0
  9
$UCSXDIR
 10
1.0
 20
0.0
 30
0.0
  9
$UCSYDIR
 10
0.0
 20
1.0
 30
0.0
  9
$UCSORTHOREF
  2

  9
$UCSORTHOVIEW
 70
     0
  9
$UCSORGTOP
 10
0.0
 20
0.0
 30
0.0
  9
$UCSORGBOTTOM
 10
0.0
 20
0.0
 30
0.0
  9
$UCSORGLEFT
 10
0.0
 20
0.0
 30
0.0
  9
$UCSORGRIGHT
 10
0.0
 20
0.0
 30
0.0
  9
$UCSORGFRONT
 10
0.0
 20
0.0
 30
0.0
  9
$UCSORGBACK
 10
0.0
 20
0.0
 30
0.0
  9
$PUCSBASE
  2

  9
$PUCSNAME
  2

  9
$PUCSORG
 10
0.0
 20
0.0
 30
0.0
  9
$PUCSXDIR
 10
1.0
 20
0.0
 30
0.0
  9
$PUCSYDIR
 10
0.0
 20
1.0
 30
0.0
  9
$PUCSORTHOREF
  2

  9
$PUCSORTHOVIEW
 70
     0
  9
$PUCSORGTOP
 10
0.0
 20
0.0
 30
0.0
  9
$PUCSORGBOTTOM
 10
0.0
 20
0.0
 30
0.0
  9
$PUCSORGLEFT
 10
0.0
 20
0.0
 30
0.0
  9
$PUCSORGRIGHT
 10
0.0
 20
0.0
 30
0.0
  9
$PUCSORGFRONT
 10
0.0
 20
0.0
 30
0.0
  9
$PUCSORGBACK
 10
0.0
 20
0.0
 30
0.0
  9
$USERI1
 70
     0
  9
$USERI2
 70
     0
  9
$USERI3
 70
     0
  9
$USERI4
 70
     0
  9
$USERI5
 70
     0
  9
$USERR1
 40
0.0
  9
$USERR2
 40
0.0
  9
$USERR3
 40
0.0
  9
$USERR4
 40
0.0
  9
$USERR5
 40
0.0
  9
$WORLDVIEW
 70
     1
  9
$SHADEDGE
 70
     3
  9
$SHADEDIF
 70
    70
  9
$TILEMODE
 70
     1
  9
$MAXACTVP
 70
    64
  9
$PINSBASE
 10
0.0
 20
0.0
 30
0.0
  9
$PLIMCHECK
 70
     0
  9
$PEXTMIN
 10
0.0
 20
0.0
 30
0.0
  9
$PEXTMAX
 10
3000.0
 20
4500.0
 30
0.0
  9
$PLIMMIN
 10
0.0
 20
0.0
  9
$PLIMMAX
 10
3000.0
 20
4500.0
  9
$UNITMODE
 70
     0
  9
$VISRETAIN
 70
     1
  9
$PLINEGEN
 70
     0
  9
$PSLTSCALE
 70
     1
  9
$TREEDEPTH
 70
  3020
  9
$CMLSTYLE
  2
Standard
  9
$CMLJUST
 70
     0
  9
$CMLSCALE
 40
20.0
  9
$PROXYGRAPHICS
 70
     1
  9
$MEASUREMENT
 70
     1
  9
$CELWEIGHT
370
    -1
  9
$ENDCAPS
280
     0
  9
$JOINSTYLE
280
     0
  9
$LWDISPLAY
290
     0
  9
$INSUNITS
 70
     4
  9
$HYPERLINKBASE
  1

  9
$STYLESHEET
  1

  9
$XEDIT
290
     1
  9
$CEPSNTYPE
380
     0
  9
$PSTYLEMODE
290
     1
  9
$FINGERPRINTGUID
  2
{0033D62F-813C-48DE-BE88-E63E27FD69B7}
  9
$VERSIONGUID
  2
{FAEB1C32-E019-11D5-929B-00C0DF256EC4}
  9
$EXTNAMES
290
     1
  9
$PSVPSCALE
 40
0.0
  9
$OLESTARTUP
290
     0
  0
ENDSEC
  0
SECTION
  2
CLASSES
  0
CLASS
  1
ACDBDICTIONARYWDFLT
  2
AcDbDictionaryWithDefault
  3
ObjectDBX Classes
 90
        0
280
     0
281
     0
  0
CLASS
  1
VISUALSTYLE
  2
AcDbVisualStyle
  3
ObjectDBX Classes
 90
     4095
280
     0
281
     0
  0
CLASS
  1
SCALE
  2
AcDbScale
  3
ObjectDBX Classes
 90
     1153
280
     0
281
     0
  0
CLASS
  1
DICTIONARYVAR
  2
AcDbDictionaryVar
  3
ObjectDBX Classes
 90
        0
280
     0
281
     0
  0
CLASS
  1
ACDBPLACEHOLDER
  2
AcDbPlaceHolder
  3
ObjectDBX Classes
 90
        0
280
     0
281
     0
  0
CLASS
  1
LAYOUT
  2
AcDbLayout
  3
ObjectDBX Classes
 90
        0
280
     0
281
     0
  0
ENDSEC
  0
SECTION
  2
TABLES
  0
TABLE
  2
VPORT
  5
8
330
0
100
AcDbSymbolTable
 70
     1
  0
VPORT
  5
29
330
8
100
AcDbSymbolTableRecord
100
AcDbViewportTableRecord
  2
*Active
 70
     0
 10
0.0
 20
0.0
 11
1.0
 21
1.0
 12
344.1869158879
 22
148.5
 13
0.0
 23
0.0
 14
10.0
 24
10.0
 15
10.0
 25
10.0
 16
0.0
 26
0.0
 36
1.0
 17
0.0
 27
0.0
 37
0.0
 40
297.0
 41
1.9729729729
 42
50.0
 43
0.0
 44
0.0
 50
0.0
 51
0.0
 71
     0
 72
   100
 73
     1
 74
     3
 75
     0
 76
     0
 77
     0
 78
     0
281
     0
 65
     1
110
0.0
120
0.0
130
0.0
111
1.0
121
0.0
131
0.0
112
0.0
122
1.0
132
0.0
 79
     0
146
0.0
  0
ENDTAB
  0
TABLE
  2
LTYPE
  5
5
330
0
100
AcDbSymbolTable
 70
     2
  0
LTYPE
  5
14
330
5
100
AcDbSymbolTableRecord
100
AcDbLinetypeTableRecord
  2
ByBlock
 70
     0
  3

 72
    65
 73
     0
 40
0.0
  0
LTYPE
  5
15
330
5
100
AcDbSymbolTableRecord
100
AcDbLinetypeTableRecord
  2
ByLayer
 70
     0
  3

 72
    65
 73
     0
 40
0.0
  0
LTYPE
  5
16
330
5
100
AcDbSymbolTableRecord
100
AcDbLinetypeTableRecord
  2
Continuous
 70
     0
  3
Solid line
 72
    65
 73
     0
 40
0.0
  0
LTYPE
  5
60
330
5
100
AcDbSymbolTableRecord
100
AcDbLinetypeTableRecord
  2
CENTER2
 70
     0
  3
Center (.5x) ___ _ ___ _ ___ _ ___ _ ___ _ ___
 72
    65
 73
     4
 40
28.575
 49
19.05
 74
     4
 75
     0
340
0
 46
0.0
 50
0.0
 44
0.0
 45
0.0
 49
-3.175
 74
     4
 75
     0
340
0
 46
0.0
 50
0.0
 44
0.0
 45
0.0
 49
3.175
 74
     4
 75
     0
340
0
 46
0.0
 50
0.0
 44
0.0
 45
0.0
 49
-3.175
 74
     4
 75
     0
340
0
 46
0.0
 50
0.0
 44
0.0
 45
0.0
  0
ENDTAB
  0
TABLE
  2
LAYER
  5
2
330
0
100
AcDbSymbolTable
 70
    10
  0
LAYER
  5
10
330
2
100
AcDbSymbolTableRecord
100
AcDbLayerTableRecord
  2
0
 70
     0
 62
     7
  6
Continuous
370
    -3
390
F
  0
LAYER
  5
5D
330
2
100
AcDbSymbolTableRecord
100
AcDbLayerTableRecord
  2
Default
 70
     0
 62
     7
  6
Continuous
370
    -3
390
F
  0
LAYER
  5
8D
330
2
100
AcDbSymbolTableRecord
100
AcDbLayerTableRecord
  2
A4226700_GEH_EHM
 70
     0
 62
     7
  6
Continuous
370
    -3
390
F
  0
LAYER
  5
90
330
2
100
AcDbSymbolTableRecord
100
AcDbLayerTableRecord
  2
$DDT_AUDIT_GENERATED_(90)
 70
     0
 62
     7
  6
Continuous
370
    -3
390
F
  0
LAYER
  5
9F
330
2
100
AcDbSymbolTableRecord
100
AcDbLayerTableRecord
  2
$DDT_AUDIT_GENERATED_(9F)
 70
     0
 62
     7
  6
Continuous
370
    -3
390
F
  0
LAYER
  5
CF
330
2
100
AcDbSymbolTableRecord
100
AcDbLayerTableRecord
  2
$DDT_AUDIT_GENERATED_(CF)
 70
     0
 62
     7
  6
Continuous
370
    -3
390
F
  0
LAYER
  5
EE
330
2
100
AcDbSymbolTableRecord
100
AcDbLayerTableRecord
  2
$DDT_AUDIT_GENERATED_(EE)
 70
     0
 62
     7
  6
Continuous
370
    -3
390
F
  0
LAYER
  5
111
330
2
100
AcDbSymbolTableRecord
100
AcDbLayerTableRecord
  2
$DDT_AUDIT_GENERATED_(111)
 70
     0
 62
     7
  6
Continuous
370
    -3
390
F
  0
LAYER
  5
115
330
2
100
AcDbSymbolTableRecord
100
AcDbLayerTableRecord
  2
01081038_EURO-EC
 70
     0
 62
     7
  6
Continuous
370
    -3
390
F
  0
LAYER
  5
134
330
2
100
AcDbSymbolTableRecord
100
AcDbLayerTableRecord
  2
$DDT_AUDIT_GENERATED_(134)
 70
     0
 62
     7
  6
Continuous
370
    -3
390
F
  0
ENDTAB
  0
TABLE
  2
STYLE
  5
3
330
0
100
AcDbSymbolTable
 70
     2
  0
STYLE
  5
11
330
3
100
AcDbSymbolTableRecord
100
AcDbTextStyleTableRecord
  2
Standard
 70
     0
 40
0.0
 41
1.0
 50
0.0
 71
     0
 42
2.5
  3
txt
  4

  0
STYLE
  5
18C
330
3
100
AcDbSymbolTableRecord
100
AcDbTextStyleTableRecord
  2
SEACAD_seiso_ttf
 70
     0
 40
0.0
 41
1.0
 50
0.0
 71
     0
 42
0.2
  3
seiso.ttf
  4

  0
ENDTAB
  0
TABLE
  2
VIEW
  5
6
330
0
100
AcDbSymbolTable
 70
     0
  0
ENDTAB
  0
TABLE
  2
UCS
  5
7
330
0
100
AcDbSymbolTable
 70
     0
  0
ENDTAB
  0
TABLE
  2
APPID
  5
9
330
0
100
AcDbSymbolTable
 70
     1
  0
APPID
  5
12
330
9
100
AcDbSymbolTableRecord
100
AcDbRegAppTableRecord
  2
ACAD
 70
     0
  0
ENDTAB
  0
TABLE
  2
DIMSTYLE
  5
A
330
0
100
AcDbSymbolTable
 70
     1
100
AcDbDimStyleTable
  0
DIMSTYLE
105
27
330
A
100
AcDbSymbolTableRecord
100
AcDbDimStyleTableRecord
  2
ISO-25
 70
     0
 41
2.5
 42
0.625
 43
3.75
 44
1.25
 73
     0
 74
     0
 77
     1
 78
     8
140
2.5
141
2.5
143
0.0393700787
147
0.625
171
     3
172
     1
271
     2
272
     2
274
     3
278
    44
283
     0
284
     8
340
11
  0
ENDTAB
  0
TABLE
  2
BLOCK_RECORD
  5
1
330
0
100
AcDbSymbolTable
 70
    10
  0
BLOCK_RECORD
  5
1F
330
1
100
AcDbSymbolTableRecord
100
AcDbBlockTableRecord
  2
*Model_Space
340
22
  0
BLOCK_RECORD
  5
1B
330
1
100
AcDbSymbolTableRecord
100
AcDbBlockTableRecord
  2
*Paper_Space
340
1E
  0
BLOCK_RECORD
  5
5E
330
1
100
AcDbSymbolTableRecord
100
AcDbBlockTableRecord
  2
SEANNOT_GROUP
340
0
102
{BLKREFS
331
5F
102
}
  0
BLOCK_RECORD
  5
65
330
1
100
AcDbSymbolTableRecord
100
AcDbBlockTableRecord
  2
SEANNOT_GROUP1
340
0
102
{BLKREFS
331
66
102
}
  0
BLOCK_RECORD
  5
6B
330
1
100
AcDbSymbolTableRecord
100
AcDbBlockTableRecord
  2
SEANNOT_GROUP2
340
0
102
{BLKREFS
331
6C
102
}
  0
BLOCK_RECORD
  5
71
330
1
100
AcDbSymbolTableRecord
100
AcDbBlockTableRecord
  2
SEANNOT_GROUP3
340
0
102
{BLKREFS
331
72
102
}
  0
BLOCK_RECORD
  5
77
330
1
100
AcDbSymbolTableRecord
100
AcDbBlockTableRecord
  2
SEANNOT_GROUP4
340
0
102
{BLKREFS
331
78
102
}
  0
BLOCK_RECORD
  5
81
330
1
100
AcDbSymbolTableRecord
100
AcDbBlockTableRecord
  2
SEANNOT_GROUP5
340
0
102
{BLKREFS
331
82
102
}
  0
BLOCK_RECORD
  5
8B
330
1
100
AcDbSymbolTableRecord
100
AcDbBlockTableRecord
  2
SE
340
0
102
{BLKREFS
331
8C
102
}
  0
BLOCK_RECORD
  5
B9
330
1
100
AcDbSymbolTableRecord
100
AcDbBlockTableRecord
  2
SE1
340
0
102
{BLKREFS
331
BA
102
}
  0
BLOCK_RECORD
  5
11C
330
1
100
AcDbSymbolTableRecord
100
AcDbBlockTableRecord
  2
SE2
340
0
102
{BLKREFS
331
11D
102
}
  0
ENDTAB
  0
ENDSEC
  0
SECTION
  2
BLOCKS
  0
BLOCK
  5
20
330
1F
100
AcDbEntity
  8
0
100
AcDbBlockBegin
  2
*Model_Space
 70
     0
 10
0.0
 20
0.0
 30
0.0
  3
*Model_Space
  1

  0
ENDBLK
  5
21
330
1F
100
AcDbEntity
  8
0
100
AcDbBlockEnd
  0
BLOCK
  5
1C
330
1B
100
AcDbEntity
 67
     1
  8
0
100
AcDbBlockBegin
  2
*Paper_Space
 70
     0
 10
0.0
 20
0.0
 30
0.0
  3
*Paper_Space
  1

  0
ENDBLK
  5
1D
330
1B
100
AcDbEntity
 67
     1
  8
0
100
AcDbBlockEnd
  0
BLOCK
  5
63
330
5E
100
AcDbEntity
  8
0
100
AcDbBlockBegin
  2
SEANNOT_GROUP
 70
     0
 10
0.0
 20
0.0
 30
0.0
  3
SEANNOT_GROUP
  1

  0
LINE
  5
61
330
5E
100
AcDbEntity
  8
Default
  6
CENTER2
 62
     7
100
AcDbLine
 10
42.599999553
 20
227.8931882833
 30
0.0
 11
2.600000447
 21
227.8931882833
 31
0.0
  0
LINE
  5
62
330
5E
100
AcDbEntity
  8
Default
  6
CENTER2
 62
     7
100
AcDbLine
 10
22.6
 20
247.8931878363
 30
0.0
 11
22.6
 21
207.8931887304
 31
0.0
  0
ENDBLK
  5
64
330
5E
100
AcDbEntity
  8
0
100
AcDbBlockEnd
  0
BLOCK
  5
69
330
65
100
AcDbEntity
  8
0
100
AcDbBlockBegin
  2
SEANNOT_GROUP1
 70
     0
 10
0.0
 20
0.0
 30
0.0
  3
SEANNOT_GROUP1
  1

  0
LINE
  5
67
330
65
100
AcDbEntity
  8
Default
  6
CENTER2
 62
     7
100
AcDbLine
 10
192.599999553
 20
227.8931882833
 30
0.0
 11
152.600000447
 21
227.8931882833
 31
0.0
  0
LINE
  5
68
330
65
100
AcDbEntity
  8
Default
  6
CENTER2
 62
     7
100
AcDbLine
 10
172.6
 20
247.8931878363
 30
0.0
 11
172.6
 21
207.8931887304
 31
0.0
  0
ENDBLK
  5
6A
330
65
100
AcDbEntity
  8
0
100
AcDbBlockEnd
  0
BLOCK
  5
6F
330
6B
100
AcDbEntity
  8
0
100
AcDbBlockBegin
  2
SEANNOT_GROUP2
 70
     0
 10
0.0
 20
0.0
 30
0.0
  3
SEANNOT_GROUP2
  1

  0
LINE
  5
6D
330
6B
100
AcDbEntity
  8
Default
  6
CENTER2
 62
     7
100
AcDbLine
 10
298.1981379556
 20
336.5027525392
 30
0.0
 11
258.1981388496
 21
336.5027525392
 31
0.0
  0
LINE
  5
6E
330
6B
100
AcDbEntity
  8
Default
  6
CENTER2
 62
     7
100
AcDbLine
 10
278.1981384026
 20
356.5027520921
 30
0.0
 11
278.1981384026
 21
316.5027529862
 31
0.0
  0
ENDBLK
  5
70
330
6B
100
AcDbEntity
  8
0
100
AcDbBlockEnd
  0
BLOCK
  5
75
330
71
100
AcDbEntity
  8
0
100
AcDbBlockBegin
  2
SEANNOT_GROUP3
 70
     0
 10
0.0
 20
0.0
 30
0.0
  3
SEANNOT_GROUP3
  1

  0
LINE
  5
73
330
71
100
AcDbEntity
  8
Default
  6
CENTER2
 62
     7
100
AcDbLine
 10
270.1981379556
 20
390.4027525392
 30
0.0
 11
230.1981388496
 21
390.4027525392
 31
0.0
  0
LINE
  5
74
330
71
100
AcDbEntity
  8
Default
  6
CENTER2
 62
     7
100
AcDbLine
 10
250.1981384026
 20
410.4027520921
 30
0.0
 11
250.1981384026
 21
370.4027529862
 31
0.0
  0
ENDBLK
  5
76
330
71
100
AcDbEntity
  8
0
100
AcDbBlockEnd
  0
BLOCK
  5
7F
330
77
100
AcDbEntity
  8
0
100
AcDbBlockBegin
  2
SEANNOT_GROUP4
 70
     0
 10
0.0
 20
0.0
 30
0.0
  3
SEANNOT_GROUP4
  1

  0
LINE
  5
79
330
77
100
AcDbEntity
  8
Default
  6
CENTER2
 62
     7
100
AcDbLine
 10
192.599999553
 20
390.4027525392
 30
0.0
 11
152.600000447
 21
390.4027525392
 31
0.0
  0
LINE
  5
7A
330
77
100
AcDbEntity
  8
Default
  6
CENTER2
 62
     7
100
AcDbLine
 10
172.6
 20
410.4027520921
 30
0.0
 11
172.6
 21
370.4027529862
 31
0.0
  0
LINE
  5
7B
330
77
100
AcDbEntity
  8
Default
  6
CENTER2
 62
     7
100
AcDbLine
 10
197.5999994412
 20
390.4027525392
 30
0.0
 11
192.35
 21
390.4027525392
 31
0.0
  0
LINE
  5
7C
330
77
100
AcDbEntity
  8
Default
  6
CENTER2
 62
     7
100
AcDbLine
 10
172.6
 20
415.4027519804
 30
0.0
 11
172.6
 21
410.1527525392
 31
0.0
  0
LINE
  5
7D
330
77
100
AcDbEntity
  8
Default
  6
CENTER2
 62
     7
100
AcDbLine
 10
147.6000005588
 20
390.4027525392
 30
0.0
 11
152.85
 21
390.4027525392
 31
0.0
  0
LINE
  5
7E
330
77
100
AcDbEntity
  8
Default
  6
CENTER2
 62
     7
100
AcDbLine
 10
172.6
 20
365.402753098
 30
0.0
 11
172.6
 21
370.6527525392
 31
0.0
  0
ENDBLK
  5
80
330
77
100
AcDbEntity
  8
0
100
AcDbBlockEnd
  0
BLOCK
  5
89
330
81
100
AcDbEntity
  8
0
100
AcDbBlockBegin
  2
SEANNOT_GROUP5
 70
     0
 10
0.0
 20
0.0
 30
0.0
  3
SEANNOT_GROUP5
  1

  0
LINE
  5
83
330
81
100
AcDbEntity
  8
Default
  6
CENTER2
 62
     7
100
AcDbLine
 10
42.599999553
 20
390.4027525392
 30
0.0
 11
2.600000447
 21
390.4027525392
 31
0.0
  0
LINE
  5
84
330
81
100
AcDbEntity
  8
Default
  6
CENTER2
 62
     7
100
AcDbLine
 10
22.6
 20
410.4027520921
 30
0.0
 11
22.6
 21
370.4027529862
 31
0.0
  0
LINE
  5
85
330
81
100
AcDbEntity
  8
Default
  6
CENTER2
 62
     7
100
AcDbLine
 10
47.5999994412
 20
390.4027525392
 30
0.0
 11
42.35
 21
390.4027525392
 31
0.0
  0
LINE
  5
86
330
81
100
AcDbEntity
  8
Default
  6
CENTER2
 62
     7
100
AcDbLine
 10
22.6
 20
415.4027519804
 30
0.0
 11
22.6
 21
410.1527525392
 31
0.0
  0
LINE
  5
87
330
81
100
AcDbEntity
  8
Default
  6
CENTER2
 62
     7
100
AcDbLine
 10
-2.3999994412
 20
390.4027525392
 30
0.0
 11
2.85
 21
390.4027525392
 31
0.0
  0
LINE
  5
88
330
81
100
AcDbEntity
  8
Default
  6
CENTER2
 62
     7
100
AcDbLine
 10
22.6
 20
365.402753098
 30
0.0
 11
22.6
 21
370.6527525392
 31
0.0
  0
ENDBLK
  5
8A
330
81
100
AcDbEntity
  8
0
100
AcDbBlockEnd
  0
BLOCK
  5
B7
330
8B
100
AcDbEntity
  8
0
100
AcDbBlockBegin
  2
SE
 70
     0
 10
0.0
 20
0.0
 30
0.0
  3
SE
  1

  0
SPLINE
  5
8E
330
8B
100
AcDbEntity
  8
A4226700_GEH_EHM
  6
Continuous
 62
     7
100
AcDbSpline
210
0.0
220
0.0
230
1.0
 70
     8
 71
     3
 72
    56
 73
    52
 74
     0
 42
0.0000000000876205
 43
0.0000000001
 40
0.0644516327839757
 40
0.0644516327839757
 40
0.0644516327839757
 40
0.0644516327839757
 40
0.0803360075409667
 40
0.1018564123576263
 40
0.1219248434946721
 40
0.140171869922417
 40
0.156226924140287
 40
0.1697324261919287
 40
0.1805105698300983
 40
0.1891913692722507
 40
0.1967728935244945
 40
0.204205931631547
 40
0.2123763610912254
 40
0.2221386604336134
 40
0.2342140063333522
 40
0.2485684334808015
 40
0.2649776323009956
 40
0.2832102808468796
 40
0.3027626925099599
 40
0.3375031386606174
 40
0.3725208534851747
 40
0.4074737094943637
 40
0.4421779289501805
 40
0.4765082954681952
 40
0.5103604956939441
 40
0.5436358981519869
 40
0.5722021926886319
 40
0.6001961799562192
 40
0.6277784367615247
 40
0.6551598211441886
 40
0.6734371013744854
 40
0.6917369097622834
 40
0.7100114136580088
 40
0.7283935309223779
 40
0.7470247545621449
 40
0.7660260225198515
 40
0.7806267466744944
 40
0.79554798473045
 40
0.8108666086530559
 40
0.8264437791569231
 40
0.8421865051057404
 40
0.8579729397830832
 40
0.8736658856514093
 40
0.8891446806581259
 40
0.9042854776319249
 40
0.918991549372167
 40
0.9332135097142485
 40
0.9470386706557571
 40
0.9650019264302487
 40
0.9825894730377774
 40
1.0
 40
1.0
 40
1.0
 40
1.0
 10
113.5177169711158
 20
354.7287919960407
 30
0.0
 10
114.0336485563868
 20
355.0451107216708
 30
0.0
 10
115.2285905443826
 20
355.8281947558889
 30
0.0
 10
116.9740309238339
 20
357.1525660679504
 30
0.0
 10
118.6804605149936
 20
358.6675416544728
 30
0.0
 10
120.1312603147618
 20
360.1468185949017
 30
0.0
 10
121.3252036288617
 20
361.5204544506868
 30
0.0
 10
122.2709580071791
 20
362.7267301827482
 30
0.0
 10
122.9942038488682
 20
363.7408447204465
 30
0.0
 10
123.5791145633121
 20
364.5658389899733
 30
0.0
 10
124.0958077238583
 20
365.2759338327396
 30
0.0
 10
124.6205461935236
 20
365.9588479766409
 30
0.0
 10
125.2322006711037
 20
366.6902857893909
 30
0.0
 10
126.019480236415
 20
367.5143331418058
 30
0.0
 10
127.0692526786541
 20
368.413043603502
 30
0.0
 10
128.4486148967011
 20
369.2975950666322
 30
0.0
 10
130.1607717705047
 20
370.058954000887
 30
0.0
 10
132.1475663040489
 20
370.6387769338235
 30
0.0
 10
134.866876866313
 20
371.1471039135188
 30
0.0
 10
138.2586437702252
 20
371.4725947465196
 30
0.0
 10
142.2427898607179
 20
371.6773052009578
 30
0.0
 10
146.2263721371625
 20
371.8323850067428
 30
0.0
 10
150.1802397575025
 20
372.0089204063698
 30
0.0
 10
154.0866143607645
 20
372.2376658889018
 30
0.0
 10
157.9308236493515
 20
372.5334560525768
 30
0.0
 10
161.5480153547705
 20
372.8770412153028
 30
0.0
 10
164.9367037628664
 20
373.244896229443
 30
0.0
 10
168.104772253889
 20
373.6223436094675
 30
0.0
 10
171.2295648346653
 20
373.9761690511226
 30
0.0
 10
173.9672338530785
 20
374.4474675367138
 30
0.0
 10
176.3188494593993
 20
375.0526716600616
 30
0.0
 10
178.2528561004695
 20
375.8349666929188
 30
0.0
 10
180.071167665092
 20
376.8657489050269
 30
0.0
 10
181.7502045742803
 20
378.1343637534894
 30
0.0
 10
183.268501941222
 20
379.6335104818131
 30
0.0
 10
184.4872604313232
 20
381.2089676484694
 30
0.0
 10
185.4365312388148
 20
382.7956912875924
 30
0.0
 10
186.1581342554081
 20
384.3458754250689
 30
0.0
 10
186.7237221098894
 20
386.0000412461982
 30
0.0
 10
187.11377080778
 20
387.7369898810634
 30
0.0
 10
187.3158019058207
 20
389.5241838839939
 30
0.0
 10
187.3165558520387
 20
391.3275084796324
 30
0.0
 10
187.1166120366223
 20
393.1091421290888
 30
0.0
 10
186.7314140969927
 20
394.83416724525
 30
0.0
 10
186.1761288534713
 20
396.4715925621022
 30
0.0
 10
185.4721203954048
 20
397.9970041168232
 30
0.0
 10
184.6446022451854
 20
399.3988930356165
 30
0.0
 10
183.6071567245947
 20
400.8120249952793
 30
0.0
 10
182.3403446952133
 20
402.1861995232396
 30
0.0
 10
180.7705186970549
 20
403.5122324502895
 30
0.0
 10
179.7214859892971
 20
404.1590641529772
 30
0.0
 10
179.1002159393636
 20
404.5343322799018
 30
0.0
  0
SPLINE
  5
8F
330
8B
100
AcDbEntity
  8
A4226700_GEH_EHM
  6
Continuous
 62
     7
100
AcDbSpline
210
0.0
220
0.0
230
1.0
 70
     8
 71
     3
 72
    79
 73
    75
 74
     0
 42
0.0000000000359342
 43
0.0000000001
 40
0.0
 40
0.0
 40
0.0
 40
0.0
 40
0.0078077739759067
 40
0.0156281729610598
 40
0.0232942221421723
 40
0.0308992999162123
 40
0.0384293023394965
 40
0.0459002651655253
 40
0.081377521477076
 40
0.1176353693635902
 40
0.1548816889665931
 40
0.1929428374594783
 40
0.2315649796142347
 40
0.2697989629007609
 40
0.3080916479213675
 40
0.3462038287473549
 40
0.3838963133634768
 40
0.4198217341415025
 40
0.4549132454046599
 40
0.4889557136311658
 40
0.5046346603332618
 40
0.5201682801478607
 40
0.535638685364632
 40
0.5511169929441831
 40
0.5668896616169103
 40
0.5745287037752348
 40
0.5823879427256428
 40
0.5903334978916873
 40
0.5963349103098319
 40
0.6023826967926608
 40
0.6084751018456283
 40
0.6146238489595347
 40
0.620805077941686
 40
0.6270314556531115
 40
0.6332746858529659
 40
0.639536612447453
 40
0.6458070120066882
 40
0.6520756242768129
 40
0.658338717807165
 40
0.6645759080475744
 40
0.6707920592627508
 40
0.6769785295214208
 40
0.683128020755118
 40
0.6892421212180209
 40
0.6953104392917854
 40
0.7013287838674332
 40
0.7072936078596762
 40
0.7132061006232456
 40
0.7210197360736923
 40
0.7287834140980901
 40
0.7363567490059859
 40
0.743815284067908
 40
0.7511922299156325
 40
0.7584845591623733
 40
0.7761090491947682
 40
0.7941174039972846
 40
0.8127272944537658
 40
0.8319667375227132
 40
0.8514234109014454
 40
0.8634605774933339
 40
0.8752107866031839
 40
0.8827902677176505
 40
0.8900742437214116
 40
0.8970029183442939
 40
0.9019761471241019
 40
0.9068125297902591
 40
0.9139499398754767
 40
0.9211091211427668
 40
0.9283957448167917
 40
0.9357758760150388
 40
0.945608416755906
 40
0.9555885747026773
 40
0.9659121019226862
 40
0.9735779466258883
 40
0.9735779466258883
 40
0.9735779466258883
 40
0.9735779466258883
 10
179.1002159393636
 20
404.5343322799018
 30
0.0
 10
178.3943422572173
 20
404.8991583771945
 30
0.0
 10
177.1957982094459
 20
405.5087000353514
 30
0.0
 10
175.0860762557681
 20
406.1505591834145
 30
0.0
 10
173.0077311127241
 20
406.5877703809655
 30
0.0
 10
170.9217568269237
 20
406.9111680845461
 30
0.0
 10
168.8472266260865
 20
407.1555288191235
 30
0.0
 10
164.2142657699968
 20
407.7119179316563
 30
0.0
 10
156.9293580107247
 20
408.4979226610536
 30
0.0
 10
146.8771687267684
 20
409.4101648634141
 30
0.0
 10
136.5599825398708
 20
410.1623871678345
 30
0.0
 10
126.0024908319318
 20
410.7453490541719
 30
0.0
 10
115.3373288579806
 20
411.1463874257083
 30
0.0
 10
104.6405797889422
 20
411.3617985806404
 30
0.0
 10
93.98721044101893
 20
411.391261792253
 30
0.0
 10
83.38628956260837
 20
411.2368331415228
 30
0.0
 10
73.01338872410423
 20
410.9067613401316
 30
0.0
 10
62.93427087667815
 20
410.4164929096764
 30
0.0
 10
53.21123882529306
 20
409.7828535334558
 30
0.0
 10
45.38010771916102
 20
409.1437067984984
 30
0.0
 10
39.36706394650379
 20
408.5804515973221
 30
0.0
 10
35.07096652315038
 20
408.1443090586573
 30
0.0
 10
30.79830380405305
 20
407.6793061541189
 30
0.0
 10
26.51110787618632
 20
407.1714462053653
 30
0.0
 10
22.94109723121729
 20
406.745668770454
 30
0.0
 10
20.10968421925119
 20
406.1466260945496
 30
0.0
 10
18.03089854821395
 20
405.5089623806714
 30
0.0
 10
16.20415237181754
 20
404.6331493129078
 30
0.0
 10
14.63946480814615
 20
403.638621994765
 30
0.0
 10
13.32224202743397
 20
402.5900584538296
 30
0.0
 10
12.11172413038075
 20
401.3995428675858
 30
0.0
 10
11.02574112284176
 20
400.0769356104479
 30
0.0
 10
10.07983525260316
 20
398.634962370747
 30
0.0
 10
9.286364746191184
 20
397.0927627426587
 30
0.0
 10
8.661918840026193
 20
395.4658427803243
 30
0.0
 10
8.211388683893178
 20
393.7776389272021
 30
0.0
 10
7.942795262487687
 20
392.0481789758129
 30
0.0
 10
7.861384329365118
 20
390.2994916838487
 30
0.0
 10
7.969978814651876
 20
388.5554641134715
 30
0.0
 10
8.263393725695678
 20
386.8383021462649
 30
0.0
 10
8.73515395344475
 20
385.1694102326381
 30
0.0
 10
9.377360380577807
 20
383.5680960388452
 30
0.0
 10
10.17926711813864
 20
382.0522931114388
 30
0.0
 10
11.13027463769667
 20
380.6397489912558
 30
0.0
 10
12.21592153478188
 20
379.345194162876
 30
0.0
 10
13.4192288974722
 20
378.1805893864682
 30
0.0
 10
14.72612364173535
 20
377.1582850116305
 30
0.0
 10
16.27048608048068
 20
376.1875964841162
 30
0.0
 10
18.07252005635211
 20
375.3338741040211
 30
0.0
 10
20.12447251284788
 20
374.7079528556314
 30
0.0
 10
22.18641616090475
 20
374.2720986029101
 30
0.0
 10
24.23267246264874
 20
373.9529066365751
 30
0.0
 10
26.26367869587499
 20
373.7162327023292
 30
0.0
 10
29.22614313682126
 20
373.3607129209047
 30
0.0
 10
33.17033060774596
 20
372.9164145283904
 30
0.0
 10
38.17126466159836
 20
372.4447839168252
 30
0.0
 10
43.34069150297243
 20
372.0876780198192
 30
0.0
 10
48.65715958969911
 20
371.8393380552666
 30
0.0
 10
53.36757330720798
 20
371.6652076435494
 30
0.0
 10
57.37922663576769
 20
371.4340156897107
 30
0.0
 10
60.28112751864492
 20
371.140535018324
 30
0.0
 10
62.71891489702508
 20
370.7130489966903
 30
0.0
 10
64.67704898323615
 20
370.1837592749146
 30
0.0
 10
66.33208709063965
 20
369.5050219815639
 30
0.0
 10
67.67810380139588
 20
368.7195378449314
 30
0.0
 10
68.93139456853984
 20
367.7618499640701
 30
0.0
 10
70.1767161967655
 20
366.486422832248
 30
0.0
 10
71.39405542352125
 20
364.8962046773827
 30
0.0
 10
72.54788033347246
 20
363.2359580967398
 30
0.0
 10
73.92538500463404
 20
361.4317070109284
 30
0.0
 10
75.60515027621928
 20
359.551575822694
 30
0.0
 10
77.6359099328327
 20
357.6322564623294
 30
0.0
 10
79.68034523074145
 20
356.0235522072905
 30
0.0
 10
81.06846539247326
 20
355.1046468846212
 30
0.0
 10
81.67634512673135
 20
354.7319483875802
 30
0.0
  0
ARC
  5
91
330
8B
100
AcDbEntity
  8
$DDT_AUDIT_GENERATED_(90)
  6
Continuous
 62
     7
100
AcDbCircle
 10
172.6
 20
390.4027525392
 30
0.0
 40
16.25
100
AcDbArc
 50
292.619864948
 51
307.380135052
  0
ARC
  5
92
330
8B
100
AcDbEntity
  8
$DDT_AUDIT_GENERATED_(90)
  6
Continuous
 62
     7
100
AcDbCircle
 10
172.6
 20
390.4027525392
 30
0.0
 40
16.25000000000001
100
AcDbArc
 50
352.619864948
 51
7.380135052
  0
ARC
  5
93
330
8B
100
AcDbEntity
  8
$DDT_AUDIT_GENERATED_(90)
  6
Continuous
 62
     7
100
AcDbCircle
 10
172.6
 20
390.4027525392
 30
0.0
 40
16.25
100
AcDbArc
 50
52.619864948
 51
67.380135052
  0
LINE
  5
94
330
8B
100
AcDbEntity
  8
$DDT_AUDIT_GENERATED_(90)
  6
Continuous
 62
     7
100
AcDbLine
 10
177.0787580216
 20
375.4027525392
 30
0.0
 11
178.85
 21
375.4027525392
 31
0.0
  0
LINE
  5
95
330
8B
100
AcDbEntity
  8
$DDT_AUDIT_GENERATED_(90)
  6
Continuous
 62
     7
100
AcDbLine
 10
182.4653810568
 20
377.4900937655
 30
0.0
 11
188.7153810568
 21
388.3154113128
 31
0.0
  0
LINE
  5
96
330
8B
100
AcDbEntity
  8
$DDT_AUDIT_GENERATED_(90)
  6
Continuous
 62
     7
100
AcDbLine
 10
188.7153810568
 20
392.4900937655
 30
0.0
 11
182.4653810568
 21
403.3154113128
 31
0.0
  0
LINE
  5
97
330
8B
100
AcDbEntity
  8
$DDT_AUDIT_GENERATED_(90)
  6
Continuous
 62
     7
100
AcDbLine
 10
178.85
 20
405.4027525392
 30
0.0
 11
177.2845803526
 21
405.4027525392
 31
0.0
  0
ARC
  5
98
330
8B
100
AcDbEntity
  8
$DDT_AUDIT_GENERATED_(90)
  6
Continuous
 62
     7
100
AcDbCircle
 10
22.6
 20
390.4027525392
 30
0.0
 40
16.25
100
AcDbArc
 50
232.619864948
 51
247.380135052
  0
ARC
  5
99
330
8B
100
AcDbEntity
  8
$DDT_AUDIT_GENERATED_(90)
  6
Continuous
 62
     7
100
AcDbCircle
 10
22.6
 20
390.4027525392
 30
0.0
 40
16.25
100
AcDbArc
 50
112.619864948
 51
127.380135052
  0
ARC
  5
9A
330
8B
100
AcDbEntity
  8
$DDT_AUDIT_GENERATED_(90)
  6
Continuous
 62
     7
100
AcDbCircle
 10
22.6
 20
390.4027525392
 30
0.0
 40
16.25000000000001
100
AcDbArc
 50
172.619864948
 51
187.380135052
  0
LINE
  5
9B
330
8B
100
AcDbEntity
  8
$DDT_AUDIT_GENERATED_(90)
  6
Continuous
 62
     7
100
AcDbLine
 10
16.35
 20
375.4027525392
 30
0.0
 11
18.036488659
 21
375.4027525392
 31
0.0
  0
LINE
  5
9C
330
8B
100
AcDbEntity
  8
$DDT_AUDIT_GENERATED_(90)
  6
Continuous
 62
     7
100
AcDbLine
 10
17.9152748499
 20
405.4027525392
 30
0.0
 11
16.35
 21
405.4027525392
 31
0.0
  0
LINE
  5
9D
330
8B
100
AcDbEntity
  8
$DDT_AUDIT_GENERATED_(90)
  6
Continuous
 62
     7
100
AcDbLine
 10
12.7346189432
 20
403.3154113128
 30
0.0
 11
6.4846189432
 21
392.4900937655
 31
0.0
  0
LINE
  5
9E
330
8B
100
AcDbEntity
  8
$DDT_AUDIT_GENERATED_(90)
  6
Continuous
 62
     7
100
AcDbLine
 10
6.4846189432
 20
388.3154113128
 30
0.0
 11
12.7346189432
 21
377.4900937655
 31
0.0
  0
ARC
  5
A0
330
8B
100
AcDbEntity
  8
$DDT_AUDIT_GENERATED_(9F)
  6
Continuous
 62
     7
100
AcDbCircle
 10
-3134.5642704231
 20
516.8827492239
 30
0.0
 40
3250.920981193771
100
AcDbArc
 50
356.0333203206
 51
357.2005597616
  0
ARC
  5
A1
330
8B
100
AcDbEntity
  8
$DDT_AUDIT_GENERATED_(9F)
  6
Continuous
 62
     7
100
AcDbCircle
 10
3289.9096039512
 20
514.5165509144
 30
0.0
 40
3210.999066824737
100
AcDbArc
 50
182.7919918334
 51
183.9737177152
  0
SPLINE
  5
A2
330
8B
100
AcDbEntity
  8
$DDT_AUDIT_GENERATED_(9F)
  6
Continuous
 62
     7
100
AcDbSpline
210
0.0
220
0.0
230
1.0
 70
     8
 71
     3
 72
    13
 73
     9
 74
     0
 42
0.0000000051284666
 43
0.0000000001
 40
0.3959987612227303
 40
0.3959987612227303
 40
0.3959987612227303
 40
0.3959987612227303
 40
0.4625173667166891
 40
0.5638188869965033
 40
0.6681863032382869
 40
0.775656590427516
 40
0.8862558032474221
 40
0.9996790298153231
 40
0.9996790298153231
 40
0.9996790298153231
 40
0.9996790298153231
 10
86.13052115859358
 20
290.9443599324717
 30
0.0
 10
86.12565804383031
 20
290.9482083474148
 30
0.0
 10
86.12065858336405
 20
290.9696280294904
 30
0.0
 10
86.14281455283185
 20
291.0515075222553
 30
0.0
 10
86.20915907398698
 20
291.206700312527
 30
0.0
 10
86.31630125390201
 20
291.4223917200202
 30
0.0
 10
86.458662221115
 20
291.6891039007632
 30
0.0
 10
86.57220741380596
 20
291.8926982726243
 30
0.0
 10
86.62947424937265
 20
291.9970535054696
 30
0.0
  0
SPLINE
  5
A3
330
8B
100
AcDbEntity
  8
$DDT_AUDIT_GENERATED_(9F)
  6
Continuous
 62
     7
100
AcDbSpline
210
0.0
220
0.0
230
1.0
 70
     8
 71
     3
 72
    11
 73
     7
 74
     0
 42
0.0000000050608545
 43
0.0000000001
 40
0.0
 40
0.0
 40
0.0
 40
0.0
 40
0.0947004866187218
 40
0.3002908716122711
 40
0.5112352210971818
 40
0.599155224944114
 40
0.599155224944114
 40
0.599155224944114
 40
0.599155224944114
 10
108.5689618072951
 20
291.9959688904183
 30
0.0
 10
108.6375818325693
 20
291.9260920338989
 30
0.0
 10
108.8576669062933
 20
291.7069510008241
 30
0.0
 10
109.127606557711
 20
291.3421290366316
 30
0.0
 10
109.2629957674142
 20
291.1418101815471
 30
0.0
 10
109.23957772674
 20
291.0816119530418
 30
0.0
 10
109.2278454465581
 20
291.0719788442011
 30
0.0
  0
ARC
  5
A4
330
8B
100
AcDbEntity
  8
$DDT_AUDIT_GENERATED_(9F)
  6
Continuous
 62
     7
100
AcDbCircle
 10
97.5999999964
 20
380.9384677234
 30
0.0
 40
27.25002563936212
100
AcDbArc
 50
133.0947496928
 51
233.0143504454
  0
ARC
  5
A5
330
8B
100
AcDbEntity
  8
$DDT_AUDIT_GENERATED_(9F)
  6
Continuous
 62
     7
100
AcDbCircle
 10
97.5999999965
 20
380.9384677233
 30
0.0
 40
27.25002563940356
100
AcDbArc
 50
129.2952580351
 51
133.0947496928
  0
ARC
  5
A6
330
8B
100
AcDbEntity
  8
$DDT_AUDIT_GENERATED_(9F)
  6
Continuous
 62
     7
100
AcDbCircle
 10
97.5999999967
 20
380.9384677231
 30
0.0
 40
27.2500256397379
100
AcDbArc
 50
128.3460611553
 51
129.2952580351
  0
ARC
  5
A7
330
8B
100
AcDbEntity
  8
$DDT_AUDIT_GENERATED_(9F)
  6
Continuous
 62
     7
100
AcDbCircle
 10
97.5999999964
 20
380.9384677234
 30
0.0
 40
27.25002563936196
100
AcDbArc
 50
51.6624933949
 51
128.3460611553
  0
ARC
  5
A8
330
8B
100
AcDbEntity
  8
$DDT_AUDIT_GENERATED_(9F)
  6
Continuous
 62
     7
100
AcDbCircle
 10
97.5999999973
 20
380.9384677244
 30
0.0
 40
27.2500256380181
100
AcDbArc
 50
50.7067345863
 51
51.6624933949
  0
ARC
  5
A9
330
8B
100
AcDbEntity
  8
$DDT_AUDIT_GENERATED_(9F)
  6
Continuous
 62
     7
100
AcDbCircle
 10
97.5999999964
 20
380.9384677233
 30
0.0
 40
27.25002563942229
100
AcDbArc
 50
46.9073221529
 51
50.7067345863
  0
ARC
  5
AA
330
8B
100
AcDbEntity
  8
$DDT_AUDIT_GENERATED_(9F)
  6
Continuous
 62
     7
100
AcDbCircle
 10
97.5999999964
 20
380.9384677234
 30
0.0
 40
27.25002563936209
100
AcDbArc
 50
306.9837914816
 51
46.9073221529
  0
ARC
  5
AB
330
8B
100
AcDbEntity
  8
$DDT_AUDIT_GENERATED_(9F)
  6
Continuous
 62
     7
100
AcDbCircle
 10
-1590.1764547963
 20
443.9486263896
 30
0.0
 40
1704.81606561073
100
AcDbArc
 50
357.1138225468
 51
358.5823449164
  0
ARC
  5
AC
330
8B
100
AcDbEntity
  8
$DDT_AUDIT_GENERATED_(9F)
  6
Continuous
 62
     7
100
AcDbCircle
 10
1795.3197762238
 20
444.3272465763
 30
0.0
 40
1714.766570272482
100
AcDbArc
 50
181.4221251061
 51
182.8820648797
  0
ARC
  5
AD
330
8B
100
AcDbEntity
  8
$DDT_AUDIT_GENERATED_(9F)
  6
Continuous
 62
     7
100
AcDbCircle
 10
84.2326468534
 20
404.4395664151
 30
0.0
 40
4.130145470480988
100
AcDbArc
 50
211.0376291086
 51
220.2714994319
  0
ARC
  5
AE
330
8B
100
AcDbEntity
  8
$DDT_AUDIT_GENERATED_(9F)
  6
Continuous
 62
     7
100
AcDbCircle
 10
114.643826767
 20
358.3342442659
 30
0.0
 40
1.059862050007469
100
AcDbArc
 50
127.8624374846
 51
140.9591481845
  0
ELLIPSE
  5
AF
330
8B
100
AcDbEntity
  8
$DDT_AUDIT_GENERATED_(9F)
  6
Continuous
 62
     7
100
AcDbEllipse
 10
80.466231329
 20
358.1893361288
 30
0.0
 11
0.7397451460309999
 21
0.98218669809938
 31
0.0
210
0.0
220
0.0
230
1.0
 40
0.8943759343
 41
6.063106789612966
 42
6.283185307179586
  0
ARC
  5
B0
330
8B
100
AcDbEntity
  8
$DDT_AUDIT_GENERATED_(9F)
  6
Continuous
 62
     7
100
AcDbCircle
 10
-3136.2075165768
 20
513.720036627
 30
0.0
 40
3253.596600087367
100
AcDbArc
 50
356.0971212422
 51
357.2685026312
  0
ARC
  5
B1
330
8B
100
AcDbEntity
  8
$DDT_AUDIT_GENERATED_(9F)
  6
Continuous
 62
     7
100
AcDbCircle
 10
3353.5453931281
 20
515.095772168
 30
0.0
 40
3275.777256981889
100
AcDbArc
 50
182.7367316063
 51
183.9004800189
  0
ARC
  5
B2
330
8B
100
AcDbEntity
  8
$DDT_AUDIT_GENERATED_(9F)
  6
Continuous
 62
     7
100
AcDbCircle
 10
97.6097991847
 20
303.9927353644
 30
0.0
 40
17.3657723651957
100
AcDbArc
 50
228.6528949891
 51
311.9714520829
  0
ARC
  5
B3
330
8B
100
AcDbEntity
  8
$DDT_AUDIT_GENERATED_(9F)
  6
Continuous
 62
     7
100
AcDbCircle
 10
87.1377782339
 20
292.4168119138
 30
0.0
 40
1.784496797076317
100
AcDbArc
 50
184.8848957481
 51
235.5599128245
  0
ARC
  5
B4
330
8B
100
AcDbEntity
  8
$DDT_AUDIT_GENERATED_(9F)
  6
Continuous
 62
     7
100
AcDbCircle
 10
108.1861439567
 20
292.3592055746
 30
0.0
 40
1.650873813001762
100
AcDbArc
 50
309.1340443302
 51
356.661827803
  0
ARC
  5
B5
330
8B
100
AcDbEntity
  8
$DDT_AUDIT_GENERATED_(9F)
  6
Continuous
 62
     7
100
AcDbCircle
 10
114.4283671002
 20
358.5868624037
 30
0.0
 40
0.7375136761201903
100
AcDbArc
 50
145.6628686989
 51
172.9028272003
  0
ARC
  5
B6
330
8B
100
AcDbEntity
  8
$DDT_AUDIT_GENERATED_(9F)
  6
Continuous
 62
     7
100
AcDbCircle
 10
80.7709299743
 20
358.5874401004
 30
0.0
 40
0.7374762095492537
100
AcDbArc
 50
7.0974190977
 51
34.3349909533
  0
ENDBLK
  5
B8
330
8B
100
AcDbEntity
  8
0
100
AcDbBlockEnd
  0
BLOCK
  5
11A
330
B9
100
AcDbEntity
  8
0
100
AcDbBlockBegin
  2
SE1
 70
     0
 10
0.0
 20
0.0
 30
0.0
  3
SE1
  1

  0
LINE
  5
BB
330
B9
100
AcDbEntity
  8
A4226700_GEH_EHM
  6
Continuous
 62
     7
100
AcDbLine
 10
296.4109116953
 20
353.8030050903
 30
0.0
 11
296.4109116953
 21
354.8027525392
 31
0.0
  0
SPLINE
  5
BC
330
B9
100
AcDbEntity
  8
A4226700_GEH_EHM
  6
Continuous
 62
     7
100
AcDbSpline
210
0.0
220
0.0
230
1.0
 70
     8
 71
     3
 72
    10
 73
     6
 74
     0
 42
0.0000000000672187
 43
0.0000000001
 40
0.0981117782166218
 40
0.0981117782166218
 40
0.0981117782166218
 40
0.0981117782166218
 40
0.1250000000000005
 40
0.1250000000000005
 40
0.1345930457139469
 40
0.1345930457139469
 40
0.1345930457139469
 40
0.1345930457139469
 10
295.9779556905401
 20
360.5577948526324
 30
0.0
 10
295.9128855461925
 20
361.7385885741585
 30
0.0
 10
295.8467952280474
 20
363.0337149982815
 30
0.0
 10
295.760371483651
 20
364.9362832666759
 30
0.0
 10
295.7381603024937
 20
365.4531762410915
 30
0.0
 10
295.716007062208
 20
365.9786590979779
 30
0.0
  0
ARC
  5
BD
330
B9
100
AcDbEntity
  8
A4226700_GEH_EHM
  6
Continuous
 62
     7
100
AcDbCircle
 10
294.410911696
 20
407.8560028206
 30
0.0
 40
1.999999999334427
100
AcDbArc
 50
0.0
 51
77.4440709047
  0
ARC
  5
BE
330
B9
100
AcDbEntity
  8
A4226700_GEH_EHM
  6
Continuous
 62
     7
100
AcDbCircle
 10
294.4109116959
 20
353.8030050903
 30
0.0
 40
1.999999999467039
100
AcDbArc
 50
310.4523606016
 51
0.0
  0
LINE
  5
BF
330
B9
100
AcDbEntity
  8
A4226700_GEH_EHM
  6
Continuous
 62
     7
100
AcDbLine
 10
267.1981390448
 20
374.3422309563
 30
0.0
 11
267.1981371754
 21
352.5219426551
 31
0.0
  0
SPLINE
  5
C0
330
B9
100
AcDbEntity
  8
A4226700_GEH_EHM
  6
Continuous
 62
     7
100
AcDbSpline
210
0.0
220
0.0
230
1.0
 70
     8
 71
     3
 72
    10
 73
     6
 74
     0
 42
0.0000000341993567
 43
0.0000000001
 40
0.0
 40
0.0
 40
0.0
 40
0.0
 40
0.5
 40
0.5
 40
0.5312410696835175
 40
0.5312410696835175
 40
0.5312410696835175
 40
0.5312410696835175
 10
269.0992022923475
 20
350.5702383694576
 30
0.0
 10
268.9976575418872
 20
350.544713864469
 30
0.0
 10
268.9481388569032
 20
350.5376384783841
 30
0.0
 10
268.9481383742148
 20
350.5376134706038
 30
0.0
 10
268.9483316657769
 20
350.5376396161211
 30
0.0
 10
268.9487188890955
 20
350.5376961622514
 30
0.0
  0
ARC
  5
C1
330
B9
100
AcDbEntity
  8
A4226700_GEH_EHM
  6
Continuous
 62
     7
100
AcDbCircle
 10
278.4491894064
 20
311.9563272039
 30
0.0
 40
39.72973667341402
100
AcDbArc
 50
76.9086601212
 51
103.6116556687
  0
LINE
  5
C2
330
B9
100
AcDbEntity
  8
A4226700_GEH_EHM
  6
Continuous
 62
     7
100
AcDbLine
 10
296.4109116953
 20
407.1027525392
 30
0.0
 11
296.4109116953
 21
407.8560028206
 31
0.0
  0
ARC
  5
C3
330
B9
100
AcDbEntity
  8
A4226700_GEH_EHM
  6
Continuous
 62
     7
100
AcDbCircle
 10
665.1725887433
 20
380.9527525392
 30
0.0
 40
369.6877019312599
100
AcDbArc
 50
175.9437739176
 51
184.0562260824
  0
LINE
  5
C4
330
B9
100
AcDbEntity
  8
A4226700_GEH_EHM
  6
Continuous
 62
     7
100
AcDbLine
 10
267.1981420213
 20
409.0864676491
 30
0.0
 11
267.1981418153
 21
406.682206882
 31
0.0
  0
ARC
  5
C5
330
B9
100
AcDbEntity
  8
A4226700_GEH_EHM
  6
Continuous
 62
     7
100
AcDbCircle
 10
268.8919768728
 20
374.322598804
 30
0.0
 40
1.693951595809502
100
AcDbArc
 50
179.335952303
 51
245.8204422377
  0
ARC
  5
C6
330
B9
100
AcDbEntity
  8
A4226700_GEH_EHM
  6
Continuous
 62
     7
100
AcDbCircle
 10
268.7834409996
 20
406.7029887753
 30
0.0
 40
1.585435394748146
100
AcDbArc
 50
111.6647263782
 51
180.7510548085
  0
LINE
  5
C7
330
B9
100
AcDbEntity
  8
A4226700_GEH_EHM
  6
Continuous
 62
     7
100
AcDbLine
 10
267.1981418153
 20
406.682206882
 30
0.0
 11
267.1981416629
 21
404.9027500059
 31
0.0
  0
LINE
  5
C8
330
B9
100
AcDbEntity
  8
A4226700_GEH_EHM
  6
Continuous
 62
     7
100
AcDbLine
 10
267.1981391785
 20
375.902753142
 30
0.0
 11
267.1981390448
 21
374.3422309563
 31
0.0
  0
LINE
  5
C9
330
B9
100
AcDbEntity
  8
A4226700_GEH_EHM
  6
Continuous
 62
     7
100
AcDbLine
 10
268.1981384026
 20
408.176429056
 30
0.0
 11
268.1981384026
 21
372.7772638285
 31
0.0
  0
ARC
  5
CA
330
B9
100
AcDbEntity
  8
A4226700_GEH_EHM
  6
Continuous
 62
     7
100
AcDbCircle
 10
282.9397337346
 20
401.9748007642
 30
0.0
 40
51.49718632309677
100
AcDbArc
 50
274.9975815531
 51
283.3743654007
  0
ARC
  5
CB
330
B9
100
AcDbEntity
  8
A4226700_GEH_EHM
  6
Continuous
 62
     7
100
AcDbCircle
 10
277.4266218871
 20
320.6125633773
 30
0.0
 40
90.85275346807343
100
AcDbArc
 50
78.9517301571
 51
95.2591463829
  0
ARC
  5
CC
330
B9
100
AcDbEntity
  8
A4226700_GEH_EHM
  6
Continuous
 62
     7
100
AcDbCircle
 10
294.5254321099
 20
353.6253532815
 30
0.0
 40
1.769292767529256
100
AcDbArc
 50
280.4927122604
 51
311.4270125054
  0
ARC
  5
CD
330
B9
100
AcDbEntity
  8
A4226700_GEH_EHM
  6
Continuous
 62
     7
100
AcDbCircle
 10
269.1981420212
 20
409.0864672805
 30
0.0
 40
1.999999999936989
100
AcDbArc
 50
92.8102965604
 51
179.9917857021
  0
ARC
  5
CE
330
B9
100
AcDbEntity
  8
A4226700_GEH_EHM
  6
Continuous
 62
     7
100
AcDbCircle
 10
269.1981344412
 20
352.5220876313
 30
0.0
 40
1.999997269728776
100
AcDbArc
 50
179.9908472624
 51
263.1655406785
  0
LINE
  5
D0
330
B9
100
AcDbEntity
  8
$DDT_AUDIT_GENERATED_(CF)
  6
Continuous
 62
     7
100
AcDbLine
 10
268.1981384026
 20
400.9027525392
 30
0.0
 11
267.1981384026
 21
400.9027525392
 31
0.0
  0
LINE
  5
D1
330
B9
100
AcDbEntity
  8
$DDT_AUDIT_GENERATED_(CF)
  6
Continuous
 62
     7
100
AcDbLine
 10
267.1981384026
 20
379.9027525392
 30
0.0
 11
268.1981384026
 21
379.9027525392
 31
0.0
  0
ARC
  5
D2
330
B9
100
AcDbEntity
  8
$DDT_AUDIT_GENERATED_(CF)
  6
Continuous
 62
     7
100
AcDbCircle
 10
269.1981384026
 20
399.2527525392
 30
0.0
 40
1.000000000000001
100
AcDbArc
 50
180.0
 51
205.8419327632
  0
ARC
  5
D3
330
B9
100
AcDbEntity
  8
$DDT_AUDIT_GENERATED_(CF)
  6
Continuous
 62
     7
100
AcDbCircle
 10
269.1981384026
 20
381.5527525392
 30
0.0
 40
1.000000000000001
100
AcDbArc
 50
154.1580672368
 51
180.0
  0
LINE
  5
D4
330
B9
100
AcDbEntity
  8
$DDT_AUDIT_GENERATED_(90)
  6
Continuous
 62
     7
100
AcDbLine
 10
263.6981384026
 20
377.4900937655
 30
0.0
 11
263.6981384026
 21
375.4027525392
 31
0.0
  0
LINE
  5
D5
330
B9
100
AcDbEntity
  8
$DDT_AUDIT_GENERATED_(90)
  6
Continuous
 62
     7
100
AcDbLine
 10
267.1981384026
 20
375.9027525392
 30
0.0
 11
267.1981384026
 21
404.9027525392
 31
0.0
  0
LINE
  5
D6
330
B9
100
AcDbEntity
  8
$DDT_AUDIT_GENERATED_(90)
  6
Continuous
 62
     7
100
AcDbLine
 10
250.1981384026
 20
375.9027525392
 30
0.0
 11
250.1981384026
 21
404.9027525392
 31
0.0
  0
LINE
  5
D7
330
B9
100
AcDbEntity
  8
$DDT_AUDIT_GENERATED_(90)
  6
Continuous
 62
     7
100
AcDbLine
 10
253.6981384026
 20
377.4900937655
 30
0.0
 11
253.6981384026
 21
375.4027525392
 31
0.0
  0
LINE
  5
D8
330
B9
100
AcDbEntity
  8
$DDT_AUDIT_GENERATED_(90)
  6
Continuous
 62
     7
100
AcDbLine
 10
253.6981384026
 20
405.4027525392
 30
0.0
 11
253.6981384026
 21
403.3154113128
 31
0.0
  0
LINE
  5
D9
330
B9
100
AcDbEntity
  8
$DDT_AUDIT_GENERATED_(90)
  6
Continuous
 62
     7
100
AcDbLine
 10
253.6981384026
 20
392.4900937655
 30
0.0
 11
253.6981384026
 21
388.3154113128
 31
0.0
  0
ARC
  5
DA
330
B9
100
AcDbEntity
  8
$DDT_AUDIT_GENERATED_(90)
  6
Continuous
 62
     7
100
AcDbCircle
 10
257.4766979218
 20
382.9027525392
 30
0.0
 40
6.601089837288613
100
AcDbArc
 50
124.9187681796
 51
235.0812318205
  0
ARC
  5
DB
330
B9
100
AcDbEntity
  8
$DDT_AUDIT_GENERATED_(90)
  6
Continuous
 62
     7
100
AcDbCircle
 10
257.4766979218
 20
397.9027525392
 30
0.0
 40
6.60108983728862
100
AcDbArc
 50
124.9187681796
 51
235.0812318204
  0
LINE
  5
DC
330
B9
100
AcDbEntity
  8
$DDT_AUDIT_GENERATED_(90)
  6
Continuous
 62
     7
100
AcDbLine
 10
253.6981384026
 20
405.4027525392
 30
0.0
 11
250.9024096735
 21
405.4027525392
 31
0.0
  0
LINE
  5
DD
330
B9
100
AcDbEntity
  8
$DDT_AUDIT_GENERATED_(90)
  6
Continuous
 62
     7
100
AcDbLine
 10
253.6981384026
 20
375.4027525392
 30
0.0
 11
250.9024096735
 21
375.4027525392
 31
0.0
  0
LINE
  5
DE
330
B9
100
AcDbEntity
  8
$DDT_AUDIT_GENERATED_(90)
  6
Continuous
 62
     7
100
AcDbLine
 10
263.6981384026
 20
405.4027525392
 30
0.0
 11
263.6981384026
 21
403.3154113128
 31
0.0
  0
LINE
  5
DF
330
B9
100
AcDbEntity
  8
$DDT_AUDIT_GENERATED_(90)
  6
Continuous
 62
     7
100
AcDbLine
 10
263.6981384026
 20
392.4900937655
 30
0.0
 11
263.6981384026
 21
388.3154113128
 31
0.0
  0
LINE
  5
E0
330
B9
100
AcDbEntity
  8
$DDT_AUDIT_GENERATED_(90)
  6
Continuous
 62
     7
100
AcDbLine
 10
253.6981384026
 20
375.4027525392
 30
0.0
 11
263.6981384026
 21
375.4027525392
 31
0.0
  0
LINE
  5
E1
330
B9
100
AcDbEntity
  8
$DDT_AUDIT_GENERATED_(90)
  6
Continuous
 62
     7
100
AcDbLine
 10
266.4938671317
 20
375.4027525392
 30
0.0
 11
263.6981384026
 21
375.4027525392
 31
0.0
  0
LINE
  5
E2
330
B9
100
AcDbEntity
  8
$DDT_AUDIT_GENERATED_(90)
  6
Continuous
 62
     7
100
AcDbLine
 10
263.6981384026
 20
405.4027525392
 30
0.0
 11
266.4938671317
 21
405.4027525392
 31
0.0
  0
LINE
  5
E3
330
B9
100
AcDbEntity
  8
$DDT_AUDIT_GENERATED_(90)
  6
Continuous
 62
     7
100
AcDbLine
 10
263.6981384026
 20
405.4027525392
 30
0.0
 11
253.6981384026
 21
405.4027525392
 31
0.0
  0
LINE
  5
E4
330
B9
100
AcDbEntity
  8
$DDT_AUDIT_GENERATED_(90)
  6
Continuous
 62
     7
100
AcDbLine
 10
253.6981384026
 20
403.3154113128
 30
0.0
 11
263.6981384026
 21
403.3154113128
 31
0.0
  0
ARC
  5
E5
330
B9
100
AcDbEntity
  8
$DDT_AUDIT_GENERATED_(90)
  6
Continuous
 62
     7
100
AcDbCircle
 10
259.9195788834
 20
397.9027525392
 30
0.0
 40
6.601089837288603
100
AcDbArc
 50
304.9187681795
 51
55.0812318205
  0
LINE
  5
E6
330
B9
100
AcDbEntity
  8
$DDT_AUDIT_GENERATED_(90)
  6
Continuous
 62
     7
100
AcDbLine
 10
263.6981384026
 20
392.4900937655
 30
0.0
 11
253.6981384026
 21
392.4900937655
 31
0.0
  0
LINE
  5
E7
330
B9
100
AcDbEntity
  8
$DDT_AUDIT_GENERATED_(90)
  6
Continuous
 62
     7
100
AcDbLine
 10
253.6981384026
 20
388.3154113128
 30
0.0
 11
263.6981384026
 21
388.3154113128
 31
0.0
  0
ARC
  5
E8
330
B9
100
AcDbEntity
  8
$DDT_AUDIT_GENERATED_(90)
  6
Continuous
 62
     7
100
AcDbCircle
 10
259.9195788834
 20
382.9027525392
 30
0.0
 40
6.601089837288607
100
AcDbArc
 50
304.9187681795
 51
55.0812318205
  0
LINE
  5
E9
330
B9
100
AcDbEntity
  8
$DDT_AUDIT_GENERATED_(90)
  6
Continuous
 62
     7
100
AcDbLine
 10
263.6981384026
 20
377.4900937655
 30
0.0
 11
253.6981384026
 21
377.4900937655
 31
0.0
  0
ARC
  5
EA
330
B9
100
AcDbEntity
  8
$DDT_AUDIT_GENERATED_(90)
  6
Continuous
 62
     7
100
AcDbCircle
 10
261.0624372044
 20
397.0063501427
 30
0.0
 40
10.0
100
AcDbArc
 50
52.1519040322
 51
57.1038555369
  0
ARC
  5
EB
330
B9
100
AcDbEntity
  8
$DDT_AUDIT_GENERATED_(90)
  6
Continuous
 62
     7
100
AcDbCircle
 10
261.0624372044
 20
383.7991549356
 30
0.0
 40
9.999999999999996
100
AcDbArc
 50
302.8999647348
 51
307.8480959678
  0
ARC
  5
EC
330
B9
100
AcDbEntity
  8
$DDT_AUDIT_GENERATED_(90)
  6
Continuous
 62
     7
100
AcDbCircle
 10
256.3338396008
 20
397.0063501427
 30
0.0
 40
9.999999999999998
100
AcDbArc
 50
122.8999647348
 51
127.8480959678
  0
ARC
  5
ED
330
B9
100
AcDbEntity
  8
$DDT_AUDIT_GENERATED_(90)
  6
Continuous
 62
     7
100
AcDbCircle
 10
256.3338396008
 20
383.7991549356
 30
0.0
 40
9.999999999999998
100
AcDbArc
 50
232.1519040322
 51
237.1038555369
  0
LINE
  5
EF
330
B9
100
AcDbEntity
  8
$DDT_AUDIT_GENERATED_(EE)
  6
Continuous
 62
     7
100
AcDbLine
 10
287.1981384026
 20
345.4027525392
 30
0.0
 11
269.1981384026
 21
345.4027525392
 31
0.0
  0
LINE
  5
F0
330
B9
100
AcDbEntity
  8
$DDT_AUDIT_GENERATED_(EE)
  6
Continuous
 62
     7
100
AcDbLine
 10
288.6781384026
 20
343.9227525392
 30
0.0
 11
267.7181384026
 21
343.9227525392
 31
0.0
  0
LINE
  5
F1
330
B9
100
AcDbEntity
  8
$DDT_AUDIT_GENERATED_(EE)
  6
Continuous
 62
     7
100
AcDbLine
 10
287.4781384026
 20
336.5027525392
 30
0.0
 11
268.9181384026
 21
336.5027525392
 31
0.0
  0
LINE
  5
F2
330
B9
100
AcDbEntity
  8
$DDT_AUDIT_GENERATED_(EE)
  6
Continuous
 62
     7
100
AcDbLine
 10
288.6781384026
 20
337.7027525392
 30
0.0
 11
267.7181384026
 21
337.7027525392
 31
0.0
  0
LINE
  5
F3
330
B9
100
AcDbEntity
  8
$DDT_AUDIT_GENERATED_(EE)
  6
Continuous
 62
     7
100
AcDbLine
 10
267.7181384026
 20
343.9227525392
 30
0.0
 11
267.7181384026
 21
337.7027525392
 31
0.0
  0
LINE
  5
F4
330
B9
100
AcDbEntity
  8
$DDT_AUDIT_GENERATED_(EE)
  6
Continuous
 62
     7
100
AcDbLine
 10
288.6781384026
 20
337.7027525392
 30
0.0
 11
288.6781384026
 21
343.9227525392
 31
0.0
  0
LINE
  5
F5
330
B9
100
AcDbEntity
  8
$DDT_AUDIT_GENERATED_(EE)
  6
Continuous
 62
     7
100
AcDbLine
 10
269.1981384026
 20
350.5947027422
 30
0.0
 11
269.1981384026
 21
345.4027525392
 31
0.0
  0
LINE
  5
F6
330
B9
100
AcDbEntity
  8
$DDT_AUDIT_GENERATED_(EE)
  6
Continuous
 62
     7
100
AcDbLine
 10
287.1981384026
 20
345.4027525392
 30
0.0
 11
287.1981384026
 21
350.7043023446
 31
0.0
  0
LINE
  5
F7
330
B9
100
AcDbEntity
  8
$DDT_AUDIT_GENERATED_(EE)
  6
Continuous
 62
     7
100
AcDbLine
 10
288.6781384026
 20
343.9227525392
 30
0.0
 11
287.1981384026
 21
345.4027525392
 31
0.0
  0
LINE
  5
F8
330
B9
100
AcDbEntity
  8
$DDT_AUDIT_GENERATED_(EE)
  6
Continuous
 62
     7
100
AcDbLine
 10
269.1981384026
 20
345.4027525392
 30
0.0
 11
267.7181384026
 21
343.9227525392
 31
0.0
  0
LINE
  5
F9
330
B9
100
AcDbEntity
  8
$DDT_AUDIT_GENERATED_(EE)
  6
Continuous
 62
     7
100
AcDbLine
 10
267.7181384026
 20
337.7027525392
 30
0.0
 11
268.9181384026
 21
336.5027525392
 31
0.0
  0
LINE
  5
FA
330
B9
100
AcDbEntity
  8
$DDT_AUDIT_GENERATED_(EE)
  6
Continuous
 62
     7
100
AcDbLine
 10
287.4781384026
 20
336.5027525392
 30
0.0
 11
288.6781384026
 21
337.7027525392
 31
0.0
  0
LINE
  5
FB
330
B9
100
AcDbEntity
  8
$DDT_AUDIT_GENERATED_(EE)
  6
Continuous
 62
     7
100
AcDbLine
 10
287.5131384026
 20
345.0877525392
 30
0.0
 11
287.5131384026
 21
336.5377525392
 31
0.0
  0
LINE
  5
FC
330
B9
100
AcDbEntity
  8
$DDT_AUDIT_GENERATED_(EE)
  6
Continuous
 62
     7
100
AcDbLine
 10
268.8831384026
 20
345.0877525392
 30
0.0
 11
268.8831384026
 21
336.5377525392
 31
0.0
  0
ARC
  5
FD
330
B9
100
AcDbEntity
  8
$DDT_AUDIT_GENERATED_(9F)
  6
Continuous
 62
     7
100
AcDbCircle
 10
64.7142829306
 20
325.339744888
 30
0.0
 40
305.7653539187133
100
AcDbArc
 50
353.7398042371
 51
6.1521345113
  0
SPLINE
  5
FE
330
B9
100
AcDbEntity
  8
$DDT_AUDIT_GENERATED_(9F)
  6
Continuous
 62
     7
100
AcDbSpline
210
0.0
220
0.0
230
1.0
 70
     8
 71
     3
 72
    17
 73
    13
 74
     0
 42
0.000000003245913
 43
0.0000000001
 40
0.0
 40
0.0
 40
0.0
 40
0.0
 40
0.0868707206744004
 40
0.1764808886954491
 40
0.2689106217331584
 40
0.3642339038001705
 40
0.4625173667165263
 40
0.5638188869965782
 40
0.6681863032382505
 40
0.7756565904275435
 40
0.8862558032474378
 40
1.0
 40
1.0
 40
1.0
 40
1.0
 10
366.1889292078619
 20
291.3513942034443
 30
0.0
 10
366.2504711905979
 20
291.2939018615455
 30
0.0
 10
366.3754804371959
 20
291.1767946853847
 30
0.0
 10
366.6160646116444
 20
291.0488573961592
 30
0.0
 10
366.8907241350278
 20
290.9635123657651
 30
0.0
 10
367.1936068132854
 20
290.9320991810447
 30
0.0
 10
367.5101616280452
 20
290.9600725208365
 30
0.0
 10
367.824220509299
 20
291.0515075222554
 30
0.0
 10
368.117545006744
 20
291.2067003125277
 30
0.0
 10
368.3681907187533
 20
291.4223917200201
 30
0.0
 10
368.5642880181588
 20
291.6893621467247
 30
0.0
 10
368.625166862614
 20
291.893281723929
 30
0.0
 10
368.6563426526004
 20
291.9979394634844
 30
0.0
  0
ARC
  5
FF
330
B9
100
AcDbEntity
  8
$DDT_AUDIT_GENERATED_(9F)
  6
Continuous
 62
     7
100
AcDbCircle
 10
367.4002536992
 20
291.6832375605
 30
0.0
 40
1.35248167045734
100
AcDbArc
 50
145.6986956043
 51
178.1469633901
  0
ARC
  5
100
330
B9
100
AcDbEntity
  8
$DDT_AUDIT_GENERATED_(9F)
  6
Continuous
 62
     7
100
AcDbCircle
 10
73.2345582961
 20
325.5948716342
 30
0.0
 40
297.2675380034999
100
AcDbArc
 50
6.2792380115
 51
14.8476899728
  0
ARC
  5
101
330
B9
100
AcDbEntity
  8
$DDT_AUDIT_GENERATED_(9F)
  6
Continuous
 62
     7
100
AcDbCircle
 10
359.6633845752
 20
401.2690850983
 30
0.0
 40
1.041356824598787
100
AcDbArc
 50
28.739438503
 51
91.5525182426
  0
ARC
  5
102
330
B9
100
AcDbEntity
  8
$DDT_AUDIT_GENERATED_(9F)
  6
Continuous
 62
     7
100
AcDbCircle
 10
97.98110508
 20
321.8864477143
 30
0.0
 40
263.5001713283825
100
AcDbArc
 50
354.7308135377
 51
5.9532556958
  0
ARC
  5
103
330
B9
100
AcDbEntity
  8
$DDT_AUDIT_GENERATED_(9F)
  6
Continuous
 62
     7
100
AcDbCircle
 10
58.2049126168
 20
324.7565919543
 30
0.0
 40
309.7678363098466
100
AcDbArc
 50
354.0127183718
 51
6.1142209412
  0
ARC
  5
104
330
B9
100
AcDbEntity
  8
$DDT_AUDIT_GENERATED_(9F)
  6
Continuous
 62
     7
100
AcDbCircle
 10
355.0881196139
 20
348.6884464241
 30
0.0
 40
4.999995659975401
100
AcDbArc
 50
6.0556012188
 51
90.0000000331
  0
ARC
  5
105
330
B9
100
AcDbEntity
  8
$DDT_AUDIT_GENERATED_(9F)
  6
Continuous
 62
     7
100
AcDbCircle
 10
364.4231277969
 20
356.9422011031
 30
0.0
 40
1.961666983673735
100
AcDbArc
 50
24.3248999322
 51
65.4425867101
  0
LINE
  5
106
330
B9
100
AcDbEntity
  8
$DDT_AUDIT_GENERATED_(9F)
  6
Continuous
 62
     7
100
AcDbLine
 10
333.6980459611
 20
407.8884933747
 30
0.0
 11
333.6980438201
 21
353.9884420959
 31
0.0
  0
ARC
  5
107
330
B9
100
AcDbEntity
  8
$DDT_AUDIT_GENERATED_(9F)
  6
Continuous
 62
     7
100
AcDbCircle
 10
75.0536465716
 20
328.4520503328
 30
0.0
 40
296.7420009942845
100
AcDbArc
 50
352.1379118754
 51
15.4378244184
  0
ARC
  5
108
330
B9
100
AcDbEntity
  8
$DDT_AUDIT_GENERATED_(9F)
  6
Continuous
 62
     7
100
AcDbCircle
 10
460.6440220802
 20
351.8612374009
 30
0.0
 40
114.2068789903245
100
AcDbArc
 50
208.7799286616
 51
214.4483393389
  0
LINE
  5
109
330
B9
100
AcDbEntity
  8
$DDT_AUDIT_GENERATED_(9F)
  6
Continuous
 62
     7
100
AcDbLine
 10
360.1336660609
 20
408.1884933627
 30
0.0
 11
333.9980459842
 21
408.1884933627
 31
0.0
  0
LINE
  5
10A
330
B9
100
AcDbEntity
  8
$DDT_AUDIT_GENERATED_(9F)
  6
Continuous
 62
     7
100
AcDbLine
 10
350.2790709519
 20
353.688442084
 30
0.0
 11
355.0881592058
 21
353.688442084
 31
0.0
  0
LINE
  5
10B
330
B9
100
AcDbEntity
  8
$DDT_AUDIT_GENERATED_(9F)
  6
Continuous
 62
     7
100
AcDbLine
 10
333.9980438201
 20
353.688442084
 30
0.0
 11
343.0004564232
 21
353.688442084
 31
0.0
  0
ARC
  5
10C
330
B9
100
AcDbEntity
  8
$DDT_AUDIT_GENERATED_(9F)
  6
Continuous
 62
     7
100
AcDbCircle
 10
367.6314469074
 20
288.0313581923
 30
0.0
 40
1.395141344974019
100
AcDbArc
 50
213.5462948126
 51
352.8906217795
  0
ARC
  5
10D
330
B9
100
AcDbEntity
  8
$DDT_AUDIT_GENERATED_(9F)
  6
Continuous
 62
     7
100
AcDbCircle
 10
361.6979617546
 20
297.5447022517
 30
0.0
 40
1.333945019184359
100
AcDbArc
 50
173.8986711713
 51
210.1032338187
  0
ARC
  5
10E
330
B9
100
AcDbEntity
  8
$DDT_AUDIT_GENERATED_(9F)
  6
Continuous
 62
     7
100
AcDbCircle
 10
360.1343488423
 20
407.1884933624
 30
0.0
 40
0.9999999999960626
100
AcDbArc
 50
14.899625342
 51
90.0392751484
  0
ARC
  5
10F
330
B9
100
AcDbEntity
  8
$DDT_AUDIT_GENERATED_(9F)
  6
Continuous
 62
     7
100
AcDbCircle
 10
333.9980438201
 20
353.988442084
 30
0.0
 40
0.3000000000000019
100
AcDbArc
 50
179.9999977242
 51
270.0238310894
  0
ARC
  5
110
330
B9
100
AcDbEntity
  8
$DDT_AUDIT_GENERATED_(9F)
  6
Continuous
 62
     7
100
AcDbCircle
 10
333.9980459611
 20
407.8884933627
 30
0.0
 40
0.3000000000000011
100
AcDbArc
 50
89.422270232
 51
179.9999977242
  0
LINE
  5
112
330
B9
100
AcDbEntity
  8
$DDT_AUDIT_GENERATED_(111)
  6
Continuous
 62
     7
100
AcDbLine
 10
342.8182684396
 20
353.2592340918
 30
0.0
 11
350.2624853995
 21
353.6493689712
 31
0.0
  0
LINE
  5
113
330
B9
100
AcDbEntity
  8
$DDT_AUDIT_GENERATED_(111)
  6
Continuous
 62
     7
100
AcDbLine
 10
350.2624853995
 20
353.6493689712
 30
0.0
 11
350.2790709519
 21
353.688442084
 31
0.0
  0
LINE
  5
114
330
B9
100
AcDbEntity
  8
$DDT_AUDIT_GENERATED_(111)
  6
Continuous
 62
     7
100
AcDbLine
 10
343.0004564232
 20
353.688442084
 30
0.0
 11
342.8182684396
 21
353.2592340918
 31
0.0
  0
ARC
  5
116
330
B9
100
AcDbEntity
  8
01081038_EURO-EC
  6
Continuous
 62
     7
100
AcDbCircle
 10
323.0481384026
 20
380.9527525392
 30
0.0
 40
26.0
100
AcDbArc
 50
65.8195474575
 51
90.0
  0
ARC
  5
117
330
B9
100
AcDbEntity
  8
01081038_EURO-EC
  6
Continuous
 62
     7
100
AcDbCircle
 10
323.0481384026
 20
380.9527525392
 30
0.0
 40
26.00000000000001
100
AcDbArc
 50
270.0
 51
294.1804479908
  0
LINE
  5
118
330
B9
100
AcDbEntity
  8
01081038_EURO-EC
  6
Continuous
 62
     7
100
AcDbLine
 10
323.0481384026
 20
406.9527525392
 30
0.0
 11
296.4004100225
 21
406.9527525392
 31
0.0
  0
LINE
  5
119
330
B9
100
AcDbEntity
  8
01081038_EURO-EC
  6
Continuous
 62
     7
100
AcDbLine
 10
296.4004179664
 20
354.9527525392
 30
0.0
 11
323.0481384026
 21
354.9527525392
 31
0.0
  0
ENDBLK
  5
11B
330
B9
100
AcDbEntity
  8
0
100
AcDbBlockEnd
  0
BLOCK
  5
18A
330
11C
100
AcDbEntity
  8
0
100
AcDbBlockBegin
  2
SE2
 70
     0
 10
0.0
 20
0.0
 30
0.0
  3
SE2
  1

  0
ARC
  5
11E
330
11C
100
AcDbEntity
  8
A4226700_GEH_EHM
  6
Continuous
 62
     7
100
AcDbCircle
 10
94.4539899555
 20
494.5954356328
 30
0.0
 40
312.9308350462446
100
AcDbArc
 50
254.4363010291
 51
270.5760254797
  0
ARC
  5
11F
330
11C
100
AcDbEntity
  8
A4226700_GEH_EHM
  6
Continuous
 62
     7
100
AcDbCircle
 10
100.6700963442
 20
495.1696290693
 30
0.0
 40
313.504246917391
100
AcDbArc
 50
269.4389027371
 51
285.5498904317
  0
ARC
  5
120
330
11C
100
AcDbEntity
  8
A4226700_GEH_EHM
  6
Continuous
 62
     7
100
AcDbCircle
 10
95.1452531298
 20
516.6883687844
 30
0.0
 40
333.4517738550029
100
AcDbArc
 50
255.0525190825
 51
255.0525648036
  0
LINE
  5
121
330
11C
100
AcDbEntity
  8
A4226700_GEH_EHM
  6
Continuous
 62
     7
100
AcDbLine
 10
152.153311432
 20
210.8931876411
 30
0.0
 11
43.0465061342
 21
210.8931876412
 31
0.0
  0
ARC
  5
122
330
11C
100
AcDbEntity
  8
A4226700_GEH_EHM
  6
Continuous
 62
     7
100
AcDbCircle
 10
151.3327495865
 20
204.0947976553
 30
0.0
 40
6.870743983065657
100
AcDbArc
 50
57.5569099014
 51
81.6774349373
  0
LINE
  5
123
330
11C
100
AcDbEntity
  8
A4226700_GEH_EHM
  6
Continuous
 62
     7
100
AcDbLine
 10
146.6000020181
 20
210.8931862653
 30
0.0
 11
152.3272616034
 21
210.8931848706
 31
0.0
  0
LINE
  5
124
330
11C
100
AcDbEntity
  8
A4226700_GEH_EHM
  6
Continuous
 62
     7
100
AcDbLine
 10
155.0186401174
 20
209.8931882833
 30
0.0
 11
186.9430902236
 21
209.8931882833
 31
0.0
  0
LINE
  5
125
330
11C
100
AcDbEntity
  8
A4226700_GEH_EHM
  6
Continuous
 62
     7
100
AcDbLine
 10
42.8726216568
 20
210.8931848706
 30
0.0
 11
152.3272616034
 21
210.8931848706
 31
0.0
  0
ARC
  5
126
330
11C
100
AcDbEntity
  8
A4226700_GEH_EHM
  6
Continuous
 62
     7
100
AcDbCircle
 10
43.8733407849
 20
204.0777047268
 30
0.0
 40
6.888556333775027
100
AcDbArc
 50
98.3530705398
 51
122.4111269405
  0
LINE
  5
127
330
11C
100
AcDbEntity
  8
A4226700_GEH_EHM
  6
Continuous
 62
     7
100
AcDbLine
 10
42.8726216567
 20
210.8931848706
 30
0.0
 11
48.5999979819
 21
210.8931862653
 31
0.0
  0
LINE
  5
128
330
11C
100
AcDbEntity
  8
A4226700_GEH_EHM
  6
Continuous
 62
     7
100
AcDbLine
 10
8.2571726412
 20
209.8931882833
 30
0.0
 11
40.1811382758
 21
209.8931882833
 31
0.0
  0
ARC
  5
129
330
11C
100
AcDbEntity
  8
A4226700_GEH_EHM
  6
Continuous
 62
     7
100
AcDbCircle
 10
50.360169611
 20
205.1138135038
 30
0.0
 40
42.53131568357045
100
AcDbArc
 50
174.785882947
 51
194.4175898266
  0
ARC
  5
12A
330
11C
100
AcDbEntity
  8
A4226700_GEH_EHM
  6
Continuous
 62
     7
100
AcDbCircle
 10
144.8487273243
 20
205.11270044
 30
0.0
 40
42.52291967913479
100
AcDbArc
 50
345.5808251214
 51
5.2178627666
  0
ARC
  5
12B
330
11C
100
AcDbEntity
  8
A4226700_GEH_EHM
  6
Continuous
 62
     7
100
AcDbCircle
 10
11.0647471812
 20
195.034315133
 30
0.0
 40
1.981508539271174
100
AcDbArc
 50
195.0666063968
 51
250.630419873
  0
ARC
  5
12C
330
11C
100
AcDbEntity
  8
A4226700_GEH_EHM
  6
Continuous
 62
     7
100
AcDbCircle
 10
184.1515884951
 20
195.0370586211
 30
0.0
 40
1.97773774453117
100
AcDbArc
 50
288.1895711275
 51
344.7357057577
  0
ARC
  5
12D
330
11C
100
AcDbEntity
  8
A4226700_GEH_EHM
  6
Continuous
 62
     7
100
AcDbCircle
 10
185.2110362863
 20
208.8931863321
 30
0.0
 40
2.000003970742921
100
AcDbArc
 50
2.5801021274
 51
30.20136013
  0
ARC
  5
12E
330
11C
100
AcDbEntity
  8
A4226700_GEH_EHM
  6
Continuous
 62
     7
100
AcDbCircle
 10
9.9892727451
 20
208.8931863375
 30
0.0
 40
2.000004136729161
100
AcDbArc
 50
149.8044068895
 51
177.5566021264
  0
LINE
  5
12F
330
11C
100
AcDbEntity
  8
$DDT_AUDIT_GENERATED_(CF)
  6
Continuous
 62
     7
100
AcDbLine
 10
31.6
 20
206.9292354738
 30
0.0
 11
30.9696152423
 21
207.2931882833
 31
0.0
  0
LINE
  5
130
330
11C
100
AcDbEntity
  8
$DDT_AUDIT_GENERATED_(CF)
  6
Continuous
 62
     7
100
AcDbLine
 10
33.1
 20
209.8931882833
 30
0.0
 11
33.1
 21
210.8931882833
 31
0.0
  0
LINE
  5
131
330
11C
100
AcDbEntity
  8
$DDT_AUDIT_GENERATED_(CF)
  6
Continuous
 62
     7
100
AcDbLine
 10
12.1
 20
210.8931882833
 30
0.0
 11
12.1
 21
209.8931882833
 31
0.0
  0
ARC
  5
132
330
11C
100
AcDbEntity
  8
$DDT_AUDIT_GENERATED_(CF)
  6
Continuous
 62
     7
100
AcDbCircle
 10
31.45
 20
208.8931882833
 30
0.0
 40
1.000000000000001
100
AcDbArc
 50
90.0
 51
115.8419327632
  0
ARC
  5
133
330
11C
100
AcDbEntity
  8
$DDT_AUDIT_GENERATED_(CF)
  6
Continuous
 62
     7
100
AcDbCircle
 10
13.75
 20
208.8931882833
 30
0.0
 40
0.9999999999999991
100
AcDbArc
 50
64.1580672368
 51
90.0
  0
ELLIPSE
  5
135
330
11C
100
AcDbEntity
  8
$DDT_AUDIT_GENERATED_(134)
  6
Continuous
 62
     7
100
AcDbEllipse
 10
31.175
 20
208.5431882833
 30
0.0
 11
-1.387778780781425E-16
 21
-1.249999999999982
 31
0.0
210
0.0
220
0.0
230
1.0
 40
0.58
 41
0.0
 42
3.141592653589793
  0
LINE
  5
136
330
11C
100
AcDbEntity
  8
$DDT_AUDIT_GENERATED_(CF)
  6
Continuous
 62
     7
100
AcDbLine
 10
183.1
 20
209.8931882833
 30
0.0
 11
183.1
 21
210.8931882833
 31
0.0
  0
LINE
  5
137
330
11C
100
AcDbEntity
  8
$DDT_AUDIT_GENERATED_(CF)
  6
Continuous
 62
     7
100
AcDbLine
 10
162.1
 20
210.8931882833
 30
0.0
 11
162.1
 21
209.8931882833
 31
0.0
  0
ARC
  5
138
330
11C
100
AcDbEntity
  8
$DDT_AUDIT_GENERATED_(CF)
  6
Continuous
 62
     7
100
AcDbCircle
 10
163.75
 20
208.8931882833
 30
0.0
 40
1.000000000000001
100
AcDbArc
 50
64.1580672368
 51
90.0
  0
LINE
  5
139
330
11C
100
AcDbEntity
  8
$DDT_AUDIT_GENERATED_(90)
  6
Continuous
 62
     7
100
AcDbLine
 10
158.1
 20
210.8931882833
 30
0.0
 11
187.1
 21
210.8931882833
 31
0.0
  0
LINE
  5
13A
330
11C
100
AcDbEntity
  8
$DDT_AUDIT_GENERATED_(90)
  6
Continuous
 62
     7
100
AcDbLine
 10
158.1
 20
227.8931882833
 30
0.0
 11
187.1
 21
227.8931882833
 31
0.0
  0
LINE
  5
13B
330
11C
100
AcDbEntity
  8
$DDT_AUDIT_GENERATED_(90)
  6
Continuous
 62
     7
100
AcDbLine
 10
188.7153810568
 20
224.3931882833
 30
0.0
 11
188.85
 21
224.3931882833
 31
0.0
  0
LINE
  5
13C
330
11C
100
AcDbEntity
  8
$DDT_AUDIT_GENERATED_(90)
  6
Continuous
 62
     7
100
AcDbLine
 10
182.4653810568
 20
224.3931882833
 30
0.0
 11
178.85
 21
224.3931882833
 31
0.0
  0
LINE
  5
13D
330
11C
100
AcDbEntity
  8
$DDT_AUDIT_GENERATED_(90)
  6
Continuous
 62
     7
100
AcDbLine
 10
166.35
 20
224.3931882833
 30
0.0
 11
162.7346189432
 21
224.3931882833
 31
0.0
  0
LINE
  5
13E
330
11C
100
AcDbEntity
  8
$DDT_AUDIT_GENERATED_(90)
  6
Continuous
 62
     7
100
AcDbLine
 10
156.4846189432
 20
224.3931882833
 30
0.0
 11
156.35
 21
224.3931882833
 31
0.0
  0
SPLINE
  5
13F
330
11C
100
AcDbEntity
  8
$DDT_AUDIT_GENERATED_(90)
  6
Continuous
 62
     7
100
AcDbSpline
210
0.0
220
0.0
230
1.0
 70
     8
 71
     3
 72
    14
 73
    10
 74
     0
 42
0.0000000011014719
 43
0.0000000001
 40
0.0
 40
0.0
 40
0.0
 40
0.0
 40
0.25
 40
0.25
 40
0.5
 40
0.5
 40
0.75
 40
0.75
 40
1.0
 40
1.0
 40
1.0
 40
1.0
 10
162.7346189432334
 20
224.393188283329
 30
0.0
 10
162.3873010946061
 20
225.3709948517821
 30
0.0
 10
161.8893737820227
 20
226.067853345963
 30
0.0
 10
160.7994657174545
 20
226.9745352978327
 30
0.0
 10
160.2055915360495
 20
227.1884823981518
 30
0.0
 10
159.0171864326606
 20
227.1893495511936
 30
0.0
 10
158.4316326502636
 20
226.9820309929245
 30
0.0
 10
157.3313509071571
 20
226.0714324970012
 30
0.0
 10
156.8315541809832
 20
225.3699176844854
 30
0.0
 10
156.4846189432334
 20
224.393188283329
 30
0.0
  0
SPLINE
  5
140
330
11C
100
AcDbEntity
  8
$DDT_AUDIT_GENERATED_(90)
  6
Continuous
 62
     7
100
AcDbSpline
210
0.0
220
0.0
230
1.0
 70
     8
 71
     3
 72
    14
 73
    10
 74
     0
 42
0.0000000006969408
 43
0.0000000001
 40
0.0
 40
0.0
 40
0.0
 40
0.0
 40
0.25
 40
0.25
 40
0.5
 40
0.5
 40
0.75
 40
0.75
 40
1.0
 40
1.0
 40
1.0
 40
1.0
 10
178.85
 20
224.393188283329
 30
0.0
 10
178.1569116474879
 20
225.3688167260987
 30
0.0
 10
177.149351479657
 20
226.0747954147461
 30
0.0
 10
174.9587060272833
 20
226.9805091791423
 30
0.0
 10
173.7744917237939
 20
227.1908115758323
 30
0.0
 10
171.3944037149694
 20
227.1869967376953
 30
0.0
 10
170.2113801054258
 20
226.9716974951455
 30
0.0
 10
168.0393770655833
 20
226.0665111805073
 30
0.0
 10
167.03787435235
 20
225.3614772190353
 30
0.0
 10
166.35
 20
224.393188283329
 30
0.0
  0
SPLINE
  5
141
330
11C
100
AcDbEntity
  8
$DDT_AUDIT_GENERATED_(90)
  6
Continuous
 62
     7
100
AcDbSpline
210
0.0
220
0.0
230
1.0
 70
     8
 71
     3
 72
    14
 73
    10
 74
     0
 42
0.0000000011014719
 43
0.0000000001
 40
0.0
 40
0.0
 40
0.0
 40
0.0
 40
0.25
 40
0.25
 40
0.5
 40
0.5
 40
0.75
 40
0.75
 40
1.0
 40
1.0
 40
1.0
 40
1.0
 10
188.7153810567666
 20
224.393188283329
 30
0.0
 10
188.3680632081393
 20
225.3709948517821
 30
0.0
 10
187.8701358955559
 20
226.067853345963
 30
0.0
 10
186.7802278309877
 20
226.9745352978327
 30
0.0
 10
186.1863536495826
 20
227.1884823981518
 30
0.0
 10
184.9979485461938
 20
227.1893495511936
 30
0.0
 10
184.4123947637967
 20
226.9820309929245
 30
0.0
 10
183.3121130206902
 20
226.0714324970012
 30
0.0
 10
182.8123162945164
 20
225.3699176844854
 30
0.0
 10
182.4653810567666
 20
224.393188283329
 30
0.0
  0
LINE
  5
142
330
11C
100
AcDbEntity
  8
$DDT_AUDIT_GENERATED_(90)
  6
Continuous
 62
     7
100
AcDbLine
 10
188.7153810568
 20
214.3931882833
 30
0.0
 11
188.85
 21
214.3931882833
 31
0.0
  0
LINE
  5
143
330
11C
100
AcDbEntity
  8
$DDT_AUDIT_GENERATED_(90)
  6
Continuous
 62
     7
100
AcDbLine
 10
182.4653810568
 20
214.3931882833
 30
0.0
 11
178.85
 21
214.3931882833
 31
0.0
  0
LINE
  5
144
330
11C
100
AcDbEntity
  8
$DDT_AUDIT_GENERATED_(90)
  6
Continuous
 62
     7
100
AcDbLine
 10
166.35
 20
214.3931882833
 30
0.0
 11
162.7346189432
 21
214.3931882833
 31
0.0
  0
LINE
  5
145
330
11C
100
AcDbEntity
  8
$DDT_AUDIT_GENERATED_(90)
  6
Continuous
 62
     7
100
AcDbLine
 10
156.4846189432
 20
214.3931882833
 30
0.0
 11
156.35
 21
214.3931882833
 31
0.0
  0
LINE
  5
146
330
11C
100
AcDbEntity
  8
$DDT_AUDIT_GENERATED_(90)
  6
Continuous
 62
     7
100
AcDbLine
 10
188.7153810568
 20
224.3931882833
 30
0.0
 11
188.7153810568
 21
214.3931882833
 31
0.0
  0
SPLINE
  5
147
330
11C
100
AcDbEntity
  8
$DDT_AUDIT_GENERATED_(90)
  6
Continuous
 62
     7
100
AcDbSpline
210
0.0
220
0.0
230
1.0
 70
     8
 71
     3
 72
    14
 73
    10
 74
     0
 42
0.0000000011014719
 43
0.0000000001
 40
0.0
 40
0.0
 40
0.0
 40
0.0
 40
0.2499999999999999
 40
0.2499999999999999
 40
0.4999999999999999
 40
0.4999999999999999
 40
0.7499999999999999
 40
0.7499999999999999
 40
1.0
 40
1.0
 40
1.0
 40
1.0
 10
188.7153810567666
 20
214.393188283329
 30
0.0
 10
188.3680632081393
 20
213.4153817148759
 30
0.0
 10
187.8701358955559
 20
212.718523220695
 30
0.0
 10
186.7802278309877
 20
211.8118412688253
 30
0.0
 10
186.1863536495826
 20
211.5978941685062
 30
0.0
 10
184.9979485461937
 20
211.5970270154643
 30
0.0
 10
184.4123947637967
 20
211.8043455737334
 30
0.0
 10
183.3121130206902
 20
212.7149440696568
 30
0.0
 10
182.8123162945164
 20
213.4164588821726
 30
0.0
 10
182.4653810567666
 20
214.393188283329
 30
0.0
  0
LINE
  5
148
330
11C
100
AcDbEntity
  8
$DDT_AUDIT_GENERATED_(90)
  6
Continuous
 62
     7
100
AcDbLine
 10
182.4653810568
 20
214.3931882833
 30
0.0
 11
182.4653810568
 21
224.3931882833
 31
0.0
  0
LINE
  5
149
330
11C
100
AcDbEntity
  8
$DDT_AUDIT_GENERATED_(90)
  6
Continuous
 62
     7
100
AcDbLine
 10
178.85
 20
224.3931882833
 30
0.0
 11
178.85
 21
214.3931882833
 31
0.0
  0
SPLINE
  5
14A
330
11C
100
AcDbEntity
  8
$DDT_AUDIT_GENERATED_(90)
  6
Continuous
 62
     7
100
AcDbSpline
210
0.0
220
0.0
230
1.0
 70
     8
 71
     3
 72
    14
 73
    10
 74
     0
 42
0.0000000006969408
 43
0.0000000001
 40
0.0
 40
0.0
 40
0.0
 40
0.0
 40
0.25
 40
0.25
 40
0.5
 40
0.5
 40
0.75
 40
0.75
 40
1.0
 40
1.0
 40
1.0
 40
1.0
 10
178.85
 20
214.393188283329
 30
0.0
 10
178.1569116474879
 20
213.4175598405592
 30
0.0
 10
177.149351479657
 20
212.7115811519118
 30
0.0
 10
174.9587060272833
 20
211.8058673875156
 30
0.0
 10
173.7744917237939
 20
211.5955649908257
 30
0.0
 10
171.3944037149694
 20
211.5993798289627
 30
0.0
 10
170.2113801054258
 20
211.8146790715124
 30
0.0
 10
168.0393770655833
 20
212.7198653861507
 30
0.0
 10
167.03787435235
 20
213.4248993476226
 30
0.0
 10
166.35
 20
214.393188283329
 30
0.0
  0
LINE
  5
14B
330
11C
100
AcDbEntity
  8
$DDT_AUDIT_GENERATED_(90)
  6
Continuous
 62
     7
100
AcDbLine
 10
166.35
 20
214.3931882833
 30
0.0
 11
166.35
 21
224.3931882833
 31
0.0
  0
LINE
  5
14C
330
11C
100
AcDbEntity
  8
$DDT_AUDIT_GENERATED_(90)
  6
Continuous
 62
     7
100
AcDbLine
 10
162.7346189432
 20
224.3931882833
 30
0.0
 11
162.7346189432
 21
214.3931882833
 31
0.0
  0
SPLINE
  5
14D
330
11C
100
AcDbEntity
  8
$DDT_AUDIT_GENERATED_(90)
  6
Continuous
 62
     7
100
AcDbSpline
210
0.0
220
0.0
230
1.0
 70
     8
 71
     3
 72
    14
 73
    10
 74
     0
 42
0.0000000011014719
 43
0.0000000001
 40
0.0
 40
0.0
 40
0.0
 40
0.0
 40
0.2500000000000001
 40
0.2500000000000001
 40
0.5000000000000001
 40
0.5000000000000001
 40
0.7500000000000002
 40
0.7500000000000002
 40
1.0
 40
1.0
 40
1.0
 40
1.0
 10
162.7346189432334
 20
214.393188283329
 30
0.0
 10
162.3873010946061
 20
213.4153817148758
 30
0.0
 10
161.8893737820227
 20
212.718523220695
 30
0.0
 10
160.7994657174545
 20
211.8118412688253
 30
0.0
 10
160.2055915360495
 20
211.5978941685062
 30
0.0
 10
159.0171864326606
 20
211.5970270154643
 30
0.0
 10
158.4316326502636
 20
211.8043455737334
 30
0.0
 10
157.3313509071571
 20
212.7149440696568
 30
0.0
 10
156.8315541809832
 20
213.4164588821726
 30
0.0
 10
156.4846189432334
 20
214.393188283329
 30
0.0
  0
LINE
  5
14E
330
11C
100
AcDbEntity
  8
$DDT_AUDIT_GENERATED_(90)
  6
Continuous
 62
     7
100
AcDbLine
 10
156.4846189432
 20
214.3931882833
 30
0.0
 11
156.4846189432
 21
224.3931882833
 31
0.0
  0
LINE
  5
14F
330
11C
100
AcDbEntity
  8
$DDT_AUDIT_GENERATED_(90)
  6
Continuous
 62
     7
100
AcDbLine
 10
156.35
 20
224.3931882833
 30
0.0
 11
156.35
 21
214.3931882833
 31
0.0
  0
ARC
  5
150
330
11C
100
AcDbEntity
  8
$DDT_AUDIT_GENERATED_(90)
  6
Continuous
 62
     7
100
AcDbCircle
 10
179.2035976036
 20
217.0288894815
 30
0.0
 40
9.999999999999998
100
AcDbArc
 50
322.1519040322
 51
344.7179936136
  0
ARC
  5
151
330
11C
100
AcDbEntity
  8
$DDT_AUDIT_GENERATED_(90)
  6
Continuous
 62
     7
100
AcDbCircle
 10
165.9964023964
 20
217.0288894815
 30
0.0
 40
9.999999999999991
100
AcDbArc
 50
195.2820063864
 51
217.8480959678
  0
ARC
  5
152
330
11C
100
AcDbEntity
  8
$DDT_AUDIT_GENERATED_(90)
  6
Continuous
 62
     7
100
AcDbCircle
 10
179.2035976036
 20
221.7574870851
 30
0.0
 40
9.999999999999993
100
AcDbArc
 50
15.2820063864
 51
37.8480959678
  0
ARC
  5
153
330
11C
100
AcDbEntity
  8
$DDT_AUDIT_GENERATED_(90)
  6
Continuous
 62
     7
100
AcDbCircle
 10
165.9964023964
 20
221.7574870851
 30
0.0
 40
9.999999999999998
100
AcDbArc
 50
142.1519040322
 51
164.7179936136
  0
LINE
  5
154
330
11C
100
AcDbEntity
  8
$DDT_AUDIT_GENERATED_(90)
  6
Continuous
 62
     7
100
AcDbLine
 10
188.85
 20
214.3931882833
 30
0.0
 11
188.85
 21
224.3931882833
 31
0.0
  0
LINE
  5
155
330
11C
100
AcDbEntity
  8
$DDT_AUDIT_GENERATED_(90)
  6
Continuous
 62
     7
100
AcDbLine
 10
8.1
 20
210.8931882833
 30
0.0
 11
37.1
 21
210.8931882833
 31
0.0
  0
LINE
  5
156
330
11C
100
AcDbEntity
  8
$DDT_AUDIT_GENERATED_(90)
  6
Continuous
 62
     7
100
AcDbLine
 10
8.1
 20
227.8931882833
 30
0.0
 11
37.1
 21
227.8931882833
 31
0.0
  0
LINE
  5
157
330
11C
100
AcDbEntity
  8
$DDT_AUDIT_GENERATED_(90)
  6
Continuous
 62
     7
100
AcDbLine
 10
38.7153810568
 20
224.3931882833
 30
0.0
 11
38.85
 21
224.3931882833
 31
0.0
  0
LINE
  5
158
330
11C
100
AcDbEntity
  8
$DDT_AUDIT_GENERATED_(90)
  6
Continuous
 62
     7
100
AcDbLine
 10
32.4653810568
 20
224.3931882833
 30
0.0
 11
28.85
 21
224.3931882833
 31
0.0
  0
LINE
  5
159
330
11C
100
AcDbEntity
  8
$DDT_AUDIT_GENERATED_(90)
  6
Continuous
 62
     7
100
AcDbLine
 10
16.35
 20
224.3931882833
 30
0.0
 11
12.7346189432
 21
224.3931882833
 31
0.0
  0
LINE
  5
15A
330
11C
100
AcDbEntity
  8
$DDT_AUDIT_GENERATED_(90)
  6
Continuous
 62
     7
100
AcDbLine
 10
6.4846189432
 20
224.3931882833
 30
0.0
 11
6.35
 21
224.3931882833
 31
0.0
  0
SPLINE
  5
15B
330
11C
100
AcDbEntity
  8
$DDT_AUDIT_GENERATED_(90)
  6
Continuous
 62
     7
100
AcDbSpline
210
0.0
220
0.0
230
1.0
 70
     8
 71
     3
 72
    14
 73
    10
 74
     0
 42
0.0000000011014719
 43
0.0000000001
 40
0.0
 40
0.0
 40
0.0
 40
0.0
 40
0.25
 40
0.25
 40
0.5
 40
0.5
 40
0.75
 40
0.75
 40
1.0
 40
1.0
 40
1.0
 40
1.0
 10
12.73461894323344
 20
224.393188283329
 30
0.0
 10
12.38730109460616
 20
225.3709948517821
 30
0.0
 10
11.88937378202276
 20
226.067853345963
 30
0.0
 10
10.79946571745451
 20
226.9745352978327
 30
0.0
 10
10.2055915360495
 20
227.1884823981518
 30
0.0
 10
9.017186432660598
 20
227.1893495511936
 30
0.0
 10
8.431632650263547
 20
226.9820309929245
 30
0.0
 10
7.331350907157072
 20
226.0714324970012
 30
0.0
 10
6.831554180983232
 20
225.3699176844854
 30
0.0
 10
6.48461894323342
 20
224.393188283329
 30
0.0
  0
SPLINE
  5
15C
330
11C
100
AcDbEntity
  8
$DDT_AUDIT_GENERATED_(90)
  6
Continuous
 62
     7
100
AcDbSpline
210
0.0
220
0.0
230
1.0
 70
     8
 71
     3
 72
    14
 73
    10
 74
     0
 42
0.0000000006969408
 43
0.0000000001
 40
0.0
 40
0.0
 40
0.0
 40
0.0
 40
0.25
 40
0.25
 40
0.5
 40
0.5
 40
0.75
 40
0.75
 40
1.0
 40
1.0
 40
1.0
 40
1.0
 10
28.85000000000002
 20
224.393188283329
 30
0.0
 10
28.15691164748787
 20
225.3688167260987
 30
0.0
 10
27.14935147965702
 20
226.0747954147461
 30
0.0
 10
24.95870602728324
 20
226.9805091791423
 30
0.0
 10
23.77449172379387
 20
227.1908115758323
 30
0.0
 10
21.39440371496938
 20
227.1869967376953
 30
0.0
 10
20.21138010542578
 20
226.9716974951455
 30
0.0
 10
18.0393770655833
 20
226.0665111805073
 30
0.0
 10
17.03787435235001
 20
225.3614772190353
 30
0.0
 10
16.35
 20
224.393188283329
 30
0.0
  0
SPLINE
  5
15D
330
11C
100
AcDbEntity
  8
$DDT_AUDIT_GENERATED_(90)
  6
Continuous
 62
     7
100
AcDbSpline
210
0.0
220
0.0
230
1.0
 70
     8
 71
     3
 72
    14
 73
    10
 74
     0
 42
0.0000000011014719
 43
0.0000000001
 40
0.0
 40
0.0
 40
0.0
 40
0.0
 40
0.25
 40
0.25
 40
0.5
 40
0.5
 40
0.75
 40
0.75
 40
1.0
 40
1.0
 40
1.0
 40
1.0
 10
38.71538105676659
 20
224.393188283329
 30
0.0
 10
38.3680632081393
 20
225.3709948517821
 30
0.0
 10
37.87013589555592
 20
226.067853345963
 30
0.0
 10
36.78022783098766
 20
226.9745352978327
 30
0.0
 10
36.18635364958266
 20
227.1884823981518
 30
0.0
 10
34.99794854619375
 20
227.1893495511936
 30
0.0
 10
34.4123947637967
 20
226.9820309929245
 30
0.0
 10
33.31211302069023
 20
226.0714324970012
 30
0.0
 10
32.81231629451639
 20
225.3699176844854
 30
0.0
 10
32.46538105676658
 20
224.393188283329
 30
0.0
  0
LINE
  5
15E
330
11C
100
AcDbEntity
  8
$DDT_AUDIT_GENERATED_(90)
  6
Continuous
 62
     7
100
AcDbLine
 10
38.7153810568
 20
214.3931882833
 30
0.0
 11
38.85
 21
214.3931882833
 31
0.0
  0
LINE
  5
15F
330
11C
100
AcDbEntity
  8
$DDT_AUDIT_GENERATED_(90)
  6
Continuous
 62
     7
100
AcDbLine
 10
32.4653810568
 20
214.3931882833
 30
0.0
 11
28.85
 21
214.3931882833
 31
0.0
  0
LINE
  5
160
330
11C
100
AcDbEntity
  8
$DDT_AUDIT_GENERATED_(90)
  6
Continuous
 62
     7
100
AcDbLine
 10
16.35
 20
214.3931882833
 30
0.0
 11
12.7346189432
 21
214.3931882833
 31
0.0
  0
LINE
  5
161
330
11C
100
AcDbEntity
  8
$DDT_AUDIT_GENERATED_(90)
  6
Continuous
 62
     7
100
AcDbLine
 10
6.4846189432
 20
214.3931882833
 30
0.0
 11
6.35
 21
214.3931882833
 31
0.0
  0
LINE
  5
162
330
11C
100
AcDbEntity
  8
$DDT_AUDIT_GENERATED_(90)
  6
Continuous
 62
     7
100
AcDbLine
 10
38.7153810568
 20
224.3931882833
 30
0.0
 11
38.7153810568
 21
214.3931882833
 31
0.0
  0
SPLINE
  5
163
330
11C
100
AcDbEntity
  8
$DDT_AUDIT_GENERATED_(90)
  6
Continuous
 62
     7
100
AcDbSpline
210
0.0
220
0.0
230
1.0
 70
     8
 71
     3
 72
    14
 73
    10
 74
     0
 42
0.0000000011014719
 43
0.0000000001
 40
0.0
 40
0.0
 40
0.0
 40
0.0
 40
0.2499999999999999
 40
0.2499999999999999
 40
0.4999999999999999
 40
0.4999999999999999
 40
0.7499999999999999
 40
0.7499999999999999
 40
1.0
 40
1.0
 40
1.0
 40
1.0
 10
38.71538105676659
 20
214.393188283329
 30
0.0
 10
38.36806320813931
 20
213.4153817148758
 30
0.0
 10
37.87013589555592
 20
212.718523220695
 30
0.0
 10
36.78022783098767
 20
211.8118412688253
 30
0.0
 10
36.18635364958266
 20
211.5978941685062
 30
0.0
 10
34.99794854619375
 20
211.5970270154643
 30
0.0
 10
34.4123947637967
 20
211.8043455737334
 30
0.0
 10
33.31211302069023
 20
212.7149440696568
 30
0.0
 10
32.81231629451639
 20
213.4164588821726
 30
0.0
 10
32.46538105676658
 20
214.393188283329
 30
0.0
  0
LINE
  5
164
330
11C
100
AcDbEntity
  8
$DDT_AUDIT_GENERATED_(90)
  6
Continuous
 62
     7
100
AcDbLine
 10
32.4653810568
 20
214.3931882833
 30
0.0
 11
32.4653810568
 21
224.3931882833
 31
0.0
  0
LINE
  5
165
330
11C
100
AcDbEntity
  8
$DDT_AUDIT_GENERATED_(90)
  6
Continuous
 62
     7
100
AcDbLine
 10
28.85
 20
224.3931882833
 30
0.0
 11
28.85
 21
214.3931882833
 31
0.0
  0
SPLINE
  5
166
330
11C
100
AcDbEntity
  8
$DDT_AUDIT_GENERATED_(90)
  6
Continuous
 62
     7
100
AcDbSpline
210
0.0
220
0.0
230
1.0
 70
     8
 71
     3
 72
    14
 73
    10
 74
     0
 42
0.0000000006969408
 43
0.0000000001
 40
0.0
 40
0.0
 40
0.0
 40
0.0
 40
0.25
 40
0.25
 40
0.5
 40
0.5
 40
0.75
 40
0.75
 40
1.0
 40
1.0
 40
1.0
 40
1.0
 10
28.85000000000002
 20
214.393188283329
 30
0.0
 10
28.15691164748789
 20
213.4175598405592
 30
0.0
 10
27.14935147965702
 20
212.7115811519118
 30
0.0
 10
24.95870602728326
 20
211.8058673875156
 30
0.0
 10
23.77449172379387
 20
211.5955649908257
 30
0.0
 10
21.39440371496938
 20
211.5993798289627
 30
0.0
 10
20.21138010542578
 20
211.8146790715124
 30
0.0
 10
18.03937706558328
 20
212.7198653861507
 30
0.0
 10
17.03787435234999
 20
213.4248993476226
 30
0.0
 10
16.35
 20
214.393188283329
 30
0.0
  0
LINE
  5
167
330
11C
100
AcDbEntity
  8
$DDT_AUDIT_GENERATED_(90)
  6
Continuous
 62
     7
100
AcDbLine
 10
16.35
 20
214.3931882833
 30
0.0
 11
16.35
 21
224.3931882833
 31
0.0
  0
LINE
  5
168
330
11C
100
AcDbEntity
  8
$DDT_AUDIT_GENERATED_(90)
  6
Continuous
 62
     7
100
AcDbLine
 10
12.7346189432
 20
224.3931882833
 30
0.0
 11
12.7346189432
 21
214.3931882833
 31
0.0
  0
SPLINE
  5
169
330
11C
100
AcDbEntity
  8
$DDT_AUDIT_GENERATED_(90)
  6
Continuous
 62
     7
100
AcDbSpline
210
0.0
220
0.0
230
1.0
 70
     8
 71
     3
 72
    14
 73
    10
 74
     0
 42
0.0000000011014719
 43
0.0000000001
 40
0.0
 40
0.0
 40
0.0
 40
0.0
 40
0.2500000000000001
 40
0.2500000000000001
 40
0.5000000000000001
 40
0.5000000000000001
 40
0.7500000000000002
 40
0.7500000000000002
 40
1.0
 40
1.0
 40
1.0
 40
1.0
 10
12.73461894323344
 20
214.393188283329
 30
0.0
 10
12.38730109460616
 20
213.4153817148758
 30
0.0
 10
11.88937378202276
 20
212.718523220695
 30
0.0
 10
10.79946571745451
 20
211.8118412688253
 30
0.0
 10
10.2055915360495
 20
211.5978941685062
 30
0.0
 10
9.017186432660598
 20
211.5970270154643
 30
0.0
 10
8.431632650263547
 20
211.8043455737334
 30
0.0
 10
7.331350907157072
 20
212.7149440696568
 30
0.0
 10
6.831554180983232
 20
213.4164588821726
 30
0.0
 10
6.48461894323342
 20
214.393188283329
 30
0.0
  0
LINE
  5
16A
330
11C
100
AcDbEntity
  8
$DDT_AUDIT_GENERATED_(90)
  6
Continuous
 62
     7
100
AcDbLine
 10
6.4846189432
 20
214.3931882833
 30
0.0
 11
6.4846189432
 21
224.3931882833
 31
0.0
  0
LINE
  5
16B
330
11C
100
AcDbEntity
  8
$DDT_AUDIT_GENERATED_(90)
  6
Continuous
 62
     7
100
AcDbLine
 10
6.35
 20
224.3931882833
 30
0.0
 11
6.35
 21
214.3931882833
 31
0.0
  0
ARC
  5
16C
330
11C
100
AcDbEntity
  8
$DDT_AUDIT_GENERATED_(90)
  6
Continuous
 62
     7
100
AcDbCircle
 10
29.2035976036
 20
217.0288894815
 30
0.0
 40
9.999999999999998
100
AcDbArc
 50
322.1519040322
 51
344.7179936136
  0
ARC
  5
16D
330
11C
100
AcDbEntity
  8
$DDT_AUDIT_GENERATED_(90)
  6
Continuous
 62
     7
100
AcDbCircle
 10
15.9964023964
 20
217.0288894815
 30
0.0
 40
9.999999999999991
100
AcDbArc
 50
195.2820063864
 51
217.8480959678
  0
ARC
  5
16E
330
11C
100
AcDbEntity
  8
$DDT_AUDIT_GENERATED_(90)
  6
Continuous
 62
     7
100
AcDbCircle
 10
29.2035976036
 20
221.7574870851
 30
0.0
 40
9.999999999999993
100
AcDbArc
 50
15.2820063864
 51
37.8480959678
  0
ARC
  5
16F
330
11C
100
AcDbEntity
  8
$DDT_AUDIT_GENERATED_(90)
  6
Continuous
 62
     7
100
AcDbCircle
 10
15.9964023964
 20
221.7574870851
 30
0.0
 40
9.999999999999998
100
AcDbArc
 50
142.1519040322
 51
164.7179936136
  0
LINE
  5
170
330
11C
100
AcDbEntity
  8
$DDT_AUDIT_GENERATED_(90)
  6
Continuous
 62
     7
100
AcDbLine
 10
38.85
 20
214.3931882833
 30
0.0
 11
38.85
 21
224.3931882833
 31
0.0
  0
SPLINE
  5
171
330
11C
100
AcDbEntity
  8
$DDT_AUDIT_GENERATED_(9F)
  6
Continuous
 62
     7
100
AcDbSpline
210
0.0
220
0.0
230
1.0
 70
     8
 71
     3
 72
    36
 73
    32
 74
     0
 42
0.0000000018478999
 43
0.0000000001
 40
0.0
 40
0.0
 40
0.0
 40
0.0
 40
0.0058177834461985
 40
0.0224020770884782
 40
0.0389863707307578
 40
0.0555706643730375
 40
0.0721549580153172
 40
0.0887392516575969
 40
0.1053235452998766
 40
0.1219078389421562
 40
0.1384921325844359
 40
0.1550764262267156
 40
0.1716607198689953
 40
0.188245013511275
 40
0.2048293071535546
 40
0.2214136007958343
 40
0.237997894438114
 40
0.2545821880803936
 40
0.2711664817226733
 40
0.287750775364953
 40
0.3043350690072327
 40
0.3209193626495124
 40
0.337503656291792
 40
0.3540879499340717
 40
0.3706722435763514
 40
0.3872565372186311
 40
0.4038408308609108
 40
0.4204251245031904
 40
0.4370094181454701
 40
0.4535937117877498
 40
0.4665981084728943
 40
0.4665981084728943
 40
0.4665981084728943
 40
0.4665981084728943
 10
112.4771089418953
 20
109.3724179050896
 30
0.0
 10
112.4706534146473
 20
109.3585878417778
 30
0.0
 10
112.4467040398054
 20
109.3049347865844
 30
0.0
 10
112.4047785659733
 20
109.213722949303
 30
0.0
 10
112.3508185263213
 20
109.101411887543
 30
0.0
 10
112.2964119056493
 20
108.9931875796268
 30
0.0
 10
112.2415641697243
 20
108.8890496169668
 30
0.0
 10
112.1862844807143
 20
108.7889984904735
 30
0.0
 10
112.1305775305663
 20
108.6930305384222
 30
0.0
 10
112.0744505914973
 20
108.6011472545243
 30
0.0
 10
112.0179094416083
 20
108.5133444904334
 30
0.0
 10
111.9609603754453
 20
108.429622844112
 30
0.0
 10
111.9036099798563
 20
108.3499777716271
 30
0.0
 10
111.8458643697943
 20
108.2744087500929
 30
0.0
 10
111.7877299885503
 20
108.2029151867913
 30
0.0
 10
111.7292104756423
 20
108.1354916347906
 30
0.0
 10
111.6703099581583
 20
108.0721351718102
 30
0.0
 10
111.6110319709773
 20
108.0128405728879
 30
0.0
 10
111.5513805823243
 20
107.9576059041871
 30
0.0
 10
111.4913599117863
 20
107.9064245151795
 30
0.0
 10
111.4309733243783
 20
107.8592932223318
 30
0.0
 10
111.3702252419693
 20
107.8162090732662
 30
0.0
 10
111.3091190529543
 20
107.7771661368675
 30
0.0
 10
111.2476566291953
 20
107.7421599042499
 30
0.0
 10
111.1858388010433
 20
107.7111832234271
 30
0.0
 10
111.1236676297993
 20
107.684230065663
 30
0.0
 10
111.0611442042483
 20
107.6612943410299
 30
0.0
 10
110.9982699979853
 20
107.6423692424198
 30
0.0
 10
110.9350464708343
 20
107.6274498488106
 30
0.0
 10
110.8760492746361
 20
107.6173144366163
 30
0.0
 10
110.8380586053252
 20
107.6129367441957
 30
0.0
 10
110.8213259031501
 20
107.6114212274778
 30
0.0
  0
SPLINE
  5
172
330
11C
100
AcDbEntity
  8
$DDT_AUDIT_GENERATED_(9F)
  6
Continuous
 62
     7
100
AcDbSpline
210
0.0
220
0.0
230
1.0
 70
     8
 71
     3
 72
    17
 73
    13
 74
     0
 42
0.0000000018406531
 43
0.0000000001
 40
0.0
 40
0.0
 40
0.0
 40
0.0
 40
0.0251246765025839
 40
0.0504501147442759
 40
0.0759774906035725
 40
0.1017080176534656
 40
0.127642947619623
 40
0.1537835708303212
 40
0.1801312166578083
 40
0.2887965789495758
 40
0.3976933251958337
 40
0.4667074265010858
 40
0.4667074265010858
 40
0.4667074265010858
 40
0.4667074265010858
 10
82.72213666997678
 20
109.3726411785469
 30
0.0
 10
82.74880700735694
 20
109.312833859021
 30
0.0
 10
82.80285293408494
 20
109.1931169811216
 30
0.0
 10
82.88559896890965
 20
109.0248433154677
 30
0.0
 10
82.96997560999549
 20
108.8641802517506
 30
0.0
 10
83.05608250522279
 20
108.7122157903978
 30
0.0
 10
83.14389310077594
 20
108.5689372543338
 30
0.0
 10
83.2334128496486
 20
108.4346331185326
 30
0.0
 10
83.41941860665364
 20
108.1795370027094
 30
0.0
 10
83.70849255398049
 20
107.8747725144592
 30
0.0
 10
84.06201445043892
 20
107.6696684239486
 30
0.0
 10
84.28840561324338
 20
107.6192755850147
 30
0.0
 10
84.37724847610708
 20
107.6112232183305
 30
0.0
  0
SPLINE
  5
173
330
11C
100
AcDbEntity
  8
$DDT_AUDIT_GENERATED_(9F)
  6
Continuous
 62
     7
100
AcDbSpline
210
0.0
220
0.0
230
1.0
 70
     8
 71
     3
 72
     8
 73
     4
 74
     0
 42
0.0000000011853453
 43
0.0000000001
 40
0.5359773548042462
 40
0.5359773548042462
 40
0.5359773548042462
 40
0.5359773548042462
 40
0.5374849135776766
 40
0.5374849135776766
 40
0.5374849135776766
 40
0.5374849135776766
 10
70.34972798945327
 20
118.1738940910136
 30
0.0
 10
70.34965856271907
 20
118.1781419144775
 30
0.0
 10
70.34962039666674
 20
118.182381104574
 30
0.0
 10
70.34961351965471
 20
118.1866116552475
 30
0.0
  0
ARC
  5
174
330
11C
100
AcDbEntity
  8
$DDT_AUDIT_GENERATED_(9F)
  6
Continuous
 62
     7
100
AcDbCircle
 10
86.153587312
 20
118.9130060799
 30
0.0
 40
27.99911808830928
100
AcDbArc
 50
340.0776675845
 51
357.1383391569
  0
ARC
  5
175
330
11C
100
AcDbEntity
  8
$DDT_AUDIT_GENERATED_(9F)
  6
Continuous
 62
     7
100
AcDbCircle
 10
108.7965344547
 20
118.8633513281
 30
0.0
 40
27.7479332379555
100
AcDbArc
 50
182.7855427422
 51
200.000786768
  0
ARC
  5
176
330
11C
100
AcDbEntity
  8
$DDT_AUDIT_GENERATED_(9F)
  6
Continuous
 62
     7
100
AcDbCircle
 10
109.741475229
 20
119.9579603739
 30
0.0
 40
29.7347038957589
100
AcDbArc
 50
197.2732094059
 51
198.4751242272
  0
SPLINE
  5
177
330
11C
100
AcDbEntity
  8
$DDT_AUDIT_GENERATED_(9F)
  6
Continuous
 62
     7
100
AcDbSpline
210
0.0
220
0.0
230
1.0
 70
     8
 71
     3
 72
    10
 73
     6
 74
     0
 42
0.0000000093014902
 43
0.0000000001
 40
0.0
 40
0.0
 40
0.0
 40
0.0
 40
0.5
 40
0.5
 40
1.0
 40
1.0
 40
1.0
 40
1.0
 10
80.69381900311681
 20
118.4561558404436
 30
0.0
 10
80.68843775565858
 20
118.2515594082838
 30
0.0
 10
80.72324812826567
 20
118.0474393979651
 30
0.0
 10
80.86082579539885
 20
117.7130172899992
 30
0.0
 10
80.96327272751802
 20
117.5834939253665
 30
0.0
 10
81.08138729647432
 20
117.5148644070777
 30
0.0
  0
ARC
  5
178
330
11C
100
AcDbEntity
  8
$DDT_AUDIT_GENERATED_(9F)
  6
Continuous
 62
     7
100
AcDbCircle
 10
85.4587468089
 20
119.9576195609
 30
0.0
 40
29.7337562063472
100
AcDbArc
 50
341.5244501088
 51
343.1262695492
  0
LINE
  5
179
330
11C
100
AcDbEntity
  8
$DDT_AUDIT_GENERATED_(9F)
  6
Continuous
 62
     7
100
AcDbLine
 10
124.5500256358
 20
144.3932817953
 30
0.0
 11
70.6499743571
 21
144.3932817953
 31
0.0
  0
LINE
  5
17A
330
11C
100
AcDbEntity
  8
$DDT_AUDIT_GENERATED_(9F)
  6
Continuous
 62
     7
100
AcDbLine
 10
70.9225854525
 20
144.3932817953
 30
0.0
 11
124.2774145404
 21
144.3932817953
 31
0.0
  0
SPLINE
  5
17B
330
11C
100
AcDbEntity
  8
$DDT_AUDIT_GENERATED_(9F)
  6
Continuous
 62
     7
100
AcDbSpline
210
0.0
220
0.0
230
1.0
 70
     8
 71
     3
 72
    31
 73
    27
 74
     0
 42
0.0000000024055049
 43
0.0000000001
 40
0.0
 40
0.0
 40
0.0
 40
0.0
 40
0.0611009814585882
 40
0.1143277322648677
 40
0.1596855783009811
 40
0.1971791982051807
 40
0.2268126029074875
 40
0.2487436613263139
 40
0.2824628634676191
 40
0.321945656573998
 40
0.3671907694516544
 40
0.4206046597432308
 40
0.4694609466117842
 40
0.5117762837098324
 40
0.5475540834419294
 40
0.5773262635019396
 40
0.6089674647274076
 40
0.6520317671418215
 40
0.7013404548709766
 40
0.7568896521528304
 40
0.8115135234112925
 40
0.859369146961137
 40
0.899265217635759
 40
0.933433078359379
 40
0.9728529200590714
 40
1.0
 40
1.0
 40
1.0
 40
1.0
 10
110.9272741834851
 20
107.626574144569
 30
0.0
 10
111.0230306238575
 20
107.6479423146945
 30
0.0
 10
111.1732649221078
 20
107.6824856416207
 30
0.0
 10
111.3941523294744
 20
107.7613448342176
 30
0.0
 10
111.5717211186969
 20
107.840717814479
 30
0.0
 10
111.7144872062162
 20
107.9162315674378
 30
0.0
 10
111.8237941543207
 20
107.9814970153282
 30
0.0
 10
111.9254507214157
 20
108.0476620843312
 30
0.0
 10
112.0314493558851
 20
108.1228974382872
 30
0.0
 10
112.1552807387992
 20
108.220077659933
 30
0.0
 10
112.2918173390994
 20
108.3392129938969
 30
0.0
 10
112.4299764897385
 20
108.474139198236
 30
0.0
 10
112.5599134587279
 20
108.6155201570267
 30
0.0
 10
112.6689998013666
 20
108.7454853201585
 30
0.0
 10
112.7577515004823
 20
108.8592765003387
 30
0.0
 10
112.8333104699677
 20
108.9619139104705
 30
0.0
 10
112.9111557789471
 20
109.0731748619638
 30
0.0
 10
113.0005200416308
 20
109.2087254783568
 30
0.0
 10
113.1034619108654
 20
109.3762576476373
 30
0.0
 10
113.2107914556177
 20
109.5648030478007
 30
0.0
 10
113.3139293094151
 20
109.7605279861539
 30
0.0
 10
113.4039408423826
 20
109.9436099126777
 30
0.0
 10
113.4788781115854
 20
110.1050043753729
 30
0.0
 10
113.545625901084
 20
110.2558046987063
 30
0.0
 10
113.6051252945681
 20
110.3955428472957
 30
0.0
 10
113.6398802285886
 20
110.4825313142766
 30
0.0
 10
113.6565961409572
 20
110.5244712416805
 30
0.0
  0
ARC
  5
17C
330
11C
100
AcDbEntity
  8
$DDT_AUDIT_GENERATED_(9F)
  6
Continuous
 62
     7
100
AcDbCircle
 10
97.6000155887
 20
175.3633957581
 30
0.0
 40
69.01339575814607
100
AcDbArc
 50
258.9542582598
 51
281.0450819605
  0
LINE
  5
17D
330
11C
100
AcDbEntity
  8
$DDT_AUDIT_GENERATED_(9F)
  6
Continuous
 62
     7
100
AcDbLine
 10
124.8500256358
 20
118.1866228505
 30
0.0
 11
124.8500256358
 21
144.0932817834
 31
0.0
  0
LINE
  5
17E
330
11C
100
AcDbEntity
  8
$DDT_AUDIT_GENERATED_(9F)
  6
Continuous
 62
     7
100
AcDbLine
 10
70.3499743571
 20
144.0932817834
 30
0.0
 11
70.3499743571
 21
118.1810427125
 31
0.0
  0
SPLINE
  5
17F
330
11C
100
AcDbEntity
  8
$DDT_AUDIT_GENERATED_(9F)
  6
Continuous
 62
     7
100
AcDbSpline
210
0.0
220
0.0
230
1.0
 70
     8
 71
     3
 72
    24
 73
    20
 74
     0
 42
0.0000000024044446
 43
0.0000000001
 40
0.0
 40
0.0
 40
0.0
 40
0.0
 40
0.0423725176130179
 40
0.0920637526687853
 40
0.1484832215385089
 40
0.2116342993670708
 40
0.2773456703167978
 40
0.3449508036140869
 40
0.4073429263983688
 40
0.4643932882671152
 40
0.5161001822332063
 40
0.5674973077188459
 40
0.6126471153310017
 40
0.6606623726772132
 40
0.7152869409972339
 40
0.7765266611679769
 40
0.8443876191960801
 40
0.9188763293518
 40
1.0
 40
1.0
 40
1.0
 40
1.0
 10
81.54212564761146
 20
110.52484503118
 30
0.0
 10
81.56889008068896
 20
110.458842089928
 30
0.0
 10
81.61811235250892
 20
110.3379810566765
 30
0.0
 10
81.70941510689272
 20
110.1283130730289
 30
0.0
 10
81.81443841245303
 20
109.9028134028978
 30
0.0
 10
81.93475053392243
 20
109.6642586013704
 30
0.0
 10
82.06690022525578
 20
109.4247641637206
 30
0.0
 10
82.20373753921773
 20
109.1995925865132
 30
0.0
 10
82.34085247649645
 20
108.9954107503324
 30
0.0
 10
82.47249341211061
 20
108.8176209122511
 30
0.0
 10
82.60224257843738
 20
108.6582743923658
 30
0.0
 10
82.72952924365676
 20
108.5163324422216
 30
0.0
 10
82.86324529653872
 20
108.3812542674724
 30
0.0
 10
83.01157153219901
 20
108.2465093188866
 30
0.0
 10
83.18744941329798
 20
108.1062250990038
 30
0.0
 10
83.39857225607904
 20
107.9634344548879
 30
0.0
 10
83.64674239946167
 20
107.8279369512202
 30
0.0
 10
83.94377653817648
 20
107.7047617949507
 30
0.0
 10
84.14626891055374
 20
107.6559678441707
 30
0.0
 10
84.27228219810188
 20
107.6266666311454
 30
0.0
  0
SPLINE
  5
180
330
11C
100
AcDbEntity
  8
$DDT_AUDIT_GENERATED_(9F)
  6
Continuous
 62
     7
100
AcDbSpline
210
0.0
220
0.0
230
1.0
 70
     8
 71
     3
 72
    24
 73
    20
 74
     0
 42
0.0000000007559835
 43
0.0000000001
 40
0.0
 40
0.0
 40
0.0
 40
0.0
 40
0.0171826016836043
 40
0.0611307340609508
 40
0.1084983035793426
 40
0.1626558188562482
 40
0.2247791717833054
 40
0.2930149177476618
 40
0.3631310491777076
 40
0.4325320257204715
 40
0.5010629866416628
 40
0.5688187416155005
 40
0.6358495104164967
 40
0.7021435393326907
 40
0.7676438336389714
 40
0.8338559271051273
 40
0.8997836376435564
 40
0.9653670386536216
 40
1.0
 40
1.0
 40
1.0
 40
1.0
 10
70.36108397256591
 20
118.168313488248
 30
0.0
 10
70.35853675339216
 20
118.1103979059747
 30
0.0
 10
70.35149188187258
 20
117.9352080781482
 30
0.0
 10
70.42536849120215
 20
117.6115107468515
 30
0.0
 10
70.56926716924185
 20
117.2276431546974
 30
0.0
 10
70.80003146911676
 20
116.8223063611003
 30
0.0
 10
71.12599094568712
 20
116.3897392637543
 30
0.0
 10
71.55880403510173
 20
115.9300398018605
 30
0.0
 10
72.09226867269135
 20
115.4551206548449
 30
0.0
 10
72.7126571633573
 20
114.9762554156426
 30
0.0
 10
73.41003521661068
 20
114.4985302574891
 30
0.0
 10
74.18106856071223
 20
114.02263850785
 30
0.0
 10
75.02272773371743
 20
113.5499428983994
 30
0.0
 10
75.93203213918437
 20
113.0821822079532
 30
0.0
 10
76.91068384728236
 20
112.619490484478
 30
0.0
 10
77.95945974362766
 20
112.1634537638743
 30
0.0
 10
79.06898114933674
 20
111.72184082576
 30
0.0
 10
80.08041001432728
 20
111.3484459990843
 30
0.0
 10
80.67262622210275
 20
111.1536716432366
 30
0.0
 10
80.91396924534338
 20
111.0745715887404
 30
0.0
  0
SPLINE
  5
181
330
11C
100
AcDbEntity
  8
$DDT_AUDIT_GENERATED_(9F)
  6
Continuous
 62
     7
100
AcDbSpline
210
0.0
220
0.0
230
1.0
 70
     8
 71
     3
 72
    23
 73
    19
 74
     0
 42
0.0000000007552073
 43
0.0000000001
 40
0.0
 40
0.0
 40
0.0
 40
0.0
 40
0.0636676143135941
 40
0.1284368863256748
 40
0.1936721664696287
 40
0.2593176041511722
 40
0.325316505214795
 40
0.3911105156776738
 40
0.4571019187897201
 40
0.5238048918134863
 40
0.5911798802522834
 40
0.6592474966203202
 40
0.7281087057559209
 40
0.797896508998665
 40
0.8601839619665624
 40
0.9143048984836232
 40
0.9609696326353094
 40
1.0
 40
1.0
 40
1.0
 40
1.0
 10
114.283043222396
 20
111.0689438246134
 30
0.0
 10
114.7194473485118
 20
111.2171250239614
 30
0.0
 10
115.4591826378396
 20
111.4697711412808
 30
0.0
 10
116.6113454679328
 20
111.9082374494707
 30
0.0
 10
117.6835837945386
 20
112.3515802650182
 30
0.0
 10
118.7014323012135
 20
112.8095342300373
 30
0.0
 10
119.649230583353
 20
113.2735256374962
 30
0.0
 10
120.5238583258404
 20
113.7396241438587
 30
0.0
 10
121.3252657778373
 20
114.2064171530222
 30
0.0
 10
122.0549576870134
 20
114.6742278924383
 30
0.0
 10
122.7119017233021
 20
115.1429841436864
 30
0.0
 10
123.2935174914015
 20
115.6126529133552
 30
0.0
 10
123.797865110701
 20
116.0858187641025
 30
0.0
 10
124.205036706777
 20
116.549088724633
 30
0.0
 10
124.5088145737722
 20
116.9946937901494
 30
0.0
 10
124.7083774718909
 20
117.4080448255723
 30
0.0
 10
124.8281344274105
 20
117.8056473037935
 30
0.0
 10
124.840260540398
 20
118.0471402309228
 30
0.0
 10
124.8457600719095
 20
118.1778266383674
 30
0.0
  0
ARC
  5
182
330
11C
100
AcDbEntity
  8
$DDT_AUDIT_GENERATED_(9F)
  6
Continuous
 62
     7
100
AcDbCircle
 10
114.5507873274
 20
110.1412446247
 30
0.0
 40
0.9721015503794042
100
AcDbArc
 50
110.7949338485
 51
158.0153389938
  0
ARC
  5
183
330
11C
100
AcDbEntity
  8
$DDT_AUDIT_GENERATED_(9F)
  6
Continuous
 62
     7
100
AcDbCircle
 10
80.6484597956
 20
110.1414981732
 30
0.0
 40
0.9721055884887109
100
AcDbArc
 50
21.9840622974
 51
69.2040563062
  0
ARC
  5
184
330
11C
100
AcDbEntity
  8
$DDT_AUDIT_GENERATED_(9F)
  6
Continuous
 62
     7
100
AcDbCircle
 10
70.6499743571
 20
144.0932817953
 30
0.0
 40
0.3000000000000017
100
AcDbArc
 50
90.0
 51
179.664472133
  0
ARC
  5
185
330
11C
100
AcDbEntity
  8
$DDT_AUDIT_GENERATED_(9F)
  6
Continuous
 62
     7
100
AcDbCircle
 10
124.5500256358
 20
144.0932817953
 30
0.0
 40
0.299999999999999
100
AcDbArc
 50
359.2779257289
 51
90.0
  0
ARC
  5
186
330
11C
100
AcDbEntity
  8
01081038_EURO-EC
  6
Continuous
 62
     7
100
AcDbCircle
 10
97.5999999964
 20
155.0431882833
 30
0.0
 40
26.0
100
AcDbArc
 50
180.0
 51
204.1804502653
  0
ARC
  5
187
330
11C
100
AcDbEntity
  8
01081038_EURO-EC
  6
Continuous
 62
     7
100
AcDbCircle
 10
97.5999999964
 20
155.0431882833
 30
0.0
 40
26.00000000000001
100
AcDbArc
 50
335.8195497347
 51
360.0
  0
LINE
  5
188
330
11C
100
AcDbEntity
  8
01081038_EURO-EC
  6
Continuous
 62
     7
100
AcDbLine
 10
123.5999999964
 20
155.0431882833
 30
0.0
 11
123.5999999964
 21
182.6092105942
 31
0.0
  0
LINE
  5
189
330
11C
100
AcDbEntity
  8
01081038_EURO-EC
  6
Continuous
 62
     7
100
AcDbLine
 10
71.5999999964
 20
182.6303006838
 30
0.0
 11
71.5999999964
 21
155.0431882833
 31
0.0
  0
ENDBLK
  5
18B
330
11C
100
AcDbEntity
  8
0
100
AcDbBlockEnd
  0
ENDSEC
  0
SECTION
  2
ENTITIES
  0
INSERT
  5
5F
330
1F
100
AcDbEntity
  8
Default
100
AcDbBlockReference
  2
SEANNOT_GROUP
 10
0.0
 20
0.0
 30
0.0
  0
INSERT
  5
66
330
1F
100
AcDbEntity
  8
Default
100
AcDbBlockReference
  2
SEANNOT_GROUP1
 10
0.0
 20
0.0
 30
0.0
  0
INSERT
  5
6C
330
1F
100
AcDbEntity
  8
Default
100
AcDbBlockReference
  2
SEANNOT_GROUP2
 10
0.0
 20
0.0
 30
0.0
  0
INSERT
  5
72
330
1F
100
AcDbEntity
  8
Default
100
AcDbBlockReference
  2
SEANNOT_GROUP3
 10
0.0
 20
0.0
 30
0.0
  0
INSERT
  5
78
330
1F
100
AcDbEntity
  8
Default
100
AcDbBlockReference
  2
SEANNOT_GROUP4
 10
0.0
 20
0.0
 30
0.0
  0
INSERT
  5
82
330
1F
100
AcDbEntity
  8
Default
100
AcDbBlockReference
  2
SEANNOT_GROUP5
 10
0.0
 20
0.0
 30
0.0
  0
INSERT
  5
8C
330
1F
100
AcDbEntity
  8
Default
100
AcDbBlockReference
  2
SE
 10
0.0
 20
0.0
 30
0.0
  0
INSERT
  5
BA
330
1F
100
AcDbEntity
  8
Default
100
AcDbBlockReference
  2
SE1
 10
0.0
 20
0.0
 30
0.0
  0
INSERT
  5
11D
330
1F
100
AcDbEntity
  8
Default
100
AcDbBlockReference
  2
SE2
 10
0.0
 20
0.0
 30
0.0
  0
TEXT
  5
18D
330
1F
100
AcDbEntity
  8
Default
  6
Continuous
 62
     7
100
AcDbText
 10
5.9362635081
 20
53.4225120485
 30
0.0
 40
10.0
  1
Grohe AG^J
  7
SEACAD_seiso_ttf
 11
5.9362635081
 21
63.4225120485
 31
0.0
100
AcDbText
 73
     3
  0
TEXT
  5
18E
330
1F
100
AcDbEntity
  8
Default
  6
Continuous
 62
     7
100
AcDbText
 10
5.9362635081
 20
37.0588756849
 30
0.0
 40
10.0
  1
 
  7
SEACAD_seiso_ttf
 11
5.9362635081
 21
47.0588756849
 31
0.0
100
AcDbText
 73
     3
  0
TEXT
  5
18F
330
1F
100
AcDbEntity
  8
Default
  6
Continuous
 62
     7
100
AcDbText
 10
5.9362635081
 20
20.6952393213
 30
0.0
 40
10.0
  1
ecn:
  7
SEACAD_seiso_ttf
 11
5.9362635081
 21
30.6952393213
 31
0.0
100
AcDbText
 73
     3
  0
TEXT
  5
190
330
1F
100
AcDbEntity
  8
Default
  6
Continuous
 62
     7
100
AcDbText
 10
5.9362635081
 20
4.3316029576
 30
0.0
 40
10.0
  1
unit: mm
  7
SEACAD_seiso_ttf
 11
5.9362635081
 21
14.3316029576
 31
0.0
100
AcDbText
 73
     3
  0
LINE
  5
191
330
1F
100
AcDbEntity
  8
Default
  6
Continuous
 62
     7
100
AcDbLine
 10
0.0
 20
0.0
 30
0.0
 11
100.0
 21
0.0
 31
0.0
  0
LINE
  5
192
330
1F
100
AcDbEntity
  8
Default
  6
Continuous
 62
     7
100
AcDbLine
 10
0.0
 20
0.0
 30
0.0
 11
0.0
 21
100.0
 31
0.0
  0
TEXT
  5
193
330
1F
100
AcDbEntity
  8
Default
  6
Continuous
 62
     7
100
AcDbText
 10
24.3923665681
 20
-18.2375342018
 30
0.0
 40
10.0
  1
100 mm
  7
SEACAD_seiso_ttf
 11
24.3923665681
 21
-8.2375342018
 31
0.0
100
AcDbText
 73
     3
  0
TEXT
  5
194
330
1F
100
AcDbEntity
  8
Default
  6
Continuous
 62
     7
100
AcDbText
 10
-7.6150308803
 20
24.6231930421
 30
0.0
 40
10.0
  1
100 mm
 50
90.0
  7
SEACAD_seiso_ttf
 11
-17.6150308803
 21
24.6231930421
 31
0.0
100
AcDbText
 73
     3
  0
TEXT
  5
195
330
1F
100
AcDbEntity
  8
Default
  6
Continuous
 62
     7
100
AcDbText
 10
28.4878128572
 20
20.0907663715
 30
0.0
 40
10.0
  1
212162
  7
SEACAD_seiso_ttf
 11
28.4878128572
 21
30.0907663715
 31
0.0
100
AcDbText
 73
     3
  0
TEXT
  5
196
330
1F
100
AcDbEntity
  8
Default
  6
Continuous
 62
     7
100
AcDbText
 10
5.9012241913
 20
36.7242780188
 30
0.0
 40
10.0
  1
32279000
  7
SEACAD_seiso_ttf
 11
5.9012241913
 21
46.7242780188
 31
0.0
100
AcDbText
 73
     3
  0
ENDSEC
  0
SECTION
  2
OBJECTS
  0
DICTIONARY
  5
C
330
0
100
AcDbDictionary
281
     1
  3
ACAD_GROUP
350
D
  3
ACAD_LAYOUT
350
1A
  3
ACAD_MLEADERSTYLE
350
19A
  3
ACAD_MLINESTYLE
350
17
  3
ACAD_PLOTSETTINGS
350
19
  3
ACAD_PLOTSTYLENAME
350
E
  3
ACAD_SCALELIST
350
3B
  3
ACAD_TABLESTYLE
350
199
  3
ACAD_VISUALSTYLE
350
2A
  3
AcDbVariableDictionary
350
197
  0
DICTIONARY
  5
D
102
{ACAD_REACTORS
330
C
102
}
330
C
100
AcDbDictionary
281
     1
  0
DICTIONARY
  5
1A
102
{ACAD_REACTORS
330
C
102
}
330
C
100
AcDbDictionary
281
     1
  3
Layout1
350
1E
  3
Model
350
22
  0
DICTIONARY
  5
19A
102
{ACAD_REACTORS
330
C
102
}
330
C
100
AcDbDictionary
281
     1
  0
DICTIONARY
  5
17
102
{ACAD_REACTORS
330
C
102
}
330
C
100
AcDbDictionary
281
     1
  3
Standard
350
18
  0
DICTIONARY
  5
19
102
{ACAD_REACTORS
330
C
102
}
330
C
100
AcDbDictionary
281
     1
  0
ACDBDICTIONARYWDFLT
  5
E
102
{ACAD_REACTORS
330
C
102
}
330
C
100
AcDbDictionary
281
     1
  3
Normal
350
F
100
AcDbDictionaryWithDefault
340
F
  0
DICTIONARY
  5
3B
102
{ACAD_REACTORS
330
C
102
}
330
C
100
AcDbDictionary
281
     1
  3
A0
350
3C
  3
A1
350
3D
  3
A2
350
3E
  3
A3
350
3F
  3
A4
350
40
  3
A5
350
41
  3
A6
350
42
  3
A7
350
43
  3
A8
350
44
  3
A9
350
45
  3
B0
350
46
  3
B1
350
47
  3
B2
350
48
  3
B3
350
49
  3
B4
350
4A
  3
B5
350
4B
  3
B6
350
4C
  3
B7
350
4D
  3
B8
350
4E
  3
B9
350
4F
  3
C0
350
50
  3
C1
350
51
  3
C2
350
52
  3
C3
350
53
  3
C4
350
54
  3
C5
350
55
  3
C6
350
56
  3
C7
350
57
  3
C8
350
58
  3
C9
350
59
  3
D0
350
5A
  3
D1
350
5B
  3
D2
350
5C
  0
DICTIONARY
  5
199
102
{ACAD_REACTORS
330
C
102
}
330
C
100
AcDbDictionary
281
     1
  0
DICTIONARY
  5
2A
102
{ACAD_REACTORS
330
C
102
}
330
C
100
AcDbDictionary
281
     1
  3
2dWireframe
350
2F
  3
3D Hidden
350
31
  3
3dWireframe
350
30
  3
Basic
350
32
  3
Brighten
350
36
  3
ColorChange
350
3A
  3
Conceptual
350
34
  3
Dim
350
35
  3
Facepattern
350
39
  3
Flat
350
2B
  3
FlatWithEdges
350
2C
  3
Gouraud
350
2D
  3
GouraudWithEdges
350
2E
  3
Linepattern
350
38
  3
Realistic
350
33
  3
Thicken
350
37
  0
DICTIONARY
  5
197
102
{ACAD_REACTORS
330
C
102
}
330
C
100
AcDbDictionary
281
     1
  3
CANNOSCALE
350
198
  3
PSOLHEIGHT
350
19C
  3
PSOLWIDTH
350
19B
  0
LAYOUT
  5
1E
102
{ACAD_REACTORS
330
1A
102
}
330
1A
100
AcDbPlotSettings
  1

  2
none_device
  4

  6

 40
0.0
 41
0.0
 42
0.0
 43
0.0
 44
0.0
 45
0.0
 46
0.0
 47
0.0
 48
0.0
 49
0.0
140
0.0
141
0.0
142
1.0
143
1.0
 70
   688
 72
     0
 73
     0
 74
     5
  7

 75
    16
147
1.0
148
0.0
149
0.0
100
AcDbLayout
  1
Layout1
 70
     1
 71
     1
 10
0.0
 20
0.0
 11
3000.0
 21
4500.0
 12
0.0
 22
0.0
 32
0.0
 14
0.0
 24
0.0
 34
0.0
 15
3000.0
 25
4500.0
 35
0.0
146
0.0
 13
0.0
 23
0.0
 33
0.0
 16
1.0
 26
0.0
 36
0.0
 17
0.0
 27
1.0
 37
0.0
 76
     0
330
1B
  0
LAYOUT
  5
22
102
{ACAD_REACTORS
330
1A
102
}
330
1A
100
AcDbPlotSettings
  1

  2
none_device
  4

  6

 40
0.0
 41
0.0
 42
0.0
 43
0.0
 44
0.0
 45
0.0
 46
0.0
 47
0.0
 48
0.0
 49
0.0
140
0.0
141
0.0
142
1.0
143
1.0
 70
  1712
 72
     0
 73
     0
 74
     0
  7

 75
     0
147
1.0
148
0.0
149
0.0
100
AcDbLayout
  1
Model
 70
     1
 71
     0
 10
0.0
 20
0.0
 11
3000.0
 21
4500.0
 12
0.0
 22
0.0
 32
0.0
 14
0.0
 24
0.0
 34
0.0
 15
3000.0
 25
4500.0
 35
0.0
146
0.0
 13
0.0
 23
0.0
 33
0.0
 16
1.0
 26
0.0
 36
0.0
 17
0.0
 27
1.0
 37
0.0
 76
     0
330
1F
331
29
  0
MLINESTYLE
  5
18
102
{ACAD_REACTORS
330
17
102
}
330
17
100
AcDbMlineStyle
  2
Standard
 70
     0
  3

 62
   256
 51
90.0
 52
90.0
 71
     2
 49
0.5
 62
   256
  6
BYLAYER
 49
-0.5
 62
   256
  6
BYLAYER
  0
ACDBPLACEHOLDER
  5
F
102
{ACAD_REACTORS
330
E
102
}
330
E
  0
SCALE
  5
3C
102
{ACAD_REACTORS
330
3B
102
}
330
3B
100
AcDbScale
 70
     0
300
1:1
140
1.0
141
1.0
290
     1
  0
SCALE
  5
3D
102
{ACAD_REACTORS
330
3B
102
}
330
3B
100
AcDbScale
 70
     0
300
1:2
140
1.0
141
2.0
290
     0
  0
SCALE
  5
3E
102
{ACAD_REACTORS
330
3B
102
}
330
3B
100
AcDbScale
 70
     0
300
1:4
140
1.0
141
4.0
290
     0
  0
SCALE
  5
3F
102
{ACAD_REACTORS
330
3B
102
}
330
3B
100
AcDbScale
 70
     0
300
1:5
140
1.0
141
5.0
290
     0
  0
SCALE
  5
40
102
{ACAD_REACTORS
330
3B
102
}
330
3B
100
AcDbScale
 70
     0
300
1:8
140
1.0
141
8.0
290
     0
  0
SCALE
  5
41
102
{ACAD_REACTORS
330
3B
102
}
330
3B
100
AcDbScale
 70
     0
300
1:10
140
1.0
141
10.0
290
     0
  0
SCALE
  5
42
102
{ACAD_REACTORS
330
3B
102
}
330
3B
100
AcDbScale
 70
     0
300
1:16
140
1.0
141
16.0
290
     0
  0
SCALE
  5
43
102
{ACAD_REACTORS
330
3B
102
}
330
3B
100
AcDbScale
 70
     0
300
1:20
140
1.0
141
20.0
290
     0
  0
SCALE
  5
44
102
{ACAD_REACTORS
330
3B
102
}
330
3B
100
AcDbScale
 70
     0
300
1:30
140
1.0
141
30.0
290
     0
  0
SCALE
  5
45
102
{ACAD_REACTORS
330
3B
102
}
330
3B
100
AcDbScale
 70
     0
300
1:40
140
1.0
141
40.0
290
     0
  0
SCALE
  5
46
102
{ACAD_REACTORS
330
3B
102
}
330
3B
100
AcDbScale
 70
     0
300
1:50
140
1.0
141
50.0
290
     0
  0
SCALE
  5
47
102
{ACAD_REACTORS
330
3B
102
}
330
3B
100
AcDbScale
 70
     0
300
1:100
140
1.0
141
100.0
290
     0
  0
SCALE
  5
48
102
{ACAD_REACTORS
330
3B
102
}
330
3B
100
AcDbScale
 70
     0
300
2:1
140
2.0
141
1.0
290
     0
  0
SCALE
  5
49
102
{ACAD_REACTORS
330
3B
102
}
330
3B
100
AcDbScale
 70
     0
300
4:1
140
4.0
141
1.0
290
     0
  0
SCALE
  5
4A
102
{ACAD_REACTORS
330
3B
102
}
330
3B
100
AcDbScale
 70
     0
300
8:1
140
8.0
141
1.0
290
     0
  0
SCALE
  5
4B
102
{ACAD_REACTORS
330
3B
102
}
330
3B
100
AcDbScale
 70
     0
300
10:1
140
10.0
141
1.0
290
     0
  0
SCALE
  5
4C
102
{ACAD_REACTORS
330
3B
102
}
330
3B
100
AcDbScale
 70
     0
300
100:1
140
100.0
141
1.0
290
     0
  0
SCALE
  5
4D
102
{ACAD_REACTORS
330
3B
102
}
330
3B
100
AcDbScale
 70
     0
300
1/128" = 1'-0"
140
0.0078125
141
12.0
290
     0
  0
SCALE
  5
4E
102
{ACAD_REACTORS
330
3B
102
}
330
3B
100
AcDbScale
 70
     0
300
1/64" = 1'-0"
140
0.015625
141
12.0
290
     0
  0
SCALE
  5
4F
102
{ACAD_REACTORS
330
3B
102
}
330
3B
100
AcDbScale
 70
     0
300
1/32" = 1'-0"
140
0.03125
141
12.0
290
     0
  0
SCALE
  5
50
102
{ACAD_REACTORS
330
3B
102
}
330
3B
100
AcDbScale
 70
     0
300
1/16" = 1'-0"
140
0.0625
141
12.0
290
     0
  0
SCALE
  5
51
102
{ACAD_REACTORS
330
3B
102
}
330
3B
100
AcDbScale
 70
     0
300
3/32" = 1'-0"
140
0.09375
141
12.0
290
     0
  0
SCALE
  5
52
102
{ACAD_REACTORS
330
3B
102
}
330
3B
100
AcDbScale
 70
     0
300
1/8" = 1'-0"
140
0.125
141
12.0
290
     0
  0
SCALE
  5
53
102
{ACAD_REACTORS
330
3B
102
}
330
3B
100
AcDbScale
 70
     0
300
3/16" = 1'-0"
140
0.1875
141
12.0
290
     0
  0
SCALE
  5
54
102
{ACAD_REACTORS
330
3B
102
}
330
3B
100
AcDbScale
 70
     0
300
1/4" = 1'-0"
140
0.25
141
12.0
290
     0
  0
SCALE
  5
55
102
{ACAD_REACTORS
330
3B
102
}
330
3B
100
AcDbScale
 70
     0
300
3/8" = 1'-0"
140
0.375
141
12.0
290
     0
  0
SCALE
  5
56
102
{ACAD_REACTORS
330
3B
102
}
330
3B
100
AcDbScale
 70
     0
300
1/2" = 1'-0"
140
0.5
141
12.0
290
     0
  0
SCALE
  5
57
102
{ACAD_REACTORS
330
3B
102
}
330
3B
100
AcDbScale
 70
     0
300
3/4" = 1'-0"
140
0.75
141
12.0
290
     0
  0
SCALE
  5
58
102
{ACAD_REACTORS
330
3B
102
}
330
3B
100
AcDbScale
 70
     0
300
1" = 1'-0"
140
1.0
141
12.0
290
     0
  0
SCALE
  5
59
102
{ACAD_REACTORS
330
3B
102
}
330
3B
100
AcDbScale
 70
     0
300
1-1/2" = 1'-0"
140
1.5
141
12.0
290
     0
  0
SCALE
  5
5A
102
{ACAD_REACTORS
330
3B
102
}
330
3B
100
AcDbScale
 70
     0
300
3" = 1'-0"
140
3.0
141
12.0
290
     0
  0
SCALE
  5
5B
102
{ACAD_REACTORS
330
3B
102
}
330
3B
100
AcDbScale
 70
     0
300
6" = 1'-0"
140
6.0
141
12.0
290
     0
  0
SCALE
  5
5C
102
{ACAD_REACTORS
330
3B
102
}
330
3B
100
AcDbScale
 70
     0
300
1'-0" = 1'-0"
140
12.0
141
12.0
290
     0
  0
VISUALSTYLE
  5
2F
102
{ACAD_REACTORS
330
2A
102
}
330
2A
100
AcDbVisualStyle
  2
2dWireframe
 70
     4
 71
     0
 72
     2
 73
     0
 90
        0
 40
-0.6
 41
-30.0
 62
     5
 63
     7
 74
     1
 91
        4
 64
     7
 65
   257
 75
     1
175
     1
 42
1.0
 92
        0
 66
   257
 43
1.0
 76
     1
 77
     6
 78
     2
 67
     7
 79
     5
170
     0
171
     0
290
     0
174
     0
 93
        1
 44
0.0
173
     0
291
     0
 45
0.0
1001
ACAD
1000
AcDbSavedByObjectVersion
1070
     0
  0
VISUALSTYLE
  5
31
102
{ACAD_REACTORS
330
2A
102
}
330
2A
100
AcDbVisualStyle
  2
3D Hidden
 70
     6
 71
     1
 72
     2
 73
     2
 90
        0
 40
-0.6
 41
-30.0
 62
     5
 63
     7
 74
     2
 91
        2
 64
     7
 65
   257
 75
     2
175
     1
 42
40.0
 92
        0
 66
   257
 43
1.0
 76
     1
 77
     6
 78
     2
 67
     7
 79
     3
170
     0
171
     0
290
     0
174
     0
 93
        1
 44
0.0
173
     0
291
     0
 45
0.0
1001
ACAD
1000
AcDbSavedByObjectVersion
1070
     0
  0
VISUALSTYLE
  5
30
102
{ACAD_REACTORS
330
2A
102
}
330
2A
100
AcDbVisualStyle
  2
3dWireframe
 70
     5
 71
     0
 72
     2
 73
     0
 90
        0
 40
-0.6
 41
-30.0
 62
     5
 63
     7
 74
     1
 91
        4
 64
     7
 65
   257
 75
     1
175
     1
 42
1.0
 92
        0
 66
   257
 43
1.0
 76
     1
 77
     6
 78
     2
 67
     7
 79
     5
170
     0
171
     0
290
     0
174
     0
 93
        1
 44
0.0
173
     0
291
     0
 45
0.0
1001
ACAD
1000
AcDbSavedByObjectVersion
1070
     0
  0
VISUALSTYLE
  5
32
102
{ACAD_REACTORS
330
2A
102
}
330
2A
100
AcDbVisualStyle
  2
Basic
 70
     7
 71
     1
 72
     0
 73
     1
 90
        0
 40
-0.6
 41
-30.0
 62
     5
 63
     7
 74
     0
 91
        4
 64
     7
 65
   257
 75
     1
175
     1
 42
1.0
 92
        8
 66
     7
 43
1.0
 76
     1
 77
     6
 78
     2
 67
     7
 79
     5
170
     0
171
     0
290
     0
174
     0
 93
        1
 44
0.0
173
     0
291
     1
 45
0.0
1001
ACAD
1000
AcDbSavedByObjectVersion
1070
     0
  0
VISUALSTYLE
  5
36
102
{ACAD_REACTORS
330
2A
102
}
330
2A
100
AcDbVisualStyle
  2
Brighten
 70
    12
 71
     2
 72
     2
 73
     0
 90
        0
 40
-0.6
 41
-30.0
 62
     5
 63
     7
 74
     1
 91
        4
 64
     7
 65
   257
 75
     1
175
     1
 42
1.0
 92
        8
 66
     7
 43
1.0
 76
     1
 77
     6
 78
     2
 67
     7
 79
     5
170
     0
171
     0
290
     0
174
     0
 93
        1
 44
50.0
173
     0
291
     1
 45
0.0
1001
ACAD
1000
AcDbSavedByObjectVersion
1070
     0
  0
VISUALSTYLE
  5
3A
102
{ACAD_REACTORS
330
2A
102
}
330
2A
100
AcDbVisualStyle
  2
ColorChange
 70
    16
 71
     2
 72
     2
 73
     3
 90
        0
 40
-0.6
 41
-30.0
 62
     5
 63
     8
 74
     1
 91
        4
 64
     7
 65
   257
 75
     1
175
     1
 42
1.0
 92
        8
 66
     8
 43
1.0
 76
     1
 77
     6
 78
     2
 67
     7
 79
     5
170
     0
171
     0
290
     0
174
     0
 93
        1
 44
0.0
173
     0
291
     1
 45
0.0
1001
ACAD
1000
AcDbSavedByObjectVersion
1070
     0
  0
VISUALSTYLE
  5
34
102
{ACAD_REACTORS
330
2A
102
}
330
2A
100
AcDbVisualStyle
  2
Conceptual
 70
     9
 71
     3
 72
     2
 73
     0
 90
        0
 40
-0.6
 41
-30.0
 62
     5
 63
     7
 74
     2
 91
        2
 64
     7
 65
   257
 75
     1
175
     1
 42
40.0
 92
        8
 66
     7
 43
1.0
 76
     1
 77
     6
 78
     2
 67
     7
 79
     3
170
     0
171
     0
290
     0
174
     0
 93
        1
 44
0.0
173
     0
291
     0
 45
0.0
1001
ACAD
1000
AcDbSavedByObjectVersion
1070
     0
  0
VISUALSTYLE
  5
35
102
{ACAD_REACTORS
330
2A
102
}
330
2A
100
AcDbVisualStyle
  2
Dim
 70
    11
 71
     2
 72
     2
 73
     0
 90
        0
 40
-0.6
 41
-30.0
 62
     5
 63
     7
 74
     1
 91
        4
 64
     7
 65
   257
 75
     1
175
     1
 42
1.0
 92
        8
 66
     7
 43
1.0
 76
     1
 77
     6
 78
     2
 67
     7
 79
     5
170
     0
171
     0
290
     0
174
     0
 93
        1
 44
-50.0
173
     0
291
     1
 45
0.0
1001
ACAD
1000
AcDbSavedByObjectVersion
1070
     0
  0
VISUALSTYLE
  5
39
102
{ACAD_REACTORS
330
2A
102
}
330
2A
100
AcDbVisualStyle
  2
Facepattern
 70
    15
 71
     2
 72
     2
 73
     0
 90
        0
 40
-0.6
 41
-30.0
 62
     5
 63
     7
 74
     1
 91
        4
 64
     7
 65
   257
 75
     1
175
     1
 42
1.0
 92
        8
 66
     7
 43
1.0
 76
     1
 77
     6
 78
     2
 67
     7
 79
     5
170
     0
171
     0
290
     0
174
     0
 93
        1
 44
0.0
173
     0
291
     1
 45
0.0
1001
ACAD
1000
AcDbSavedByObjectVersion
1070
     0
  0
VISUALSTYLE
  5
2B
102
{ACAD_REACTORS
330
2A
102
}
330
2A
100
AcDbVisualStyle
  2
Flat
 70
     0
 71
     2
 72
     1
 73
     1
 90
        2
 40
-0.6
 41
30.0
 62
     5
 63
     7
 74
     0
 91
        4
 64
     7
 65
   257
 75
     1
175
     1
 42
1.0
 92
        8
 66
     7
 43
1.0
 76
     1
 77
     6
 78
     2
 67
     7
 79
     5
170
     0
171
     0
290
     0
174
     0
 93
       13
 44
0.0
173
     0
291
     1
 45
0.0
1001
ACAD
1000
AcDbSavedByObjectVersion
1070
     0
  0
VISUALSTYLE
  5
2C
102
{ACAD_REACTORS
330
2A
102
}
330
2A
100
AcDbVisualStyle
  2
FlatWithEdges
 70
     1
 71
     2
 72
     1
 73
     1
 90
        2
 40
-0.6
 41
30.0
 62
     5
 63
     7
 74
     1
 91
        4
 64
     7
 65
   257
 75
     1
175
     1
 42
1.0
 92
        0
 66
   257
 43
1.0
 76
     1
 77
     6
 78
     2
 67
     7
 79
     5
170
     0
171
     0
290
     0
174
     0
 93
       13
 44
0.0
173
     0
291
     1
 45
0.0
1001
ACAD
1000
AcDbSavedByObjectVersion
1070
     0
  0
VISUALSTYLE
  5
2D
102
{ACAD_REACTORS
330
2A
102
}
330
2A
100
AcDbVisualStyle
  2
Gouraud
 70
     2
 71
     2
 72
     2
 73
     1
 90
        2
 40
-0.6
 41
30.0
 62
     5
 63
     7
 74
     0
 91
        4
 64
     7
 65
   257
 75
     1
175
     1
 42
1.0
 92
        0
 66
     7
 43
1.0
 76
     1
 77
     6
 78
     2
 67
     7
 79
     5
170
     0
171
     0
290
     0
174
     0
 93
       13
 44
0.0
173
     0
291
     1
 45
0.0
1001
ACAD
1000
AcDbSavedByObjectVersion
1070
     0
  0
VISUALSTYLE
  5
2E
102
{ACAD_REACTORS
330
2A
102
}
330
2A
100
AcDbVisualStyle
  2
GouraudWithEdges
 70
     3
 71
     2
 72
     2
 73
     1
 90
        2
 40
-0.6
 41
30.0
 62
     5
 63
     7
 74
     1
 91
        4
 64
     7
 65
   257
 75
     1
175
     1
 42
1.0
 92
        0
 66
   257
 43
1.0
 76
     1
 77
     6
 78
     2
 67
     7
 79
     5
170
     0
171
     0
290
     0
174
     0
 93
       13
 44
0.0
173
     0
291
     1
 45
0.0
1001
ACAD
1000
AcDbSavedByObjectVersion
1070
     0
  0
VISUALSTYLE
  5
38
102
{ACAD_REACTORS
330
2A
102
}
330
2A
100
AcDbVisualStyle
  2
Linepattern
 70
    14
 71
     2
 72
     2
 73
     0
 90
        0
 40
-0.6
 41
-30.0
 62
     5
 63
     7
 74
     1
 91
        4
 64
     7
 65
   257
 75
     7
175
     7
 42
1.0
 92
        8
 66
     7
 43
1.0
 76
     1
 77
     6
 78
     2
 67
     7
 79
     5
170
     0
171
     0
290
     0
174
     0
 93
        1
 44
0.0
173
     0
291
     1
 45
0.0
1001
ACAD
1000
AcDbSavedByObjectVersion
1070
     0
  0
VISUALSTYLE
  5
33
102
{ACAD_REACTORS
330
2A
102
}
330
2A
100
AcDbVisualStyle
  2
Realistic
 70
     8
 71
     2
 72
     2
 73
     0
 90
        0
 40
-0.6
 41
-30.0
 62
     5
 63
     7
 74
     1
 91
        0
 64
     7
 65
   257
 75
     1
175
     1
 42
1.0
 92
        8
 66
     8
 43
1.0
 76
     1
 77
     6
 78
     2
 67
     7
 79
     5
170
     0
171
     0
290
     0
174
     0
 93
       13
 44
0.0
173
     0
291
     0
 45
0.0
1001
ACAD
1000
AcDbSavedByObjectVersion
1070
     0
  0
VISUALSTYLE
  5
37
102
{ACAD_REACTORS
330
2A
102
}
330
2A
100
AcDbVisualStyle
  2
Thicken
 70
    13
 71
     2
 72
     2
 73
     0
 90
        0
 40
-0.6
 41
-30.0
 62
     5
 63
     7
 74
     1
 91
        4
 64
     7
 65
   257
 75
     1
175
     1
 42
1.0
 92
       12
 66
     7
 43
1.0
 76
     1
 77
     6
 78
     2
 67
     7
 79
     5
170
     0
171
     0
290
     0
174
     0
 93
        1
 44
0.0
173
     0
291
     1
 45
0.0
1001
ACAD
1000
AcDbSavedByObjectVersion
1070
     0
  0
DICTIONARYVAR
  5
198
102
{ACAD_REACTORS
330
197
102
}
330
197
100
DictionaryVariables
280
     0
  1
1:1
  0
DICTIONARYVAR
  5
19C
102
{ACAD_REACTORS
330
197
102
}
330
197
100
DictionaryVariables
280
     0
  1
80.000000
  0
DICTIONARYVAR
  5
19B
102
{ACAD_REACTORS
330
197
102
}
330
197
100
DictionaryVariables
280
     0
  1
5.000000
  0
ENDSEC
  0
EOF
