  0
SECTION
  2
HEADER
  9
$ACADVER
  1
AC1015
  9
$ACADMAINTVER
 70
     6
  9
$DWGCODEPAGE
  3
ANSI_1252
  9
$INSBASE
 10
0.0
 20
0.0
 30
0.0
  9
$EXTMIN
 10
0.0
 20
0.0
 30
0.0
  9
$EXTMAX
 10
3000.0
 20
4500.0
 30
0.0
  9
$LIMMIN
 10
0.0
 20
0.0
  9
$LIMMAX
 10
3000.0
 20
4500.0
  9
$ORTHOMODE
 70
     0
  9
$REGENMODE
 70
     1
  9
$FILLMODE
 70
     1
  9
$QTEXTMODE
 70
     0
  9
$MIRRTEXT
 70
     1
  9
$LTSCALE
 40
1.0
  9
$ATTMODE
 70
     1
  9
$TEXTSIZE
 40
2.5
  9
$TRACEWID
 40
1.0
  9
$TEXTSTYLE
  7
Standard
  9
$CLAYER
  8
0
  9
$CELTYPE
  6
ByLayer
  9
$CECOLOR
 62
   256
  9
$CELTSCALE
 40
1.0
  9
$DISPSILH
 70
     0
  9
$DIMSCALE
 40
1.0
  9
$DIMASZ
 40
2.5
  9
$DIMEXO
 40
0.625
  9
$DIMDLI
 40
3.75
  9
$DIMRND
 40
0.0
  9
$DIMDLE
 40
0.0
  9
$DIMEXE
 40
1.25
  9
$DIMTP
 40
0.0
  9
$DIMTM
 40
0.0
  9
$DIMTXT
 40
2.5
  9
$DIMCEN
 40
2.5
  9
$DIMTSZ
 40
0.0
  9
$DIMTOL
 70
     0
  9
$DIMLIM
 70
     0
  9
$DIMTIH
 70
     0
  9
$DIMTOH
 70
     0
  9
$DIMSE1
 70
     0
  9
$DIMSE2
 70
     0
  9
$DIMTAD
 70
     1
  9
$DIMZIN
 70
     8
  9
$DIMBLK
  1

  9
$DIMASO
 70
     1
  9
$DIMSHO
 70
     1
  9
$DIMPOST
  1

  9
$DIMAPOST
  1

  9
$DIMALT
 70
     0
  9
$DIMALTD
 70
     3
  9
$DIMALTF
 40
0.0393700787
  9
$DIMLFAC
 40
1.0
  9
$DIMTOFL
 70
     1
  9
$DIMTVP
 40
0.0
  9
$DIMTIX
 70
     0
  9
$DIMSOXD
 70
     0
  9
$DIMSAH
 70
     0
  9
$DIMBLK1
  1

  9
$DIMBLK2
  1

  9
$DIMSTYLE
  2
ISO-25
  9
$DIMCLRD
 70
     0
  9
$DIMCLRE
 70
     0
  9
$DIMCLRT
 70
     0
  9
$DIMTFAC
 40
1.0
  9
$DIMGAP
 40
0.625
  9
$DIMJUST
 70
     0
  9
$DIMSD1
 70
     0
  9
$DIMSD2
 70
     0
  9
$DIMTOLJ
 70
     0
  9
$DIMTZIN
 70
     8
  9
$DIMALTZ
 70
     0
  9
$DIMALTTZ
 70
     0
  9
$DIMUPT
 70
     0
  9
$DIMDEC
 70
     2
  9
$DIMTDEC
 70
     2
  9
$DIMALTU
 70
     2
  9
$DIMALTTD
 70
     3
  9
$DIMTXSTY
  7
Standard
  9
$DIMAUNIT
 70
     0
  9
$DIMADEC
 70
     0
  9
$DIMALTRND
 40
0.0
  9
$DIMAZIN
 70
     0
  9
$DIMDSEP
 70
    44
  9
$DIMATFIT
 70
     3
  9
$DIMFRAC
 70
     0
  9
$DIMLDRBLK
  1

  9
$DIMLUNIT
 70
     2
  9
$DIMLWD
 70
    -2
  9
$DIMLWE
 70
    -2
  9
$DIMTMOVE
 70
     0
  9
$LUNITS
 70
     2
  9
$LUPREC
 70
     4
  9
$SKETCHINC
 40
1.0
  9
$FILLETRAD
 40
10.0
  9
$AUNITS
 70
     0
  9
$AUPREC
 70
     0
  9
$MENU
  1
.
  9
$ELEVATION
 40
0.0
  9
$PELEVATION
 40
0.0
  9
$THICKNESS
 40
0.0
  9
$LIMCHECK
 70
     0
  9
$CHAMFERA
 40
10.0
  9
$CHAMFERB
 40
10.0
  9
$CHAMFERC
 40
20.0
  9
$CHAMFERD
 40
0.0
  9
$SKPOLY
 70
     0
  9
$TDCREATE
 40
2455790.525734931
  9
$TDUCREATE
 40
2455790.442401597
  9
$TDUPDATE
 40
2455790.525734942
  9
$TDUUPDATE
 40
2455790.442401609
  9
$TDINDWG
 40
0.0000000116
  9
$TDUSRTIMER
 40
0.0000000116
  9
$USRTIMER
 70
     1
  9
$ANGBASE
 50
0.0
  9
$ANGDIR
 70
     0
  9
$PDMODE
 70
     0
  9
$PDSIZE
 40
0.0
  9
$PLINEWID
 40
0.0
  9
$SPLFRAME
 70
     0
  9
$SPLINETYPE
 70
     6
  9
$SPLINESEGS
 70
     8
  9
$HANDSEED
  5
49D
  9
$SURFTAB1
 70
     6
  9
$SURFTAB2
 70
     6
  9
$SURFTYPE
 70
     6
  9
$SURFU
 70
     6
  9
$SURFV
 70
     6
  9
$UCSBASE
  2

  9
$UCSNAME
  2

  9
$UCSORG
 10
0.0
 20
0.0
 30
0.0
  9
$UCSXDIR
 10
1.0
 20
0.0
 30
0.0
  9
$UCSYDIR
 10
0.0
 20
1.0
 30
0.0
  9
$UCSORTHOREF
  2

  9
$UCSORTHOVIEW
 70
     0
  9
$UCSORGTOP
 10
0.0
 20
0.0
 30
0.0
  9
$UCSORGBOTTOM
 10
0.0
 20
0.0
 30
0.0
  9
$UCSORGLEFT
 10
0.0
 20
0.0
 30
0.0
  9
$UCSORGRIGHT
 10
0.0
 20
0.0
 30
0.0
  9
$UCSORGFRONT
 10
0.0
 20
0.0
 30
0.0
  9
$UCSORGBACK
 10
0.0
 20
0.0
 30
0.0
  9
$PUCSBASE
  2

  9
$PUCSNAME
  2

  9
$PUCSORG
 10
0.0
 20
0.0
 30
0.0
  9
$PUCSXDIR
 10
1.0
 20
0.0
 30
0.0
  9
$PUCSYDIR
 10
0.0
 20
1.0
 30
0.0
  9
$PUCSORTHOREF
  2

  9
$PUCSORTHOVIEW
 70
     0
  9
$PUCSORGTOP
 10
0.0
 20
0.0
 30
0.0
  9
$PUCSORGBOTTOM
 10
0.0
 20
0.0
 30
0.0
  9
$PUCSORGLEFT
 10
0.0
 20
0.0
 30
0.0
  9
$PUCSORGRIGHT
 10
0.0
 20
0.0
 30
0.0
  9
$PUCSORGFRONT
 10
0.0
 20
0.0
 30
0.0
  9
$PUCSORGBACK
 10
0.0
 20
0.0
 30
0.0
  9
$USERI1
 70
     0
  9
$USERI2
 70
     0
  9
$USERI3
 70
     0
  9
$USERI4
 70
     0
  9
$USERI5
 70
     0
  9
$USERR1
 40
0.0
  9
$USERR2
 40
0.0
  9
$USERR3
 40
0.0
  9
$USERR4
 40
0.0
  9
$USERR5
 40
0.0
  9
$WORLDVIEW
 70
     1
  9
$SHADEDGE
 70
     3
  9
$SHADEDIF
 70
    70
  9
$TILEMODE
 70
     1
  9
$MAXACTVP
 70
    64
  9
$PINSBASE
 10
0.0
 20
0.0
 30
0.0
  9
$PLIMCHECK
 70
     0
  9
$PEXTMIN
 10
0.0
 20
0.0
 30
0.0
  9
$PEXTMAX
 10
3000.0
 20
4500.0
 30
0.0
  9
$PLIMMIN
 10
0.0
 20
0.0
  9
$PLIMMAX
 10
3000.0
 20
4500.0
  9
$UNITMODE
 70
     0
  9
$VISRETAIN
 70
     1
  9
$PLINEGEN
 70
     0
  9
$PSLTSCALE
 70
     1
  9
$TREEDEPTH
 70
  3020
  9
$CMLSTYLE
  2
Standard
  9
$CMLJUST
 70
     0
  9
$CMLSCALE
 40
20.0
  9
$PROXYGRAPHICS
 70
     1
  9
$MEASUREMENT
 70
     1
  9
$CELWEIGHT
370
    -1
  9
$ENDCAPS
280
     0
  9
$JOINSTYLE
280
     0
  9
$LWDISPLAY
290
     0
  9
$INSUNITS
 70
     4
  9
$HYPERLINKBASE
  1

  9
$STYLESHEET
  1

  9
$XEDIT
290
     1
  9
$CEPSNTYPE
380
     0
  9
$PSTYLEMODE
290
     1
  9
$FINGERPRINTGUID
  2
{979D7436-52A7-4100-83F6-B5BDE6B75B3C}
  9
$VERSIONGUID
  2
{FAEB1C32-E019-11D5-929B-00C0DF256EC4}
  9
$EXTNAMES
290
     1
  9
$PSVPSCALE
 40
0.0
  9
$OLESTARTUP
290
     0
  0
ENDSEC
  0
SECTION
  2
CLASSES
  0
CLASS
  1
ACDBDICTIONARYWDFLT
  2
AcDbDictionaryWithDefault
  3
ObjectDBX Classes
 90
        0
280
     0
281
     0
  0
CLASS
  1
VISUALSTYLE
  2
AcDbVisualStyle
  3
ObjectDBX Classes
 90
     4095
280
     0
281
     0
  0
CLASS
  1
SCALE
  2
AcDbScale
  3
ObjectDBX Classes
 90
     1153
280
     0
281
     0
  0
CLASS
  1
DICTIONARYVAR
  2
AcDbDictionaryVar
  3
ObjectDBX Classes
 90
        0
280
     0
281
     0
  0
CLASS
  1
ACDBPLACEHOLDER
  2
AcDbPlaceHolder
  3
ObjectDBX Classes
 90
        0
280
     0
281
     0
  0
CLASS
  1
LAYOUT
  2
AcDbLayout
  3
ObjectDBX Classes
 90
        0
280
     0
281
     0
  0
ENDSEC
  0
SECTION
  2
TABLES
  0
TABLE
  2
VPORT
  5
8
330
0
100
AcDbSymbolTable
 70
     1
  0
VPORT
  5
29
330
8
100
AcDbSymbolTableRecord
100
AcDbViewportTableRecord
  2
*Active
 70
     0
 10
0.0
 20
0.0
 11
1.0
 21
1.0
 12
344.1869158879
 22
148.5
 13
0.0
 23
0.0
 14
10.0
 24
10.0
 15
10.0
 25
10.0
 16
0.0
 26
0.0
 36
1.0
 17
0.0
 27
0.0
 37
0.0
 40
297.0
 41
1.9729729729
 42
50.0
 43
0.0
 44
0.0
 50
0.0
 51
0.0
 71
     0
 72
   100
 73
     1
 74
     3
 75
     0
 76
     0
 77
     0
 78
     0
281
     0
 65
     1
110
0.0
120
0.0
130
0.0
111
1.0
121
0.0
131
0.0
112
0.0
122
1.0
132
0.0
 79
     0
146
0.0
  0
ENDTAB
  0
TABLE
  2
LTYPE
  5
5
330
0
100
AcDbSymbolTable
 70
     1
  0
LTYPE
  5
14
330
5
100
AcDbSymbolTableRecord
100
AcDbLinetypeTableRecord
  2
ByBlock
 70
     0
  3

 72
    65
 73
     0
 40
0.0
  0
LTYPE
  5
15
330
5
100
AcDbSymbolTableRecord
100
AcDbLinetypeTableRecord
  2
ByLayer
 70
     0
  3

 72
    65
 73
     0
 40
0.0
  0
LTYPE
  5
16
330
5
100
AcDbSymbolTableRecord
100
AcDbLinetypeTableRecord
  2
Continuous
 70
     0
  3
Solid line
 72
    65
 73
     0
 40
0.0
  0
ENDTAB
  0
TABLE
  2
LAYER
  5
2
330
0
100
AcDbSymbolTable
 70
    15
  0
LAYER
  5
10
330
2
100
AcDbSymbolTableRecord
100
AcDbLayerTableRecord
  2
0
 70
     0
 62
     7
  6
Continuous
370
    -3
390
F
  0
LAYER
  5
5D
330
2
100
AcDbSymbolTableRecord
100
AcDbLayerTableRecord
  2
Default
 70
     0
 62
     7
  6
Continuous
370
    -3
390
F
  0
LAYER
  5
60
330
2
100
AcDbSymbolTableRecord
100
AcDbLayerTableRecord
  2
$DDT_AUDIT_GENERATED_(60)
 70
     0
 62
     7
  6
Continuous
370
    -3
390
F
  0
LAYER
  5
71
330
2
100
AcDbSymbolTableRecord
100
AcDbLayerTableRecord
  2
$DDT_AUDIT_GENERATED_(71)
 70
     0
 62
     7
  6
Continuous
370
    -3
390
F
  0
LAYER
  5
76
330
2
100
AcDbSymbolTableRecord
100
AcDbLayerTableRecord
  2
$DDT_AUDIT_GENERATED_(76)
 70
     0
 62
     7
  6
Continuous
370
    -3
390
F
  0
LAYER
  5
9A
330
2
100
AcDbSymbolTableRecord
100
AcDbLayerTableRecord
  2
$DDT_AUDIT_GENERATED_(9A)
 70
     0
 62
     7
  6
Continuous
370
    -3
390
F
  0
LAYER
  5
9E
330
2
100
AcDbSymbolTableRecord
100
AcDbLayerTableRecord
  2
A4225108_211188_
 70
     0
 62
     7
  6
Continuous
370
    -3
390
F
  0
LAYER
  5
A5
330
2
100
AcDbSymbolTableRecord
100
AcDbLayerTableRecord
  2
A4225112_211188_
 70
     0
 62
     7
  6
Continuous
370
    -3
390
F
  0
LAYER
  5
A8
330
2
100
AcDbSymbolTableRecord
100
AcDbLayerTableRecord
  2
$DDT_AUDIT_GENERATED_(A8)
 70
     0
 62
     7
  6
Continuous
370
    -3
390
F
  0
LAYER
  5
B5
330
2
100
AcDbSymbolTableRecord
100
AcDbLayerTableRecord
  2
$DDT_AUDIT_GENERATED_(B5)
 70
     0
 62
     7
  6
Continuous
370
    -3
390
F
  0
LAYER
  5
CA
330
2
100
AcDbSymbolTableRecord
100
AcDbLayerTableRecord
  2
$DDT_AUDIT_GENERATED_(CA)
 70
     0
 62
     7
  6
Continuous
370
    -3
390
F
  0
LAYER
  5
33B
330
2
100
AcDbSymbolTableRecord
100
AcDbLayerTableRecord
  2
400257038_GEH_EH
 70
     0
 62
     7
  6
Continuous
370
    -3
390
F
  0
LAYER
  5
34F
330
2
100
AcDbSymbolTableRecord
100
AcDbLayerTableRecord
  2
$DDT_AUDIT_GENERATED_(34F)
 70
     0
 62
     7
  6
Continuous
370
    -3
390
F
  0
LAYER
  5
357
330
2
100
AcDbSymbolTableRecord
100
AcDbLayerTableRecord
  2
$DDT_AUDIT_GENERATED_(357)
 70
     0
 62
     7
  6
Continuous
370
    -3
390
F
  0
LAYER
  5
3D9
330
2
100
AcDbSymbolTableRecord
100
AcDbLayerTableRecord
  2
$DDT_AUDIT_GENERATED_(3D9)
 70
     0
 62
     7
  6
Continuous
370
    -3
390
F
  0
ENDTAB
  0
TABLE
  2
STYLE
  5
3
330
0
100
AcDbSymbolTable
 70
     2
  0
STYLE
  5
11
330
3
100
AcDbSymbolTableRecord
100
AcDbTextStyleTableRecord
  2
Standard
 70
     0
 40
0.0
 41
1.0
 50
0.0
 71
     0
 42
2.5
  3
txt
  4

  0
STYLE
  5
48C
330
3
100
AcDbSymbolTableRecord
100
AcDbTextStyleTableRecord
  2
SEACAD_seiso_ttf
 70
     0
 40
0.0
 41
1.0
 50
0.0
 71
     0
 42
0.2
  3
seiso.ttf
  4

  0
ENDTAB
  0
TABLE
  2
VIEW
  5
6
330
0
100
AcDbSymbolTable
 70
     0
  0
ENDTAB
  0
TABLE
  2
UCS
  5
7
330
0
100
AcDbSymbolTable
 70
     0
  0
ENDTAB
  0
TABLE
  2
APPID
  5
9
330
0
100
AcDbSymbolTable
 70
     1
  0
APPID
  5
12
330
9
100
AcDbSymbolTableRecord
100
AcDbRegAppTableRecord
  2
ACAD
 70
     0
  0
ENDTAB
  0
TABLE
  2
DIMSTYLE
  5
A
330
0
100
AcDbSymbolTable
 70
     1
100
AcDbDimStyleTable
  0
DIMSTYLE
105
27
330
A
100
AcDbSymbolTableRecord
100
AcDbDimStyleTableRecord
  2
ISO-25
 70
     0
 41
2.5
 42
0.625
 43
3.75
 44
1.25
 73
     0
 74
     0
 77
     1
 78
     8
140
2.5
141
2.5
143
0.0393700787
147
0.625
171
     3
172
     1
271
     2
272
     2
274
     3
278
    44
283
     0
284
     8
340
11
  0
ENDTAB
  0
TABLE
  2
BLOCK_RECORD
  5
1
330
0
100
AcDbSymbolTable
 70
     4
  0
BLOCK_RECORD
  5
1F
330
1
100
AcDbSymbolTableRecord
100
AcDbBlockTableRecord
  2
*Model_Space
340
22
  0
BLOCK_RECORD
  5
1B
330
1
100
AcDbSymbolTableRecord
100
AcDbBlockTableRecord
  2
*Paper_Space
340
1E
  0
BLOCK_RECORD
  5
5E
330
1
100
AcDbSymbolTableRecord
100
AcDbBlockTableRecord
  2
SE
340
0
102
{BLKREFS
331
5F
102
}
  0
BLOCK_RECORD
  5
355
330
1
100
AcDbSymbolTableRecord
100
AcDbBlockTableRecord
  2
SE1
340
0
102
{BLKREFS
331
356
102
}
  0
BLOCK_RECORD
  5
3EA
330
1
100
AcDbSymbolTableRecord
100
AcDbBlockTableRecord
  2
SE2
340
0
102
{BLKREFS
331
3EB
102
}
  0
ENDTAB
  0
ENDSEC
  0
SECTION
  2
BLOCKS
  0
BLOCK
  5
20
330
1F
100
AcDbEntity
  8
0
100
AcDbBlockBegin
  2
*Model_Space
 70
     0
 10
0.0
 20
0.0
 30
0.0
  3
*Model_Space
  1

  0
ENDBLK
  5
21
330
1F
100
AcDbEntity
  8
0
100
AcDbBlockEnd
  0
BLOCK
  5
1C
330
1B
100
AcDbEntity
 67
     1
  8
0
100
AcDbBlockBegin
  2
*Paper_Space
 70
     0
 10
0.0
 20
0.0
 30
0.0
  3
*Paper_Space
  1

  0
ENDBLK
  5
1D
330
1B
100
AcDbEntity
 67
     1
  8
0
100
AcDbBlockEnd
  0
BLOCK
  5
353
330
5E
100
AcDbEntity
  8
0
100
AcDbBlockBegin
  2
SE
 70
     0
 10
0.0
 20
0.0
 30
0.0
  3
SE
  1

  0
ARC
  5
61
330
5E
100
AcDbEntity
  8
$DDT_AUDIT_GENERATED_(60)
  6
Continuous
 62
     7
100
AcDbCircle
 10
191.35
 20
399.8359693617
 30
0.0
 40
16.25
100
AcDbArc
 50
52.619864948
 51
67.380135052
  0
ARC
  5
62
330
5E
100
AcDbEntity
  8
$DDT_AUDIT_GENERATED_(60)
  6
Continuous
 62
     7
100
AcDbCircle
 10
191.35
 20
399.8359693617
 30
0.0
 40
16.25
100
AcDbArc
 50
292.619864948
 51
307.380135052
  0
ARC
  5
63
330
5E
100
AcDbEntity
  8
$DDT_AUDIT_GENERATED_(60)
  6
Continuous
 62
     7
100
AcDbCircle
 10
191.35
 20
399.8359693617
 30
0.0
 40
16.24999999999999
100
AcDbArc
 50
352.619864948
 51
7.380135052
  0
LINE
  5
64
330
5E
100
AcDbEntity
  8
$DDT_AUDIT_GENERATED_(60)
  6
Continuous
 62
     7
100
AcDbLine
 10
197.6
 20
414.8359693617
 30
0.0
 11
196.6008802296
 21
414.8359693617
 31
0.0
  0
LINE
  5
65
330
5E
100
AcDbEntity
  8
$DDT_AUDIT_GENERATED_(60)
  6
Continuous
 62
     7
100
AcDbLine
 10
194.016116733
 20
384.8359693617
 30
0.0
 11
197.6
 21
384.8359693617
 31
0.0
  0
LINE
  5
66
330
5E
100
AcDbEntity
  8
$DDT_AUDIT_GENERATED_(60)
  6
Continuous
 62
     7
100
AcDbLine
 10
201.2153810568
 20
386.923310588
 30
0.0
 11
207.4653810568
 21
397.7486281353
 31
0.0
  0
LINE
  5
67
330
5E
100
AcDbEntity
  8
$DDT_AUDIT_GENERATED_(60)
  6
Continuous
 62
     7
100
AcDbLine
 10
207.4653810568
 20
401.923310588
 30
0.0
 11
205.0924783274
 21
406.0332986768
 31
0.0
  0
LINE
  5
68
330
5E
100
AcDbEntity
  8
$DDT_AUDIT_GENERATED_(60)
  6
Continuous
 62
     7
100
AcDbLine
 10
202.3778183878
 20
410.7352276174
 30
0.0
 11
201.2153810568
 21
412.7486281353
 31
0.0
  0
ARC
  5
69
330
5E
100
AcDbEntity
  8
$DDT_AUDIT_GENERATED_(60)
  6
Continuous
 62
     7
100
AcDbCircle
 10
41.35
 20
399.8359693617
 30
0.0
 40
16.25
100
AcDbArc
 50
112.619864948
 51
127.380135052
  0
ARC
  5
6A
330
5E
100
AcDbEntity
  8
$DDT_AUDIT_GENERATED_(60)
  6
Continuous
 62
     7
100
AcDbCircle
 10
41.35
 20
399.8359693617
 30
0.0
 40
16.24999999999999
100
AcDbArc
 50
172.619864948
 51
187.380135052
  0
ARC
  5
6B
330
5E
100
AcDbEntity
  8
$DDT_AUDIT_GENERATED_(60)
  6
Continuous
 62
     7
100
AcDbCircle
 10
41.35
 20
399.8359693617
 30
0.0
 40
16.25
100
AcDbArc
 50
232.619864948
 51
247.380135052
  0
LINE
  5
6C
330
5E
100
AcDbEntity
  8
$DDT_AUDIT_GENERATED_(60)
  6
Continuous
 62
     7
100
AcDbLine
 10
36.10271334
 20
414.8359693617
 30
0.0
 11
35.1
 21
414.8359693617
 31
0.0
  0
LINE
  5
6D
330
5E
100
AcDbEntity
  8
$DDT_AUDIT_GENERATED_(60)
  6
Continuous
 62
     7
100
AcDbLine
 10
31.4846189432
 20
412.7486281353
 30
0.0
 11
30.3225832395
 21
410.7359232562
 31
0.0
  0
LINE
  5
6E
330
5E
100
AcDbEntity
  8
$DDT_AUDIT_GENERATED_(60)
  6
Continuous
 62
     7
100
AcDbLine
 10
27.6074490566
 20
406.0331729021
 30
0.0
 11
25.2346189432
 21
401.923310588
 31
0.0
  0
LINE
  5
6F
330
5E
100
AcDbEntity
  8
$DDT_AUDIT_GENERATED_(60)
  6
Continuous
 62
     7
100
AcDbLine
 10
25.2346189432
 20
397.7486281353
 30
0.0
 11
31.4846189432
 21
386.923310588
 31
0.0
  0
LINE
  5
70
330
5E
100
AcDbEntity
  8
$DDT_AUDIT_GENERATED_(60)
  6
Continuous
 62
     7
100
AcDbLine
 10
35.1
 20
384.8359693617
 30
0.0
 11
38.6409091856
 21
384.8359693617
 31
0.0
  0
ARC
  5
72
330
5E
100
AcDbEntity
  8
$DDT_AUDIT_GENERATED_(71)
  6
Continuous
 62
     7
100
AcDbCircle
 10
-356.4780774552
 20
405.7251727632
 30
0.0
 40
499.9999999999999
100
AcDbArc
 50
1.6424929538
 51
4.0298365732
  0
ARC
  5
73
330
5E
100
AcDbEntity
  8
$DDT_AUDIT_GENERATED_(71)
  6
Continuous
 62
     7
100
AcDbCircle
 10
589.1780774552
 20
405.7251727632
 30
0.0
 40
499.9999999999999
100
AcDbArc
 50
175.9701634268
 51
178.3573656962
  0
ARC
  5
74
330
5E
100
AcDbEntity
  8
$DDT_AUDIT_GENERATED_(71)
  6
Continuous
 62
     7
100
AcDbCircle
 10
116.35
 20
439.0359693617
 30
0.0
 40
26.0
100
AcDbArc
 50
4.0298365732
 51
23.9391146163
  0
ARC
  5
75
330
5E
100
AcDbEntity
  8
$DDT_AUDIT_GENERATED_(71)
  6
Continuous
 62
     7
100
AcDbCircle
 10
116.35
 20
439.0359693617
 30
0.0
 40
26.0
100
AcDbArc
 50
156.0608853837
 51
175.9701634268
  0
SPLINE
  5
77
330
5E
100
AcDbEntity
  8
$DDT_AUDIT_GENERATED_(76)
  6
Continuous
 62
     7
100
AcDbSpline
210
0.0
220
0.0
230
1.0
 70
     8
 71
     3
 72
    41
 73
    37
 74
     0
 42
0.0000000017924589
 43
0.0000000001
 40
0.4375425803810547
 40
0.4375425803810547
 40
0.4375425803810547
 40
0.4375425803810547
 40
0.4535937117877498
 40
0.4701780054300295
 40
0.4867622990723091
 40
0.5033465927145888
 40
0.5199308863568685
 40
0.5365151799991481
 40
0.5530994736414279
 40
0.5696837672837075
 40
0.5862680609259872
 40
0.6028523545682669
 40
0.6194366482105466
 40
0.6360209418528262
 40
0.6526052354951059
 40
0.6691895291373856
 40
0.6857738227796653
 40
0.7023581164219449
 40
0.7189424100642247
 40
0.7355267037065043
 40
0.752110997348784
 40
0.7686952909910636
 40
0.7852795846333434
 40
0.801863878275623
 40
0.8184481719179026
 40
0.8350324655601824
 40
0.851616759202462
 40
0.8682010528447417
 40
0.8847853464870213
 40
0.9013696401293011
 40
0.9179539337715807
 40
0.9345382274138604
 40
0.95112252105614
 40
0.9677068146984198
 40
0.9842911083406994
 40
1.0
 40
1.0
 40
1.0
 40
1.0
 10
130.0329501775521
 20
486.3514547404956
 30
0.0
 10
130.0124934650894
 20
486.355581588466
 30
0.0
 10
129.970790131245
 20
486.3627032962834
 30
0.0
 10
129.9075570050071
 20
486.3695592994691
 30
0.0
 10
129.8432914890031
 20
486.3725046586624
 30
0.0
 10
129.7786775737322
 20
486.3714743937899
 30
0.0
 10
129.7137140737132
 20
486.3664764344538
 30
0.0
 10
129.6484000976031
 20
486.3575191578663
 30
0.0
 10
129.5827345505392
 20
486.344610672205
 30
0.0
 10
129.5167165394301
 20
486.3277593539818
 30
0.0
 10
129.4503448256881
 20
486.3069731894149
 30
0.0
 10
129.3836187212201
 20
486.282260963792
 30
0.0
 10
129.3165346964562
 20
486.2536317976987
 30
0.0
 10
129.2490893866992
 20
486.2210962851324
 30
0.0
 10
129.1812793568591
 20
486.1846645382576
 30
0.0
 10
129.1131014074001
 20
486.1443453278059
 30
0.0
 10
129.0445518765652
 20
486.1001500118495
 30
0.0
 10
128.9756277074812
 20
486.0520866111902
 30
0.0
 10
128.9063253726181
 20
486.0001670824528
 30
0.0
 10
128.8366413836682
 20
485.9444014130154
 30
0.0
 10
128.7665704507131
 20
485.8847988890001
 30
0.0
 10
128.6961066357862
 20
485.8213727527725
 30
0.0
 10
128.6252445920541
 20
485.7541329199026
 30
0.0
 10
128.5539784847831
 20
485.6830918055026
 30
0.0
 10
128.4823028665932
 20
485.6082605925626
 30
0.0
 10
128.4102121143892
 20
485.5296499838628
 30
0.0
 10
128.3377005637792
 20
485.4472718925978
 30
0.0
 10
128.2647626710632
 20
485.3611374612689
 30
0.0
 10
128.1913906824801
 20
485.2712591720959
 30
0.0
 10
128.1175769919642
 20
485.177649455369
 30
0.0
 10
128.0433137339652
 20
485.0803206324198
 30
0.0
 10
127.9685935884982
 20
484.9792854369466
 30
0.0
 10
127.8934081785991
 20
484.8745556647565
 30
0.0
 10
127.8177511329852
 20
484.766144552277
 30
0.0
 10
127.7429518453889
 20
484.6560362612464
 30
0.0
 10
127.6932259074093
 20
484.580977280987
 30
0.0
 10
127.6689618108609
 20
484.543920055087
 30
0.0
  0
SPLINE
  5
78
330
5E
100
AcDbEntity
  8
$DDT_AUDIT_GENERATED_(76)
  6
Continuous
 62
     7
100
AcDbSpline
210
0.0
220
0.0
230
1.0
 70
     8
 71
     3
 72
    16
 73
    12
 74
     0
 42
0.0000000017867238
 43
0.0000000001
 40
0.4376816668604149
 40
0.4376816668604149
 40
0.4376816668604149
 40
0.4376816668604149
 40
0.5068835716981264
 40
0.6164277760845488
 40
0.673733627171441
 40
0.7302053786985987
 40
0.785842243874676
 40
0.8406426897168854
 40
0.8946044855471806
 40
0.947724750503852
 40
1.0
 40
1.0
 40
1.0
 40
1.0
 10
103.3656966436918
 20
486.3516681447253
 30
0.0
 10
103.4539154814529
 20
486.3694529268147
 30
0.0
 10
103.6844576892448
 20
486.3854461528824
 30
0.0
 10
103.9978739972008
 20
486.3051520191694
 30
0.0
 10
104.3022214090814
 20
486.1408519868065
 30
0.0
 10
104.5374733439531
 20
485.9709573059179
 30
0.0
 10
104.7736573457507
 20
485.7599676859024
 30
0.0
 10
105.010747975981
 20
485.5104956578746
 30
0.0
 10
105.2488702993553
 20
485.2239177370474
 30
0.0
 10
105.4875595076282
 20
484.9059168130237
 30
0.0
 10
105.6494964956014
 20
484.664222152853
 30
0.0
 10
105.7299604163695
 20
484.5441736116953
 30
0.0
  0
SPLINE
  5
79
330
5E
100
AcDbEntity
  8
$DDT_AUDIT_GENERATED_(76)
  6
Continuous
 62
     7
100
AcDbSpline
210
0.0
220
0.0
230
1.0
 70
     8
 71
     3
 72
    67
 73
    63
 74
     0
 42
0.0000000019061232
 43
0.0000000001
 40
0.0126526882091691
 40
0.0126526882091691
 40
0.0126526882091691
 40
0.0126526882091691
 40
0.0285179959063947
 40
0.0451794892488229
 40
0.0618409825912511
 40
0.0785024759336793
 40
0.0951639692761076
 40
0.1118254626185358
 40
0.1284869559609641
 40
0.1451484493033923
 40
0.1618099426458205
 40
0.1784714359882488
 40
0.1951329293306771
 40
0.2117944226731053
 40
0.2284559160155336
 40
0.2451174093579618
 40
0.2617789027003901
 40
0.2784403960428183
 40
0.2951018893852466
 40
0.3117633827276748
 40
0.328424876070103
 40
0.3450863694125313
 40
0.3617478627549595
 40
0.3784093560973878
 40
0.395070849439816
 40
0.4117323427822443
 40
0.4283938361246725
 40
0.4450553294671007
 40
0.461716822809529
 40
0.4783783161519573
 40
0.4950398094943855
 40
0.5117013028368138
 40
0.528362796179242
 40
0.5450242895216703
 40
0.5616857828640985
 40
0.5783472762065267
 40
0.595008769548955
 40
0.6116702628913833
 40
0.6283317562338115
 40
0.6449932495762397
 40
0.661654742918668
 40
0.6783162362610963
 40
0.6949777296035244
 40
0.7116392229459527
 40
0.728300716288381
 40
0.7449622096308093
 40
0.7616237029732374
 40
0.7782851963156657
 40
0.794946689658094
 40
0.8116081830005222
 40
0.8282696763429505
 40
0.8449311696853787
 40
0.861592663027807
 40
0.8782541563702352
 40
0.8949156497126635
 40
0.9115771430550917
 40
0.9282386363975199
 40
0.9449001297399482
 40
0.9615616230823765
 40
0.9782231164248048
 40
0.9948846097672329
 40
1.0
 40
1.0
 40
1.0
 40
1.0
 10
128.6815913199864
 20
482.25386017938
 30
0.0
 10
128.7039312378102
 20
482.2881072070216
 30
0.0
 10
128.7496087447608
 20
482.357238548191
 30
0.0
 10
128.8183070456872
 20
482.458414366144
 30
0.0
 10
128.8877344530272
 20
482.5577079962407
 30
0.0
 10
128.9567863331432
 20
482.6534673842929
 30
0.0
 10
129.0254713974581
 20
482.7456779564316
 30
0.0
 10
129.0937973061692
 20
482.8343254752475
 30
0.0
 10
129.1617718754401
 20
482.919395559941
 30
0.0
 10
129.2294027482911
 20
483.0008741179058
 30
0.0
 10
129.2966974596862
 20
483.0787473749646
 30
0.0
 10
129.3636622145881
 20
483.153001705758
 30
0.0
 10
129.4303027393952
 20
483.2236241661622
 30
0.0
 10
129.4966250250492
 20
483.2906012333739
 30
0.0
 10
129.5626348848141
 20
483.3539198644197
 30
0.0
 10
129.6283373964832
 20
483.4135677878033
 30
0.0
 10
129.6937384184471
 20
483.469531356049
 30
0.0
 10
129.7588424362561
 20
483.5217990365393
 30
0.0
 10
129.8236552807531
 20
483.570357349202
 30
0.0
 10
129.8881807138712
 20
483.6151945545447
 30
0.0
 10
129.9524214205721
 20
483.6563000781597
 30
0.0
 10
130.0163815728901
 20
483.6936613971444
 30
0.0
 10
130.0800638725431
 20
483.7272680965369
 30
0.0
 10
130.1434718688841
 20
483.7571083673199
 30
0.0
 10
130.2066083430342
 20
483.7831712421182
 30
0.0
 10
130.2694758505321
 20
483.8054461906347
 30
0.0
 10
130.3320773047022
 20
483.8239222579602
 30
0.0
 10
130.3944137903262
 20
483.8385897086615
 30
0.0
 10
130.4564865311831
 20
483.8494388659385
 30
0.0
 10
130.5182963596392
 20
483.8564602247847
 30
0.0
 10
130.5798441597172
 20
483.8596444433529
 30
0.0
 10
130.6411305121651
 20
483.8589824002604
 30
0.0
 10
130.7021559755972
 20
483.8544649102386
 30
0.0
 10
130.7629204711862
 20
483.8460836391661
 30
0.0
 10
130.8234249101301
 20
483.8338288015377
 30
0.0
 10
130.8836678575952
 20
483.8176931830342
 30
0.0
 10
130.9436474993561
 20
483.7976699456221
 30
0.0
 10
131.0033628322831
 20
483.7737510052395
 30
0.0
 10
131.0628119950441
 20
483.7459295076982
 30
0.0
 10
131.1219932760742
 20
483.7141984627638
 30
0.0
 10
131.1809047321731
 20
483.6785506863015
 30
0.0
 10
131.2395439320401
 20
483.6389801506462
 30
0.0
 10
131.2979091318891
 20
483.5954794180504
 30
0.0
 10
131.3559961732451
 20
483.5480441708527
 30
0.0
 10
131.4138016667241
 20
483.496668532656
 30
0.0
 10
131.4713220760851
 20
483.441347186491
 30
0.0
 10
131.5285523482251
 20
483.3820766145626
 30
0.0
 10
131.5854890255671
 20
483.3188509207115
 30
0.0
 10
131.6421272746651
 20
483.2516664281007
 30
0.0
 10
131.6984630018011
 20
483.1805181402715
 30
0.0
 10
131.7544908566552
 20
483.1054028327413
 30
0.0
 10
131.8102053533381
 20
483.0263169266994
 30
0.0
 10
131.8656008623431
 20
482.9432572307445
 30
0.0
 10
131.9206700062621
 20
482.8562226213102
 30
0.0
 10
131.9754072357781
 20
482.7652095445976
 30
0.0
 10
132.0298050398631
 20
482.670217358269
 30
0.0
 10
132.0838577142521
 20
482.5712420659994
 30
0.0
 10
132.1375577859681
 20
482.468283498663
 30
0.0
 10
132.1908986590451
 20
482.3613381222209
 30
0.0
 10
132.2438719492271
 20
482.2504070832503
 30
0.0
 10
132.2843183702505
 20
482.1620367431687
 30
0.0
 10
132.307123659389
 20
482.1108360984196
 30
0.0
 10
132.3126094799422
 20
482.0987048366213
 30
0.0
  0
ARC
  5
7A
330
5E
100
AcDbEntity
  8
$DDT_AUDIT_GENERATED_(76)
  6
Continuous
 62
     7
100
AcDbCircle
 10
116.5034202154
 20
491.6363290923
 30
0.0
 40
15.38196320363408
100
AcDbArc
 50
290.6148016562
 51
322.0219257606
  0
SPLINE
  5
7B
330
5E
100
AcDbEntity
  8
$DDT_AUDIT_GENERATED_(76)
  6
Continuous
 62
     7
100
AcDbSpline
210
0.0
220
0.0
230
1.0
 70
     8
 71
     3
 72
    17
 73
    13
 74
     0
 42
0.0000000036785427
 43
0.0000000001
 40
0.0
 40
0.0
 40
0.0
 40
0.0
 40
0.0868707206741393
 40
0.1764808886952216
 40
0.2689106217326945
 40
0.3642339038000664
 40
0.4625173667164219
 40
0.563818886996498
 40
0.6681863032382751
 40
0.775656590427508
 40
0.8862558032474182
 40
1.0
 40
1.0
 40
1.0
 40
1.0
 10
105.5855840109882
 20
482.0767601669568
 30
0.0
 10
105.5455540025626
 20
482.1383021496929
 30
0.0
 10
105.4647090515048
 20
482.2633113962909
 30
0.0
 10
105.3633040542912
 20
482.5038955707388
 30
0.0
 10
105.2833703642281
 20
482.7785550941226
 30
0.0
 10
105.233065068488
 20
483.08143777238
 30
0.0
 10
105.2180729387905
 20
483.3979925871402
 30
0.0
 10
105.2428145563975
 20
483.712051468394
 30
0.0
 10
105.3091590775528
 20
484.0053759658394
 30
0.0
 10
105.4163012574678
 20
484.2560216778481
 30
0.0
 10
105.5588000666975
 20
484.4521189772538
 30
0.0
 10
105.672532818775
 20
484.512997821709
 30
0.0
 10
105.7299604163695
 20
484.5441736116953
 30
0.0
  0
SPLINE
  5
7C
330
5E
100
AcDbEntity
  8
$DDT_AUDIT_GENERATED_(76)
  6
Continuous
 62
     7
100
AcDbSpline
210
0.0
220
0.0
230
1.0
 70
     8
 71
     3
 72
    15
 73
    11
 74
     0
 42
0.0000000034231027
 43
0.0000000001
 40
0.0
 40
0.0
 40
0.0
 40
0.0
 40
0.0947004866187432
 40
0.3002908716123391
 40
0.5112352210972975
 40
0.6005518432941187
 40
0.6815215903239055
 40
0.775076021289903
 40
0.8812339405543136
 40
1.0
 40
1.0
 40
1.0
 40
1.0
 10
127.6689618108609
 20
484.543920055087
 30
0.0
 10
127.7375818361351
 20
484.5176994108644
 30
0.0
 10
127.9576669098591
 20
484.4344396357801
 30
0.0
 10
128.2276065612768
 20
484.0856353117348
 30
0.0
 10
128.3633706055098
 20
483.5786038728943
 30
0.0
 10
128.332880871293
 20
483.1774333659822
 30
0.0
 10
128.2840107517575
 20
482.8985020768191
 30
0.0
 10
128.1876242503032
 20
482.6152388442002
 30
0.0
 10
128.0349145560704
 20
482.3192351611895
 30
0.0
 10
127.8895225054285
 20
482.1605930811846
 30
0.0
 10
127.8127514958242
 20
482.0768256909197
 30
0.0
  0
ARC
  5
7D
330
5E
100
AcDbEntity
  8
$DDT_AUDIT_GENERATED_(76)
  6
Continuous
 62
     7
100
AcDbCircle
 10
105.2954015689
 20
482.6292900866
 30
0.0
 40
0.6965640322708787
100
AcDbArc
 50
221.1619117464
 51
275.8148690624
  0
ARC
  5
7E
330
5E
100
AcDbEntity
  8
$DDT_AUDIT_GENERATED_(76)
  6
Continuous
 62
     7
100
AcDbCircle
 10
128.1037439043
 20
482.6293850386
 30
0.0
 40
0.6966139385607645
100
AcDbArc
 50
264.1849296133
 51
318.8386122347
  0
SPLINE
  5
7F
330
5E
100
AcDbEntity
  8
$DDT_AUDIT_GENERATED_(76)
  6
Continuous
 62
     7
100
AcDbSpline
210
0.0
220
0.0
230
1.0
 70
     8
 71
     3
 72
     8
 73
     4
 74
     0
 42
0.0000000011850582
 43
0.0000000001
 40
0.5358070019000709
 40
0.5358070019000709
 40
0.5358070019000709
 40
0.5358070019000709
 40
0.5374849135776766
 40
0.5374849135776766
 40
0.5374849135776766
 40
0.5374849135776766
 10
89.44975272595569
 20
475.8067038864086
 30
0.0
 10
89.44966759127404
 20
475.8019738908629
 30
0.0
 10
89.44962117732928
 20
475.7972545892017
 30
0.0
 10
89.44961352322053
 20
475.7925459897739
 30
0.0
  0
SPLINE
  5
80
330
5E
100
AcDbEntity
  8
$DDT_AUDIT_GENERATED_(76)
  6
Continuous
 62
     7
100
AcDbSpline
210
0.0
220
0.0
230
1.0
 70
     8
 71
     3
 72
     8
 73
     4
 74
     0
 42
0.0000000011841807
 43
0.0000000001
 40
0.4628683251610571
 40
0.4628683251610571
 40
0.4628683251610571
 40
0.4628683251610571
 40
0.4641063540216072
 40
0.4641063540216072
 40
0.4641063540216072
 40
0.4641063540216072
 10
143.9503780082622
 20
475.79230527505
 30
0.0
 10
143.9503734319595
 20
475.7957841391149
 30
0.0
 10
143.9503476963174
 20
475.7992689123015
 30
0.0
 10
143.9503008146675
 20
475.802759591894
 30
0.0
  0
ARC
  5
81
330
5E
100
AcDbEntity
  8
$DDT_AUDIT_GENERATED_(76)
  6
Continuous
 62
     7
100
AcDbCircle
 10
116.9102660552
 20
491.6656727146
 30
0.0
 40
15.41149666555988
100
AcDbArc
 50
218.0310913518
 51
244.2072573186
  0
SPLINE
  5
82
330
5E
100
AcDbEntity
  8
$DDT_AUDIT_GENERATED_(76)
  6
Continuous
 62
     7
100
AcDbSpline
210
0.0
220
0.0
230
1.0
 70
     8
 71
     3
 72
    60
 73
    56
 74
     0
 42
0.0000000020006106
 43
0.0000000001
 40
0.0
 40
0.0
 40
0.0
 40
0.0
 40
0.0051236933940426
 40
0.0217852260298104
 40
0.0384467586655782
 40
0.055108291301346
 40
0.0717698239371138
 40
0.0884313565728816
 40
0.1050928892086494
 40
0.1217544218444171
 40
0.1384159544801849
 40
0.1550774871159527
 40
0.1717390197517205
 40
0.1884005523874883
 40
0.2050620850232561
 40
0.2217236176590239
 40
0.2383851502947917
 40
0.2550466829305594
 40
0.2717082155663272
 40
0.288369748202095
 40
0.3050312808378628
 40
0.3216928134736306
 40
0.3383543461093984
 40
0.3550158787451662
 40
0.371677411380934
 40
0.3883389440167018
 40
0.4050004766524695
 40
0.4216620092882373
 40
0.4383235419240051
 40
0.4549850745597728
 40
0.4716466071955406
 40
0.4883081398313084
 40
0.5049696724670762
 40
0.521631205102844
 40
0.5382927377386119
 40
0.5549542703743796
 40
0.5716158030101475
 40
0.5882773356459152
 40
0.604938868281683
 40
0.6216004009174508
 40
0.6382619335532186
 40
0.6549234661889863
 40
0.6715849988247542
 40
0.688246531460522
 40
0.7049080640962897
 40
0.7215695967320576
 40
0.7382311293678253
 40
0.7548926620035932
 40
0.7715541946393609
 40
0.7882157272751287
 40
0.8048772599108965
 40
0.8215387925466643
 40
0.838200325182432
 40
0.8548618578181999
 40
0.8693978644682337
 40
0.8693978644682337
 40
0.8693978644682337
 40
0.8693978644682337
 10
101.0866601767301
 20
482.0984774825387
 30
0.0
 10
101.0921545126077
 20
482.1106285956743
 30
0.0
 10
101.1149682667399
 20
482.1618492971875
 30
0.0
 10
101.1554233186631
 20
482.2502394246116
 30
0.0
 10
101.2083962254091
 20
482.3611706047147
 30
0.0
 10
101.2617368978181
 20
482.4681159048995
 30
0.0
 10
101.3154361588751
 20
482.5710747691618
 30
0.0
 10
101.3694883535771
 20
482.6700502230181
 30
0.0
 10
101.4238859576281
 20
482.7650433831718
 30
0.0
 10
101.4786224277141
 20
482.8560564595119
 30
0.0
 10
101.5336912395801
 20
482.9430918127713
 30
0.0
 10
101.5890857693921
 20
483.0261514239648
 30
0.0
 10
101.6447996728741
 20
483.1052377632165
 30
0.0
 10
101.7008271817451
 20
483.1803539046868
 30
0.0
 10
101.7571620883301
 20
483.2515023553863
 30
0.0
 10
101.8137997543491
 20
483.3186874350256
 30
0.0
 10
101.8707356187701
 20
483.3819133684318
 30
0.0
 10
101.9279653082371
 20
483.4411846249669
 30
0.0
 10
101.9854846050381
 20
483.496505979845
 30
0.0
 10
102.0432893479011
 20
483.5478820271145
 30
0.0
 10
102.1013758606901
 20
483.5953181713377
 30
0.0
 10
102.1597401031561
 20
483.6388191077552
 30
0.0
 10
102.2183785030001
 20
483.6783902152259
 30
0.0
 10
102.2772890809841
 20
483.7140383781862
 30
0.0
 10
102.3364694025481
 20
483.7457699291011
 30
0.0
 10
102.3959176844401
 20
483.7735919155259
 30
0.0
 10
102.4556320009171
 20
483.7975112332255
 30
0.0
 10
102.5156108177681
 20
483.8175351371739
 30
0.0
 10
102.5758524889791
 20
483.8336708488318
 30
0.0
 10
102.6363558871782
 20
483.8459260903593
 30
0.0
 10
102.6971197110181
 20
483.8543084171999
 30
0.0
 10
102.7581437840041
 20
483.8588259837454
 30
0.0
 10
102.8194294540641
 20
483.8594890604094
 30
0.0
 10
102.8809761072081
 20
483.8563052897125
 30
0.0
 10
102.9427845431921
 20
483.8492840464081
 30
0.0
 10
103.0048562703141
 20
483.8384356184193
 30
0.0
 10
103.0671915435401
 20
483.8237685705771
 30
0.0
 10
103.1297917935072
 20
483.8052931347929
 30
0.0
 10
103.1926580908251
 20
483.7830186783613
 30
0.0
 10
103.2557933510141
 20
483.7569563772151
 30
0.0
 10
103.3192000888031
 20
483.7271166263012
 30
0.0
 10
103.3828811479462
 20
483.6935105332138
 30
0.0
 10
103.4468399732982
 20
483.6561496891735
 30
0.0
 10
103.5110794628041
 20
483.615044903412
 30
0.0
 10
103.5756033236581
 20
483.5702080071337
 30
0.0
 10
103.6404146984961
 20
483.5216500698439
 30
0.0
 10
103.7055179305471
 20
483.4693837658115
 30
0.0
 10
103.7709174356952
 20
483.4134205947349
 30
0.0
 10
103.8366183254391
 20
483.3537730064646
 30
0.0
 10
103.9026268844362
 20
483.2904551113517
 30
0.0
 10
103.9689476477582
 20
483.2234786598038
 30
0.0
 10
104.0355867285452
 20
483.1528568091872
 30
0.0
 10
104.1025500655742
 20
483.0786032020752
 30
0.0
 10
104.1669816184156
 20
483.0040418478612
 30
0.0
 10
104.209178792251
 20
482.953331717745
 30
0.0
 10
104.2288833600154
 20
482.9292482641755
 30
0.0
  0
ARC
  5
83
330
5E
100
AcDbEntity
  8
$DDT_AUDIT_GENERATED_(76)
  6
Continuous
 62
     7
100
AcDbCircle
 10
131.4597909781
 20
483.1143596422
 30
0.0
 40
1.338012127436861
100
AcDbArc
 50
15.6075651089
 51
15.8262674142
  0
ARC
  5
84
330
5E
100
AcDbEntity
  8
$DDT_AUDIT_GENERATED_(76)
  6
Continuous
 62
     7
100
AcDbCircle
 10
101.9133580491
 20
483.1123662284
 30
0.0
 40
1.313425032113252
100
AcDbArc
 50
163.8719572794
 51
164.0262328244
  0
SPLINE
  5
85
330
5E
100
AcDbEntity
  8
$DDT_AUDIT_GENERATED_(76)
  6
Continuous
 62
     7
100
AcDbSpline
210
0.0
220
0.0
230
1.0
 70
    12
 71
     3
 72
     8
 73
     4
 74
     0
 42
0.0000000143437712
 43
0.0000000001
 40
0.8334694061285148
 40
0.8334694061285148
 40
0.8334694061285148
 40
0.8334694061285148
 40
0.9307075037732966
 40
0.9307075037732966
 40
0.9307075037732966
 40
0.9307075037732966
 10
133.302962264193
 20
482.9290709790014
 30
0.0
 41
1.0
 10
133.3198050379992
 20
482.9297643971037
 30
0.0
 41
1.0
 10
133.3412694197138
 20
482.9252309158607
 30
0.0
 41
1.0
 10
133.3683756139538
 20
482.9149336170844
 30
0.0
 41
1.0
  0
ELLIPSE
  5
86
330
5E
100
AcDbEntity
  8
$DDT_AUDIT_GENERATED_(76)
  6
Continuous
 62
     7
100
AcDbEllipse
 10
133.2892976712
 20
481.1282212333
 30
0.0
 11
-0.9235941155394147
 21
1.032365411578848
 31
0.0
210
0.0
220
0.0
230
1.0
 40
0.4699752496
 41
0.1244810584352032
 42
1.174197775497471
  0
SPLINE
  5
87
330
5E
100
AcDbEntity
  8
$DDT_AUDIT_GENERATED_(76)
  6
Continuous
 62
     7
100
AcDbSpline
210
0.0
220
0.0
230
1.0
 70
     8
 71
     3
 72
    10
 73
     6
 74
     0
 42
0.0000000095819259
 43
0.0000000001
 40
0.0
 40
0.0
 40
0.0
 40
0.0
 40
0.5
 40
0.5
 40
1.0
 40
1.0
 40
1.0
 40
1.0
 10
100.9142754860851
 20
481.1262370917108
 30
0.0
 10
101.0238911464839
 20
481.3145330554042
 30
0.0
 10
101.106949693946
 20
481.514946360889
 30
0.0
 10
101.1690866753755
 20
481.8618849313491
 30
0.0
 10
101.1476107652009
 20
482.0052688599866
 30
0.0
 10
101.0866601767301
 20
482.0984774825387
 30
0.0
  0
SPLINE
  5
88
330
5E
100
AcDbEntity
  8
$DDT_AUDIT_GENERATED_(76)
  6
Continuous
 62
     7
100
AcDbSpline
210
0.0
220
0.0
230
1.0
 70
     8
 71
     3
 72
     9
 73
     5
 74
     0
 42
0.0000000191200204
 43
0.0000000001
 40
0.7608066671686444
 40
0.7608066671686444
 40
0.7608066671686444
 40
0.7608066671686444
 40
0.8192966001131394
 40
0.8836962925528713
 40
0.8836962925528713
 40
0.8836962925528713
 40
0.8836962925528713
 10
100.0965434478948
 20
482.9292421584108
 30
0.0
 10
100.0882691377852
 20
482.9295705321682
 30
0.0
 10
100.0691529510325
 20
482.9273869355762
 30
0.0
 10
100.04676300297
 20
482.9200651815822
 30
0.0
 10
100.0344510189547
 20
482.915320073397
 30
0.0
  0
LINE
  5
89
330
5E
100
AcDbEntity
  8
$DDT_AUDIT_GENERATED_(76)
  6
Continuous
 62
     7
100
AcDbLine
 10
143.6500256394
 20
449.5858758497
 30
0.0
 11
89.7499743606
 21
449.5858758497
 31
0.0
  0
LINE
  5
8A
330
5E
100
AcDbEntity
  8
$DDT_AUDIT_GENERATED_(76)
  6
Continuous
 62
     7
100
AcDbLine
 10
90.0225854561
 20
449.5858758497
 30
0.0
 11
92.586594025
 21
449.5858758497
 31
0.0
  0
LINE
  5
8B
330
5E
100
AcDbEntity
  8
$DDT_AUDIT_GENERATED_(76)
  6
Continuous
 62
     7
100
AcDbLine
 10
140.1134059507
 20
449.5858758497
 30
0.0
 11
143.3774145439
 21
449.5858758497
 31
0.0
  0
SPLINE
  5
8C
330
5E
100
AcDbEntity
  8
$DDT_AUDIT_GENERATED_(76)
  6
Continuous
 62
     7
100
AcDbSpline
210
0.0
220
0.0
230
1.0
 70
     8
 71
     3
 72
    25
 73
    21
 74
     0
 42
0.0000000024050647
 43
0.0000000001
 40
0.0
 40
0.0
 40
0.0
 40
0.0
 40
0.0372044873178069
 40
0.1387003867995754
 40
0.1894096644579442
 40
0.2434848001805093
 40
0.3010588249462516
 40
0.3621340762519554
 40
0.422643749106992
 40
0.4753180205751841
 40
0.5200105679010855
 40
0.5586357705591385
 40
0.5993992599311982
 40
0.6432380398624482
 40
0.6765919964205852
 40
0.7202639246832869
 40
0.7744320638298274
 40
0.8391045213434771
 40
0.9142904259415691
 40
1.0
 40
1.0
 40
1.0
 40
1.0
 10
132.7549514465929
 20
483.4544386861516
 30
0.0
 10
132.7322279945382
 20
483.51283026865
 30
0.0
 10
132.6598841735194
 20
483.6980573687479
 30
0.0
 10
132.5425198162796
 20
483.9564889706023
 30
0.0
 10
132.4143561165142
 20
484.2179772837059
 30
0.0
 10
132.3082151999822
 20
484.4191396775832
 30
0.0
 10
132.1907802139233
 20
484.6249929282749
 30
0.0
 10
132.0635785668571
 20
484.8291414146055
 30
0.0
 10
131.9346355184101
 20
485.0173484314427
 30
0.0
 10
131.8122494588812
 20
485.1800066914486
 30
0.0
 10
131.7015083966699
 20
485.315117694399
 30
0.0
 10
131.5937812401311
 20
485.4365834327247
 30
0.0
 10
131.4806122140717
 20
485.5542019135727
 30
0.0
 10
131.367150525859
 20
485.6616969768542
 30
0.0
 10
131.2436891985118
 20
485.7684526870961
 30
0.0
 10
131.0990649929764
 20
485.8815340447583
 30
0.0
 10
130.9094023051268
 20
486.0100013091561
 30
0.0
 10
130.6705583492625
 20
486.1426504778864
 30
0.0
 10
130.369581730336
 20
486.2704445944987
 30
0.0
 10
130.1603772640717
 20
486.3213755186204
 30
0.0
 10
130.0272741870509
 20
486.3525835004523
 30
0.0
  0
ARC
  5
8D
330
5E
100
AcDbEntity
  8
$DDT_AUDIT_GENERATED_(76)
  6
Continuous
 62
     7
100
AcDbCircle
 10
134.6813384319
 20
478.4706511223
 30
0.0
 40
7.088082712505787
100
AcDbArc
 50
140.2329707748
 51
146.6177364762
  0
ARC
  5
8E
330
5E
100
AcDbEntity
  8
$DDT_AUDIT_GENERATED_(76)
  6
Continuous
 62
     7
100
AcDbCircle
 10
116.7000155922
 20
418.6157618869
 30
0.0
 40
69.01339575814723
100
AcDbArc
 50
78.9549180395
 51
101.0457417402
  0
LINE
  5
8F
330
5E
100
AcDbEntity
  8
$DDT_AUDIT_GENERATED_(76)
  6
Continuous
 62
     7
100
AcDbLine
 10
89.4499743606
 20
475.7981149326
 30
0.0
 11
89.4499743606
 21
449.8858758616
 31
0.0
  0
LINE
  5
90
330
5E
100
AcDbEntity
  8
$DDT_AUDIT_GENERATED_(76)
  6
Continuous
 62
     7
100
AcDbLine
 10
143.9500256394
 20
449.8858758616
 30
0.0
 11
143.9500256394
 21
475.7925347945
 31
0.0
  0
ARC
  5
91
330
5E
100
AcDbEntity
  8
$DDT_AUDIT_GENERATED_(76)
  6
Continuous
 62
     7
100
AcDbCircle
 10
98.586826689
 20
478.3752026065
 30
0.0
 40
7.250006480761964
100
AcDbArc
 50
33.439810782
 51
39.5362454872
  0
SPLINE
  5
92
330
5E
100
AcDbEntity
  8
$DDT_AUDIT_GENERATED_(76)
  6
Continuous
 62
     7
100
AcDbSpline
210
0.0
220
0.0
230
1.0
 70
     8
 71
     3
 72
    21
 73
    17
 74
     0
 42
0.0000000024032047
 43
0.0000000001
 40
0.0
 40
0.0
 40
0.0
 40
0.0
 40
0.0853451114279485
 40
0.1626124932273838
 40
0.2318099368499422
 40
0.2929446545077142
 40
0.3460233965979107
 40
0.3921345762208983
 40
0.498605756249262
 40
0.6046072567292092
 40
0.677096716814924
 40
0.7460605370478403
 40
0.8120150343082484
 40
0.8857919383215869
 40
0.9717353256053229
 40
1.0
 40
1.0
 40
1.0
 40
1.0
 10
103.3722822016677
 20
486.3524910138761
 30
0.0
 10
103.2412387812418
 20
486.3218405652449
 30
0.0
 10
103.0320968341688
 20
486.2710599332166
 30
0.0
 10
102.7267749364226
 20
486.141828705947
 30
0.0
 10
102.4753268304962
 20
486.0014029883418
 30
0.0
 10
102.2653085892103
 20
485.8563486386605
 30
0.0
 10
102.0930361875364
 20
485.7165268755764
 30
0.0
 10
101.8865146469578
 20
485.5266052270025
 30
0.0
 10
101.6531724971914
 20
485.2707184371566
 30
0.0
 10
101.4304367848419
 20
484.9730551284923
 30
0.0
 10
101.249972384428
 20
484.694739266122
 30
0.0
 10
101.107272485168
 20
484.4495614414811
 30
0.0
 10
100.9713338455685
 20
484.1927418951915
 30
0.0
 10
100.8339397948893
 20
483.906851757302
 30
0.0
 10
100.7201059240374
 20
483.6497017469732
 30
0.0
 10
100.6602006960563
 20
483.4970131276664
 30
0.0
 10
100.6428575345398
 20
483.4526798070923
 30
0.0
  0
ARC
  5
93
330
5E
100
AcDbEntity
  8
$DDT_AUDIT_GENERATED_(76)
  6
Continuous
 62
     7
100
AcDbCircle
 10
116.6795283739
 20
490.5561032609
 30
0.0
 40
14.30208503484326
100
AcDbArc
 50
243.276543656
 51
291.3245975348
  0
SPLINE
  5
94
330
5E
100
AcDbEntity
  8
$DDT_AUDIT_GENERATED_(76)
  6
Continuous
 62
     7
100
AcDbSpline
210
0.0
220
0.0
230
1.0
 70
     8
 71
     3
 72
    24
 73
    20
 74
     0
 42
0.0000000007559133
 43
0.0000000001
 40
0.0
 40
0.0
 40
0.0
 40
0.0
 40
0.0011646864285973
 40
0.0658475247822789
 40
0.1310453323855481
 40
0.1967128563663681
 40
0.262793029610912
 40
0.3292298324104491
 40
0.3954278119389723
 40
0.461881909977571
 40
0.5290521532495963
 40
0.5969013543957784
 40
0.6654552321265317
 40
0.7348220873603832
 40
0.8051304778504024
 40
0.8671373240613693
 40
0.920739963188784
 40
0.9671583625881874
 40
1.0
 40
1.0
 40
1.0
 40
1.0
 10
100.0169411845593
 20
482.9100271700568
 30
0.0
 10
100.008688922106
 20
482.9074135011648
 30
0.0
 10
99.60609787295735
 20
482.7798908899579
 30
0.0
 10
98.7847543931532
 20
482.4853577141845
 30
0.0
 10
97.6530362764204
 20
482.0576476243185
 30
0.0
 10
96.57042591979909
 20
481.6075834008351
 30
0.0
 10
95.5524677785584
 20
481.1480219659812
 30
0.0
 10
94.60304677177803
 20
480.6812556722049
 30
0.0
 10
93.72824266312551
 20
480.212848331032
 30
0.0
 10
92.92718327985547
 20
479.7436892642297
 30
0.0
 10
92.1985700056825
 20
479.2735078304249
 30
0.0
 10
91.54359618585615
 20
478.8024167859016
 30
0.0
 10
90.96485540175665
 20
478.3303295081784
 30
0.0
 10
90.4642822877771
 20
477.854379428218
 30
0.0
 10
90.063303476145
 20
477.389326992157
 30
0.0
 10
89.76705429755589
 20
476.9427667948173
 30
0.0
 10
89.57623479089035
 20
476.5295308644061
 30
0.0
 10
89.46736599215188
 20
476.148086132644
 30
0.0
 10
89.46068446917613
 20
475.9238969820619
 30
0.0
 10
89.45817619179878
 20
475.8137912783326
 30
0.0
  0
SPLINE
  5
95
330
5E
100
AcDbEntity
  8
$DDT_AUDIT_GENERATED_(76)
  6
Continuous
 62
     7
100
AcDbSpline
210
0.0
220
0.0
230
1.0
 70
     8
 71
     3
 72
    24
 73
    20
 74
     0
 42
0.0000000007555991
 43
0.0000000001
 40
0.0
 40
0.0
 40
0.0
 40
0.0
 40
0.022372998249315
 40
0.0667419622474768
 40
0.1148372129414493
 40
0.170099317633651
 40
0.2333713994021062
 40
0.3023446285551888
 40
0.3727064909813654
 40
0.4422845087111873
 40
0.5109950290453648
 40
0.57893427195965
 40
0.6461433311635785
 40
0.7126062433497722
 40
0.7785911323027475
 40
0.8450418052680725
 40
0.9111955890489201
 40
0.9769921478034503
 40
1.0
 40
1.0
 40
1.0
 40
1.0
 10
143.9385465713314
 20
475.8051571478105
 30
0.0
 10
143.9405573462458
 20
475.8805778859991
 30
0.0
 10
143.9447065233195
 20
476.0712721398722
 30
0.0
 10
143.8623561988788
 20
476.4103653038408
 30
0.0
 10
143.7085923324404
 20
476.7970654993389
 30
0.0
 10
143.4665855676231
 20
477.2069142222824
 30
0.0
 10
143.1264542526477
 20
477.6449408990082
 30
0.0
 10
142.6784995300374
 20
478.1092556327468
 30
0.0
 10
142.1304149675899
 20
478.5874115474151
 30
0.0
 10
141.4962268338704
 20
479.0685660070378
 30
0.0
 10
140.7848636635925
 20
479.5484551728227
 30
0.0
 10
139.9995040120002
 20
480.026368551961
 30
0.0
 10
139.143317695661
 20
480.5007685590074
 30
0.0
 10
138.21769257671
 20
480.9707128935855
 30
0.0
 10
137.2225222799168
 20
481.43482906861
 30
0.0
 10
136.156323016102
 20
481.8920780264274
 30
0.0
 10
135.0310014601608
 20
482.3327890813832
 30
0.0
 10
134.0776774565077
 20
482.6808734855722
 30
0.0
 10
133.5464682144256
 20
482.8530576633116
 30
0.0
 10
133.3849662324824
 20
482.9052842064411
 30
0.0
  0
ARC
  5
96
330
5E
100
AcDbEntity
  8
$DDT_AUDIT_GENERATED_(76)
  6
Continuous
 62
     7
100
AcDbCircle
 10
133.6507873309
 20
483.8379130203
 30
0.0
 40
0.9721015503791446
100
AcDbArc
 50
201.9846610062
 51
249.2050661515
  0
ARC
  5
97
330
5E
100
AcDbEntity
  8
$DDT_AUDIT_GENERATED_(76)
  6
Continuous
 62
     7
100
AcDbCircle
 10
99.7484597992
 20
483.8376594718
 30
0.0
 40
0.9721055884890188
100
AcDbArc
 50
290.7959436938
 51
338.0159377026
  0
ARC
  5
98
330
5E
100
AcDbEntity
  8
$DDT_AUDIT_GENERATED_(76)
  6
Continuous
 62
     7
100
AcDbCircle
 10
143.6500256394
 20
449.8858758497
 30
0.0
 40
0.3000000000000017
100
AcDbArc
 50
270.0
 51
359.2779302501
  0
ARC
  5
99
330
5E
100
AcDbEntity
  8
$DDT_AUDIT_GENERATED_(76)
  6
Continuous
 62
     7
100
AcDbCircle
 10
89.7499743606
 20
449.8858758497
 30
0.0
 40
0.2999999999999989
100
AcDbArc
 50
179.6644676197
 51
270.0
  0
ELLIPSE
  5
9B
330
5E
100
AcDbEntity
  8
$DDT_AUDIT_GENERATED_(9A)
  6
Continuous
 62
     7
100
AcDbEllipse
 10
116.7
 20
462.4282078786
 30
0.0
 11
-3.469446951953614E-14
 21
-3.722108479915644
 31
0.0
210
0.0
220
0.0
230
1.0
 40
0.9000275027
 41
0.0
 42
6.283185307179586
  0
LINE
  5
9C
330
5E
100
AcDbEntity
  8
$DDT_AUDIT_GENERATED_(9A)
  6
Continuous
 62
     7
100
AcDbLine
 10
120.05
 20
462.4282078786
 30
0.0
 11
120.05
 21
462.6455719845
 31
0.0
  0
LINE
  5
9D
330
5E
100
AcDbEntity
  8
$DDT_AUDIT_GENERATED_(9A)
  6
Continuous
 62
     7
100
AcDbLine
 10
113.35
 20
462.6455719845
 30
0.0
 11
113.35
 21
462.4282078786
 31
0.0
  0
LINE
  5
9F
330
5E
100
AcDbEntity
  8
A4225108_211188_
  6
Continuous
 62
     7
100
AcDbLine
 10
126.6
 20
370.0559693617
 30
0.0
 11
106.1
 21
370.0559693617
 31
0.0
  0
LINE
  5
A0
330
5E
100
AcDbEntity
  8
A4225108_211188_
  6
Continuous
 62
     7
100
AcDbLine
 10
107.1
 20
369.0559693617
 30
0.0
 11
125.6
 21
369.0559693617
 31
0.0
  0
LINE
  5
A1
330
5E
100
AcDbEntity
  8
A4225108_211188_
  6
Continuous
 62
     7
100
AcDbLine
 10
126.6
 20
370.0559693617
 30
0.0
 11
126.6
 21
390.9985086701
 31
0.0
  0
LINE
  5
A2
330
5E
100
AcDbEntity
  8
A4225108_211188_
  6
Continuous
 62
     7
100
AcDbLine
 10
106.1
 20
391.0000455787
 30
0.0
 11
106.1
 21
370.0559693617
 31
0.0
  0
LINE
  5
A3
330
5E
100
AcDbEntity
  8
A4225108_211188_
  6
Continuous
 62
     7
100
AcDbLine
 10
106.1
 20
370.0559693617
 30
0.0
 11
107.1
 21
369.0559693617
 31
0.0
  0
LINE
  5
A4
330
5E
100
AcDbEntity
  8
A4225108_211188_
  6
Continuous
 62
     7
100
AcDbLine
 10
125.6
 20
369.0559693617
 30
0.0
 11
126.6
 21
370.0559693617
 31
0.0
  0
LINE
  5
A6
330
5E
100
AcDbEntity
  8
A4225112_211188_
  6
Continuous
 62
     7
100
AcDbLine
 10
110.75
 20
426.2059693617
 30
0.0
 11
110.75
 21
420.5441092019
 31
0.0
  0
LINE
  5
A7
330
5E
100
AcDbEntity
  8
A4225112_211188_
  6
Continuous
 62
     7
100
AcDbLine
 10
121.95
 20
420.5440191338
 30
0.0
 11
121.95
 21
426.2059693617
 31
0.0
  0
LINE
  5
A9
330
5E
100
AcDbEntity
  8
$DDT_AUDIT_GENERATED_(A8)
  6
Continuous
 62
     7
100
AcDbLine
 10
109.2519124067
 20
426.2059693617
 30
0.0
 11
123.4480875933
 21
426.2059693617
 31
0.0
  0
ARC
  5
AA
330
5E
100
AcDbEntity
  8
$DDT_AUDIT_GENERATED_(A8)
  6
Continuous
 62
     7
100
AcDbCircle
 10
116.35
 20
421.2427791543
 30
0.0
 40
28.00000000000087
100
AcDbArc
 50
70.7627384947
 51
109.2372615053
  0
ARC
  5
AB
330
5E
100
AcDbEntity
  8
$DDT_AUDIT_GENERATED_(A8)
  6
Continuous
 62
     7
100
AcDbCircle
 10
125.0482915111
 20
446.1686637883
 30
0.0
 40
1.599999999999044
100
AcDbArc
 50
289.2372615054
 51
70.7627384947
  0
ARC
  5
AC
330
5E
100
AcDbEntity
  8
$DDT_AUDIT_GENERATED_(A8)
  6
Continuous
 62
     7
100
AcDbCircle
 10
107.6517084889
 20
446.1686637883
 30
0.0
 40
1.6
100
AcDbArc
 50
109.2372615053
 51
250.7627384946
  0
ARC
  5
AD
330
5E
100
AcDbEntity
  8
$DDT_AUDIT_GENERATED_(A8)
  6
Continuous
 62
     7
100
AcDbCircle
 10
116.35
 20
471.0945484223
 30
0.0
 40
28.0
100
AcDbArc
 50
286.5076537505
 51
289.2372615053
  0
ARC
  5
AE
330
5E
100
AcDbEntity
  8
$DDT_AUDIT_GENERATED_(A8)
  6
Continuous
 62
     7
100
AcDbCircle
 10
116.35
 20
471.0945484223
 30
0.0
 40
28.0
100
AcDbArc
 50
250.7627384947
 51
253.4923462495
  0
LINE
  5
AF
330
5E
100
AcDbEntity
  8
$DDT_AUDIT_GENERATED_(A8)
  6
Continuous
 62
     7
100
AcDbLine
 10
123.9480875933
 20
426.7059693617
 30
0.0
 11
123.9480875933
 21
443.7692675028
 31
0.0
  0
LINE
  5
B0
330
5E
100
AcDbEntity
  8
$DDT_AUDIT_GENERATED_(A8)
  6
Continuous
 62
     7
100
AcDbLine
 10
108.7519124067
 20
443.7692675028
 30
0.0
 11
108.7519124067
 21
426.7059693617
 31
0.0
  0
ARC
  5
B1
330
5E
100
AcDbEntity
  8
$DDT_AUDIT_GENERATED_(A8)
  6
Continuous
 62
     7
100
AcDbCircle
 10
123.4480875933
 20
426.7059693617
 30
0.0
 40
0.5000000000000004
100
AcDbArc
 50
270.0
 51
0.0
  0
ARC
  5
B2
330
5E
100
AcDbEntity
  8
$DDT_AUDIT_GENERATED_(A8)
  6
Continuous
 62
     7
100
AcDbCircle
 10
109.2519124067
 20
426.7059693617
 30
0.0
 40
0.4999999999999996
100
AcDbArc
 50
180.0
 51
270.0
  0
ARC
  5
B3
330
5E
100
AcDbEntity
  8
$DDT_AUDIT_GENERATED_(A8)
  6
Continuous
 62
     7
100
AcDbCircle
 10
108.2519124067
 20
443.7692675028
 30
0.0
 40
0.499999999999996
100
AcDbArc
 50
0.0
 51
73.4923462495
  0
ARC
  5
B4
330
5E
100
AcDbEntity
  8
$DDT_AUDIT_GENERATED_(A8)
  6
Continuous
 62
     7
100
AcDbCircle
 10
124.4480875933
 20
443.7692675028
 30
0.0
 40
0.4999999999999987
100
AcDbArc
 50
106.5076537505
 51
180.0
  0
ELLIPSE
  5
B6
330
5E
100
AcDbEntity
  8
$DDT_AUDIT_GENERATED_(B5)
  6
Continuous
 62
     7
100
AcDbEllipse
 10
116.35
 20
392.6423337253
 30
0.0
 11
10.05000000000001
 21
-2.602085213965211E-15
 31
0.0
210
0.0
220
0.0
230
1.0
 40
0.3502073813
 41
0.0
 42
6.283185307179586
  0
ELLIPSE
  5
B7
330
5E
100
AcDbEntity
  8
$DDT_AUDIT_GENERATED_(B5)
  6
Continuous
 62
     7
100
AcDbEllipse
 10
116.35
 20
392.6423337253
 30
0.0
 11
10.75000000000001
 21
-2.602085213965211E-15
 31
0.0
210
0.0
220
0.0
230
1.0
 40
0.3502073813
 41
0.0
 42
6.283185307179586
  0
LINE
  5
B8
330
5E
100
AcDbEntity
  8
$DDT_AUDIT_GENERATED_(B5)
  6
Continuous
 62
     7
100
AcDbLine
 10
105.35
 20
393.845579686
 30
0.0
 11
105.35
 21
392.0339544994
 31
0.0
  0
ELLIPSE
  5
B9
330
5E
100
AcDbEntity
  8
$DDT_AUDIT_GENERATED_(B5)
  6
Continuous
 62
     7
100
AcDbEllipse
 10
116.35
 20
395.4523502931
 30
0.0
 11
11.80000000000025
 21
4.336808689942018E-15
 31
0.0
210
0.0
220
0.0
230
1.0
 40
0.3502073813
 41
2.771250021498084
 42
3.511935285681503
  0
LINE
  5
BA
330
5E
100
AcDbEntity
  8
$DDT_AUDIT_GENERATED_(B5)
  6
Continuous
 62
     7
100
AcDbLine
 10
105.35
 20
396.9480269387
 30
0.0
 11
105.35
 21
395.2466256492
 31
0.0
  0
LINE
  5
BB
330
5E
100
AcDbEntity
  8
$DDT_AUDIT_GENERATED_(B5)
  6
Continuous
 62
     7
100
AcDbLine
 10
105.35
 20
395.2466256492
 30
0.0
 11
105.35
 21
393.845579686
 31
0.0
  0
LINE
  5
BC
330
5E
100
AcDbEntity
  8
$DDT_AUDIT_GENERATED_(B5)
  6
Continuous
 62
     7
100
AcDbLine
 10
105.35
 20
391.8973879851
 30
0.0
 11
105.35
 21
392.0339544994
 31
0.0
  0
ELLIPSE
  5
BD
330
5E
100
AcDbEntity
  8
$DDT_AUDIT_GENERATED_(B5)
  6
Continuous
 62
     7
100
AcDbEllipse
 10
116.35
 20
392.9397670927
 30
0.0
 11
11.29999999999998
 21
6.071532165918825E-15
 31
0.0
210
0.0
220
0.0
230
1.0
 40
0.3502073813
 41
-0.7044137993593429
 42
-0.5766231327443441
  0
ELLIPSE
  5
BE
330
5E
100
AcDbEntity
  8
$DDT_AUDIT_GENERATED_(B5)
  6
Continuous
 62
     7
100
AcDbEllipse
 10
116.35
 20
392.9397670927
 30
0.0
 11
11.29999999999998
 21
6.071532165918825E-15
 31
0.0
210
0.0
220
0.0
230
1.0
 40
0.3502073813
 41
3.720246808083664
 42
3.846006452949126
  0
LINE
  5
BF
330
5E
100
AcDbEntity
  8
$DDT_AUDIT_GENERATED_(B5)
  6
Continuous
 62
     7
100
AcDbLine
 10
127.35
 20
392.0339544994
 30
0.0
 11
127.35
 21
393.845579686
 31
0.0
  0
ELLIPSE
  5
C0
330
5E
100
AcDbEntity
  8
$DDT_AUDIT_GENERATED_(B5)
  6
Continuous
 62
     7
100
AcDbEllipse
 10
116.35
 20
395.4523502931
 30
0.0
 11
-11.80000000000019
 21
6.938893903907228E-15
 31
0.0
210
0.0
220
0.0
230
1.0
 40
0.3502073813
 41
2.771250021498078
 42
3.511935285681508
  0
LINE
  5
C1
330
5E
100
AcDbEntity
  8
$DDT_AUDIT_GENERATED_(B5)
  6
Continuous
 62
     7
100
AcDbLine
 10
127.35
 20
392.0339544994
 30
0.0
 11
127.35
 21
391.8972412868
 31
0.0
  0
LINE
  5
C2
330
5E
100
AcDbEntity
  8
$DDT_AUDIT_GENERATED_(B5)
  6
Continuous
 62
     7
100
AcDbLine
 10
127.35
 20
393.845579686
 30
0.0
 11
127.35
 21
395.2466256492
 31
0.0
  0
LINE
  5
C3
330
5E
100
AcDbEntity
  8
$DDT_AUDIT_GENERATED_(B5)
  6
Continuous
 62
     7
100
AcDbLine
 10
127.35
 20
395.2466256492
 30
0.0
 11
127.35
 21
396.9480269387
 31
0.0
  0
LINE
  5
C4
330
5E
100
AcDbEntity
  8
$DDT_AUDIT_GENERATED_(B5)
  6
Continuous
 62
     7
100
AcDbLine
 10
107.7394983244
 20
390.3770419139
 30
0.0
 11
108.1585935387
 21
390.204342958
 31
0.0
  0
LINE
  5
C5
330
5E
100
AcDbEntity
  8
$DDT_AUDIT_GENERATED_(B5)
  6
Continuous
 62
     7
100
AcDbLine
 10
124.5414064613
 20
390.204342958
 30
0.0
 11
124.9605016756
 21
390.3770419139
 31
0.0
  0
ARC
  5
C6
330
5E
100
AcDbEntity
  8
$DDT_AUDIT_GENERATED_(B5)
  6
Continuous
 62
     7
100
AcDbCircle
 10
123.6033399004
 20
395.3862541889
 30
0.0
 40
5.109509151132513
100
AcDbArc
 50
296.4311956774
 51
317.1134192774
  0
ARC
  5
C7
330
5E
100
AcDbEntity
  8
$DDT_AUDIT_GENERATED_(B5)
  6
Continuous
 62
     7
100
AcDbCircle
 10
109.0367316401
 20
395.3310758886
 30
0.0
 40
5.028863598612743
100
AcDbArc
 50
222.757466941
 51
244.1405200342
  0
LINE
  5
C8
330
5E
100
AcDbEntity
  8
$DDT_AUDIT_GENERATED_(B5)
  6
Continuous
 62
     7
100
AcDbLine
 10
104.55
 20
399.8619768436
 30
0.0
 11
104.55
 21
395.4523502931
 31
0.0
  0
LINE
  5
C9
330
5E
100
AcDbEntity
  8
$DDT_AUDIT_GENERATED_(B5)
  6
Continuous
 62
     7
100
AcDbLine
 10
128.15
 20
395.4523502931
 30
0.0
 11
128.15
 21
399.8639132101
 31
0.0
  0
ELLIPSE
  5
CB
330
5E
100
AcDbEntity
  8
$DDT_AUDIT_GENERATED_(CA)
  6
Continuous
 62
     7
100
AcDbEllipse
 10
116.35
 20
392.7360009443
 30
0.0
 11
8.250000000000002
 21
0.0
 31
0.0
210
0.0
220
0.0
230
1.0
 40
0.3502073813
 41
0.0
 42
6.283185307179586
  0
ELLIPSE
  5
CC
330
5E
100
AcDbEntity
  8
$DDT_AUDIT_GENERATED_(CA)
  6
Continuous
 62
     7
100
AcDbEllipse
 10
116.35
 20
392.7360009443
 30
0.0
 11
9.400000000000002
 21
0.0
 31
0.0
210
0.0
220
0.0
230
1.0
 40
0.3502073813
 41
0.0
 42
6.283185307179586
  0
ELLIPSE
  5
CD
330
5E
100
AcDbEntity
  8
$DDT_AUDIT_GENERATED_(CA)
  6
Continuous
 62
     7
100
AcDbEllipse
 10
116.35
 20
393.8365907666
 30
0.0
 11
-9.399999999997954
 21
-6.938893903907228E-15
 31
0.0
210
0.0
220
0.0
230
1.0
 40
0.3502073813
 41
3.141592653589791
 42
3.1574008002749
  0
LINE
  5
CE
330
5E
100
AcDbEntity
  8
$DDT_AUDIT_GENERATED_(CA)
  6
Continuous
 62
     7
100
AcDbLine
 10
125.75
 20
393.3395142679
 30
0.0
 11
126.0210467915
 21
393.5635163688
 31
0.0
  0
LINE
  5
CF
330
5E
100
AcDbEntity
  8
$DDT_AUDIT_GENERATED_(CA)
  6
Continuous
 62
     7
100
AcDbLine
 10
106.6730901603
 20
393.5683617872
 30
0.0
 11
106.95
 21
393.3395142679
 31
0.0
  0
ELLIPSE
  5
D0
330
5E
100
AcDbEntity
  8
$DDT_AUDIT_GENERATED_(CA)
  6
Continuous
 62
     7
100
AcDbEllipse
 10
116.35
 20
393.8365907666
 30
0.0
 11
9.400000000000569
 21
-6.071532165918825E-15
 31
0.0
210
0.0
220
0.0
230
1.0
 40
0.3502073813
 41
3.125784506904876
 42
3.141592653589795
  0
LINE
  5
D1
330
5E
100
AcDbEntity
  8
$DDT_AUDIT_GENERATED_(CA)
  6
Continuous
 62
     7
100
AcDbLine
 10
115.85
 20
393.0292333483
 30
0.0
 11
115.85
 21
393.3794407295
 31
0.0
  0
LINE
  5
D2
330
5E
100
AcDbEntity
  8
$DDT_AUDIT_GENERATED_(CA)
  6
Continuous
 62
     7
100
AcDbLine
 10
115.85
 20
393.3794407295
 30
0.0
 11
116.85
 21
393.3794407295
 31
0.0
  0
LINE
  5
D3
330
5E
100
AcDbEntity
  8
$DDT_AUDIT_GENERATED_(CA)
  6
Continuous
 62
     7
100
AcDbLine
 10
115.85
 20
393.4494822058
 30
0.0
 11
115.85
 21
393.799689587
 31
0.0
  0
LINE
  5
D4
330
5E
100
AcDbEntity
  8
$DDT_AUDIT_GENERATED_(CA)
  6
Continuous
 62
     7
100
AcDbLine
 10
115.85
 20
393.799689587
 30
0.0
 11
116.85
 21
393.799689587
 31
0.0
  0
LINE
  5
D5
330
5E
100
AcDbEntity
  8
$DDT_AUDIT_GENERATED_(CA)
  6
Continuous
 62
     7
100
AcDbLine
 10
116.85
 20
393.4494822058
 30
0.0
 11
115.85
 21
393.4494822058
 31
0.0
  0
LINE
  5
D6
330
5E
100
AcDbEntity
  8
$DDT_AUDIT_GENERATED_(CA)
  6
Continuous
 62
     7
100
AcDbLine
 10
115.85
 20
393.8697310633
 30
0.0
 11
115.85
 21
394.2199384445
 31
0.0
  0
LINE
  5
D7
330
5E
100
AcDbEntity
  8
$DDT_AUDIT_GENERATED_(CA)
  6
Continuous
 62
     7
100
AcDbLine
 10
115.85
 20
394.2199384445
 30
0.0
 11
116.85
 21
394.2199384445
 31
0.0
  0
LINE
  5
D8
330
5E
100
AcDbEntity
  8
$DDT_AUDIT_GENERATED_(CA)
  6
Continuous
 62
     7
100
AcDbLine
 10
116.85
 20
393.8697310633
 30
0.0
 11
115.85
 21
393.8697310633
 31
0.0
  0
LINE
  5
D9
330
5E
100
AcDbEntity
  8
$DDT_AUDIT_GENERATED_(CA)
  6
Continuous
 62
     7
100
AcDbLine
 10
115.85
 20
394.2899799208
 30
0.0
 11
115.85
 21
394.6401873021
 31
0.0
  0
LINE
  5
DA
330
5E
100
AcDbEntity
  8
$DDT_AUDIT_GENERATED_(CA)
  6
Continuous
 62
     7
100
AcDbLine
 10
115.85
 20
394.6401873021
 30
0.0
 11
116.85
 21
394.6401873021
 31
0.0
  0
LINE
  5
DB
330
5E
100
AcDbEntity
  8
$DDT_AUDIT_GENERATED_(CA)
  6
Continuous
 62
     7
100
AcDbLine
 10
116.85
 20
394.2899799208
 30
0.0
 11
115.85
 21
394.2899799208
 31
0.0
  0
LINE
  5
DC
330
5E
100
AcDbEntity
  8
$DDT_AUDIT_GENERATED_(CA)
  6
Continuous
 62
     7
100
AcDbLine
 10
115.85
 20
394.7102287783
 30
0.0
 11
115.85
 21
395.0604361596
 31
0.0
  0
LINE
  5
DD
330
5E
100
AcDbEntity
  8
$DDT_AUDIT_GENERATED_(CA)
  6
Continuous
 62
     7
100
AcDbLine
 10
115.85
 20
395.0604361596
 30
0.0
 11
116.85
 21
395.0604361596
 31
0.0
  0
LINE
  5
DE
330
5E
100
AcDbEntity
  8
$DDT_AUDIT_GENERATED_(CA)
  6
Continuous
 62
     7
100
AcDbLine
 10
116.85
 20
394.7102287783
 30
0.0
 11
115.85
 21
394.7102287783
 31
0.0
  0
LINE
  5
DF
330
5E
100
AcDbEntity
  8
$DDT_AUDIT_GENERATED_(CA)
  6
Continuous
 62
     7
100
AcDbLine
 10
115.85
 20
395.1304776358
 30
0.0
 11
115.85
 21
395.4806850171
 31
0.0
  0
LINE
  5
E0
330
5E
100
AcDbEntity
  8
$DDT_AUDIT_GENERATED_(CA)
  6
Continuous
 62
     7
100
AcDbLine
 10
115.85
 20
395.4806850171
 30
0.0
 11
116.85
 21
395.4806850171
 31
0.0
  0
LINE
  5
E1
330
5E
100
AcDbEntity
  8
$DDT_AUDIT_GENERATED_(CA)
  6
Continuous
 62
     7
100
AcDbLine
 10
116.85
 20
395.1304776358
 30
0.0
 11
115.85
 21
395.1304776358
 31
0.0
  0
LINE
  5
E2
330
5E
100
AcDbEntity
  8
$DDT_AUDIT_GENERATED_(CA)
  6
Continuous
 62
     7
100
AcDbLine
 10
115.85
 20
395.5507264933
 30
0.0
 11
115.85
 21
395.6199007857
 31
0.0
  0
LINE
  5
E3
330
5E
100
AcDbEntity
  8
$DDT_AUDIT_GENERATED_(CA)
  6
Continuous
 62
     7
100
AcDbLine
 10
116.85
 20
395.5507264933
 30
0.0
 11
115.85
 21
395.5507264933
 31
0.0
  0
LINE
  5
E4
330
5E
100
AcDbEntity
  8
$DDT_AUDIT_GENERATED_(CA)
  6
Continuous
 62
     7
100
AcDbLine
 10
114.65
 20
393.0292333483
 30
0.0
 11
114.65
 21
393.3794407295
 31
0.0
  0
LINE
  5
E5
330
5E
100
AcDbEntity
  8
$DDT_AUDIT_GENERATED_(CA)
  6
Continuous
 62
     7
100
AcDbLine
 10
114.65
 20
393.3794407295
 30
0.0
 11
115.65
 21
393.3794407295
 31
0.0
  0
LINE
  5
E6
330
5E
100
AcDbEntity
  8
$DDT_AUDIT_GENERATED_(CA)
  6
Continuous
 62
     7
100
AcDbLine
 10
115.65
 20
393.3794407295
 30
0.0
 11
115.65
 21
393.0292333483
 31
0.0
  0
LINE
  5
E7
330
5E
100
AcDbEntity
  8
$DDT_AUDIT_GENERATED_(CA)
  6
Continuous
 62
     7
100
AcDbLine
 10
114.65
 20
393.4494822058
 30
0.0
 11
114.65
 21
393.799689587
 31
0.0
  0
LINE
  5
E8
330
5E
100
AcDbEntity
  8
$DDT_AUDIT_GENERATED_(CA)
  6
Continuous
 62
     7
100
AcDbLine
 10
114.65
 20
393.799689587
 30
0.0
 11
115.65
 21
393.799689587
 31
0.0
  0
LINE
  5
E9
330
5E
100
AcDbEntity
  8
$DDT_AUDIT_GENERATED_(CA)
  6
Continuous
 62
     7
100
AcDbLine
 10
115.65
 20
393.799689587
 30
0.0
 11
115.65
 21
393.4494822058
 31
0.0
  0
LINE
  5
EA
330
5E
100
AcDbEntity
  8
$DDT_AUDIT_GENERATED_(CA)
  6
Continuous
 62
     7
100
AcDbLine
 10
115.65
 20
393.4494822058
 30
0.0
 11
114.65
 21
393.4494822058
 31
0.0
  0
LINE
  5
EB
330
5E
100
AcDbEntity
  8
$DDT_AUDIT_GENERATED_(CA)
  6
Continuous
 62
     7
100
AcDbLine
 10
114.65
 20
393.8697310633
 30
0.0
 11
114.65
 21
394.2199384445
 31
0.0
  0
LINE
  5
EC
330
5E
100
AcDbEntity
  8
$DDT_AUDIT_GENERATED_(CA)
  6
Continuous
 62
     7
100
AcDbLine
 10
114.65
 20
394.2199384445
 30
0.0
 11
115.65
 21
394.2199384445
 31
0.0
  0
LINE
  5
ED
330
5E
100
AcDbEntity
  8
$DDT_AUDIT_GENERATED_(CA)
  6
Continuous
 62
     7
100
AcDbLine
 10
115.65
 20
394.2199384445
 30
0.0
 11
115.65
 21
393.8697310633
 31
0.0
  0
LINE
  5
EE
330
5E
100
AcDbEntity
  8
$DDT_AUDIT_GENERATED_(CA)
  6
Continuous
 62
     7
100
AcDbLine
 10
115.65
 20
393.8697310633
 30
0.0
 11
114.65
 21
393.8697310633
 31
0.0
  0
LINE
  5
EF
330
5E
100
AcDbEntity
  8
$DDT_AUDIT_GENERATED_(CA)
  6
Continuous
 62
     7
100
AcDbLine
 10
114.65
 20
394.2899799208
 30
0.0
 11
114.65
 21
394.6401873021
 31
0.0
  0
LINE
  5
F0
330
5E
100
AcDbEntity
  8
$DDT_AUDIT_GENERATED_(CA)
  6
Continuous
 62
     7
100
AcDbLine
 10
114.65
 20
394.6401873021
 30
0.0
 11
115.65
 21
394.6401873021
 31
0.0
  0
LINE
  5
F1
330
5E
100
AcDbEntity
  8
$DDT_AUDIT_GENERATED_(CA)
  6
Continuous
 62
     7
100
AcDbLine
 10
115.65
 20
394.6401873021
 30
0.0
 11
115.65
 21
394.2899799208
 31
0.0
  0
LINE
  5
F2
330
5E
100
AcDbEntity
  8
$DDT_AUDIT_GENERATED_(CA)
  6
Continuous
 62
     7
100
AcDbLine
 10
115.65
 20
394.2899799208
 30
0.0
 11
114.65
 21
394.2899799208
 31
0.0
  0
LINE
  5
F3
330
5E
100
AcDbEntity
  8
$DDT_AUDIT_GENERATED_(CA)
  6
Continuous
 62
     7
100
AcDbLine
 10
114.65
 20
394.7102287783
 30
0.0
 11
114.65
 21
395.0604361596
 31
0.0
  0
LINE
  5
F4
330
5E
100
AcDbEntity
  8
$DDT_AUDIT_GENERATED_(CA)
  6
Continuous
 62
     7
100
AcDbLine
 10
114.65
 20
395.0604361596
 30
0.0
 11
115.65
 21
395.0604361596
 31
0.0
  0
LINE
  5
F5
330
5E
100
AcDbEntity
  8
$DDT_AUDIT_GENERATED_(CA)
  6
Continuous
 62
     7
100
AcDbLine
 10
115.65
 20
395.0604361596
 30
0.0
 11
115.65
 21
394.7102287783
 31
0.0
  0
LINE
  5
F6
330
5E
100
AcDbEntity
  8
$DDT_AUDIT_GENERATED_(CA)
  6
Continuous
 62
     7
100
AcDbLine
 10
115.65
 20
394.7102287783
 30
0.0
 11
114.65
 21
394.7102287783
 31
0.0
  0
LINE
  5
F7
330
5E
100
AcDbEntity
  8
$DDT_AUDIT_GENERATED_(CA)
  6
Continuous
 62
     7
100
AcDbLine
 10
114.65
 20
395.1304776358
 30
0.0
 11
114.65
 21
395.4806850171
 31
0.0
  0
LINE
  5
F8
330
5E
100
AcDbEntity
  8
$DDT_AUDIT_GENERATED_(CA)
  6
Continuous
 62
     7
100
AcDbLine
 10
114.65
 20
395.4806850171
 30
0.0
 11
115.65
 21
395.4806850171
 31
0.0
  0
LINE
  5
F9
330
5E
100
AcDbEntity
  8
$DDT_AUDIT_GENERATED_(CA)
  6
Continuous
 62
     7
100
AcDbLine
 10
115.65
 20
395.4806850171
 30
0.0
 11
115.65
 21
395.1304776358
 31
0.0
  0
LINE
  5
FA
330
5E
100
AcDbEntity
  8
$DDT_AUDIT_GENERATED_(CA)
  6
Continuous
 62
     7
100
AcDbLine
 10
115.65
 20
395.1304776358
 30
0.0
 11
114.65
 21
395.1304776358
 31
0.0
  0
LINE
  5
FB
330
5E
100
AcDbEntity
  8
$DDT_AUDIT_GENERATED_(CA)
  6
Continuous
 62
     7
100
AcDbLine
 10
114.65
 20
395.5507264933
 30
0.0
 11
114.65
 21
395.5632071521
 31
0.0
  0
LINE
  5
FC
330
5E
100
AcDbEntity
  8
$DDT_AUDIT_GENERATED_(CA)
  6
Continuous
 62
     7
100
AcDbLine
 10
115.65
 20
395.6147929557
 30
0.0
 11
115.65
 21
395.5507264933
 31
0.0
  0
LINE
  5
FD
330
5E
100
AcDbEntity
  8
$DDT_AUDIT_GENERATED_(CA)
  6
Continuous
 62
     7
100
AcDbLine
 10
115.65
 20
395.5507264933
 30
0.0
 11
114.65
 21
395.5507264933
 31
0.0
  0
LINE
  5
FE
330
5E
100
AcDbEntity
  8
$DDT_AUDIT_GENERATED_(CA)
  6
Continuous
 62
     7
100
AcDbLine
 10
113.45
 20
393.0292333483
 30
0.0
 11
113.45
 21
393.3794407295
 31
0.0
  0
LINE
  5
FF
330
5E
100
AcDbEntity
  8
$DDT_AUDIT_GENERATED_(CA)
  6
Continuous
 62
     7
100
AcDbLine
 10
113.45
 20
393.3794407295
 30
0.0
 11
114.45
 21
393.3794407295
 31
0.0
  0
LINE
  5
100
330
5E
100
AcDbEntity
  8
$DDT_AUDIT_GENERATED_(CA)
  6
Continuous
 62
     7
100
AcDbLine
 10
114.45
 20
393.3794407295
 30
0.0
 11
114.45
 21
393.0292333483
 31
0.0
  0
LINE
  5
101
330
5E
100
AcDbEntity
  8
$DDT_AUDIT_GENERATED_(CA)
  6
Continuous
 62
     7
100
AcDbLine
 10
113.45
 20
393.4494822058
 30
0.0
 11
113.45
 21
393.799689587
 31
0.0
  0
LINE
  5
102
330
5E
100
AcDbEntity
  8
$DDT_AUDIT_GENERATED_(CA)
  6
Continuous
 62
     7
100
AcDbLine
 10
113.45
 20
393.799689587
 30
0.0
 11
114.45
 21
393.799689587
 31
0.0
  0
LINE
  5
103
330
5E
100
AcDbEntity
  8
$DDT_AUDIT_GENERATED_(CA)
  6
Continuous
 62
     7
100
AcDbLine
 10
114.45
 20
393.799689587
 30
0.0
 11
114.45
 21
393.4494822058
 31
0.0
  0
LINE
  5
104
330
5E
100
AcDbEntity
  8
$DDT_AUDIT_GENERATED_(CA)
  6
Continuous
 62
     7
100
AcDbLine
 10
114.45
 20
393.4494822058
 30
0.0
 11
113.45
 21
393.4494822058
 31
0.0
  0
LINE
  5
105
330
5E
100
AcDbEntity
  8
$DDT_AUDIT_GENERATED_(CA)
  6
Continuous
 62
     7
100
AcDbLine
 10
113.45
 20
393.8697310633
 30
0.0
 11
113.45
 21
394.2199384445
 31
0.0
  0
LINE
  5
106
330
5E
100
AcDbEntity
  8
$DDT_AUDIT_GENERATED_(CA)
  6
Continuous
 62
     7
100
AcDbLine
 10
113.45
 20
394.2199384445
 30
0.0
 11
114.45
 21
394.2199384445
 31
0.0
  0
LINE
  5
107
330
5E
100
AcDbEntity
  8
$DDT_AUDIT_GENERATED_(CA)
  6
Continuous
 62
     7
100
AcDbLine
 10
114.45
 20
394.2199384445
 30
0.0
 11
114.45
 21
393.8697310633
 31
0.0
  0
LINE
  5
108
330
5E
100
AcDbEntity
  8
$DDT_AUDIT_GENERATED_(CA)
  6
Continuous
 62
     7
100
AcDbLine
 10
114.45
 20
393.8697310633
 30
0.0
 11
113.45
 21
393.8697310633
 31
0.0
  0
LINE
  5
109
330
5E
100
AcDbEntity
  8
$DDT_AUDIT_GENERATED_(CA)
  6
Continuous
 62
     7
100
AcDbLine
 10
113.45
 20
394.2899799208
 30
0.0
 11
113.45
 21
394.6401873021
 31
0.0
  0
LINE
  5
10A
330
5E
100
AcDbEntity
  8
$DDT_AUDIT_GENERATED_(CA)
  6
Continuous
 62
     7
100
AcDbLine
 10
113.45
 20
394.6401873021
 30
0.0
 11
114.45
 21
394.6401873021
 31
0.0
  0
LINE
  5
10B
330
5E
100
AcDbEntity
  8
$DDT_AUDIT_GENERATED_(CA)
  6
Continuous
 62
     7
100
AcDbLine
 10
114.45
 20
394.6401873021
 30
0.0
 11
114.45
 21
394.2899799208
 31
0.0
  0
LINE
  5
10C
330
5E
100
AcDbEntity
  8
$DDT_AUDIT_GENERATED_(CA)
  6
Continuous
 62
     7
100
AcDbLine
 10
114.45
 20
394.2899799208
 30
0.0
 11
113.45
 21
394.2899799208
 31
0.0
  0
LINE
  5
10D
330
5E
100
AcDbEntity
  8
$DDT_AUDIT_GENERATED_(CA)
  6
Continuous
 62
     7
100
AcDbLine
 10
113.45
 20
394.7102287783
 30
0.0
 11
113.45
 21
395.0604361596
 31
0.0
  0
LINE
  5
10E
330
5E
100
AcDbEntity
  8
$DDT_AUDIT_GENERATED_(CA)
  6
Continuous
 62
     7
100
AcDbLine
 10
113.45
 20
395.0604361596
 30
0.0
 11
114.45
 21
395.0604361596
 31
0.0
  0
LINE
  5
10F
330
5E
100
AcDbEntity
  8
$DDT_AUDIT_GENERATED_(CA)
  6
Continuous
 62
     7
100
AcDbLine
 10
114.45
 20
395.0604361596
 30
0.0
 11
114.45
 21
394.7102287783
 31
0.0
  0
LINE
  5
110
330
5E
100
AcDbEntity
  8
$DDT_AUDIT_GENERATED_(CA)
  6
Continuous
 62
     7
100
AcDbLine
 10
114.45
 20
394.7102287783
 30
0.0
 11
113.45
 21
394.7102287783
 31
0.0
  0
LINE
  5
111
330
5E
100
AcDbEntity
  8
$DDT_AUDIT_GENERATED_(CA)
  6
Continuous
 62
     7
100
AcDbLine
 10
113.45
 20
395.1304776358
 30
0.0
 11
113.45
 21
395.440828736
 31
0.0
  0
LINE
  5
112
330
5E
100
AcDbEntity
  8
$DDT_AUDIT_GENERATED_(CA)
  6
Continuous
 62
     7
100
AcDbLine
 10
113.7733626069
 20
395.4806850171
 30
0.0
 11
114.45
 21
395.4806850171
 31
0.0
  0
LINE
  5
113
330
5E
100
AcDbEntity
  8
$DDT_AUDIT_GENERATED_(CA)
  6
Continuous
 62
     7
100
AcDbLine
 10
114.45
 20
395.4806850171
 30
0.0
 11
114.45
 21
395.1304776358
 31
0.0
  0
LINE
  5
114
330
5E
100
AcDbEntity
  8
$DDT_AUDIT_GENERATED_(CA)
  6
Continuous
 62
     7
100
AcDbLine
 10
114.45
 20
395.1304776358
 30
0.0
 11
113.45
 21
395.1304776358
 31
0.0
  0
LINE
  5
115
330
5E
100
AcDbEntity
  8
$DDT_AUDIT_GENERATED_(CA)
  6
Continuous
 62
     7
100
AcDbLine
 10
112.25
 20
393.0292333483
 30
0.0
 11
112.25
 21
393.3794407295
 31
0.0
  0
LINE
  5
116
330
5E
100
AcDbEntity
  8
$DDT_AUDIT_GENERATED_(CA)
  6
Continuous
 62
     7
100
AcDbLine
 10
112.25
 20
393.3794407295
 30
0.0
 11
113.25
 21
393.3794407295
 31
0.0
  0
LINE
  5
117
330
5E
100
AcDbEntity
  8
$DDT_AUDIT_GENERATED_(CA)
  6
Continuous
 62
     7
100
AcDbLine
 10
113.25
 20
393.3794407295
 30
0.0
 11
113.25
 21
393.0292333483
 31
0.0
  0
LINE
  5
118
330
5E
100
AcDbEntity
  8
$DDT_AUDIT_GENERATED_(CA)
  6
Continuous
 62
     7
100
AcDbLine
 10
112.25
 20
393.4494822058
 30
0.0
 11
112.25
 21
393.799689587
 31
0.0
  0
LINE
  5
119
330
5E
100
AcDbEntity
  8
$DDT_AUDIT_GENERATED_(CA)
  6
Continuous
 62
     7
100
AcDbLine
 10
112.25
 20
393.799689587
 30
0.0
 11
113.25
 21
393.799689587
 31
0.0
  0
LINE
  5
11A
330
5E
100
AcDbEntity
  8
$DDT_AUDIT_GENERATED_(CA)
  6
Continuous
 62
     7
100
AcDbLine
 10
113.25
 20
393.799689587
 30
0.0
 11
113.25
 21
393.4494822058
 31
0.0
  0
LINE
  5
11B
330
5E
100
AcDbEntity
  8
$DDT_AUDIT_GENERATED_(CA)
  6
Continuous
 62
     7
100
AcDbLine
 10
113.25
 20
393.4494822058
 30
0.0
 11
112.25
 21
393.4494822058
 31
0.0
  0
LINE
  5
11C
330
5E
100
AcDbEntity
  8
$DDT_AUDIT_GENERATED_(CA)
  6
Continuous
 62
     7
100
AcDbLine
 10
112.25
 20
393.8697310633
 30
0.0
 11
112.25
 21
394.2199384445
 31
0.0
  0
LINE
  5
11D
330
5E
100
AcDbEntity
  8
$DDT_AUDIT_GENERATED_(CA)
  6
Continuous
 62
     7
100
AcDbLine
 10
112.25
 20
394.2199384445
 30
0.0
 11
113.25
 21
394.2199384445
 31
0.0
  0
LINE
  5
11E
330
5E
100
AcDbEntity
  8
$DDT_AUDIT_GENERATED_(CA)
  6
Continuous
 62
     7
100
AcDbLine
 10
113.25
 20
394.2199384445
 30
0.0
 11
113.25
 21
393.8697310633
 31
0.0
  0
LINE
  5
11F
330
5E
100
AcDbEntity
  8
$DDT_AUDIT_GENERATED_(CA)
  6
Continuous
 62
     7
100
AcDbLine
 10
113.25
 20
393.8697310633
 30
0.0
 11
112.25
 21
393.8697310633
 31
0.0
  0
LINE
  5
120
330
5E
100
AcDbEntity
  8
$DDT_AUDIT_GENERATED_(CA)
  6
Continuous
 62
     7
100
AcDbLine
 10
112.25
 20
394.2899799208
 30
0.0
 11
112.25
 21
394.6401873021
 31
0.0
  0
LINE
  5
121
330
5E
100
AcDbEntity
  8
$DDT_AUDIT_GENERATED_(CA)
  6
Continuous
 62
     7
100
AcDbLine
 10
112.25
 20
394.6401873021
 30
0.0
 11
113.25
 21
394.6401873021
 31
0.0
  0
LINE
  5
122
330
5E
100
AcDbEntity
  8
$DDT_AUDIT_GENERATED_(CA)
  6
Continuous
 62
     7
100
AcDbLine
 10
113.25
 20
394.6401873021
 30
0.0
 11
113.25
 21
394.2899799208
 31
0.0
  0
LINE
  5
123
330
5E
100
AcDbEntity
  8
$DDT_AUDIT_GENERATED_(CA)
  6
Continuous
 62
     7
100
AcDbLine
 10
113.25
 20
394.2899799208
 30
0.0
 11
112.25
 21
394.2899799208
 31
0.0
  0
LINE
  5
124
330
5E
100
AcDbEntity
  8
$DDT_AUDIT_GENERATED_(CA)
  6
Continuous
 62
     7
100
AcDbLine
 10
112.25
 20
394.7102287783
 30
0.0
 11
112.25
 21
395.0604361596
 31
0.0
  0
LINE
  5
125
330
5E
100
AcDbEntity
  8
$DDT_AUDIT_GENERATED_(CA)
  6
Continuous
 62
     7
100
AcDbLine
 10
112.25
 20
395.0604361596
 30
0.0
 11
113.25
 21
395.0604361596
 31
0.0
  0
LINE
  5
126
330
5E
100
AcDbEntity
  8
$DDT_AUDIT_GENERATED_(CA)
  6
Continuous
 62
     7
100
AcDbLine
 10
113.25
 20
395.0604361596
 30
0.0
 11
113.25
 21
394.7102287783
 31
0.0
  0
LINE
  5
127
330
5E
100
AcDbEntity
  8
$DDT_AUDIT_GENERATED_(CA)
  6
Continuous
 62
     7
100
AcDbLine
 10
113.25
 20
394.7102287783
 30
0.0
 11
112.25
 21
394.7102287783
 31
0.0
  0
LINE
  5
128
330
5E
100
AcDbEntity
  8
$DDT_AUDIT_GENERATED_(CA)
  6
Continuous
 62
     7
100
AcDbLine
 10
112.25
 20
395.1304776358
 30
0.0
 11
112.25
 21
395.2431654023
 31
0.0
  0
LINE
  5
129
330
5E
100
AcDbEntity
  8
$DDT_AUDIT_GENERATED_(CA)
  6
Continuous
 62
     7
100
AcDbLine
 10
113.25
 20
395.4134846755
 30
0.0
 11
113.25
 21
395.1304776358
 31
0.0
  0
LINE
  5
12A
330
5E
100
AcDbEntity
  8
$DDT_AUDIT_GENERATED_(CA)
  6
Continuous
 62
     7
100
AcDbLine
 10
113.25
 20
395.1304776358
 30
0.0
 11
112.25
 21
395.1304776358
 31
0.0
  0
LINE
  5
12B
330
5E
100
AcDbEntity
  8
$DDT_AUDIT_GENERATED_(CA)
  6
Continuous
 62
     7
100
AcDbLine
 10
111.05
 20
393.0292333483
 30
0.0
 11
111.05
 21
393.3794407295
 31
0.0
  0
LINE
  5
12C
330
5E
100
AcDbEntity
  8
$DDT_AUDIT_GENERATED_(CA)
  6
Continuous
 62
     7
100
AcDbLine
 10
111.05
 20
393.3794407295
 30
0.0
 11
112.05
 21
393.3794407295
 31
0.0
  0
LINE
  5
12D
330
5E
100
AcDbEntity
  8
$DDT_AUDIT_GENERATED_(CA)
  6
Continuous
 62
     7
100
AcDbLine
 10
112.05
 20
393.3794407295
 30
0.0
 11
112.05
 21
393.0292333483
 31
0.0
  0
LINE
  5
12E
330
5E
100
AcDbEntity
  8
$DDT_AUDIT_GENERATED_(CA)
  6
Continuous
 62
     7
100
AcDbLine
 10
111.05
 20
393.4494822058
 30
0.0
 11
111.05
 21
393.799689587
 31
0.0
  0
LINE
  5
12F
330
5E
100
AcDbEntity
  8
$DDT_AUDIT_GENERATED_(CA)
  6
Continuous
 62
     7
100
AcDbLine
 10
111.05
 20
393.799689587
 30
0.0
 11
112.05
 21
393.799689587
 31
0.0
  0
LINE
  5
130
330
5E
100
AcDbEntity
  8
$DDT_AUDIT_GENERATED_(CA)
  6
Continuous
 62
     7
100
AcDbLine
 10
112.05
 20
393.799689587
 30
0.0
 11
112.05
 21
393.4494822058
 31
0.0
  0
LINE
  5
131
330
5E
100
AcDbEntity
  8
$DDT_AUDIT_GENERATED_(CA)
  6
Continuous
 62
     7
100
AcDbLine
 10
112.05
 20
393.4494822058
 30
0.0
 11
111.05
 21
393.4494822058
 31
0.0
  0
LINE
  5
132
330
5E
100
AcDbEntity
  8
$DDT_AUDIT_GENERATED_(CA)
  6
Continuous
 62
     7
100
AcDbLine
 10
111.05
 20
393.8697310633
 30
0.0
 11
111.05
 21
394.2199384445
 31
0.0
  0
LINE
  5
133
330
5E
100
AcDbEntity
  8
$DDT_AUDIT_GENERATED_(CA)
  6
Continuous
 62
     7
100
AcDbLine
 10
111.05
 20
394.2199384445
 30
0.0
 11
112.05
 21
394.2199384445
 31
0.0
  0
LINE
  5
134
330
5E
100
AcDbEntity
  8
$DDT_AUDIT_GENERATED_(CA)
  6
Continuous
 62
     7
100
AcDbLine
 10
112.05
 20
394.2199384445
 30
0.0
 11
112.05
 21
393.8697310633
 31
0.0
  0
LINE
  5
135
330
5E
100
AcDbEntity
  8
$DDT_AUDIT_GENERATED_(CA)
  6
Continuous
 62
     7
100
AcDbLine
 10
112.05
 20
393.8697310633
 30
0.0
 11
111.05
 21
393.8697310633
 31
0.0
  0
LINE
  5
136
330
5E
100
AcDbEntity
  8
$DDT_AUDIT_GENERATED_(CA)
  6
Continuous
 62
     7
100
AcDbLine
 10
111.05
 20
394.2899799208
 30
0.0
 11
111.05
 21
394.6401873021
 31
0.0
  0
LINE
  5
137
330
5E
100
AcDbEntity
  8
$DDT_AUDIT_GENERATED_(CA)
  6
Continuous
 62
     7
100
AcDbLine
 10
111.05
 20
394.6401873021
 30
0.0
 11
112.05
 21
394.6401873021
 31
0.0
  0
LINE
  5
138
330
5E
100
AcDbEntity
  8
$DDT_AUDIT_GENERATED_(CA)
  6
Continuous
 62
     7
100
AcDbLine
 10
112.05
 20
394.6401873021
 30
0.0
 11
112.05
 21
394.2899799208
 31
0.0
  0
LINE
  5
139
330
5E
100
AcDbEntity
  8
$DDT_AUDIT_GENERATED_(CA)
  6
Continuous
 62
     7
100
AcDbLine
 10
112.05
 20
394.2899799208
 30
0.0
 11
111.05
 21
394.2899799208
 31
0.0
  0
LINE
  5
13A
330
5E
100
AcDbEntity
  8
$DDT_AUDIT_GENERATED_(CA)
  6
Continuous
 62
     7
100
AcDbLine
 10
111.05
 20
394.7102287783
 30
0.0
 11
111.05
 21
394.9501453958
 31
0.0
  0
LINE
  5
13B
330
5E
100
AcDbEntity
  8
$DDT_AUDIT_GENERATED_(CA)
  6
Continuous
 62
     7
100
AcDbLine
 10
111.450142242
 20
395.0604361596
 30
0.0
 11
112.05
 21
395.0604361596
 31
0.0
  0
LINE
  5
13C
330
5E
100
AcDbEntity
  8
$DDT_AUDIT_GENERATED_(CA)
  6
Continuous
 62
     7
100
AcDbLine
 10
112.05
 20
395.0604361596
 30
0.0
 11
112.05
 21
394.7102287783
 31
0.0
  0
LINE
  5
13D
330
5E
100
AcDbEntity
  8
$DDT_AUDIT_GENERATED_(CA)
  6
Continuous
 62
     7
100
AcDbLine
 10
112.05
 20
394.7102287783
 30
0.0
 11
111.05
 21
394.7102287783
 31
0.0
  0
LINE
  5
13E
330
5E
100
AcDbEntity
  8
$DDT_AUDIT_GENERATED_(CA)
  6
Continuous
 62
     7
100
AcDbLine
 10
109.85
 20
393.0292333483
 30
0.0
 11
109.85
 21
393.3794407295
 31
0.0
  0
LINE
  5
13F
330
5E
100
AcDbEntity
  8
$DDT_AUDIT_GENERATED_(CA)
  6
Continuous
 62
     7
100
AcDbLine
 10
109.85
 20
393.3794407295
 30
0.0
 11
110.85
 21
393.3794407295
 31
0.0
  0
LINE
  5
140
330
5E
100
AcDbEntity
  8
$DDT_AUDIT_GENERATED_(CA)
  6
Continuous
 62
     7
100
AcDbLine
 10
110.85
 20
393.3794407295
 30
0.0
 11
110.85
 21
393.0292333483
 31
0.0
  0
LINE
  5
141
330
5E
100
AcDbEntity
  8
$DDT_AUDIT_GENERATED_(CA)
  6
Continuous
 62
     7
100
AcDbLine
 10
109.85
 20
393.4494822058
 30
0.0
 11
109.85
 21
393.799689587
 31
0.0
  0
LINE
  5
142
330
5E
100
AcDbEntity
  8
$DDT_AUDIT_GENERATED_(CA)
  6
Continuous
 62
     7
100
AcDbLine
 10
109.85
 20
393.799689587
 30
0.0
 11
110.85
 21
393.799689587
 31
0.0
  0
LINE
  5
143
330
5E
100
AcDbEntity
  8
$DDT_AUDIT_GENERATED_(CA)
  6
Continuous
 62
     7
100
AcDbLine
 10
110.85
 20
393.799689587
 30
0.0
 11
110.85
 21
393.4494822058
 31
0.0
  0
LINE
  5
144
330
5E
100
AcDbEntity
  8
$DDT_AUDIT_GENERATED_(CA)
  6
Continuous
 62
     7
100
AcDbLine
 10
110.85
 20
393.4494822058
 30
0.0
 11
109.85
 21
393.4494822058
 31
0.0
  0
LINE
  5
145
330
5E
100
AcDbEntity
  8
$DDT_AUDIT_GENERATED_(CA)
  6
Continuous
 62
     7
100
AcDbLine
 10
109.85
 20
393.8697310633
 30
0.0
 11
109.85
 21
394.2199384445
 31
0.0
  0
LINE
  5
146
330
5E
100
AcDbEntity
  8
$DDT_AUDIT_GENERATED_(CA)
  6
Continuous
 62
     7
100
AcDbLine
 10
109.85
 20
394.2199384445
 30
0.0
 11
110.85
 21
394.2199384445
 31
0.0
  0
LINE
  5
147
330
5E
100
AcDbEntity
  8
$DDT_AUDIT_GENERATED_(CA)
  6
Continuous
 62
     7
100
AcDbLine
 10
110.85
 20
394.2199384445
 30
0.0
 11
110.85
 21
393.8697310633
 31
0.0
  0
LINE
  5
148
330
5E
100
AcDbEntity
  8
$DDT_AUDIT_GENERATED_(CA)
  6
Continuous
 62
     7
100
AcDbLine
 10
110.85
 20
393.8697310633
 30
0.0
 11
109.85
 21
393.8697310633
 31
0.0
  0
LINE
  5
149
330
5E
100
AcDbEntity
  8
$DDT_AUDIT_GENERATED_(CA)
  6
Continuous
 62
     7
100
AcDbLine
 10
109.85
 20
394.2899799208
 30
0.0
 11
109.85
 21
394.5152646909
 31
0.0
  0
LINE
  5
14A
330
5E
100
AcDbEntity
  8
$DDT_AUDIT_GENERATED_(CA)
  6
Continuous
 62
     7
100
AcDbLine
 10
110.1453121077
 20
394.6401873021
 30
0.0
 11
110.85
 21
394.6401873021
 31
0.0
  0
LINE
  5
14B
330
5E
100
AcDbEntity
  8
$DDT_AUDIT_GENERATED_(CA)
  6
Continuous
 62
     7
100
AcDbLine
 10
110.85
 20
394.6401873021
 30
0.0
 11
110.85
 21
394.2899799208
 31
0.0
  0
LINE
  5
14C
330
5E
100
AcDbEntity
  8
$DDT_AUDIT_GENERATED_(CA)
  6
Continuous
 62
     7
100
AcDbLine
 10
110.85
 20
394.2899799208
 30
0.0
 11
109.85
 21
394.2899799208
 31
0.0
  0
LINE
  5
14D
330
5E
100
AcDbEntity
  8
$DDT_AUDIT_GENERATED_(CA)
  6
Continuous
 62
     7
100
AcDbLine
 10
108.65
 20
393.0292333483
 30
0.0
 11
108.65
 21
393.3794407295
 31
0.0
  0
LINE
  5
14E
330
5E
100
AcDbEntity
  8
$DDT_AUDIT_GENERATED_(CA)
  6
Continuous
 62
     7
100
AcDbLine
 10
108.65
 20
393.3794407295
 30
0.0
 11
109.65
 21
393.3794407295
 31
0.0
  0
LINE
  5
14F
330
5E
100
AcDbEntity
  8
$DDT_AUDIT_GENERATED_(CA)
  6
Continuous
 62
     7
100
AcDbLine
 10
109.65
 20
393.3794407295
 30
0.0
 11
109.65
 21
393.0292333483
 31
0.0
  0
LINE
  5
150
330
5E
100
AcDbEntity
  8
$DDT_AUDIT_GENERATED_(CA)
  6
Continuous
 62
     7
100
AcDbLine
 10
108.65
 20
393.4494822058
 30
0.0
 11
108.65
 21
393.7732593999
 31
0.0
  0
LINE
  5
151
330
5E
100
AcDbEntity
  8
$DDT_AUDIT_GENERATED_(CA)
  6
Continuous
 62
     7
100
AcDbLine
 10
108.6794561193
 20
393.799689587
 30
0.0
 11
109.65
 21
393.799689587
 31
0.0
  0
LINE
  5
152
330
5E
100
AcDbEntity
  8
$DDT_AUDIT_GENERATED_(CA)
  6
Continuous
 62
     7
100
AcDbLine
 10
109.65
 20
393.799689587
 30
0.0
 11
109.65
 21
393.4494822058
 31
0.0
  0
LINE
  5
153
330
5E
100
AcDbEntity
  8
$DDT_AUDIT_GENERATED_(CA)
  6
Continuous
 62
     7
100
AcDbLine
 10
109.65
 20
393.4494822058
 30
0.0
 11
108.65
 21
393.4494822058
 31
0.0
  0
LINE
  5
154
330
5E
100
AcDbEntity
  8
$DDT_AUDIT_GENERATED_(CA)
  6
Continuous
 62
     7
100
AcDbLine
 10
109.2713209118
 20
394.2199384445
 30
0.0
 11
109.65
 21
394.2199384445
 31
0.0
  0
LINE
  5
155
330
5E
100
AcDbEntity
  8
$DDT_AUDIT_GENERATED_(CA)
  6
Continuous
 62
     7
100
AcDbLine
 10
109.65
 20
394.2199384445
 30
0.0
 11
109.65
 21
393.8697310633
 31
0.0
  0
LINE
  5
156
330
5E
100
AcDbEntity
  8
$DDT_AUDIT_GENERATED_(CA)
  6
Continuous
 62
     7
100
AcDbLine
 10
109.65
 20
393.8697310633
 30
0.0
 11
108.7616985347
 21
393.8697310633
 31
0.0
  0
LINE
  5
157
330
5E
100
AcDbEntity
  8
$DDT_AUDIT_GENERATED_(CA)
  6
Continuous
 62
     7
100
AcDbLine
 10
108.3071902162
 20
393.3794407295
 30
0.0
 11
108.45
 21
393.3794407295
 31
0.0
  0
LINE
  5
158
330
5E
100
AcDbEntity
  8
$DDT_AUDIT_GENERATED_(CA)
  6
Continuous
 62
     7
100
AcDbLine
 10
108.45
 20
393.3794407295
 30
0.0
 11
108.45
 21
393.0292333483
 31
0.0
  0
LINE
  5
159
330
5E
100
AcDbEntity
  8
$DDT_AUDIT_GENERATED_(CA)
  6
Continuous
 62
     7
100
AcDbLine
 10
108.45
 20
393.5686185329
 30
0.0
 11
108.45
 21
393.4494822058
 31
0.0
  0
LINE
  5
15A
330
5E
100
AcDbEntity
  8
$DDT_AUDIT_GENERATED_(CA)
  6
Continuous
 62
     7
100
AcDbLine
 10
108.45
 20
393.4494822058
 30
0.0
 11
108.3555103402
 21
393.4494822058
 31
0.0
  0
LINE
  5
15B
330
5E
100
AcDbEntity
  8
$DDT_AUDIT_GENERATED_(CA)
  6
Continuous
 62
     7
100
AcDbLine
 10
109.65
 20
394.4218230363
 30
0.0
 11
109.65
 21
394.2899799208
 31
0.0
  0
LINE
  5
15C
330
5E
100
AcDbEntity
  8
$DDT_AUDIT_GENERATED_(CA)
  6
Continuous
 62
     7
100
AcDbLine
 10
109.65
 20
394.2899799208
 30
0.0
 11
109.3949462019
 21
394.2899799208
 31
0.0
  0
LINE
  5
15D
330
5E
100
AcDbEntity
  8
$DDT_AUDIT_GENERATED_(CA)
  6
Continuous
 62
     7
100
AcDbLine
 10
110.85
 20
394.8894915987
 30
0.0
 11
110.85
 21
394.7102287783
 31
0.0
  0
LINE
  5
15E
330
5E
100
AcDbEntity
  8
$DDT_AUDIT_GENERATED_(CA)
  6
Continuous
 62
     7
100
AcDbLine
 10
110.85
 20
394.7102287783
 30
0.0
 11
110.3264439455
 21
394.7102287783
 31
0.0
  0
LINE
  5
15F
330
5E
100
AcDbEntity
  8
$DDT_AUDIT_GENERATED_(CA)
  6
Continuous
 62
     7
100
AcDbLine
 10
112.05
 20
395.2017320057
 30
0.0
 11
112.05
 21
395.1304776358
 31
0.0
  0
LINE
  5
160
330
5E
100
AcDbEntity
  8
$DDT_AUDIT_GENERATED_(CA)
  6
Continuous
 62
     7
100
AcDbLine
 10
112.05
 20
395.1304776358
 30
0.0
 11
111.733325683
 21
395.1304776358
 31
0.0
  0
LINE
  5
161
330
5E
100
AcDbEntity
  8
$DDT_AUDIT_GENERATED_(CA)
  6
Continuous
 62
     7
100
AcDbLine
 10
116.85
 20
393.3794407295
 30
0.0
 11
116.85
 21
393.0292333483
 31
0.0
  0
LINE
  5
162
330
5E
100
AcDbEntity
  8
$DDT_AUDIT_GENERATED_(CA)
  6
Continuous
 62
     7
100
AcDbLine
 10
117.05
 20
393.3794407295
 30
0.0
 11
118.05
 21
393.3794407295
 31
0.0
  0
LINE
  5
163
330
5E
100
AcDbEntity
  8
$DDT_AUDIT_GENERATED_(CA)
  6
Continuous
 62
     7
100
AcDbLine
 10
118.05
 20
393.3794407295
 30
0.0
 11
118.05
 21
393.0292333483
 31
0.0
  0
LINE
  5
164
330
5E
100
AcDbEntity
  8
$DDT_AUDIT_GENERATED_(CA)
  6
Continuous
 62
     7
100
AcDbLine
 10
117.05
 20
393.0292333483
 30
0.0
 11
117.05
 21
393.3794407295
 31
0.0
  0
LINE
  5
165
330
5E
100
AcDbEntity
  8
$DDT_AUDIT_GENERATED_(CA)
  6
Continuous
 62
     7
100
AcDbLine
 10
118.25
 20
393.3794407295
 30
0.0
 11
119.25
 21
393.3794407295
 31
0.0
  0
LINE
  5
166
330
5E
100
AcDbEntity
  8
$DDT_AUDIT_GENERATED_(CA)
  6
Continuous
 62
     7
100
AcDbLine
 10
119.25
 20
393.3794407295
 30
0.0
 11
119.25
 21
393.0292333483
 31
0.0
  0
LINE
  5
167
330
5E
100
AcDbEntity
  8
$DDT_AUDIT_GENERATED_(CA)
  6
Continuous
 62
     7
100
AcDbLine
 10
118.25
 20
393.0292333483
 30
0.0
 11
118.25
 21
393.3794407295
 31
0.0
  0
LINE
  5
168
330
5E
100
AcDbEntity
  8
$DDT_AUDIT_GENERATED_(CA)
  6
Continuous
 62
     7
100
AcDbLine
 10
119.45
 20
393.3794407295
 30
0.0
 11
120.45
 21
393.3794407295
 31
0.0
  0
LINE
  5
169
330
5E
100
AcDbEntity
  8
$DDT_AUDIT_GENERATED_(CA)
  6
Continuous
 62
     7
100
AcDbLine
 10
120.45
 20
393.3794407295
 30
0.0
 11
120.45
 21
393.0292333483
 31
0.0
  0
LINE
  5
16A
330
5E
100
AcDbEntity
  8
$DDT_AUDIT_GENERATED_(CA)
  6
Continuous
 62
     7
100
AcDbLine
 10
119.45
 20
393.0292333483
 30
0.0
 11
119.45
 21
393.3794407295
 31
0.0
  0
LINE
  5
16B
330
5E
100
AcDbEntity
  8
$DDT_AUDIT_GENERATED_(CA)
  6
Continuous
 62
     7
100
AcDbLine
 10
120.65
 20
393.3794407295
 30
0.0
 11
121.65
 21
393.3794407295
 31
0.0
  0
LINE
  5
16C
330
5E
100
AcDbEntity
  8
$DDT_AUDIT_GENERATED_(CA)
  6
Continuous
 62
     7
100
AcDbLine
 10
121.65
 20
393.3794407295
 30
0.0
 11
121.65
 21
393.0292333483
 31
0.0
  0
LINE
  5
16D
330
5E
100
AcDbEntity
  8
$DDT_AUDIT_GENERATED_(CA)
  6
Continuous
 62
     7
100
AcDbLine
 10
120.65
 20
393.0292333483
 30
0.0
 11
120.65
 21
393.3794407295
 31
0.0
  0
LINE
  5
16E
330
5E
100
AcDbEntity
  8
$DDT_AUDIT_GENERATED_(CA)
  6
Continuous
 62
     7
100
AcDbLine
 10
121.85
 20
393.3794407295
 30
0.0
 11
122.85
 21
393.3794407295
 31
0.0
  0
LINE
  5
16F
330
5E
100
AcDbEntity
  8
$DDT_AUDIT_GENERATED_(CA)
  6
Continuous
 62
     7
100
AcDbLine
 10
122.85
 20
393.3794407295
 30
0.0
 11
122.85
 21
393.0292333483
 31
0.0
  0
LINE
  5
170
330
5E
100
AcDbEntity
  8
$DDT_AUDIT_GENERATED_(CA)
  6
Continuous
 62
     7
100
AcDbLine
 10
121.85
 20
393.0292333483
 30
0.0
 11
121.85
 21
393.3794407295
 31
0.0
  0
LINE
  5
171
330
5E
100
AcDbEntity
  8
$DDT_AUDIT_GENERATED_(CA)
  6
Continuous
 62
     7
100
AcDbLine
 10
124.05
 20
393.3794407295
 30
0.0
 11
124.05
 21
393.0292333483
 31
0.0
  0
LINE
  5
172
330
5E
100
AcDbEntity
  8
$DDT_AUDIT_GENERATED_(CA)
  6
Continuous
 62
     7
100
AcDbLine
 10
123.05
 20
393.3794407295
 30
0.0
 11
124.05
 21
393.3794407295
 31
0.0
  0
LINE
  5
173
330
5E
100
AcDbEntity
  8
$DDT_AUDIT_GENERATED_(CA)
  6
Continuous
 62
     7
100
AcDbLine
 10
123.05
 20
393.0292333483
 30
0.0
 11
123.05
 21
393.3794407295
 31
0.0
  0
LINE
  5
174
330
5E
100
AcDbEntity
  8
$DDT_AUDIT_GENERATED_(CA)
  6
Continuous
 62
     7
100
AcDbLine
 10
116.85
 20
393.799689587
 30
0.0
 11
116.85
 21
393.4494822058
 31
0.0
  0
LINE
  5
175
330
5E
100
AcDbEntity
  8
$DDT_AUDIT_GENERATED_(CA)
  6
Continuous
 62
     7
100
AcDbLine
 10
117.05
 20
393.799689587
 30
0.0
 11
118.05
 21
393.799689587
 31
0.0
  0
LINE
  5
176
330
5E
100
AcDbEntity
  8
$DDT_AUDIT_GENERATED_(CA)
  6
Continuous
 62
     7
100
AcDbLine
 10
118.05
 20
393.799689587
 30
0.0
 11
118.05
 21
393.4494822058
 31
0.0
  0
LINE
  5
177
330
5E
100
AcDbEntity
  8
$DDT_AUDIT_GENERATED_(CA)
  6
Continuous
 62
     7
100
AcDbLine
 10
118.05
 20
393.4494822058
 30
0.0
 11
117.05
 21
393.4494822058
 31
0.0
  0
LINE
  5
178
330
5E
100
AcDbEntity
  8
$DDT_AUDIT_GENERATED_(CA)
  6
Continuous
 62
     7
100
AcDbLine
 10
117.05
 20
393.4494822058
 30
0.0
 11
117.05
 21
393.799689587
 31
0.0
  0
LINE
  5
179
330
5E
100
AcDbEntity
  8
$DDT_AUDIT_GENERATED_(CA)
  6
Continuous
 62
     7
100
AcDbLine
 10
118.25
 20
393.799689587
 30
0.0
 11
119.25
 21
393.799689587
 31
0.0
  0
LINE
  5
17A
330
5E
100
AcDbEntity
  8
$DDT_AUDIT_GENERATED_(CA)
  6
Continuous
 62
     7
100
AcDbLine
 10
119.25
 20
393.799689587
 30
0.0
 11
119.25
 21
393.4494822058
 31
0.0
  0
LINE
  5
17B
330
5E
100
AcDbEntity
  8
$DDT_AUDIT_GENERATED_(CA)
  6
Continuous
 62
     7
100
AcDbLine
 10
119.25
 20
393.4494822058
 30
0.0
 11
118.25
 21
393.4494822058
 31
0.0
  0
LINE
  5
17C
330
5E
100
AcDbEntity
  8
$DDT_AUDIT_GENERATED_(CA)
  6
Continuous
 62
     7
100
AcDbLine
 10
118.25
 20
393.4494822058
 30
0.0
 11
118.25
 21
393.799689587
 31
0.0
  0
LINE
  5
17D
330
5E
100
AcDbEntity
  8
$DDT_AUDIT_GENERATED_(CA)
  6
Continuous
 62
     7
100
AcDbLine
 10
119.45
 20
393.799689587
 30
0.0
 11
120.45
 21
393.799689587
 31
0.0
  0
LINE
  5
17E
330
5E
100
AcDbEntity
  8
$DDT_AUDIT_GENERATED_(CA)
  6
Continuous
 62
     7
100
AcDbLine
 10
120.45
 20
393.799689587
 30
0.0
 11
120.45
 21
393.4494822058
 31
0.0
  0
LINE
  5
17F
330
5E
100
AcDbEntity
  8
$DDT_AUDIT_GENERATED_(CA)
  6
Continuous
 62
     7
100
AcDbLine
 10
120.45
 20
393.4494822058
 30
0.0
 11
119.45
 21
393.4494822058
 31
0.0
  0
LINE
  5
180
330
5E
100
AcDbEntity
  8
$DDT_AUDIT_GENERATED_(CA)
  6
Continuous
 62
     7
100
AcDbLine
 10
119.45
 20
393.4494822058
 30
0.0
 11
119.45
 21
393.799689587
 31
0.0
  0
LINE
  5
181
330
5E
100
AcDbEntity
  8
$DDT_AUDIT_GENERATED_(CA)
  6
Continuous
 62
     7
100
AcDbLine
 10
120.65
 20
393.799689587
 30
0.0
 11
121.65
 21
393.799689587
 31
0.0
  0
LINE
  5
182
330
5E
100
AcDbEntity
  8
$DDT_AUDIT_GENERATED_(CA)
  6
Continuous
 62
     7
100
AcDbLine
 10
121.65
 20
393.799689587
 30
0.0
 11
121.65
 21
393.4494822058
 31
0.0
  0
LINE
  5
183
330
5E
100
AcDbEntity
  8
$DDT_AUDIT_GENERATED_(CA)
  6
Continuous
 62
     7
100
AcDbLine
 10
121.65
 20
393.4494822058
 30
0.0
 11
120.65
 21
393.4494822058
 31
0.0
  0
LINE
  5
184
330
5E
100
AcDbEntity
  8
$DDT_AUDIT_GENERATED_(CA)
  6
Continuous
 62
     7
100
AcDbLine
 10
120.65
 20
393.4494822058
 30
0.0
 11
120.65
 21
393.799689587
 31
0.0
  0
LINE
  5
185
330
5E
100
AcDbEntity
  8
$DDT_AUDIT_GENERATED_(CA)
  6
Continuous
 62
     7
100
AcDbLine
 10
121.85
 20
393.799689587
 30
0.0
 11
122.85
 21
393.799689587
 31
0.0
  0
LINE
  5
186
330
5E
100
AcDbEntity
  8
$DDT_AUDIT_GENERATED_(CA)
  6
Continuous
 62
     7
100
AcDbLine
 10
122.85
 20
393.799689587
 30
0.0
 11
122.85
 21
393.4494822058
 31
0.0
  0
LINE
  5
187
330
5E
100
AcDbEntity
  8
$DDT_AUDIT_GENERATED_(CA)
  6
Continuous
 62
     7
100
AcDbLine
 10
122.85
 20
393.4494822058
 30
0.0
 11
121.85
 21
393.4494822058
 31
0.0
  0
LINE
  5
188
330
5E
100
AcDbEntity
  8
$DDT_AUDIT_GENERATED_(CA)
  6
Continuous
 62
     7
100
AcDbLine
 10
121.85
 20
393.4494822058
 30
0.0
 11
121.85
 21
393.799689587
 31
0.0
  0
LINE
  5
189
330
5E
100
AcDbEntity
  8
$DDT_AUDIT_GENERATED_(CA)
  6
Continuous
 62
     7
100
AcDbLine
 10
123.05
 20
393.799689587
 30
0.0
 11
124.0205438807
 21
393.799689587
 31
0.0
  0
LINE
  5
18A
330
5E
100
AcDbEntity
  8
$DDT_AUDIT_GENERATED_(CA)
  6
Continuous
 62
     7
100
AcDbLine
 10
124.05
 20
393.7732593999
 30
0.0
 11
124.05
 21
393.4494822058
 31
0.0
  0
LINE
  5
18B
330
5E
100
AcDbEntity
  8
$DDT_AUDIT_GENERATED_(CA)
  6
Continuous
 62
     7
100
AcDbLine
 10
124.05
 20
393.4494822058
 30
0.0
 11
123.05
 21
393.4494822058
 31
0.0
  0
LINE
  5
18C
330
5E
100
AcDbEntity
  8
$DDT_AUDIT_GENERATED_(CA)
  6
Continuous
 62
     7
100
AcDbLine
 10
123.05
 20
393.4494822058
 30
0.0
 11
123.05
 21
393.799689587
 31
0.0
  0
LINE
  5
18D
330
5E
100
AcDbEntity
  8
$DDT_AUDIT_GENERATED_(CA)
  6
Continuous
 62
     7
100
AcDbLine
 10
116.85
 20
394.2199384445
 30
0.0
 11
116.85
 21
393.8697310633
 31
0.0
  0
LINE
  5
18E
330
5E
100
AcDbEntity
  8
$DDT_AUDIT_GENERATED_(CA)
  6
Continuous
 62
     7
100
AcDbLine
 10
117.05
 20
394.2199384445
 30
0.0
 11
118.05
 21
394.2199384445
 31
0.0
  0
LINE
  5
18F
330
5E
100
AcDbEntity
  8
$DDT_AUDIT_GENERATED_(CA)
  6
Continuous
 62
     7
100
AcDbLine
 10
118.05
 20
394.2199384445
 30
0.0
 11
118.05
 21
393.8697310633
 31
0.0
  0
LINE
  5
190
330
5E
100
AcDbEntity
  8
$DDT_AUDIT_GENERATED_(CA)
  6
Continuous
 62
     7
100
AcDbLine
 10
118.05
 20
393.8697310633
 30
0.0
 11
117.05
 21
393.8697310633
 31
0.0
  0
LINE
  5
191
330
5E
100
AcDbEntity
  8
$DDT_AUDIT_GENERATED_(CA)
  6
Continuous
 62
     7
100
AcDbLine
 10
117.05
 20
393.8697310633
 30
0.0
 11
117.05
 21
394.2199384445
 31
0.0
  0
LINE
  5
192
330
5E
100
AcDbEntity
  8
$DDT_AUDIT_GENERATED_(CA)
  6
Continuous
 62
     7
100
AcDbLine
 10
118.25
 20
394.2199384445
 30
0.0
 11
119.25
 21
394.2199384445
 31
0.0
  0
LINE
  5
193
330
5E
100
AcDbEntity
  8
$DDT_AUDIT_GENERATED_(CA)
  6
Continuous
 62
     7
100
AcDbLine
 10
119.25
 20
394.2199384445
 30
0.0
 11
119.25
 21
393.8697310633
 31
0.0
  0
LINE
  5
194
330
5E
100
AcDbEntity
  8
$DDT_AUDIT_GENERATED_(CA)
  6
Continuous
 62
     7
100
AcDbLine
 10
119.25
 20
393.8697310633
 30
0.0
 11
118.25
 21
393.8697310633
 31
0.0
  0
LINE
  5
195
330
5E
100
AcDbEntity
  8
$DDT_AUDIT_GENERATED_(CA)
  6
Continuous
 62
     7
100
AcDbLine
 10
118.25
 20
393.8697310633
 30
0.0
 11
118.25
 21
394.2199384445
 31
0.0
  0
LINE
  5
196
330
5E
100
AcDbEntity
  8
$DDT_AUDIT_GENERATED_(CA)
  6
Continuous
 62
     7
100
AcDbLine
 10
119.45
 20
394.2199384445
 30
0.0
 11
120.45
 21
394.2199384445
 31
0.0
  0
LINE
  5
197
330
5E
100
AcDbEntity
  8
$DDT_AUDIT_GENERATED_(CA)
  6
Continuous
 62
     7
100
AcDbLine
 10
120.45
 20
394.2199384445
 30
0.0
 11
120.45
 21
393.8697310633
 31
0.0
  0
LINE
  5
198
330
5E
100
AcDbEntity
  8
$DDT_AUDIT_GENERATED_(CA)
  6
Continuous
 62
     7
100
AcDbLine
 10
120.45
 20
393.8697310633
 30
0.0
 11
119.45
 21
393.8697310633
 31
0.0
  0
LINE
  5
199
330
5E
100
AcDbEntity
  8
$DDT_AUDIT_GENERATED_(CA)
  6
Continuous
 62
     7
100
AcDbLine
 10
119.45
 20
393.8697310633
 30
0.0
 11
119.45
 21
394.2199384445
 31
0.0
  0
LINE
  5
19A
330
5E
100
AcDbEntity
  8
$DDT_AUDIT_GENERATED_(CA)
  6
Continuous
 62
     7
100
AcDbLine
 10
120.65
 20
394.2199384445
 30
0.0
 11
121.65
 21
394.2199384445
 31
0.0
  0
LINE
  5
19B
330
5E
100
AcDbEntity
  8
$DDT_AUDIT_GENERATED_(CA)
  6
Continuous
 62
     7
100
AcDbLine
 10
121.65
 20
394.2199384445
 30
0.0
 11
121.65
 21
393.8697310633
 31
0.0
  0
LINE
  5
19C
330
5E
100
AcDbEntity
  8
$DDT_AUDIT_GENERATED_(CA)
  6
Continuous
 62
     7
100
AcDbLine
 10
121.65
 20
393.8697310633
 30
0.0
 11
120.65
 21
393.8697310633
 31
0.0
  0
LINE
  5
19D
330
5E
100
AcDbEntity
  8
$DDT_AUDIT_GENERATED_(CA)
  6
Continuous
 62
     7
100
AcDbLine
 10
120.65
 20
393.8697310633
 30
0.0
 11
120.65
 21
394.2199384445
 31
0.0
  0
LINE
  5
19E
330
5E
100
AcDbEntity
  8
$DDT_AUDIT_GENERATED_(CA)
  6
Continuous
 62
     7
100
AcDbLine
 10
121.85
 20
394.2199384445
 30
0.0
 11
122.85
 21
394.2199384445
 31
0.0
  0
LINE
  5
19F
330
5E
100
AcDbEntity
  8
$DDT_AUDIT_GENERATED_(CA)
  6
Continuous
 62
     7
100
AcDbLine
 10
122.85
 20
394.2199384445
 30
0.0
 11
122.85
 21
393.8697310633
 31
0.0
  0
LINE
  5
1A0
330
5E
100
AcDbEntity
  8
$DDT_AUDIT_GENERATED_(CA)
  6
Continuous
 62
     7
100
AcDbLine
 10
122.85
 20
393.8697310633
 30
0.0
 11
121.85
 21
393.8697310633
 31
0.0
  0
LINE
  5
1A1
330
5E
100
AcDbEntity
  8
$DDT_AUDIT_GENERATED_(CA)
  6
Continuous
 62
     7
100
AcDbLine
 10
121.85
 20
393.8697310633
 30
0.0
 11
121.85
 21
394.2199384445
 31
0.0
  0
LINE
  5
1A2
330
5E
100
AcDbEntity
  8
$DDT_AUDIT_GENERATED_(CA)
  6
Continuous
 62
     7
100
AcDbLine
 10
116.85
 20
394.6401873021
 30
0.0
 11
116.85
 21
394.2899799208
 31
0.0
  0
LINE
  5
1A3
330
5E
100
AcDbEntity
  8
$DDT_AUDIT_GENERATED_(CA)
  6
Continuous
 62
     7
100
AcDbLine
 10
117.05
 20
394.6401873021
 30
0.0
 11
118.05
 21
394.6401873021
 31
0.0
  0
LINE
  5
1A4
330
5E
100
AcDbEntity
  8
$DDT_AUDIT_GENERATED_(CA)
  6
Continuous
 62
     7
100
AcDbLine
 10
118.05
 20
394.6401873021
 30
0.0
 11
118.05
 21
394.2899799208
 31
0.0
  0
LINE
  5
1A5
330
5E
100
AcDbEntity
  8
$DDT_AUDIT_GENERATED_(CA)
  6
Continuous
 62
     7
100
AcDbLine
 10
118.05
 20
394.2899799208
 30
0.0
 11
117.05
 21
394.2899799208
 31
0.0
  0
LINE
  5
1A6
330
5E
100
AcDbEntity
  8
$DDT_AUDIT_GENERATED_(CA)
  6
Continuous
 62
     7
100
AcDbLine
 10
117.05
 20
394.2899799208
 30
0.0
 11
117.05
 21
394.6401873021
 31
0.0
  0
LINE
  5
1A7
330
5E
100
AcDbEntity
  8
$DDT_AUDIT_GENERATED_(CA)
  6
Continuous
 62
     7
100
AcDbLine
 10
118.25
 20
394.6401873021
 30
0.0
 11
119.25
 21
394.6401873021
 31
0.0
  0
LINE
  5
1A8
330
5E
100
AcDbEntity
  8
$DDT_AUDIT_GENERATED_(CA)
  6
Continuous
 62
     7
100
AcDbLine
 10
119.25
 20
394.6401873021
 30
0.0
 11
119.25
 21
394.2899799208
 31
0.0
  0
LINE
  5
1A9
330
5E
100
AcDbEntity
  8
$DDT_AUDIT_GENERATED_(CA)
  6
Continuous
 62
     7
100
AcDbLine
 10
119.25
 20
394.2899799208
 30
0.0
 11
118.25
 21
394.2899799208
 31
0.0
  0
LINE
  5
1AA
330
5E
100
AcDbEntity
  8
$DDT_AUDIT_GENERATED_(CA)
  6
Continuous
 62
     7
100
AcDbLine
 10
118.25
 20
394.2899799208
 30
0.0
 11
118.25
 21
394.6401873021
 31
0.0
  0
LINE
  5
1AB
330
5E
100
AcDbEntity
  8
$DDT_AUDIT_GENERATED_(CA)
  6
Continuous
 62
     7
100
AcDbLine
 10
119.45
 20
394.6401873021
 30
0.0
 11
120.45
 21
394.6401873021
 31
0.0
  0
LINE
  5
1AC
330
5E
100
AcDbEntity
  8
$DDT_AUDIT_GENERATED_(CA)
  6
Continuous
 62
     7
100
AcDbLine
 10
120.45
 20
394.6401873021
 30
0.0
 11
120.45
 21
394.2899799208
 31
0.0
  0
LINE
  5
1AD
330
5E
100
AcDbEntity
  8
$DDT_AUDIT_GENERATED_(CA)
  6
Continuous
 62
     7
100
AcDbLine
 10
120.45
 20
394.2899799208
 30
0.0
 11
119.45
 21
394.2899799208
 31
0.0
  0
LINE
  5
1AE
330
5E
100
AcDbEntity
  8
$DDT_AUDIT_GENERATED_(CA)
  6
Continuous
 62
     7
100
AcDbLine
 10
119.45
 20
394.2899799208
 30
0.0
 11
119.45
 21
394.6401873021
 31
0.0
  0
LINE
  5
1AF
330
5E
100
AcDbEntity
  8
$DDT_AUDIT_GENERATED_(CA)
  6
Continuous
 62
     7
100
AcDbLine
 10
120.65
 20
394.6401873021
 30
0.0
 11
121.65
 21
394.6401873021
 31
0.0
  0
LINE
  5
1B0
330
5E
100
AcDbEntity
  8
$DDT_AUDIT_GENERATED_(CA)
  6
Continuous
 62
     7
100
AcDbLine
 10
121.65
 20
394.6401873021
 30
0.0
 11
121.65
 21
394.2899799208
 31
0.0
  0
LINE
  5
1B1
330
5E
100
AcDbEntity
  8
$DDT_AUDIT_GENERATED_(CA)
  6
Continuous
 62
     7
100
AcDbLine
 10
121.65
 20
394.2899799208
 30
0.0
 11
120.65
 21
394.2899799208
 31
0.0
  0
LINE
  5
1B2
330
5E
100
AcDbEntity
  8
$DDT_AUDIT_GENERATED_(CA)
  6
Continuous
 62
     7
100
AcDbLine
 10
120.65
 20
394.2899799208
 30
0.0
 11
120.65
 21
394.6401873021
 31
0.0
  0
LINE
  5
1B3
330
5E
100
AcDbEntity
  8
$DDT_AUDIT_GENERATED_(CA)
  6
Continuous
 62
     7
100
AcDbLine
 10
122.85
 20
394.5152646909
 30
0.0
 11
122.85
 21
394.2899799208
 31
0.0
  0
LINE
  5
1B4
330
5E
100
AcDbEntity
  8
$DDT_AUDIT_GENERATED_(CA)
  6
Continuous
 62
     7
100
AcDbLine
 10
121.85
 20
394.6401873021
 30
0.0
 11
122.5546878923
 21
394.6401873021
 31
0.0
  0
LINE
  5
1B5
330
5E
100
AcDbEntity
  8
$DDT_AUDIT_GENERATED_(CA)
  6
Continuous
 62
     7
100
AcDbLine
 10
122.85
 20
394.2899799208
 30
0.0
 11
121.85
 21
394.2899799208
 31
0.0
  0
LINE
  5
1B6
330
5E
100
AcDbEntity
  8
$DDT_AUDIT_GENERATED_(CA)
  6
Continuous
 62
     7
100
AcDbLine
 10
121.85
 20
394.2899799208
 30
0.0
 11
121.85
 21
394.6401873021
 31
0.0
  0
LINE
  5
1B7
330
5E
100
AcDbEntity
  8
$DDT_AUDIT_GENERATED_(CA)
  6
Continuous
 62
     7
100
AcDbLine
 10
116.85
 20
395.0604361596
 30
0.0
 11
116.85
 21
394.7102287783
 31
0.0
  0
LINE
  5
1B8
330
5E
100
AcDbEntity
  8
$DDT_AUDIT_GENERATED_(CA)
  6
Continuous
 62
     7
100
AcDbLine
 10
117.05
 20
395.0604361596
 30
0.0
 11
118.05
 21
395.0604361596
 31
0.0
  0
LINE
  5
1B9
330
5E
100
AcDbEntity
  8
$DDT_AUDIT_GENERATED_(CA)
  6
Continuous
 62
     7
100
AcDbLine
 10
118.05
 20
395.0604361596
 30
0.0
 11
118.05
 21
394.7102287783
 31
0.0
  0
LINE
  5
1BA
330
5E
100
AcDbEntity
  8
$DDT_AUDIT_GENERATED_(CA)
  6
Continuous
 62
     7
100
AcDbLine
 10
118.05
 20
394.7102287783
 30
0.0
 11
117.05
 21
394.7102287783
 31
0.0
  0
LINE
  5
1BB
330
5E
100
AcDbEntity
  8
$DDT_AUDIT_GENERATED_(CA)
  6
Continuous
 62
     7
100
AcDbLine
 10
117.05
 20
394.7102287783
 30
0.0
 11
117.05
 21
395.0604361596
 31
0.0
  0
LINE
  5
1BC
330
5E
100
AcDbEntity
  8
$DDT_AUDIT_GENERATED_(CA)
  6
Continuous
 62
     7
100
AcDbLine
 10
118.25
 20
395.0604361596
 30
0.0
 11
119.25
 21
395.0604361596
 31
0.0
  0
LINE
  5
1BD
330
5E
100
AcDbEntity
  8
$DDT_AUDIT_GENERATED_(CA)
  6
Continuous
 62
     7
100
AcDbLine
 10
119.25
 20
395.0604361596
 30
0.0
 11
119.25
 21
394.7102287783
 31
0.0
  0
LINE
  5
1BE
330
5E
100
AcDbEntity
  8
$DDT_AUDIT_GENERATED_(CA)
  6
Continuous
 62
     7
100
AcDbLine
 10
119.25
 20
394.7102287783
 30
0.0
 11
118.25
 21
394.7102287783
 31
0.0
  0
LINE
  5
1BF
330
5E
100
AcDbEntity
  8
$DDT_AUDIT_GENERATED_(CA)
  6
Continuous
 62
     7
100
AcDbLine
 10
118.25
 20
394.7102287783
 30
0.0
 11
118.25
 21
395.0604361596
 31
0.0
  0
LINE
  5
1C0
330
5E
100
AcDbEntity
  8
$DDT_AUDIT_GENERATED_(CA)
  6
Continuous
 62
     7
100
AcDbLine
 10
119.45
 20
395.0604361596
 30
0.0
 11
120.45
 21
395.0604361596
 31
0.0
  0
LINE
  5
1C1
330
5E
100
AcDbEntity
  8
$DDT_AUDIT_GENERATED_(CA)
  6
Continuous
 62
     7
100
AcDbLine
 10
120.45
 20
395.0604361596
 30
0.0
 11
120.45
 21
394.7102287783
 31
0.0
  0
LINE
  5
1C2
330
5E
100
AcDbEntity
  8
$DDT_AUDIT_GENERATED_(CA)
  6
Continuous
 62
     7
100
AcDbLine
 10
120.45
 20
394.7102287783
 30
0.0
 11
119.45
 21
394.7102287783
 31
0.0
  0
LINE
  5
1C3
330
5E
100
AcDbEntity
  8
$DDT_AUDIT_GENERATED_(CA)
  6
Continuous
 62
     7
100
AcDbLine
 10
119.45
 20
394.7102287783
 30
0.0
 11
119.45
 21
395.0604361596
 31
0.0
  0
LINE
  5
1C4
330
5E
100
AcDbEntity
  8
$DDT_AUDIT_GENERATED_(CA)
  6
Continuous
 62
     7
100
AcDbLine
 10
120.65
 20
395.0604361596
 30
0.0
 11
121.249857758
 21
395.0604361596
 31
0.0
  0
LINE
  5
1C5
330
5E
100
AcDbEntity
  8
$DDT_AUDIT_GENERATED_(CA)
  6
Continuous
 62
     7
100
AcDbLine
 10
121.65
 20
394.9501453958
 30
0.0
 11
121.65
 21
394.7102287783
 31
0.0
  0
LINE
  5
1C6
330
5E
100
AcDbEntity
  8
$DDT_AUDIT_GENERATED_(CA)
  6
Continuous
 62
     7
100
AcDbLine
 10
121.65
 20
394.7102287783
 30
0.0
 11
120.65
 21
394.7102287783
 31
0.0
  0
LINE
  5
1C7
330
5E
100
AcDbEntity
  8
$DDT_AUDIT_GENERATED_(CA)
  6
Continuous
 62
     7
100
AcDbLine
 10
120.65
 20
394.7102287783
 30
0.0
 11
120.65
 21
395.0604361596
 31
0.0
  0
LINE
  5
1C8
330
5E
100
AcDbEntity
  8
$DDT_AUDIT_GENERATED_(CA)
  6
Continuous
 62
     7
100
AcDbLine
 10
116.85
 20
395.4806850171
 30
0.0
 11
116.85
 21
395.1304776358
 31
0.0
  0
LINE
  5
1C9
330
5E
100
AcDbEntity
  8
$DDT_AUDIT_GENERATED_(CA)
  6
Continuous
 62
     7
100
AcDbLine
 10
117.05
 20
395.4806850171
 30
0.0
 11
118.05
 21
395.4806850171
 31
0.0
  0
LINE
  5
1CA
330
5E
100
AcDbEntity
  8
$DDT_AUDIT_GENERATED_(CA)
  6
Continuous
 62
     7
100
AcDbLine
 10
118.05
 20
395.4806850171
 30
0.0
 11
118.05
 21
395.1304776358
 31
0.0
  0
LINE
  5
1CB
330
5E
100
AcDbEntity
  8
$DDT_AUDIT_GENERATED_(CA)
  6
Continuous
 62
     7
100
AcDbLine
 10
118.05
 20
395.1304776358
 30
0.0
 11
117.05
 21
395.1304776358
 31
0.0
  0
LINE
  5
1CC
330
5E
100
AcDbEntity
  8
$DDT_AUDIT_GENERATED_(CA)
  6
Continuous
 62
     7
100
AcDbLine
 10
117.05
 20
395.1304776358
 30
0.0
 11
117.05
 21
395.4806850171
 31
0.0
  0
LINE
  5
1CD
330
5E
100
AcDbEntity
  8
$DDT_AUDIT_GENERATED_(CA)
  6
Continuous
 62
     7
100
AcDbLine
 10
118.25
 20
395.4806850171
 30
0.0
 11
118.9266373931
 21
395.4806850171
 31
0.0
  0
LINE
  5
1CE
330
5E
100
AcDbEntity
  8
$DDT_AUDIT_GENERATED_(CA)
  6
Continuous
 62
     7
100
AcDbLine
 10
119.25
 20
395.440828736
 30
0.0
 11
119.25
 21
395.1304776358
 31
0.0
  0
LINE
  5
1CF
330
5E
100
AcDbEntity
  8
$DDT_AUDIT_GENERATED_(CA)
  6
Continuous
 62
     7
100
AcDbLine
 10
119.25
 20
395.1304776358
 30
0.0
 11
118.25
 21
395.1304776358
 31
0.0
  0
LINE
  5
1D0
330
5E
100
AcDbEntity
  8
$DDT_AUDIT_GENERATED_(CA)
  6
Continuous
 62
     7
100
AcDbLine
 10
118.25
 20
395.1304776358
 30
0.0
 11
118.25
 21
395.4806850171
 31
0.0
  0
LINE
  5
1D1
330
5E
100
AcDbEntity
  8
$DDT_AUDIT_GENERATED_(CA)
  6
Continuous
 62
     7
100
AcDbLine
 10
120.45
 20
395.2431654023
 30
0.0
 11
120.45
 21
395.1304776358
 31
0.0
  0
LINE
  5
1D2
330
5E
100
AcDbEntity
  8
$DDT_AUDIT_GENERATED_(CA)
  6
Continuous
 62
     7
100
AcDbLine
 10
120.45
 20
395.1304776358
 30
0.0
 11
119.45
 21
395.1304776358
 31
0.0
  0
LINE
  5
1D3
330
5E
100
AcDbEntity
  8
$DDT_AUDIT_GENERATED_(CA)
  6
Continuous
 62
     7
100
AcDbLine
 10
119.45
 20
395.1304776358
 30
0.0
 11
119.45
 21
395.4134846755
 31
0.0
  0
LINE
  5
1D4
330
5E
100
AcDbEntity
  8
$DDT_AUDIT_GENERATED_(CA)
  6
Continuous
 62
     7
100
AcDbLine
 10
116.85
 20
395.6199007857
 30
0.0
 11
116.85
 21
395.5507264933
 31
0.0
  0
LINE
  5
1D5
330
5E
100
AcDbEntity
  8
$DDT_AUDIT_GENERATED_(CA)
  6
Continuous
 62
     7
100
AcDbLine
 10
118.05
 20
395.5632071521
 30
0.0
 11
118.05
 21
395.5507264933
 31
0.0
  0
LINE
  5
1D6
330
5E
100
AcDbEntity
  8
$DDT_AUDIT_GENERATED_(CA)
  6
Continuous
 62
     7
100
AcDbLine
 10
118.05
 20
395.5507264933
 30
0.0
 11
117.05
 21
395.5507264933
 31
0.0
  0
LINE
  5
1D7
330
5E
100
AcDbEntity
  8
$DDT_AUDIT_GENERATED_(CA)
  6
Continuous
 62
     7
100
AcDbLine
 10
117.05
 20
395.5507264933
 30
0.0
 11
117.05
 21
395.6147929557
 31
0.0
  0
LINE
  5
1D8
330
5E
100
AcDbEntity
  8
$DDT_AUDIT_GENERATED_(CA)
  6
Continuous
 62
     7
100
AcDbLine
 10
120.966674317
 20
395.1304776358
 30
0.0
 11
120.65
 21
395.1304776358
 31
0.0
  0
LINE
  5
1D9
330
5E
100
AcDbEntity
  8
$DDT_AUDIT_GENERATED_(CA)
  6
Continuous
 62
     7
100
AcDbLine
 10
120.65
 20
395.1304776358
 30
0.0
 11
120.65
 21
395.2017320057
 31
0.0
  0
LINE
  5
1DA
330
5E
100
AcDbEntity
  8
$DDT_AUDIT_GENERATED_(CA)
  6
Continuous
 62
     7
100
AcDbLine
 10
122.3735560545
 20
394.7102287783
 30
0.0
 11
121.85
 21
394.7102287783
 31
0.0
  0
LINE
  5
1DB
330
5E
100
AcDbEntity
  8
$DDT_AUDIT_GENERATED_(CA)
  6
Continuous
 62
     7
100
AcDbLine
 10
121.85
 20
394.7102287783
 30
0.0
 11
121.85
 21
394.8894915987
 31
0.0
  0
LINE
  5
1DC
330
5E
100
AcDbEntity
  8
$DDT_AUDIT_GENERATED_(CA)
  6
Continuous
 62
     7
100
AcDbLine
 10
123.05
 20
394.2199384445
 30
0.0
 11
123.4286790882
 21
394.2199384445
 31
0.0
  0
LINE
  5
1DD
330
5E
100
AcDbEntity
  8
$DDT_AUDIT_GENERATED_(CA)
  6
Continuous
 62
     7
100
AcDbLine
 10
123.9383014653
 20
393.8697310633
 30
0.0
 11
123.05
 21
393.8697310633
 31
0.0
  0
LINE
  5
1DE
330
5E
100
AcDbEntity
  8
$DDT_AUDIT_GENERATED_(CA)
  6
Continuous
 62
     7
100
AcDbLine
 10
123.05
 20
393.8697310633
 30
0.0
 11
123.05
 21
394.2199384445
 31
0.0
  0
LINE
  5
1DF
330
5E
100
AcDbEntity
  8
$DDT_AUDIT_GENERATED_(CA)
  6
Continuous
 62
     7
100
AcDbLine
 10
123.3050537981
 20
394.2899799208
 30
0.0
 11
123.05
 21
394.2899799208
 31
0.0
  0
LINE
  5
1E0
330
5E
100
AcDbEntity
  8
$DDT_AUDIT_GENERATED_(CA)
  6
Continuous
 62
     7
100
AcDbLine
 10
123.05
 20
394.2899799208
 30
0.0
 11
123.05
 21
394.4218230363
 31
0.0
  0
LINE
  5
1E1
330
5E
100
AcDbEntity
  8
$DDT_AUDIT_GENERATED_(CA)
  6
Continuous
 62
     7
100
AcDbLine
 10
124.25
 20
393.0292333483
 30
0.0
 11
124.25
 21
393.3794407295
 31
0.0
  0
LINE
  5
1E2
330
5E
100
AcDbEntity
  8
$DDT_AUDIT_GENERATED_(CA)
  6
Continuous
 62
     7
100
AcDbLine
 10
124.25
 20
393.3794407295
 30
0.0
 11
124.3928097838
 21
393.3794407295
 31
0.0
  0
LINE
  5
1E3
330
5E
100
AcDbEntity
  8
$DDT_AUDIT_GENERATED_(CA)
  6
Continuous
 62
     7
100
AcDbLine
 10
124.3444896598
 20
393.4494822058
 30
0.0
 11
124.25
 21
393.4494822058
 31
0.0
  0
LINE
  5
1E4
330
5E
100
AcDbEntity
  8
$DDT_AUDIT_GENERATED_(CA)
  6
Continuous
 62
     7
100
AcDbLine
 10
124.25
 20
393.4494822058
 30
0.0
 11
124.25
 21
393.5686185329
 31
0.0
  0
LINE
  5
1E5
330
5E
100
AcDbEntity
  8
$DDT_AUDIT_GENERATED_(CA)
  6
Continuous
 62
     7
100
AcDbLine
 10
116.85
 20
393.0292333483
 30
0.0
 11
115.85
 21
393.0292333483
 31
0.0
  0
LINE
  5
1E6
330
5E
100
AcDbEntity
  8
$DDT_AUDIT_GENERATED_(CA)
  6
Continuous
 62
     7
100
AcDbLine
 10
116.85
 20
392.959191872
 30
0.0
 11
116.85
 21
392.6089844908
 31
0.0
  0
LINE
  5
1E7
330
5E
100
AcDbEntity
  8
$DDT_AUDIT_GENERATED_(CA)
  6
Continuous
 62
     7
100
AcDbLine
 10
116.85
 20
392.6089844908
 30
0.0
 11
115.85
 21
392.6089844908
 31
0.0
  0
LINE
  5
1E8
330
5E
100
AcDbEntity
  8
$DDT_AUDIT_GENERATED_(CA)
  6
Continuous
 62
     7
100
AcDbLine
 10
115.85
 20
392.959191872
 30
0.0
 11
116.85
 21
392.959191872
 31
0.0
  0
LINE
  5
1E9
330
5E
100
AcDbEntity
  8
$DDT_AUDIT_GENERATED_(CA)
  6
Continuous
 62
     7
100
AcDbLine
 10
116.85
 20
392.5389430145
 30
0.0
 11
116.85
 21
392.1887356332
 31
0.0
  0
LINE
  5
1EA
330
5E
100
AcDbEntity
  8
$DDT_AUDIT_GENERATED_(CA)
  6
Continuous
 62
     7
100
AcDbLine
 10
116.85
 20
392.1887356332
 30
0.0
 11
115.85
 21
392.1887356332
 31
0.0
  0
LINE
  5
1EB
330
5E
100
AcDbEntity
  8
$DDT_AUDIT_GENERATED_(CA)
  6
Continuous
 62
     7
100
AcDbLine
 10
115.85
 20
392.5389430145
 30
0.0
 11
116.85
 21
392.5389430145
 31
0.0
  0
LINE
  5
1EC
330
5E
100
AcDbEntity
  8
$DDT_AUDIT_GENERATED_(CA)
  6
Continuous
 62
     7
100
AcDbLine
 10
116.85
 20
392.118694157
 30
0.0
 11
116.85
 21
391.7684867757
 31
0.0
  0
LINE
  5
1ED
330
5E
100
AcDbEntity
  8
$DDT_AUDIT_GENERATED_(CA)
  6
Continuous
 62
     7
100
AcDbLine
 10
116.85
 20
391.7684867757
 30
0.0
 11
115.85
 21
391.7684867757
 31
0.0
  0
LINE
  5
1EE
330
5E
100
AcDbEntity
  8
$DDT_AUDIT_GENERATED_(CA)
  6
Continuous
 62
     7
100
AcDbLine
 10
115.85
 20
392.118694157
 30
0.0
 11
116.85
 21
392.118694157
 31
0.0
  0
LINE
  5
1EF
330
5E
100
AcDbEntity
  8
$DDT_AUDIT_GENERATED_(CA)
  6
Continuous
 62
     7
100
AcDbLine
 10
116.85
 20
391.6984452995
 30
0.0
 11
116.85
 21
391.3482379182
 31
0.0
  0
LINE
  5
1F0
330
5E
100
AcDbEntity
  8
$DDT_AUDIT_GENERATED_(CA)
  6
Continuous
 62
     7
100
AcDbLine
 10
116.85
 20
391.3482379182
 30
0.0
 11
115.85
 21
391.3482379182
 31
0.0
  0
LINE
  5
1F1
330
5E
100
AcDbEntity
  8
$DDT_AUDIT_GENERATED_(CA)
  6
Continuous
 62
     7
100
AcDbLine
 10
115.85
 20
391.6984452995
 30
0.0
 11
116.85
 21
391.6984452995
 31
0.0
  0
LINE
  5
1F2
330
5E
100
AcDbEntity
  8
$DDT_AUDIT_GENERATED_(CA)
  6
Continuous
 62
     7
100
AcDbLine
 10
116.85
 20
391.278196442
 30
0.0
 11
116.85
 21
390.9279890607
 31
0.0
  0
LINE
  5
1F3
330
5E
100
AcDbEntity
  8
$DDT_AUDIT_GENERATED_(CA)
  6
Continuous
 62
     7
100
AcDbLine
 10
116.85
 20
390.9279890607
 30
0.0
 11
115.85
 21
390.9279890607
 31
0.0
  0
LINE
  5
1F4
330
5E
100
AcDbEntity
  8
$DDT_AUDIT_GENERATED_(CA)
  6
Continuous
 62
     7
100
AcDbLine
 10
115.85
 20
391.278196442
 30
0.0
 11
116.85
 21
391.278196442
 31
0.0
  0
LINE
  5
1F5
330
5E
100
AcDbEntity
  8
$DDT_AUDIT_GENERATED_(CA)
  6
Continuous
 62
     7
100
AcDbLine
 10
116.85
 20
390.5077402032
 30
0.0
 11
115.85
 21
390.5077402032
 31
0.0
  0
LINE
  5
1F6
330
5E
100
AcDbEntity
  8
$DDT_AUDIT_GENERATED_(CA)
  6
Continuous
 62
     7
100
AcDbLine
 10
116.85
 20
390.8579475845
 30
0.0
 11
116.85
 21
390.5077402032
 31
0.0
  0
LINE
  5
1F7
330
5E
100
AcDbEntity
  8
$DDT_AUDIT_GENERATED_(CA)
  6
Continuous
 62
     7
100
AcDbLine
 10
115.85
 20
390.8579475845
 30
0.0
 11
116.85
 21
390.8579475845
 31
0.0
  0
LINE
  5
1F8
330
5E
100
AcDbEntity
  8
$DDT_AUDIT_GENERATED_(CA)
  6
Continuous
 62
     7
100
AcDbLine
 10
118.05
 20
393.0292333483
 30
0.0
 11
117.05
 21
393.0292333483
 31
0.0
  0
LINE
  5
1F9
330
5E
100
AcDbEntity
  8
$DDT_AUDIT_GENERATED_(CA)
  6
Continuous
 62
     7
100
AcDbLine
 10
118.05
 20
392.959191872
 30
0.0
 11
118.05
 21
392.6089844908
 31
0.0
  0
LINE
  5
1FA
330
5E
100
AcDbEntity
  8
$DDT_AUDIT_GENERATED_(CA)
  6
Continuous
 62
     7
100
AcDbLine
 10
118.05
 20
392.6089844908
 30
0.0
 11
117.05
 21
392.6089844908
 31
0.0
  0
LINE
  5
1FB
330
5E
100
AcDbEntity
  8
$DDT_AUDIT_GENERATED_(CA)
  6
Continuous
 62
     7
100
AcDbLine
 10
117.05
 20
392.6089844908
 30
0.0
 11
117.05
 21
392.959191872
 31
0.0
  0
LINE
  5
1FC
330
5E
100
AcDbEntity
  8
$DDT_AUDIT_GENERATED_(CA)
  6
Continuous
 62
     7
100
AcDbLine
 10
117.05
 20
392.959191872
 30
0.0
 11
118.05
 21
392.959191872
 31
0.0
  0
LINE
  5
1FD
330
5E
100
AcDbEntity
  8
$DDT_AUDIT_GENERATED_(CA)
  6
Continuous
 62
     7
100
AcDbLine
 10
118.05
 20
392.5389430145
 30
0.0
 11
118.05
 21
392.1887356332
 31
0.0
  0
LINE
  5
1FE
330
5E
100
AcDbEntity
  8
$DDT_AUDIT_GENERATED_(CA)
  6
Continuous
 62
     7
100
AcDbLine
 10
118.05
 20
392.1887356332
 30
0.0
 11
117.05
 21
392.1887356332
 31
0.0
  0
LINE
  5
1FF
330
5E
100
AcDbEntity
  8
$DDT_AUDIT_GENERATED_(CA)
  6
Continuous
 62
     7
100
AcDbLine
 10
117.05
 20
392.1887356332
 30
0.0
 11
117.05
 21
392.5389430145
 31
0.0
  0
LINE
  5
200
330
5E
100
AcDbEntity
  8
$DDT_AUDIT_GENERATED_(CA)
  6
Continuous
 62
     7
100
AcDbLine
 10
117.05
 20
392.5389430145
 30
0.0
 11
118.05
 21
392.5389430145
 31
0.0
  0
LINE
  5
201
330
5E
100
AcDbEntity
  8
$DDT_AUDIT_GENERATED_(CA)
  6
Continuous
 62
     7
100
AcDbLine
 10
118.05
 20
392.118694157
 30
0.0
 11
118.05
 21
391.7684867757
 31
0.0
  0
LINE
  5
202
330
5E
100
AcDbEntity
  8
$DDT_AUDIT_GENERATED_(CA)
  6
Continuous
 62
     7
100
AcDbLine
 10
118.05
 20
391.7684867757
 30
0.0
 11
117.05
 21
391.7684867757
 31
0.0
  0
LINE
  5
203
330
5E
100
AcDbEntity
  8
$DDT_AUDIT_GENERATED_(CA)
  6
Continuous
 62
     7
100
AcDbLine
 10
117.05
 20
391.7684867757
 30
0.0
 11
117.05
 21
392.118694157
 31
0.0
  0
LINE
  5
204
330
5E
100
AcDbEntity
  8
$DDT_AUDIT_GENERATED_(CA)
  6
Continuous
 62
     7
100
AcDbLine
 10
117.05
 20
392.118694157
 30
0.0
 11
118.05
 21
392.118694157
 31
0.0
  0
LINE
  5
205
330
5E
100
AcDbEntity
  8
$DDT_AUDIT_GENERATED_(CA)
  6
Continuous
 62
     7
100
AcDbLine
 10
118.05
 20
391.6984452995
 30
0.0
 11
118.05
 21
391.3482379182
 31
0.0
  0
LINE
  5
206
330
5E
100
AcDbEntity
  8
$DDT_AUDIT_GENERATED_(CA)
  6
Continuous
 62
     7
100
AcDbLine
 10
118.05
 20
391.3482379182
 30
0.0
 11
117.05
 21
391.3482379182
 31
0.0
  0
LINE
  5
207
330
5E
100
AcDbEntity
  8
$DDT_AUDIT_GENERATED_(CA)
  6
Continuous
 62
     7
100
AcDbLine
 10
117.05
 20
391.3482379182
 30
0.0
 11
117.05
 21
391.6984452995
 31
0.0
  0
LINE
  5
208
330
5E
100
AcDbEntity
  8
$DDT_AUDIT_GENERATED_(CA)
  6
Continuous
 62
     7
100
AcDbLine
 10
117.05
 20
391.6984452995
 30
0.0
 11
118.05
 21
391.6984452995
 31
0.0
  0
LINE
  5
209
330
5E
100
AcDbEntity
  8
$DDT_AUDIT_GENERATED_(CA)
  6
Continuous
 62
     7
100
AcDbLine
 10
118.05
 20
391.278196442
 30
0.0
 11
118.05
 21
390.9279890607
 31
0.0
  0
LINE
  5
20A
330
5E
100
AcDbEntity
  8
$DDT_AUDIT_GENERATED_(CA)
  6
Continuous
 62
     7
100
AcDbLine
 10
118.05
 20
390.9279890607
 30
0.0
 11
117.05
 21
390.9279890607
 31
0.0
  0
LINE
  5
20B
330
5E
100
AcDbEntity
  8
$DDT_AUDIT_GENERATED_(CA)
  6
Continuous
 62
     7
100
AcDbLine
 10
117.05
 20
390.9279890607
 30
0.0
 11
117.05
 21
391.278196442
 31
0.0
  0
LINE
  5
20C
330
5E
100
AcDbEntity
  8
$DDT_AUDIT_GENERATED_(CA)
  6
Continuous
 62
     7
100
AcDbLine
 10
117.05
 20
391.278196442
 30
0.0
 11
118.05
 21
391.278196442
 31
0.0
  0
LINE
  5
20D
330
5E
100
AcDbEntity
  8
$DDT_AUDIT_GENERATED_(CA)
  6
Continuous
 62
     7
100
AcDbLine
 10
118.05
 20
390.8579475845
 30
0.0
 11
118.05
 21
390.5077402032
 31
0.0
  0
LINE
  5
20E
330
5E
100
AcDbEntity
  8
$DDT_AUDIT_GENERATED_(CA)
  6
Continuous
 62
     7
100
AcDbLine
 10
118.05
 20
390.5077402032
 30
0.0
 11
117.05
 21
390.5077402032
 31
0.0
  0
LINE
  5
20F
330
5E
100
AcDbEntity
  8
$DDT_AUDIT_GENERATED_(CA)
  6
Continuous
 62
     7
100
AcDbLine
 10
117.05
 20
390.5077402032
 30
0.0
 11
117.05
 21
390.8579475845
 31
0.0
  0
LINE
  5
210
330
5E
100
AcDbEntity
  8
$DDT_AUDIT_GENERATED_(CA)
  6
Continuous
 62
     7
100
AcDbLine
 10
117.05
 20
390.8579475845
 30
0.0
 11
118.05
 21
390.8579475845
 31
0.0
  0
LINE
  5
211
330
5E
100
AcDbEntity
  8
$DDT_AUDIT_GENERATED_(CA)
  6
Continuous
 62
     7
100
AcDbLine
 10
119.25
 20
393.0292333483
 30
0.0
 11
118.25
 21
393.0292333483
 31
0.0
  0
LINE
  5
212
330
5E
100
AcDbEntity
  8
$DDT_AUDIT_GENERATED_(CA)
  6
Continuous
 62
     7
100
AcDbLine
 10
119.25
 20
392.959191872
 30
0.0
 11
119.25
 21
392.6089844908
 31
0.0
  0
LINE
  5
213
330
5E
100
AcDbEntity
  8
$DDT_AUDIT_GENERATED_(CA)
  6
Continuous
 62
     7
100
AcDbLine
 10
119.25
 20
392.6089844908
 30
0.0
 11
118.25
 21
392.6089844908
 31
0.0
  0
LINE
  5
214
330
5E
100
AcDbEntity
  8
$DDT_AUDIT_GENERATED_(CA)
  6
Continuous
 62
     7
100
AcDbLine
 10
118.25
 20
392.6089844908
 30
0.0
 11
118.25
 21
392.959191872
 31
0.0
  0
LINE
  5
215
330
5E
100
AcDbEntity
  8
$DDT_AUDIT_GENERATED_(CA)
  6
Continuous
 62
     7
100
AcDbLine
 10
118.25
 20
392.959191872
 30
0.0
 11
119.25
 21
392.959191872
 31
0.0
  0
LINE
  5
216
330
5E
100
AcDbEntity
  8
$DDT_AUDIT_GENERATED_(CA)
  6
Continuous
 62
     7
100
AcDbLine
 10
119.25
 20
392.5389430145
 30
0.0
 11
119.25
 21
392.1887356332
 31
0.0
  0
LINE
  5
217
330
5E
100
AcDbEntity
  8
$DDT_AUDIT_GENERATED_(CA)
  6
Continuous
 62
     7
100
AcDbLine
 10
119.25
 20
392.1887356332
 30
0.0
 11
118.25
 21
392.1887356332
 31
0.0
  0
LINE
  5
218
330
5E
100
AcDbEntity
  8
$DDT_AUDIT_GENERATED_(CA)
  6
Continuous
 62
     7
100
AcDbLine
 10
118.25
 20
392.1887356332
 30
0.0
 11
118.25
 21
392.5389430145
 31
0.0
  0
LINE
  5
219
330
5E
100
AcDbEntity
  8
$DDT_AUDIT_GENERATED_(CA)
  6
Continuous
 62
     7
100
AcDbLine
 10
118.25
 20
392.5389430145
 30
0.0
 11
119.25
 21
392.5389430145
 31
0.0
  0
LINE
  5
21A
330
5E
100
AcDbEntity
  8
$DDT_AUDIT_GENERATED_(CA)
  6
Continuous
 62
     7
100
AcDbLine
 10
119.25
 20
392.118694157
 30
0.0
 11
119.25
 21
391.7684867757
 31
0.0
  0
LINE
  5
21B
330
5E
100
AcDbEntity
  8
$DDT_AUDIT_GENERATED_(CA)
  6
Continuous
 62
     7
100
AcDbLine
 10
119.25
 20
391.7684867757
 30
0.0
 11
118.25
 21
391.7684867757
 31
0.0
  0
LINE
  5
21C
330
5E
100
AcDbEntity
  8
$DDT_AUDIT_GENERATED_(CA)
  6
Continuous
 62
     7
100
AcDbLine
 10
118.25
 20
391.7684867757
 30
0.0
 11
118.25
 21
392.118694157
 31
0.0
  0
LINE
  5
21D
330
5E
100
AcDbEntity
  8
$DDT_AUDIT_GENERATED_(CA)
  6
Continuous
 62
     7
100
AcDbLine
 10
118.25
 20
392.118694157
 30
0.0
 11
119.25
 21
392.118694157
 31
0.0
  0
LINE
  5
21E
330
5E
100
AcDbEntity
  8
$DDT_AUDIT_GENERATED_(CA)
  6
Continuous
 62
     7
100
AcDbLine
 10
119.25
 20
391.6984452995
 30
0.0
 11
119.25
 21
391.3482379182
 31
0.0
  0
LINE
  5
21F
330
5E
100
AcDbEntity
  8
$DDT_AUDIT_GENERATED_(CA)
  6
Continuous
 62
     7
100
AcDbLine
 10
119.25
 20
391.3482379182
 30
0.0
 11
118.25
 21
391.3482379182
 31
0.0
  0
LINE
  5
220
330
5E
100
AcDbEntity
  8
$DDT_AUDIT_GENERATED_(CA)
  6
Continuous
 62
     7
100
AcDbLine
 10
118.25
 20
391.3482379182
 30
0.0
 11
118.25
 21
391.6984452995
 31
0.0
  0
LINE
  5
221
330
5E
100
AcDbEntity
  8
$DDT_AUDIT_GENERATED_(CA)
  6
Continuous
 62
     7
100
AcDbLine
 10
118.25
 20
391.6984452995
 30
0.0
 11
119.25
 21
391.6984452995
 31
0.0
  0
LINE
  5
222
330
5E
100
AcDbEntity
  8
$DDT_AUDIT_GENERATED_(CA)
  6
Continuous
 62
     7
100
AcDbLine
 10
119.25
 20
391.278196442
 30
0.0
 11
119.25
 21
390.9279890607
 31
0.0
  0
LINE
  5
223
330
5E
100
AcDbEntity
  8
$DDT_AUDIT_GENERATED_(CA)
  6
Continuous
 62
     7
100
AcDbLine
 10
119.25
 20
390.9279890607
 30
0.0
 11
118.25
 21
390.9279890607
 31
0.0
  0
LINE
  5
224
330
5E
100
AcDbEntity
  8
$DDT_AUDIT_GENERATED_(CA)
  6
Continuous
 62
     7
100
AcDbLine
 10
118.25
 20
390.9279890607
 30
0.0
 11
118.25
 21
391.278196442
 31
0.0
  0
LINE
  5
225
330
5E
100
AcDbEntity
  8
$DDT_AUDIT_GENERATED_(CA)
  6
Continuous
 62
     7
100
AcDbLine
 10
118.25
 20
391.278196442
 30
0.0
 11
119.25
 21
391.278196442
 31
0.0
  0
LINE
  5
226
330
5E
100
AcDbEntity
  8
$DDT_AUDIT_GENERATED_(CA)
  6
Continuous
 62
     7
100
AcDbLine
 10
120.45
 20
393.0292333483
 30
0.0
 11
119.45
 21
393.0292333483
 31
0.0
  0
LINE
  5
227
330
5E
100
AcDbEntity
  8
$DDT_AUDIT_GENERATED_(CA)
  6
Continuous
 62
     7
100
AcDbLine
 10
120.45
 20
392.959191872
 30
0.0
 11
120.45
 21
392.6089844908
 31
0.0
  0
LINE
  5
228
330
5E
100
AcDbEntity
  8
$DDT_AUDIT_GENERATED_(CA)
  6
Continuous
 62
     7
100
AcDbLine
 10
120.45
 20
392.6089844908
 30
0.0
 11
119.45
 21
392.6089844908
 31
0.0
  0
LINE
  5
229
330
5E
100
AcDbEntity
  8
$DDT_AUDIT_GENERATED_(CA)
  6
Continuous
 62
     7
100
AcDbLine
 10
119.45
 20
392.6089844908
 30
0.0
 11
119.45
 21
392.959191872
 31
0.0
  0
LINE
  5
22A
330
5E
100
AcDbEntity
  8
$DDT_AUDIT_GENERATED_(CA)
  6
Continuous
 62
     7
100
AcDbLine
 10
119.45
 20
392.959191872
 30
0.0
 11
120.45
 21
392.959191872
 31
0.0
  0
LINE
  5
22B
330
5E
100
AcDbEntity
  8
$DDT_AUDIT_GENERATED_(CA)
  6
Continuous
 62
     7
100
AcDbLine
 10
120.45
 20
392.5389430145
 30
0.0
 11
120.45
 21
392.1887356332
 31
0.0
  0
LINE
  5
22C
330
5E
100
AcDbEntity
  8
$DDT_AUDIT_GENERATED_(CA)
  6
Continuous
 62
     7
100
AcDbLine
 10
120.45
 20
392.1887356332
 30
0.0
 11
119.45
 21
392.1887356332
 31
0.0
  0
LINE
  5
22D
330
5E
100
AcDbEntity
  8
$DDT_AUDIT_GENERATED_(CA)
  6
Continuous
 62
     7
100
AcDbLine
 10
119.45
 20
392.1887356332
 30
0.0
 11
119.45
 21
392.5389430145
 31
0.0
  0
LINE
  5
22E
330
5E
100
AcDbEntity
  8
$DDT_AUDIT_GENERATED_(CA)
  6
Continuous
 62
     7
100
AcDbLine
 10
119.45
 20
392.5389430145
 30
0.0
 11
120.45
 21
392.5389430145
 31
0.0
  0
LINE
  5
22F
330
5E
100
AcDbEntity
  8
$DDT_AUDIT_GENERATED_(CA)
  6
Continuous
 62
     7
100
AcDbLine
 10
120.45
 20
392.118694157
 30
0.0
 11
120.45
 21
391.7684867757
 31
0.0
  0
LINE
  5
230
330
5E
100
AcDbEntity
  8
$DDT_AUDIT_GENERATED_(CA)
  6
Continuous
 62
     7
100
AcDbLine
 10
120.45
 20
391.7684867757
 30
0.0
 11
119.45
 21
391.7684867757
 31
0.0
  0
LINE
  5
231
330
5E
100
AcDbEntity
  8
$DDT_AUDIT_GENERATED_(CA)
  6
Continuous
 62
     7
100
AcDbLine
 10
119.45
 20
391.7684867757
 30
0.0
 11
119.45
 21
392.118694157
 31
0.0
  0
LINE
  5
232
330
5E
100
AcDbEntity
  8
$DDT_AUDIT_GENERATED_(CA)
  6
Continuous
 62
     7
100
AcDbLine
 10
119.45
 20
392.118694157
 30
0.0
 11
120.45
 21
392.118694157
 31
0.0
  0
LINE
  5
233
330
5E
100
AcDbEntity
  8
$DDT_AUDIT_GENERATED_(CA)
  6
Continuous
 62
     7
100
AcDbLine
 10
120.45
 20
391.6984452995
 30
0.0
 11
120.45
 21
391.3482379182
 31
0.0
  0
LINE
  5
234
330
5E
100
AcDbEntity
  8
$DDT_AUDIT_GENERATED_(CA)
  6
Continuous
 62
     7
100
AcDbLine
 10
120.45
 20
391.3482379182
 30
0.0
 11
119.45
 21
391.3482379182
 31
0.0
  0
LINE
  5
235
330
5E
100
AcDbEntity
  8
$DDT_AUDIT_GENERATED_(CA)
  6
Continuous
 62
     7
100
AcDbLine
 10
119.45
 20
391.3482379182
 30
0.0
 11
119.45
 21
391.6984452995
 31
0.0
  0
LINE
  5
236
330
5E
100
AcDbEntity
  8
$DDT_AUDIT_GENERATED_(CA)
  6
Continuous
 62
     7
100
AcDbLine
 10
119.45
 20
391.6984452995
 30
0.0
 11
120.45
 21
391.6984452995
 31
0.0
  0
LINE
  5
237
330
5E
100
AcDbEntity
  8
$DDT_AUDIT_GENERATED_(CA)
  6
Continuous
 62
     7
100
AcDbLine
 10
120.45
 20
390.9279890607
 30
0.0
 11
119.45
 21
390.9279890607
 31
0.0
  0
LINE
  5
238
330
5E
100
AcDbEntity
  8
$DDT_AUDIT_GENERATED_(CA)
  6
Continuous
 62
     7
100
AcDbLine
 10
120.45
 20
391.278196442
 30
0.0
 11
120.45
 21
390.9279890607
 31
0.0
  0
LINE
  5
239
330
5E
100
AcDbEntity
  8
$DDT_AUDIT_GENERATED_(CA)
  6
Continuous
 62
     7
100
AcDbLine
 10
119.45
 20
390.9279890607
 30
0.0
 11
119.45
 21
391.278196442
 31
0.0
  0
LINE
  5
23A
330
5E
100
AcDbEntity
  8
$DDT_AUDIT_GENERATED_(CA)
  6
Continuous
 62
     7
100
AcDbLine
 10
119.45
 20
391.278196442
 30
0.0
 11
120.45
 21
391.278196442
 31
0.0
  0
LINE
  5
23B
330
5E
100
AcDbEntity
  8
$DDT_AUDIT_GENERATED_(CA)
  6
Continuous
 62
     7
100
AcDbLine
 10
121.65
 20
393.0292333483
 30
0.0
 11
120.65
 21
393.0292333483
 31
0.0
  0
LINE
  5
23C
330
5E
100
AcDbEntity
  8
$DDT_AUDIT_GENERATED_(CA)
  6
Continuous
 62
     7
100
AcDbLine
 10
121.65
 20
392.959191872
 30
0.0
 11
121.65
 21
392.6089844908
 31
0.0
  0
LINE
  5
23D
330
5E
100
AcDbEntity
  8
$DDT_AUDIT_GENERATED_(CA)
  6
Continuous
 62
     7
100
AcDbLine
 10
121.65
 20
392.6089844908
 30
0.0
 11
120.65
 21
392.6089844908
 31
0.0
  0
LINE
  5
23E
330
5E
100
AcDbEntity
  8
$DDT_AUDIT_GENERATED_(CA)
  6
Continuous
 62
     7
100
AcDbLine
 10
120.65
 20
392.6089844908
 30
0.0
 11
120.65
 21
392.959191872
 31
0.0
  0
LINE
  5
23F
330
5E
100
AcDbEntity
  8
$DDT_AUDIT_GENERATED_(CA)
  6
Continuous
 62
     7
100
AcDbLine
 10
120.65
 20
392.959191872
 30
0.0
 11
121.65
 21
392.959191872
 31
0.0
  0
LINE
  5
240
330
5E
100
AcDbEntity
  8
$DDT_AUDIT_GENERATED_(CA)
  6
Continuous
 62
     7
100
AcDbLine
 10
121.65
 20
392.5389430145
 30
0.0
 11
121.65
 21
392.1887356332
 31
0.0
  0
LINE
  5
241
330
5E
100
AcDbEntity
  8
$DDT_AUDIT_GENERATED_(CA)
  6
Continuous
 62
     7
100
AcDbLine
 10
121.65
 20
392.1887356332
 30
0.0
 11
120.65
 21
392.1887356332
 31
0.0
  0
LINE
  5
242
330
5E
100
AcDbEntity
  8
$DDT_AUDIT_GENERATED_(CA)
  6
Continuous
 62
     7
100
AcDbLine
 10
120.65
 20
392.1887356332
 30
0.0
 11
120.65
 21
392.5389430145
 31
0.0
  0
LINE
  5
243
330
5E
100
AcDbEntity
  8
$DDT_AUDIT_GENERATED_(CA)
  6
Continuous
 62
     7
100
AcDbLine
 10
120.65
 20
392.5389430145
 30
0.0
 11
121.65
 21
392.5389430145
 31
0.0
  0
LINE
  5
244
330
5E
100
AcDbEntity
  8
$DDT_AUDIT_GENERATED_(CA)
  6
Continuous
 62
     7
100
AcDbLine
 10
121.65
 20
392.118694157
 30
0.0
 11
121.65
 21
391.7684867757
 31
0.0
  0
LINE
  5
245
330
5E
100
AcDbEntity
  8
$DDT_AUDIT_GENERATED_(CA)
  6
Continuous
 62
     7
100
AcDbLine
 10
121.65
 20
391.7684867757
 30
0.0
 11
120.65
 21
391.7684867757
 31
0.0
  0
LINE
  5
246
330
5E
100
AcDbEntity
  8
$DDT_AUDIT_GENERATED_(CA)
  6
Continuous
 62
     7
100
AcDbLine
 10
120.65
 20
391.7684867757
 30
0.0
 11
120.65
 21
392.118694157
 31
0.0
  0
LINE
  5
247
330
5E
100
AcDbEntity
  8
$DDT_AUDIT_GENERATED_(CA)
  6
Continuous
 62
     7
100
AcDbLine
 10
120.65
 20
392.118694157
 30
0.0
 11
121.65
 21
392.118694157
 31
0.0
  0
LINE
  5
248
330
5E
100
AcDbEntity
  8
$DDT_AUDIT_GENERATED_(CA)
  6
Continuous
 62
     7
100
AcDbLine
 10
121.65
 20
391.6984452995
 30
0.0
 11
121.65
 21
391.3482379182
 31
0.0
  0
LINE
  5
249
330
5E
100
AcDbEntity
  8
$DDT_AUDIT_GENERATED_(CA)
  6
Continuous
 62
     7
100
AcDbLine
 10
121.65
 20
391.3482379182
 30
0.0
 11
120.65
 21
391.3482379182
 31
0.0
  0
LINE
  5
24A
330
5E
100
AcDbEntity
  8
$DDT_AUDIT_GENERATED_(CA)
  6
Continuous
 62
     7
100
AcDbLine
 10
120.65
 20
391.3482379182
 30
0.0
 11
120.65
 21
391.6984452995
 31
0.0
  0
LINE
  5
24B
330
5E
100
AcDbEntity
  8
$DDT_AUDIT_GENERATED_(CA)
  6
Continuous
 62
     7
100
AcDbLine
 10
120.65
 20
391.6984452995
 30
0.0
 11
121.65
 21
391.6984452995
 31
0.0
  0
LINE
  5
24C
330
5E
100
AcDbEntity
  8
$DDT_AUDIT_GENERATED_(CA)
  6
Continuous
 62
     7
100
AcDbLine
 10
122.85
 20
393.0292333483
 30
0.0
 11
121.85
 21
393.0292333483
 31
0.0
  0
LINE
  5
24D
330
5E
100
AcDbEntity
  8
$DDT_AUDIT_GENERATED_(CA)
  6
Continuous
 62
     7
100
AcDbLine
 10
122.85
 20
392.959191872
 30
0.0
 11
122.85
 21
392.6089844908
 31
0.0
  0
LINE
  5
24E
330
5E
100
AcDbEntity
  8
$DDT_AUDIT_GENERATED_(CA)
  6
Continuous
 62
     7
100
AcDbLine
 10
122.85
 20
392.6089844908
 30
0.0
 11
121.85
 21
392.6089844908
 31
0.0
  0
LINE
  5
24F
330
5E
100
AcDbEntity
  8
$DDT_AUDIT_GENERATED_(CA)
  6
Continuous
 62
     7
100
AcDbLine
 10
121.85
 20
392.6089844908
 30
0.0
 11
121.85
 21
392.959191872
 31
0.0
  0
LINE
  5
250
330
5E
100
AcDbEntity
  8
$DDT_AUDIT_GENERATED_(CA)
  6
Continuous
 62
     7
100
AcDbLine
 10
121.85
 20
392.959191872
 30
0.0
 11
122.85
 21
392.959191872
 31
0.0
  0
LINE
  5
251
330
5E
100
AcDbEntity
  8
$DDT_AUDIT_GENERATED_(CA)
  6
Continuous
 62
     7
100
AcDbLine
 10
122.85
 20
392.5389430145
 30
0.0
 11
122.85
 21
392.1887356332
 31
0.0
  0
LINE
  5
252
330
5E
100
AcDbEntity
  8
$DDT_AUDIT_GENERATED_(CA)
  6
Continuous
 62
     7
100
AcDbLine
 10
122.85
 20
392.1887356332
 30
0.0
 11
121.85
 21
392.1887356332
 31
0.0
  0
LINE
  5
253
330
5E
100
AcDbEntity
  8
$DDT_AUDIT_GENERATED_(CA)
  6
Continuous
 62
     7
100
AcDbLine
 10
121.85
 20
392.1887356332
 30
0.0
 11
121.85
 21
392.5389430145
 31
0.0
  0
LINE
  5
254
330
5E
100
AcDbEntity
  8
$DDT_AUDIT_GENERATED_(CA)
  6
Continuous
 62
     7
100
AcDbLine
 10
121.85
 20
392.5389430145
 30
0.0
 11
122.85
 21
392.5389430145
 31
0.0
  0
LINE
  5
255
330
5E
100
AcDbEntity
  8
$DDT_AUDIT_GENERATED_(CA)
  6
Continuous
 62
     7
100
AcDbLine
 10
122.85
 20
392.118694157
 30
0.0
 11
122.85
 21
391.7684867757
 31
0.0
  0
LINE
  5
256
330
5E
100
AcDbEntity
  8
$DDT_AUDIT_GENERATED_(CA)
  6
Continuous
 62
     7
100
AcDbLine
 10
122.85
 20
391.7684867757
 30
0.0
 11
121.85
 21
391.7684867757
 31
0.0
  0
LINE
  5
257
330
5E
100
AcDbEntity
  8
$DDT_AUDIT_GENERATED_(CA)
  6
Continuous
 62
     7
100
AcDbLine
 10
121.85
 20
391.7684867757
 30
0.0
 11
121.85
 21
392.118694157
 31
0.0
  0
LINE
  5
258
330
5E
100
AcDbEntity
  8
$DDT_AUDIT_GENERATED_(CA)
  6
Continuous
 62
     7
100
AcDbLine
 10
121.85
 20
392.118694157
 30
0.0
 11
122.85
 21
392.118694157
 31
0.0
  0
LINE
  5
259
330
5E
100
AcDbEntity
  8
$DDT_AUDIT_GENERATED_(CA)
  6
Continuous
 62
     7
100
AcDbLine
 10
124.05
 20
393.0292333483
 30
0.0
 11
123.05
 21
393.0292333483
 31
0.0
  0
LINE
  5
25A
330
5E
100
AcDbEntity
  8
$DDT_AUDIT_GENERATED_(CA)
  6
Continuous
 62
     7
100
AcDbLine
 10
124.05
 20
392.959191872
 30
0.0
 11
124.05
 21
392.6089844908
 31
0.0
  0
LINE
  5
25B
330
5E
100
AcDbEntity
  8
$DDT_AUDIT_GENERATED_(CA)
  6
Continuous
 62
     7
100
AcDbLine
 10
124.05
 20
392.6089844908
 30
0.0
 11
123.05
 21
392.6089844908
 31
0.0
  0
LINE
  5
25C
330
5E
100
AcDbEntity
  8
$DDT_AUDIT_GENERATED_(CA)
  6
Continuous
 62
     7
100
AcDbLine
 10
123.05
 20
392.6089844908
 30
0.0
 11
123.05
 21
392.959191872
 31
0.0
  0
LINE
  5
25D
330
5E
100
AcDbEntity
  8
$DDT_AUDIT_GENERATED_(CA)
  6
Continuous
 62
     7
100
AcDbLine
 10
123.05
 20
392.959191872
 30
0.0
 11
124.05
 21
392.959191872
 31
0.0
  0
LINE
  5
25E
330
5E
100
AcDbEntity
  8
$DDT_AUDIT_GENERATED_(CA)
  6
Continuous
 62
     7
100
AcDbLine
 10
124.05
 20
392.5389430145
 30
0.0
 11
124.05
 21
392.1887356332
 31
0.0
  0
LINE
  5
25F
330
5E
100
AcDbEntity
  8
$DDT_AUDIT_GENERATED_(CA)
  6
Continuous
 62
     7
100
AcDbLine
 10
124.05
 20
392.1887356332
 30
0.0
 11
123.05
 21
392.1887356332
 31
0.0
  0
LINE
  5
260
330
5E
100
AcDbEntity
  8
$DDT_AUDIT_GENERATED_(CA)
  6
Continuous
 62
     7
100
AcDbLine
 10
123.05
 20
392.1887356332
 30
0.0
 11
123.05
 21
392.5389430145
 31
0.0
  0
LINE
  5
261
330
5E
100
AcDbEntity
  8
$DDT_AUDIT_GENERATED_(CA)
  6
Continuous
 62
     7
100
AcDbLine
 10
123.05
 20
392.5389430145
 30
0.0
 11
124.05
 21
392.5389430145
 31
0.0
  0
LINE
  5
262
330
5E
100
AcDbEntity
  8
$DDT_AUDIT_GENERATED_(CA)
  6
Continuous
 62
     7
100
AcDbLine
 10
124.5573997535
 20
393.0292333483
 30
0.0
 11
124.25
 21
393.0292333483
 31
0.0
  0
LINE
  5
263
330
5E
100
AcDbEntity
  8
$DDT_AUDIT_GENERATED_(CA)
  6
Continuous
 62
     7
100
AcDbLine
 10
124.4229486559
 20
392.6089844908
 30
0.0
 11
124.4229486559
 21
392.959191872
 31
0.0
  0
LINE
  5
264
330
5E
100
AcDbEntity
  8
$DDT_AUDIT_GENERATED_(CA)
  6
Continuous
 62
     7
100
AcDbLine
 10
124.4229486559
 20
392.6089844908
 30
0.0
 11
124.25
 21
392.6089844908
 31
0.0
  0
LINE
  5
265
330
5E
100
AcDbEntity
  8
$DDT_AUDIT_GENERATED_(CA)
  6
Continuous
 62
     7
100
AcDbLine
 10
124.25
 20
392.6089844908
 30
0.0
 11
124.25
 21
392.959191872
 31
0.0
  0
LINE
  5
266
330
5E
100
AcDbEntity
  8
$DDT_AUDIT_GENERATED_(CA)
  6
Continuous
 62
     7
100
AcDbLine
 10
124.25
 20
392.959191872
 30
0.0
 11
124.5702493879
 21
392.959191872
 31
0.0
  0
ELLIPSE
  5
267
330
5E
100
AcDbEntity
  8
$DDT_AUDIT_GENERATED_(CA)
  6
Continuous
 62
     7
100
AcDbEllipse
 10
116.3499999496
 20
393.2043370428
 30
0.0
 11
8.250000050433638
 21
-4.332822295394223E-9
 31
0.0
210
0.0
220
0.0
230
1.0
 40
0.3502073803
 41
-0.2323890715913164
 42
-0.2075474496708498
  0
LINE
  5
268
330
5E
100
AcDbEntity
  8
$DDT_AUDIT_GENERATED_(CA)
  6
Continuous
 62
     7
100
AcDbLine
 10
124.25
 20
392.3717194503
 30
0.0
 11
124.25
 21
392.5389430145
 31
0.0
  0
LINE
  5
269
330
5E
100
AcDbEntity
  8
$DDT_AUDIT_GENERATED_(CA)
  6
Continuous
 62
     7
100
AcDbLine
 10
124.25
 20
392.5389430145
 30
0.0
 11
124.3782314366
 21
392.5389430145
 31
0.0
  0
ELLIPSE
  5
26A
330
5E
100
AcDbEntity
  8
$DDT_AUDIT_GENERATED_(CA)
  6
Continuous
 62
     7
100
AcDbEllipse
 10
116.3499999996
 20
393.2043370389
 30
0.0
 11
8.250000000431756
 21
-5.727536500632625E-11
 31
0.0
210
0.0
220
0.0
230
1.0
 40
0.3502073813
 41
-0.3852141216497875
 42
-0.2923273931436237
  0
LINE
  5
26B
330
5E
100
AcDbEntity
  8
$DDT_AUDIT_GENERATED_(CA)
  6
Continuous
 62
     7
100
AcDbLine
 10
123.5090851371
 20
391.7684867757
 30
0.0
 11
123.5090851371
 21
392.118694157
 31
0.0
  0
LINE
  5
26C
330
5E
100
AcDbEntity
  8
$DDT_AUDIT_GENERATED_(CA)
  6
Continuous
 62
     7
100
AcDbLine
 10
123.5090851371
 20
391.7684867757
 30
0.0
 11
123.05
 21
391.7684867757
 31
0.0
  0
LINE
  5
26D
330
5E
100
AcDbEntity
  8
$DDT_AUDIT_GENERATED_(CA)
  6
Continuous
 62
     7
100
AcDbLine
 10
123.05
 20
391.7684867757
 30
0.0
 11
123.05
 21
392.118694157
 31
0.0
  0
LINE
  5
26E
330
5E
100
AcDbEntity
  8
$DDT_AUDIT_GENERATED_(CA)
  6
Continuous
 62
     7
100
AcDbLine
 10
123.05
 20
392.118694157
 30
0.0
 11
123.9954234677
 21
392.118694157
 31
0.0
  0
ELLIPSE
  5
26F
330
5E
100
AcDbEntity
  8
$DDT_AUDIT_GENERATED_(CA)
  6
Continuous
 62
     7
100
AcDbEllipse
 10
116.3500000088
 20
393.2043370365
 30
0.0
 11
8.249999990959447
 21
2.127260173567791E-9
 31
0.0
210
0.0
220
0.0
230
1.0
 40
0.3502073813
 41
-0.6634394346602912
 42
-0.6230179602189834
  0
LINE
  5
270
330
5E
100
AcDbEntity
  8
$DDT_AUDIT_GENERATED_(CA)
  6
Continuous
 62
     7
100
AcDbLine
 10
122.6723808806
 20
391.3482379182
 30
0.0
 11
122.6723808806
 21
391.6984452995
 31
0.0
  0
LINE
  5
271
330
5E
100
AcDbEntity
  8
$DDT_AUDIT_GENERATED_(CA)
  6
Continuous
 62
     7
100
AcDbLine
 10
122.6723808806
 20
391.3482379182
 30
0.0
 11
121.85
 21
391.3482379182
 31
0.0
  0
LINE
  5
272
330
5E
100
AcDbEntity
  8
$DDT_AUDIT_GENERATED_(CA)
  6
Continuous
 62
     7
100
AcDbLine
 10
121.85
 20
391.3482379182
 30
0.0
 11
121.85
 21
391.6984452995
 31
0.0
  0
LINE
  5
273
330
5E
100
AcDbEntity
  8
$DDT_AUDIT_GENERATED_(CA)
  6
Continuous
 62
     7
100
AcDbLine
 10
121.85
 20
391.6984452995
 30
0.0
 11
122.85
 21
391.6984452995
 31
0.0
  0
LINE
  5
274
330
5E
100
AcDbEntity
  8
$DDT_AUDIT_GENERATED_(CA)
  6
Continuous
 62
     7
100
AcDbLine
 10
122.85
 20
391.6984452995
 30
0.0
 11
122.85
 21
391.4250732922
 31
0.0
  0
ELLIPSE
  5
275
330
5E
100
AcDbEntity
  8
$DDT_AUDIT_GENERATED_(CA)
  6
Continuous
 62
     7
100
AcDbEllipse
 10
116.3499999814
 20
393.2043370427
 30
0.0
 11
8.250000018802178
 21
-3.739971006500031E-9
 31
0.0
210
0.0
220
0.0
230
1.0
 40
0.350207381
 41
-0.5482706333300937
 42
-0.5201032025479098
  0
LINE
  5
276
330
5E
100
AcDbEntity
  8
$DDT_AUDIT_GENERATED_(CA)
  6
Continuous
 62
     7
100
AcDbLine
 10
123.05
 20
391.5185149468
 30
0.0
 11
123.05
 21
391.6984452995
 31
0.0
  0
LINE
  5
277
330
5E
100
AcDbEntity
  8
$DDT_AUDIT_GENERATED_(CA)
  6
Continuous
 62
     7
100
AcDbLine
 10
123.05
 20
391.6984452995
 30
0.0
 11
123.3907741052
 21
391.6984452995
 31
0.0
  0
ELLIPSE
  5
278
330
5E
100
AcDbEntity
  8
$DDT_AUDIT_GENERATED_(CA)
  6
Continuous
 62
     7
100
AcDbEllipse
 10
116.3500000664
 20
393.204337012
 30
0.0
 11
8.249999927502556
 21
2.006086703004728E-8
 31
0.0
210
0.0
220
0.0
230
1.0
 40
0.3502073809
 41
-0.873138877916042
 42
-0.8410686743601232
  0
LINE
  5
279
330
5E
100
AcDbEntity
  8
$DDT_AUDIT_GENERATED_(CA)
  6
Continuous
 62
     7
100
AcDbLine
 10
121.4306003582
 20
390.9279890607
 30
0.0
 11
121.4306003582
 21
391.278196442
 31
0.0
  0
LINE
  5
27A
330
5E
100
AcDbEntity
  8
$DDT_AUDIT_GENERATED_(CA)
  6
Continuous
 62
     7
100
AcDbLine
 10
121.4306003582
 20
390.9279890607
 30
0.0
 11
120.65
 21
390.9279890607
 31
0.0
  0
LINE
  5
27B
330
5E
100
AcDbEntity
  8
$DDT_AUDIT_GENERATED_(CA)
  6
Continuous
 62
     7
100
AcDbLine
 10
120.65
 20
390.9279890607
 30
0.0
 11
120.65
 21
391.278196442
 31
0.0
  0
LINE
  5
27C
330
5E
100
AcDbEntity
  8
$DDT_AUDIT_GENERATED_(CA)
  6
Continuous
 62
     7
100
AcDbLine
 10
120.65
 20
391.278196442
 30
0.0
 11
121.65
 21
391.278196442
 31
0.0
  0
LINE
  5
27D
330
5E
100
AcDbEntity
  8
$DDT_AUDIT_GENERATED_(CA)
  6
Continuous
 62
     7
100
AcDbLine
 10
121.65
 20
391.278196442
 30
0.0
 11
121.65
 21
390.9901925874
 31
0.0
  0
ELLIPSE
  5
27E
330
5E
100
AcDbEntity
  8
$DDT_AUDIT_GENERATED_(CA)
  6
Continuous
 62
     7
100
AcDbEllipse
 10
116.3499999077
 20
393.2043370669
 30
0.0
 11
8.250000095966902
 21
-2.412008179991654E-8
 31
0.0
210
0.0
220
0.0
230
1.0
 40
0.3502073809
 41
-0.7297276514194406
 42
-0.6976574482982691
  0
LINE
  5
27F
330
5E
100
AcDbEntity
  8
$DDT_AUDIT_GENERATED_(CA)
  6
Continuous
 62
     7
100
AcDbLine
 10
121.85
 20
391.0508463844
 30
0.0
 11
121.85
 21
391.278196442
 31
0.0
  0
LINE
  5
280
330
5E
100
AcDbEntity
  8
$DDT_AUDIT_GENERATED_(CA)
  6
Continuous
 62
     7
100
AcDbLine
 10
121.85
 20
391.278196442
 30
0.0
 11
122.4991869381
 21
391.278196442
 31
0.0
  0
LINE
  5
281
330
5E
100
AcDbEntity
  8
$DDT_AUDIT_GENERATED_(CA)
  6
Continuous
 62
     7
100
AcDbLine
 10
119.25
 20
390.8579475845
 30
0.0
 11
119.25
 21
390.5077402032
 31
0.0
  0
LINE
  5
282
330
5E
100
AcDbEntity
  8
$DDT_AUDIT_GENERATED_(CA)
  6
Continuous
 62
     7
100
AcDbLine
 10
119.25
 20
390.5077402032
 30
0.0
 11
118.25
 21
390.5077402032
 31
0.0
  0
LINE
  5
283
330
5E
100
AcDbEntity
  8
$DDT_AUDIT_GENERATED_(CA)
  6
Continuous
 62
     7
100
AcDbLine
 10
118.25
 20
390.5077402032
 30
0.0
 11
118.25
 21
390.8579475845
 31
0.0
  0
LINE
  5
284
330
5E
100
AcDbEntity
  8
$DDT_AUDIT_GENERATED_(CA)
  6
Continuous
 62
     7
100
AcDbLine
 10
118.25
 20
390.8579475845
 30
0.0
 11
119.25
 21
390.8579475845
 31
0.0
  0
ELLIPSE
  5
285
330
5E
100
AcDbEntity
  8
$DDT_AUDIT_GENERATED_(CA)
  6
Continuous
 62
     7
100
AcDbEllipse
 10
116.3499999044
 20
393.2043370956
 30
0.0
 11
8.250000118264143
 21
-3.285096934063647E-8
 31
0.0
210
0.0
220
0.0
230
1.0
 40
0.3502073832
 41
-1.05069311699704
 42
-1.022525686498946
  0
LINE
  5
286
330
5E
100
AcDbEntity
  8
$DDT_AUDIT_GENERATED_(CA)
  6
Continuous
 62
     7
100
AcDbLine
 10
119.45
 20
390.5268533077
 30
0.0
 11
119.45
 21
390.8579475845
 31
0.0
  0
LINE
  5
287
330
5E
100
AcDbEntity
  8
$DDT_AUDIT_GENERATED_(CA)
  6
Continuous
 62
     7
100
AcDbLine
 10
119.45
 20
390.8579475845
 30
0.0
 11
120.45
 21
390.8579475845
 31
0.0
  0
LINE
  5
288
330
5E
100
AcDbEntity
  8
$DDT_AUDIT_GENERATED_(CA)
  6
Continuous
 62
     7
100
AcDbLine
 10
120.45
 20
390.8579475845
 30
0.0
 11
120.45
 21
390.6971725808
 31
0.0
  0
ELLIPSE
  5
289
330
5E
100
AcDbEntity
  8
$DDT_AUDIT_GENERATED_(CA)
  6
Continuous
 62
     7
100
AcDbEllipse
 10
116.3499999838
 20
393.2043370465
 30
0.0
 11
8.250000018419833
 21
-5.192337879100783E-9
 31
0.0
210
0.0
220
0.0
230
1.0
 40
0.3502073814
 41
-0.9477783659311765
 42
-0.9073568915833761
  0
LINE
  5
28A
330
5E
100
AcDbEntity
  8
$DDT_AUDIT_GENERATED_(CA)
  6
Continuous
 62
     7
100
AcDbLine
 10
120.65
 20
390.7386059775
 30
0.0
 11
120.65
 21
390.8579475845
 31
0.0
  0
LINE
  5
28B
330
5E
100
AcDbEntity
  8
$DDT_AUDIT_GENERATED_(CA)
  6
Continuous
 62
     7
100
AcDbLine
 10
120.65
 20
390.8579475845
 30
0.0
 11
121.1637822967
 21
390.8579475845
 31
0.0
  0
ELLIPSE
  5
28C
330
5E
100
AcDbEntity
  8
$DDT_AUDIT_GENERATED_(CA)
  6
Continuous
 62
     7
100
AcDbEllipse
 10
116.3499999773
 20
393.2043371481
 30
0.0
 11
8.250000157131238
 21
-9.009095552903190E-9
 31
0.0
210
0.0
220
0.0
230
1.0
 40
0.3502073878
 41
-1.510153100781057
 42
-1.485845701387476
  0
LINE
  5
28D
330
5E
100
AcDbEntity
  8
$DDT_AUDIT_GENERATED_(CA)
  6
Continuous
 62
     7
100
AcDbLine
 10
115.85
 20
390.4376987269
 30
0.0
 11
116.85
 21
390.4376987269
 31
0.0
  0
LINE
  5
28E
330
5E
100
AcDbEntity
  8
$DDT_AUDIT_GENERATED_(CA)
  6
Continuous
 62
     7
100
AcDbLine
 10
116.85
 20
390.4376987269
 30
0.0
 11
116.85
 21
390.3204371974
 31
0.0
  0
ELLIPSE
  5
28F
330
5E
100
AcDbEntity
  8
$DDT_AUDIT_GENERATED_(CA)
  6
Continuous
 62
     7
100
AcDbEllipse
 10
116.3499999367
 20
393.2043371383
 30
0.0
 11
8.250000152333866
 21
-2.467388359600475E-8
 31
0.0
210
0.0
220
0.0
230
1.0
 40
0.3502073868
 41
-1.363248871307394
 42
-1.338407249747167
  0
LINE
  5
290
330
5E
100
AcDbEntity
  8
$DDT_AUDIT_GENERATED_(CA)
  6
Continuous
 62
     7
100
AcDbLine
 10
117.05
 20
390.3255450274
 30
0.0
 11
117.05
 21
390.4376987269
 31
0.0
  0
LINE
  5
291
330
5E
100
AcDbEntity
  8
$DDT_AUDIT_GENERATED_(CA)
  6
Continuous
 62
     7
100
AcDbLine
 10
117.05
 20
390.4376987269
 30
0.0
 11
118.05
 21
390.4376987269
 31
0.0
  0
LINE
  5
292
330
5E
100
AcDbEntity
  8
$DDT_AUDIT_GENERATED_(CA)
  6
Continuous
 62
     7
100
AcDbLine
 10
118.05
 20
390.4376987269
 30
0.0
 11
118.05
 21
390.3771308311
 31
0.0
  0
ELLIPSE
  5
293
330
5E
100
AcDbEntity
  8
$DDT_AUDIT_GENERATED_(CA)
  6
Continuous
 62
     7
100
AcDbEllipse
 10
116.35
 20
393.2043370389
 30
0.0
 11
8.250000000010145
 21
-3.206636345343128E-12
 31
0.0
210
0.0
220
0.0
230
1.0
 40
0.3502073813
 41
-1.278468933640445
 42
-1.1855822051318
  0
LINE
  5
294
330
5E
100
AcDbEntity
  8
$DDT_AUDIT_GENERATED_(CA)
  6
Continuous
 62
     7
100
AcDbLine
 10
118.25
 20
390.3927911313
 30
0.0
 11
118.25
 21
390.4376987269
 31
0.0
  0
LINE
  5
295
330
5E
100
AcDbEntity
  8
$DDT_AUDIT_GENERATED_(CA)
  6
Continuous
 62
     7
100
AcDbLine
 10
118.25
 20
390.4376987269
 30
0.0
 11
118.7274986856
 21
390.4376987269
 31
0.0
  0
LINE
  5
296
330
5E
100
AcDbEntity
  8
$DDT_AUDIT_GENERATED_(CA)
  6
Continuous
 62
     7
100
AcDbLine
 10
115.65
 20
393.0292333483
 30
0.0
 11
114.65
 21
393.0292333483
 31
0.0
  0
LINE
  5
297
330
5E
100
AcDbEntity
  8
$DDT_AUDIT_GENERATED_(CA)
  6
Continuous
 62
     7
100
AcDbLine
 10
114.45
 20
393.0292333483
 30
0.0
 11
113.45
 21
393.0292333483
 31
0.0
  0
LINE
  5
298
330
5E
100
AcDbEntity
  8
$DDT_AUDIT_GENERATED_(CA)
  6
Continuous
 62
     7
100
AcDbLine
 10
113.25
 20
393.0292333483
 30
0.0
 11
112.25
 21
393.0292333483
 31
0.0
  0
LINE
  5
299
330
5E
100
AcDbEntity
  8
$DDT_AUDIT_GENERATED_(CA)
  6
Continuous
 62
     7
100
AcDbLine
 10
112.05
 20
393.0292333483
 30
0.0
 11
111.05
 21
393.0292333483
 31
0.0
  0
LINE
  5
29A
330
5E
100
AcDbEntity
  8
$DDT_AUDIT_GENERATED_(CA)
  6
Continuous
 62
     7
100
AcDbLine
 10
110.85
 20
393.0292333483
 30
0.0
 11
109.85
 21
393.0292333483
 31
0.0
  0
LINE
  5
29B
330
5E
100
AcDbEntity
  8
$DDT_AUDIT_GENERATED_(CA)
  6
Continuous
 62
     7
100
AcDbLine
 10
109.65
 20
393.0292333483
 30
0.0
 11
108.65
 21
393.0292333483
 31
0.0
  0
LINE
  5
29C
330
5E
100
AcDbEntity
  8
$DDT_AUDIT_GENERATED_(CA)
  6
Continuous
 62
     7
100
AcDbLine
 10
115.85
 20
392.6089844908
 30
0.0
 11
115.85
 21
392.959191872
 31
0.0
  0
LINE
  5
29D
330
5E
100
AcDbEntity
  8
$DDT_AUDIT_GENERATED_(CA)
  6
Continuous
 62
     7
100
AcDbLine
 10
115.65
 20
392.6089844908
 30
0.0
 11
114.65
 21
392.6089844908
 31
0.0
  0
LINE
  5
29E
330
5E
100
AcDbEntity
  8
$DDT_AUDIT_GENERATED_(CA)
  6
Continuous
 62
     7
100
AcDbLine
 10
114.65
 20
392.6089844908
 30
0.0
 11
114.65
 21
392.959191872
 31
0.0
  0
LINE
  5
29F
330
5E
100
AcDbEntity
  8
$DDT_AUDIT_GENERATED_(CA)
  6
Continuous
 62
     7
100
AcDbLine
 10
114.65
 20
392.959191872
 30
0.0
 11
115.65
 21
392.959191872
 31
0.0
  0
LINE
  5
2A0
330
5E
100
AcDbEntity
  8
$DDT_AUDIT_GENERATED_(CA)
  6
Continuous
 62
     7
100
AcDbLine
 10
115.65
 20
392.959191872
 30
0.0
 11
115.65
 21
392.6089844908
 31
0.0
  0
LINE
  5
2A1
330
5E
100
AcDbEntity
  8
$DDT_AUDIT_GENERATED_(CA)
  6
Continuous
 62
     7
100
AcDbLine
 10
114.45
 20
392.6089844908
 30
0.0
 11
113.45
 21
392.6089844908
 31
0.0
  0
LINE
  5
2A2
330
5E
100
AcDbEntity
  8
$DDT_AUDIT_GENERATED_(CA)
  6
Continuous
 62
     7
100
AcDbLine
 10
113.45
 20
392.6089844908
 30
0.0
 11
113.45
 21
392.959191872
 31
0.0
  0
LINE
  5
2A3
330
5E
100
AcDbEntity
  8
$DDT_AUDIT_GENERATED_(CA)
  6
Continuous
 62
     7
100
AcDbLine
 10
113.45
 20
392.959191872
 30
0.0
 11
114.45
 21
392.959191872
 31
0.0
  0
LINE
  5
2A4
330
5E
100
AcDbEntity
  8
$DDT_AUDIT_GENERATED_(CA)
  6
Continuous
 62
     7
100
AcDbLine
 10
114.45
 20
392.959191872
 30
0.0
 11
114.45
 21
392.6089844908
 31
0.0
  0
LINE
  5
2A5
330
5E
100
AcDbEntity
  8
$DDT_AUDIT_GENERATED_(CA)
  6
Continuous
 62
     7
100
AcDbLine
 10
113.25
 20
392.6089844908
 30
0.0
 11
112.25
 21
392.6089844908
 31
0.0
  0
LINE
  5
2A6
330
5E
100
AcDbEntity
  8
$DDT_AUDIT_GENERATED_(CA)
  6
Continuous
 62
     7
100
AcDbLine
 10
112.25
 20
392.6089844908
 30
0.0
 11
112.25
 21
392.959191872
 31
0.0
  0
LINE
  5
2A7
330
5E
100
AcDbEntity
  8
$DDT_AUDIT_GENERATED_(CA)
  6
Continuous
 62
     7
100
AcDbLine
 10
112.25
 20
392.959191872
 30
0.0
 11
113.25
 21
392.959191872
 31
0.0
  0
LINE
  5
2A8
330
5E
100
AcDbEntity
  8
$DDT_AUDIT_GENERATED_(CA)
  6
Continuous
 62
     7
100
AcDbLine
 10
113.25
 20
392.959191872
 30
0.0
 11
113.25
 21
392.6089844908
 31
0.0
  0
LINE
  5
2A9
330
5E
100
AcDbEntity
  8
$DDT_AUDIT_GENERATED_(CA)
  6
Continuous
 62
     7
100
AcDbLine
 10
112.05
 20
392.6089844908
 30
0.0
 11
111.05
 21
392.6089844908
 31
0.0
  0
LINE
  5
2AA
330
5E
100
AcDbEntity
  8
$DDT_AUDIT_GENERATED_(CA)
  6
Continuous
 62
     7
100
AcDbLine
 10
111.05
 20
392.6089844908
 30
0.0
 11
111.05
 21
392.959191872
 31
0.0
  0
LINE
  5
2AB
330
5E
100
AcDbEntity
  8
$DDT_AUDIT_GENERATED_(CA)
  6
Continuous
 62
     7
100
AcDbLine
 10
111.05
 20
392.959191872
 30
0.0
 11
112.05
 21
392.959191872
 31
0.0
  0
LINE
  5
2AC
330
5E
100
AcDbEntity
  8
$DDT_AUDIT_GENERATED_(CA)
  6
Continuous
 62
     7
100
AcDbLine
 10
112.05
 20
392.959191872
 30
0.0
 11
112.05
 21
392.6089844908
 31
0.0
  0
LINE
  5
2AD
330
5E
100
AcDbEntity
  8
$DDT_AUDIT_GENERATED_(CA)
  6
Continuous
 62
     7
100
AcDbLine
 10
110.85
 20
392.6089844908
 30
0.0
 11
109.85
 21
392.6089844908
 31
0.0
  0
LINE
  5
2AE
330
5E
100
AcDbEntity
  8
$DDT_AUDIT_GENERATED_(CA)
  6
Continuous
 62
     7
100
AcDbLine
 10
109.85
 20
392.6089844908
 30
0.0
 11
109.85
 21
392.959191872
 31
0.0
  0
LINE
  5
2AF
330
5E
100
AcDbEntity
  8
$DDT_AUDIT_GENERATED_(CA)
  6
Continuous
 62
     7
100
AcDbLine
 10
109.85
 20
392.959191872
 30
0.0
 11
110.85
 21
392.959191872
 31
0.0
  0
LINE
  5
2B0
330
5E
100
AcDbEntity
  8
$DDT_AUDIT_GENERATED_(CA)
  6
Continuous
 62
     7
100
AcDbLine
 10
110.85
 20
392.959191872
 30
0.0
 11
110.85
 21
392.6089844908
 31
0.0
  0
LINE
  5
2B1
330
5E
100
AcDbEntity
  8
$DDT_AUDIT_GENERATED_(CA)
  6
Continuous
 62
     7
100
AcDbLine
 10
109.65
 20
392.6089844908
 30
0.0
 11
108.65
 21
392.6089844908
 31
0.0
  0
LINE
  5
2B2
330
5E
100
AcDbEntity
  8
$DDT_AUDIT_GENERATED_(CA)
  6
Continuous
 62
     7
100
AcDbLine
 10
108.65
 20
392.6089844908
 30
0.0
 11
108.65
 21
392.959191872
 31
0.0
  0
LINE
  5
2B3
330
5E
100
AcDbEntity
  8
$DDT_AUDIT_GENERATED_(CA)
  6
Continuous
 62
     7
100
AcDbLine
 10
108.65
 20
392.959191872
 30
0.0
 11
109.65
 21
392.959191872
 31
0.0
  0
LINE
  5
2B4
330
5E
100
AcDbEntity
  8
$DDT_AUDIT_GENERATED_(CA)
  6
Continuous
 62
     7
100
AcDbLine
 10
109.65
 20
392.959191872
 30
0.0
 11
109.65
 21
392.6089844908
 31
0.0
  0
LINE
  5
2B5
330
5E
100
AcDbEntity
  8
$DDT_AUDIT_GENERATED_(CA)
  6
Continuous
 62
     7
100
AcDbLine
 10
115.85
 20
392.1887356332
 30
0.0
 11
115.85
 21
392.5389430145
 31
0.0
  0
LINE
  5
2B6
330
5E
100
AcDbEntity
  8
$DDT_AUDIT_GENERATED_(CA)
  6
Continuous
 62
     7
100
AcDbLine
 10
115.65
 20
392.1887356332
 30
0.0
 11
114.65
 21
392.1887356332
 31
0.0
  0
LINE
  5
2B7
330
5E
100
AcDbEntity
  8
$DDT_AUDIT_GENERATED_(CA)
  6
Continuous
 62
     7
100
AcDbLine
 10
114.65
 20
392.1887356332
 30
0.0
 11
114.65
 21
392.5389430145
 31
0.0
  0
LINE
  5
2B8
330
5E
100
AcDbEntity
  8
$DDT_AUDIT_GENERATED_(CA)
  6
Continuous
 62
     7
100
AcDbLine
 10
114.65
 20
392.5389430145
 30
0.0
 11
115.65
 21
392.5389430145
 31
0.0
  0
LINE
  5
2B9
330
5E
100
AcDbEntity
  8
$DDT_AUDIT_GENERATED_(CA)
  6
Continuous
 62
     7
100
AcDbLine
 10
115.65
 20
392.5389430145
 30
0.0
 11
115.65
 21
392.1887356332
 31
0.0
  0
LINE
  5
2BA
330
5E
100
AcDbEntity
  8
$DDT_AUDIT_GENERATED_(CA)
  6
Continuous
 62
     7
100
AcDbLine
 10
114.45
 20
392.1887356332
 30
0.0
 11
113.45
 21
392.1887356332
 31
0.0
  0
LINE
  5
2BB
330
5E
100
AcDbEntity
  8
$DDT_AUDIT_GENERATED_(CA)
  6
Continuous
 62
     7
100
AcDbLine
 10
113.45
 20
392.1887356332
 30
0.0
 11
113.45
 21
392.5389430145
 31
0.0
  0
LINE
  5
2BC
330
5E
100
AcDbEntity
  8
$DDT_AUDIT_GENERATED_(CA)
  6
Continuous
 62
     7
100
AcDbLine
 10
113.45
 20
392.5389430145
 30
0.0
 11
114.45
 21
392.5389430145
 31
0.0
  0
LINE
  5
2BD
330
5E
100
AcDbEntity
  8
$DDT_AUDIT_GENERATED_(CA)
  6
Continuous
 62
     7
100
AcDbLine
 10
114.45
 20
392.5389430145
 30
0.0
 11
114.45
 21
392.1887356332
 31
0.0
  0
LINE
  5
2BE
330
5E
100
AcDbEntity
  8
$DDT_AUDIT_GENERATED_(CA)
  6
Continuous
 62
     7
100
AcDbLine
 10
113.25
 20
392.1887356332
 30
0.0
 11
112.25
 21
392.1887356332
 31
0.0
  0
LINE
  5
2BF
330
5E
100
AcDbEntity
  8
$DDT_AUDIT_GENERATED_(CA)
  6
Continuous
 62
     7
100
AcDbLine
 10
112.25
 20
392.1887356332
 30
0.0
 11
112.25
 21
392.5389430145
 31
0.0
  0
LINE
  5
2C0
330
5E
100
AcDbEntity
  8
$DDT_AUDIT_GENERATED_(CA)
  6
Continuous
 62
     7
100
AcDbLine
 10
112.25
 20
392.5389430145
 30
0.0
 11
113.25
 21
392.5389430145
 31
0.0
  0
LINE
  5
2C1
330
5E
100
AcDbEntity
  8
$DDT_AUDIT_GENERATED_(CA)
  6
Continuous
 62
     7
100
AcDbLine
 10
113.25
 20
392.5389430145
 30
0.0
 11
113.25
 21
392.1887356332
 31
0.0
  0
LINE
  5
2C2
330
5E
100
AcDbEntity
  8
$DDT_AUDIT_GENERATED_(CA)
  6
Continuous
 62
     7
100
AcDbLine
 10
112.05
 20
392.1887356332
 30
0.0
 11
111.05
 21
392.1887356332
 31
0.0
  0
LINE
  5
2C3
330
5E
100
AcDbEntity
  8
$DDT_AUDIT_GENERATED_(CA)
  6
Continuous
 62
     7
100
AcDbLine
 10
111.05
 20
392.1887356332
 30
0.0
 11
111.05
 21
392.5389430145
 31
0.0
  0
LINE
  5
2C4
330
5E
100
AcDbEntity
  8
$DDT_AUDIT_GENERATED_(CA)
  6
Continuous
 62
     7
100
AcDbLine
 10
111.05
 20
392.5389430145
 30
0.0
 11
112.05
 21
392.5389430145
 31
0.0
  0
LINE
  5
2C5
330
5E
100
AcDbEntity
  8
$DDT_AUDIT_GENERATED_(CA)
  6
Continuous
 62
     7
100
AcDbLine
 10
112.05
 20
392.5389430145
 30
0.0
 11
112.05
 21
392.1887356332
 31
0.0
  0
LINE
  5
2C6
330
5E
100
AcDbEntity
  8
$DDT_AUDIT_GENERATED_(CA)
  6
Continuous
 62
     7
100
AcDbLine
 10
110.85
 20
392.1887356332
 30
0.0
 11
109.85
 21
392.1887356332
 31
0.0
  0
LINE
  5
2C7
330
5E
100
AcDbEntity
  8
$DDT_AUDIT_GENERATED_(CA)
  6
Continuous
 62
     7
100
AcDbLine
 10
109.85
 20
392.1887356332
 30
0.0
 11
109.85
 21
392.5389430145
 31
0.0
  0
LINE
  5
2C8
330
5E
100
AcDbEntity
  8
$DDT_AUDIT_GENERATED_(CA)
  6
Continuous
 62
     7
100
AcDbLine
 10
109.85
 20
392.5389430145
 30
0.0
 11
110.85
 21
392.5389430145
 31
0.0
  0
LINE
  5
2C9
330
5E
100
AcDbEntity
  8
$DDT_AUDIT_GENERATED_(CA)
  6
Continuous
 62
     7
100
AcDbLine
 10
110.85
 20
392.5389430145
 30
0.0
 11
110.85
 21
392.1887356332
 31
0.0
  0
LINE
  5
2CA
330
5E
100
AcDbEntity
  8
$DDT_AUDIT_GENERATED_(CA)
  6
Continuous
 62
     7
100
AcDbLine
 10
115.85
 20
391.7684867757
 30
0.0
 11
115.85
 21
392.118694157
 31
0.0
  0
LINE
  5
2CB
330
5E
100
AcDbEntity
  8
$DDT_AUDIT_GENERATED_(CA)
  6
Continuous
 62
     7
100
AcDbLine
 10
115.65
 20
391.7684867757
 30
0.0
 11
114.65
 21
391.7684867757
 31
0.0
  0
LINE
  5
2CC
330
5E
100
AcDbEntity
  8
$DDT_AUDIT_GENERATED_(CA)
  6
Continuous
 62
     7
100
AcDbLine
 10
114.65
 20
391.7684867757
 30
0.0
 11
114.65
 21
392.118694157
 31
0.0
  0
LINE
  5
2CD
330
5E
100
AcDbEntity
  8
$DDT_AUDIT_GENERATED_(CA)
  6
Continuous
 62
     7
100
AcDbLine
 10
114.65
 20
392.118694157
 30
0.0
 11
115.65
 21
392.118694157
 31
0.0
  0
LINE
  5
2CE
330
5E
100
AcDbEntity
  8
$DDT_AUDIT_GENERATED_(CA)
  6
Continuous
 62
     7
100
AcDbLine
 10
115.65
 20
392.118694157
 30
0.0
 11
115.65
 21
391.7684867757
 31
0.0
  0
LINE
  5
2CF
330
5E
100
AcDbEntity
  8
$DDT_AUDIT_GENERATED_(CA)
  6
Continuous
 62
     7
100
AcDbLine
 10
114.45
 20
391.7684867757
 30
0.0
 11
113.45
 21
391.7684867757
 31
0.0
  0
LINE
  5
2D0
330
5E
100
AcDbEntity
  8
$DDT_AUDIT_GENERATED_(CA)
  6
Continuous
 62
     7
100
AcDbLine
 10
113.45
 20
391.7684867757
 30
0.0
 11
113.45
 21
392.118694157
 31
0.0
  0
LINE
  5
2D1
330
5E
100
AcDbEntity
  8
$DDT_AUDIT_GENERATED_(CA)
  6
Continuous
 62
     7
100
AcDbLine
 10
113.45
 20
392.118694157
 30
0.0
 11
114.45
 21
392.118694157
 31
0.0
  0
LINE
  5
2D2
330
5E
100
AcDbEntity
  8
$DDT_AUDIT_GENERATED_(CA)
  6
Continuous
 62
     7
100
AcDbLine
 10
114.45
 20
392.118694157
 30
0.0
 11
114.45
 21
391.7684867757
 31
0.0
  0
LINE
  5
2D3
330
5E
100
AcDbEntity
  8
$DDT_AUDIT_GENERATED_(CA)
  6
Continuous
 62
     7
100
AcDbLine
 10
113.25
 20
391.7684867757
 30
0.0
 11
112.25
 21
391.7684867757
 31
0.0
  0
LINE
  5
2D4
330
5E
100
AcDbEntity
  8
$DDT_AUDIT_GENERATED_(CA)
  6
Continuous
 62
     7
100
AcDbLine
 10
112.25
 20
391.7684867757
 30
0.0
 11
112.25
 21
392.118694157
 31
0.0
  0
LINE
  5
2D5
330
5E
100
AcDbEntity
  8
$DDT_AUDIT_GENERATED_(CA)
  6
Continuous
 62
     7
100
AcDbLine
 10
112.25
 20
392.118694157
 30
0.0
 11
113.25
 21
392.118694157
 31
0.0
  0
LINE
  5
2D6
330
5E
100
AcDbEntity
  8
$DDT_AUDIT_GENERATED_(CA)
  6
Continuous
 62
     7
100
AcDbLine
 10
113.25
 20
392.118694157
 30
0.0
 11
113.25
 21
391.7684867757
 31
0.0
  0
LINE
  5
2D7
330
5E
100
AcDbEntity
  8
$DDT_AUDIT_GENERATED_(CA)
  6
Continuous
 62
     7
100
AcDbLine
 10
112.05
 20
391.7684867757
 30
0.0
 11
111.05
 21
391.7684867757
 31
0.0
  0
LINE
  5
2D8
330
5E
100
AcDbEntity
  8
$DDT_AUDIT_GENERATED_(CA)
  6
Continuous
 62
     7
100
AcDbLine
 10
111.05
 20
391.7684867757
 30
0.0
 11
111.05
 21
392.118694157
 31
0.0
  0
LINE
  5
2D9
330
5E
100
AcDbEntity
  8
$DDT_AUDIT_GENERATED_(CA)
  6
Continuous
 62
     7
100
AcDbLine
 10
111.05
 20
392.118694157
 30
0.0
 11
112.05
 21
392.118694157
 31
0.0
  0
LINE
  5
2DA
330
5E
100
AcDbEntity
  8
$DDT_AUDIT_GENERATED_(CA)
  6
Continuous
 62
     7
100
AcDbLine
 10
112.05
 20
392.118694157
 30
0.0
 11
112.05
 21
391.7684867757
 31
0.0
  0
LINE
  5
2DB
330
5E
100
AcDbEntity
  8
$DDT_AUDIT_GENERATED_(CA)
  6
Continuous
 62
     7
100
AcDbLine
 10
109.85
 20
391.7684867757
 30
0.0
 11
109.85
 21
392.118694157
 31
0.0
  0
LINE
  5
2DC
330
5E
100
AcDbEntity
  8
$DDT_AUDIT_GENERATED_(CA)
  6
Continuous
 62
     7
100
AcDbLine
 10
110.85
 20
391.7684867757
 30
0.0
 11
109.85
 21
391.7684867757
 31
0.0
  0
LINE
  5
2DD
330
5E
100
AcDbEntity
  8
$DDT_AUDIT_GENERATED_(CA)
  6
Continuous
 62
     7
100
AcDbLine
 10
109.85
 20
392.118694157
 30
0.0
 11
110.85
 21
392.118694157
 31
0.0
  0
LINE
  5
2DE
330
5E
100
AcDbEntity
  8
$DDT_AUDIT_GENERATED_(CA)
  6
Continuous
 62
     7
100
AcDbLine
 10
110.85
 20
392.118694157
 30
0.0
 11
110.85
 21
391.7684867757
 31
0.0
  0
LINE
  5
2DF
330
5E
100
AcDbEntity
  8
$DDT_AUDIT_GENERATED_(CA)
  6
Continuous
 62
     7
100
AcDbLine
 10
115.85
 20
391.3482379182
 30
0.0
 11
115.85
 21
391.6984452995
 31
0.0
  0
LINE
  5
2E0
330
5E
100
AcDbEntity
  8
$DDT_AUDIT_GENERATED_(CA)
  6
Continuous
 62
     7
100
AcDbLine
 10
115.65
 20
391.3482379182
 30
0.0
 11
114.65
 21
391.3482379182
 31
0.0
  0
LINE
  5
2E1
330
5E
100
AcDbEntity
  8
$DDT_AUDIT_GENERATED_(CA)
  6
Continuous
 62
     7
100
AcDbLine
 10
114.65
 20
391.3482379182
 30
0.0
 11
114.65
 21
391.6984452995
 31
0.0
  0
LINE
  5
2E2
330
5E
100
AcDbEntity
  8
$DDT_AUDIT_GENERATED_(CA)
  6
Continuous
 62
     7
100
AcDbLine
 10
114.65
 20
391.6984452995
 30
0.0
 11
115.65
 21
391.6984452995
 31
0.0
  0
LINE
  5
2E3
330
5E
100
AcDbEntity
  8
$DDT_AUDIT_GENERATED_(CA)
  6
Continuous
 62
     7
100
AcDbLine
 10
115.65
 20
391.6984452995
 30
0.0
 11
115.65
 21
391.3482379182
 31
0.0
  0
LINE
  5
2E4
330
5E
100
AcDbEntity
  8
$DDT_AUDIT_GENERATED_(CA)
  6
Continuous
 62
     7
100
AcDbLine
 10
114.45
 20
391.3482379182
 30
0.0
 11
113.45
 21
391.3482379182
 31
0.0
  0
LINE
  5
2E5
330
5E
100
AcDbEntity
  8
$DDT_AUDIT_GENERATED_(CA)
  6
Continuous
 62
     7
100
AcDbLine
 10
113.45
 20
391.3482379182
 30
0.0
 11
113.45
 21
391.6984452995
 31
0.0
  0
LINE
  5
2E6
330
5E
100
AcDbEntity
  8
$DDT_AUDIT_GENERATED_(CA)
  6
Continuous
 62
     7
100
AcDbLine
 10
113.45
 20
391.6984452995
 30
0.0
 11
114.45
 21
391.6984452995
 31
0.0
  0
LINE
  5
2E7
330
5E
100
AcDbEntity
  8
$DDT_AUDIT_GENERATED_(CA)
  6
Continuous
 62
     7
100
AcDbLine
 10
114.45
 20
391.6984452995
 30
0.0
 11
114.45
 21
391.3482379182
 31
0.0
  0
LINE
  5
2E8
330
5E
100
AcDbEntity
  8
$DDT_AUDIT_GENERATED_(CA)
  6
Continuous
 62
     7
100
AcDbLine
 10
113.25
 20
391.3482379182
 30
0.0
 11
112.25
 21
391.3482379182
 31
0.0
  0
LINE
  5
2E9
330
5E
100
AcDbEntity
  8
$DDT_AUDIT_GENERATED_(CA)
  6
Continuous
 62
     7
100
AcDbLine
 10
112.25
 20
391.3482379182
 30
0.0
 11
112.25
 21
391.6984452995
 31
0.0
  0
LINE
  5
2EA
330
5E
100
AcDbEntity
  8
$DDT_AUDIT_GENERATED_(CA)
  6
Continuous
 62
     7
100
AcDbLine
 10
112.25
 20
391.6984452995
 30
0.0
 11
113.25
 21
391.6984452995
 31
0.0
  0
LINE
  5
2EB
330
5E
100
AcDbEntity
  8
$DDT_AUDIT_GENERATED_(CA)
  6
Continuous
 62
     7
100
AcDbLine
 10
113.25
 20
391.6984452995
 30
0.0
 11
113.25
 21
391.3482379182
 31
0.0
  0
LINE
  5
2EC
330
5E
100
AcDbEntity
  8
$DDT_AUDIT_GENERATED_(CA)
  6
Continuous
 62
     7
100
AcDbLine
 10
112.05
 20
391.3482379182
 30
0.0
 11
111.05
 21
391.3482379182
 31
0.0
  0
LINE
  5
2ED
330
5E
100
AcDbEntity
  8
$DDT_AUDIT_GENERATED_(CA)
  6
Continuous
 62
     7
100
AcDbLine
 10
111.05
 20
391.3482379182
 30
0.0
 11
111.05
 21
391.6984452995
 31
0.0
  0
LINE
  5
2EE
330
5E
100
AcDbEntity
  8
$DDT_AUDIT_GENERATED_(CA)
  6
Continuous
 62
     7
100
AcDbLine
 10
111.05
 20
391.6984452995
 30
0.0
 11
112.05
 21
391.6984452995
 31
0.0
  0
LINE
  5
2EF
330
5E
100
AcDbEntity
  8
$DDT_AUDIT_GENERATED_(CA)
  6
Continuous
 62
     7
100
AcDbLine
 10
112.05
 20
391.6984452995
 30
0.0
 11
112.05
 21
391.3482379182
 31
0.0
  0
LINE
  5
2F0
330
5E
100
AcDbEntity
  8
$DDT_AUDIT_GENERATED_(CA)
  6
Continuous
 62
     7
100
AcDbLine
 10
115.85
 20
390.9279890607
 30
0.0
 11
115.85
 21
391.278196442
 31
0.0
  0
LINE
  5
2F1
330
5E
100
AcDbEntity
  8
$DDT_AUDIT_GENERATED_(CA)
  6
Continuous
 62
     7
100
AcDbLine
 10
115.65
 20
390.9279890607
 30
0.0
 11
114.65
 21
390.9279890607
 31
0.0
  0
LINE
  5
2F2
330
5E
100
AcDbEntity
  8
$DDT_AUDIT_GENERATED_(CA)
  6
Continuous
 62
     7
100
AcDbLine
 10
114.65
 20
390.9279890607
 30
0.0
 11
114.65
 21
391.278196442
 31
0.0
  0
LINE
  5
2F3
330
5E
100
AcDbEntity
  8
$DDT_AUDIT_GENERATED_(CA)
  6
Continuous
 62
     7
100
AcDbLine
 10
114.65
 20
391.278196442
 30
0.0
 11
115.65
 21
391.278196442
 31
0.0
  0
LINE
  5
2F4
330
5E
100
AcDbEntity
  8
$DDT_AUDIT_GENERATED_(CA)
  6
Continuous
 62
     7
100
AcDbLine
 10
115.65
 20
391.278196442
 30
0.0
 11
115.65
 21
390.9279890607
 31
0.0
  0
LINE
  5
2F5
330
5E
100
AcDbEntity
  8
$DDT_AUDIT_GENERATED_(CA)
  6
Continuous
 62
     7
100
AcDbLine
 10
114.45
 20
390.9279890607
 30
0.0
 11
113.45
 21
390.9279890607
 31
0.0
  0
LINE
  5
2F6
330
5E
100
AcDbEntity
  8
$DDT_AUDIT_GENERATED_(CA)
  6
Continuous
 62
     7
100
AcDbLine
 10
113.45
 20
390.9279890607
 30
0.0
 11
113.45
 21
391.278196442
 31
0.0
  0
LINE
  5
2F7
330
5E
100
AcDbEntity
  8
$DDT_AUDIT_GENERATED_(CA)
  6
Continuous
 62
     7
100
AcDbLine
 10
113.45
 20
391.278196442
 30
0.0
 11
114.45
 21
391.278196442
 31
0.0
  0
LINE
  5
2F8
330
5E
100
AcDbEntity
  8
$DDT_AUDIT_GENERATED_(CA)
  6
Continuous
 62
     7
100
AcDbLine
 10
114.45
 20
391.278196442
 30
0.0
 11
114.45
 21
390.9279890607
 31
0.0
  0
LINE
  5
2F9
330
5E
100
AcDbEntity
  8
$DDT_AUDIT_GENERATED_(CA)
  6
Continuous
 62
     7
100
AcDbLine
 10
113.25
 20
390.9279890607
 30
0.0
 11
112.25
 21
390.9279890607
 31
0.0
  0
LINE
  5
2FA
330
5E
100
AcDbEntity
  8
$DDT_AUDIT_GENERATED_(CA)
  6
Continuous
 62
     7
100
AcDbLine
 10
112.25
 20
390.9279890607
 30
0.0
 11
112.25
 21
391.278196442
 31
0.0
  0
LINE
  5
2FB
330
5E
100
AcDbEntity
  8
$DDT_AUDIT_GENERATED_(CA)
  6
Continuous
 62
     7
100
AcDbLine
 10
112.25
 20
391.278196442
 30
0.0
 11
113.25
 21
391.278196442
 31
0.0
  0
LINE
  5
2FC
330
5E
100
AcDbEntity
  8
$DDT_AUDIT_GENERATED_(CA)
  6
Continuous
 62
     7
100
AcDbLine
 10
113.25
 20
391.278196442
 30
0.0
 11
113.25
 21
390.9279890607
 31
0.0
  0
LINE
  5
2FD
330
5E
100
AcDbEntity
  8
$DDT_AUDIT_GENERATED_(CA)
  6
Continuous
 62
     7
100
AcDbLine
 10
115.85
 20
390.5077402032
 30
0.0
 11
115.85
 21
390.8579475845
 31
0.0
  0
LINE
  5
2FE
330
5E
100
AcDbEntity
  8
$DDT_AUDIT_GENERATED_(CA)
  6
Continuous
 62
     7
100
AcDbLine
 10
115.65
 20
390.5077402032
 30
0.0
 11
114.65
 21
390.5077402032
 31
0.0
  0
LINE
  5
2FF
330
5E
100
AcDbEntity
  8
$DDT_AUDIT_GENERATED_(CA)
  6
Continuous
 62
     7
100
AcDbLine
 10
114.65
 20
390.5077402032
 30
0.0
 11
114.65
 21
390.8579475845
 31
0.0
  0
LINE
  5
300
330
5E
100
AcDbEntity
  8
$DDT_AUDIT_GENERATED_(CA)
  6
Continuous
 62
     7
100
AcDbLine
 10
114.65
 20
390.8579475845
 30
0.0
 11
115.65
 21
390.8579475845
 31
0.0
  0
LINE
  5
301
330
5E
100
AcDbEntity
  8
$DDT_AUDIT_GENERATED_(CA)
  6
Continuous
 62
     7
100
AcDbLine
 10
115.65
 20
390.8579475845
 30
0.0
 11
115.65
 21
390.5077402032
 31
0.0
  0
LINE
  5
302
330
5E
100
AcDbEntity
  8
$DDT_AUDIT_GENERATED_(CA)
  6
Continuous
 62
     7
100
AcDbLine
 10
114.45
 20
390.5077402032
 30
0.0
 11
113.45
 21
390.5077402032
 31
0.0
  0
LINE
  5
303
330
5E
100
AcDbEntity
  8
$DDT_AUDIT_GENERATED_(CA)
  6
Continuous
 62
     7
100
AcDbLine
 10
113.45
 20
390.5077402032
 30
0.0
 11
113.45
 21
390.8579475845
 31
0.0
  0
LINE
  5
304
330
5E
100
AcDbEntity
  8
$DDT_AUDIT_GENERATED_(CA)
  6
Continuous
 62
     7
100
AcDbLine
 10
113.45
 20
390.8579475845
 30
0.0
 11
114.45
 21
390.8579475845
 31
0.0
  0
LINE
  5
305
330
5E
100
AcDbEntity
  8
$DDT_AUDIT_GENERATED_(CA)
  6
Continuous
 62
     7
100
AcDbLine
 10
114.45
 20
390.8579475845
 30
0.0
 11
114.45
 21
390.5077402032
 31
0.0
  0
LINE
  5
306
330
5E
100
AcDbEntity
  8
$DDT_AUDIT_GENERATED_(CA)
  6
Continuous
 62
     7
100
AcDbLine
 10
115.85
 20
390.3204371974
 30
0.0
 11
115.85
 21
390.4376987269
 31
0.0
  0
ELLIPSE
  5
307
330
5E
100
AcDbEntity
  8
$DDT_AUDIT_GENERATED_(CA)
  6
Continuous
 62
     7
100
AcDbEllipse
 10
116.3500000234
 20
393.2043371507
 30
0.0
 11
-8.25000016095983
 21
-9.277697533838225E-9
 31
0.0
210
0.0
220
0.0
230
1.0
 40
0.350207388
 41
1.485845701335795
 42
1.510153100718117
  0
LINE
  5
308
330
5E
100
AcDbEntity
  8
$DDT_AUDIT_GENERATED_(CA)
  6
Continuous
 62
     7
100
AcDbLine
 10
114.65
 20
390.3771308311
 30
0.0
 11
114.65
 21
390.4376987269
 31
0.0
  0
LINE
  5
309
330
5E
100
AcDbEntity
  8
$DDT_AUDIT_GENERATED_(CA)
  6
Continuous
 62
     7
100
AcDbLine
 10
114.65
 20
390.4376987269
 30
0.0
 11
115.65
 21
390.4376987269
 31
0.0
  0
LINE
  5
30A
330
5E
100
AcDbEntity
  8
$DDT_AUDIT_GENERATED_(CA)
  6
Continuous
 62
     7
100
AcDbLine
 10
115.65
 20
390.4376987269
 30
0.0
 11
115.65
 21
390.3255450274
 31
0.0
  0
ELLIPSE
  5
30B
330
5E
100
AcDbEntity
  8
$DDT_AUDIT_GENERATED_(CA)
  6
Continuous
 62
     7
100
AcDbEllipse
 10
116.3500000671
 20
393.2043371437
 30
0.0
 11
-8.25000016074334
 21
-2.615301811920157E-8
 31
0.0
210
0.0
220
0.0
230
1.0
 40
0.3502073871
 41
1.338407249452349
 42
1.363248870988654
  0
LINE
  5
30C
330
5E
100
AcDbEntity
  8
$DDT_AUDIT_GENERATED_(CA)
  6
Continuous
 62
     7
100
AcDbLine
 10
113.9725013144
 20
390.4376987269
 30
0.0
 11
114.45
 21
390.4376987269
 31
0.0
  0
LINE
  5
30D
330
5E
100
AcDbEntity
  8
$DDT_AUDIT_GENERATED_(CA)
  6
Continuous
 62
     7
100
AcDbLine
 10
114.45
 20
390.4376987269
 30
0.0
 11
114.45
 21
390.3927911313
 31
0.0
  0
ELLIPSE
  5
30E
330
5E
100
AcDbEntity
  8
$DDT_AUDIT_GENERATED_(CA)
  6
Continuous
 62
     7
100
AcDbEllipse
 10
116.3499999994
 20
393.2043370383
 30
0.0
 11
-8.249999999023089
 21
2.210029034777072E-10
 31
0.0
210
0.0
220
0.0
230
1.0
 40
0.3502073812
 41
1.185582205170538
 42
1.278468933689178
  0
LINE
  5
30F
330
5E
100
AcDbEntity
  8
$DDT_AUDIT_GENERATED_(CA)
  6
Continuous
 62
     7
100
AcDbLine
 10
112.25
 20
390.6971725808
 30
0.0
 11
112.25
 21
390.8579475845
 31
0.0
  0
LINE
  5
310
330
5E
100
AcDbEntity
  8
$DDT_AUDIT_GENERATED_(CA)
  6
Continuous
 62
     7
100
AcDbLine
 10
112.25
 20
390.8579475845
 30
0.0
 11
113.25
 21
390.8579475845
 31
0.0
  0
LINE
  5
311
330
5E
100
AcDbEntity
  8
$DDT_AUDIT_GENERATED_(CA)
  6
Continuous
 62
     7
100
AcDbLine
 10
113.25
 20
390.8579475845
 30
0.0
 11
113.25
 21
390.5268533077
 31
0.0
  0
ELLIPSE
  5
312
330
5E
100
AcDbEntity
  8
$DDT_AUDIT_GENERATED_(CA)
  6
Continuous
 62
     7
100
AcDbEllipse
 10
116.3499999935
 20
393.2043370359
 30
0.0
 11
-8.249999992616823
 21
2.081306481327427E-9
 31
0.0
210
0.0
220
0.0
230
1.0
 40
0.3502073812
 41
0.9073568929521607
 42
0.9477783673928581
  0
LINE
  5
313
330
5E
100
AcDbEntity
  8
$DDT_AUDIT_GENERATED_(CA)
  6
Continuous
 62
     7
100
AcDbLine
 10
111.05
 20
390.9901925874
 30
0.0
 11
111.05
 21
391.278196442
 31
0.0
  0
LINE
  5
314
330
5E
100
AcDbEntity
  8
$DDT_AUDIT_GENERATED_(CA)
  6
Continuous
 62
     7
100
AcDbLine
 10
111.05
 20
391.278196442
 30
0.0
 11
112.05
 21
391.278196442
 31
0.0
  0
LINE
  5
315
330
5E
100
AcDbEntity
  8
$DDT_AUDIT_GENERATED_(CA)
  6
Continuous
 62
     7
100
AcDbLine
 10
112.05
 20
391.278196442
 30
0.0
 11
112.05
 21
390.9279890607
 31
0.0
  0
LINE
  5
316
330
5E
100
AcDbEntity
  8
$DDT_AUDIT_GENERATED_(CA)
  6
Continuous
 62
     7
100
AcDbLine
 10
112.05
 20
390.9279890607
 30
0.0
 11
111.2693996418
 21
390.9279890607
 31
0.0
  0
LINE
  5
317
330
5E
100
AcDbEntity
  8
$DDT_AUDIT_GENERATED_(CA)
  6
Continuous
 62
     7
100
AcDbLine
 10
111.2693996418
 20
390.9279890607
 30
0.0
 11
111.2693996418
 21
391.278196442
 31
0.0
  0
ELLIPSE
  5
318
330
5E
100
AcDbEntity
  8
$DDT_AUDIT_GENERATED_(CA)
  6
Continuous
 62
     7
100
AcDbEllipse
 10
116.350000011
 20
393.2043370455
 30
0.0
 11
-8.250000013636217
 21
-3.778367375917302E-9
 31
0.0
210
0.0
220
0.0
230
1.0
 40
0.3502073815
 41
1.022525692003187
 42
1.05069312278499
  0
LINE
  5
319
330
5E
100
AcDbEntity
  8
$DDT_AUDIT_GENERATED_(CA)
  6
Continuous
 62
     7
100
AcDbLine
 10
111.5362177033
 20
390.8579475845
 30
0.0
 11
112.05
 21
390.8579475845
 31
0.0
  0
LINE
  5
31A
330
5E
100
AcDbEntity
  8
$DDT_AUDIT_GENERATED_(CA)
  6
Continuous
 62
     7
100
AcDbLine
 10
112.05
 20
390.8579475845
 30
0.0
 11
112.05
 21
390.7386059775
 31
0.0
  0
ELLIPSE
  5
31B
330
5E
100
AcDbEntity
  8
$DDT_AUDIT_GENERATED_(CA)
  6
Continuous
 62
     7
100
AcDbEllipse
 10
116.3500001021
 20
393.2043370698
 30
0.0
 11
-8.250000106076643
 21
-2.667181493026805E-8
 31
0.0
210
0.0
220
0.0
230
1.0
 40
0.3502073808
 41
0.6976574478175033
 42
0.7297276509136091
  0
LINE
  5
31C
330
5E
100
AcDbEntity
  8
$DDT_AUDIT_GENERATED_(CA)
  6
Continuous
 62
     7
100
AcDbLine
 10
109.85
 20
391.4250732922
 30
0.0
 11
109.85
 21
391.6984452995
 31
0.0
  0
LINE
  5
31D
330
5E
100
AcDbEntity
  8
$DDT_AUDIT_GENERATED_(CA)
  6
Continuous
 62
     7
100
AcDbLine
 10
109.85
 20
391.6984452995
 30
0.0
 11
110.85
 21
391.6984452995
 31
0.0
  0
LINE
  5
31E
330
5E
100
AcDbEntity
  8
$DDT_AUDIT_GENERATED_(CA)
  6
Continuous
 62
     7
100
AcDbLine
 10
110.85
 20
391.6984452995
 30
0.0
 11
110.85
 21
391.3482379182
 31
0.0
  0
LINE
  5
31F
330
5E
100
AcDbEntity
  8
$DDT_AUDIT_GENERATED_(CA)
  6
Continuous
 62
     7
100
AcDbLine
 10
110.85
 20
391.3482379182
 30
0.0
 11
110.0276191194
 21
391.3482379182
 31
0.0
  0
LINE
  5
320
330
5E
100
AcDbEntity
  8
$DDT_AUDIT_GENERATED_(CA)
  6
Continuous
 62
     7
100
AcDbLine
 10
110.0276191194
 20
391.3482379182
 30
0.0
 11
110.0276191194
 21
391.6984452995
 31
0.0
  0
ELLIPSE
  5
321
330
5E
100
AcDbEntity
  8
$DDT_AUDIT_GENERATED_(CA)
  6
Continuous
 62
     7
100
AcDbEllipse
 10
116.349999993
 20
393.204337036
 30
0.0
 11
-8.249999992347766
 21
2.123736082826344E-9
 31
0.0
210
0.0
220
0.0
230
1.0
 40
0.3502073812
 41
0.8410686709659306
 42
0.8731388743453348
  0
LINE
  5
322
330
5E
100
AcDbEntity
  8
$DDT_AUDIT_GENERATED_(CA)
  6
Continuous
 62
     7
100
AcDbLine
 10
110.2008130619
 20
391.278196442
 30
0.0
 11
110.85
 21
391.278196442
 31
0.0
  0
LINE
  5
323
330
5E
100
AcDbEntity
  8
$DDT_AUDIT_GENERATED_(CA)
  6
Continuous
 62
     7
100
AcDbLine
 10
110.85
 20
391.278196442
 30
0.0
 11
110.85
 21
391.0508463844
 31
0.0
  0
LINE
  5
324
330
5E
100
AcDbEntity
  8
$DDT_AUDIT_GENERATED_(CA)
  6
Continuous
 62
     7
100
AcDbLine
 10
109.65
 20
392.1887356332
 30
0.0
 11
108.65
 21
392.1887356332
 31
0.0
  0
LINE
  5
325
330
5E
100
AcDbEntity
  8
$DDT_AUDIT_GENERATED_(CA)
  6
Continuous
 62
     7
100
AcDbLine
 10
108.65
 20
392.1887356332
 30
0.0
 11
108.65
 21
392.5389430145
 31
0.0
  0
LINE
  5
326
330
5E
100
AcDbEntity
  8
$DDT_AUDIT_GENERATED_(CA)
  6
Continuous
 62
     7
100
AcDbLine
 10
108.65
 20
392.5389430145
 30
0.0
 11
109.65
 21
392.5389430145
 31
0.0
  0
LINE
  5
327
330
5E
100
AcDbEntity
  8
$DDT_AUDIT_GENERATED_(CA)
  6
Continuous
 62
     7
100
AcDbLine
 10
109.65
 20
392.5389430145
 30
0.0
 11
109.65
 21
392.1887356332
 31
0.0
  0
ELLIPSE
  5
328
330
5E
100
AcDbEntity
  8
$DDT_AUDIT_GENERATED_(CA)
  6
Continuous
 62
     7
100
AcDbEllipse
 10
116.3500000361
 20
393.2043370464
 30
0.0
 11
-8.250000036521474
 21
-7.358232946563792E-9
 31
0.0
210
0.0
220
0.0
230
1.0
 40
0.3502073808
 41
0.5201032018743842
 42
0.5482706326216504
  0
LINE
  5
329
330
5E
100
AcDbEntity
  8
$DDT_AUDIT_GENERATED_(CA)
  6
Continuous
 62
     7
100
AcDbLine
 10
108.7045765323
 20
392.118694157
 30
0.0
 11
109.65
 21
392.118694157
 31
0.0
  0
LINE
  5
32A
330
5E
100
AcDbEntity
  8
$DDT_AUDIT_GENERATED_(CA)
  6
Continuous
 62
     7
100
AcDbLine
 10
109.65
 20
392.118694157
 30
0.0
 11
109.65
 21
391.7684867757
 31
0.0
  0
LINE
  5
32B
330
5E
100
AcDbEntity
  8
$DDT_AUDIT_GENERATED_(CA)
  6
Continuous
 62
     7
100
AcDbLine
 10
109.65
 20
391.7684867757
 30
0.0
 11
109.1909148629
 21
391.7684867757
 31
0.0
  0
LINE
  5
32C
330
5E
100
AcDbEntity
  8
$DDT_AUDIT_GENERATED_(CA)
  6
Continuous
 62
     7
100
AcDbLine
 10
109.1909148629
 20
391.7684867757
 30
0.0
 11
109.1909148629
 21
392.118694157
 31
0.0
  0
ELLIPSE
  5
32D
330
5E
100
AcDbEntity
  8
$DDT_AUDIT_GENERATED_(CA)
  6
Continuous
 62
     7
100
AcDbEllipse
 10
116.349999991
 20
393.2043370365
 30
0.0
 11
-8.249999990734439
 21
2.151286961071808E-9
 31
0.0
210
0.0
220
0.0
230
1.0
 40
0.3502073813
 41
0.6230179602312284
 42
0.6634394346730114
  0
LINE
  5
32E
330
5E
100
AcDbEntity
  8
$DDT_AUDIT_GENERATED_(CA)
  6
Continuous
 62
     7
100
AcDbLine
 10
109.3092258948
 20
391.6984452995
 30
0.0
 11
109.65
 21
391.6984452995
 31
0.0
  0
LINE
  5
32F
330
5E
100
AcDbEntity
  8
$DDT_AUDIT_GENERATED_(CA)
  6
Continuous
 62
     7
100
AcDbLine
 10
109.65
 20
391.6984452995
 30
0.0
 11
109.65
 21
391.5185149468
 31
0.0
  0
LINE
  5
330
330
5E
100
AcDbEntity
  8
$DDT_AUDIT_GENERATED_(CA)
  6
Continuous
 62
     7
100
AcDbLine
 10
108.45
 20
393.0292333483
 30
0.0
 11
108.1426002465
 21
393.0292333483
 31
0.0
  0
ELLIPSE
  5
331
330
5E
100
AcDbEntity
  8
$DDT_AUDIT_GENERATED_(CA)
  6
Continuous
 62
     7
100
AcDbEllipse
 10
116.3500003063
 20
393.2043370628
 30
0.0
 11
-8.250000306408882
 21
-2.659750805017458E-8
 31
0.0
210
0.0
220
0.0
230
1.0
 40
0.3502073752
 41
0.2075474455385763
 42
0.2323890670642929
  0
LINE
  5
332
330
5E
100
AcDbEntity
  8
$DDT_AUDIT_GENERATED_(CA)
  6
Continuous
 62
     7
100
AcDbLine
 10
108.1297506121
 20
392.959191872
 30
0.0
 11
108.45
 21
392.959191872
 31
0.0
  0
LINE
  5
333
330
5E
100
AcDbEntity
  8
$DDT_AUDIT_GENERATED_(CA)
  6
Continuous
 62
     7
100
AcDbLine
 10
108.45
 20
392.959191872
 30
0.0
 11
108.45
 21
392.6089844908
 31
0.0
  0
LINE
  5
334
330
5E
100
AcDbEntity
  8
$DDT_AUDIT_GENERATED_(CA)
  6
Continuous
 62
     7
100
AcDbLine
 10
108.45
 20
392.6089844908
 30
0.0
 11
108.2770513441
 21
392.6089844908
 31
0.0
  0
LINE
  5
335
330
5E
100
AcDbEntity
  8
$DDT_AUDIT_GENERATED_(CA)
  6
Continuous
 62
     7
100
AcDbLine
 10
108.2770513441
 20
392.6089844908
 30
0.0
 11
108.2770513441
 21
392.959191872
 31
0.0
  0
ELLIPSE
  5
336
330
5E
100
AcDbEntity
  8
$DDT_AUDIT_GENERATED_(CA)
  6
Continuous
 62
     7
100
AcDbEllipse
 10
116.3499999989
 20
393.2043370388
 30
0.0
 11
-8.249999998916602
 21
1.432924959243742E-10
 31
0.0
210
0.0
220
0.0
230
1.0
 40
0.3502073813
 41
0.2923273931781259
 42
0.3852141216933234
  0
LINE
  5
337
330
5E
100
AcDbEntity
  8
$DDT_AUDIT_GENERATED_(CA)
  6
Continuous
 62
     7
100
AcDbLine
 10
108.3217685634
 20
392.5389430145
 30
0.0
 11
108.45
 21
392.5389430145
 31
0.0
  0
LINE
  5
338
330
5E
100
AcDbEntity
  8
$DDT_AUDIT_GENERATED_(CA)
  6
Continuous
 62
     7
100
AcDbLine
 10
108.45
 20
392.5389430145
 30
0.0
 11
108.45
 21
392.3717194503
 31
0.0
  0
LINE
  5
339
330
5E
100
AcDbEntity
  8
$DDT_AUDIT_GENERATED_(CA)
  6
Continuous
 62
     7
100
AcDbLine
 10
125.75
 20
392.7360009443
 30
0.0
 11
125.75
 21
393.8365907666
 31
0.0
  0
LINE
  5
33A
330
5E
100
AcDbEntity
  8
$DDT_AUDIT_GENERATED_(CA)
  6
Continuous
 62
     7
100
AcDbLine
 10
106.95
 20
393.8365907666
 30
0.0
 11
106.95
 21
392.7360009443
 31
0.0
  0
LINE
  5
33C
330
5E
100
AcDbEntity
  8
400257038_GEH_EH
  6
Continuous
 62
     7
100
AcDbLine
 10
26.7281811774
 20
399.8359693617
 30
0.0
 11
26.6767458495
 21
399.8359693617
 31
0.0
  0
SPLINE
  5
33D
330
5E
100
AcDbEntity
  8
400257038_GEH_EH
  6
Continuous
 62
     7
100
AcDbSpline
210
0.0
220
0.0
230
1.0
 70
     8
 71
     3
 72
    22
 73
    18
 74
     0
 42
0.0000000001441591
 43
0.0000000001
 40
0.3513219017656036
 40
0.3513219017656036
 40
0.3513219017656036
 40
0.3513219017656036
 40
0.3750000000000006
 40
0.3750000000000006
 40
0.5000000000000006
 40
0.5000000000000006
 40
0.6250000000000006
 40
0.6250000000000006
 40
0.7500000000000006
 40
0.7500000000000006
 40
0.8125000000000006
 40
0.8125000000000006
 40
0.8750000000000004
 40
0.8750000000000004
 40
0.9375000000000002
 40
0.9375000000000002
 40
1.0
 40
1.0
 40
1.0
 40
1.0
 10
47.08725213379601
 20
416.7990884420417
 30
0.0
 10
47.72555823066654
 20
416.8881591322969
 30
0.0
 10
48.36455561445578
 20
416.9714658659003
 30
0.0
 10
52.37982593559479
 20
417.4688038659249
 30
0.0
 10
55.76538901936767
 20
417.7719724242452
 30
0.0
 10
62.52527912703912
 20
418.3083271376088
 30
0.0
 10
65.90697781562936
 20
418.5402599539444
 30
0.0
 10
72.49893302707765
 20
418.9806663708421
 30
0.0
 10
75.72957232594236
 20
419.1843813910817
 30
0.0
 10
80.19586999060225
 20
419.4525155373055
 30
0.0
 10
81.63226970272513
 20
419.5360677749675
 30
0.0
 10
84.29353356857116
 20
419.685613819191
 30
0.0
 10
85.51284158335629
 20
419.7514332307988
 30
0.0
 10
87.75776605283072
 20
419.8680481176528
 30
0.0
 10
88.79002124056673
 20
419.9192185484075
 30
0.0
 10
90.59443678316195
 20
420.0023550196418
 30
0.0
 10
91.38045322896627
 20
420.0352587817603
 30
0.0
 10
91.95494945213336
 20
420.0508972368025
 30
0.0
  0
SPLINE
  5
33E
330
5E
100
AcDbEntity
  8
400257038_GEH_EH
  6
Continuous
 62
     7
100
AcDbSpline
210
0.0
220
0.0
230
1.0
 70
     8
 71
     3
 72
    24
 73
    20
 74
     0
 42
0.0000000001450635
 43
0.0000000001
 40
0.0
 40
0.0
 40
0.0
 40
0.0
 40
0.0625000000000001
 40
0.0625000000000001
 40
0.1250000000000002
 40
0.1250000000000002
 40
0.1875000000000004
 40
0.1875000000000004
 40
0.2500000000000005
 40
0.2500000000000005
 40
0.3125000000000006
 40
0.3125000000000006
 40
0.3750000000000008
 40
0.3750000000000008
 40
0.5000000000000008
 40
0.5000000000000008
 40
0.6250000000000007
 40
0.6250000000000007
 40
0.6320092682036254
 40
0.6320092682036254
 40
0.6320092682036254
 40
0.6320092682036254
 10
140.7450527284992
 20
420.0508969826173
 30
0.0
 10
141.3174598503805
 20
420.0353155901441
 30
0.0
 10
142.1016511763802
 20
420.0025239421615
 30
0.0
 10
143.9057597436351
 20
419.9194242045158
 30
0.0
 10
144.932967804218
 20
419.8684995512198
 30
0.0
 10
147.1571254943532
 20
419.7530227036306
 30
0.0
 10
148.3637176916283
 20
419.6879346522961
 30
0.0
 10
150.993030870516
 20
419.5403432254881
 30
0.0
 10
152.4305204420976
 20
419.4568463969305
 30
0.0
 10
155.4078189435556
 20
419.2782766203165
 30
0.0
 10
156.9529893241844
 20
419.1830032172845
 30
0.0
 10
160.1199155991168
 20
418.9827041455526
 30
0.0
 10
161.7499854608698
 20
418.8770618948731
 30
0.0
 10
166.7072973434022
 20
418.5462204915409
 30
0.0
 10
170.0927790295508
 20
418.3141977030114
 30
0.0
 10
176.8602215335978
 20
417.7784913290229
 30
0.0
 10
180.2469328082724
 20
417.4761573181695
 30
0.0
 10
183.816627993041
 20
417.0358053414089
 30
0.0
 10
184.0061814259263
 20
417.0120573217027
 30
0.0
 10
184.195727214219
 20
416.9879024972674
 30
0.0
  0
SPLINE
  5
33F
330
5E
100
AcDbEntity
  8
400257038_GEH_EH
  6
Continuous
 62
     7
100
AcDbSpline
210
0.0
220
0.0
230
1.0
 70
     8
 71
     3
 72
    12
 73
     8
 74
     0
 42
0.000000000952091
 43
0.0000000001
 40
0.0
 40
0.0
 40
0.0
 40
0.0
 40
0.25
 40
0.25
 40
0.5
 40
0.5
 40
0.55453096369409
 40
0.55453096369409
 40
0.55453096369409
 40
0.55453096369409
 10
116.35
 20
420.5431979091258
 30
0.0
 10
117.8564370764409
 20
420.5431979091258
 30
0.0
 10
119.3294944249321
 20
420.5286975135617
 30
0.0
 10
121.4328322557212
 20
420.5203421301755
 30
0.0
 10
122.0493684564695
 20
420.5296369390341
 30
0.0
 10
122.0501371293276
 20
420.568128880862
 30
0.0
 10
122.021485320857
 20
420.5760615417872
 30
0.0
 10
121.9655659193751
 20
420.5847643305071
 30
0.0
  0
SPLINE
  5
340
330
5E
100
AcDbEntity
  8
400257038_GEH_EH
  6
Continuous
 62
     7
100
AcDbSpline
210
0.0
220
0.0
230
1.0
 70
     8
 71
     3
 72
    16
 73
    12
 74
     0
 42
0.0000000006476981
 43
0.0000000001
 40
0.2744441330032218
 40
0.2744441330032218
 40
0.2744441330032218
 40
0.2744441330032218
 40
0.3749999999999999
 40
0.3749999999999999
 40
0.4374999999999999
 40
0.4374999999999999
 40
0.4999999999999999
 40
0.4999999999999999
 40
0.625
 40
0.625
 40
0.680357565774902
 40
0.680357565774902
 40
0.680357565774902
 40
0.680357565774902
 10
125.7591565938417
 20
390.749714806399
 30
0.0
 10
126.5900459130688
 20
390.9891027958735
 30
0.0
 10
127.2676246026495
 20
391.2141122277555
 30
0.0
 10
128.0449867437169
 20
391.3984517886561
 30
0.0
 10
128.2729760477097
 20
391.425377315745
 30
0.0
 10
128.5568356485361
 20
391.3535506076603
 30
0.0
 10
128.6162522810688
 20
391.2567704031507
 30
0.0
 10
128.5562744327196
 20
390.7853197672048
 30
0.0
 10
128.1950460741698
 20
390.2352083331907
 30
0.0
 10
127.3145788052547
 20
389.3669553915951
 30
0.0
 10
126.9934010391366
 20
389.0898898098092
 30
0.0
 10
126.6253946011444
 20
388.8148828776049
 30
0.0
  0
SPLINE
  5
341
330
5E
100
AcDbEntity
  8
400257038_GEH_EH
  6
Continuous
 62
     7
100
AcDbSpline
210
0.0
220
0.0
230
1.0
 70
     8
 71
     3
 72
    16
 73
    12
 74
     0
 42
0.000000000648723
 43
0.0000000001
 40
0.3202000393859988
 40
0.3202000393859988
 40
0.3202000393859988
 40
0.3202000393859988
 40
0.3750000000000013
 40
0.3750000000000013
 40
0.5000000000000019
 40
0.5000000000000019
 40
0.5625000000000017
 40
0.5625000000000017
 40
0.6250000000000014
 40
0.6250000000000014
 40
0.7254288140116836
 40
0.7254288140116836
 40
0.7254288140116836
 40
0.7254288140116836
 10
106.0666104232184
 20
388.8204002693758
 30
0.0
 10
105.7039145629123
 20
389.0920155916702
 30
0.0
 10
105.3873886306238
 20
389.3654194290182
 30
0.0
 10
104.5082965026062
 20
390.2310006955925
 30
0.0
 10
104.1475855564948
 20
390.7775289499106
 30
0.0
 10
104.0827318820727
 20
391.2537257414097
 30
0.0
 10
104.1410381393103
 20
391.3513126502668
 30
0.0
 10
104.42039327399
 20
391.4253473163369
 30
0.0
 10
104.6461614601497
 20
391.4000649770745
 30
0.0
 10
105.4242934210948
 20
391.2167921298445
 30
0.0
 10
106.0991733751651
 20
390.9924248127292
 30
0.0
 10
106.9308472068233
 20
390.7525809579507
 30
0.0
  0
SPLINE
  5
342
330
5E
100
AcDbEntity
  8
400257038_GEH_EH
  6
Continuous
 62
     7
100
AcDbSpline
210
0.0
220
0.0
230
1.0
 70
     8
 71
     3
 72
    12
 73
     8
 74
     0
 42
0.000000000951038
 43
0.0000000001
 40
0.445792824859843
 40
0.445792824859843
 40
0.445792824859843
 40
0.445792824859843
 40
0.5
 40
0.5
 40
0.75
 40
0.75
 40
1.0
 40
1.0
 40
1.0
 40
1.0
 10
110.7358707212129
 20
420.5848602589379
 30
0.0
 10
110.6795400130694
 20
420.5761796150616
 30
0.0
 10
110.650301603587
 20
420.5682661565681
 30
0.0
 10
110.648622797122
 20
420.5297355096082
 30
0.0
 10
111.2526609473473
 20
420.520301142692
 30
0.0
 10
113.3792534363653
 20
420.5287156689865
 30
0.0
 10
114.8435719361827
 20
420.5431979091258
 30
0.0
 10
116.35
 20
420.5431979091258
 30
0.0
  0
SPLINE
  5
343
330
5E
100
AcDbEntity
  8
400257038_GEH_EH
  6
Continuous
 62
     7
100
AcDbSpline
210
0.0
220
0.0
230
1.0
 70
     8
 71
     3
 72
    20
 73
    16
 74
     0
 42
0.0000000006676165
 43
0.0000000001
 40
0.0000033154442816
 40
0.0000033154442816
 40
0.0000033154442816
 40
0.0000033154442816
 40
0.1249999999999997
 40
0.1249999999999997
 40
0.2499999999999993
 40
0.2499999999999993
 40
0.4999999999999996
 40
0.4999999999999996
 40
0.6249999999999997
 40
0.6249999999999997
 40
0.7499999999999998
 40
0.7499999999999998
 40
0.8749999999999999
 40
0.8749999999999999
 40
0.9519794336546704
 40
0.9519794336546704
 40
0.9519794336546704
 40
0.9519794336546704
 10
116.3498369943792
 20
399.1102799237709
 30
0.0
 10
115.323464043847
 20
399.1099618783158
 30
0.0
 10
114.3271128527096
 20
399.1589455954266
 30
0.0
 10
112.3849964904049
 20
399.303683127841
 30
0.0
 10
111.4527550770274
 20
399.4010995960926
 30
0.0
 10
108.8714020756987
 20
399.6961070548614
 30
0.0
 10
107.4053122875538
 20
399.9089993348236
 30
0.0
 10
105.7599391653972
 20
400.033472328022
 30
0.0
 10
105.3072324461614
 20
400.0440953911166
 30
0.0
 10
104.5943280132566
 20
399.941734262001
 30
0.0
 10
104.3390757541018
 20
399.8255616623221
 30
0.0
 10
104.0747484086281
 20
399.4002590845268
 30
0.0
 10
104.0656443866997
 20
399.0816102314778
 30
0.0
 10
104.2543044344764
 20
398.4231694040965
 30
0.0
 10
104.3741407518236
 20
398.1356893447331
 30
0.0
 10
104.5384038612324
 20
397.8249703863457
 30
0.0
  0
ELLIPSE
  5
344
330
5E
100
AcDbEntity
  8
400257038_GEH_EH
  6
Continuous
 62
     7
100
AcDbEllipse
 10
116.35
 20
400.604047334
 30
0.0
 11
12.25
 21
-9.757819552369540E-16
 31
0.0
210
0.0
220
0.0
230
1.0
 40
0.3502073813
 41
-0.2718890571128219
 42
-0.1964974591099056
  0
ELLIPSE
  5
345
330
5E
100
AcDbEntity
  8
400257038_GEH_EH
  6
Continuous
 62
     7
100
AcDbEllipse
 10
116.35
 20
400.604047334
 30
0.0
 11
12.25
 21
-9.757819552369540E-16
 31
0.0
210
0.0
220
0.0
230
1.0
 40
0.3502073813
 41
3.339152987376508
 42
3.413481710702611
  0
SPLINE
  5
346
330
5E
100
AcDbEntity
  8
400257038_GEH_EH
  6
Continuous
 62
     7
100
AcDbSpline
210
0.0
220
0.0
230
1.0
 70
     8
 71
     3
 72
    20
 73
    16
 74
     0
 42
0.0000000006631716
 43
0.0000000001
 40
0.0498105515351461
 40
0.0498105515351461
 40
0.0498105515351461
 40
0.0498105515351461
 40
0.1249999999999996
 40
0.1249999999999996
 40
0.2499999999999993
 40
0.2499999999999993
 40
0.5000000000000001
 40
0.5000000000000001
 40
0.6250000000000006
 40
0.6250000000000006
 40
0.7500000000000009
 40
0.7500000000000009
 40
0.8750000000000004
 40
0.8750000000000004
 40
0.9999900925484649
 40
0.9999900925484649
 40
0.9999900925484649
 40
0.9999900925484649
 10
128.1715759944651
 20
397.8429562826084
 30
0.0
 10
128.3291507435821
 20
398.1429269593666
 30
0.0
 10
128.4444432080705
 20
398.4206040059748
 30
0.0
 10
128.6351817966608
 20
399.0815427368058
 30
0.0
 10
128.6265610971146
 20
399.3948131001221
 30
0.0
 10
128.2328820787746
 20
400.0381748560217
 30
0.0
 10
127.4832228339122
 20
400.0748091674246
 30
0.0
 10
125.8399951844429
 20
399.9501281306933
 30
0.0
 10
125.1946505030383
 20
399.8741760678372
 30
0.0
 10
123.7652609089054
 20
399.6999363158428
 30
0.0
 10
122.9793222184993
 20
399.5990712002436
 30
0.0
 10
121.242888326244
 20
399.4005789887428
 30
0.0
 10
120.3250887213532
 20
399.3047007546652
 30
0.0
 10
118.4005598772378
 20
399.1607471084159
 30
0.0
 10
117.3775910828938
 20
399.1099670290107
 30
0.0
 10
116.3501629858913
 20
399.1102798738258
 30
0.0
  0
ELLIPSE
  5
347
330
5E
100
AcDbEntity
  8
400257038_GEH_EH
  6
Continuous
 62
     7
100
AcDbEllipse
 10
116.35
 20
400.604047334
 30
0.0
 11
12.0085
 21
-5.421010862427522E-16
 31
0.0
210
0.0
220
0.0
230
1.0
 40
0.3502073813
 41
-0.1866182159288812
 42
-0.1790640264147347
  0
ELLIPSE
  5
348
330
5E
100
AcDbEntity
  8
400257038_GEH_EH
  6
Continuous
 62
     7
100
AcDbEllipse
 10
116.35
 20
400.604047334
 30
0.0
 11
12.0085
 21
-5.421010862427522E-16
 31
0.0
210
0.0
220
0.0
230
1.0
 40
0.3502073813
 41
3.319406065537314
 42
3.328210869518668
  0
ARC
  5
349
330
5E
100
AcDbEntity
  8
400257038_GEH_EH
  6
Continuous
 62
     7
100
AcDbCircle
 10
147.0681562666
 20
882.801032353
 30
0.0
 40
462.7308092893927
100
AcDbArc
 50
266.8872772034
 51
269.5314831461
  0
SPLINE
  5
34A
330
5E
100
AcDbEntity
  8
400257038_GEH_EH
  6
Continuous
 62
     7
100
AcDbSpline
210
0.0
220
0.0
230
1.0
 70
     8
 71
     3
 72
    22
 73
    18
 74
     0
 42
0.0000000002276224
 43
0.0000000001
 40
0.4285281777540531
 40
0.4285281777540531
 40
0.4285281777540531
 40
0.4285281777540531
 40
0.4375000000000002
 40
0.4375000000000002
 40
0.5000000000000002
 40
0.5000000000000002
 40
0.5625000000000002
 40
0.5625000000000002
 40
0.6250000000000002
 40
0.6250000000000002
 40
0.7500000000000001
 40
0.7500000000000001
 40
0.8125000000000001
 40
0.8125000000000001
 40
0.8750000000000001
 40
0.8750000000000001
 40
0.9317682084499547
 40
0.9317682084499547
 40
0.9317682084499547
 40
0.9317682084499547
 10
89.42217693855892
 20
420.147379320243
 30
0.0
 10
89.38433061988742
 20
420.1426960217769
 30
0.0
 10
89.34986202179249
 20
420.1381700643836
 30
0.0
 10
89.1026094123599
 20
420.1034558409083
 30
0.0
 10
89.04603816119437
 20
420.0807627529717
 30
0.0
 10
89.25602957474345
 20
420.0539729165897
 30
0.0
 10
89.52646402516667
 20
420.0501818398689
 30
0.0
 10
90.37162938329196
 20
420.0642572421963
 30
0.0
 10
90.94671813304646
 20
420.0819568219243
 30
0.0
 10
93.14534242042279
 20
420.1700061851593
 30
0.0
 10
95.17311572038952
 20
420.274359010592
 30
0.0
 10
98.9344811460838
 20
420.4745920330433
 30
0.0
 10
100.2820726563638
 20
420.5468006527684
 30
0.0
 10
103.1600812697705
 20
420.6937394339091
 30
0.0
 10
104.7083544748637
 20
420.7693097999274
 30
0.0
 10
107.7461354782042
 20
420.8998577480228
 30
0.0
 10
109.2283889744777
 20
420.9563558610179
 30
0.0
 10
110.7471055851274
 20
421.0007821979888
 30
0.0
  0
SPLINE
  5
34B
330
5E
100
AcDbEntity
  8
400257038_GEH_EH
  6
Continuous
 62
     7
100
AcDbSpline
210
0.0
220
0.0
230
1.0
 70
     8
 71
     3
 72
    37
 73
    33
 74
     0
 42
0.0000000001270344
 43
0.0000000001
 40
0.0
 40
0.0
 40
0.0
 40
0.0
 40
0.0257081924911228
 40
0.047988036786632
 40
0.0674878006126146
 40
0.0848349928742549
 40
0.1006152915488154
 40
0.1153352334453047
 40
0.1363113502519435
 40
0.1567759887916069
 40
0.177574792031046
 40
0.1997780851286103
 40
0.2193676240554075
 40
0.2412419297035729
 40
0.2659844820392538
 40
0.2941868495306242
 40
0.3260835186532673
 40
0.361250382759532
 40
0.3991877135408448
 40
0.4393909250158449
 40
0.4813455645259939
 40
0.5245200082442376
 40
0.5793515151128668
 40
0.6340046664302369
 40
0.6877112300162368
 40
0.7403443080733665
 40
0.7747329819367474
 40
0.8084651451269607
 40
0.8414676828448823
 40
0.8737231815148568
 40
0.9053434984598191
 40
0.9236460004006314
 40
0.9236460004006314
 40
0.9236460004006314
 40
0.9236460004006314
 10
206.0232536361927
 20
399.8359693616924
 30
0.0
 10
206.0106348574189
 20
400.5789871450365
 30
0.0
 10
205.981303336323
 20
401.7460935538839
 30
0.0
 10
205.7655198782419
 20
403.5408544641533
 30
0.0
 10
205.4370740778609
 20
405.0528918712062
 30
0.0
 10
205.0064394254424
 20
406.3700571388744
 30
0.0
 10
204.4957958959088
 20
407.5211497080451
 30
0.0
 10
203.8346197531258
 20
408.7050469582625
 30
0.0
 10
203.0219673659808
 20
409.9435829372846
 30
0.0
 10
202.0188885101847
 20
411.2465659418357
 30
0.0
 10
200.8343768521196
 20
412.435576780609
 30
0.0
 10
199.5089548037315
 20
413.4214023732676
 30
0.0
 10
198.0489681733524
 20
414.2372281355193
 30
0.0
 10
196.4551600534075
 20
414.9214035194705
 30
0.0
 10
194.5973279261883
 20
415.5316600455403
 30
0.0
 10
192.4473836650751
 20
416.0684070014603
 30
0.0
 10
190.0028984512028
 20
416.5369174774518
 30
0.0
 10
187.2885513004519
 20
416.9525720964115
 30
0.0
 10
184.343769415143
 20
417.3209942143852
 30
0.0
 10
181.2095694702401
 20
417.6491385992782
 30
0.0
 10
177.9273852536791
 20
417.9435731355326
 30
0.0
 10
174.2522579409268
 20
418.2343166166136
 30
0.0
 10
170.2350448991464
 20
418.520391038344
 30
0.0
 10
165.9446276560676
 20
418.8160434456456
 30
0.0
 10
161.7237097168043
 20
419.1057795805916
 30
0.0
 10
158.0342188374503
 20
419.3531466535302
 30
0.0
 10
154.8614970537895
 20
419.5593218687956
 30
0.0
 10
152.1996131788185
 20
419.7266349164383
 30
0.0
 10
149.5940074550312
 20
419.8839577481814
 30
0.0
 10
147.0571259146442
 20
420.0303788206296
 30
0.0
 10
144.943014142527
 20
420.1469072874549
 30
0.0
 10
143.6948855966995
 20
420.2135275755759
 30
0.0
 10
143.2458829366354
 20
420.2372548361599
 30
0.0
  0
SPLINE
  5
34C
330
5E
100
AcDbEntity
  8
400257038_GEH_EH
  6
Continuous
 62
     7
100
AcDbSpline
210
0.0
220
0.0
230
1.0
 70
     8
 71
     3
 72
    40
 73
    36
 74
     0
 42
0.0000000001011597
 43
0.0000000001
 40
0.1041168415159119
 40
0.1041168415159119
 40
0.1041168415159119
 40
0.1041168415159119
 40
0.1079461415362689
 40
0.1572240123260979
 40
0.2032429325466513
 40
0.2461162841090389
 40
0.2859369065210275
 40
0.322764449438788
 40
0.3566323858999839
 40
0.3890069464571966
 40
0.4183657267769559
 40
0.4449242102879408
 40
0.4711704569689127
 40
0.4980916007497991
 40
0.5258218713248615
 40
0.553738932405593
 40
0.582678045175595
 40
0.6126094561325065
 40
0.6431559882280531
 40
0.6738970776206724
 40
0.7044199049511395
 40
0.7359618425031142
 40
0.7661366577153387
 40
0.7978913511128942
 40
0.8194406773776667
 40
0.8409449026828277
 40
0.8623162329680555
 40
0.8783013089215727
 40
0.894322498027886
 40
0.9104918372237863
 40
0.9269614851762754
 40
0.943920308555462
 40
0.9615866074891071
 40
0.9801979557307763
 40
1.0
 40
1.0
 40
1.0
 40
1.0
 10
126.6001065562383
 20
378.9559128196998
 30
0.0
 10
126.7267502102199
 20
378.9584681888904
 30
0.0
 10
128.4820498943879
 20
378.9943744344013
 30
0.0
 10
131.7167587727698
 20
379.0726602955411
 30
0.0
 10
136.2545525859348
 20
379.2079444598297
 30
0.0
 10
140.4754588573347
 20
379.3535063012571
 30
0.0
 10
144.3974545173896
 20
379.5043766372801
 30
0.0
 10
148.0245839831769
 20
379.6566925895057
 30
0.0
 10
151.4086199360817
 20
379.809559949737
 30
0.0
 10
154.5487687703622
 20
379.9612569956827
 30
0.0
 10
157.4500589633024
 20
380.1141059585628
 30
0.0
 10
160.1512864800968
 20
380.269893465578
 30
0.0
 10
162.7730139313175
 20
380.4350771786803
 30
0.0
 10
165.4333431815663
 20
380.6180186108186
 30
0.0
 10
168.1482990521046
 20
380.821424076638
 30
0.0
 10
170.9288810580723
 20
381.0475552287482
 30
0.0
 10
173.7808259452771
 20
381.2971484673314
 30
0.0
 10
176.7176487868273
 20
381.5754959295987
 30
0.0
 10
179.7098535672581
 20
381.9006395350698
 30
0.0
 10
182.7147513174909
 20
382.2875035235716
 30
0.0
 10
185.7409531347637
 20
382.7601948986222
 30
0.0
 10
188.7304258477348
 20
383.3377052442968
 30
0.0
 10
191.7283254801214
 20
384.0670739623631
 30
0.0
 10
194.3585649595023
 20
384.8941956424631
 30
0.0
 10
196.6455339891909
 20
385.8270401734677
 30
0.0
 10
198.5347270306615
 20
386.8068581595182
 30
0.0
 10
200.1533565363605
 20
387.8863532266727
 30
0.0
 10
201.5031629541551
 20
389.0199398606422
 30
0.0
 10
202.6088915366801
 20
390.1645106803227
 30
0.0
 10
203.5890589451316
 20
391.4393933076392
 30
0.0
 10
204.4263380463269
 20
392.8483409984951
 30
0.0
 10
205.1044498111698
 20
394.3981969624719
 30
0.0
 10
205.6025619636782
 20
396.0774054991404
 30
0.0
 10
205.9193452749592
 20
397.9417356201639
 30
0.0
 10
205.9561612988624
 20
399.1173671255545
 30
0.0
 10
205.9718165417067
 20
399.8359693616924
 30
0.0
  0
SPLINE
  5
34D
330
5E
100
AcDbEntity
  8
400257038_GEH_EH
  6
Continuous
 62
     7
100
AcDbSpline
210
0.0
220
0.0
230
1.0
 70
     8
 71
     3
 72
    37
 73
    33
 74
     0
 42
0.000000000127055
 43
0.0000000001
 40
0.0761905844332186
 40
0.0761905844332186
 40
0.0761905844332186
 40
0.0761905844332186
 40
0.0945121012979587
 40
0.1261376073243471
 40
0.1583983985367428
 40
0.2009689538112353
 40
0.2447162291140332
 40
0.2894706196849965
 40
0.3350712390448722
 40
0.38141632029363
 40
0.4284072952383878
 40
0.4753942204896349
 40
0.5185757428459573
 40
0.5605372558017898
 40
0.600747048245462
 40
0.6386905836153907
 40
0.6738631940931151
 40
0.7057650706710126
 40
0.7339720384375609
 40
0.758718623156193
 40
0.78059649163257
 40
0.8001892211809634
 40
0.8223961332530502
 40
0.8431983315871929
 40
0.863666316244767
 40
0.8846458672800757
 40
0.8993682203092276
 40
0.915151103941331
 40
0.932501137731359
 40
0.9520040961016019
 40
0.9742875918123864
 40
1.0
 40
1.0
 40
1.0
 40
1.0
 10
89.45519061482452
 20
420.2373112776488
 30
0.0
 10
89.00581838305185
 20
420.2135649686649
 30
0.0
 10
87.75749648882228
 20
420.1469356380959
 30
0.0
 10
85.64284676891641
 20
420.0303765019536
 30
0.0
 10
82.85568148483509
 20
419.8695143259168
 30
0.0
 10
79.73238964798502
 20
419.6797018372425
 30
0.0
 10
76.28498412947208
 20
419.4595580593264
 30
0.0
 10
72.76701863011318
 20
419.226428142401
 30
0.0
 10
69.18473570633964
 20
418.9832876109064
 30
0.0
 10
65.53962151335075
 20
418.7320116452551
 30
0.0
 10
61.8494302911799
 20
418.4773535170369
 30
0.0
 10
58.24161415804393
 20
418.2179737480548
 30
0.0
 10
54.7725973858875
 20
417.9435807405038
 30
0.0
 10
51.49043181089699
 20
417.6491363552497
 30
0.0
 10
48.35622684155591
 20
417.3209943409301
 30
0.0
 10
45.41144624201321
 20
416.9525715547875
 30
0.0
 10
42.69709914648234
 20
416.5369170498279
 30
0.0
 10
40.25261451231452
 20
416.0684065599114
 30
0.0
 10
38.10267084295513
 20
415.5316597022
 30
0.0
 10
36.24483934886361
 20
414.9214033359809
 30
0.0
 10
34.65103181949997
 20
414.237228195978
 30
0.0
 10
33.19104570938269
 20
413.4214027650021
 30
0.0
 10
31.86562404042195
 20
412.4355775719275
 30
0.0
 10
30.68111262230705
 20
411.2465672156547
 30
0.0
 10
29.67803382587
 20
409.9435846363195
 30
0.0
 10
28.86538143527742
 20
408.705048899726
 30
0.0
 10
28.20420509040031
 20
407.5211517548623
 30
0.0
 10
27.69356130250009
 20
406.3700591446994
 30
0.0
 10
27.26292636381106
 20
405.0528936597594
 30
0.0
 10
26.93448031725543
 20
403.5408558444394
 30
0.0
 10
26.7186966934162
 20
401.7460942917834
 30
0.0
 10
26.68936515065806
 20
400.5789874524141
 30
0.0
 10
26.67674636358982
 20
399.8359693616924
 30
0.0
  0
SPLINE
  5
34E
330
5E
100
AcDbEntity
  8
400257038_GEH_EH
  6
Continuous
 62
     7
100
AcDbSpline
210
0.0
220
0.0
230
1.0
 70
     8
 71
     3
 72
    36
 73
    32
 74
     0
 42
0.0000000001011502
 43
0.0000000001
 40
0.0
 40
0.0
 40
0.0
 40
0.0
 40
0.0201577251147588
 40
0.038723601832069
 40
0.0559722430402329
 40
0.0721411383771022
 40
0.0923341214144191
 40
0.1112501129709749
 40
0.1290354230051706
 40
0.14888605393792
 40
0.1669419302535604
 40
0.182965314626419
 40
0.1987280869578443
 40
0.2151431898111761
 40
0.2497075046551565
 40
0.2861221294851332
 40
0.3237166046797315
 40
0.3617492013129079
 40
0.3994363944122307
 40
0.4307066245716496
 40
0.4649158274931232
 40
0.5017307206974271
 40
0.5409741222571365
 40
0.5826357006427656
 40
0.626930658069355
 40
0.6743376872779281
 40
0.7208238649669848
 40
0.7702945379740787
 40
0.8228704280700871
 40
0.8787201692144259
 40
0.8957773892849304
 40
0.8957773892849304
 40
0.8957773892849304
 40
0.8957773892849304
 10
26.72818345829331
 20
399.8359693616924
 30
0.0
 10
26.74477176505646
 20
399.1046397739834
 30
0.0
 10
26.78303622917885
 20
397.9200628689876
 30
0.0
 10
27.10385574161498
 20
396.0610229576438
 30
0.0
 10
27.5918389959445
 20
394.4225336773321
 30
0.0
 10
28.29714081530976
 20
392.7953784810822
 30
0.0
 10
29.24267796032845
 20
391.2304872268198
 30
0.0
 10
30.43390996935344
 20
389.774817948368
 30
0.0
 10
31.78879728816475
 20
388.4885007039367
 30
0.0
 10
33.26282590596813
 20
387.3863121483943
 30
0.0
 10
34.79205217161785
 20
386.4730195447754
 30
0.0
 10
36.26942459918206
 20
385.7476632539002
 30
0.0
 10
37.74043156546464
 20
385.1409243011981
 30
0.0
 10
39.8183750758005
 20
384.4097495213662
 30
0.0
 10
42.59996031597208
 20
383.6383519286071
 30
0.0
 10
46.10726015335265
 20
382.9028390833748
 30
0.0
 10
49.7574721200052
 20
382.313437919352
 30
0.0
 10
53.46647905624377
 20
381.8414437955638
 30
0.0
 10
56.97769205700013
 20
381.4762453750628
 30
0.0
 10
60.36718919647161
 20
381.167270595592
 30
0.0
 10
63.72839131464031
 20
380.8851841309886
 30
0.0
 10
67.35206591800036
 20
380.6112813990799
 30
0.0
 10
71.22069879862376
 20
380.351859183622
 30
0.0
 10
75.3347744643782
 20
380.110245513129
 30
0.0
 10
79.71618482771919
 20
379.8854825437019
 30
0.0
 10
84.25432051905665
 20
379.6761160462948
 30
0.0
 10
88.96126096018371
 20
379.4780645740162
 30
0.0
 10
93.83443770981178
 20
379.2951225641253
 30
0.0
 10
99.02218957362338
 20
379.1269486885603
 30
0.0
 10
103.1181602165529
 20
379.0192496072419
 30
0.0
 10
105.5349057184028
 20
378.9670920150932
 30
0.0
 10
106.0996747923986
 20
378.955645913108
 30
0.0
  0
ARC
  5
350
330
5E
100
AcDbEntity
  8
$DDT_AUDIT_GENERATED_(34F)
  6
Continuous
 62
     7
100
AcDbCircle
 10
41.35
 20
399.8359693617
 30
0.0
 40
35.0
100
AcDbArc
 50
33.392478504
 51
326.2357510974
  0
ARC
  5
351
330
5E
100
AcDbEntity
  8
$DDT_AUDIT_GENERATED_(34F)
  6
Continuous
 62
     7
100
AcDbCircle
 10
191.35
 20
399.8359693617
 30
0.0
 40
35.0
100
AcDbArc
 50
213.7660271977
 51
360.0
  0
ARC
  5
352
330
5E
100
AcDbEntity
  8
$DDT_AUDIT_GENERATED_(34F)
  6
Continuous
 62
     7
100
AcDbCircle
 10
191.35
 20
399.8359693617
 30
0.0
 40
35.0
100
AcDbArc
 50
0.0
 51
146.6029311119
  0
ENDBLK
  5
354
330
5E
100
AcDbEntity
  8
0
100
AcDbBlockEnd
  0
BLOCK
  5
3E8
330
355
100
AcDbEntity
  8
0
100
AcDbBlockBegin
  2
SE1
 70
     0
 10
0.0
 20
0.0
 30
0.0
  3
SE1
  1

  0
LINE
  5
358
330
355
100
AcDbEntity
  8
$DDT_AUDIT_GENERATED_(357)
  6
Continuous
 62
     7
100
AcDbLine
 10
352.8921085247
 20
410.3359693617
 30
0.0
 11
351.8921085247
 21
410.3359693617
 31
0.0
  0
LINE
  5
359
330
355
100
AcDbEntity
  8
$DDT_AUDIT_GENERATED_(357)
  6
Continuous
 62
     7
100
AcDbLine
 10
351.8921085247
 20
389.3359693617
 30
0.0
 11
352.8921085247
 21
389.3359693617
 31
0.0
  0
ARC
  5
35A
330
355
100
AcDbEntity
  8
$DDT_AUDIT_GENERATED_(357)
  6
Continuous
 62
     7
100
AcDbCircle
 10
353.8921085247
 20
408.6859693617
 30
0.0
 40
1.000000000000001
100
AcDbArc
 50
180.0
 51
205.8419327632
  0
ARC
  5
35B
330
355
100
AcDbEntity
  8
$DDT_AUDIT_GENERATED_(357)
  6
Continuous
 62
     7
100
AcDbCircle
 10
353.8921085247
 20
390.9859693617
 30
0.0
 40
1.000000000000001
100
AcDbArc
 50
154.1580672368
 51
180.0
  0
LINE
  5
35C
330
355
100
AcDbEntity
  8
$DDT_AUDIT_GENERATED_(60)
  6
Continuous
 62
     7
100
AcDbLine
 10
351.8921085247
 20
385.3359693617
 30
0.0
 11
351.8921085247
 21
414.3359693617
 31
0.0
  0
LINE
  5
35D
330
355
100
AcDbEntity
  8
$DDT_AUDIT_GENERATED_(60)
  6
Continuous
 62
     7
100
AcDbLine
 10
334.8921085247
 20
385.3359693617
 30
0.0
 11
334.8921085247
 21
414.3359693617
 31
0.0
  0
LINE
  5
35E
330
355
100
AcDbEntity
  8
$DDT_AUDIT_GENERATED_(60)
  6
Continuous
 62
     7
100
AcDbLine
 10
338.3921085247
 20
414.8359693617
 30
0.0
 11
338.3921085247
 21
412.7486281353
 31
0.0
  0
LINE
  5
35F
330
355
100
AcDbEntity
  8
$DDT_AUDIT_GENERATED_(60)
  6
Continuous
 62
     7
100
AcDbLine
 10
338.3921085247
 20
401.923310588
 30
0.0
 11
338.3921085247
 21
397.7486281353
 31
0.0
  0
LINE
  5
360
330
355
100
AcDbEntity
  8
$DDT_AUDIT_GENERATED_(60)
  6
Continuous
 62
     7
100
AcDbLine
 10
338.3921085247
 20
386.923310588
 30
0.0
 11
338.3921085247
 21
384.8359693617
 31
0.0
  0
LINE
  5
361
330
355
100
AcDbEntity
  8
$DDT_AUDIT_GENERATED_(60)
  6
Continuous
 62
     7
100
AcDbLine
 10
338.3921085247
 20
384.8359693617
 30
0.0
 11
335.5963797956
 21
384.8359693617
 31
0.0
  0
ARC
  5
362
330
355
100
AcDbEntity
  8
$DDT_AUDIT_GENERATED_(60)
  6
Continuous
 62
     7
100
AcDbCircle
 10
342.1706680439
 20
392.3359693617
 30
0.0
 40
6.601089837288617
100
AcDbArc
 50
124.9187681796
 51
235.0812318204
  0
ARC
  5
363
330
355
100
AcDbEntity
  8
$DDT_AUDIT_GENERATED_(60)
  6
Continuous
 62
     7
100
AcDbCircle
 10
342.1706680439
 20
407.3359693617
 30
0.0
 40
6.601089837288614
100
AcDbArc
 50
124.9187681796
 51
235.0812318204
  0
LINE
  5
364
330
355
100
AcDbEntity
  8
$DDT_AUDIT_GENERATED_(60)
  6
Continuous
 62
     7
100
AcDbLine
 10
338.3921085247
 20
414.8359693617
 30
0.0
 11
335.5963797956
 21
414.8359693617
 31
0.0
  0
LINE
  5
365
330
355
100
AcDbEntity
  8
$DDT_AUDIT_GENERATED_(60)
  6
Continuous
 62
     7
100
AcDbLine
 10
348.3921085247
 20
414.8359693617
 30
0.0
 11
348.3921085247
 21
412.7486281353
 31
0.0
  0
LINE
  5
366
330
355
100
AcDbEntity
  8
$DDT_AUDIT_GENERATED_(60)
  6
Continuous
 62
     7
100
AcDbLine
 10
348.3921085247
 20
401.923310588
 30
0.0
 11
348.3921085247
 21
397.7486281353
 31
0.0
  0
LINE
  5
367
330
355
100
AcDbEntity
  8
$DDT_AUDIT_GENERATED_(60)
  6
Continuous
 62
     7
100
AcDbLine
 10
348.3921085247
 20
386.923310588
 30
0.0
 11
348.3921085247
 21
384.8359693617
 31
0.0
  0
LINE
  5
368
330
355
100
AcDbEntity
  8
$DDT_AUDIT_GENERATED_(60)
  6
Continuous
 62
     7
100
AcDbLine
 10
351.1878372539
 20
414.8359693617
 30
0.0
 11
348.3921085247
 21
414.8359693617
 31
0.0
  0
LINE
  5
369
330
355
100
AcDbEntity
  8
$DDT_AUDIT_GENERATED_(60)
  6
Continuous
 62
     7
100
AcDbLine
 10
348.3921085247
 20
414.8359693617
 30
0.0
 11
338.3921085247
 21
414.8359693617
 31
0.0
  0
LINE
  5
36A
330
355
100
AcDbEntity
  8
$DDT_AUDIT_GENERATED_(60)
  6
Continuous
 62
     7
100
AcDbLine
 10
338.3921085247
 20
412.7486281353
 30
0.0
 11
348.3921085247
 21
412.7486281353
 31
0.0
  0
ARC
  5
36B
330
355
100
AcDbEntity
  8
$DDT_AUDIT_GENERATED_(60)
  6
Continuous
 62
     7
100
AcDbCircle
 10
344.6135490056
 20
407.3359693617
 30
0.0
 40
6.601089837288603
100
AcDbArc
 50
304.9187681795
 51
55.0812318205
  0
LINE
  5
36C
330
355
100
AcDbEntity
  8
$DDT_AUDIT_GENERATED_(60)
  6
Continuous
 62
     7
100
AcDbLine
 10
348.3921085247
 20
401.923310588
 30
0.0
 11
338.3921085247
 21
401.923310588
 31
0.0
  0
LINE
  5
36D
330
355
100
AcDbEntity
  8
$DDT_AUDIT_GENERATED_(60)
  6
Continuous
 62
     7
100
AcDbLine
 10
338.3921085247
 20
397.7486281353
 30
0.0
 11
348.3921085247
 21
397.7486281353
 31
0.0
  0
ARC
  5
36E
330
355
100
AcDbEntity
  8
$DDT_AUDIT_GENERATED_(60)
  6
Continuous
 62
     7
100
AcDbCircle
 10
344.6135490056
 20
392.3359693617
 30
0.0
 40
6.601089837288612
100
AcDbArc
 50
304.9187681795
 51
55.0812318205
  0
LINE
  5
36F
330
355
100
AcDbEntity
  8
$DDT_AUDIT_GENERATED_(60)
  6
Continuous
 62
     7
100
AcDbLine
 10
348.3921085247
 20
386.923310588
 30
0.0
 11
338.3921085247
 21
386.923310588
 31
0.0
  0
LINE
  5
370
330
355
100
AcDbEntity
  8
$DDT_AUDIT_GENERATED_(60)
  6
Continuous
 62
     7
100
AcDbLine
 10
338.3921085247
 20
384.8359693617
 30
0.0
 11
348.3921085247
 21
384.8359693617
 31
0.0
  0
LINE
  5
371
330
355
100
AcDbEntity
  8
$DDT_AUDIT_GENERATED_(60)
  6
Continuous
 62
     7
100
AcDbLine
 10
348.3921085247
 20
384.8359693617
 30
0.0
 11
351.1878372539
 21
384.8359693617
 31
0.0
  0
ARC
  5
372
330
355
100
AcDbEntity
  8
$DDT_AUDIT_GENERATED_(60)
  6
Continuous
 62
     7
100
AcDbCircle
 10
345.7564073265
 20
406.4395669653
 30
0.0
 40
10.0
100
AcDbArc
 50
52.1519040322
 51
57.1046000714
  0
ARC
  5
373
330
355
100
AcDbEntity
  8
$DDT_AUDIT_GENERATED_(60)
  6
Continuous
 62
     7
100
AcDbCircle
 10
345.7564073265
 20
393.2323717581
 30
0.0
 40
9.999999999999998
100
AcDbArc
 50
302.8991432645
 51
307.8480959678
  0
ARC
  5
374
330
355
100
AcDbEntity
  8
$DDT_AUDIT_GENERATED_(60)
  6
Continuous
 62
     7
100
AcDbCircle
 10
341.027809723
 20
406.4395669653
 30
0.0
 40
9.999999999999996
100
AcDbArc
 50
122.8991432645
 51
127.8480959678
  0
ARC
  5
375
330
355
100
AcDbEntity
  8
$DDT_AUDIT_GENERATED_(60)
  6
Continuous
 62
     7
100
AcDbCircle
 10
341.027809723
 20
393.2323717581
 30
0.0
 40
10.0
100
AcDbArc
 50
232.1519040322
 51
237.1046000714
  0
ARC
  5
376
330
355
100
AcDbEntity
  8
$DDT_AUDIT_GENERATED_(71)
  6
Continuous
 62
     7
100
AcDbCircle
 10
-91.941087859
 20
405.7251727632
 30
0.0
 40
499.9999999999999
100
AcDbArc
 50
1.7545740767
 51
4.0298365732
  0
ARC
  5
377
330
355
100
AcDbEntity
  8
$DDT_AUDIT_GENERATED_(71)
  6
Continuous
 62
     7
100
AcDbCircle
 10
853.7150670513
 20
405.7251727632
 30
0.0
 40
499.9999999999999
100
AcDbArc
 50
175.9701634268
 51
178.2604459134
  0
ARC
  5
378
330
355
100
AcDbEntity
  8
$DDT_AUDIT_GENERATED_(71)
  6
Continuous
 62
     7
100
AcDbCircle
 10
380.8869895962
 20
439.0359693617
 30
0.0
 40
26.0
100
AcDbArc
 50
156.0608831065
 51
175.9701634268
  0
ARC
  5
379
330
355
100
AcDbEntity
  8
$DDT_AUDIT_GENERATED_(71)
  6
Continuous
 62
     7
100
AcDbCircle
 10
380.8869895962
 20
439.0359693617
 30
0.0
 40
26.0
100
AcDbArc
 50
4.0298365732
 51
23.9391123418
  0
ARC
  5
37A
330
355
100
AcDbEntity
  8
$DDT_AUDIT_GENERATED_(76)
  6
Continuous
 62
     7
100
AcDbCircle
 10
436.4999972473
 20
180.6021138897
 30
0.0
 40
305.7653539187129
100
AcDbArc
 50
83.7398042371
 51
96.1521345113
  0
SPLINE
  5
37B
330
355
100
AcDbEntity
  8
$DDT_AUDIT_GENERATED_(76)
  6
Continuous
 62
     7
100
AcDbSpline
210
0.0
220
0.0
230
1.0
 70
     8
 71
     3
 72
    17
 73
    13
 74
     0
 42
0.000000003245913
 43
0.0000000001
 40
0.0
 40
0.0
 40
0.0
 40
0.0
 40
0.0868707206744004
 40
0.1764808886954491
 40
0.2689106217331584
 40
0.3642339038001705
 40
0.4625173667165263
 40
0.5638188869965782
 40
0.6681863032382505
 40
0.7756565904275435
 40
0.8862558032474378
 40
1.0
 40
1.0
 40
1.0
 40
1.0
 10
470.4883479318692
 20
482.0767601669568
 30
0.0
 10
470.545840273768
 20
482.1383021496928
 30
0.0
 10
470.6629474499289
 20
482.2633113962909
 30
0.0
 10
470.7908847391543
 20
482.5038955707394
 30
0.0
 10
470.8762297695483
 20
482.7785550941227
 30
0.0
 10
470.9076429542689
 20
483.0814377723804
 30
0.0
 10
470.879669614477
 20
483.3979925871402
 30
0.0
 10
470.7882346130581
 20
483.712051468394
 30
0.0
 10
470.6330418227857
 20
484.0053759658389
 30
0.0
 10
470.4173504152935
 20
484.2560216778482
 30
0.0
 10
470.1503799885888
 20
484.4521189772537
 30
0.0
 10
469.9464604113845
 20
484.512997821709
 30
0.0
 10
469.841802671829
 20
484.5441736116953
 30
0.0
  0
ARC
  5
37C
330
355
100
AcDbEntity
  8
$DDT_AUDIT_GENERATED_(76)
  6
Continuous
 62
     7
100
AcDbCircle
 10
470.1565045748
 20
483.2880846583
 30
0.0
 40
1.352481670457254
100
AcDbArc
 50
235.6986956043
 51
268.1469633901
  0
ARC
  5
37D
330
355
100
AcDbEntity
  8
$DDT_AUDIT_GENERATED_(76)
  6
Continuous
 62
     7
100
AcDbCircle
 10
436.2448705011
 20
189.1223892552
 30
0.0
 40
297.2675380035006
100
AcDbArc
 50
96.2792380115
 51
104.8476899728
  0
ARC
  5
37E
330
355
100
AcDbEntity
  8
$DDT_AUDIT_GENERATED_(76)
  6
Continuous
 62
     7
100
AcDbCircle
 10
360.570657037
 20
475.5512155343
 30
0.0
 40
1.041356824598809
100
AcDbArc
 50
118.739438503
 51
181.5525182426
  0
ARC
  5
37F
330
355
100
AcDbEntity
  8
$DDT_AUDIT_GENERATED_(76)
  6
Continuous
 62
     7
100
AcDbCircle
 10
439.953294421
 20
213.8689360391
 30
0.0
 40
263.5001713283825
100
AcDbArc
 50
84.7308135377
 51
95.9532556958
  0
ARC
  5
380
330
355
100
AcDbEntity
  8
$DDT_AUDIT_GENERATED_(76)
  6
Continuous
 62
     7
100
AcDbCircle
 10
437.083150181
 20
174.0927435759
 30
0.0
 40
309.7678363098461
100
AcDbArc
 50
84.0127183718
 51
96.1142209412
  0
ARC
  5
381
330
355
100
AcDbEntity
  8
$DDT_AUDIT_GENERATED_(76)
  6
Continuous
 62
     7
100
AcDbCircle
 10
413.1512957113
 20
470.975950573
 30
0.0
 40
4.999995659975408
100
AcDbArc
 50
96.0556012188
 51
180.0000000331
  0
ARC
  5
382
330
355
100
AcDbEntity
  8
$DDT_AUDIT_GENERATED_(76)
  6
Continuous
 62
     7
100
AcDbCircle
 10
404.8975410322
 20
480.310958756
 30
0.0
 40
1.961666983673679
100
AcDbArc
 50
114.3248999322
 51
155.4425867101
  0
LINE
  5
383
330
355
100
AcDbEntity
  8
$DDT_AUDIT_GENERATED_(76)
  6
Continuous
 62
     7
100
AcDbLine
 10
407.8513000394
 20
449.5858747792
 30
0.0
 11
353.9512487607
 21
449.5858769202
 31
0.0
  0
ARC
  5
384
330
355
100
AcDbEntity
  8
$DDT_AUDIT_GENERATED_(76)
  6
Continuous
 62
     7
100
AcDbCircle
 10
433.3876918026
 20
190.9414775307
 30
0.0
 40
296.7420009942846
100
AcDbArc
 50
82.1379118754
 51
105.4378244184
  0
ARC
  5
385
330
355
100
AcDbEntity
  8
$DDT_AUDIT_GENERATED_(76)
  6
Continuous
 62
     7
100
AcDbCircle
 10
409.9785047344
 20
576.5318530393
 30
0.0
 40
114.2068789903205
100
AcDbArc
 50
298.7799286616
 51
304.4483393389
  0
LINE
  5
386
330
355
100
AcDbEntity
  8
$DDT_AUDIT_GENERATED_(76)
  6
Continuous
 62
     7
100
AcDbLine
 10
353.6512487726
 20
476.02149702
 30
0.0
 11
353.6512487726
 21
449.8858769433
 31
0.0
  0
LINE
  5
387
330
355
100
AcDbEntity
  8
$DDT_AUDIT_GENERATED_(76)
  6
Continuous
 62
     7
100
AcDbLine
 10
408.1513000513
 20
466.1669019109
 30
0.0
 11
408.1513000513
 21
470.9759901649
 31
0.0
  0
LINE
  5
388
330
355
100
AcDbEntity
  8
$DDT_AUDIT_GENERATED_(76)
  6
Continuous
 62
     7
100
AcDbLine
 10
408.1513000513
 20
449.8858747792
 30
0.0
 11
408.1513000513
 21
458.8882873823
 31
0.0
  0
ARC
  5
389
330
355
100
AcDbEntity
  8
$DDT_AUDIT_GENERATED_(76)
  6
Continuous
 62
     7
100
AcDbCircle
 10
473.8067470705
 20
483.5179227606
 30
0.0
 40
1.397604388151964
100
AcDbArc
 50
303.6481716797
 51
82.8325753467
  0
ARC
  5
38A
330
355
100
AcDbEntity
  8
$DDT_AUDIT_GENERATED_(76)
  6
Continuous
 62
     7
100
AcDbCircle
 10
464.3025132574
 20
477.5620247395
 30
0.0
 40
1.308765310910591
100
AcDbArc
 50
263.4397134208
 51
300.3526790282
  0
ARC
  5
38B
330
355
100
AcDbEntity
  8
$DDT_AUDIT_GENERATED_(76)
  6
Continuous
 62
     7
100
AcDbCircle
 10
354.6512487729
 20
476.0221798014
 30
0.0
 40
0.9999999999960748
100
AcDbArc
 50
104.899625342
 51
180.0392751484
  0
ARC
  5
38C
330
355
100
AcDbEntity
  8
$DDT_AUDIT_GENERATED_(76)
  6
Continuous
 62
     7
100
AcDbCircle
 10
407.8513000513
 20
449.8858747792
 30
0.0
 40
0.3000000000000019
100
AcDbArc
 50
269.9999977242
 51
0.0238412872
  0
ARC
  5
38D
330
355
100
AcDbEntity
  8
$DDT_AUDIT_GENERATED_(76)
  6
Continuous
 62
     7
100
AcDbCircle
 10
353.9512487726
 20
449.8858769202
 30
0.0
 40
0.3000000000000011
100
AcDbArc
 50
179.422270232
 51
269.9999977242
  0
LINE
  5
38E
330
355
100
AcDbEntity
  8
$DDT_AUDIT_GENERATED_(9A)
  6
Continuous
 62
     7
100
AcDbLine
 10
408.1903731641
 20
466.1503163586
 30
0.0
 11
408.5805080435
 21
458.7060993987
 31
0.0
  0
LINE
  5
38F
330
355
100
AcDbEntity
  8
$DDT_AUDIT_GENERATED_(9A)
  6
Continuous
 62
     7
100
AcDbLine
 10
408.1903731641
 20
466.1503163586
 30
0.0
 11
408.1513000513
 21
466.1669019109
 31
0.0
  0
LINE
  5
390
330
355
100
AcDbEntity
  8
$DDT_AUDIT_GENERATED_(9A)
  6
Continuous
 62
     7
100
AcDbLine
 10
408.1513000513
 20
458.8882873823
 30
0.0
 11
408.5805080435
 21
458.7060993987
 31
0.0
  0
LINE
  5
391
330
355
100
AcDbEntity
  8
A4225108_211188_
  6
Continuous
 62
     7
100
AcDbLine
 10
422.7369895962
 20
370.0559693617
 30
0.0
 11
443.2369895962
 21
370.0559693617
 31
0.0
  0
LINE
  5
392
330
355
100
AcDbEntity
  8
A4225108_211188_
  6
Continuous
 62
     7
100
AcDbLine
 10
423.7369895962
 20
369.0559693617
 30
0.0
 11
442.2369895962
 21
369.0559693617
 31
0.0
  0
LINE
  5
393
330
355
100
AcDbEntity
  8
A4225108_211188_
  6
Continuous
 62
     7
100
AcDbLine
 10
443.2369895962
 20
370.0559693617
 30
0.0
 11
443.2369895962
 21
390.1002657844
 31
0.0
  0
LINE
  5
394
330
355
100
AcDbEntity
  8
A4225108_211188_
  6
Continuous
 62
     7
100
AcDbLine
 10
422.7369895962
 20
386.9754480328
 30
0.0
 11
422.7369895962
 21
370.0559693617
 31
0.0
  0
LINE
  5
395
330
355
100
AcDbEntity
  8
A4225108_211188_
  6
Continuous
 62
     7
100
AcDbLine
 10
422.7369895962
 20
370.0559693617
 30
0.0
 11
423.7369895962
 21
369.0559693617
 31
0.0
  0
LINE
  5
396
330
355
100
AcDbEntity
  8
A4225108_211188_
  6
Continuous
 62
     7
100
AcDbLine
 10
442.2369895962
 20
369.0559693617
 30
0.0
 11
443.2369895962
 21
370.0559693617
 31
0.0
  0
LINE
  5
397
330
355
100
AcDbEntity
  8
A4225112_211188_
  6
Continuous
 62
     7
100
AcDbLine
 10
427.3869895962
 20
426.2059693617
 30
0.0
 11
427.3869895962
 21
420.7788643008
 31
0.0
  0
LINE
  5
398
330
355
100
AcDbEntity
  8
A4225112_211188_
  6
Continuous
 62
     7
100
AcDbLine
 10
438.5869895962
 20
420.5412506685
 30
0.0
 11
438.5869895962
 21
426.2059693617
 31
0.0
  0
LINE
  5
399
330
355
100
AcDbEntity
  8
$DDT_AUDIT_GENERATED_(A8)
  6
Continuous
 62
     7
100
AcDbLine
 10
425.8889020028
 20
426.2059693617
 30
0.0
 11
440.0850771895
 21
426.2059693617
 31
0.0
  0
ARC
  5
39A
330
355
100
AcDbEntity
  8
$DDT_AUDIT_GENERATED_(A8)
  6
Continuous
 62
     7
100
AcDbCircle
 10
432.9869895962
 20
421.2427791543
 30
0.0
 40
28.00000000000088
100
AcDbArc
 50
70.7627384947
 51
109.2372615053
  0
ARC
  5
39B
330
355
100
AcDbEntity
  8
$DDT_AUDIT_GENERATED_(A8)
  6
Continuous
 62
     7
100
AcDbCircle
 10
441.6852811072
 20
446.1686637883
 30
0.0
 40
1.599999999999046
100
AcDbArc
 50
289.2372615054
 51
70.7627384947
  0
ARC
  5
39C
330
355
100
AcDbEntity
  8
$DDT_AUDIT_GENERATED_(A8)
  6
Continuous
 62
     7
100
AcDbCircle
 10
424.2886980851
 20
446.1686637883
 30
0.0
 40
1.6
100
AcDbArc
 50
109.2372615053
 51
250.7627384946
  0
ARC
  5
39D
330
355
100
AcDbEntity
  8
$DDT_AUDIT_GENERATED_(A8)
  6
Continuous
 62
     7
100
AcDbCircle
 10
432.9869895962
 20
471.0945484223
 30
0.0
 40
28.0
100
AcDbArc
 50
286.5076537505
 51
289.2372615053
  0
ARC
  5
39E
330
355
100
AcDbEntity
  8
$DDT_AUDIT_GENERATED_(A8)
  6
Continuous
 62
     7
100
AcDbCircle
 10
432.9869895962
 20
471.0945484223
 30
0.0
 40
28.0
100
AcDbArc
 50
250.7627384947
 51
253.4923462495
  0
LINE
  5
39F
330
355
100
AcDbEntity
  8
$DDT_AUDIT_GENERATED_(A8)
  6
Continuous
 62
     7
100
AcDbLine
 10
440.5850771895
 20
426.7059693617
 30
0.0
 11
440.5850771895
 21
443.7692675028
 31
0.0
  0
LINE
  5
3A0
330
355
100
AcDbEntity
  8
$DDT_AUDIT_GENERATED_(A8)
  6
Continuous
 62
     7
100
AcDbLine
 10
425.3889020028
 20
443.7692675028
 30
0.0
 11
425.3889020028
 21
426.7059693617
 31
0.0
  0
ARC
  5
3A1
330
355
100
AcDbEntity
  8
$DDT_AUDIT_GENERATED_(A8)
  6
Continuous
 62
     7
100
AcDbCircle
 10
440.0850771895
 20
426.7059693617
 30
0.0
 40
0.5000000000000004
100
AcDbArc
 50
270.0
 51
0.0
  0
ARC
  5
3A2
330
355
100
AcDbEntity
  8
$DDT_AUDIT_GENERATED_(A8)
  6
Continuous
 62
     7
100
AcDbCircle
 10
425.8889020028
 20
426.7059693617
 30
0.0
 40
0.5000000000000004
100
AcDbArc
 50
180.0
 51
270.0
  0
ARC
  5
3A3
330
355
100
AcDbEntity
  8
$DDT_AUDIT_GENERATED_(A8)
  6
Continuous
 62
     7
100
AcDbCircle
 10
424.8889020028
 20
443.7692675028
 30
0.0
 40
0.5000000000000066
100
AcDbArc
 50
0.0
 51
73.4923462495
  0
ARC
  5
3A4
330
355
100
AcDbEntity
  8
$DDT_AUDIT_GENERATED_(A8)
  6
Continuous
 62
     7
100
AcDbCircle
 10
441.0850771895
 20
443.7692675028
 30
0.0
 40
0.5000000000000004
100
AcDbArc
 50
106.5076537505
 51
180.0
  0
LINE
  5
3A5
330
355
100
AcDbEntity
  8
$DDT_AUDIT_GENERATED_(B5)
  6
Continuous
 62
     7
100
AcDbLine
 10
458.0465841153
 20
388.8776043768
 30
0.0
 11
478.1850361842
 21
396.4070630739
 31
0.0
  0
SPLINE
  5
3A6
330
355
100
AcDbEntity
  8
$DDT_AUDIT_GENERATED_(B5)
  6
Continuous
 62
     7
100
AcDbSpline
210
0.0
220
0.0
230
1.0
 70
     8
 71
     3
 72
    10
 73
     6
 74
     0
 42
0.0000000019260148
 43
0.0000000001
 40
0.0
 40
0.0
 40
0.0
 40
0.0
 40
0.5
 40
0.5
 40
1.0
 40
1.0
 40
1.0
 40
1.0
 10
470.4273102019991
 20
393.8455796859613
 30
0.0
 10
469.6597741402879
 20
393.436989958143
 30
0.0
 10
468.8730364585193
 20
393.0795559778903
 30
0.0
 10
467.2579063454574
 20
392.4756619792294
 30
0.0
 10
466.4295133530572
 20
392.2292034556867
 30
0.0
 10
465.5818985390563
 20
392.03395449939
 30
0.0
  0
LINE
  5
3A7
330
355
100
AcDbEntity
  8
$DDT_AUDIT_GENERATED_(B5)
  6
Continuous
 62
     7
100
AcDbLine
 10
471.0655569104
 20
396.9480269387
 30
0.0
 11
463.0648191015
 21
393.9566736474
 31
0.0
  0
LINE
  5
3A8
330
355
100
AcDbEntity
  8
$DDT_AUDIT_GENERATED_(B5)
  6
Continuous
 62
     7
100
AcDbLine
 10
471.0655569104
 20
396.9480269387
 30
0.0
 11
471.7016847862
 21
395.2466256492
 31
0.0
  0
SPLINE
  5
3A9
330
355
100
AcDbEntity
  8
$DDT_AUDIT_GENERATED_(B5)
  6
Continuous
 62
     7
100
AcDbSpline
210
0.0
220
0.0
230
1.0
 70
     8
 71
     3
 72
    14
 73
    10
 74
     0
 42
0.0000000049321089
 43
0.0000000001
 40
0.0
 40
0.0
 40
0.0
 40
0.0
 40
0.1250000000000004
 40
0.1250000000000004
 40
0.2500000000000009
 40
0.2500000000000009
 40
0.5000000000000008
 40
0.5000000000000008
 40
1.0
 40
1.0
 40
1.0
 40
1.0
 10
471.7016847862069
 20
395.2466256492417
 30
0.0
 10
471.7311867108974
 20
395.1677191673521
 30
0.0
 10
471.730555524111
 20
395.0776574557531
 30
0.0
 10
471.6895727095888
 20
394.9137256264909
 30
0.0
 10
471.6511111611298
 20
394.8363400459859
 30
0.0
 10
471.5145367143335
 20
394.6239388554764
 30
0.0
 10
471.3934320449233
 20
394.5024273262959
 30
0.0
 10
471.012494325834
 20
394.1770420739407
 30
0.0
 10
470.722735880056
 20
394.0028464300394
 30
0.0
 10
470.4273102019991
 20
393.8455796859613
 30
0.0
  0
SPLINE
  5
3AA
330
355
100
AcDbEntity
  8
$DDT_AUDIT_GENERATED_(B5)
  6
Continuous
 62
     7
100
AcDbSpline
210
0.0
220
0.0
230
1.0
 70
     8
 71
     3
 72
    18
 73
    14
 74
     0
 42
0.0000000049401632
 43
0.0000000001
 40
0.0
 40
0.0
 40
0.0
 40
0.0
 40
0.2499999999999998
 40
0.2499999999999998
 40
0.4999999999999997
 40
0.4999999999999997
 40
0.6249999999999992
 40
0.6249999999999992
 40
0.7499999999999989
 40
0.7499999999999989
 40
0.8749999999999994
 40
0.8749999999999994
 40
1.0
 40
1.0
 40
1.0
 40
1.0
 10
465.5818985390563
 20
392.03395449939
 30
0.0
 10
465.4183422863156
 20
391.9962791460147
 30
0.0
 10
465.2537922061939
 20
391.9636611229818
 30
0.0
 10
464.9214542553796
 20
391.9149013552019
 30
0.0
 10
464.7537746250541
 20
391.8985991538937
 30
0.0
 10
464.5031213917309
 20
391.8966230534252
 30
0.0
 10
464.4195736930172
 20
391.8997293954757
 30
0.0
 10
464.2524885525797
 20
391.9173706994366
 30
0.0
 10
464.1684704862482
 20
391.9320100058957
 30
0.0
 10
464.0078139840833
 20
391.9790229921398
 30
0.0
 10
463.9290356276767
 20
392.0116068618594
 30
0.0
 10
463.789577495947
 20
392.1091001826898
 30
0.0
 10
463.7309776045971
 20
392.174951796737
 30
0.0
 10
463.7009469773215
 20
392.2552723579246
 30
0.0
  0
LINE
  5
3AB
330
355
100
AcDbEntity
  8
$DDT_AUDIT_GENERATED_(B5)
  6
Continuous
 62
     7
100
AcDbLine
 10
463.7009469773
 20
392.2552723579
 30
0.0
 11
463.0648191015
 21
393.9566736474
 31
0.0
  0
LINE
  5
3AC
330
355
100
AcDbEntity
  8
$DDT_AUDIT_GENERATED_(B5)
  6
Continuous
 62
     7
100
AcDbLine
 10
457.420208632
 20
388.9824236844
 30
0.0
 11
458.0465841153
 21
388.8776043768
 31
0.0
  0
LINE
  5
3AD
330
355
100
AcDbEntity
  8
$DDT_AUDIT_GENERATED_(B5)
  6
Continuous
 62
     7
100
AcDbLine
 10
478.1850361842
 20
396.4070630739
 30
0.0
 11
478.589000109
 21
396.8971105009
 31
0.0
  0
ARC
  5
3AE
330
355
100
AcDbEntity
  8
$DDT_AUDIT_GENERATED_(B5)
  6
Continuous
 62
     7
100
AcDbCircle
 10
457.5852562379
 20
389.968709286
 30
0.0
 40
0.9999999999999972
100
AcDbArc
 50
200.5
 51
260.5
  0
ARC
  5
3AF
330
355
100
AcDbEntity
  8
$DDT_AUDIT_GENERATED_(B5)
  6
Continuous
 62
     7
100
AcDbCircle
 10
477.8173755256
 20
397.5331887212
 30
0.0
 40
1.000000000000005
100
AcDbArc
 50
320.5
 51
20.5
  0
LINE
  5
3B0
330
355
100
AcDbEntity
  8
$DDT_AUDIT_GENERATED_(B5)
  6
Continuous
 62
     7
100
AcDbLine
 10
455.7720923797
 20
391.9627853616
 30
0.0
 11
456.6485840486
 21
389.6185019047
 31
0.0
  0
LINE
  5
3B1
330
355
100
AcDbEntity
  8
$DDT_AUDIT_GENERATED_(B5)
  6
Continuous
 62
     7
100
AcDbLine
 10
478.7540477149
 20
397.8833961024
 30
0.0
 11
478.2422937195
 21
399.2521443381
 31
0.0
  0
ARC
  5
3B2
330
355
100
AcDbEntity
  8
400257038_GEH_EH
  6
Continuous
 62
     7
100
AcDbCircle
 10
393.9070251948
 20
364.0423603233
 30
0.0
 40
19.51832031850218
100
AcDbArc
 50
107.9566566514
 51
125.8551795087
  0
SPLINE
  5
3B3
330
355
100
AcDbEntity
  8
400257038_GEH_EH
  6
Continuous
 62
     7
100
AcDbSpline
210
0.0
220
0.0
230
1.0
 70
     8
 71
     3
 72
     8
 73
     4
 74
     0
 42
0.0000000004676614
 43
0.0000000001
 40
0.0
 40
0.0
 40
0.0
 40
0.0
 40
1.0
 40
1.0
 40
1.0
 40
1.0
 10
398.6686042669576
 20
384.1902029461942
 30
0.0
 10
405.7764560259499
 20
384.6047006563484
 30
0.0
 10
412.8760034824714
 20
385.140731809338
 30
0.0
 10
419.980692888202
 20
385.8825148914738
 30
0.0
  0
ARC
  5
3B4
330
355
100
AcDbEntity
  8
400257038_GEH_EH
  6
Continuous
 62
     7
100
AcDbCircle
 10
398.7826068209
 20
345.8603190306
 30
0.0
 40
38.33005345110669
100
AcDbArc
 50
100.0194064607
 51
106.5104558809
  0
ARC
  5
3B5
330
355
100
AcDbEntity
  8
400257038_GEH_EH
  6
Continuous
 62
     7
100
AcDbCircle
 10
398.7826068209
 20
345.8603190306
 30
0.0
 40
38.33005345110669
100
AcDbArc
 50
91.1242958943
 51
98.8307851281
  0
LINE
  5
3B6
330
355
100
AcDbEntity
  8
400257038_GEH_EH
  6
Continuous
 62
     7
100
AcDbLine
 10
478.7757588533
 20
399.1102799492
 30
0.0
 11
479.2023274529
 21
399.3226182462
 31
0.0
  0
ARC
  5
3B7
330
355
100
AcDbEntity
  8
400257038_GEH_EH
  6
Continuous
 62
     7
100
AcDbCircle
 10
477.8552810669
 20
402.0031887325
 30
0.0
 40
2.999998682986059
100
AcDbArc
 50
296.6805471826
 51
331.1436334306
  0
SPLINE
  5
3B8
330
355
100
AcDbEntity
  8
400257038_GEH_EH
  6
Continuous
 62
     7
100
AcDbSpline
210
0.0
220
0.0
230
1.0
 70
     8
 71
     3
 72
     8
 73
     4
 74
     0
 42
0.0000000065765775
 43
0.0000000001
 40
0.9499832149879002
 40
0.9499832149879002
 40
0.9499832149879002
 40
0.9499832149879002
 40
1.0
 40
1.0
 40
1.0
 40
1.0
 10
398.6682759522669
 20
384.266255132278
 30
0.0
 10
398.6685181429169
 20
384.2141841407768
 30
0.0
 10
398.6686042728047
 20
384.1902029465352
 30
0.0
 10
398.6686042669576
 20
384.1902029461942
 30
0.0
  0
SPLINE
  5
3B9
330
355
100
AcDbEntity
  8
400257038_GEH_EH
  6
Continuous
 62
     7
100
AcDbSpline
210
0.0
220
0.0
230
1.0
 70
     8
 71
     3
 72
     8
 73
     4
 74
     0
 42
0.0000000045359112
 43
0.0000000001
 40
0.9300975595669676
 40
0.9300975595669676
 40
0.9300975595669676
 40
0.9300975595669676
 40
0.9997018816333698
 40
0.9997018816333698
 40
0.9997018816333698
 40
0.9997018816333698
 10
382.3902288012497
 20
379.9821885286329
 30
0.0
 10
382.4509598676007
 20
379.909683362057
 30
0.0
 10
382.4791726116147
 20
379.8661022166199
 30
0.0
 10
382.473876327679
 20
379.8615923549232
 30
0.0
  0
ARC
  5
3BA
330
355
100
AcDbEntity
  8
400257038_GEH_EH
  6
Continuous
 62
     7
100
AcDbCircle
 10
381.2882973059
 20
381.4865357957
 30
0.0
 40
2.011480650554784
100
AcDbArc
 50
274.524468895
 51
306.112412033
  0
ARC
  5
3BB
330
355
100
AcDbEntity
  8
400257038_GEH_EH
  6
Continuous
 62
     7
100
AcDbCircle
 10
485.2504335142
 20
417.2062513122
 30
0.0
 40
1.99999999999992
100
AcDbArc
 50
343.0074595705
 51
88.0755371183
  0
ARC
  5
3BC
330
355
100
AcDbEntity
  8
400257038_GEH_EH
  6
Continuous
 62
     7
100
AcDbCircle
 10
397.0328656748
 20
647.1391845648
 30
0.0
 40
262.1044260307037
100
AcDbArc
 50
280.5977006204
 51
282.8712690633
  0
LINE
  5
3BD
330
355
100
AcDbEntity
  8
400257038_GEH_EH
  6
Continuous
 62
     7
100
AcDbLine
 10
351.8921085247
 20
381.2983277309
 30
0.0
 11
351.8921085247
 21
383.0798619908
 31
0.0
  0
SPLINE
  5
3BE
330
355
100
AcDbEntity
  8
400257038_GEH_EH
  6
Continuous
 62
     7
100
AcDbSpline
210
0.0
220
0.0
230
1.0
 70
     8
 71
     3
 72
     8
 73
     4
 74
     0
 42
0.0000000003604557
 43
0.0000000001
 40
0.0
 40
0.0
 40
0.0
 40
0.0
 40
1.0
 40
1.0
 40
1.0
 40
1.0
 10
353.7571517494227
 20
379.3028811275558
 30
0.0
 10
363.5743499834923
 20
378.6389185077703
 30
0.0
 10
371.3892258623652
 20
378.7018490068351
 30
0.0
 10
381.4469726247975
 20
379.4813234501907
 30
0.0
  0
ARC
  5
3BF
330
355
100
AcDbEntity
  8
400257038_GEH_EH
  6
Continuous
 62
     7
100
AcDbCircle
 10
353.8921085247
 20
418.9217000842
 30
0.0
 40
2.000000000000001
100
AcDbArc
 50
97.3285857535
 51
180.0
  0
ARC
  5
3C0
330
355
100
AcDbEntity
  8
400257038_GEH_EH
  6
Continuous
 62
     7
100
AcDbCircle
 10
353.8921155231
 20
381.2983267909
 30
0.0
 40
2.000004653893301
100
AcDbArc
 50
179.9999730718
 51
266.1306411864
  0
LINE
  5
3C1
330
355
100
AcDbEntity
  8
400257038_GEH_EH
  6
Continuous
 62
     7
100
AcDbLine
 10
419.9806928882
 20
385.8825148915
 30
0.0
 11
420.7369895962
 21
385.9622540887
 31
0.0
  0
SPLINE
  5
3C2
330
355
100
AcDbEntity
  8
400257038_GEH_EH
  6
Continuous
 62
     7
100
AcDbSpline
210
0.0
220
0.0
230
1.0
 70
     8
 71
     3
 72
     8
 73
     4
 74
     0
 42
0.0000000002143612
 43
0.0000000001
 40
0.0
 40
0.0
 40
0.0
 40
0.0
 40
1.0
 40
1.0
 40
1.0
 40
1.0
 10
438.6869895961505
 20
420.5431979091258
 30
0.0
 10
452.9573887272796
 20
420.2157698570877
 30
0.0
 10
468.459246529877
 20
419.771578172291
 30
0.0
 10
485.3175973110678
 20
419.2051232501823
 30
0.0
  0
ARC
  5
3C3
330
355
100
AcDbEntity
  8
400257038_GEH_EH
  6
Continuous
 62
     7
100
AcDbCircle
 10
436.3113877788
 20
577.3430988113
 30
0.0
 40
156.8178956845426
100
AcDbArc
 50
270.8584842661
 51
270.8679950961
  0
SPLINE
  5
3C4
330
355
100
AcDbEntity
  8
400257038_GEH_EH
  6
Continuous
 62
     7
100
AcDbSpline
210
0.0
220
0.0
230
1.0
 70
     8
 71
     3
 72
     8
 73
     4
 74
     0
 42
0.0000000037292628
 43
0.0000000001
 40
0.0
 40
0.0
 40
0.0
 40
0.0
 40
0.0403597919903105
 40
0.0403597919903105
 40
0.0403597919903105
 40
0.0403597919903105
 10
445.2369895961504
 20
389.505544327583
 30
0.0
 10
445.2369896127328
 20
389.5055444029955
 30
0.0
 10
445.2022357733198
 20
389.5169247803311
 30
0.0
 10
445.1337467299892
 20
389.5379881098747
 30
0.0
  0
SPLINE
  5
3C5
330
355
100
AcDbEntity
  8
400257038_GEH_EH
  6
Continuous
 62
     7
100
AcDbSpline
210
0.0
220
0.0
230
1.0
 70
     8
 71
     3
 72
    26
 73
    22
 74
     0
 42
0.0000000003865017
 43
0.0000000001
 40
0.0
 40
0.0
 40
0.0
 40
0.0
 40
0.0625000000000001
 40
0.0625000000000001
 40
0.1250000000000002
 40
0.1250000000000002
 40
0.2500000000000008
 40
0.2500000000000008
 40
0.3750000000000013
 40
0.3750000000000013
 40
0.5000000000000019
 40
0.5000000000000019
 40
0.5625000000000017
 40
0.5625000000000017
 40
0.6250000000000014
 40
0.6250000000000014
 40
0.750000000000001
 40
0.750000000000001
 40
0.8750000000000006
 40
0.8750000000000006
 40
1.0
 40
1.0
 40
1.0
 40
1.0
 10
420.7369895961505
 20
385.9622540887439
 30
0.0
 10
420.7369895960558
 20
385.9622541274395
 30
0.0
 10
420.8197860750572
 20
386.0023643428866
 30
0.0
 10
421.144751379099
 20
386.1598490471757
 30
0.0
 10
421.3908247838475
 20
386.2813228720894
 30
0.0
 10
422.329057721947
 20
386.7587640855398
 30
0.0
 10
423.2408080512195
 20
387.2427682881185
 30
0.0
 10
425.419588029482
 20
388.3758056244315
 30
0.0
 10
426.6915351985315
 20
389.0274669689744
 30
0.0
 10
429.4972737316893
 20
390.2310006955925
 30
0.0
 10
431.038581809569
 20
390.7775289499106
 30
0.0
 10
433.4715623062308
 20
391.2537257414097
 30
0.0
 10
434.2792398368828
 20
391.3513126502668
 30
0.0
 10
435.8875315736411
 20
391.4253473163369
 30
0.0
 10
436.6953355678264
 20
391.4000649770745
 30
0.0
 10
438.9802011115546
 20
391.1891528737485
 30
0.0
 10
440.3688820354058
 20
390.8759678832641
 30
0.0
 10
442.6877700484565
 20
390.2743600511837
 30
0.0
 10
443.6179843541956
 20
389.9895663195563
 30
0.0
 10
444.9037116714094
 20
389.6064966192189
 30
0.0
 10
445.236989605134
 20
389.5055445531955
 30
0.0
 10
445.2369895961504
 20
389.505544327583
 30
0.0
  0
ARC
  5
3C6
330
355
100
AcDbEntity
  8
400257038_GEH_EH
  6
Continuous
 62
     7
100
AcDbCircle
 10
436.3113911714
 20
577.3432587053
 30
0.0
 40
156.8180555087865
100
AcDbArc
 50
266.7009797784
 51
270.8679929717
  0
ARC
  5
3C7
330
355
100
AcDbEntity
  8
400257038_GEH_EH
  6
Continuous
 62
     7
100
AcDbCircle
 10
472.3124542667
 20
379.7904299518
 30
0.0
 40
20.37230743197834
100
AcDbArc
 50
71.5027385655
 51
121.1815090005
  0
ARC
  5
3C8
330
355
100
AcDbEntity
  8
400257038_GEH_EH
  6
Continuous
 62
     7
100
AcDbCircle
 10
489.3105901965
 20
359.6078622272
 30
0.0
 40
46.61993947859833
100
AcDbArc
 50
126.2181510434
 51
136.6324498561
  0
ARC
  5
3C9
330
355
100
AcDbEntity
  8
400257038_GEH_EH
  6
Continuous
 62
     7
100
AcDbCircle
 10
353.4645348819
 20
383.0581316891
 30
0.0
 40
1.572576502042073
100
AcDbArc
 50
179.2082457039
 51
248.6536131389
  0
LINE
  5
3CA
330
355
100
AcDbEntity
  8
400257038_GEH_EH
  6
Continuous
 62
     7
100
AcDbLine
 10
351.8921085247
 20
416.3693602047
 30
0.0
 11
351.8921085247
 21
418.9217000842
 31
0.0
  0
LINE
  5
3CB
330
355
100
AcDbEntity
  8
400257038_GEH_EH
  6
Continuous
 62
     7
100
AcDbLine
 10
351.8921085247
 20
383.0798619908
 30
0.0
 11
351.8921085247
 21
385.2305128468
 31
0.0
  0
LINE
  5
3CC
330
355
100
AcDbEntity
  8
400257038_GEH_EH
  6
Continuous
 62
     7
100
AcDbLine
 10
351.8921085247
 20
414.3916607463
 30
0.0
 11
351.8921085247
 21
416.3693602047
 31
0.0
  0
ARC
  5
3CD
330
355
100
AcDbEntity
  8
400257038_GEH_EH
  6
Continuous
 62
     7
100
AcDbCircle
 10
353.5163050811
 20
416.3879932044
 30
0.0
 40
1.624303432962928
100
AcDbArc
 50
112.5994018345
 51
180.6572759967
  0
LINE
  5
3CE
330
355
100
AcDbEntity
  8
400257038_GEH_EH
  6
Continuous
 62
     7
100
AcDbLine
 10
352.8921085247
 20
417.887573246
 30
0.0
 11
352.8921085247
 21
399.8359477913
 31
0.0
  0
LINE
  5
3CF
330
355
100
AcDbEntity
  8
400257038_GEH_EH
  6
Continuous
 62
     7
100
AcDbLine
 10
352.8921085247
 20
399.8359477913
 30
0.0
 11
352.8921085247
 21
381.5934389157
 31
0.0
  0
SPLINE
  5
3D0
330
355
100
AcDbEntity
  8
400257038_GEH_EH
  6
Continuous
 62
     7
100
AcDbSpline
210
0.0
220
0.0
230
1.0
 70
     8
 71
     3
 72
     8
 73
     4
 74
     0
 42
0.0000000005221244
 43
0.0000000001
 40
0.0
 40
0.0
 40
0.0
 40
0.0
 40
1.0
 40
1.0
 40
1.0
 40
1.0
 10
408.1369895961504
 20
421.0909536876626
 30
0.0
 10
414.2428289368839
 20
421.0162214442898
 30
0.0
 10
420.621263940112
 20
420.9144796494217
 30
0.0
 10
427.2869895961504
 20
420.78508194737
 30
0.0
  0
ARC
  5
3D1
330
355
100
AcDbEntity
  8
400257038_GEH_EH
  6
Continuous
 62
     7
100
AcDbCircle
 10
353.7595788591
 20
419.162815209
 30
0.0
 40
1.746853518279158
100
AcDbArc
 50
87.1736231045
 51
92.322859615
  0
ARC
  5
3D2
330
355
100
AcDbEntity
  8
400257038_GEH_EH
  6
Continuous
 62
     7
100
AcDbCircle
 10
353.7595788591
 20
419.162815209
 30
0.0
 40
1.746853518258372
100
AcDbArc
 50
87.1736231045
 51
94.0241642139
  0
ARC
  5
3D3
330
355
100
AcDbEntity
  8
400257038_GEH_EH
  6
Continuous
 62
     7
100
AcDbCircle
 10
379.7263275982
 20
795.4599687923
 30
0.0
 40
375.4455022843524
100
AcDbArc
 50
266.047291244
 51
274.3398271379
  0
ARC
  5
3D4
330
355
100
AcDbEntity
  8
400257038_GEH_EH
  6
Continuous
 62
     7
100
AcDbCircle
 10
392.4159361121
 20
365.6801741621
 30
0.0
 40
17.46500694088227
100
AcDbArc
 50
108.6977404602
 51
125.0360235016
  0
SPLINE
  5
3D5
330
355
100
AcDbEntity
  8
400257038_GEH_EH
  6
Continuous
 62
     7
100
AcDbSpline
210
0.0
220
0.0
230
1.0
 70
     8
 71
     3
 72
    28
 73
    24
 74
     0
 42
0.0000000017747261
 43
0.0000000001
 40
0.0
 40
0.0
 40
0.0
 40
0.0
 40
0.1113721965988932
 40
0.2101358624918923
 40
0.2957451989560749
 40
0.351068285060378
 40
0.3986302522535132
 40
0.4383323157757376
 40
0.4552113104446661
 40
0.4623666906496641
 40
0.4680385462706569
 40
0.4726064243823833
 40
0.4746955094626079
 40
0.4767932350857321
 40
0.4814254065864873
 40
0.487207316918608
 40
0.503483966147613
 40
0.5270093770174125
 40
0.5704622658101903
 40
0.6252226032488912
 40
0.6804665005851229
 40
0.8430171854134445
 40
1.0
 40
1.0
 40
1.0
 40
1.0
 10
391.3123027075492
 20
383.4747706436605
 30
0.0
 10
391.4585143442437
 20
383.5055729373802
 30
0.0
 10
391.6905418030497
 20
383.5566429024004
 30
0.0
 10
392.0507426193465
 20
383.6840941693641
 30
0.0
 10
392.3351780646713
 20
383.8162793453872
 30
0.0
 10
392.5604396813
 20
383.9421063940267
 30
0.0
 10
392.7293718861071
 20
384.0495229439844
 30
0.0
 10
392.8562354800925
 20
384.1364895738276
 30
0.0
 10
392.9288432100464
 20
384.1924880002151
 30
0.0
 10
392.9691127215492
 20
384.2200078805727
 30
0.0
 10
393.0087780917201
 20
384.2376767849678
 30
0.0
 10
393.0522067834647
 20
384.2507706782114
 30
0.0
 10
393.090610387645
 20
384.2589762493797
 30
0.0
 10
393.1320301726903
 20
384.2659865542269
 30
0.0
 10
393.1914335257841
 20
384.2724129725422
 30
0.0
 10
393.3020524844214
 20
384.27752317118
 30
0.0
 10
393.4546145134223
 20
384.2725264934554
 30
0.0
 10
393.6866868026324
 20
384.2520703113937
 30
0.0
 10
393.9763552348821
 20
384.212821302794
 30
0.0
 10
394.3051078014147
 20
384.1637617448864
 30
0.0
 10
394.8971685800857
 20
384.0944085359087
 30
0.0
 10
395.7235216627078
 20
384.0382029348707
 30
0.0
 10
396.37026609105
 20
384.0617414334025
 30
0.0
 10
396.7469656685178
 20
384.0774638681552
 30
0.0
  0
ARC
  5
3D6
330
355
100
AcDbEntity
  8
400257038_GEH_EH
  6
Continuous
 62
     7
100
AcDbCircle
 10
397.8933227801
 20
386.6286064036
 30
0.0
 40
2.47903586563985
100
AcDbArc
 50
273.1435696539
 51
288.2138612051
  0
ARC
  5
3D7
330
355
100
AcDbEntity
  8
400257038_GEH_EH
  6
Continuous
 62
     7
100
AcDbCircle
 10
366.1910945353
 20
558.3305137065
 30
0.0
 40
179.4828364891004
100
AcDbArc
 50
269.8804316192
 51
273.8373745196
  0
ARC
  5
3D8
330
355
100
AcDbEntity
  8
400257038_GEH_EH
  6
Continuous
 62
     7
100
AcDbCircle
 10
403.0644418011
 20
442.1640868542
 30
0.0
 40
87.89030081230126
100
AcDbArc
 50
331.6814402447
 51
343.105504447
  0
LINE
  5
3DA
330
355
100
AcDbEntity
  8
$DDT_AUDIT_GENERATED_(3D9)
  6
Continuous
 62
     7
100
AcDbLine
 10
334.8921085247
 20
413.0559693617
 30
0.0
 11
333.3921085247
 21
413.0559693617
 31
0.0
  0
LINE
  5
3DB
330
355
100
AcDbEntity
  8
$DDT_AUDIT_GENERATED_(3D9)
  6
Continuous
 62
     7
100
AcDbLine
 10
333.3921085247
 20
386.6159693617
 30
0.0
 11
334.8921085247
 21
386.6159693617
 31
0.0
  0
LINE
  5
3DC
330
355
100
AcDbEntity
  8
$DDT_AUDIT_GENERATED_(3D9)
  6
Continuous
 62
     7
100
AcDbLine
 10
333.3921085247
 20
411.8859693617
 30
0.0
 11
334.8921085247
 21
411.8859693617
 31
0.0
  0
LINE
  5
3DD
330
355
100
AcDbEntity
  8
$DDT_AUDIT_GENERATED_(3D9)
  6
Continuous
 62
     7
100
AcDbLine
 10
333.3921085247
 20
387.7859693617
 30
0.0
 11
334.8921085247
 21
387.7859693617
 31
0.0
  0
LINE
  5
3DE
330
355
100
AcDbEntity
  8
$DDT_AUDIT_GENERATED_(34F)
  6
Continuous
 62
     7
100
AcDbLine
 10
307.3921085247
 20
434.8359693617
 30
0.0
 11
307.3921085247
 21
364.8359693617
 31
0.0
  0
LINE
  5
3DF
330
355
100
AcDbEntity
  8
$DDT_AUDIT_GENERATED_(34F)
  6
Continuous
 62
     7
100
AcDbLine
 10
333.3921085247
 20
384.9684410202
 30
0.0
 11
333.3921085247
 21
414.7034977032
 31
0.0
  0
LINE
  5
3E0
330
355
100
AcDbEntity
  8
$DDT_AUDIT_GENERATED_(34F)
  6
Continuous
 62
     7
100
AcDbLine
 10
307.3921085247
 20
364.8359693617
 30
0.0
 11
312.5784720686
 21
364.8359693617
 31
0.0
  0
LINE
  5
3E1
330
355
100
AcDbEntity
  8
$DDT_AUDIT_GENERATED_(34F)
  6
Continuous
 62
     7
100
AcDbLine
 10
312.5784720686
 20
434.8359693617
 30
0.0
 11
307.3921085247
 21
434.8359693617
 31
0.0
  0
LINE
  5
3E2
330
355
100
AcDbEntity
  8
$DDT_AUDIT_GENERATED_(34F)
  6
Continuous
 62
     7
100
AcDbLine
 10
313.9746723409
 20
365.4039690825
 30
0.0
 11
332.9392587289
 21
383.8944408108
 31
0.0
  0
LINE
  5
3E3
330
355
100
AcDbEntity
  8
$DDT_AUDIT_GENERATED_(34F)
  6
Continuous
 62
     7
100
AcDbLine
 10
332.9392587289
 20
415.7774979126
 30
0.0
 11
313.9746723409
 21
434.2679696409
 31
0.0
  0
ARC
  5
3E4
330
355
100
AcDbEntity
  8
$DDT_AUDIT_GENERATED_(34F)
  6
Continuous
 62
     7
100
AcDbCircle
 10
331.8921085247
 20
384.9684410202
 30
0.0
 40
1.500000000000004
100
AcDbArc
 50
314.2747757009
 51
0.0
  0
ARC
  5
3E5
330
355
100
AcDbEntity
  8
$DDT_AUDIT_GENERATED_(34F)
  6
Continuous
 62
     7
100
AcDbCircle
 10
331.8921085247
 20
414.7034977032
 30
0.0
 40
1.500000000000001
100
AcDbArc
 50
0.0
 51
45.7252242991
  0
ARC
  5
3E6
330
355
100
AcDbEntity
  8
$DDT_AUDIT_GENERATED_(34F)
  6
Continuous
 62
     7
100
AcDbCircle
 10
312.5784720686
 20
432.8359693617
 30
0.0
 40
2.0
100
AcDbArc
 50
45.7252242991
 51
90.0
  0
ARC
  5
3E7
330
355
100
AcDbEntity
  8
$DDT_AUDIT_GENERATED_(34F)
  6
Continuous
 62
     7
100
AcDbCircle
 10
312.5784720686
 20
366.8359693617
 30
0.0
 40
2.000000000000002
100
AcDbArc
 50
270.0
 51
314.2747757009
  0
ENDBLK
  5
3E9
330
355
100
AcDbEntity
  8
0
100
AcDbBlockEnd
  0
BLOCK
  5
48A
330
3EA
100
AcDbEntity
  8
0
100
AcDbBlockBegin
  2
SE2
 70
     0
 10
0.0
 20
0.0
 30
0.0
  3
SE2
  1

  0
LINE
  5
3EC
330
3EA
100
AcDbEntity
  8
$DDT_AUDIT_GENERATED_(357)
  6
Continuous
 62
     7
100
AcDbLine
 10
51.85
 20
240.7083249894
 30
0.0
 11
51.85
 21
241.7083249894
 31
0.0
  0
LINE
  5
3ED
330
3EA
100
AcDbEntity
  8
$DDT_AUDIT_GENERATED_(357)
  6
Continuous
 62
     7
100
AcDbLine
 10
30.85
 20
241.7083249894
 30
0.0
 11
30.85
 21
240.7083249894
 31
0.0
  0
ARC
  5
3EE
330
3EA
100
AcDbEntity
  8
$DDT_AUDIT_GENERATED_(357)
  6
Continuous
 62
     7
100
AcDbCircle
 10
50.2
 20
239.7083249894
 30
0.0
 40
1.000000000000001
100
AcDbArc
 50
90.0
 51
115.8419327632
  0
ARC
  5
3EF
330
3EA
100
AcDbEntity
  8
$DDT_AUDIT_GENERATED_(357)
  6
Continuous
 62
     7
100
AcDbCircle
 10
32.5
 20
239.7083249894
 30
0.0
 40
1.000000000000001
100
AcDbArc
 50
64.1580672368
 51
90.0
  0
LINE
  5
3F0
330
3EA
100
AcDbEntity
  8
$DDT_AUDIT_GENERATED_(357)
  6
Continuous
 62
     7
100
AcDbLine
 10
201.85
 20
240.7083249894
 30
0.0
 11
201.85
 21
241.7083249894
 31
0.0
  0
LINE
  5
3F1
330
3EA
100
AcDbEntity
  8
$DDT_AUDIT_GENERATED_(357)
  6
Continuous
 62
     7
100
AcDbLine
 10
180.85
 20
241.7083249894
 30
0.0
 11
180.85
 21
240.7083249894
 31
0.0
  0
ARC
  5
3F2
330
3EA
100
AcDbEntity
  8
$DDT_AUDIT_GENERATED_(357)
  6
Continuous
 62
     7
100
AcDbCircle
 10
182.5
 20
239.7083249894
 30
0.0
 40
1.000000000000001
100
AcDbArc
 50
64.1580672368
 51
90.0
  0
LINE
  5
3F3
330
3EA
100
AcDbEntity
  8
$DDT_AUDIT_GENERATED_(60)
  6
Continuous
 62
     7
100
AcDbLine
 10
201.2153810568
 20
245.2083249894
 30
0.0
 11
197.6
 21
245.2083249894
 31
0.0
  0
LINE
  5
3F4
330
3EA
100
AcDbEntity
  8
$DDT_AUDIT_GENERATED_(60)
  6
Continuous
 62
     7
100
AcDbLine
 10
176.85
 20
241.7083249894
 30
0.0
 11
205.85
 21
241.7083249894
 31
0.0
  0
LINE
  5
3F5
330
3EA
100
AcDbEntity
  8
$DDT_AUDIT_GENERATED_(60)
  6
Continuous
 62
     7
100
AcDbLine
 10
176.85
 20
258.7083249894
 30
0.0
 11
205.85
 21
258.7083249894
 31
0.0
  0
LINE
  5
3F6
330
3EA
100
AcDbEntity
  8
$DDT_AUDIT_GENERATED_(60)
  6
Continuous
 62
     7
100
AcDbLine
 10
201.2153810568
 20
255.2083249894
 30
0.0
 11
197.6
 21
255.2083249894
 31
0.0
  0
LINE
  5
3F7
330
3EA
100
AcDbEntity
  8
$DDT_AUDIT_GENERATED_(60)
  6
Continuous
 62
     7
100
AcDbLine
 10
185.1
 20
255.2083249894
 30
0.0
 11
181.4846189432
 21
255.2083249894
 31
0.0
  0
LINE
  5
3F8
330
3EA
100
AcDbEntity
  8
$DDT_AUDIT_GENERATED_(60)
  6
Continuous
 62
     7
100
AcDbLine
 10
175.2346189432
 20
255.2083249894
 30
0.0
 11
175.1
 21
255.2083249894
 31
0.0
  0
LINE
  5
3F9
330
3EA
100
AcDbEntity
  8
$DDT_AUDIT_GENERATED_(60)
  6
Continuous
 62
     7
100
AcDbLine
 10
207.4653810568
 20
255.2083249894
 30
0.0
 11
207.6
 21
255.2083249894
 31
0.0
  0
SPLINE
  5
3FA
330
3EA
100
AcDbEntity
  8
$DDT_AUDIT_GENERATED_(60)
  6
Continuous
 62
     7
100
AcDbSpline
210
0.0
220
0.0
230
1.0
 70
     8
 71
     3
 72
    14
 73
    10
 74
     0
 42
0.0000000011014719
 43
0.0000000001
 40
0.0
 40
0.0
 40
0.0
 40
0.0
 40
0.25
 40
0.25
 40
0.5
 40
0.5
 40
0.75
 40
0.75
 40
1.0
 40
1.0
 40
1.0
 40
1.0
 10
207.4653810567666
 20
255.2083249894167
 30
0.0
 10
207.1180632081393
 20
256.1861315578698
 30
0.0
 10
206.6201358955559
 20
256.8829900520507
 30
0.0
 10
205.5302278309877
 20
257.7896720039204
 30
0.0
 10
204.9363536495827
 20
258.0036191042395
 30
0.0
 10
203.7479485461938
 20
258.0044862572814
 30
0.0
 10
203.1623947637967
 20
257.7971676990123
 30
0.0
 10
202.0621130206902
 20
256.8865692030889
 30
0.0
 10
201.5623162945164
 20
256.1850543905731
 30
0.0
 10
201.2153810567666
 20
255.2083249894167
 30
0.0
  0
SPLINE
  5
3FB
330
3EA
100
AcDbEntity
  8
$DDT_AUDIT_GENERATED_(60)
  6
Continuous
 62
     7
100
AcDbSpline
210
0.0
220
0.0
230
1.0
 70
     8
 71
     3
 72
    14
 73
    10
 74
     0
 42
0.0000000011014719
 43
0.0000000001
 40
0.0
 40
0.0
 40
0.0
 40
0.0
 40
0.25
 40
0.25
 40
0.5
 40
0.5
 40
0.75
 40
0.75
 40
1.0
 40
1.0
 40
1.0
 40
1.0
 10
181.4846189432334
 20
255.2083249894167
 30
0.0
 10
181.1373010946062
 20
256.1861315578698
 30
0.0
 10
180.6393737820227
 20
256.8829900520507
 30
0.0
 10
179.5494657174545
 20
257.7896720039204
 30
0.0
 10
178.9555915360495
 20
258.0036191042395
 30
0.0
 10
177.7671864326606
 20
258.0044862572814
 30
0.0
 10
177.1816326502635
 20
257.7971676990123
 30
0.0
 10
176.0813509071571
 20
256.8865692030889
 30
0.0
 10
175.5815541809832
 20
256.1850543905731
 30
0.0
 10
175.2346189432334
 20
255.2083249894167
 30
0.0
  0
SPLINE
  5
3FC
330
3EA
100
AcDbEntity
  8
$DDT_AUDIT_GENERATED_(60)
  6
Continuous
 62
     7
100
AcDbSpline
210
0.0
220
0.0
230
1.0
 70
     8
 71
     3
 72
    14
 73
    10
 74
     0
 42
0.0000000006969408
 43
0.0000000001
 40
0.0
 40
0.0
 40
0.0
 40
0.0
 40
0.25
 40
0.25
 40
0.5
 40
0.5
 40
0.75
 40
0.75
 40
1.0
 40
1.0
 40
1.0
 40
1.0
 10
197.6
 20
255.2083249894167
 30
0.0
 10
196.9069116474878
 20
256.1839534321865
 30
0.0
 10
195.899351479657
 20
256.8899321208338
 30
0.0
 10
193.7087060272832
 20
257.7956458852301
 30
0.0
 10
192.5244917237939
 20
258.00594828192
 30
0.0
 10
190.1444037149694
 20
258.002133443783
 30
0.0
 10
188.9613801054258
 20
257.7868342012333
 30
0.0
 10
186.7893770655833
 20
256.881647886595
 30
0.0
 10
185.78787435235
 20
256.1766139251231
 30
0.0
 10
185.1
 20
255.2083249894167
 30
0.0
  0
LINE
  5
3FD
330
3EA
100
AcDbEntity
  8
$DDT_AUDIT_GENERATED_(60)
  6
Continuous
 62
     7
100
AcDbLine
 10
185.1
 20
245.2083249894
 30
0.0
 11
181.4846189432
 21
245.2083249894
 31
0.0
  0
LINE
  5
3FE
330
3EA
100
AcDbEntity
  8
$DDT_AUDIT_GENERATED_(60)
  6
Continuous
 62
     7
100
AcDbLine
 10
175.2346189432
 20
245.2083249894
 30
0.0
 11
175.1
 21
245.2083249894
 31
0.0
  0
LINE
  5
3FF
330
3EA
100
AcDbEntity
  8
$DDT_AUDIT_GENERATED_(60)
  6
Continuous
 62
     7
100
AcDbLine
 10
207.4653810568
 20
245.2083249894
 30
0.0
 11
207.6
 21
245.2083249894
 31
0.0
  0
LINE
  5
400
330
3EA
100
AcDbEntity
  8
$DDT_AUDIT_GENERATED_(60)
  6
Continuous
 62
     7
100
AcDbLine
 10
197.6
 20
255.2083249894
 30
0.0
 11
197.6
 21
245.2083249894
 31
0.0
  0
SPLINE
  5
401
330
3EA
100
AcDbEntity
  8
$DDT_AUDIT_GENERATED_(60)
  6
Continuous
 62
     7
100
AcDbSpline
210
0.0
220
0.0
230
1.0
 70
     8
 71
     3
 72
    14
 73
    10
 74
     0
 42
0.0000000006969408
 43
0.0000000001
 40
0.0
 40
0.0
 40
0.0
 40
0.0
 40
0.25
 40
0.25
 40
0.5
 40
0.5
 40
0.75
 40
0.75
 40
1.0
 40
1.0
 40
1.0
 40
1.0
 10
197.6
 20
245.2083249894167
 30
0.0
 10
196.9069116474879
 20
244.232696546647
 30
0.0
 10
195.899351479657
 20
243.5267178579996
 30
0.0
 10
193.7087060272832
 20
242.6210040936034
 30
0.0
 10
192.5244917237939
 20
242.4107016969134
 30
0.0
 10
190.1444037149694
 20
242.4145165350504
 30
0.0
 10
188.9613801054258
 20
242.6298157776002
 30
0.0
 10
186.7893770655833
 20
243.5350020922384
 30
0.0
 10
185.78787435235
 20
244.2400360537104
 30
0.0
 10
185.1
 20
245.2083249894167
 30
0.0
  0
LINE
  5
402
330
3EA
100
AcDbEntity
  8
$DDT_AUDIT_GENERATED_(60)
  6
Continuous
 62
     7
100
AcDbLine
 10
185.1
 20
245.2083249894
 30
0.0
 11
185.1
 21
255.2083249894
 31
0.0
  0
LINE
  5
403
330
3EA
100
AcDbEntity
  8
$DDT_AUDIT_GENERATED_(60)
  6
Continuous
 62
     7
100
AcDbLine
 10
181.4846189432
 20
255.2083249894
 30
0.0
 11
181.4846189432
 21
245.2083249894
 31
0.0
  0
SPLINE
  5
404
330
3EA
100
AcDbEntity
  8
$DDT_AUDIT_GENERATED_(60)
  6
Continuous
 62
     7
100
AcDbSpline
210
0.0
220
0.0
230
1.0
 70
     8
 71
     3
 72
    14
 73
    10
 74
     0
 42
0.0000000011014719
 43
0.0000000001
 40
0.0
 40
0.0
 40
0.0
 40
0.0
 40
0.2500000000000001
 40
0.2500000000000001
 40
0.5000000000000001
 40
0.5000000000000001
 40
0.7500000000000002
 40
0.7500000000000002
 40
1.0
 40
1.0
 40
1.0
 40
1.0
 10
181.4846189432334
 20
245.2083249894167
 30
0.0
 10
181.1373010946062
 20
244.2305184209636
 30
0.0
 10
180.6393737820227
 20
243.5336599267827
 30
0.0
 10
179.5494657174545
 20
242.626977974913
 30
0.0
 10
178.9555915360495
 20
242.4130308745939
 30
0.0
 10
177.7671864326606
 20
242.412163721552
 30
0.0
 10
177.1816326502635
 20
242.6194822798211
 30
0.0
 10
176.0813509071571
 20
243.5300807757445
 30
0.0
 10
175.5815541809832
 20
244.2315955882603
 30
0.0
 10
175.2346189432334
 20
245.2083249894167
 30
0.0
  0
LINE
  5
405
330
3EA
100
AcDbEntity
  8
$DDT_AUDIT_GENERATED_(60)
  6
Continuous
 62
     7
100
AcDbLine
 10
175.2346189432
 20
245.2083249894
 30
0.0
 11
175.2346189432
 21
255.2083249894
 31
0.0
  0
LINE
  5
406
330
3EA
100
AcDbEntity
  8
$DDT_AUDIT_GENERATED_(60)
  6
Continuous
 62
     7
100
AcDbLine
 10
207.4653810568
 20
255.2083249894
 30
0.0
 11
207.4653810568
 21
245.2083249894
 31
0.0
  0
SPLINE
  5
407
330
3EA
100
AcDbEntity
  8
$DDT_AUDIT_GENERATED_(60)
  6
Continuous
 62
     7
100
AcDbSpline
210
0.0
220
0.0
230
1.0
 70
     8
 71
     3
 72
    14
 73
    10
 74
     0
 42
0.0000000011014719
 43
0.0000000001
 40
0.0
 40
0.0
 40
0.0
 40
0.0
 40
0.2499999999999999
 40
0.2499999999999999
 40
0.4999999999999999
 40
0.4999999999999999
 40
0.7499999999999999
 40
0.7499999999999999
 40
1.0
 40
1.0
 40
1.0
 40
1.0
 10
207.4653810567666
 20
245.2083249894167
 30
0.0
 10
207.1180632081393
 20
244.2305184209636
 30
0.0
 10
206.6201358955559
 20
243.5336599267827
 30
0.0
 10
205.5302278309877
 20
242.626977974913
 30
0.0
 10
204.9363536495827
 20
242.4130308745939
 30
0.0
 10
203.7479485461938
 20
242.412163721552
 30
0.0
 10
203.1623947637967
 20
242.6194822798211
 30
0.0
 10
202.0621130206902
 20
243.5300807757445
 30
0.0
 10
201.5623162945164
 20
244.2315955882603
 30
0.0
 10
201.2153810567666
 20
245.2083249894167
 30
0.0
  0
LINE
  5
408
330
3EA
100
AcDbEntity
  8
$DDT_AUDIT_GENERATED_(60)
  6
Continuous
 62
     7
100
AcDbLine
 10
201.2153810568
 20
245.2083249894
 30
0.0
 11
201.2153810568
 21
255.2083249894
 31
0.0
  0
LINE
  5
409
330
3EA
100
AcDbEntity
  8
$DDT_AUDIT_GENERATED_(60)
  6
Continuous
 62
     7
100
AcDbLine
 10
207.6
 20
245.2083249894
 30
0.0
 11
207.6
 21
255.2083249894
 31
0.0
  0
ARC
  5
40A
330
3EA
100
AcDbEntity
  8
$DDT_AUDIT_GENERATED_(60)
  6
Continuous
 62
     7
100
AcDbCircle
 10
197.9535976036
 20
247.8440261876
 30
0.0
 40
9.999999999999998
100
AcDbArc
 50
322.1519040322
 51
344.7179936136
  0
ARC
  5
40B
330
3EA
100
AcDbEntity
  8
$DDT_AUDIT_GENERATED_(60)
  6
Continuous
 62
     7
100
AcDbCircle
 10
184.7464023964
 20
247.8440261876
 30
0.0
 40
9.999999999999991
100
AcDbArc
 50
195.2820063864
 51
217.8480959678
  0
ARC
  5
40C
330
3EA
100
AcDbEntity
  8
$DDT_AUDIT_GENERATED_(60)
  6
Continuous
 62
     7
100
AcDbCircle
 10
197.9535976036
 20
252.5726237912
 30
0.0
 40
9.999999999999993
100
AcDbArc
 50
15.2820063864
 51
37.8480959678
  0
ARC
  5
40D
330
3EA
100
AcDbEntity
  8
$DDT_AUDIT_GENERATED_(60)
  6
Continuous
 62
     7
100
AcDbCircle
 10
184.7464023964
 20
252.5726237912
 30
0.0
 40
9.999999999999998
100
AcDbArc
 50
142.1519040322
 51
164.7179936136
  0
LINE
  5
40E
330
3EA
100
AcDbEntity
  8
$DDT_AUDIT_GENERATED_(60)
  6
Continuous
 62
     7
100
AcDbLine
 10
175.1
 20
255.2083249894
 30
0.0
 11
175.1
 21
245.2083249894
 31
0.0
  0
LINE
  5
40F
330
3EA
100
AcDbEntity
  8
$DDT_AUDIT_GENERATED_(60)
  6
Continuous
 62
     7
100
AcDbLine
 10
51.2153810568
 20
245.2083249894
 30
0.0
 11
47.6
 21
245.2083249894
 31
0.0
  0
LINE
  5
410
330
3EA
100
AcDbEntity
  8
$DDT_AUDIT_GENERATED_(60)
  6
Continuous
 62
     7
100
AcDbLine
 10
55.85
 20
241.7083249894
 30
0.0
 11
26.85
 21
241.7083249894
 31
0.0
  0
LINE
  5
411
330
3EA
100
AcDbEntity
  8
$DDT_AUDIT_GENERATED_(60)
  6
Continuous
 62
     7
100
AcDbLine
 10
55.85
 20
258.7083249894
 30
0.0
 11
26.85
 21
258.7083249894
 31
0.0
  0
LINE
  5
412
330
3EA
100
AcDbEntity
  8
$DDT_AUDIT_GENERATED_(60)
  6
Continuous
 62
     7
100
AcDbLine
 10
51.2153810568
 20
255.2083249894
 30
0.0
 11
47.6
 21
255.2083249894
 31
0.0
  0
LINE
  5
413
330
3EA
100
AcDbEntity
  8
$DDT_AUDIT_GENERATED_(60)
  6
Continuous
 62
     7
100
AcDbLine
 10
35.1
 20
255.2083249894
 30
0.0
 11
31.4846189432
 21
255.2083249894
 31
0.0
  0
LINE
  5
414
330
3EA
100
AcDbEntity
  8
$DDT_AUDIT_GENERATED_(60)
  6
Continuous
 62
     7
100
AcDbLine
 10
25.2346189432
 20
255.2083249894
 30
0.0
 11
25.1
 21
255.2083249894
 31
0.0
  0
LINE
  5
415
330
3EA
100
AcDbEntity
  8
$DDT_AUDIT_GENERATED_(60)
  6
Continuous
 62
     7
100
AcDbLine
 10
57.4653810568
 20
255.2083249894
 30
0.0
 11
57.6
 21
255.2083249894
 31
0.0
  0
SPLINE
  5
416
330
3EA
100
AcDbEntity
  8
$DDT_AUDIT_GENERATED_(60)
  6
Continuous
 62
     7
100
AcDbSpline
210
0.0
220
0.0
230
1.0
 70
     8
 71
     3
 72
    14
 73
    10
 74
     0
 42
0.0000000011014719
 43
0.0000000001
 40
0.0
 40
0.0
 40
0.0
 40
0.0
 40
0.25
 40
0.25
 40
0.5
 40
0.5
 40
0.75
 40
0.75
 40
1.0
 40
1.0
 40
1.0
 40
1.0
 10
57.46538105676659
 20
255.2083249894167
 30
0.0
 10
57.1180632081393
 20
256.1861315578698
 30
0.0
 10
56.62013589555592
 20
256.8829900520507
 30
0.0
 10
55.53022783098766
 20
257.7896720039204
 30
0.0
 10
54.93635364958265
 20
258.0036191042395
 30
0.0
 10
53.74794854619375
 20
258.0044862572814
 30
0.0
 10
53.1623947637967
 20
257.7971676990123
 30
0.0
 10
52.06211302069022
 20
256.8865692030889
 30
0.0
 10
51.56231629451638
 20
256.1850543905731
 30
0.0
 10
51.21538105676657
 20
255.2083249894167
 30
0.0
  0
SPLINE
  5
417
330
3EA
100
AcDbEntity
  8
$DDT_AUDIT_GENERATED_(60)
  6
Continuous
 62
     7
100
AcDbSpline
210
0.0
220
0.0
230
1.0
 70
     8
 71
     3
 72
    14
 73
    10
 74
     0
 42
0.0000000011014719
 43
0.0000000001
 40
0.0
 40
0.0
 40
0.0
 40
0.0
 40
0.25
 40
0.25
 40
0.5
 40
0.5
 40
0.75
 40
0.75
 40
1.0
 40
1.0
 40
1.0
 40
1.0
 10
31.48461894323343
 20
255.2083249894167
 30
0.0
 10
31.13730109460616
 20
256.1861315578698
 30
0.0
 10
30.63937378202275
 20
256.8829900520507
 30
0.0
 10
29.54946571745451
 20
257.7896720039204
 30
0.0
 10
28.95559153604949
 20
258.0036191042395
 30
0.0
 10
27.7671864326606
 20
258.0044862572814
 30
0.0
 10
27.18163265026355
 20
257.7971676990123
 30
0.0
 10
26.08135090715707
 20
256.8865692030889
 30
0.0
 10
25.58155418098324
 20
256.1850543905731
 30
0.0
 10
25.23461894323342
 20
255.2083249894167
 30
0.0
  0
SPLINE
  5
418
330
3EA
100
AcDbEntity
  8
$DDT_AUDIT_GENERATED_(60)
  6
Continuous
 62
     7
100
AcDbSpline
210
0.0
220
0.0
230
1.0
 70
     8
 71
     3
 72
    14
 73
    10
 74
     0
 42
0.0000000006969408
 43
0.0000000001
 40
0.0
 40
0.0
 40
0.0
 40
0.0
 40
0.25
 40
0.25
 40
0.5
 40
0.5
 40
0.75
 40
0.75
 40
1.0
 40
1.0
 40
1.0
 40
1.0
 10
47.6
 20
255.2083249894167
 30
0.0
 10
46.90691164748787
 20
256.1839534321865
 30
0.0
 10
45.89935147965701
 20
256.8899321208338
 30
0.0
 10
43.70870602728324
 20
257.7956458852301
 30
0.0
 10
42.52449172379386
 20
258.00594828192
 30
0.0
 10
40.14440371496939
 20
258.002133443783
 30
0.0
 10
38.96138010542577
 20
257.7868342012333
 30
0.0
 10
36.7893770655833
 20
256.881647886595
 30
0.0
 10
35.78787435234998
 20
256.1766139251231
 30
0.0
 10
35.09999999999999
 20
255.2083249894167
 30
0.0
  0
LINE
  5
419
330
3EA
100
AcDbEntity
  8
$DDT_AUDIT_GENERATED_(60)
  6
Continuous
 62
     7
100
AcDbLine
 10
35.1
 20
245.2083249894
 30
0.0
 11
31.4846189432
 21
245.2083249894
 31
0.0
  0
LINE
  5
41A
330
3EA
100
AcDbEntity
  8
$DDT_AUDIT_GENERATED_(60)
  6
Continuous
 62
     7
100
AcDbLine
 10
25.2346189432
 20
245.2083249894
 30
0.0
 11
25.1
 21
245.2083249894
 31
0.0
  0
LINE
  5
41B
330
3EA
100
AcDbEntity
  8
$DDT_AUDIT_GENERATED_(60)
  6
Continuous
 62
     7
100
AcDbLine
 10
57.4653810568
 20
245.2083249894
 30
0.0
 11
57.6
 21
245.2083249894
 31
0.0
  0
LINE
  5
41C
330
3EA
100
AcDbEntity
  8
$DDT_AUDIT_GENERATED_(60)
  6
Continuous
 62
     7
100
AcDbLine
 10
47.6
 20
255.2083249894
 30
0.0
 11
47.6
 21
245.2083249894
 31
0.0
  0
SPLINE
  5
41D
330
3EA
100
AcDbEntity
  8
$DDT_AUDIT_GENERATED_(60)
  6
Continuous
 62
     7
100
AcDbSpline
210
0.0
220
0.0
230
1.0
 70
     8
 71
     3
 72
    14
 73
    10
 74
     0
 42
0.0000000006969408
 43
0.0000000001
 40
0.0
 40
0.0
 40
0.0
 40
0.0
 40
0.25
 40
0.25
 40
0.5
 40
0.5
 40
0.75
 40
0.75
 40
1.0
 40
1.0
 40
1.0
 40
1.0
 10
47.6
 20
245.2083249894167
 30
0.0
 10
46.9069116474879
 20
244.232696546647
 30
0.0
 10
45.89935147965701
 20
243.5267178579996
 30
0.0
 10
43.70870602728324
 20
242.6210040936034
 30
0.0
 10
42.52449172379386
 20
242.4107016969134
 30
0.0
 10
40.14440371496939
 20
242.4145165350504
 30
0.0
 10
38.96138010542577
 20
242.6298157776002
 30
0.0
 10
36.78937706558327
 20
243.5350020922384
 30
0.0
 10
35.78787435234998
 20
244.2400360537104
 30
0.0
 10
35.09999999999999
 20
245.2083249894167
 30
0.0
  0
LINE
  5
41E
330
3EA
100
AcDbEntity
  8
$DDT_AUDIT_GENERATED_(60)
  6
Continuous
 62
     7
100
AcDbLine
 10
35.1
 20
245.2083249894
 30
0.0
 11
35.1
 21
255.2083249894
 31
0.0
  0
LINE
  5
41F
330
3EA
100
AcDbEntity
  8
$DDT_AUDIT_GENERATED_(60)
  6
Continuous
 62
     7
100
AcDbLine
 10
31.4846189432
 20
255.2083249894
 30
0.0
 11
31.4846189432
 21
245.2083249894
 31
0.0
  0
SPLINE
  5
420
330
3EA
100
AcDbEntity
  8
$DDT_AUDIT_GENERATED_(60)
  6
Continuous
 62
     7
100
AcDbSpline
210
0.0
220
0.0
230
1.0
 70
     8
 71
     3
 72
    14
 73
    10
 74
     0
 42
0.0000000011014719
 43
0.0000000001
 40
0.0
 40
0.0
 40
0.0
 40
0.0
 40
0.2500000000000001
 40
0.2500000000000001
 40
0.5000000000000001
 40
0.5000000000000001
 40
0.7500000000000002
 40
0.7500000000000002
 40
1.0
 40
1.0
 40
1.0
 40
1.0
 10
31.48461894323343
 20
245.2083249894167
 30
0.0
 10
31.13730109460616
 20
244.2305184209636
 30
0.0
 10
30.63937378202275
 20
243.5336599267827
 30
0.0
 10
29.54946571745451
 20
242.626977974913
 30
0.0
 10
28.95559153604949
 20
242.4130308745939
 30
0.0
 10
27.7671864326606
 20
242.412163721552
 30
0.0
 10
27.18163265026355
 20
242.6194822798211
 30
0.0
 10
26.08135090715707
 20
243.5300807757445
 30
0.0
 10
25.58155418098324
 20
244.2315955882603
 30
0.0
 10
25.23461894323342
 20
245.2083249894167
 30
0.0
  0
LINE
  5
421
330
3EA
100
AcDbEntity
  8
$DDT_AUDIT_GENERATED_(60)
  6
Continuous
 62
     7
100
AcDbLine
 10
25.2346189432
 20
245.2083249894
 30
0.0
 11
25.2346189432
 21
255.2083249894
 31
0.0
  0
LINE
  5
422
330
3EA
100
AcDbEntity
  8
$DDT_AUDIT_GENERATED_(60)
  6
Continuous
 62
     7
100
AcDbLine
 10
57.4653810568
 20
255.2083249894
 30
0.0
 11
57.4653810568
 21
245.2083249894
 31
0.0
  0
SPLINE
  5
423
330
3EA
100
AcDbEntity
  8
$DDT_AUDIT_GENERATED_(60)
  6
Continuous
 62
     7
100
AcDbSpline
210
0.0
220
0.0
230
1.0
 70
     8
 71
     3
 72
    14
 73
    10
 74
     0
 42
0.0000000011014719
 43
0.0000000001
 40
0.0
 40
0.0
 40
0.0
 40
0.0
 40
0.2499999999999999
 40
0.2499999999999999
 40
0.4999999999999999
 40
0.4999999999999999
 40
0.7499999999999999
 40
0.7499999999999999
 40
1.0
 40
1.0
 40
1.0
 40
1.0
 10
57.46538105676659
 20
245.2083249894167
 30
0.0
 10
57.11806320813931
 20
244.2305184209636
 30
0.0
 10
56.62013589555592
 20
243.5336599267827
 30
0.0
 10
55.53022783098766
 20
242.626977974913
 30
0.0
 10
54.93635364958264
 20
242.4130308745939
 30
0.0
 10
53.74794854619375
 20
242.412163721552
 30
0.0
 10
53.1623947637967
 20
242.6194822798211
 30
0.0
 10
52.06211302069022
 20
243.5300807757445
 30
0.0
 10
51.56231629451638
 20
244.2315955882603
 30
0.0
 10
51.21538105676657
 20
245.2083249894167
 30
0.0
  0
LINE
  5
424
330
3EA
100
AcDbEntity
  8
$DDT_AUDIT_GENERATED_(60)
  6
Continuous
 62
     7
100
AcDbLine
 10
51.2153810568
 20
245.2083249894
 30
0.0
 11
51.2153810568
 21
255.2083249894
 31
0.0
  0
LINE
  5
425
330
3EA
100
AcDbEntity
  8
$DDT_AUDIT_GENERATED_(60)
  6
Continuous
 62
     7
100
AcDbLine
 10
57.6
 20
245.2083249894
 30
0.0
 11
57.6
 21
255.2083249894
 31
0.0
  0
ARC
  5
426
330
3EA
100
AcDbEntity
  8
$DDT_AUDIT_GENERATED_(60)
  6
Continuous
 62
     7
100
AcDbCircle
 10
47.9535976036
 20
247.8440261876
 30
0.0
 40
9.999999999999998
100
AcDbArc
 50
322.1519040322
 51
344.7179936136
  0
ARC
  5
427
330
3EA
100
AcDbEntity
  8
$DDT_AUDIT_GENERATED_(60)
  6
Continuous
 62
     7
100
AcDbCircle
 10
34.7464023964
 20
247.8440261876
 30
0.0
 40
9.999999999999991
100
AcDbArc
 50
195.2820063864
 51
217.8480959678
  0
ARC
  5
428
330
3EA
100
AcDbEntity
  8
$DDT_AUDIT_GENERATED_(60)
  6
Continuous
 62
     7
100
AcDbCircle
 10
47.9535976036
 20
252.5726237912
 30
0.0
 40
9.999999999999993
100
AcDbArc
 50
15.2820063864
 51
37.8480959678
  0
ARC
  5
429
330
3EA
100
AcDbEntity
  8
$DDT_AUDIT_GENERATED_(60)
  6
Continuous
 62
     7
100
AcDbCircle
 10
34.7464023964
 20
252.5726237912
 30
0.0
 40
9.999999999999998
100
AcDbArc
 50
142.1519040322
 51
164.7179936136
  0
LINE
  5
42A
330
3EA
100
AcDbEntity
  8
$DDT_AUDIT_GENERATED_(60)
  6
Continuous
 62
     7
100
AcDbLine
 10
25.1
 20
255.2083249894
 30
0.0
 11
25.1
 21
245.2083249894
 31
0.0
  0
ARC
  5
42B
330
3EA
100
AcDbEntity
  8
$DDT_AUDIT_GENERATED_(71)
  6
Continuous
 62
     7
100
AcDbCircle
 10
116.35
 20
212.713443918
 30
0.0
 40
26.98672363915592
100
AcDbArc
 50
132.6772017502
 51
139.9629735784
  0
ARC
  5
42C
330
3EA
100
AcDbEntity
  8
$DDT_AUDIT_GENERATED_(76)
  6
Continuous
 62
     7
100
AcDbCircle
 10
-3115.4642704196
 20
348.6434406028
 30
0.0
 40
3250.920981193809
100
AcDbArc
 50
356.0333203206
 51
357.2005597616
  0
ARC
  5
42D
330
3EA
100
AcDbEntity
  8
$DDT_AUDIT_GENERATED_(76)
  6
Continuous
 62
     7
100
AcDbCircle
 10
3309.0096039547
 20
346.2772422933
 30
0.0
 40
3210.999066824699
100
AcDbArc
 50
182.7919918334
 51
183.9737177152
  0
SPLINE
  5
42E
330
3EA
100
AcDbEntity
  8
$DDT_AUDIT_GENERATED_(76)
  6
Continuous
 62
     7
100
AcDbSpline
210
0.0
220
0.0
230
1.0
 70
     8
 71
     3
 72
    13
 73
     9
 74
     0
 42
0.0000000051096828
 43
0.0000000001
 40
0.3987256002543467
 40
0.3987256002543467
 40
0.3987256002543467
 40
0.3987256002543467
 40
0.4625173667166891
 40
0.5638188869965033
 40
0.6681863032382869
 40
0.775656590427516
 40
0.8862558032474221
 40
0.9996790298153202
 40
0.9996790298153202
 40
0.9996790298153202
 40
0.9996790298153202
 10
105.2299376222669
 20
122.705547988274
 30
0.0
 10
105.2255005056475
 20
122.70960347854
 30
0.0
 10
105.2208805506608
 20
122.7311396964169
 30
0.0
 10
105.2428145563977
 20
122.8121989010999
 30
0.0
 10
105.3091590775528
 20
122.9673916913716
 30
0.0
 10
105.4163012574678
 20
123.1830830988649
 30
0.0
 10
105.5586622246808
 20
123.4497952796078
 30
0.0
 10
105.6722074173718
 20
123.6533896514688
 30
0.0
 10
105.7294742529385
 20
123.7577448843142
 30
0.0
  0
SPLINE
  5
42F
330
3EA
100
AcDbEntity
  8
$DDT_AUDIT_GENERATED_(76)
  6
Continuous
 62
     7
100
AcDbSpline
210
0.0
220
0.0
230
1.0
 70
     8
 71
     3
 72
    11
 73
     7
 74
     0
 42
0.0000000050503475
 43
0.0000000001
 40
0.0
 40
0.0
 40
0.0
 40
0.0
 40
0.0947004866187218
 40
0.3002908716122711
 40
0.5112352210971818
 40
0.597107815838794
 40
0.597107815838794
 40
0.597107815838794
 40
0.597107815838794
 10
127.6689618108609
 20
123.7566602692629
 30
0.0
 10
127.7375818361351
 20
123.6867834127435
 30
0.0
 10
127.9576669098591
 20
123.4676423796687
 30
0.0
 10
128.2276065612768
 20
123.1028204154762
 30
0.0
 10
128.3624462725223
 20
122.9033145860543
 30
0.0
 10
128.3398937235241
 20
122.8431308680339
 30
0.0
 10
128.3286571540278
 20
122.8333563075485
 30
0.0
  0
ARC
  5
430
330
3EA
100
AcDbEntity
  8
$DDT_AUDIT_GENERATED_(76)
  6
Continuous
 62
     7
100
AcDbCircle
 10
116.7
 20
212.6991591022
 30
0.0
 40
27.25002563936212
100
AcDbArc
 50
133.0947496928
 51
233.0143504454
  0
ARC
  5
431
330
3EA
100
AcDbEntity
  8
$DDT_AUDIT_GENERATED_(76)
  6
Continuous
 62
     7
100
AcDbCircle
 10
116.7
 20
212.6991591022
 30
0.0
 40
27.25002563940746
100
AcDbArc
 50
129.2952580351
 51
133.0947496928
  0
ARC
  5
432
330
3EA
100
AcDbEntity
  8
$DDT_AUDIT_GENERATED_(76)
  6
Continuous
 62
     7
100
AcDbCircle
 10
116.7000000003
 20
212.6991591019
 30
0.0
 40
27.2500256397742
100
AcDbArc
 50
128.3460611553
 51
129.2952580351
  0
ARC
  5
433
330
3EA
100
AcDbEntity
  8
$DDT_AUDIT_GENERATED_(76)
  6
Continuous
 62
     7
100
AcDbCircle
 10
116.7
 20
212.6991591022
 30
0.0
 40
27.25002563936196
100
AcDbArc
 50
51.6624933949
 51
128.3460611553
  0
ARC
  5
434
330
3EA
100
AcDbEntity
  8
$DDT_AUDIT_GENERATED_(76)
  6
Continuous
 62
     7
100
AcDbCircle
 10
116.7000000009
 20
212.6991591033
 30
0.0
 40
27.25002563798487
100
AcDbArc
 50
50.7067345863
 51
51.6624933949
  0
ARC
  5
435
330
3EA
100
AcDbEntity
  8
$DDT_AUDIT_GENERATED_(76)
  6
Continuous
 62
     7
100
AcDbCircle
 10
116.7
 20
212.6991591022
 30
0.0
 40
27.25002563942073
100
AcDbArc
 50
46.9073221529
 51
50.7067345863
  0
ARC
  5
436
330
3EA
100
AcDbEntity
  8
$DDT_AUDIT_GENERATED_(76)
  6
Continuous
 62
     7
100
AcDbCircle
 10
116.7
 20
212.6991591022
 30
0.0
 40
27.2500256393621
100
AcDbArc
 50
306.9837914816
 51
46.9073221529
  0
ARC
  5
437
330
3EA
100
AcDbEntity
  8
$DDT_AUDIT_GENERATED_(76)
  6
Continuous
 62
     7
100
AcDbCircle
 10
-1571.0764547928
 20
275.7093177685
 30
0.0
 40
1704.81606561073
100
AcDbArc
 50
357.1138225468
 51
358.5823449164
  0
ARC
  5
438
330
3EA
100
AcDbEntity
  8
$DDT_AUDIT_GENERATED_(76)
  6
Continuous
 62
     7
100
AcDbCircle
 10
1814.4197762274
 20
276.0879379551
 30
0.0
 40
1714.766570272502
100
AcDbArc
 50
181.4221251061
 51
182.8820648797
  0
ARC
  5
439
330
3EA
100
AcDbEntity
  8
$DDT_AUDIT_GENERATED_(76)
  6
Continuous
 62
     7
100
AcDbCircle
 10
103.3326468569
 20
236.2002577939
 30
0.0
 40
4.130145470481021
100
AcDbArc
 50
211.0376291086
 51
220.2714994319
  0
ARC
  5
43A
330
3EA
100
AcDbEntity
  8
$DDT_AUDIT_GENERATED_(76)
  6
Continuous
 62
     7
100
AcDbCircle
 10
133.7438267706
 20
190.0949356448
 30
0.0
 40
1.059862050007469
100
AcDbArc
 50
127.8624374846
 51
140.9591481845
  0
ELLIPSE
  5
43B
330
3EA
100
AcDbEntity
  8
$DDT_AUDIT_GENERATED_(76)
  6
Continuous
 62
     7
100
AcDbEllipse
 10
99.5662313326
 20
189.9500275077
 30
0.0
 11
0.7397451460310553
 21
0.982186698099359
 31
0.0
210
0.0
220
0.0
230
1.0
 40
0.8943759343
 41
6.063106789612756
 42
6.283185307179586
  0
ARC
  5
43C
330
3EA
100
AcDbEntity
  8
$DDT_AUDIT_GENERATED_(76)
  6
Continuous
 62
     7
100
AcDbCircle
 10
-3105.638072295
 20
344.8196774975
 30
0.0
 40
3242.10868632798
100
AcDbArc
 50
356.0949818015
 51
357.2705122739
  0
ARC
  5
43D
330
3EA
100
AcDbEntity
  8
$DDT_AUDIT_GENERATED_(76)
  6
Continuous
 62
     7
100
AcDbCircle
 10
3380.9460647258
 20
347.4462721143
 30
0.0
 40
3284.098638473643
100
AcDbArc
 50
182.7396316433
 51
183.900891356
  0
ARC
  5
43E
330
3EA
100
AcDbEntity
  8
$DDT_AUDIT_GENERATED_(76)
  6
Continuous
 62
     7
100
AcDbCircle
 10
116.6881488578
 20
135.8082837504
 30
0.0
 40
17.36998645158759
100
AcDbArc
 50
228.8202317027
 51
311.9147715497
  0
ARC
  5
43F
330
3EA
100
AcDbEntity
  8
$DDT_AUDIT_GENERATED_(76)
  6
Continuous
 62
     7
100
AcDbCircle
 10
106.4483303092
 20
124.1163219697
 30
0.0
 40
1.863727816369638
100
AcDbArc
 50
182.3233948177
 51
233.3945219883
  0
ARC
  5
440
330
3EA
100
AcDbEntity
  8
$DDT_AUDIT_GENERATED_(76)
  6
Continuous
 62
     7
100
AcDbCircle
 10
127.2712814319
 20
124.124533363
 30
0.0
 40
1.665139793517716
100
AcDbArc
 50
309.4799625168
 51
356.5390007974
  0
ARC
  5
441
330
3EA
100
AcDbEntity
  8
$DDT_AUDIT_GENERATED_(76)
  6
Continuous
 62
     7
100
AcDbCircle
 10
133.5283671037
 20
190.3475537825
 30
0.0
 40
0.7375136761205999
100
AcDbArc
 50
145.6628686989
 51
172.9028272003
  0
ARC
  5
442
330
3EA
100
AcDbEntity
  8
$DDT_AUDIT_GENERATED_(76)
  6
Continuous
 62
     7
100
AcDbCircle
 10
99.8709299779
 20
190.3481314793
 30
0.0
 40
0.7374762095488574
100
AcDbArc
 50
7.0974190977
 51
34.3349909533
  0
SPLINE
  5
443
330
3EA
100
AcDbEntity
  8
400257038_GEH_EH
  6
Continuous
 62
     7
100
AcDbSpline
210
0.0
220
0.0
230
1.0
 70
     8
 71
     3
 72
     8
 73
     4
 74
     0
 42
0.0000000006582767
 43
0.0000000001
 40
0.0
 40
0.0
 40
0.0
 40
0.0
 40
1.0
 40
1.0
 40
1.0
 40
1.0
 10
27.43447451589592
 20
224.854642359397
 30
0.0
 10
26.56453417206478
 20
231.4378399354717
 30
0.0
 10
26.4855242423716
 20
235.973000313444
 30
0.0
 10
26.9843239316834
 20
239.9567990023389
 30
0.0
  0
SPLINE
  5
444
330
3EA
100
AcDbEntity
  8
400257038_GEH_EH
  6
Continuous
 62
     7
100
AcDbSpline
210
0.0
220
0.0
230
1.0
 70
     8
 71
     3
 72
     8
 73
     4
 74
     0
 42
0.0000000006582767
 43
0.0000000001
 40
0.0
 40
0.0
 40
0.0
 40
0.0
 40
1.0
 40
1.0
 40
1.0
 40
1.0
 10
205.2655254841041
 20
224.8546423593972
 30
0.0
 10
206.1354658279352
 20
231.4378399354717
 30
0.0
 10
206.2144757576285
 20
235.973000313444
 30
0.0
 10
205.7156760683167
 20
239.9567990023389
 30
0.0
  0
ARC
  5
445
330
3EA
100
AcDbEntity
  8
400257038_GEH_EH
  6
Continuous
 62
     7
100
AcDbCircle
 10
48.2640734977
 20
136.1829390026
 30
0.0
 40
87.23859314407927
100
AcDbArc
 50
348.6092118696
 51
357.0994898062
  0
SPLINE
  5
446
330
3EA
100
AcDbEntity
  8
400257038_GEH_EH
  6
Continuous
 62
     7
100
AcDbSpline
210
0.0
220
0.0
230
1.0
 70
     8
 71
     3
 72
    18
 73
    14
 74
     0
 42
0.0000000001566886
 43
0.0000000001
 40
0.0
 40
0.0
 40
0.0
 40
0.0
 40
0.0624999999999999
 40
0.0624999999999999
 40
0.1249999999999998
 40
0.1249999999999998
 40
0.25
 40
0.25
 40
0.5
 40
0.5
 40
0.75
 40
0.75
 40
1.0
 40
1.0
 40
1.0
 40
1.0
 10
142.4914757519271
 20
195.0658262198971
 30
0.0
 10
142.0590881205313
 20
193.811885730203
 30
0.0
 10
141.6749095372908
 20
192.5236476563561
 30
0.0
 10
141.0056891127392
 20
189.9519717783705
 30
0.0
 10
140.7046127674349
 20
188.6594210282148
 30
0.0
 10
140.0015895048164
 20
184.7416924878449
 30
0.0
 10
139.6497952859054
 20
182.1064697464565
 30
0.0
 10
138.6580322522543
 20
174.1880767525091
 30
0.0
 10
138.1772637200676
 20
168.8908008476577
 30
0.0
 10
137.3633509186278
 20
158.2864088297966
 30
0.0
 10
137.020804910393
 20
152.9787984670517
 30
0.0
 10
136.2645463882782
 20
142.3692752747261
 30
0.0
 10
135.8488094891909
 20
137.0672928767424
 30
0.0
 10
135.3909058590746
 20
131.7685062609595
 30
0.0
  0
SPLINE
  5
447
330
3EA
100
AcDbEntity
  8
400257038_GEH_EH
  6
Continuous
 62
     7
100
AcDbSpline
210
0.0
220
0.0
230
1.0
 70
     8
 71
     3
 72
    22
 73
    18
 74
     0
 42
0.0000000001437967
 43
0.0000000001
 40
0.064171933261885
 40
0.064171933261885
 40
0.064171933261885
 40
0.064171933261885
 40
0.0937499999999996
 40
0.0937499999999996
 40
0.1249999999999994
 40
0.1249999999999994
 40
0.1562499999999993
 40
0.1562499999999993
 40
0.1874999999999991
 40
0.1874999999999991
 40
0.2499999999999992
 40
0.2499999999999992
 40
0.3124999999999993
 40
0.3124999999999993
 40
0.3749999999999994
 40
0.3749999999999994
 40
0.49729746231762
 40
0.49729746231762
 40
0.49729746231762
 40
0.49729746231762
 10
202.9990577619438
 20
222.8286846299734
 30
0.0
 10
202.7433036385161
 20
222.7471644426101
 30
0.0
 10
202.4048880763442
 20
222.648574648121
 30
0.0
 10
201.5906616899529
 20
222.4252263931438
 30
0.0
 10
201.1170947793604
 20
222.3008796722251
 30
0.0
 10
200.0914970151218
 20
222.040351465551
 30
0.0
 10
199.5218353211831
 20
221.9003192658491
 30
0.0
 10
198.28704274766
 20
221.6063776397416
 30
0.0
 10
197.6180592731984
 20
221.4514285240387
 30
0.0
 10
195.4862784635829
 20
220.9677745377866
 30
0.0
 10
193.9455337450528
 20
220.6305435261029
 30
0.0
 10
190.858282558765
 20
219.9643230676723
 30
0.0
 10
189.2875816899798
 20
219.6299965065311
 30
0.0
 10
186.1272222702036
 20
218.9584319743015
 30
0.0
 10
184.5375528649931
 20
218.6212937459371
 30
0.0
 10
179.8383657267178
 20
217.61921250001
 30
0.0
 10
176.721634086611
 20
216.9510417825967
 30
0.0
 10
173.6070965733786
 20
216.2643760783876
 30
0.0
  0
SPLINE
  5
448
330
3EA
100
AcDbEntity
  8
400257038_GEH_EH
  6
Continuous
 62
     7
100
AcDbSpline
210
0.0
220
0.0
230
1.0
 70
     8
 71
     3
 72
    14
 73
    10
 74
     0
 42
0.0000000001270995
 43
0.0000000001
 40
0.7817890123030167
 40
0.7817890123030167
 40
0.7817890123030167
 40
0.7817890123030167
 40
0.8124999999999999
 40
0.8124999999999999
 40
0.8749999999999999
 40
0.8749999999999999
 40
0.9374999999999999
 40
0.9374999999999999
 40
1.0
 40
1.0
 40
1.0
 40
1.0
 10
152.873871461109
 20
208.4057501255548
 30
0.0
 10
152.2145028259714
 20
207.9368308235917
 30
0.0
 10
151.5746848906818
 20
207.4418405482871
 30
0.0
 10
149.7173248975994
 20
205.867407764375
 30
0.0
 10
148.5746013755929
 20
204.7121984077487
 30
0.0
 10
146.4674141000129
 20
202.2294292488509
 30
0.0
 10
145.4939420029719
 20
200.8932311217716
 30
0.0
 10
143.7795766221275
 20
198.0899406408407
 30
0.0
 10
143.0244297521583
 20
196.6113452438265
 30
0.0
 10
142.4914757519271
 20
195.0658262198971
 30
0.0
  0
SPLINE
  5
449
330
3EA
100
AcDbEntity
  8
400257038_GEH_EH
  6
Continuous
 62
     7
100
AcDbSpline
210
0.0
220
0.0
230
1.0
 70
     8
 71
     3
 72
    14
 73
    10
 74
     0
 42
0.0000000001264759
 43
0.0000000001
 40
0.0
 40
0.0
 40
0.0
 40
0.0
 40
0.0625
 40
0.0625
 40
0.125
 40
0.125
 40
0.1875
 40
0.1875
 40
0.2232065861623354
 40
0.2232065861623354
 40
0.2232065861623354
 40
0.2232065861623354
 10
90.20852424807296
 20
195.0658262198971
 30
0.0
 10
89.67372338490068
 20
196.6167009976409
 30
0.0
 10
88.91657978567304
 20
198.0970490067557
 30
0.0
 10
87.20182386773148
 20
200.8993273693646
 30
0.0
 10
86.22281513466216
 20
202.2433482156746
 30
0.0
 10
84.09582380228436
 20
204.7445929702508
 30
0.0
 10
82.94099771250733
 20
205.9083248912114
 30
0.0
 10
80.96021009512344
 20
207.5783999874996
 30
0.0
 10
80.2083768799274
 20
208.1479848276429
 30
0.0
 10
79.43385134460385
 20
208.680470397754
 30
0.0
  0
SPLINE
  5
44A
330
3EA
100
AcDbEntity
  8
400257038_GEH_EH
  6
Continuous
 62
     7
100
AcDbSpline
210
0.0
220
0.0
230
1.0
 70
     8
 71
     3
 72
    24
 73
    20
 74
     0
 42
0.0000000001431569
 43
0.0000000001
 40
0.4881205032356677
 40
0.4881205032356677
 40
0.4881205032356677
 40
0.4881205032356677
 40
0.5
 40
0.5
 40
0.625
 40
0.625
 40
0.6875
 40
0.6875
 40
0.75
 40
0.75
 40
0.8125
 40
0.8125
 40
0.84375
 40
0.84375
 40
0.875
 40
0.875
 40
0.90625
 40
0.90625
 40
0.9337202369655101
 40
0.9337202369655101
 40
0.9337202369655101
 40
0.9337202369655101
 10
60.13291310132945
 20
216.0346095663421
 30
0.0
 10
59.83078433849193
 20
216.1015790520991
 30
0.0
 10
59.52860785736237
 20
216.1682598410729
 30
0.0
 10
56.04706656424588
 20
216.9363359339102
 30
0.0
 10
52.86398683710328
 20
217.6187931025509
 30
0.0
 10
48.10121722830527
 20
218.6343083820456
 30
0.0
 10
46.51645933497664
 20
218.9703814701008
 30
0.0
 10
43.36008306425915
 20
219.6411361263058
 30
0.0
 10
41.78369375371854
 20
219.9767329171403
 30
0.0
 10
38.70502901503206
 20
220.64132740612
 30
0.0
 10
37.19749782001847
 20
220.9713532613756
 30
0.0
 10
35.06392606039837
 20
221.4555676362031
 30
0.0
 10
34.3861981521934
 20
221.6126430388335
 30
0.0
 10
33.15826054764609
 20
221.905166067495
 30
0.0
 10
32.60195836164276
 20
222.0419739299243
 30
0.0
 10
31.57560649017993
 20
222.302774319283
 30
0.0
 10
31.10264443173877
 20
222.4270161022601
 30
0.0
 10
30.31999572113363
 20
222.6417902070522
 30
0.0
 10
30.00479175147312
 20
222.7331876741297
 30
0.0
 10
29.75728196908577
 20
222.8108660522374
 30
0.0
  0
SPLINE
  5
44B
330
3EA
100
AcDbEntity
  8
400257038_GEH_EH
  6
Continuous
 62
     7
100
AcDbSpline
210
0.0
220
0.0
230
1.0
 70
     8
 71
     3
 72
    18
 73
    14
 74
     0
 42
0.0000000001566886
 43
0.0000000001
 40
0.0
 40
0.0
 40
0.0
 40
0.0
 40
0.25
 40
0.25
 40
0.5
 40
0.5
 40
0.75
 40
0.75
 40
0.875
 40
0.875
 40
0.9375
 40
0.9375
 40
1.0
 40
1.0
 40
1.0
 40
1.0
 10
97.30909414092551
 20
131.7685062609591
 30
0.0
 10
96.85121414737974
 20
137.0670193610423
 30
0.0
 10
96.43548674880486
 20
142.3688364579489
 30
0.0
 10
95.67923420865844
 20
152.9782236076466
 30
0.0
 10
95.33670863960802
 20
158.2855870527442
 30
0.0
 10
94.52273858404516
 20
168.8908166226085
 30
0.0
 10
94.04128778662025
 20
174.1926701383704
 30
0.0
 10
93.05139016049054
 20
182.0974221855638
 30
0.0
 10
92.69996921585576
 20
184.728639167577
 30
0.0
 10
91.99831212956089
 20
188.6452877676447
 30
0.0
 10
91.69736237983157
 20
189.9392480741406
 30
0.0
 10
91.02748854500908
 20
192.5154216893048
 30
0.0
 10
90.64197925640964
 20
193.8088175261629
 30
0.0
 10
90.20852424807296
 20
195.0658262198971
 30
0.0
  0
ARC
  5
44C
330
3EA
100
AcDbEntity
  8
400257038_GEH_EH
  6
Continuous
 62
     7
100
AcDbCircle
 10
182.8254140676
 20
135.9167880299
 30
0.0
 40
85.61687459512109
100
AcDbArc
 50
182.7771643338
 51
190.7633693064
  0
ARC
  5
44D
330
3EA
100
AcDbEntity
  8
400257038_GEH_EH
  6
Continuous
 62
     7
100
AcDbCircle
 10
203.2853843213
 20
225.1159580301
 30
0.0
 40
1.997309416244525
100
AcDbArc
 50
327.5454798157
 51
352.482220322
  0
ARC
  5
44E
330
3EA
100
AcDbEntity
  8
400257038_GEH_EH
  6
Continuous
 62
     7
100
AcDbCircle
 10
29.4145706334
 20
225.1159534614
 30
0.0
 40
1.997264160392411
100
AcDbArc
 50
187.5178188067
 51
212.3132417389
  0
LINE
  5
44F
330
3EA
100
AcDbEntity
  8
400257038_GEH_EH
  6
Continuous
 62
     7
100
AcDbLine
 10
116.35
 20
241.7083249894
 30
0.0
 11
171.2839344356
 21
241.7083249894
 31
0.0
  0
ARC
  5
450
330
3EA
100
AcDbEntity
  8
400257038_GEH_EH
  6
Continuous
 62
     7
100
AcDbCircle
 10
28.9741218937
 20
239.7065470158
 30
0.0
 40
2.005473008172417
100
AcDbArc
 50
150.0316163663
 51
172.831687747
  0
ARC
  5
451
330
3EA
100
AcDbEntity
  8
400257038_GEH_EH
  6
Continuous
 62
     7
100
AcDbCircle
 10
203.7258781066
 20
239.7065470159
 30
0.0
 40
2.005473007791953
100
AcDbArc
 50
7.1683122509
 51
29.9683836359
  0
ARC
  5
452
330
3EA
100
AcDbEntity
  8
400257038_GEH_EH
  6
Continuous
 62
     7
100
AcDbCircle
 10
170.4701947658
 20
234.5420863835
 30
0.0
 40
7.235582755344544
100
AcDbArc
 50
58.4529007238
 51
82.0612295496
  0
ARC
  5
453
330
3EA
100
AcDbEntity
  8
400257038_GEH_EH
  6
Continuous
 62
     7
100
AcDbCircle
 10
170.2499979827
 20
234.5062998571
 30
0.0
 40
7.275863563563455
100
AcDbArc
 50
58.4748643254
 51
81.8303292181
  0
LINE
  5
454
330
3EA
100
AcDbEntity
  8
400257038_GEH_EH
  6
Continuous
 62
     7
100
AcDbLine
 10
205.4632217332
 20
240.7083249894
 30
0.0
 11
174.0543474479
 21
240.7083249894
 31
0.0
  0
ARC
  5
455
330
3EA
100
AcDbEntity
  8
400257038_GEH_EH
  6
Continuous
 62
     7
100
AcDbCircle
 10
62.2465315164
 20
234.49548176
 30
0.0
 40
7.284057920258141
100
AcDbArc
 50
98.0184458603
 51
121.4674238661
  0
LINE
  5
456
330
3EA
100
AcDbEntity
  8
400257038_GEH_EH
  6
Continuous
 62
     7
100
AcDbLine
 10
61.4160655644
 20
241.7083249894
 30
0.0
 11
116.35
 21
241.7083249894
 31
0.0
  0
ARC
  5
457
330
3EA
100
AcDbEntity
  8
400257038_GEH_EH
  6
Continuous
 62
     7
100
AcDbCircle
 10
62.4329315341
 20
234.5535921458
 30
0.0
 40
7.226632581197804
100
AcDbArc
 50
98.0889850056
 51
121.6058214508
  0
LINE
  5
458
330
3EA
100
AcDbEntity
  8
400257038_GEH_EH
  6
Continuous
 62
     7
100
AcDbLine
 10
58.6456525521
 20
240.7083249894
 30
0.0
 11
27.2367782668
 21
240.7083249894
 31
0.0
  0
LINE
  5
459
330
3EA
100
AcDbEntity
  8
400257038_GEH_EH
  6
Continuous
 62
     7
100
AcDbLine
 10
116.35
 20
239.963443918
 30
0.0
 11
112.9836973337
 21
239.754718044
 31
0.0
  0
ARC
  5
45A
330
3EA
100
AcDbEntity
  8
400257038_GEH_EH
  6
Continuous
 62
     7
100
AcDbCircle
 10
116.35
 20
212.713443918
 30
0.0
 40
27.25
100
AcDbArc
 50
97.0961064803
 51
234.5718973819
  0
SPLINE
  5
45B
330
3EA
100
AcDbEntity
  8
400257038_GEH_EH
  6
Continuous
 62
     7
100
AcDbSpline
210
0.0
220
0.0
230
1.0
 70
     8
 71
     3
 72
     8
 73
     4
 74
     0
 42
0.0000000002100999
 43
0.0000000001
 40
0.0
 40
0.0
 40
0.0
 40
0.0
 40
0.0047094746414
 40
0.0047094746414
 40
0.0047094746414
 40
0.0047094746414
 10
146.9552566808823
 20
202.768699858785
 30
0.0
 10
147.0034616453228
 20
202.8328774712691
 30
0.0
 10
147.0474616954801
 20
202.8914005940621
 30
0.0
 10
147.0902611928179
 20
202.9476367909447
 30
0.0
  0
SPLINE
  5
45C
330
3EA
100
AcDbEntity
  8
400257038_GEH_EH
  6
Continuous
 62
     7
100
AcDbSpline
210
0.0
220
0.0
230
1.0
 70
     8
 71
     3
 72
    45
 73
    41
 74
     0
 42
0.0000000001988861
 43
0.0000000001
 40
0.0548721951411935
 40
0.0548721951411935
 40
0.0548721951411935
 40
0.0548721951411935
 40
0.0755197684523873
 40
0.098956373754319
 40
0.1180193757390232
 40
0.1345535945946465
 40
0.1494773306652641
 40
0.1680653562471517
 40
0.1916546659599186
 40
0.2137857166682144
 40
0.2295268445041919
 40
0.2412078849960367
 40
0.2636228120726718
 40
0.292671662947963
 40
0.3258740765894891
 40
0.3635051434925683
 40
0.389416237944895
 40
0.4119785121920405
 40
0.4313550097252396
 40
0.4478745147958402
 40
0.4661834809786963
 40
0.4896803126287645
 40
0.5378553083196643
 40
0.5756870492528658
 40
0.6192446251985492
 40
0.6560989571320806
 40
0.6958324420170976
 40
0.7485946155410163
 40
0.7692488241382746
 40
0.7837972501307243
 40
0.800360171308701
 40
0.8222178461596388
 40
0.8468600462177363
 40
0.8693901114817816
 40
0.89941652465234
 40
0.92599142309259
 40
0.9425326852433495
 40
0.965184255540114
 40
0.9940483484954464
 40
1.0
 40
1.0
 40
1.0
 40
1.0
 10
148.5690708067443
 20
204.6337592421094
 30
0.0
 10
148.7810891758798
 20
204.8546220117615
 30
0.0
 10
149.2434485333293
 20
205.3209479951636
 30
0.0
 10
150.0010489966691
 20
206.0118939771218
 30
0.0
 10
150.7361164665148
 20
206.6195997942554
 30
0.0
 10
151.2983111928234
 20
207.0483566543589
 30
0.0
 10
151.7077372022865
 20
207.3436765916115
 30
0.0
 10
152.1369017593659
 20
207.6384411714765
 30
0.0
 10
152.5699112151159
 20
207.9174498367661
 30
0.0
 10
152.9614925185431
 20
208.1542887894333
 30
0.0
 10
153.3043515468349
 20
208.3493254567461
 30
0.0
 10
153.8308361069068
 20
208.6401275632096
 30
0.0
 10
154.6775304476699
 20
209.0928911841361
 30
0.0
 10
155.9025567994301
 20
209.7084595995009
 30
0.0
 10
157.4795471037813
 20
210.4386195592464
 30
0.0
 10
159.1035444418858
 20
211.1160064978098
 30
0.0
 10
160.601242378739
 20
211.6900086147496
 30
0.0
 10
161.8161192562749
 20
212.1315552452102
 30
0.0
 10
162.8933580348537
 20
212.508430179738
 30
0.0
 10
163.9134365704535
 20
212.8549274255778
 30
0.0
 10
165.0064623751251
 20
213.215962223716
 30
0.0
 10
166.6938585918963
 20
213.7565833499569
 30
0.0
 10
168.7481114246415
 20
214.383620850176
 30
0.0
 10
171.1716519318225
 20
215.0875701783142
 30
0.0
 10
173.3760161544567
 20
215.7010824581852
 30
0.0
 10
175.6268986276187
 20
216.3042541910057
 30
0.0
 10
178.027609229447
 20
216.9267398065832
 30
0.0
 10
180.1273805266847
 20
217.4519714578244
 30
0.0
 10
181.7442977885485
 20
217.8465300249923
 30
0.0
 10
182.6909981173027
 20
218.0749718723318
 30
0.0
 10
183.6423863310663
 20
218.3023836876303
 30
0.0
 10
184.7600244913769
 20
218.5666081155298
 30
0.0
 10
185.9667341302096
 20
218.8483237609257
 30
0.0
 10
187.290723346271
 20
219.1537457550099
 30
0.0
 10
188.608800300387
 20
219.4539454320423
 30
0.0
 10
189.7436821613505
 20
219.7091439520081
 30
0.0
 10
190.6801832411513
 20
219.9179587312314
 30
0.0
 10
191.5992267674509
 20
220.1211368969834
 30
0.0
 10
192.3820241716899
 20
220.2930500640244
 30
0.0
 10
192.7868399124282
 20
220.3803452390906
 30
0.0
 10
192.8675445532401
 20
220.3977451741963
 30
0.0
  0
SPLINE
  5
45D
330
3EA
100
AcDbEntity
  8
400257038_GEH_EH
  6
Continuous
 62
     7
100
AcDbSpline
210
0.0
220
0.0
230
1.0
 70
     8
 71
     3
 72
    44
 73
    40
 74
     0
 42
0.0000000002000498
 43
0.0000000001
 40
0.0
 40
0.0
 40
0.0
 40
0.0
 40
0.0115172636357116
 40
0.0423023282704306
 40
0.0652931616905595
 40
0.0811989954794199
 40
0.0966993351617278
 40
0.1136941155116393
 40
0.1321472451775164
 40
0.1845248104971512
 40
0.2226342456685114
 40
0.2706318764085737
 40
0.3253642076526575
 40
0.3672626657383588
 40
0.413840056777272
 40
0.4587614817918282
 40
0.5109618730701169
 40
0.5338735272448273
 40
0.5519687050339226
 40
0.568473025755706
 40
0.587845599610637
 40
0.6104134624426998
 40
0.6363388629044376
 40
0.6739999388369575
 40
0.7072280705045251
 40
0.736295170559042
 40
0.7587209102618334
 40
0.7704178663606099
 40
0.7861929633621522
 40
0.8083614943742172
 40
0.8319526552786346
 40
0.8505219448550984
 40
0.8654208574730565
 40
0.8819283995970075
 40
0.9009642279136858
 40
0.9243064848150944
 40
0.9544881625661836
 40
0.9914569263002114
 40
1.0
 40
1.0
 40
1.0
 40
1.0
 10
39.83639373306572
 20
220.396632179271
 30
0.0
 10
39.99324159511475
 20
220.362788448842
 30
0.0
 10
40.48520699187372
 20
220.2565936715816
 30
0.0
 10
41.38180658610552
 20
220.0592654157618
 30
0.0
 10
42.33826475701888
 20
219.8471417951586
 30
0.0
 10
43.13684244569363
 20
219.6685399568485
 30
0.0
 10
43.89310422699327
 20
219.4982997972627
 30
0.0
 10
44.72114128733271
 20
219.3105508343677
 30
0.0
 10
46.196551717054
 20
218.9732640765009
 30
0.0
 10
48.09074511263828
 20
218.5329236656116
 30
0.0
 10
50.57606104177464
 20
217.9405732844523
 30
0.0
 10
53.18429604673644
 20
217.3021451614514
 30
0.0
 10
55.86632728982582
 20
216.6209586953553
 30
0.0
 10
58.53124711942624
 20
215.9169012445462
 30
0.0
 10
61.02886774178624
 20
215.2299002009377
 30
0.0
 10
63.70867042843434
 20
214.4574421735304
 30
0.0
 10
65.96193318444588
 20
213.7709659504015
 30
0.0
 10
67.70937463178487
 20
213.2107375992234
 30
0.0
 10
68.78708886137478
 20
212.8547317439775
 30
0.0
 10
69.8025252619329
 20
212.509851101883
 30
0.0
 10
70.87917868813443
 20
212.1332449285314
 30
0.0
 10
72.09404130475538
 20
211.6917957097133
 30
0.0
 10
73.59239834344459
 20
211.1176660570502
 30
0.0
 10
75.21748533772893
 20
210.4399524948278
 30
0.0
 10
76.79576623292944
 20
209.709285644411
 30
0.0
 10
78.02205433024162
 20
209.0931206904291
 30
0.0
 10
78.86926443533834
 20
208.6400670842713
 30
0.0
 10
79.39451310118883
 20
208.3499763251267
 30
0.0
 10
79.73705980625411
 20
208.1551461537601
 30
0.0
 10
80.12855848436614
 20
207.9183977305297
 30
0.0
 10
80.56179294257706
 20
207.6392920639067
 30
0.0
 10
80.9911834047966
 20
207.3444332630707
 30
0.0
 10
81.40197367387755
 20
207.0481633025253
 30
0.0
 10
81.96577048253836
 20
206.6181303799254
 30
0.0
 10
82.7017711442256
 20
206.0095449115777
 30
0.0
 10
83.57426181887737
 20
205.2135513039912
 30
0.0
 10
84.49215880869538
 20
204.2651792465231
 30
0.0
 10
85.26006790575607
 20
203.4101447149445
 30
0.0
 10
85.6578001037689
 20
202.883197907172
 30
0.0
 10
85.74489578630663
 20
202.767585694866
 30
0.0
  0
SPLINE
  5
45E
330
3EA
100
AcDbEntity
  8
400257038_GEH_EH
  6
Continuous
 62
     7
100
AcDbSpline
210
0.0
220
0.0
230
1.0
 70
     8
 71
     3
 72
    13
 73
     9
 74
     0
 42
0.0000000044449006
 43
0.0000000001
 40
0.0
 40
0.0
 40
0.0
 40
0.0
 40
0.1446232873742347
 40
0.4254097126516906
 40
0.6325295357847481
 40
0.7902893483947885
 40
0.9502127460422282
 40
1.0
 40
1.0
 40
1.0
 40
1.0
 10
203.1239152160909
 20
222.8652343908823
 30
0.0
 10
203.2324739952289
 20
222.899134493727
 30
0.0
 10
203.5055726257978
 20
222.9858635915749
 30
0.0
 10
203.832553472785
 20
223.1130265874938
 30
0.0
 10
204.1998515346966
 20
223.2942815520171
 30
0.0
 10
204.5479524188117
 20
223.5432942884859
 30
0.0
 10
204.8358319524089
 20
223.8229435243543
 30
0.0
 10
204.9309891055191
 20
224.0021738610958
 30
0.0
 10
204.9575763854509
 20
224.0523778019487
 30
0.0
  0
ARC
  5
45F
330
3EA
100
AcDbEntity
  8
400257038_GEH_EH
  6
Continuous
 62
     7
100
AcDbCircle
 10
77.0351240057
 20
129.1097753179
 30
0.0
 40
57.66275501455483
100
AcDbArc
 50
343.0745330684
 51
349.8495010333
  0
SPLINE
  5
460
330
3EA
100
AcDbEntity
  8
400257038_GEH_EH
  6
Continuous
 62
     7
100
AcDbSpline
210
0.0
220
0.0
230
1.0
 70
     8
 71
     3
 72
    13
 73
     9
 74
     0
 42
0.0000000043304739
 43
0.0000000001
 40
0.0
 40
0.0
 40
0.0
 40
0.0
 40
0.0871233412895059
 40
0.2510838819101706
 40
0.4029011211734599
 40
0.5681538654360013
 40
0.7945653444875368
 40
1.0
 40
1.0
 40
1.0
 40
1.0
 10
27.73778104349986
 20
224.0551661194304
 30
0.0
 10
27.79359274900916
 20
223.9653138999839
 30
0.0
 10
27.92925806827404
 20
223.7478356518107
 30
0.0
 10
28.24679047771131
 20
223.4660044581418
 30
0.0
 10
28.5627557799466
 20
223.2629748505484
 30
0.0
 10
28.87416370608009
 20
223.1119243791659
 30
0.0
 10
29.19910603678388
 20
222.9849816914616
 30
0.0
 10
29.47498043068683
 20
222.895970507629
 30
0.0
 10
29.62958946908811
 20
222.8471509783907
 30
0.0
  0
ARC
  5
461
330
3EA
100
AcDbEntity
  8
400257038_GEH_EH
  6
Continuous
 62
     7
100
AcDbCircle
 10
129.3465433108
 20
113.1405513634
 30
0.0
 40
2.946517373533641
100
AcDbArc
 50
299.5743682428
 51
344.0354899418
  0
ARC
  5
462
330
3EA
100
AcDbEntity
  8
400257038_GEH_EH
  6
Continuous
 62
     7
100
AcDbCircle
 10
116.1704536413
 20
134.2097425591
 30
0.0
 40
27.78878234355076
100
AcDbArc
 50
270.3671009235
 51
301.7619232614
  0
ARC
  5
463
330
3EA
100
AcDbEntity
  8
400257038_GEH_EH
  6
Continuous
 62
     7
100
AcDbCircle
 10
151.5198369115
 20
128.2445961936
 30
0.0
 40
53.42798128593904
100
AcDbArc
 50
188.9536041724
 51
197.33200209
  0
ARC
  5
464
330
3EA
100
AcDbEntity
  8
400257038_GEH_EH
  6
Continuous
 62
     7
100
AcDbCircle
 10
116.7217807617
 20
134.4113673133
 30
0.0
 40
28.05934129933836
100
AcDbArc
 50
238.1209831641
 51
269.2390859438
  0
ARC
  5
465
330
3EA
100
AcDbEntity
  8
400257038_GEH_EH
  6
Continuous
 62
     7
100
AcDbCircle
 10
103.3882907599
 20
113.1468461091
 30
0.0
 40
2.97901735371107
100
AcDbArc
 50
195.9197877784
 51
239.8688639331
  0
LINE
  5
466
330
3EA
100
AcDbEntity
  8
$DDT_AUDIT_GENERATED_(3D9)
  6
Continuous
 62
     7
100
AcDbLine
 10
54.57
 20
258.8338437336
 30
0.0
 11
52.35
 21
259.7083249894
 31
0.0
  0
LINE
  5
467
330
3EA
100
AcDbEntity
  8
$DDT_AUDIT_GENERATED_(3D9)
  6
Continuous
 62
     7
100
AcDbLine
 10
52.35
 20
259.7083249894
 30
0.0
 11
52.35
 21
260.2083249894
 31
0.0
  0
LINE
  5
468
330
3EA
100
AcDbEntity
  8
$DDT_AUDIT_GENERATED_(3D9)
  6
Continuous
 62
     7
100
AcDbLine
 10
28.13
 20
258.8338437336
 30
0.0
 11
30.35
 21
259.7083249894
 31
0.0
  0
LINE
  5
469
330
3EA
100
AcDbEntity
  8
$DDT_AUDIT_GENERATED_(3D9)
  6
Continuous
 62
     7
100
AcDbLine
 10
30.35
 20
259.7083249894
 30
0.0
 11
30.35
 21
260.2083249894
 31
0.0
  0
LINE
  5
46A
330
3EA
100
AcDbEntity
  8
$DDT_AUDIT_GENERATED_(3D9)
  6
Continuous
 62
     7
100
AcDbLine
 10
54.57
 20
258.7083249894
 30
0.0
 11
54.57
 21
258.8338437336
 31
0.0
  0
LINE
  5
46B
330
3EA
100
AcDbEntity
  8
$DDT_AUDIT_GENERATED_(3D9)
  6
Continuous
 62
     7
100
AcDbLine
 10
28.13
 20
258.8338437336
 30
0.0
 11
28.13
 21
258.7083249894
 31
0.0
  0
LINE
  5
46C
330
3EA
100
AcDbEntity
  8
$DDT_AUDIT_GENERATED_(3D9)
  6
Continuous
 62
     7
100
AcDbLine
 10
53.4
 20
259.29471899
 30
0.0
 11
53.4
 21
258.7083249894
 31
0.0
  0
LINE
  5
46D
330
3EA
100
AcDbEntity
  8
$DDT_AUDIT_GENERATED_(3D9)
  6
Continuous
 62
     7
100
AcDbLine
 10
29.3
 20
259.29471899
 30
0.0
 11
29.3
 21
258.7083249894
 31
0.0
  0
LINE
  5
46E
330
3EA
100
AcDbEntity
  8
$DDT_AUDIT_GENERATED_(34F)
  6
Continuous
 62
     7
100
AcDbLine
 10
76.35
 20
286.2083249894
 30
0.0
 11
6.35
 21
286.2083249894
 31
0.0
  0
LINE
  5
46F
330
3EA
100
AcDbEntity
  8
$DDT_AUDIT_GENERATED_(34F)
  6
Continuous
 62
     7
100
AcDbLine
 10
56.2175283415
 20
260.2083249894
 30
0.0
 11
26.4824716585
 21
260.2083249894
 31
0.0
  0
LINE
  5
470
330
3EA
100
AcDbEntity
  8
$DDT_AUDIT_GENERATED_(34F)
  6
Continuous
 62
     7
100
AcDbLine
 10
6.35
 20
286.2083249894
 30
0.0
 11
6.35
 21
281.0219614455
 31
0.0
  0
LINE
  5
471
330
3EA
100
AcDbEntity
  8
$DDT_AUDIT_GENERATED_(34F)
  6
Continuous
 62
     7
100
AcDbLine
 10
76.35
 20
281.0219614455
 30
0.0
 11
76.35
 21
286.2083249894
 31
0.0
  0
LINE
  5
472
330
3EA
100
AcDbEntity
  8
$DDT_AUDIT_GENERATED_(34F)
  6
Continuous
 62
     7
100
AcDbLine
 10
6.9179997208
 20
279.6257611733
 30
0.0
 11
25.4084714491
 21
260.6611747852
 31
0.0
  0
LINE
  5
473
330
3EA
100
AcDbEntity
  8
$DDT_AUDIT_GENERATED_(34F)
  6
Continuous
 62
     7
100
AcDbLine
 10
57.2915285509
 20
260.6611747852
 30
0.0
 11
75.7820002792
 21
279.6257611733
 31
0.0
  0
ARC
  5
474
330
3EA
100
AcDbEntity
  8
$DDT_AUDIT_GENERATED_(34F)
  6
Continuous
 62
     7
100
AcDbCircle
 10
26.4824716585
 20
261.7083249894
 30
0.0
 40
1.500000000000002
100
AcDbArc
 50
224.2747757009
 51
270.0
  0
ARC
  5
475
330
3EA
100
AcDbEntity
  8
$DDT_AUDIT_GENERATED_(34F)
  6
Continuous
 62
     7
100
AcDbCircle
 10
56.2175283415
 20
261.7083249894
 30
0.0
 40
1.500000000000001
100
AcDbArc
 50
270.0
 51
315.7252242991
  0
ARC
  5
476
330
3EA
100
AcDbEntity
  8
$DDT_AUDIT_GENERATED_(34F)
  6
Continuous
 62
     7
100
AcDbCircle
 10
74.35
 20
281.0219614455
 30
0.0
 40
2.0
100
AcDbArc
 50
315.7252242991
 51
0.0
  0
ARC
  5
477
330
3EA
100
AcDbEntity
  8
$DDT_AUDIT_GENERATED_(34F)
  6
Continuous
 62
     7
100
AcDbCircle
 10
8.35
 20
281.0219614455
 30
0.0
 40
2.000000000000002
100
AcDbArc
 50
180.0
 51
224.2747757009
  0
LINE
  5
478
330
3EA
100
AcDbEntity
  8
$DDT_AUDIT_GENERATED_(3D9)
  6
Continuous
 62
     7
100
AcDbLine
 10
202.35
 20
259.7083249894
 30
0.0
 11
204.57
 21
258.8338437336
 31
0.0
  0
LINE
  5
479
330
3EA
100
AcDbEntity
  8
$DDT_AUDIT_GENERATED_(3D9)
  6
Continuous
 62
     7
100
AcDbLine
 10
202.35
 20
259.7083249894
 30
0.0
 11
202.35
 21
260.2083249894
 31
0.0
  0
LINE
  5
47A
330
3EA
100
AcDbEntity
  8
$DDT_AUDIT_GENERATED_(3D9)
  6
Continuous
 62
     7
100
AcDbLine
 10
180.35
 20
259.7083249894
 30
0.0
 11
178.13
 21
258.8338437336
 31
0.0
  0
LINE
  5
47B
330
3EA
100
AcDbEntity
  8
$DDT_AUDIT_GENERATED_(3D9)
  6
Continuous
 62
     7
100
AcDbLine
 10
180.35
 20
259.7083249894
 30
0.0
 11
180.35
 21
260.2083249894
 31
0.0
  0
LINE
  5
47C
330
3EA
100
AcDbEntity
  8
$DDT_AUDIT_GENERATED_(3D9)
  6
Continuous
 62
     7
100
AcDbLine
 10
204.57
 20
258.7083249894
 30
0.0
 11
204.57
 21
258.8338437336
 31
0.0
  0
LINE
  5
47D
330
3EA
100
AcDbEntity
  8
$DDT_AUDIT_GENERATED_(3D9)
  6
Continuous
 62
     7
100
AcDbLine
 10
178.13
 20
258.8338437336
 30
0.0
 11
178.13
 21
258.7083249894
 31
0.0
  0
LINE
  5
47E
330
3EA
100
AcDbEntity
  8
$DDT_AUDIT_GENERATED_(3D9)
  6
Continuous
 62
     7
100
AcDbLine
 10
203.4
 20
259.29471899
 30
0.0
 11
203.4
 21
258.7083249894
 31
0.0
  0
LINE
  5
47F
330
3EA
100
AcDbEntity
  8
$DDT_AUDIT_GENERATED_(3D9)
  6
Continuous
 62
     7
100
AcDbLine
 10
179.3
 20
259.29471899
 30
0.0
 11
179.3
 21
258.7083249894
 31
0.0
  0
LINE
  5
480
330
3EA
100
AcDbEntity
  8
$DDT_AUDIT_GENERATED_(34F)
  6
Continuous
 62
     7
100
AcDbLine
 10
156.35
 20
286.2083249894
 30
0.0
 11
226.35
 21
286.2083249894
 31
0.0
  0
LINE
  5
481
330
3EA
100
AcDbEntity
  8
$DDT_AUDIT_GENERATED_(34F)
  6
Continuous
 62
     7
100
AcDbLine
 10
176.4824716585
 20
260.2083249894
 30
0.0
 11
206.2175283415
 21
260.2083249894
 31
0.0
  0
LINE
  5
482
330
3EA
100
AcDbEntity
  8
$DDT_AUDIT_GENERATED_(34F)
  6
Continuous
 62
     7
100
AcDbLine
 10
156.35
 20
286.2083249894
 30
0.0
 11
156.35
 21
281.0219614455
 31
0.0
  0
LINE
  5
483
330
3EA
100
AcDbEntity
  8
$DDT_AUDIT_GENERATED_(34F)
  6
Continuous
 62
     7
100
AcDbLine
 10
226.35
 20
281.0219614455
 30
0.0
 11
226.35
 21
286.2083249894
 31
0.0
  0
LINE
  5
484
330
3EA
100
AcDbEntity
  8
$DDT_AUDIT_GENERATED_(34F)
  6
Continuous
 62
     7
100
AcDbLine
 10
156.9179997208
 20
279.6257611733
 30
0.0
 11
175.4084714491
 21
260.6611747852
 31
0.0
  0
LINE
  5
485
330
3EA
100
AcDbEntity
  8
$DDT_AUDIT_GENERATED_(34F)
  6
Continuous
 62
     7
100
AcDbLine
 10
207.2915285509
 20
260.6611747852
 30
0.0
 11
225.7820002792
 21
279.6257611733
 31
0.0
  0
ARC
  5
486
330
3EA
100
AcDbEntity
  8
$DDT_AUDIT_GENERATED_(34F)
  6
Continuous
 62
     7
100
AcDbCircle
 10
176.4824716585
 20
261.7083249894
 30
0.0
 40
1.500000000000002
100
AcDbArc
 50
224.2747757009
 51
270.0
  0
ARC
  5
487
330
3EA
100
AcDbEntity
  8
$DDT_AUDIT_GENERATED_(34F)
  6
Continuous
 62
     7
100
AcDbCircle
 10
206.2175283415
 20
261.7083249894
 30
0.0
 40
1.500000000000001
100
AcDbArc
 50
270.0
 51
315.7252242991
  0
ARC
  5
488
330
3EA
100
AcDbEntity
  8
$DDT_AUDIT_GENERATED_(34F)
  6
Continuous
 62
     7
100
AcDbCircle
 10
224.35
 20
281.0219614455
 30
0.0
 40
2.0
100
AcDbArc
 50
315.7252242991
 51
0.0
  0
ARC
  5
489
330
3EA
100
AcDbEntity
  8
$DDT_AUDIT_GENERATED_(34F)
  6
Continuous
 62
     7
100
AcDbCircle
 10
158.35
 20
281.0219614455
 30
0.0
 40
2.000000000000002
100
AcDbArc
 50
180.0
 51
224.2747757009
  0
ENDBLK
  5
48B
330
3EA
100
AcDbEntity
  8
0
100
AcDbBlockEnd
  0
ENDSEC
  0
SECTION
  2
ENTITIES
  0
INSERT
  5
5F
330
1F
100
AcDbEntity
  8
Default
100
AcDbBlockReference
  2
SE
 10
0.0
 20
0.0
 30
0.0
  0
INSERT
  5
356
330
1F
100
AcDbEntity
  8
Default
100
AcDbBlockReference
  2
SE1
 10
0.0
 20
0.0
 30
0.0
  0
INSERT
  5
3EB
330
1F
100
AcDbEntity
  8
Default
100
AcDbBlockReference
  2
SE2
 10
0.0
 20
0.0
 30
0.0
  0
TEXT
  5
48D
330
1F
100
AcDbEntity
  8
Default
  6
Continuous
 62
     7
100
AcDbText
 10
5.9362635081
 20
53.4225120485
 30
0.0
 40
10.0
  1
Grohe AG^J
  7
SEACAD_seiso_ttf
 11
5.9362635081
 21
63.4225120485
 31
0.0
100
AcDbText
 73
     3
  0
TEXT
  5
48E
330
1F
100
AcDbEntity
  8
Default
  6
Continuous
 62
     7
100
AcDbText
 10
5.9362635081
 20
37.0588756849
 30
0.0
 40
10.0
  1
 
  7
SEACAD_seiso_ttf
 11
5.9362635081
 21
47.0588756849
 31
0.0
100
AcDbText
 73
     3
  0
TEXT
  5
48F
330
1F
100
AcDbEntity
  8
Default
  6
Continuous
 62
     7
100
AcDbText
 10
5.9362635081
 20
20.6952393213
 30
0.0
 40
10.0
  1
ecn:
  7
SEACAD_seiso_ttf
 11
5.9362635081
 21
30.6952393213
 31
0.0
100
AcDbText
 73
     3
  0
TEXT
  5
490
330
1F
100
AcDbEntity
  8
Default
  6
Continuous
 62
     7
100
AcDbText
 10
5.9362635081
 20
4.3316029576
 30
0.0
 40
10.0
  1
unit: mm
  7
SEACAD_seiso_ttf
 11
5.9362635081
 21
14.3316029576
 31
0.0
100
AcDbText
 73
     3
  0
LINE
  5
491
330
1F
100
AcDbEntity
  8
Default
  6
Continuous
 62
     7
100
AcDbLine
 10
0.0
 20
0.0
 30
0.0
 11
100.0
 21
0.0
 31
0.0
  0
LINE
  5
492
330
1F
100
AcDbEntity
  8
Default
  6
Continuous
 62
     7
100
AcDbLine
 10
0.0
 20
0.0
 30
0.0
 11
0.0
 21
100.0
 31
0.0
  0
TEXT
  5
493
330
1F
100
AcDbEntity
  8
Default
  6
Continuous
 62
     7
100
AcDbText
 10
24.3923665681
 20
-18.2375342018
 30
0.0
 40
10.0
  1
100 mm
  7
SEACAD_seiso_ttf
 11
24.3923665681
 21
-8.2375342018
 31
0.0
100
AcDbText
 73
     3
  0
TEXT
  5
494
330
1F
100
AcDbEntity
  8
Default
  6
Continuous
 62
     7
100
AcDbText
 10
-7.6150308803
 20
24.6231930421
 30
0.0
 40
10.0
  1
100 mm
 50
90.0
  7
SEACAD_seiso_ttf
 11
-17.6150308803
 21
24.6231930421
 31
0.0
100
AcDbText
 73
     3
  0
TEXT
  5
495
330
1F
100
AcDbEntity
  8
Default
  6
Continuous
 62
     7
100
AcDbText
 10
28.4878128572
 20
20.0907663715
 30
0.0
 40
10.0
  1
217389
  7
SEACAD_seiso_ttf
 11
28.4878128572
 21
30.0907663715
 31
0.0
100
AcDbText
 73
     3
  0
TEXT
  5
496
330
1F
100
AcDbEntity
  8
Default
  6
Continuous
 62
     7
100
AcDbText
 10
5.9012241913
 20
36.7242780188
 30
0.0
 40
10.0
  1
32278000
  7
SEACAD_seiso_ttf
 11
5.9012241913
 21
46.7242780188
 31
0.0
100
AcDbText
 73
     3
  0
ENDSEC
  0
SECTION
  2
OBJECTS
  0
DICTIONARY
  5
C
330
0
100
AcDbDictionary
281
     1
  3
ACAD_GROUP
350
D
  3
ACAD_LAYOUT
350
1A
  3
ACAD_MLEADERSTYLE
350
49A
  3
ACAD_MLINESTYLE
350
17
  3
ACAD_PLOTSETTINGS
350
19
  3
ACAD_PLOTSTYLENAME
350
E
  3
ACAD_SCALELIST
350
3B
  3
ACAD_TABLESTYLE
350
499
  3
ACAD_VISUALSTYLE
350
2A
  3
AcDbVariableDictionary
350
497
  0
DICTIONARY
  5
D
102
{ACAD_REACTORS
330
C
102
}
330
C
100
AcDbDictionary
281
     1
  0
DICTIONARY
  5
1A
102
{ACAD_REACTORS
330
C
102
}
330
C
100
AcDbDictionary
281
     1
  3
Layout1
350
1E
  3
Model
350
22
  0
DICTIONARY
  5
49A
102
{ACAD_REACTORS
330
C
102
}
330
C
100
AcDbDictionary
281
     1
  0
DICTIONARY
  5
17
102
{ACAD_REACTORS
330
C
102
}
330
C
100
AcDbDictionary
281
     1
  3
Standard
350
18
  0
DICTIONARY
  5
19
102
{ACAD_REACTORS
330
C
102
}
330
C
100
AcDbDictionary
281
     1
  0
ACDBDICTIONARYWDFLT
  5
E
102
{ACAD_REACTORS
330
C
102
}
330
C
100
AcDbDictionary
281
     1
  3
Normal
350
F
100
AcDbDictionaryWithDefault
340
F
  0
DICTIONARY
  5
3B
102
{ACAD_REACTORS
330
C
102
}
330
C
100
AcDbDictionary
281
     1
  3
A0
350
3C
  3
A1
350
3D
  3
A2
350
3E
  3
A3
350
3F
  3
A4
350
40
  3
A5
350
41
  3
A6
350
42
  3
A7
350
43
  3
A8
350
44
  3
A9
350
45
  3
B0
350
46
  3
B1
350
47
  3
B2
350
48
  3
B3
350
49
  3
B4
350
4A
  3
B5
350
4B
  3
B6
350
4C
  3
B7
350
4D
  3
B8
350
4E
  3
B9
350
4F
  3
C0
350
50
  3
C1
350
51
  3
C2
350
52
  3
C3
350
53
  3
C4
350
54
  3
C5
350
55
  3
C6
350
56
  3
C7
350
57
  3
C8
350
58
  3
C9
350
59
  3
D0
350
5A
  3
D1
350
5B
  3
D2
350
5C
  0
DICTIONARY
  5
499
102
{ACAD_REACTORS
330
C
102
}
330
C
100
AcDbDictionary
281
     1
  0
DICTIONARY
  5
2A
102
{ACAD_REACTORS
330
C
102
}
330
C
100
AcDbDictionary
281
     1
  3
2dWireframe
350
2F
  3
3D Hidden
350
31
  3
3dWireframe
350
30
  3
Basic
350
32
  3
Brighten
350
36
  3
ColorChange
350
3A
  3
Conceptual
350
34
  3
Dim
350
35
  3
Facepattern
350
39
  3
Flat
350
2B
  3
FlatWithEdges
350
2C
  3
Gouraud
350
2D
  3
GouraudWithEdges
350
2E
  3
Linepattern
350
38
  3
Realistic
350
33
  3
Thicken
350
37
  0
DICTIONARY
  5
497
102
{ACAD_REACTORS
330
C
102
}
330
C
100
AcDbDictionary
281
     1
  3
CANNOSCALE
350
498
  3
PSOLHEIGHT
350
49C
  3
PSOLWIDTH
350
49B
  0
LAYOUT
  5
1E
102
{ACAD_REACTORS
330
1A
102
}
330
1A
100
AcDbPlotSettings
  1

  2
none_device
  4

  6

 40
0.0
 41
0.0
 42
0.0
 43
0.0
 44
0.0
 45
0.0
 46
0.0
 47
0.0
 48
0.0
 49
0.0
140
0.0
141
0.0
142
1.0
143
1.0
 70
   688
 72
     0
 73
     0
 74
     5
  7

 75
    16
147
1.0
148
0.0
149
0.0
100
AcDbLayout
  1
Layout1
 70
     1
 71
     1
 10
0.0
 20
0.0
 11
3000.0
 21
4500.0
 12
0.0
 22
0.0
 32
0.0
 14
0.0
 24
0.0
 34
0.0
 15
3000.0
 25
4500.0
 35
0.0
146
0.0
 13
0.0
 23
0.0
 33
0.0
 16
1.0
 26
0.0
 36
0.0
 17
0.0
 27
1.0
 37
0.0
 76
     0
330
1B
  0
LAYOUT
  5
22
102
{ACAD_REACTORS
330
1A
102
}
330
1A
100
AcDbPlotSettings
  1

  2
none_device
  4

  6

 40
0.0
 41
0.0
 42
0.0
 43
0.0
 44
0.0
 45
0.0
 46
0.0
 47
0.0
 48
0.0
 49
0.0
140
0.0
141
0.0
142
1.0
143
1.0
 70
  1712
 72
     0
 73
     0
 74
     0
  7

 75
     0
147
1.0
148
0.0
149
0.0
100
AcDbLayout
  1
Model
 70
     1
 71
     0
 10
0.0
 20
0.0
 11
3000.0
 21
4500.0
 12
0.0
 22
0.0
 32
0.0
 14
0.0
 24
0.0
 34
0.0
 15
3000.0
 25
4500.0
 35
0.0
146
0.0
 13
0.0
 23
0.0
 33
0.0
 16
1.0
 26
0.0
 36
0.0
 17
0.0
 27
1.0
 37
0.0
 76
     0
330
1F
331
29
  0
MLINESTYLE
  5
18
102
{ACAD_REACTORS
330
17
102
}
330
17
100
AcDbMlineStyle
  2
Standard
 70
     0
  3

 62
   256
 51
90.0
 52
90.0
 71
     2
 49
0.5
 62
   256
  6
BYLAYER
 49
-0.5
 62
   256
  6
BYLAYER
  0
ACDBPLACEHOLDER
  5
F
102
{ACAD_REACTORS
330
E
102
}
330
E
  0
SCALE
  5
3C
102
{ACAD_REACTORS
330
3B
102
}
330
3B
100
AcDbScale
 70
     0
300
1:1
140
1.0
141
1.0
290
     1
  0
SCALE
  5
3D
102
{ACAD_REACTORS
330
3B
102
}
330
3B
100
AcDbScale
 70
     0
300
1:2
140
1.0
141
2.0
290
     0
  0
SCALE
  5
3E
102
{ACAD_REACTORS
330
3B
102
}
330
3B
100
AcDbScale
 70
     0
300
1:4
140
1.0
141
4.0
290
     0
  0
SCALE
  5
3F
102
{ACAD_REACTORS
330
3B
102
}
330
3B
100
AcDbScale
 70
     0
300
1:5
140
1.0
141
5.0
290
     0
  0
SCALE
  5
40
102
{ACAD_REACTORS
330
3B
102
}
330
3B
100
AcDbScale
 70
     0
300
1:8
140
1.0
141
8.0
290
     0
  0
SCALE
  5
41
102
{ACAD_REACTORS
330
3B
102
}
330
3B
100
AcDbScale
 70
     0
300
1:10
140
1.0
141
10.0
290
     0
  0
SCALE
  5
42
102
{ACAD_REACTORS
330
3B
102
}
330
3B
100
AcDbScale
 70
     0
300
1:16
140
1.0
141
16.0
290
     0
  0
SCALE
  5
43
102
{ACAD_REACTORS
330
3B
102
}
330
3B
100
AcDbScale
 70
     0
300
1:20
140
1.0
141
20.0
290
     0
  0
SCALE
  5
44
102
{ACAD_REACTORS
330
3B
102
}
330
3B
100
AcDbScale
 70
     0
300
1:30
140
1.0
141
30.0
290
     0
  0
SCALE
  5
45
102
{ACAD_REACTORS
330
3B
102
}
330
3B
100
AcDbScale
 70
     0
300
1:40
140
1.0
141
40.0
290
     0
  0
SCALE
  5
46
102
{ACAD_REACTORS
330
3B
102
}
330
3B
100
AcDbScale
 70
     0
300
1:50
140
1.0
141
50.0
290
     0
  0
SCALE
  5
47
102
{ACAD_REACTORS
330
3B
102
}
330
3B
100
AcDbScale
 70
     0
300
1:100
140
1.0
141
100.0
290
     0
  0
SCALE
  5
48
102
{ACAD_REACTORS
330
3B
102
}
330
3B
100
AcDbScale
 70
     0
300
2:1
140
2.0
141
1.0
290
     0
  0
SCALE
  5
49
102
{ACAD_REACTORS
330
3B
102
}
330
3B
100
AcDbScale
 70
     0
300
4:1
140
4.0
141
1.0
290
     0
  0
SCALE
  5
4A
102
{ACAD_REACTORS
330
3B
102
}
330
3B
100
AcDbScale
 70
     0
300
8:1
140
8.0
141
1.0
290
     0
  0
SCALE
  5
4B
102
{ACAD_REACTORS
330
3B
102
}
330
3B
100
AcDbScale
 70
     0
300
10:1
140
10.0
141
1.0
290
     0
  0
SCALE
  5
4C
102
{ACAD_REACTORS
330
3B
102
}
330
3B
100
AcDbScale
 70
     0
300
100:1
140
100.0
141
1.0
290
     0
  0
SCALE
  5
4D
102
{ACAD_REACTORS
330
3B
102
}
330
3B
100
AcDbScale
 70
     0
300
1/128" = 1'-0"
140
0.0078125
141
12.0
290
     0
  0
SCALE
  5
4E
102
{ACAD_REACTORS
330
3B
102
}
330
3B
100
AcDbScale
 70
     0
300
1/64" = 1'-0"
140
0.015625
141
12.0
290
     0
  0
SCALE
  5
4F
102
{ACAD_REACTORS
330
3B
102
}
330
3B
100
AcDbScale
 70
     0
300
1/32" = 1'-0"
140
0.03125
141
12.0
290
     0
  0
SCALE
  5
50
102
{ACAD_REACTORS
330
3B
102
}
330
3B
100
AcDbScale
 70
     0
300
1/16" = 1'-0"
140
0.0625
141
12.0
290
     0
  0
SCALE
  5
51
102
{ACAD_REACTORS
330
3B
102
}
330
3B
100
AcDbScale
 70
     0
300
3/32" = 1'-0"
140
0.09375
141
12.0
290
     0
  0
SCALE
  5
52
102
{ACAD_REACTORS
330
3B
102
}
330
3B
100
AcDbScale
 70
     0
300
1/8" = 1'-0"
140
0.125
141
12.0
290
     0
  0
SCALE
  5
53
102
{ACAD_REACTORS
330
3B
102
}
330
3B
100
AcDbScale
 70
     0
300
3/16" = 1'-0"
140
0.1875
141
12.0
290
     0
  0
SCALE
  5
54
102
{ACAD_REACTORS
330
3B
102
}
330
3B
100
AcDbScale
 70
     0
300
1/4" = 1'-0"
140
0.25
141
12.0
290
     0
  0
SCALE
  5
55
102
{ACAD_REACTORS
330
3B
102
}
330
3B
100
AcDbScale
 70
     0
300
3/8" = 1'-0"
140
0.375
141
12.0
290
     0
  0
SCALE
  5
56
102
{ACAD_REACTORS
330
3B
102
}
330
3B
100
AcDbScale
 70
     0
300
1/2" = 1'-0"
140
0.5
141
12.0
290
     0
  0
SCALE
  5
57
102
{ACAD_REACTORS
330
3B
102
}
330
3B
100
AcDbScale
 70
     0
300
3/4" = 1'-0"
140
0.75
141
12.0
290
     0
  0
SCALE
  5
58
102
{ACAD_REACTORS
330
3B
102
}
330
3B
100
AcDbScale
 70
     0
300
1" = 1'-0"
140
1.0
141
12.0
290
     0
  0
SCALE
  5
59
102
{ACAD_REACTORS
330
3B
102
}
330
3B
100
AcDbScale
 70
     0
300
1-1/2" = 1'-0"
140
1.5
141
12.0
290
     0
  0
SCALE
  5
5A
102
{ACAD_REACTORS
330
3B
102
}
330
3B
100
AcDbScale
 70
     0
300
3" = 1'-0"
140
3.0
141
12.0
290
     0
  0
SCALE
  5
5B
102
{ACAD_REACTORS
330
3B
102
}
330
3B
100
AcDbScale
 70
     0
300
6" = 1'-0"
140
6.0
141
12.0
290
     0
  0
SCALE
  5
5C
102
{ACAD_REACTORS
330
3B
102
}
330
3B
100
AcDbScale
 70
     0
300
1'-0" = 1'-0"
140
12.0
141
12.0
290
     0
  0
VISUALSTYLE
  5
2F
102
{ACAD_REACTORS
330
2A
102
}
330
2A
100
AcDbVisualStyle
  2
2dWireframe
 70
     4
 71
     0
 72
     2
 73
     0
 90
        0
 40
-0.6
 41
-30.0
 62
     5
 63
     7
 74
     1
 91
        4
 64
     7
 65
   257
 75
     1
175
     1
 42
1.0
 92
        0
 66
   257
 43
1.0
 76
     1
 77
     6
 78
     2
 67
     7
 79
     5
170
     0
171
     0
290
     0
174
     0
 93
        1
 44
0.0
173
     0
291
     0
 45
0.0
1001
ACAD
1000
AcDbSavedByObjectVersion
1070
     0
  0
VISUALSTYLE
  5
31
102
{ACAD_REACTORS
330
2A
102
}
330
2A
100
AcDbVisualStyle
  2
3D Hidden
 70
     6
 71
     1
 72
     2
 73
     2
 90
        0
 40
-0.6
 41
-30.0
 62
     5
 63
     7
 74
     2
 91
        2
 64
     7
 65
   257
 75
     2
175
     1
 42
40.0
 92
        0
 66
   257
 43
1.0
 76
     1
 77
     6
 78
     2
 67
     7
 79
     3
170
     0
171
     0
290
     0
174
     0
 93
        1
 44
0.0
173
     0
291
     0
 45
0.0
1001
ACAD
1000
AcDbSavedByObjectVersion
1070
     0
  0
VISUALSTYLE
  5
30
102
{ACAD_REACTORS
330
2A
102
}
330
2A
100
AcDbVisualStyle
  2
3dWireframe
 70
     5
 71
     0
 72
     2
 73
     0
 90
        0
 40
-0.6
 41
-30.0
 62
     5
 63
     7
 74
     1
 91
        4
 64
     7
 65
   257
 75
     1
175
     1
 42
1.0
 92
        0
 66
   257
 43
1.0
 76
     1
 77
     6
 78
     2
 67
     7
 79
     5
170
     0
171
     0
290
     0
174
     0
 93
        1
 44
0.0
173
     0
291
     0
 45
0.0
1001
ACAD
1000
AcDbSavedByObjectVersion
1070
     0
  0
VISUALSTYLE
  5
32
102
{ACAD_REACTORS
330
2A
102
}
330
2A
100
AcDbVisualStyle
  2
Basic
 70
     7
 71
     1
 72
     0
 73
     1
 90
        0
 40
-0.6
 41
-30.0
 62
     5
 63
     7
 74
     0
 91
        4
 64
     7
 65
   257
 75
     1
175
     1
 42
1.0
 92
        8
 66
     7
 43
1.0
 76
     1
 77
     6
 78
     2
 67
     7
 79
     5
170
     0
171
     0
290
     0
174
     0
 93
        1
 44
0.0
173
     0
291
     1
 45
0.0
1001
ACAD
1000
AcDbSavedByObjectVersion
1070
     0
  0
VISUALSTYLE
  5
36
102
{ACAD_REACTORS
330
2A
102
}
330
2A
100
AcDbVisualStyle
  2
Brighten
 70
    12
 71
     2
 72
     2
 73
     0
 90
        0
 40
-0.6
 41
-30.0
 62
     5
 63
     7
 74
     1
 91
        4
 64
     7
 65
   257
 75
     1
175
     1
 42
1.0
 92
        8
 66
     7
 43
1.0
 76
     1
 77
     6
 78
     2
 67
     7
 79
     5
170
     0
171
     0
290
     0
174
     0
 93
        1
 44
50.0
173
     0
291
     1
 45
0.0
1001
ACAD
1000
AcDbSavedByObjectVersion
1070
     0
  0
VISUALSTYLE
  5
3A
102
{ACAD_REACTORS
330
2A
102
}
330
2A
100
AcDbVisualStyle
  2
ColorChange
 70
    16
 71
     2
 72
     2
 73
     3
 90
        0
 40
-0.6
 41
-30.0
 62
     5
 63
     8
 74
     1
 91
        4
 64
     7
 65
   257
 75
     1
175
     1
 42
1.0
 92
        8
 66
     8
 43
1.0
 76
     1
 77
     6
 78
     2
 67
     7
 79
     5
170
     0
171
     0
290
     0
174
     0
 93
        1
 44
0.0
173
     0
291
     1
 45
0.0
1001
ACAD
1000
AcDbSavedByObjectVersion
1070
     0
  0
VISUALSTYLE
  5
34
102
{ACAD_REACTORS
330
2A
102
}
330
2A
100
AcDbVisualStyle
  2
Conceptual
 70
     9
 71
     3
 72
     2
 73
     0
 90
        0
 40
-0.6
 41
-30.0
 62
     5
 63
     7
 74
     2
 91
        2
 64
     7
 65
   257
 75
     1
175
     1
 42
40.0
 92
        8
 66
     7
 43
1.0
 76
     1
 77
     6
 78
     2
 67
     7
 79
     3
170
     0
171
     0
290
     0
174
     0
 93
        1
 44
0.0
173
     0
291
     0
 45
0.0
1001
ACAD
1000
AcDbSavedByObjectVersion
1070
     0
  0
VISUALSTYLE
  5
35
102
{ACAD_REACTORS
330
2A
102
}
330
2A
100
AcDbVisualStyle
  2
Dim
 70
    11
 71
     2
 72
     2
 73
     0
 90
        0
 40
-0.6
 41
-30.0
 62
     5
 63
     7
 74
     1
 91
        4
 64
     7
 65
   257
 75
     1
175
     1
 42
1.0
 92
        8
 66
     7
 43
1.0
 76
     1
 77
     6
 78
     2
 67
     7
 79
     5
170
     0
171
     0
290
     0
174
     0
 93
        1
 44
-50.0
173
     0
291
     1
 45
0.0
1001
ACAD
1000
AcDbSavedByObjectVersion
1070
     0
  0
VISUALSTYLE
  5
39
102
{ACAD_REACTORS
330
2A
102
}
330
2A
100
AcDbVisualStyle
  2
Facepattern
 70
    15
 71
     2
 72
     2
 73
     0
 90
        0
 40
-0.6
 41
-30.0
 62
     5
 63
     7
 74
     1
 91
        4
 64
     7
 65
   257
 75
     1
175
     1
 42
1.0
 92
        8
 66
     7
 43
1.0
 76
     1
 77
     6
 78
     2
 67
     7
 79
     5
170
     0
171
     0
290
     0
174
     0
 93
        1
 44
0.0
173
     0
291
     1
 45
0.0
1001
ACAD
1000
AcDbSavedByObjectVersion
1070
     0
  0
VISUALSTYLE
  5
2B
102
{ACAD_REACTORS
330
2A
102
}
330
2A
100
AcDbVisualStyle
  2
Flat
 70
     0
 71
     2
 72
     1
 73
     1
 90
        2
 40
-0.6
 41
30.0
 62
     5
 63
     7
 74
     0
 91
        4
 64
     7
 65
   257
 75
     1
175
     1
 42
1.0
 92
        8
 66
     7
 43
1.0
 76
     1
 77
     6
 78
     2
 67
     7
 79
     5
170
     0
171
     0
290
     0
174
     0
 93
       13
 44
0.0
173
     0
291
     1
 45
0.0
1001
ACAD
1000
AcDbSavedByObjectVersion
1070
     0
  0
VISUALSTYLE
  5
2C
102
{ACAD_REACTORS
330
2A
102
}
330
2A
100
AcDbVisualStyle
  2
FlatWithEdges
 70
     1
 71
     2
 72
     1
 73
     1
 90
        2
 40
-0.6
 41
30.0
 62
     5
 63
     7
 74
     1
 91
        4
 64
     7
 65
   257
 75
     1
175
     1
 42
1.0
 92
        0
 66
   257
 43
1.0
 76
     1
 77
     6
 78
     2
 67
     7
 79
     5
170
     0
171
     0
290
     0
174
     0
 93
       13
 44
0.0
173
     0
291
     1
 45
0.0
1001
ACAD
1000
AcDbSavedByObjectVersion
1070
     0
  0
VISUALSTYLE
  5
2D
102
{ACAD_REACTORS
330
2A
102
}
330
2A
100
AcDbVisualStyle
  2
Gouraud
 70
     2
 71
     2
 72
     2
 73
     1
 90
        2
 40
-0.6
 41
30.0
 62
     5
 63
     7
 74
     0
 91
        4
 64
     7
 65
   257
 75
     1
175
     1
 42
1.0
 92
        0
 66
     7
 43
1.0
 76
     1
 77
     6
 78
     2
 67
     7
 79
     5
170
     0
171
     0
290
     0
174
     0
 93
       13
 44
0.0
173
     0
291
     1
 45
0.0
1001
ACAD
1000
AcDbSavedByObjectVersion
1070
     0
  0
VISUALSTYLE
  5
2E
102
{ACAD_REACTORS
330
2A
102
}
330
2A
100
AcDbVisualStyle
  2
GouraudWithEdges
 70
     3
 71
     2
 72
     2
 73
     1
 90
        2
 40
-0.6
 41
30.0
 62
     5
 63
     7
 74
     1
 91
        4
 64
     7
 65
   257
 75
     1
175
     1
 42
1.0
 92
        0
 66
   257
 43
1.0
 76
     1
 77
     6
 78
     2
 67
     7
 79
     5
170
     0
171
     0
290
     0
174
     0
 93
       13
 44
0.0
173
     0
291
     1
 45
0.0
1001
ACAD
1000
AcDbSavedByObjectVersion
1070
     0
  0
VISUALSTYLE
  5
38
102
{ACAD_REACTORS
330
2A
102
}
330
2A
100
AcDbVisualStyle
  2
Linepattern
 70
    14
 71
     2
 72
     2
 73
     0
 90
        0
 40
-0.6
 41
-30.0
 62
     5
 63
     7
 74
     1
 91
        4
 64
     7
 65
   257
 75
     7
175
     7
 42
1.0
 92
        8
 66
     7
 43
1.0
 76
     1
 77
     6
 78
     2
 67
     7
 79
     5
170
     0
171
     0
290
     0
174
     0
 93
        1
 44
0.0
173
     0
291
     1
 45
0.0
1001
ACAD
1000
AcDbSavedByObjectVersion
1070
     0
  0
VISUALSTYLE
  5
33
102
{ACAD_REACTORS
330
2A
102
}
330
2A
100
AcDbVisualStyle
  2
Realistic
 70
     8
 71
     2
 72
     2
 73
     0
 90
        0
 40
-0.6
 41
-30.0
 62
     5
 63
     7
 74
     1
 91
        0
 64
     7
 65
   257
 75
     1
175
     1
 42
1.0
 92
        8
 66
     8
 43
1.0
 76
     1
 77
     6
 78
     2
 67
     7
 79
     5
170
     0
171
     0
290
     0
174
     0
 93
       13
 44
0.0
173
     0
291
     0
 45
0.0
1001
ACAD
1000
AcDbSavedByObjectVersion
1070
     0
  0
VISUALSTYLE
  5
37
102
{ACAD_REACTORS
330
2A
102
}
330
2A
100
AcDbVisualStyle
  2
Thicken
 70
    13
 71
     2
 72
     2
 73
     0
 90
        0
 40
-0.6
 41
-30.0
 62
     5
 63
     7
 74
     1
 91
        4
 64
     7
 65
   257
 75
     1
175
     1
 42
1.0
 92
       12
 66
     7
 43
1.0
 76
     1
 77
     6
 78
     2
 67
     7
 79
     5
170
     0
171
     0
290
     0
174
     0
 93
        1
 44
0.0
173
     0
291
     1
 45
0.0
1001
ACAD
1000
AcDbSavedByObjectVersion
1070
     0
  0
DICTIONARYVAR
  5
498
102
{ACAD_REACTORS
330
497
102
}
330
497
100
DictionaryVariables
280
     0
  1
1:1
  0
DICTIONARYVAR
  5
49C
102
{ACAD_REACTORS
330
497
102
}
330
497
100
DictionaryVariables
280
     0
  1
80.000000
  0
DICTIONARYVAR
  5
49B
102
{ACAD_REACTORS
330
497
102
}
330
497
100
DictionaryVariables
280
     0
  1
5.000000
  0
ENDSEC
  0
EOF
