  0
SECTION
  2
HEADER
  9
$ACADVER
  1
AC1009
  9
$DWGCODEPAGE
  3
ansi_1252
  9
$INSBASE
 10
0.0
 20
0.0
 30
0.0
  9
$EXTMIN
 10
1.000000000000000E+20
 20
1.000000000000000E+20
 30
1.000000000000000E+20
  9
$EXTMAX
 10
-1.000000000000000E+20
 20
-1.000000000000000E+20
 30
-1.000000000000000E+20
  9
$LIMMIN
 10
0.0
 20
0.0
  9
$LIMMAX
 10
12.0
 20
9.0
  9
$ORTHOMODE
 70
     0
  9
$REGENMODE
 70
     1
  9
$FILLMODE
 70
     1
  9
$QTEXTMODE
 70
     0
  9
$MIRRTEXT
 70
     1
  9
$DRAGMODE
 70
     2
  9
$LTSCALE
 40
1.0
  9
$OSMODE
 70
    37
  9
$ATTMODE
 70
     1
  9
$TEXTSIZE
 40
0.2
  9
$TRACEWID
 40
0.05
  9
$TEXTSTYLE
  7
STANDARD
  9
$CLAYER
  8
0
  9
$CELTYPE
  6
BYLAYER
  9
$CECOLOR
 62
   256
  9
$DIMSCALE
 40
1.0
  9
$DIMASZ
 40
0.18
  9
$DIMEXO
 40
0.0625
  9
$DIMDLI
 40
0.38
  9
$DIMRND
 40
0.0
  9
$DIMDLE
 40
0.0
  9
$DIMEXE
 40
0.18
  9
$DIMTP
 40
0.0
  9
$DIMTM
 40
0.0
  9
$DIMTXT
 40
0.18
  9
$DIMCEN
 40
0.09
  9
$DIMTSZ
 40
0.0
  9
$DIMTOL
 70
     0
  9
$DIMLIM
 70
     0
  9
$DIMTIH
 70
     1
  9
$DIMTOH
 70
     1
  9
$DIMSE1
 70
     0
  9
$DIMSE2
 70
     0
  9
$DIMTAD
 70
     0
  9
$DIMZIN
 70
     0
  9
$DIMBLK
  1

  9
$DIMASO
 70
     1
  9
$DIMSHO
 70
     1
  9
$DIMPOST
  1

  9
$DIMAPOST
  1

  9
$DIMALT
 70
     0
  9
$DIMALTD
 70
     2
  9
$DIMALTF
 40
25.4
  9
$DIMLFAC
 40
1.0
  9
$DIMTOFL
 70
     0
  9
$DIMTVP
 40
0.0
  9
$DIMTIX
 70
     0
  9
$DIMSOXD
 70
     0
  9
$DIMSAH
 70
     0
  9
$DIMBLK1
  1

  9
$DIMBLK2
  1

  9
$DIMSTYLE
  2
STANDARD
  9
$DIMCLRD
 70
     0
  9
$DIMCLRE
 70
     0
  9
$DIMCLRT
 70
     0
  9
$DIMTFAC
 40
1.0
  9
$DIMGAP
 40
0.09
  9
$LUNITS
 70
     2
  9
$LUPREC
 70
     4
  9
$SKETCHINC
 40
0.1
  9
$FILLETRAD
 40
0.5
  9
$AUNITS
 70
     0
  9
$AUPREC
 70
     0
  9
$MENU
  1
.
  9
$ELEVATION
 40
0.0
  9
$PELEVATION
 40
0.0
  9
$THICKNESS
 40
0.0
  9
$LIMCHECK
 70
     0
  9
$CHAMFERA
 40
0.5
  9
$CHAMFERB
 40
0.5
  9
$SKPOLY
 70
     0
  9
$TDCREATE
 40
2455751.601285706
  9
$TDUPDATE
 40
2455751.601285706
  9
$TDINDWG
 40
0.0000000116
  9
$TDUSRTIMER
 40
0.0000000116
  9
$USRTIMER
 70
     1
  9
$ANGBASE
 50
0.0
  9
$ANGDIR
 70
     0
  9
$PDMODE
 70
     0
  9
$PDSIZE
 40
0.0
  9
$PLINEWID
 40
0.0
  9
$COORDS
 70
     1
  9
$SPLFRAME
 70
     0
  9
$SPLINETYPE
 70
     6
  9
$SPLINESEGS
 70
     8
  9
$ATTDIA
 70
     0
  9
$ATTREQ
 70
     1
  9
$HANDLING
 70
     1
  9
$HANDSEED
  5
CA2
  9
$SURFTAB1
 70
     6
  9
$SURFTAB2
 70
     6
  9
$SURFTYPE
 70
     6
  9
$SURFU
 70
     6
  9
$SURFV
 70
     6
  9
$UCSNAME
  2

  9
$UCSORG
 10
0.0
 20
0.0
 30
0.0
  9
$UCSXDIR
 10
1.0
 20
0.0
 30
0.0
  9
$UCSYDIR
 10
0.0
 20
1.0
 30
0.0
  9
$PUCSNAME
  2

  9
$PUCSORG
 10
0.0
 20
0.0
 30
0.0
  9
$PUCSXDIR
 10
1.0
 20
0.0
 30
0.0
  9
$PUCSYDIR
 10
0.0
 20
1.0
 30
0.0
  9
$USERI1
 70
     0
  9
$USERI2
 70
     0
  9
$USERI3
 70
     0
  9
$USERI4
 70
     0
  9
$USERI5
 70
     0
  9
$USERR1
 40
0.0
  9
$USERR2
 40
0.0
  9
$USERR3
 40
0.0
  9
$USERR4
 40
0.0
  9
$USERR5
 40
0.0
  9
$WORLDVIEW
 70
     1
  9
$SHADEDGE
 70
     3
  9
$SHADEDIF
 70
    70
  9
$TILEMODE
 70
     1
  9
$MAXACTVP
 70
    64
  9
$PLIMCHECK
 70
     0
  9
$PEXTMIN
 10
1.000000000000000E+20
 20
1.000000000000000E+20
 30
1.000000000000000E+20
  9
$PEXTMAX
 10
-1.000000000000000E+20
 20
-1.000000000000000E+20
 30
-1.000000000000000E+20
  9
$PLIMMIN
 10
0.0
 20
0.0
  9
$PLIMMAX
 10
12.0
 20
9.0
  9
$UNITMODE
 70
     0
  9
$VISRETAIN
 70
     1
  9
$PLINEGEN
 70
     0
  9
$PSLTSCALE
 70
     1
  0
ENDSEC
  0
SECTION
  2
TABLES
  0
TABLE
  2
VPORT
 70
     1
  0
VPORT
  2
*ACTIVE
 70
     0
 10
0.0
 20
0.0
 11
1.0
 21
1.0
 12
0.0
 22
0.0
 13
0.0
 23
0.0
 14
0.5
 24
0.5
 15
0.5
 25
0.5
 16
736.284912109375
 26
-686.59716796875
 36
288.6785583496094
 17
51.78497314453125
 27
0.0
 37
58.15277099609375
 40
670.9884317893556
 41
1.972972972850329
 42
50.0
 43
0.0
 44
0.0
 50
0.0
 51
0.0
 71
     0
 72
   100
 73
     1
 74
     3
 75
     0
 76
     0
 77
     0
 78
     0
  0
ENDTAB
  0
TABLE
  2
LTYPE
 70
     1
  0
LTYPE
  2
CONTINUOUS
 70
     0
  3
Solid line
 72
    65
 73
     0
 40
0.0
  0
ENDTAB
  0
TABLE
  2
LAYER
 70
     2
  0
LAYER
  2
0
 70
     0
 62
     7
  6
CONTINUOUS
  0
LAYER
  2
LAYER_1
 70
     0
 62
     7
  6
CONTINUOUS
  0
ENDTAB
  0
TABLE
  2
STYLE
 70
     1
  0
STYLE
  2
STANDARD
 70
     0
 40
0.0
 41
1.0
 50
0.0
 71
     0
 42
0.2
  3
txt
  4

  0
ENDTAB
  0
TABLE
  2
VIEW
 70
     0
  0
ENDTAB
  0
TABLE
  2
UCS
 70
     0
  0
ENDTAB
  0
TABLE
  2
APPID
 70
     1
  0
APPID
  2
ACAD
 70
     0
  0
ENDTAB
  0
TABLE
  2
DIMSTYLE
 70
     1
  0
DIMSTYLE
  2
STANDARD
 70
     0
  3

  4

  5

  6

  7

 40
1.0
 41
0.18
 42
0.0625
 43
0.38
 44
0.18
 45
0.0
 46
0.0
 47
0.0
 48
0.0
140
0.18
141
0.09
142
0.0
143
25.4
144
1.0
145
0.0
146
1.0
147
0.09
 71
     0
 72
     0
 73
     1
 74
     1
 75
     0
 76
     0
 77
     0
 78
     0
170
     0
171
     2
172
     0
173
     0
174
     0
175
     0
176
     0
177
     0
178
     0
  0
ENDTAB
  0
ENDSEC
  0
SECTION
  2
BLOCKS
  0
BLOCK
  8
0
  2
$MODEL_SPACE
 70
     0
 10
0.0
 20
0.0
 30
0.0
  3
$MODEL_SPACE
  1

  0
ENDBLK
  5
21
  8
0
  0
BLOCK
 67
     1
  8
0
  2
$PAPER_SPACE
 70
     0
 10
0.0
 20
0.0
 30
0.0
  3
$PAPER_SPACE
  1

  0
ENDBLK
  5
1D
 67
     1
  8
0
  0
BLOCK
  8
0
  2
38
 70
     0
 10
0.0
 20
0.0
 30
0.0
  3
38
  1

  0
POLYLINE
  5
3C
  8
0
 62
    43
 66
     1
 10
0.0
 20
0.0
 30
0.0
 70
    64
 71
    59
 72
   100
  0
VERTEX
  5
3D
  8
0
 10
0.0000000000001258
 20
-257.930419921875
 30
54.61763381958008
 70
   192
  0
VERTEX
  5
3E
  8
0
 10
1.665818214416504
 20
-257.1373291015625
 30
58.51364898681641
 70
   192
  0
VERTEX
  5
3F
  8
0
 10
3.784272193908691
 20
-257.2716674804688
 30
56.59274673461914
 70
   192
  0
VERTEX
  5
40
  8
0
 10
4.299118041992188
 20
-257.4122924804688
 30
54.58140563964844
 70
   192
  0
VERTEX
  5
41
  8
0
 10
4.124246120452881
 20
-255.1520385742188
 30
61.59163284301758
 70
   192
  0
VERTEX
  5
42
  8
0
 10
6.292259693145752
 20
-255.28076171875
 30
59.75077819824219
 70
   192
  0
VERTEX
  5
43
  8
0
 10
-1.439371347427368
 20
-255.0840606689453
 30
62.56364059448242
 70
   192
  0
VERTEX
  5
44
  8
0
 10
-1.628212332725525
 20
-257.1344604492188
 30
58.55457305908203
 70
   192
  0
VERTEX
  5
45
  8
0
 10
-4.12204122543335
 20
-255.1524200439453
 30
61.58614730834961
 70
   192
  0
VERTEX
  5
46
  8
0
 10
-3.797849655151367
 20
-257.2705383300781
 30
56.60868072509766
 70
   192
  0
VERTEX
  5
47
  8
0
 10
-7.754990100860596
 20
-255.4545593261719
 30
57.26534652709961
 70
   192
  0
VERTEX
  5
48
  8
0
 10
-6.287411689758301
 20
-255.2827911376953
 30
59.72170257568359
 70
   192
  0
VERTEX
  5
49
  8
0
 10
-4.299118041992188
 20
-257.4122924804688
 30
54.58140563964844
 70
   192
  0
VERTEX
  5
4A
  8
0
 10
7.695173740386963
 20
-255.4552307128906
 30
57.25580596923828
 70
   192
  0
VERTEX
  5
4B
  8
0
 10
-8.253141403198242
 20
-255.6508483886719
 30
54.45823287963867
 70
   192
  0
VERTEX
  5
4C
  8
0
 10
8.253141403198242
 20
-255.6508483886719
 30
54.45823287963867
 70
   192
  0
VERTEX
  5
4D
  8
0
 10
1.423084378242493
 20
-255.0838165283203
 30
62.5671501159668
 70
   192
  0
VERTEX
  5
4E
  8
0
 10
6.906435012817383
 20
-223.0890197753906
 30
54.55081939697266
 70
   192
  0
VERTEX
  5
4F
  8
0
 10
5.067042827606201
 20
-190.7485961914062
 30
52.01132583618164
 70
   192
  0
VERTEX
  5
50
  8
0
 10
5.5
 20
-190.8941345214844
 30
49.93000030517578
 70
   192
  0
VERTEX
  5
51
  8
0
 10
-6.935906410217285
 20
-223.0865936279297
 30
54.58540344238281
 70
   192
  0
VERTEX
  5
52
  8
0
 10
-5.5
 20
-190.8941345214844
 30
49.93000030517578
 70
   192
  0
VERTEX
  5
53
  8
0
 10
-5.104573249816895
 20
-190.7466888427734
 30
52.03841400146484
 70
   192
  0
VERTEX
  5
54
  8
0
 10
-2.029834270477295
 20
-222.7633209228516
 30
59.20836639404297
 70
   192
  0
VERTEX
  5
55
  8
0
 10
-5.288238525390625
 20
-222.8990478515625
 30
57.26741027832031
 70
   192
  0
VERTEX
  5
56
  8
0
 10
-7.31599760055542
 20
-223.25390625
 30
52.19281387329102
 70
   192
  0
VERTEX
  5
57
  8
0
 10
2.062485218048096
 20
-222.7658081054688
 30
59.17283248901367
 70
   192
  0
VERTEX
  5
58
  8
0
 10
0.0000000000000827
 20
-190.5104675292969
 30
55.41660308837891
 70
   192
  0
VERTEX
  5
59
  8
0
 10
-2.102120876312256
 20
-190.5402374267578
 30
54.99081420898438
 70
   192
  0
VERTEX
  5
5A
  8
0
 10
5.28595495223999
 20
-222.9044036865234
 30
57.19087982177734
 70
   192
  0
VERTEX
  5
5B
  8
0
 10
7.31599760055542
 20
-223.25390625
 30
52.19281387329102
 70
   192
  0
VERTEX
  5
5C
  8
0
 10
3.880493640899658
 20
-190.6249389648438
 30
53.77949905395508
 70
   192
  0
VERTEX
  5
5D
  8
0
 10
2.110852003097534
 20
-190.5409393310547
 30
54.98096466064453
 70
   192
  0
VERTEX
  5
5E
  8
0
 10
-3.899818658828735
 20
-190.6220397949219
 30
53.82101821899414
 70
   192
  0
VERTEX
  5
5F
  8
0
 10
-6.906435012817383
 20
-223.4187927246094
 30
49.83481216430664
 70
   192
  0
VERTEX
  5
60
  8
0
 10
-5.28595495223999
 20
-223.6033935546875
 30
47.19475173950195
 70
   192
  0
VERTEX
  5
61
  8
0
 10
-5.067042827606201
 20
-191.0396728515625
 30
47.84867477416992
 70
   192
  0
VERTEX
  5
62
  8
0
 10
-1.439371347427368
 20
-256.2176513671875
 30
46.35282135009766
 70
   192
  0
VERTEX
  5
63
  8
0
 10
1.423084378242493
 20
-256.2178955078125
 30
46.34931182861328
 70
   192
  0
VERTEX
  5
64
  8
0
 10
-2.062485218048096
 20
-223.7419891357422
 30
45.21279907226562
 70
   192
  0
VERTEX
  5
65
  8
0
 10
-4.12204122543335
 20
-256.1492919921875
 30
47.33031463623047
 70
   192
  0
VERTEX
  5
66
  8
0
 10
5.104573249816895
 20
-191.0415649414062
 30
47.82158279418945
 70
   192
  0
VERTEX
  5
67
  8
0
 10
6.935906410217285
 20
-223.4212036132812
 30
49.80022430419922
 70
   192
  0
VERTEX
  5
68
  8
0
 10
6.292259693145752
 20
-256.0209350585938
 30
49.16568374633789
 70
   192
  0
VERTEX
  5
69
  8
0
 10
5.288238525390625
 20
-223.6087493896484
 30
47.11822128295898
 70
   192
  0
VERTEX
  5
6A
  8
0
 10
4.124246120452881
 20
-256.149658203125
 30
47.3248291015625
 70
   192
  0
VERTEX
  5
6B
  8
0
 10
7.695173740386963
 20
-255.8464813232422
 30
51.6606559753418
 70
   192
  0
VERTEX
  5
6C
  8
0
 10
2.029834270477295
 20
-223.7444763183594
 30
45.17726516723633
 70
   192
  0
VERTEX
  5
6D
  8
0
 10
-6.287411689758301
 20
-256.0189208984375
 30
49.19476318359375
 70
   192
  0
VERTEX
  5
6E
  8
0
 10
0.0000000000000916
 20
-191.2777862548828
 30
44.44339752197266
 70
   192
  0
VERTEX
  5
6F
  8
0
 10
2.102120876312256
 20
-191.2480163574219
 30
44.86918640136719
 70
   192
  0
VERTEX
  5
70
  8
0
 10
-3.880493640899658
 20
-191.1633148193359
 30
46.08050155639648
 70
   192
  0
VERTEX
  5
71
  8
0
 10
-7.754990100860596
 20
-255.8471527099609
 30
51.65111541748047
 70
   192
  0
VERTEX
  5
72
  8
0
 10
-2.110852003097534
 20
-191.2473297119141
 30
44.87903594970703
 70
   192
  0
VERTEX
  5
73
  8
0
 10
3.899818658828735
 20
-191.1662139892578
 30
46.03898239135742
 70
   192
  0
VERTEX
  5
74
  8
0
 10
-3.784272193908691
 20
-257.5529479980469
 30
52.57006072998047
 70
   192
  0
VERTEX
  5
75
  8
0
 10
-1.665818214416504
 20
-257.6872863769531
 30
50.6491584777832
 70
   192
  0
VERTEX
  5
76
  8
0
 10
1.628212332725525
 20
-257.6901245117188
 30
50.60823440551758
 70
   192
  0
VERTEX
  5
77
  8
0
 10
3.797849655151367
 20
-257.5540771484375
 30
52.55412673950195
 70
   192
  0
VERTEX
  5
78
  8
0
 62
    43
 10
0.0
 20
0.0
 30
0.0
 70
   128
 71
     3
 72
     2
 73
     1
  0
VERTEX
  5
79
  8
0
 62
    43
 10
0.0
 20
0.0
 30
0.0
 70
   128
 71
     4
 72
     3
 73
     1
  0
VERTEX
  5
7A
  8
0
 62
    43
 10
0.0
 20
0.0
 30
0.0
 70
   128
 71
     6
 72
     5
 73
     3
  0
VERTEX
  5
7B
  8
0
 62
    43
 10
0.0
 20
0.0
 30
0.0
 70
   128
 71
     9
 72
     8
 73
     7
  0
VERTEX
  5
7C
  8
0
 62
    43
 10
0.0
 20
0.0
 30
0.0
 70
   128
 71
     2
 72
     7
 73
     8
  0
VERTEX
  5
7D
  8
0
 62
    43
 10
0.0
 20
0.0
 30
0.0
 70
   128
 71
    12
 72
    11
 73
    10
  0
VERTEX
  5
7E
  8
0
 62
    43
 10
0.0
 20
0.0
 30
0.0
 70
   128
 71
     8
 72
     1
 73
     2
  0
VERTEX
  5
7F
  8
0
 62
    43
 10
0.0
 20
0.0
 30
0.0
 70
   128
 71
     1
 72
    10
 73
    13
  0
VERTEX
  5
80
  8
0
 62
    43
 10
0.0
 20
0.0
 30
0.0
 70
   128
 71
     3
 72
     4
 73
    14
  0
VERTEX
  5
81
  8
0
 62
    43
 10
0.0
 20
0.0
 30
0.0
 70
   128
 71
    15
 72
    13
 73
    11
  0
VERTEX
  5
82
  8
0
 62
    43
 10
0.0
 20
0.0
 30
0.0
 70
   128
 71
    14
 72
     6
 73
     3
  0
VERTEX
  5
83
  8
0
 62
    43
 10
0.0
 20
0.0
 30
0.0
 70
   128
 71
    14
 72
     4
 73
    16
  0
VERTEX
  5
84
  8
0
 62
    43
 10
0.0
 20
0.0
 30
0.0
 70
   128
 71
     2
 72
     5
 73
    17
  0
VERTEX
  5
85
  8
0
 62
    43
 10
0.0
 20
0.0
 30
0.0
 70
   128
 71
    17
 72
     7
 73
     2
  0
VERTEX
  5
86
  8
0
 62
    43
 10
0.0
 20
0.0
 30
0.0
 70
   128
 71
     5
 72
     2
 73
     3
  0
VERTEX
  5
87
  8
0
 62
    43
 10
0.0
 20
0.0
 30
0.0
 70
   128
 71
     9
 72
    12
 73
     8
  0
VERTEX
  5
88
  8
0
 62
    43
 10
0.0
 20
0.0
 30
0.0
 70
   128
 71
     8
 72
    10
 73
     1
  0
VERTEX
  5
89
  8
0
 62
    43
 10
0.0
 20
0.0
 30
0.0
 70
   128
 71
    10
 72
     8
 73
    12
  0
VERTEX
  5
8A
  8
0
 62
    43
 10
0.0
 20
0.0
 30
0.0
 70
   128
 71
    13
 72
    10
 73
    11
  0
VERTEX
  5
8B
  8
0
 62
    43
 10
0.0
 20
0.0
 30
0.0
 70
   128
 71
    20
 72
    19
 73
    18
  0
VERTEX
  5
8C
  8
0
 62
    43
 10
0.0
 20
0.0
 30
0.0
 70
   128
 71
    23
 72
    22
 73
    21
  0
VERTEX
  5
8D
  8
0
 62
    43
 10
0.0
 20
0.0
 30
0.0
 70
   128
 71
    24
 72
     9
 73
     7
  0
VERTEX
  5
8E
  8
0
 62
    43
 10
0.0
 20
0.0
 30
0.0
 70
   128
 71
    25
 72
     9
 73
    24
  0
VERTEX
  5
8F
  8
0
 62
    43
 10
0.0
 20
0.0
 30
0.0
 70
   128
 71
    21
 72
    12
 73
    25
  0
VERTEX
  5
90
  8
0
 62
    43
 10
0.0
 20
0.0
 30
0.0
 70
   128
 71
    12
 72
     9
 73
    25
  0
VERTEX
  5
91
  8
0
 62
    43
 10
0.0
 20
0.0
 30
0.0
 70
   128
 71
    21
 72
    11
 73
    12
  0
VERTEX
  5
92
  8
0
 62
    43
 10
0.0
 20
0.0
 30
0.0
 70
   128
 71
    21
 72
    22
 73
    26
  0
VERTEX
  5
93
  8
0
 62
    43
 10
0.0
 20
0.0
 30
0.0
 70
   128
 71
    11
 72
    21
 73
    15
  0
VERTEX
  5
94
  8
0
 62
    43
 10
0.0
 20
0.0
 30
0.0
 70
   128
 71
    24
 72
     7
 73
    27
  0
VERTEX
  5
95
  8
0
 62
    43
 10
0.0
 20
0.0
 30
0.0
 70
   128
 71
    29
 72
    24
 73
    28
  0
VERTEX
  5
96
  8
0
 62
    43
 10
0.0
 20
0.0
 30
0.0
 70
   128
 71
    27
 72
     7
 73
    17
  0
VERTEX
  5
97
  8
0
 62
    43
 10
0.0
 20
0.0
 30
0.0
 70
   128
 71
     5
 72
    27
 73
    17
  0
VERTEX
  5
98
  8
0
 62
    43
 10
0.0
 20
0.0
 30
0.0
 70
   128
 71
    30
 72
    27
 73
     5
  0
VERTEX
  5
99
  8
0
 62
    43
 10
0.0
 20
0.0
 30
0.0
 70
   128
 71
    30
 72
    18
 73
    19
  0
VERTEX
  5
9A
  8
0
 62
    43
 10
0.0
 20
0.0
 30
0.0
 70
   128
 71
    30
 72
     6
 73
    18
  0
VERTEX
  5
9B
  8
0
 62
    43
 10
0.0
 20
0.0
 30
0.0
 70
   128
 71
    31
 72
    20
 73
    18
  0
VERTEX
  5
9C
  8
0
 62
    43
 10
0.0
 20
0.0
 30
0.0
 70
   128
 71
    18
 72
     6
 73
    14
  0
VERTEX
  5
9D
  8
0
 62
    43
 10
0.0
 20
0.0
 30
0.0
 70
   128
 71
    31
 72
    18
 73
    16
  0
VERTEX
  5
9E
  8
0
 62
    43
 10
0.0
 20
0.0
 30
0.0
 70
   128
 71
    32
 72
    30
 73
    19
  0
VERTEX
  5
9F
  8
0
 62
    43
 10
0.0
 20
0.0
 30
0.0
 70
   128
 71
    18
 72
    14
 73
    16
  0
VERTEX
  5
A0
  8
0
 62
    43
 10
0.0
 20
0.0
 30
0.0
 70
   128
 71
    30
 72
    32
 73
    33
  0
VERTEX
  5
A1
  8
0
 62
    43
 10
0.0
 20
0.0
 30
0.0
 70
   128
 71
     6
 72
    30
 73
     5
  0
VERTEX
  5
A2
  8
0
 62
    43
 10
0.0
 20
0.0
 30
0.0
 70
   128
 71
    33
 72
    27
 73
    30
  0
VERTEX
  5
A3
  8
0
 62
    43
 10
0.0
 20
0.0
 30
0.0
 70
   128
 71
    27
 72
    33
 73
    28
  0
VERTEX
  5
A4
  8
0
 62
    43
 10
0.0
 20
0.0
 30
0.0
 70
   128
 71
    24
 72
    27
 73
    28
  0
VERTEX
  5
A5
  8
0
 62
    43
 10
0.0
 20
0.0
 30
0.0
 70
   128
 71
    34
 72
    25
 73
    29
  0
VERTEX
  5
A6
  8
0
 62
    43
 10
0.0
 20
0.0
 30
0.0
 70
   128
 71
    25
 72
    24
 73
    29
  0
VERTEX
  5
A7
  8
0
 62
    43
 10
0.0
 20
0.0
 30
0.0
 70
   128
 71
    25
 72
    34
 73
    23
  0
VERTEX
  5
A8
  8
0
 62
    43
 10
0.0
 20
0.0
 30
0.0
 70
   128
 71
    21
 72
    25
 73
    23
  0
VERTEX
  5
A9
  8
0
 62
    43
 10
0.0
 20
0.0
 30
0.0
 70
   128
 71
    21
 72
    26
 73
    15
  0
VERTEX
  5
AA
  8
0
 62
    43
 10
0.0
 20
0.0
 30
0.0
 70
   128
 71
    37
 72
    36
 73
    35
  0
VERTEX
  5
AB
  8
0
 62
    43
 10
0.0
 20
0.0
 30
0.0
 70
   128
 71
    40
 72
    39
 73
    38
  0
VERTEX
  5
AC
  8
0
 62
    43
 10
0.0
 20
0.0
 30
0.0
 70
   128
 71
    41
 72
    40
 73
    38
  0
VERTEX
  5
AD
  8
0
 62
    43
 10
0.0
 20
0.0
 30
0.0
 70
   128
 71
    37
 72
    35
 73
    22
  0
VERTEX
  5
AE
  8
0
 62
    43
 10
0.0
 20
0.0
 30
0.0
 70
   128
 71
    43
 72
    42
 73
    20
  0
VERTEX
  5
AF
  8
0
 62
    43
 10
0.0
 20
0.0
 30
0.0
 70
   128
 71
    46
 72
    45
 73
    44
  0
VERTEX
  5
B0
  8
0
 62
    43
 10
0.0
 20
0.0
 30
0.0
 70
   128
 71
    43
 72
    16
 73
    47
  0
VERTEX
  5
B1
  8
0
 62
    43
 10
0.0
 20
0.0
 30
0.0
 70
   128
 71
    43
 72
    47
 73
    44
  0
VERTEX
  5
B2
  8
0
 62
    43
 10
0.0
 20
0.0
 30
0.0
 70
   128
 71
    45
 72
    43
 73
    44
  0
VERTEX
  5
B3
  8
0
 62
    43
 10
0.0
 20
0.0
 30
0.0
 70
   128
 71
    20
 72
    31
 73
    43
  0
VERTEX
  5
B4
  8
0
 62
    43
 10
0.0
 20
0.0
 30
0.0
 70
   128
 71
    39
 72
    40
 73
    48
  0
VERTEX
  5
B5
  8
0
 62
    43
 10
0.0
 20
0.0
 30
0.0
 70
   128
 71
    39
 72
    48
 73
    46
  0
VERTEX
  5
B6
  8
0
 62
    43
 10
0.0
 20
0.0
 30
0.0
 70
   128
 71
    46
 72
    48
 73
    45
  0
VERTEX
  5
B7
  8
0
 62
    43
 10
0.0
 20
0.0
 30
0.0
 70
   128
 71
    49
 72
    35
 73
    36
  0
VERTEX
  5
B8
  8
0
 62
    43
 10
0.0
 20
0.0
 30
0.0
 70
   128
 71
    51
 72
    48
 73
    50
  0
VERTEX
  5
B9
  8
0
 62
    43
 10
0.0
 20
0.0
 30
0.0
 70
   128
 71
    40
 72
    41
 73
    36
  0
VERTEX
  5
BA
  8
0
 62
    43
 10
0.0
 20
0.0
 30
0.0
 70
   128
 71
    15
 72
    26
 73
    35
  0
VERTEX
  5
BB
  8
0
 62
    43
 10
0.0
 20
0.0
 30
0.0
 70
   128
 71
    52
 72
    36
 73
    37
  0
VERTEX
  5
BC
  8
0
 62
    43
 10
0.0
 20
0.0
 30
0.0
 70
   128
 71
    35
 72
    49
 73
    53
  0
VERTEX
  5
BD
  8
0
 62
    43
 10
0.0
 20
0.0
 30
0.0
 70
   128
 71
    35
 72
    53
 73
    15
  0
VERTEX
  5
BE
  8
0
 62
    43
 10
0.0
 20
0.0
 30
0.0
 70
   128
 71
    35
 72
    26
 73
    22
  0
VERTEX
  5
BF
  8
0
 62
    43
 10
0.0
 20
0.0
 30
0.0
 70
   128
 71
    36
 72
    52
 73
    54
  0
VERTEX
  5
C0
  8
0
 62
    43
 10
0.0
 20
0.0
 30
0.0
 70
   128
 71
    49
 72
    36
 73
    41
  0
VERTEX
  5
C1
  8
0
 62
    43
 10
0.0
 20
0.0
 30
0.0
 70
   128
 71
    54
 72
    40
 73
    36
  0
VERTEX
  5
C2
  8
0
 62
    43
 10
0.0
 20
0.0
 30
0.0
 70
   128
 71
    40
 72
    54
 73
    50
  0
VERTEX
  5
C3
  8
0
 62
    43
 10
0.0
 20
0.0
 30
0.0
 70
   128
 71
    48
 72
    40
 73
    50
  0
VERTEX
  5
C4
  8
0
 62
    43
 10
0.0
 20
0.0
 30
0.0
 70
   128
 71
    55
 72
    45
 73
    51
  0
VERTEX
  5
C5
  8
0
 62
    43
 10
0.0
 20
0.0
 30
0.0
 70
   128
 71
    45
 72
    48
 73
    51
  0
VERTEX
  5
C6
  8
0
 62
    43
 10
0.0
 20
0.0
 30
0.0
 70
   128
 71
    45
 72
    55
 73
    42
  0
VERTEX
  5
C7
  8
0
 62
    43
 10
0.0
 20
0.0
 30
0.0
 70
   128
 71
    43
 72
    45
 73
    42
  0
VERTEX
  5
C8
  8
0
 62
    43
 10
0.0
 20
0.0
 30
0.0
 70
   128
 71
    43
 72
    31
 73
    16
  0
VERTEX
  5
C9
  8
0
 62
    43
 10
0.0
 20
0.0
 30
0.0
 70
   128
 71
    53
 72
    49
 73
    56
  0
VERTEX
  5
CA
  8
0
 62
    43
 10
0.0
 20
0.0
 30
0.0
 70
   128
 71
    39
 72
    57
 73
    38
  0
VERTEX
  5
CB
  8
0
 62
    43
 10
0.0
 20
0.0
 30
0.0
 70
   128
 71
    13
 72
    53
 73
    56
  0
VERTEX
  5
CC
  8
0
 62
    43
 10
0.0
 20
0.0
 30
0.0
 70
   128
 71
    15
 72
    53
 73
    13
  0
VERTEX
  5
CD
  8
0
 62
    43
 10
0.0
 20
0.0
 30
0.0
 70
   128
 71
    58
 72
    39
 73
    46
  0
VERTEX
  5
CE
  8
0
 62
    43
 10
0.0
 20
0.0
 30
0.0
 70
   128
 71
    41
 72
    56
 73
    49
  0
VERTEX
  5
CF
  8
0
 62
    43
 10
0.0
 20
0.0
 30
0.0
 70
   128
 71
    47
 72
    59
 73
    44
  0
VERTEX
  5
D0
  8
0
 62
    43
 10
0.0
 20
0.0
 30
0.0
 70
   128
 71
    16
 72
     4
 73
    47
  0
VERTEX
  5
D1
  8
0
 62
    43
 10
0.0
 20
0.0
 30
0.0
 70
   128
 71
    59
 72
     4
 73
     1
  0
VERTEX
  5
D2
  8
0
 62
    43
 10
0.0
 20
0.0
 30
0.0
 70
   128
 71
    56
 72
    57
 73
     1
  0
VERTEX
  5
D3
  8
0
 62
    43
 10
0.0
 20
0.0
 30
0.0
 70
   128
 71
    57
 72
    56
 73
    41
  0
VERTEX
  5
D4
  8
0
 62
    43
 10
0.0
 20
0.0
 30
0.0
 70
   128
 71
     1
 72
    13
 73
    56
  0
VERTEX
  5
D5
  8
0
 62
    43
 10
0.0
 20
0.0
 30
0.0
 70
   128
 71
    57
 72
    41
 73
    38
  0
VERTEX
  5
D6
  8
0
 62
    43
 10
0.0
 20
0.0
 30
0.0
 70
   128
 71
    46
 72
    44
 73
    58
  0
VERTEX
  5
D7
  8
0
 62
    43
 10
0.0
 20
0.0
 30
0.0
 70
   128
 71
    58
 72
     1
 73
    57
  0
VERTEX
  5
D8
  8
0
 62
    43
 10
0.0
 20
0.0
 30
0.0
 70
   128
 71
    39
 72
    58
 73
    57
  0
VERTEX
  5
D9
  8
0
 62
    43
 10
0.0
 20
0.0
 30
0.0
 70
   128
 71
    58
 72
    59
 73
     1
  0
VERTEX
  5
DA
  8
0
 62
    43
 10
0.0
 20
0.0
 30
0.0
 70
   128
 71
    59
 72
    58
 73
    44
  0
VERTEX
  5
DB
  8
0
 62
    43
 10
0.0
 20
0.0
 30
0.0
 70
   128
 71
     4
 72
    59
 73
    47
  0
SEQEND
  5
DC
  8
0
 62
    43
  0
ENDBLK
  5
E0
  8
0
  0
BLOCK
  8
0
  2
ABDECKUNG_OBEN
 70
     0
 10
0.0
 20
0.0
 30
0.0
  3
ABDECKUNG_OBEN
  1

  0
POLYLINE
  5
E2
  8
0
 66
     1
 10
0.0
 20
0.0
 30
0.0
 70
    64
 71
    71
 72
   110
  0
VERTEX
  5
E3
  8
0
 10
11.46745491027832
 20
-177.7445526123047
 30
59.40172576904297
 70
   192
  0
VERTEX
  5
E4
  8
0
 10
5.847247123718262
 20
-180.0
 30
59.82901763916016
 70
   192
  0
VERTEX
  5
E5
  8
0
 10
4.134627819061279
 20
-175.8653717041016
 30
59.82901763916016
 70
   192
  0
VERTEX
  5
E6
  8
0
 10
10.80409145355225
 20
-175.5469665527344
 30
59.40172576904297
 70
   192
  0
VERTEX
  5
E7
  8
0
 10
0.0000000000000365
 20
-180.0
 30
59.97156143188477
 70
   192
  0
VERTEX
  5
E8
  8
0
 10
11.68060207366943
 20
-180.0
 30
59.40172576904297
 70
   192
  0
VERTEX
  5
E9
  8
0
 10
8.223062515258789
 20
-171.7714385986328
 30
59.40172576904297
 70
   192
  0
VERTEX
  5
EA
  8
0
 10
9.72779655456543
 20
-173.5179901123047
 30
59.40172576904297
 70
   192
  0
VERTEX
  5
EB
  8
0
 10
6.491425037384033
 20
-170.2882385253906
 30
59.40172576904297
 70
   192
  0
VERTEX
  5
EC
  8
0
 10
-0.0000000005775816
 20
-174.1527557373047
 30
59.82901763916016
 70
   192
  0
VERTEX
  5
ED
  8
0
 10
0.0000000551261827
 20
-168.3198699951172
 30
59.40172576904297
 70
   192
  0
VERTEX
  5
EE
  8
0
 10
2.278441429138184
 20
-168.5436859130859
 30
59.40172576904297
 70
   192
  0
VERTEX
  5
EF
  8
0
 10
4.469834327697754
 20
-169.2081451416016
 30
59.40172576904297
 70
   192
  0
VERTEX
  5
F0
  8
0
 10
-2.279053688049316
 20
-168.5441589355469
 30
59.40172576904297
 70
   192
  0
VERTEX
  5
F1
  8
0
 10
-4.134627819061279
 20
-175.8653717041016
 30
59.82901763916016
 70
   192
  0
VERTEX
  5
F2
  8
0
 10
-4.471147537231445
 20
-169.2095184326172
 30
59.40172576904297
 70
   192
  0
VERTEX
  5
F3
  8
0
 10
-8.270426750183105
 20
-171.7621917724609
 30
59.40172576904297
 70
   192
  0
VERTEX
  5
F4
  8
0
 10
-6.483007431030273
 20
-170.2942810058594
 30
59.40172576904297
 70
   192
  0
VERTEX
  5
F5
  8
0
 10
-9.718823432922363
 20
-173.5317840576172
 30
59.40172576904297
 70
   192
  0
VERTEX
  5
F6
  8
0
 10
-5.847247123718262
 20
-180.0
 30
59.82901763916016
 70
   192
  0
VERTEX
  5
F7
  8
0
 10
-11.68060207366943
 20
-180.0
 30
59.40172576904297
 70
   192
  0
VERTEX
  5
F8
  8
0
 10
-11.45695686340332
 20
-177.7489929199219
 30
59.40172576904297
 70
   192
  0
VERTEX
  5
F9
  8
0
 10
-10.79507923126221
 20
-175.5528259277344
 30
59.40172576904297
 70
   192
  0
VERTEX
  5
FA
  8
0
 10
-11.46737766265869
 20
-182.2558441162109
 30
59.40172576904297
 70
   192
  0
VERTEX
  5
FB
  8
0
 10
-4.134627819061279
 20
-184.1346282958984
 30
59.82901763916016
 70
   192
  0
VERTEX
  5
FC
  8
0
 10
-10.80378913879395
 20
-184.4537811279297
 30
59.40172576904297
 70
   192
  0
VERTEX
  5
FD
  8
0
 10
-8.221956253051758
 20
-188.2297210693359
 30
59.40172576904297
 70
   192
  0
VERTEX
  5
FE
  8
0
 10
-9.727112770080566
 20
-186.4830169677734
 30
59.40172576904297
 70
   192
  0
VERTEX
  5
FF
  8
0
 10
-6.489765167236328
 20
-189.712890625
 30
59.40172576904297
 70
   192
  0
VERTEX
  5
100
  8
0
 10
-0.000000000580671
 20
-185.8472595214844
 30
59.82901763916016
 70
   192
  0
VERTEX
  5
101
  8
0
 10
0.000000050548131
 20
-191.6800079345703
 30
59.40172576904297
 70
   192
  0
VERTEX
  5
102
  8
0
 10
-2.275702238082886
 20
-191.4568786621094
 30
59.40172576904297
 70
   192
  0
VERTEX
  5
103
  8
0
 10
-4.467619895935059
 20
-190.7927703857422
 30
59.40172576904297
 70
   192
  0
VERTEX
  5
104
  8
0
 10
1.267145872116089
 20
-167.9551544189453
 30
57.63000106811523
 70
   192
  0
VERTEX
  5
105
  8
0
 10
3.743008613586426
 20
-168.4823150634766
 30
57.63000106811523
 70
   192
  0
VERTEX
  5
106
  8
0
 10
-1.26353657245636
 20
-167.9544982910156
 30
57.63000106811523
 70
   192
  0
VERTEX
  5
107
  8
0
 10
6.055254936218262
 20
-169.5115051269531
 30
57.63000106811523
 70
   192
  0
VERTEX
  5
108
  8
0
 10
8.100799560546875
 20
-171.0009918212891
 30
57.63000106811523
 70
   192
  0
VERTEX
  5
109
  8
0
 10
9.79210090637207
 20
-172.8875122070312
 30
57.63000106811523
 70
   192
  0
VERTEX
  5
10A
  8
0
 10
11.06099128723145
 20
-175.0758514404297
 30
57.63000106811523
 70
   192
  0
VERTEX
  5
10B
  8
0
 10
11.84661293029785
 20
-177.4849548339844
 30
57.63000106811523
 70
   192
  0
VERTEX
  5
10C
  8
0
 10
12.11164379119873
 20
-180.0
 30
57.63000106811523
 70
   192
  0
VERTEX
  5
10D
  8
0
 10
-3.740243911743164
 20
-168.4799346923828
 30
57.63000106811523
 70
   192
  0
VERTEX
  5
10E
  8
0
 10
-6.051986694335938
 20
-169.5080871582031
 30
57.63000106811523
 70
   192
  0
VERTEX
  5
10F
  8
0
 10
-8.097990989685059
 20
-170.9995422363281
 30
57.63000106811523
 70
   192
  0
VERTEX
  5
110
  8
0
 10
-9.770711898803711
 20
-172.9013061523438
 30
57.63000106811523
 70
   192
  0
VERTEX
  5
111
  8
0
 10
-11.06658458709717
 20
-175.0715789794922
 30
57.63000106811523
 70
   192
  0
VERTEX
  5
112
  8
0
 10
-11.84732532501221
 20
-177.4801788330078
 30
57.63000106811523
 70
   192
  0
VERTEX
  5
113
  8
0
 10
-12.11164379119873
 20
-180.0
 30
57.63000106811523
 70
   192
  0
VERTEX
  5
114
  8
0
 10
11.45703792572021
 20
-182.2506256103516
 30
59.40172576904297
 70
   192
  0
VERTEX
  5
115
  8
0
 10
9.719493865966797
 20
-186.4672088623047
 30
59.40172576904297
 70
   192
  0
VERTEX
  5
116
  8
0
 10
10.79538440704346
 20
-184.4464569091797
 30
59.40172576904297
 70
   192
  0
VERTEX
  5
117
  8
0
 10
11.06658458709717
 20
-184.9284210205078
 30
57.63000106811523
 70
   192
  0
VERTEX
  5
118
  8
0
 10
6.484629154205322
 20
-189.7046051025391
 30
59.40172576904297
 70
   192
  0
VERTEX
  5
119
  8
0
 10
6.051986694335938
 20
-190.4919281005859
 30
57.63000106811523
 70
   192
  0
VERTEX
  5
11A
  8
0
 10
4.473366260528564
 20
-190.7895660400391
 30
59.40172576904297
 70
   192
  0
VERTEX
  5
11B
  8
0
 10
8.097990989685059
 20
-189.0004730224609
 30
57.63000106811523
 70
   192
  0
VERTEX
  5
11C
  8
0
 10
8.271565437316895
 20
-188.2366790771484
 30
59.40172576904297
 70
   192
  0
VERTEX
  5
11D
  8
0
 10
9.770711898803711
 20
-187.0987091064453
 30
57.63000106811523
 70
   192
  0
VERTEX
  5
11E
  8
0
 10
-1.267145872116089
 20
-192.0448455810547
 30
57.63000106811523
 70
   192
  0
VERTEX
  5
11F
  8
0
 10
1.26353657245636
 20
-192.0455017089844
 30
57.63000106811523
 70
   192
  0
VERTEX
  5
120
  8
0
 10
2.281789541244507
 20
-191.4553070068359
 30
59.40172576904297
 70
   192
  0
VERTEX
  5
121
  8
0
 10
-8.100799560546875
 20
-188.9990234375
 30
57.63000106811523
 70
   192
  0
VERTEX
  5
122
  8
0
 10
-6.055254936218262
 20
-190.4884948730469
 30
57.63000106811523
 70
   192
  0
VERTEX
  5
123
  8
0
 10
-3.743008613586426
 20
-191.5177001953125
 30
57.63000106811523
 70
   192
  0
VERTEX
  5
124
  8
0
 10
-9.79210090637207
 20
-187.1124877929688
 30
57.63000106811523
 70
   192
  0
VERTEX
  5
125
  8
0
 10
-11.06099128723145
 20
-184.9241638183594
 30
57.63000106811523
 70
   192
  0
VERTEX
  5
126
  8
0
 10
-11.84661293029785
 20
-182.5150604248047
 30
57.63000106811523
 70
   192
  0
VERTEX
  5
127
  8
0
 10
3.740243911743164
 20
-191.5200653076172
 30
57.63000106811523
 70
   192
  0
VERTEX
  5
128
  8
0
 10
11.84732532501221
 20
-182.5198364257812
 30
57.63000106811523
 70
   192
  0
VERTEX
  5
129
  8
0
 10
4.134627819061279
 20
-184.1346282958984
 30
59.82901763916016
 70
   192
  0
VERTEX
  5
12A
  8
0
 62
   253
 10
0.0
 20
0.0
 30
0.0
 70
   128
 71
     3
 72
     2
 73
     1
  0
VERTEX
  5
12B
  8
0
 62
   253
 10
0.0
 20
0.0
 30
0.0
 70
   128
 71
     1
 72
     4
 73
     3
  0
VERTEX
  5
12C
  8
0
 62
   253
 10
0.0
 20
0.0
 30
0.0
 70
   128
 71
     2
 72
     3
 73
     5
  0
VERTEX
  5
12D
  8
0
 62
   253
 10
0.0
 20
0.0
 30
0.0
 70
   128
 71
     2
 72
     6
 73
     1
  0
VERTEX
  5
12E
  8
0
 62
   253
 10
0.0
 20
0.0
 30
0.0
 70
   128
 71
     3
 72
     8
 73
     7
  0
VERTEX
  5
12F
  8
0
 62
   253
 10
0.0
 20
0.0
 30
0.0
 70
   128
 71
     4
 72
     8
 73
     3
  0
VERTEX
  5
130
  8
0
 62
   253
 10
0.0
 20
0.0
 30
0.0
 70
   128
 71
     9
 72
     3
 73
     7
  0
VERTEX
  5
131
  8
0
 62
   253
 10
0.0
 20
0.0
 30
0.0
 70
   128
 71
    12
 72
    11
 73
    10
  0
VERTEX
  5
132
  8
0
 62
   253
 10
0.0
 20
0.0
 30
0.0
 70
   128
 71
     9
 72
    10
 73
     3
  0
VERTEX
  5
133
  8
0
 62
   253
 10
0.0
 20
0.0
 30
0.0
 70
   128
 71
    13
 72
    12
 73
    10
  0
VERTEX
  5
134
  8
0
 62
   253
 10
0.0
 20
0.0
 30
0.0
 70
   128
 71
     9
 72
    13
 73
    10
  0
VERTEX
  5
135
  8
0
 62
   253
 10
0.0
 20
0.0
 30
0.0
 70
   128
 71
     5
 72
     3
 73
    10
  0
VERTEX
  5
136
  8
0
 62
   253
 10
0.0
 20
0.0
 30
0.0
 70
   128
 71
    15
 72
    10
 73
    14
  0
VERTEX
  5
137
  8
0
 62
   253
 10
0.0
 20
0.0
 30
0.0
 70
   128
 71
    14
 72
    16
 73
    15
  0
VERTEX
  5
138
  8
0
 62
   253
 10
0.0
 20
0.0
 30
0.0
 70
   128
 71
    10
 72
    15
 73
     5
  0
VERTEX
  5
139
  8
0
 62
   253
 10
0.0
 20
0.0
 30
0.0
 70
   128
 71
    10
 72
    11
 73
    14
  0
VERTEX
  5
13A
  8
0
 62
   253
 10
0.0
 20
0.0
 30
0.0
 70
   128
 71
    15
 72
    18
 73
    17
  0
VERTEX
  5
13B
  8
0
 62
   253
 10
0.0
 20
0.0
 30
0.0
 70
   128
 71
    16
 72
    18
 73
    15
  0
VERTEX
  5
13C
  8
0
 62
   253
 10
0.0
 20
0.0
 30
0.0
 70
   128
 71
    19
 72
    15
 73
    17
  0
VERTEX
  5
13D
  8
0
 62
   253
 10
0.0
 20
0.0
 30
0.0
 70
   128
 71
    22
 72
    21
 73
    20
  0
VERTEX
  5
13E
  8
0
 62
   253
 10
0.0
 20
0.0
 30
0.0
 70
   128
 71
    19
 72
    20
 73
    15
  0
VERTEX
  5
13F
  8
0
 62
   253
 10
0.0
 20
0.0
 30
0.0
 70
   128
 71
    23
 72
    22
 73
    20
  0
VERTEX
  5
140
  8
0
 62
   253
 10
0.0
 20
0.0
 30
0.0
 70
   128
 71
    19
 72
    23
 73
    20
  0
VERTEX
  5
141
  8
0
 62
   253
 10
0.0
 20
0.0
 30
0.0
 70
   128
 71
     5
 72
    15
 73
    20
  0
VERTEX
  5
142
  8
0
 62
   253
 10
0.0
 20
0.0
 30
0.0
 70
   128
 71
    25
 72
    20
 73
    24
  0
VERTEX
  5
143
  8
0
 62
   253
 10
0.0
 20
0.0
 30
0.0
 70
   128
 71
    24
 72
    26
 73
    25
  0
VERTEX
  5
144
  8
0
 62
   253
 10
0.0
 20
0.0
 30
0.0
 70
   128
 71
    20
 72
    25
 73
     5
  0
VERTEX
  5
145
  8
0
 62
   253
 10
0.0
 20
0.0
 30
0.0
 70
   128
 71
    20
 72
    21
 73
    24
  0
VERTEX
  5
146
  8
0
 62
   253
 10
0.0
 20
0.0
 30
0.0
 70
   128
 71
    25
 72
    28
 73
    27
  0
VERTEX
  5
147
  8
0
 62
   253
 10
0.0
 20
0.0
 30
0.0
 70
   128
 71
    26
 72
    28
 73
    25
  0
VERTEX
  5
148
  8
0
 62
   253
 10
0.0
 20
0.0
 30
0.0
 70
   128
 71
    29
 72
    25
 73
    27
  0
VERTEX
  5
149
  8
0
 62
   253
 10
0.0
 20
0.0
 30
0.0
 70
   128
 71
    32
 72
    31
 73
    30
  0
VERTEX
  5
14A
  8
0
 62
   253
 10
0.0
 20
0.0
 30
0.0
 70
   128
 71
    29
 72
    30
 73
    25
  0
VERTEX
  5
14B
  8
0
 62
   253
 10
0.0
 20
0.0
 30
0.0
 70
   128
 71
    33
 72
    32
 73
    30
  0
VERTEX
  5
14C
  8
0
 62
   253
 10
0.0
 20
0.0
 30
0.0
 70
   128
 71
    29
 72
    33
 73
    30
  0
VERTEX
  5
14D
  8
0
 62
   253
 10
0.0
 20
0.0
 30
0.0
 70
   128
 71
     5
 72
    25
 73
    30
  0
VERTEX
  5
14E
  8
0
 62
     9
 10
0.0
 20
0.0
 30
0.0
 70
   128
 71
    35
 72
    34
 73
    12
  0
VERTEX
  5
14F
  8
0
 62
     9
 10
0.0
 20
0.0
 30
0.0
 70
   128
 71
    36
 72
    11
 73
    34
  0
VERTEX
  5
150
  8
0
 62
     9
 10
0.0
 20
0.0
 30
0.0
 70
   128
 71
    13
 72
    35
 73
    12
  0
VERTEX
  5
151
  8
0
 62
     9
 10
0.0
 20
0.0
 30
0.0
 70
   128
 71
    35
 72
    13
 73
    37
  0
VERTEX
  5
152
  8
0
 62
     9
 10
0.0
 20
0.0
 30
0.0
 70
   128
 71
     9
 72
     7
 73
    38
  0
VERTEX
  5
153
  8
0
 62
     9
 10
0.0
 20
0.0
 30
0.0
 70
   128
 71
     7
 72
     8
 73
    39
  0
VERTEX
  5
154
  8
0
 62
     9
 10
0.0
 20
0.0
 30
0.0
 70
   128
 71
     9
 72
    38
 73
    37
  0
VERTEX
  5
155
  8
0
 62
     9
 10
0.0
 20
0.0
 30
0.0
 70
   128
 71
     7
 72
    39
 73
    38
  0
VERTEX
  5
156
  8
0
 62
     9
 10
0.0
 20
0.0
 30
0.0
 70
   128
 71
     8
 72
    40
 73
    39
  0
VERTEX
  5
157
  8
0
 62
     9
 10
0.0
 20
0.0
 30
0.0
 70
   128
 71
    11
 72
    12
 73
    34
  0
VERTEX
  5
158
  8
0
 62
     9
 10
0.0
 20
0.0
 30
0.0
 70
   128
 71
    13
 72
     9
 73
    37
  0
VERTEX
  5
159
  8
0
 62
     9
 10
0.0
 20
0.0
 30
0.0
 70
   128
 71
    41
 72
    40
 73
     4
  0
VERTEX
  5
15A
  8
0
 62
     9
 10
0.0
 20
0.0
 30
0.0
 70
   128
 71
    42
 72
    41
 73
     1
  0
VERTEX
  5
15B
  8
0
 62
     9
 10
0.0
 20
0.0
 30
0.0
 70
   128
 71
     1
 72
    41
 73
     4
  0
VERTEX
  5
15C
  8
0
 62
     9
 10
0.0
 20
0.0
 30
0.0
 70
   128
 71
     8
 72
     4
 73
    40
  0
VERTEX
  5
15D
  8
0
 62
     9
 10
0.0
 20
0.0
 30
0.0
 70
   128
 71
    42
 72
     1
 73
     6
  0
VERTEX
  5
15E
  8
0
 62
     9
 10
0.0
 20
0.0
 30
0.0
 70
   128
 71
    36
 72
    43
 73
    14
  0
VERTEX
  5
15F
  8
0
 62
     9
 10
0.0
 20
0.0
 30
0.0
 70
   128
 71
    14
 72
    11
 73
    36
  0
VERTEX
  5
160
  8
0
 62
     9
 10
0.0
 20
0.0
 30
0.0
 70
   128
 71
    16
 72
    43
 73
    44
  0
VERTEX
  5
161
  8
0
 62
     9
 10
0.0
 20
0.0
 30
0.0
 70
   128
 71
    43
 72
    16
 73
    14
  0
VERTEX
  5
162
  8
0
 62
     9
 10
0.0
 20
0.0
 30
0.0
 70
   128
 71
    45
 72
    18
 73
    44
  0
VERTEX
  5
163
  8
0
 62
     9
 10
0.0
 20
0.0
 30
0.0
 70
   128
 71
    16
 72
    44
 73
    18
  0
VERTEX
  5
164
  8
0
 62
     9
 10
0.0
 20
0.0
 30
0.0
 70
   128
 71
    45
 72
    46
 73
    17
  0
VERTEX
  5
165
  8
0
 62
     9
 10
0.0
 20
0.0
 30
0.0
 70
   128
 71
    17
 72
    18
 73
    45
  0
VERTEX
  5
166
  8
0
 62
     9
 10
0.0
 20
0.0
 30
0.0
 70
   128
 71
    19
 72
    46
 73
    47
  0
VERTEX
  5
167
  8
0
 62
     9
 10
0.0
 20
0.0
 30
0.0
 70
   128
 71
    46
 72
    19
 73
    17
  0
VERTEX
  5
168
  8
0
 62
     9
 10
0.0
 20
0.0
 30
0.0
 70
   128
 71
    48
 72
    23
 73
    47
  0
VERTEX
  5
169
  8
0
 62
     9
 10
0.0
 20
0.0
 30
0.0
 70
   128
 71
    19
 72
    47
 73
    23
  0
VERTEX
  5
16A
  8
0
 62
     9
 10
0.0
 20
0.0
 30
0.0
 70
   128
 71
    48
 72
    49
 73
    22
  0
VERTEX
  5
16B
  8
0
 62
     9
 10
0.0
 20
0.0
 30
0.0
 70
   128
 71
    22
 72
    23
 73
    48
  0
VERTEX
  5
16C
  8
0
 62
     9
 10
0.0
 20
0.0
 30
0.0
 70
   128
 71
    49
 72
    21
 73
    22
  0
VERTEX
  5
16D
  8
0
 62
     9
 10
0.0
 20
0.0
 30
0.0
 70
   128
 71
    42
 72
     6
 73
    50
  0
VERTEX
  5
16E
  8
0
 62
     9
 10
0.0
 20
0.0
 30
0.0
 70
   128
 71
    53
 72
    52
 73
    51
  0
VERTEX
  5
16F
  8
0
 62
     9
 10
0.0
 20
0.0
 30
0.0
 70
   128
 71
    56
 72
    55
 73
    54
  0
VERTEX
  5
170
  8
0
 62
     9
 10
0.0
 20
0.0
 30
0.0
 70
   128
 71
    59
 72
    58
 73
    57
  0
VERTEX
  5
171
  8
0
 62
     9
 10
0.0
 20
0.0
 30
0.0
 70
   128
 71
    60
 72
    31
 73
    32
  0
VERTEX
  5
172
  8
0
 62
     9
 10
0.0
 20
0.0
 30
0.0
 70
   128
 71
    62
 72
    31
 73
    61
  0
VERTEX
  5
173
  8
0
 62
     9
 10
0.0
 20
0.0
 30
0.0
 70
   128
 71
    64
 72
    29
 73
    63
  0
VERTEX
  5
174
  8
0
 62
     9
 10
0.0
 20
0.0
 30
0.0
 70
   128
 71
    33
 72
    64
 73
    65
  0
VERTEX
  5
175
  8
0
 62
     9
 10
0.0
 20
0.0
 30
0.0
 70
   128
 71
    66
 72
    27
 73
    28
  0
VERTEX
  5
176
  8
0
 62
     9
 10
0.0
 20
0.0
 30
0.0
 70
   128
 71
    27
 72
    66
 73
    63
  0
VERTEX
  5
177
  8
0
 62
     9
 10
0.0
 20
0.0
 30
0.0
 70
   128
 71
    26
 72
    67
 73
    28
  0
VERTEX
  5
178
  8
0
 62
     9
 10
0.0
 20
0.0
 30
0.0
 70
   128
 71
    66
 72
    28
 73
    67
  0
VERTEX
  5
179
  8
0
 62
     9
 10
0.0
 20
0.0
 30
0.0
 70
   128
 71
    26
 72
    24
 73
    68
  0
VERTEX
  5
17A
  8
0
 62
     9
 10
0.0
 20
0.0
 30
0.0
 70
   128
 71
    68
 72
    67
 73
    26
  0
VERTEX
  5
17B
  8
0
 62
     9
 10
0.0
 20
0.0
 30
0.0
 70
   128
 71
    49
 72
    24
 73
    21
  0
VERTEX
  5
17C
  8
0
 62
     9
 10
0.0
 20
0.0
 30
0.0
 70
   128
 71
    24
 72
    49
 73
    68
  0
VERTEX
  5
17D
  8
0
 62
     9
 10
0.0
 20
0.0
 30
0.0
 70
   128
 71
    29
 72
    27
 73
    63
  0
VERTEX
  5
17E
  8
0
 62
     9
 10
0.0
 20
0.0
 30
0.0
 70
   128
 71
    33
 72
    29
 73
    64
  0
VERTEX
  5
17F
  8
0
 62
     9
 10
0.0
 20
0.0
 30
0.0
 70
   128
 71
    32
 72
    33
 73
    65
  0
VERTEX
  5
180
  8
0
 62
     9
 10
0.0
 20
0.0
 30
0.0
 70
   128
 71
    61
 72
    31
 73
    60
  0
VERTEX
  5
181
  8
0
 62
     9
 10
0.0
 20
0.0
 30
0.0
 70
   128
 71
    65
 72
    60
 73
    32
  0
VERTEX
  5
182
  8
0
 62
     9
 10
0.0
 20
0.0
 30
0.0
 70
   128
 71
    56
 72
    62
 73
    69
  0
VERTEX
  5
183
  8
0
 62
     9
 10
0.0
 20
0.0
 30
0.0
 70
   128
 71
    61
 72
    69
 73
    62
  0
VERTEX
  5
184
  8
0
 62
     9
 10
0.0
 20
0.0
 30
0.0
 70
   128
 71
    54
 72
    57
 73
    58
  0
VERTEX
  5
185
  8
0
 62
     9
 10
0.0
 20
0.0
 30
0.0
 70
   128
 71
    55
 72
    57
 73
    54
  0
VERTEX
  5
186
  8
0
 62
     9
 10
0.0
 20
0.0
 30
0.0
 70
   128
 71
    56
 72
    69
 73
    55
  0
VERTEX
  5
187
  8
0
 62
     9
 10
0.0
 20
0.0
 30
0.0
 70
   128
 71
    58
 72
    59
 73
    51
  0
VERTEX
  5
188
  8
0
 62
     9
 10
0.0
 20
0.0
 30
0.0
 70
   128
 71
    53
 72
    51
 73
    59
  0
VERTEX
  5
189
  8
0
 62
     9
 10
0.0
 20
0.0
 30
0.0
 70
   128
 71
    52
 72
    70
 73
    50
  0
VERTEX
  5
18A
  8
0
 62
     9
 10
0.0
 20
0.0
 30
0.0
 70
   128
 71
    70
 72
    52
 73
    53
  0
VERTEX
  5
18B
  8
0
 62
     9
 10
0.0
 20
0.0
 30
0.0
 70
   128
 71
    50
 72
    70
 73
    42
  0
VERTEX
  5
18C
  8
0
 62
   253
 10
0.0
 20
0.0
 30
0.0
 70
   128
 71
    71
 72
    30
 73
    62
  0
VERTEX
  5
18D
  8
0
 62
   253
 10
0.0
 20
0.0
 30
0.0
 70
   128
 71
    62
 72
    56
 73
    71
  0
VERTEX
  5
18E
  8
0
 62
   253
 10
0.0
 20
0.0
 30
0.0
 70
   128
 71
    30
 72
    71
 73
     5
  0
VERTEX
  5
18F
  8
0
 62
   253
 10
0.0
 20
0.0
 30
0.0
 70
   128
 71
    30
 72
    31
 73
    62
  0
VERTEX
  5
190
  8
0
 62
   253
 10
0.0
 20
0.0
 30
0.0
 70
   128
 71
    71
 72
    54
 73
    58
  0
VERTEX
  5
191
  8
0
 62
   253
 10
0.0
 20
0.0
 30
0.0
 70
   128
 71
    56
 72
    54
 73
    71
  0
VERTEX
  5
192
  8
0
 62
   253
 10
0.0
 20
0.0
 30
0.0
 70
   128
 71
    51
 72
    71
 73
    58
  0
VERTEX
  5
193
  8
0
 62
   253
 10
0.0
 20
0.0
 30
0.0
 70
   128
 71
    50
 72
     6
 73
     2
  0
VERTEX
  5
194
  8
0
 62
   253
 10
0.0
 20
0.0
 30
0.0
 70
   128
 71
    51
 72
     2
 73
    71
  0
VERTEX
  5
195
  8
0
 62
   253
 10
0.0
 20
0.0
 30
0.0
 70
   128
 71
    52
 72
    50
 73
     2
  0
VERTEX
  5
196
  8
0
 62
   253
 10
0.0
 20
0.0
 30
0.0
 70
   128
 71
    51
 72
    52
 73
     2
  0
VERTEX
  5
197
  8
0
 62
   253
 10
0.0
 20
0.0
 30
0.0
 70
   128
 71
     5
 72
    71
 73
     2
  0
SEQEND
  5
198
  8
0
  0
ENDBLK
  5
19B
  8
0
  0
BLOCK
  8
0
  2
RING_OBEN
 70
     0
 10
0.0
 20
0.0
 30
0.0
  3
RING_OBEN
  1

  0
POLYLINE
  5
19D
  8
0
 62
     9
 66
     1
 10
0.0
 20
0.0
 30
0.0
 70
    64
 71
   122
 72
   191
  0
VERTEX
  5
19E
  8
0
 10
5.650000095367432
 20
-190.8941345214844
 30
49.93000030517578
 70
   192
  0
VERTEX
  5
19F
  8
0
 10
5.790730953216553
 20
-192.5316162109375
 30
49.89348602294922
 70
   192
  0
VERTEX
  5
1A0
  8
0
 10
4.895117282867432
 20
-191.0901336669922
 30
47.12707138061523
 70
   192
  0
VERTEX
  5
1A1
  8
0
 10
5.012557029724121
 20
-193.4051971435547
 30
47.07795715332031
 70
   192
  0
VERTEX
  5
1A2
  8
0
 10
2.85322093963623
 20
-191.2358551025391
 30
45.04300308227539
 70
   192
  0
VERTEX
  5
1A3
  8
0
 10
2.942134141921997
 20
-194.3555755615234
 30
45.02665328979492
 70
   192
  0
VERTEX
  5
1A4
  8
0
 10
0.0000000000000803
 20
-194.7928314208984
 30
44.23258972167969
 70
   192
  0
VERTEX
  5
1A5
  8
0
 10
0.0000000000000777
 20
-191.2882537841797
 30
44.29376220703125
 70
   192
  0
VERTEX
  5
1A6
  8
0
 10
2.786083698272705
 20
-190.5533752441406
 30
54.80304718017578
 70
   192
  0
VERTEX
  5
1A7
  8
0
 10
2.927320003509521
 20
-192.4049835205078
 30
55.06907272338867
 70
   192
  0
VERTEX
  5
1A8
  8
0
 10
4.853814601898193
 20
-190.6959533691406
 30
52.76402282714844
 70
   192
  0
VERTEX
  5
1A9
  8
0
 10
5.038323879241943
 20
-192.2274475097656
 30
52.86112594604492
 70
   192
  0
VERTEX
  5
1AA
  8
0
 10
0.000000000000078
 20
-190.5
 30
55.56623840332031
 70
   192
  0
VERTEX
  5
1AB
  8
0
 10
0.000000000000062
 20
-165.1214447021484
 30
43.68441390991211
 70
   192
  0
VERTEX
  5
1AC
  8
0
 10
0.000000000000059
 20
-167.8500061035156
 30
57.63000106811523
 70
   192
  0
VERTEX
  5
1AD
  8
0
 10
-3.263919115066528
 20
-165.4877014160156
 30
43.6658821105957
 70
   192
  0
VERTEX
  5
1AE
  8
0
 10
-10.82357501983643
 20
-190.2422943115234
 30
43.6658821105957
 70
   192
  0
VERTEX
  5
1AF
  8
0
 10
-13.76519107818604
 20
-185.6658477783203
 30
43.6658821105957
 70
   192
  0
VERTEX
  5
1B0
  8
0
 10
-10.53706550598145
 20
-186.0421600341797
 30
57.63000106811523
 70
   192
  0
VERTEX
  5
1B1
  8
0
 10
-14.86417484283447
 20
-179.9380798339844
 30
43.6658821105957
 70
   192
  0
VERTEX
  5
1B2
  8
0
 10
-11.738938331604
 20
-183.0997314453125
 30
57.63000106811523
 70
   192
  0
VERTEX
  5
1B3
  8
0
 10
-7.034731864929199
 20
-193.1377868652344
 30
43.6658821105957
 70
   192
  0
VERTEX
  5
1B4
  8
0
 10
-6.108843803405762
 20
-190.4925231933594
 30
57.63000106811523
 70
   192
  0
VERTEX
  5
1B5
  8
0
 10
-2.934599637985229
 20
-194.3582153320312
 30
45.02149200439453
 70
   192
  0
VERTEX
  5
1B6
  8
0
 10
-3.632613182067871
 20
-196.1064758300781
 30
29.57391738891602
 70
   192
  0
VERTEX
  5
1B7
  8
0
 10
-5.006664752960205
 20
-193.4093475341797
 30
47.06735992431641
 70
   192
  0
VERTEX
  5
1B8
  8
0
 10
-8.591347694396973
 20
-188.5913543701172
 30
57.63000106811523
 70
   192
  0
VERTEX
  5
1B9
  8
0
 10
-5.790674686431885
 20
-192.5325012207031
 30
49.88944244384766
 70
   192
  0
VERTEX
  5
1BA
  8
0
 10
0.0000000000000818
 20
-196.4790649414062
 30
29.82675933837891
 70
   192
  0
VERTEX
  5
1BB
  8
0
 10
0.0000000000000835
 20
-197.0000457763672
 30
15.35410785675049
 70
   192
  0
VERTEX
  5
1BC
  8
0
 10
-5.039606094360352
 20
-192.2273864746094
 30
52.85919952392578
 70
   192
  0
VERTEX
  5
1BD
  8
0
 10
-11.7232837677002
 20
-176.8216247558594
 30
57.63000106811523
 70
   192
  0
VERTEX
  5
1BE
  8
0
 10
-12.14999961853027
 20
-180.0
 30
57.63000106811523
 70
   192
  0
VERTEX
  5
1BF
  8
0
 10
-15.26064205169678
 20
-186.2813873291016
 30
29.57391738891602
 70
   192
  0
VERTEX
  5
1C0
  8
0
 10
-13.69352626800537
 20
-174.2478485107422
 30
43.6658821105957
 70
   192
  0
VERTEX
  5
1C1
  8
0
 10
-3.178378105163574
 20
-191.7232818603516
 30
57.63000106811523
 70
   192
  0
VERTEX
  5
1C2
  8
0
 10
-2.929659605026245
 20
-192.40478515625
 30
55.06774520874023
 70
   192
  0
VERTEX
  5
1C3
  8
0
 10
-10.49252223968506
 20
-173.8911590576172
 30
57.63000106811523
 70
   192
  0
VERTEX
  5
1C4
  8
0
 10
-16.87627029418945
 20
-182.0369110107422
 30
15.35410785675049
 70
   192
  0
VERTEX
  5
1C5
  8
0
 10
-16.87290954589844
 20
-177.9381103515625
 30
15.35410785675049
 70
   192
  0
VERTEX
  5
1C6
  8
0
 10
-16.4790210723877
 20
-179.9313507080078
 30
29.57391738891602
 70
   192
  0
VERTEX
  5
1C7
  8
0
 10
-10.7424259185791
 20
-169.7395324707031
 30
43.6658821105957
 70
   192
  0
VERTEX
  5
1C8
  8
0
 10
-8.591347694396973
 20
-171.4086608886719
 30
57.63000106811523
 70
   192
  0
VERTEX
  5
1C9
  8
0
 10
-6.042160511016846
 20
-169.4629364013672
 30
57.63000106811523
 70
   192
  0
VERTEX
  5
1CA
  8
0
 10
-6.988903045654297
 20
-166.8802337646484
 30
43.6658821105957
 70
   192
  0
VERTEX
  5
1CB
  8
0
 10
-3.178378105163574
 20
-168.2767181396484
 30
57.63000106811523
 70
   192
  0
VERTEX
  5
1CC
  8
0
 10
-7.748178005218506
 20
-165.4548950195312
 30
29.57391738891602
 70
   192
  0
VERTEX
  5
1CD
  8
0
 10
-4.051150798797607
 20
-163.6050872802734
 30
15.35410785675049
 70
   192
  0
VERTEX
  5
1CE
  8
0
 10
0.0000000000000595
 20
-162.9999694824219
 30
15.35410785675049
 70
   192
  0
VERTEX
  5
1CF
  8
0
 10
-3.61851167678833
 20
-163.9110870361328
 30
29.57391738891602
 70
   192
  0
VERTEX
  5
1D0
  8
0
 10
-7.896167278289795
 20
-164.9449157714844
 30
15.35410785675049
 70
   192
  0
VERTEX
  5
1D1
  8
0
 10
0.0000000000000625
 20
-163.5001525878906
 30
29.54907035827637
 70
   192
  0
VERTEX
  5
1D2
  8
0
 10
-11.90948390960693
 20
-168.6248321533203
 30
29.57391738891602
 70
   192
  0
VERTEX
  5
1D3
  8
0
 10
-15.18119144439697
 20
-173.6229248046875
 30
29.57391738891602
 70
   192
  0
VERTEX
  5
1D4
  8
0
 10
-11.99944972991943
 20
-191.3550109863281
 30
29.57391738891602
 70
   192
  0
VERTEX
  5
1D5
  8
0
 10
-7.798985481262207
 20
-194.5650787353516
 30
29.57391738891602
 70
   192
  0
VERTEX
  5
1D6
  8
0
 10
-11.26219940185547
 20
-167.2727966308594
 30
15.35410785675049
 70
   192
  0
VERTEX
  5
1D7
  8
0
 10
-13.97771739959717
 20
-170.3361358642578
 30
15.35410785675049
 70
   192
  0
VERTEX
  5
1D8
  8
0
 10
-15.88617038726807
 20
-173.9602203369141
 30
15.35410785675049
 70
   192
  0
VERTEX
  5
1D9
  8
0
 10
-15.89899730682373
 20
-186.0162048339844
 30
15.35410785675049
 70
   192
  0
VERTEX
  5
1DA
  8
0
 10
-14.00076293945312
 20
-189.6489105224609
 30
15.35410785675049
 70
   192
  0
VERTEX
  5
1DB
  8
0
 10
-11.2852029800415
 20
-192.7212219238281
 30
15.35410785675049
 70
   192
  0
VERTEX
  5
1DC
  8
0
 10
-7.909774780273438
 20
-195.0489501953125
 30
15.35410785675049
 70
   192
  0
VERTEX
  5
1DD
  8
0
 10
-4.059377193450928
 20
-196.4047088623047
 30
15.35410785675049
 70
   192
  0
VERTEX
  5
1DE
  8
0
 10
3.151631355285645
 20
-191.7443695068359
 30
57.63000106811523
 70
   192
  0
VERTEX
  5
1DF
  8
0
 10
6.000298023223877
 20
-190.3648529052734
 30
57.63000106811523
 70
   192
  0
VERTEX
  5
1E0
  8
0
 10
8.602682113647461
 20
-188.5888977050781
 30
57.63000106811523
 70
   192
  0
VERTEX
  5
1E1
  8
0
 10
10.52719879150391
 20
-186.0715789794922
 30
57.63000106811523
 70
   192
  0
VERTEX
  5
1E2
  8
0
 10
11.73715019226074
 20
-183.1425476074219
 30
57.63000106811523
 70
   192
  0
VERTEX
  5
1E3
  8
0
 10
11.7342472076416
 20
-176.8575897216797
 30
57.63000106811523
 70
   192
  0
VERTEX
  5
1E4
  8
0
 10
12.14999961853027
 20
-180.0
 30
57.63000106811523
 70
   192
  0
VERTEX
  5
1E5
  8
0
 10
6.054233074188232
 20
-169.533447265625
 30
57.63000106811523
 70
   192
  0
VERTEX
  5
1E6
  8
0
 10
8.556877136230469
 20
-171.4563903808594
 30
57.63000106811523
 70
   192
  0
VERTEX
  5
1E7
  8
0
 10
10.51910591125488
 20
-173.9316711425781
 30
57.63000106811523
 70
   192
  0
VERTEX
  5
1E8
  8
0
 10
3.146907091140747
 20
-168.2541809082031
 30
57.63000106811523
 70
   192
  0
VERTEX
  5
1E9
  8
0
 10
6.988903045654297
 20
-193.1197814941406
 30
43.6658821105957
 70
   192
  0
VERTEX
  5
1EA
  8
0
 10
3.61851167678833
 20
-196.0889282226562
 30
29.57391738891602
 70
   192
  0
VERTEX
  5
1EB
  8
0
 10
10.7424259185791
 20
-190.2604827880859
 30
43.6658821105957
 70
   192
  0
VERTEX
  5
1EC
  8
0
 10
4.051150798797607
 20
-196.3949279785156
 30
15.35410785675049
 70
   192
  0
VERTEX
  5
1ED
  8
0
 10
13.69352626800537
 20
-185.7521667480469
 30
43.6658821105957
 70
   192
  0
VERTEX
  5
1EE
  8
0
 10
13.76519107818604
 20
-174.3341674804688
 30
43.6658821105957
 70
   192
  0
VERTEX
  5
1EF
  8
0
 10
14.86417484283447
 20
-180.0619354248047
 30
43.6658821105957
 70
   192
  0
VERTEX
  5
1F0
  8
0
 10
15.26064205169678
 20
-173.7186279296875
 30
29.57391738891602
 70
   192
  0
VERTEX
  5
1F1
  8
0
 10
4.059377193450928
 20
-163.5953063964844
 30
15.35410785675049
 70
   192
  0
VERTEX
  5
1F2
  8
0
 10
3.632613182067871
 20
-163.8935394287109
 30
29.57391738891602
 70
   192
  0
VERTEX
  5
1F3
  8
0
 10
10.82357501983643
 20
-169.7577209472656
 30
43.6658821105957
 70
   192
  0
VERTEX
  5
1F4
  8
0
 10
7.034731864929199
 20
-166.8622131347656
 30
43.6658821105957
 70
   192
  0
VERTEX
  5
1F5
  8
0
 10
3.276638746261597
 20
-165.4718780517578
 30
43.6658821105957
 70
   192
  0
VERTEX
  5
1F6
  8
0
 10
7.798985481262207
 20
-165.4349212646484
 30
29.57391738891602
 70
   192
  0
VERTEX
  5
1F7
  8
0
 10
16.87290954589844
 20
-182.0618896484375
 30
15.35410785675049
 70
   192
  0
VERTEX
  5
1F8
  8
0
 10
16.4790210723877
 20
-180.0686645507812
 30
29.57391738891602
 70
   192
  0
VERTEX
  5
1F9
  8
0
 10
16.87627029418945
 20
-177.9631042480469
 30
15.35410785675049
 70
   192
  0
VERTEX
  5
1FA
  8
0
 10
7.748178005218506
 20
-194.5451049804688
 30
29.57391738891602
 70
   192
  0
VERTEX
  5
1FB
  8
0
 10
7.896167278289795
 20
-195.0550994873047
 30
15.35410785675049
 70
   192
  0
VERTEX
  5
1FC
  8
0
 10
11.90948390960693
 20
-191.3751831054688
 30
29.57391738891602
 70
   192
  0
VERTEX
  5
1FD
  8
0
 10
15.18119144439697
 20
-186.3770751953125
 30
29.57391738891602
 70
   192
  0
VERTEX
  5
1FE
  8
0
 10
11.99944972991943
 20
-168.6450042724609
 30
29.57391738891602
 70
   192
  0
VERTEX
  5
1FF
  8
0
 10
11.26219940185547
 20
-192.7272186279297
 30
15.35410785675049
 70
   192
  0
VERTEX
  5
200
  8
0
 10
13.97771739959717
 20
-189.6638641357422
 30
15.35410785675049
 70
   192
  0
VERTEX
  5
201
  8
0
 10
15.88617038726807
 20
-186.0397796630859
 30
15.35410785675049
 70
   192
  0
VERTEX
  5
202
  8
0
 10
15.89899730682373
 20
-173.9838104248047
 30
15.35410785675049
 70
   192
  0
VERTEX
  5
203
  8
0
 10
14.00076293945312
 20
-170.3511047363281
 30
15.35410785675049
 70
   192
  0
VERTEX
  5
204
  8
0
 10
11.2852029800415
 20
-167.2787933349609
 30
15.35410785675049
 70
   192
  0
VERTEX
  5
205
  8
0
 10
7.909774780273438
 20
-164.9510498046875
 30
15.35410785675049
 70
   192
  0
VERTEX
  5
206
  8
0
 10
-4.853814601898193
 20
-191.0923004150391
 30
47.09597778320312
 70
   192
  0
VERTEX
  5
207
  8
0
 10
-2.786083698272705
 20
-191.2348937988281
 30
45.05695343017578
 70
   192
  0
VERTEX
  5
208
  8
0
 10
-2.85322093963623
 20
-190.5523986816406
 30
54.81699752807617
 70
   192
  0
VERTEX
  5
209
  8
0
 10
-4.895117282867432
 20
-190.6981353759766
 30
52.73292922973633
 70
   192
  0
VERTEX
  5
20A
  8
0
 10
-5.650000095367432
 20
-190.8941345214844
 30
49.93000030517578
 70
   192
  0
VERTEX
  5
20B
  8
0
 10
-15.89776039123535
 20
-173.9792785644531
 30
15.34472560882568
 70
   192
  0
VERTEX
  5
20C
  8
0
 10
-16.87414169311523
 20
-182.0589904785156
 30
15.34472560882568
 70
   192
  0
VERTEX
  5
20D
  8
0
 10
-4.074548721313477
 20
-163.4957580566406
 30
15.34472560882568
 70
   192
  0
VERTEX
  5
20E
  8
0
 10
4.065896511077881
 20
-163.4932861328125
 30
15.34472560882568
 70
   192
  0
VERTEX
  5
20F
  8
0
 10
-11.27831649780273
 20
-167.2802886962891
 30
15.34472560882568
 70
   192
  0
VERTEX
  5
210
  8
0
 10
11.26909351348877
 20
-167.2721862792969
 30
15.34472560882568
 70
   192
  0
VERTEX
  5
211
  8
0
 10
-13.98662376403809
 20
-189.6624145507812
 30
15.34472560882568
 70
   192
  0
VERTEX
  5
212
  8
0
 10
-7.890585899353027
 20
-195.056640625
 30
15.34472560882568
 70
   192
  0
VERTEX
  5
213
  8
0
 10
15.89595413208008
 20
-173.9729309082031
 30
15.34472560882568
 70
   192
  0
VERTEX
  5
214
  8
0
 10
0.0000000000000853
 20
-197.0000457763672
 30
15.34472560882568
 70
   192
  0
VERTEX
  5
215
  8
0
 10
7.907880306243896
 20
-195.0475463867188
 30
15.34472560882568
 70
   192
  0
VERTEX
  5
216
  8
0
 10
13.98932361602783
 20
-189.6593475341797
 30
15.34472560882568
 70
   192
  0
VERTEX
  5
217
  8
0
 10
16.8761157989502
 20
-182.042724609375
 30
15.34472560882568
 70
   192
  0
VERTEX
  5
218
  8
0
 62
     9
 10
0.0
 20
0.0
 30
0.0
 70
   128
 71
     3
 72
     2
 73
     1
  0
VERTEX
  5
219
  8
0
 62
     9
 10
0.0
 20
0.0
 30
0.0
 70
   128
 71
     3
 72
     5
 73
     4
  0
VERTEX
  5
21A
  8
0
 62
     9
 10
0.0
 20
0.0
 30
0.0
 70
   128
 71
     4
 72
     2
 73
     3
  0
VERTEX
  5
21B
  8
0
 62
     9
 10
0.0
 20
0.0
 30
0.0
 70
   128
 71
     7
 72
     6
 73
     5
  0
VERTEX
  5
21C
  8
0
 62
     9
 10
0.0
 20
0.0
 30
0.0
 70
   128
 71
     5
 72
     6
 73
     4
  0
VERTEX
  5
21D
  8
0
 62
     9
 10
0.0
 20
0.0
 30
0.0
 70
   128
 71
     7
 72
     5
 73
     8
  0
VERTEX
  5
21E
  8
0
 62
     9
 10
0.0
 20
0.0
 30
0.0
 70
   128
 71
    11
 72
    10
 73
     9
  0
VERTEX
  5
21F
  8
0
 62
     9
 10
0.0
 20
0.0
 30
0.0
 70
   128
 71
    12
 72
    11
 73
     1
  0
VERTEX
  5
220
  8
0
 62
     9
 10
0.0
 20
0.0
 30
0.0
 70
   128
 71
     1
 72
     2
 73
    12
  0
VERTEX
  5
221
  8
0
 62
     9
 10
0.0
 20
0.0
 30
0.0
 70
   128
 71
    10
 72
    11
 73
    12
  0
VERTEX
  5
222
  8
0
 62
     9
 10
0.0
 20
0.0
 30
0.0
 70
   128
 71
    10
 72
    13
 73
     9
  0
VERTEX
  5
223
  8
0
 62
     9
 10
0.0
 20
0.0
 30
0.0
 70
   128
 71
    16
 72
    15
 73
    14
  0
VERTEX
  5
224
  8
0
 62
     9
 10
0.0
 20
0.0
 30
0.0
 70
   128
 71
    19
 72
    18
 73
    17
  0
VERTEX
  5
225
  8
0
 62
     9
 10
0.0
 20
0.0
 30
0.0
 70
   128
 71
    18
 72
    21
 73
    20
  0
VERTEX
  5
226
  8
0
 62
     9
 10
0.0
 20
0.0
 30
0.0
 70
   128
 71
    23
 72
    17
 73
    22
  0
VERTEX
  5
227
  8
0
 62
     9
 10
0.0
 20
0.0
 30
0.0
 70
   128
 71
    26
 72
    25
 73
    24
  0
VERTEX
  5
228
  8
0
 62
     9
 10
0.0
 20
0.0
 30
0.0
 70
   128
 71
    17
 72
    23
 73
    27
  0
VERTEX
  5
229
  8
0
 62
     9
 10
0.0
 20
0.0
 30
0.0
 70
   128
 71
    23
 72
    22
 73
    28
  0
VERTEX
  5
22A
  8
0
 62
     9
 10
0.0
 20
0.0
 30
0.0
 70
   128
 71
    27
 72
    19
 73
    17
  0
VERTEX
  5
22B
  8
0
 62
     9
 10
0.0
 20
0.0
 30
0.0
 70
   128
 71
    28
 72
    22
 73
    26
  0
VERTEX
  5
22C
  8
0
 62
     9
 10
0.0
 20
0.0
 30
0.0
 70
   128
 71
    19
 72
    21
 73
    18
  0
VERTEX
  5
22D
  8
0
 62
     9
 10
0.0
 20
0.0
 30
0.0
 70
   128
 71
    24
 72
    29
 73
     7
  0
VERTEX
  5
22E
  8
0
 62
     9
 10
0.0
 20
0.0
 30
0.0
 70
   128
 71
    25
 72
    30
 73
    29
  0
VERTEX
  5
22F
  8
0
 62
     9
 10
0.0
 20
0.0
 30
0.0
 70
   128
 71
    31
 72
    23
 73
    28
  0
VERTEX
  5
230
  8
0
 62
     9
 10
0.0
 20
0.0
 30
0.0
 70
   128
 71
    25
 72
    26
 73
    22
  0
VERTEX
  5
231
  8
0
 62
     9
 10
0.0
 20
0.0
 30
0.0
 70
   128
 71
    20
 72
    33
 73
    32
  0
VERTEX
  5
232
  8
0
 62
     9
 10
0.0
 20
0.0
 30
0.0
 70
   128
 71
    20
 72
    34
 73
    18
  0
VERTEX
  5
233
  8
0
 62
     9
 10
0.0
 20
0.0
 30
0.0
 70
   128
 71
    35
 72
    20
 73
    32
  0
VERTEX
  5
234
  8
0
 62
     9
 10
0.0
 20
0.0
 30
0.0
 70
   128
 71
    21
 72
    33
 73
    20
  0
VERTEX
  5
235
  8
0
 62
     9
 10
0.0
 20
0.0
 30
0.0
 70
   128
 71
    23
 72
    31
 73
    36
  0
VERTEX
  5
236
  8
0
 62
     9
 10
0.0
 20
0.0
 30
0.0
 70
   128
 71
    37
 72
    36
 73
    31
  0
VERTEX
  5
237
  8
0
 62
     9
 10
0.0
 20
0.0
 30
0.0
 70
   128
 71
    37
 72
    13
 73
    36
  0
VERTEX
  5
238
  8
0
 62
     9
 10
0.0
 20
0.0
 30
0.0
 70
   128
 71
    32
 72
    38
 73
    35
  0
VERTEX
  5
239
  8
0
 62
     9
 10
0.0
 20
0.0
 30
0.0
 70
   128
 71
    41
 72
    40
 73
    39
  0
VERTEX
  5
23A
  8
0
 62
     9
 10
0.0
 20
0.0
 30
0.0
 70
   128
 71
    38
 72
    42
 73
    35
  0
VERTEX
  5
23B
  8
0
 62
     9
 10
0.0
 20
0.0
 30
0.0
 70
   128
 71
    42
 72
    38
 73
    43
  0
VERTEX
  5
23C
  8
0
 62
     9
 10
0.0
 20
0.0
 30
0.0
 70
   128
 71
    43
 72
    44
 73
    42
  0
VERTEX
  5
23D
  8
0
 62
     9
 10
0.0
 20
0.0
 30
0.0
 70
   128
 71
    44
 72
    46
 73
    45
  0
VERTEX
  5
23E
  8
0
 62
     9
 10
0.0
 20
0.0
 30
0.0
 70
   128
 71
    45
 72
    42
 73
    44
  0
VERTEX
  5
23F
  8
0
 62
     9
 10
0.0
 20
0.0
 30
0.0
 70
   128
 71
    47
 72
    45
 73
    16
  0
VERTEX
  5
240
  8
0
 62
     9
 10
0.0
 20
0.0
 30
0.0
 70
   128
 71
    46
 72
    16
 73
    45
  0
VERTEX
  5
241
  8
0
 62
     9
 10
0.0
 20
0.0
 30
0.0
 70
   128
 71
    46
 72
    15
 73
    16
  0
VERTEX
  5
242
  8
0
 62
     9
 10
0.0
 20
0.0
 30
0.0
 70
   128
 71
    50
 72
    49
 73
    48
  0
VERTEX
  5
243
  8
0
 62
     9
 10
0.0
 20
0.0
 30
0.0
 70
   128
 71
    51
 72
    47
 73
    48
  0
VERTEX
  5
244
  8
0
 62
     9
 10
0.0
 20
0.0
 30
0.0
 70
   128
 71
    14
 72
    52
 73
    50
  0
VERTEX
  5
245
  8
0
 62
     9
 10
0.0
 20
0.0
 30
0.0
 70
   128
 71
    50
 72
    48
 73
    47
  0
VERTEX
  5
246
  8
0
 62
     9
 10
0.0
 20
0.0
 30
0.0
 70
   128
 71
    50
 72
    47
 73
    16
  0
VERTEX
  5
247
  8
0
 62
     9
 10
0.0
 20
0.0
 30
0.0
 70
   128
 71
    45
 72
    53
 73
    42
  0
VERTEX
  5
248
  8
0
 62
     9
 10
0.0
 20
0.0
 30
0.0
 70
   128
 71
    47
 72
    53
 73
    45
  0
VERTEX
  5
249
  8
0
 62
     9
 10
0.0
 20
0.0
 30
0.0
 70
   128
 71
    35
 72
    42
 73
    54
  0
VERTEX
  5
24A
  8
0
 62
     9
 10
0.0
 20
0.0
 30
0.0
 70
   128
 71
    54
 72
    42
 73
    53
  0
VERTEX
  5
24B
  8
0
 62
     9
 10
0.0
 20
0.0
 30
0.0
 70
   128
 71
    35
 72
    41
 73
    20
  0
VERTEX
  5
24C
  8
0
 62
     9
 10
0.0
 20
0.0
 30
0.0
 70
   128
 71
    54
 72
    41
 73
    35
  0
VERTEX
  5
24D
  8
0
 62
     9
 10
0.0
 20
0.0
 30
0.0
 70
   128
 71
    41
 72
    39
 73
    34
  0
VERTEX
  5
24E
  8
0
 62
     9
 10
0.0
 20
0.0
 30
0.0
 70
   128
 71
    34
 72
    20
 73
    41
  0
VERTEX
  5
24F
  8
0
 62
     9
 10
0.0
 20
0.0
 30
0.0
 70
   128
 71
    18
 72
    55
 73
    17
  0
VERTEX
  5
250
  8
0
 62
     9
 10
0.0
 20
0.0
 30
0.0
 70
   128
 71
    34
 72
    55
 73
    18
  0
VERTEX
  5
251
  8
0
 62
     9
 10
0.0
 20
0.0
 30
0.0
 70
   128
 71
    17
 72
    56
 73
    22
  0
VERTEX
  5
252
  8
0
 62
     9
 10
0.0
 20
0.0
 30
0.0
 70
   128
 71
    55
 72
    56
 73
    17
  0
VERTEX
  5
253
  8
0
 62
     9
 10
0.0
 20
0.0
 30
0.0
 70
   128
 71
    22
 72
    56
 73
    25
  0
VERTEX
  5
254
  8
0
 62
     9
 10
0.0
 20
0.0
 30
0.0
 70
   128
 71
    29
 72
    24
 73
    25
  0
VERTEX
  5
255
  8
0
 62
     9
 10
0.0
 20
0.0
 30
0.0
 70
   128
 71
    50
 72
    16
 73
    14
  0
VERTEX
  5
256
  8
0
 62
     9
 10
0.0
 20
0.0
 30
0.0
 70
   128
 71
    50
 72
    52
 73
    49
  0
VERTEX
  5
257
  8
0
 62
     9
 10
0.0
 20
0.0
 30
0.0
 70
   128
 71
    57
 72
    47
 73
    51
  0
VERTEX
  5
258
  8
0
 62
     9
 10
0.0
 20
0.0
 30
0.0
 70
   128
 71
    57
 72
    53
 73
    47
  0
VERTEX
  5
259
  8
0
 62
     9
 10
0.0
 20
0.0
 30
0.0
 70
   128
 71
    58
 72
    53
 73
    57
  0
VERTEX
  5
25A
  8
0
 62
     9
 10
0.0
 20
0.0
 30
0.0
 70
   128
 71
    59
 72
    54
 73
    58
  0
VERTEX
  5
25B
  8
0
 62
     9
 10
0.0
 20
0.0
 30
0.0
 70
   128
 71
    54
 72
    53
 73
    58
  0
VERTEX
  5
25C
  8
0
 62
     9
 10
0.0
 20
0.0
 30
0.0
 70
   128
 71
    54
 72
    59
 73
    40
  0
VERTEX
  5
25D
  8
0
 62
     9
 10
0.0
 20
0.0
 30
0.0
 70
   128
 71
    41
 72
    54
 73
    40
  0
VERTEX
  5
25E
  8
0
 62
     9
 10
0.0
 20
0.0
 30
0.0
 70
   128
 71
    60
 72
    34
 73
    39
  0
VERTEX
  5
25F
  8
0
 62
     9
 10
0.0
 20
0.0
 30
0.0
 70
   128
 71
    61
 72
    34
 73
    60
  0
VERTEX
  5
260
  8
0
 62
     9
 10
0.0
 20
0.0
 30
0.0
 70
   128
 71
    62
 72
    55
 73
    61
  0
VERTEX
  5
261
  8
0
 62
     9
 10
0.0
 20
0.0
 30
0.0
 70
   128
 71
    55
 72
    34
 73
    61
  0
VERTEX
  5
262
  8
0
 62
     9
 10
0.0
 20
0.0
 30
0.0
 70
   128
 71
    63
 72
    56
 73
    62
  0
VERTEX
  5
263
  8
0
 62
     9
 10
0.0
 20
0.0
 30
0.0
 70
   128
 71
    56
 72
    55
 73
    62
  0
VERTEX
  5
264
  8
0
 62
     9
 10
0.0
 20
0.0
 30
0.0
 70
   128
 71
    56
 72
    63
 73
    64
  0
VERTEX
  5
265
  8
0
 62
     9
 10
0.0
 20
0.0
 30
0.0
 70
   128
 71
    64
 72
    25
 73
    56
  0
VERTEX
  5
266
  8
0
 62
     9
 10
0.0
 20
0.0
 30
0.0
 70
   128
 71
    25
 72
    64
 73
    30
  0
VERTEX
  5
267
  8
0
 62
     9
 10
0.0
 20
0.0
 30
0.0
 70
   128
 71
    19
 72
    27
 73
    23
  0
VERTEX
  5
268
  8
0
 62
     9
 10
0.0
 20
0.0
 30
0.0
 70
   128
 71
    36
 72
    13
 73
    21
  0
VERTEX
  5
269
  8
0
 62
     9
 10
0.0
 20
0.0
 30
0.0
 70
   128
 71
    36
 72
    21
 73
    23
  0
VERTEX
  5
26A
  8
0
 62
     9
 10
0.0
 20
0.0
 30
0.0
 70
   128
 71
    38
 72
    32
 73
    65
  0
VERTEX
  5
26B
  8
0
 62
     9
 10
0.0
 20
0.0
 30
0.0
 70
   128
 71
    19
 72
    23
 73
    21
  0
VERTEX
  5
26C
  8
0
 62
     9
 10
0.0
 20
0.0
 30
0.0
 70
   128
 71
    21
 72
    32
 73
    33
  0
VERTEX
  5
26D
  8
0
 62
     9
 10
0.0
 20
0.0
 30
0.0
 70
   128
 71
    65
 72
    21
 73
    13
  0
VERTEX
  5
26E
  8
0
 62
     9
 10
0.0
 20
0.0
 30
0.0
 70
   128
 71
    38
 72
    65
 73
    66
  0
VERTEX
  5
26F
  8
0
 62
     9
 10
0.0
 20
0.0
 30
0.0
 70
   128
 71
    21
 72
    65
 73
    32
  0
VERTEX
  5
270
  8
0
 62
     9
 10
0.0
 20
0.0
 30
0.0
 70
   128
 71
    68
 72
    38
 73
    67
  0
VERTEX
  5
271
  8
0
 62
     9
 10
0.0
 20
0.0
 30
0.0
 70
   128
 71
    38
 72
    66
 73
    67
  0
VERTEX
  5
272
  8
0
 62
     9
 10
0.0
 20
0.0
 30
0.0
 70
   128
 71
    43
 72
    38
 73
    68
  0
VERTEX
  5
273
  8
0
 62
     9
 10
0.0
 20
0.0
 30
0.0
 70
   128
 71
    46
 72
    44
 73
    68
  0
VERTEX
  5
274
  8
0
 62
     9
 10
0.0
 20
0.0
 30
0.0
 70
   128
 71
    68
 72
    44
 73
    43
  0
VERTEX
  5
275
  8
0
 62
     9
 10
0.0
 20
0.0
 30
0.0
 70
   128
 71
    69
 72
    46
 73
    68
  0
VERTEX
  5
276
  8
0
 62
     9
 10
0.0
 20
0.0
 30
0.0
 70
   128
 71
    70
 72
    46
 73
    69
  0
VERTEX
  5
277
  8
0
 62
     9
 10
0.0
 20
0.0
 30
0.0
 70
   128
 71
    70
 72
    69
 73
    71
  0
VERTEX
  5
278
  8
0
 62
     9
 10
0.0
 20
0.0
 30
0.0
 70
   128
 71
    74
 72
    73
 73
    72
  0
VERTEX
  5
279
  8
0
 62
     9
 10
0.0
 20
0.0
 30
0.0
 70
   128
 71
    70
 72
    15
 73
    46
  0
VERTEX
  5
27A
  8
0
 62
     9
 10
0.0
 20
0.0
 30
0.0
 70
   128
 71
    72
 72
    75
 73
    70
  0
VERTEX
  5
27B
  8
0
 62
     9
 10
0.0
 20
0.0
 30
0.0
 70
   128
 71
    70
 72
    74
 73
    72
  0
VERTEX
  5
27C
  8
0
 62
     9
 10
0.0
 20
0.0
 30
0.0
 70
   128
 71
    75
 72
    15
 73
    70
  0
VERTEX
  5
27D
  8
0
 62
     9
 10
0.0
 20
0.0
 30
0.0
 70
   128
 71
     4
 72
    77
 73
    76
  0
VERTEX
  5
27E
  8
0
 62
     9
 10
0.0
 20
0.0
 30
0.0
 70
   128
 71
    67
 72
    66
 73
    78
  0
VERTEX
  5
27F
  8
0
 62
     9
 10
0.0
 20
0.0
 30
0.0
 70
   128
 71
    12
 72
    66
 73
    65
  0
VERTEX
  5
280
  8
0
 62
     9
 10
0.0
 20
0.0
 30
0.0
 70
   128
 71
    79
 72
    77
 73
    30
  0
VERTEX
  5
281
  8
0
 62
     9
 10
0.0
 20
0.0
 30
0.0
 70
   128
 71
    68
 72
    80
 73
    69
  0
VERTEX
  5
282
  8
0
 62
     9
 10
0.0
 20
0.0
 30
0.0
 70
   128
 71
    70
 72
    81
 73
    74
  0
VERTEX
  5
283
  8
0
 62
     9
 10
0.0
 20
0.0
 30
0.0
 70
   128
 71
    83
 72
    81
 73
    82
  0
VERTEX
  5
284
  8
0
 62
     9
 10
0.0
 20
0.0
 30
0.0
 70
   128
 71
    85
 72
    84
 73
    49
  0
VERTEX
  5
285
  8
0
 62
     9
 10
0.0
 20
0.0
 30
0.0
 70
   128
 71
    86
 72
    73
 73
    74
  0
VERTEX
  5
286
  8
0
 62
     9
 10
0.0
 20
0.0
 30
0.0
 70
   128
 71
    75
 72
    72
 73
    87
  0
VERTEX
  5
287
  8
0
 62
     9
 10
0.0
 20
0.0
 30
0.0
 70
   128
 71
    15
 72
    75
 73
    88
  0
VERTEX
  5
288
  8
0
 62
     9
 10
0.0
 20
0.0
 30
0.0
 70
   128
 71
    87
 72
    89
 73
    85
  0
VERTEX
  5
289
  8
0
 62
     9
 10
0.0
 20
0.0
 30
0.0
 70
   128
 71
    52
 72
    14
 73
    88
  0
VERTEX
  5
28A
  8
0
 62
     9
 10
0.0
 20
0.0
 30
0.0
 70
   128
 71
    85
 72
    49
 73
    52
  0
VERTEX
  5
28B
  8
0
 62
     9
 10
0.0
 20
0.0
 30
0.0
 70
   128
 71
    72
 72
    73
 73
    86
  0
VERTEX
  5
28C
  8
0
 62
     9
 10
0.0
 20
0.0
 30
0.0
 70
   128
 71
    87
 72
    72
 73
    86
  0
VERTEX
  5
28D
  8
0
 62
     9
 10
0.0
 20
0.0
 30
0.0
 70
   128
 71
    81
 72
    86
 73
    74
  0
VERTEX
  5
28E
  8
0
 62
     9
 10
0.0
 20
0.0
 30
0.0
 70
   128
 71
    70
 72
    82
 73
    81
  0
VERTEX
  5
28F
  8
0
 62
     9
 10
0.0
 20
0.0
 30
0.0
 70
   128
 71
    82
 72
    70
 73
    71
  0
VERTEX
  5
290
  8
0
 62
     9
 10
0.0
 20
0.0
 30
0.0
 70
   128
 71
    69
 72
    82
 73
    71
  0
VERTEX
  5
291
  8
0
 62
     9
 10
0.0
 20
0.0
 30
0.0
 70
   128
 71
    78
 72
    80
 73
    68
  0
VERTEX
  5
292
  8
0
 62
     9
 10
0.0
 20
0.0
 30
0.0
 70
   128
 71
    80
 72
    82
 73
    69
  0
VERTEX
  5
293
  8
0
 62
     9
 10
0.0
 20
0.0
 30
0.0
 70
   128
 71
    78
 72
    68
 73
    67
  0
VERTEX
  5
294
  8
0
 62
     9
 10
0.0
 20
0.0
 30
0.0
 70
   128
 71
    92
 72
    91
 73
    90
  0
VERTEX
  5
295
  8
0
 62
     9
 10
0.0
 20
0.0
 30
0.0
 70
   128
 71
    66
 72
     2
 73
    76
  0
VERTEX
  5
296
  8
0
 62
     9
 10
0.0
 20
0.0
 30
0.0
 70
   128
 71
    66
 72
    12
 73
     2
  0
VERTEX
  5
297
  8
0
 62
     9
 10
0.0
 20
0.0
 30
0.0
 70
   128
 71
    10
 72
    65
 73
    13
  0
VERTEX
  5
298
  8
0
 62
     9
 10
0.0
 20
0.0
 30
0.0
 70
   128
 71
    12
 72
    65
 73
    10
  0
VERTEX
  5
299
  8
0
 62
     9
 10
0.0
 20
0.0
 30
0.0
 70
   128
 71
    77
 72
    79
 73
    93
  0
VERTEX
  5
29A
  8
0
 62
     9
 10
0.0
 20
0.0
 30
0.0
 70
   128
 71
     6
 72
    77
 73
     4
  0
VERTEX
  5
29B
  8
0
 62
     9
 10
0.0
 20
0.0
 30
0.0
 70
   128
 71
     2
 72
     4
 73
    76
  0
VERTEX
  5
29C
  8
0
 62
     9
 10
0.0
 20
0.0
 30
0.0
 70
   128
 71
     7
 72
    29
 73
    77
  0
VERTEX
  5
29D
  8
0
 62
     9
 10
0.0
 20
0.0
 30
0.0
 70
   128
 71
    94
 72
    93
 73
    79
  0
VERTEX
  5
29E
  8
0
 62
     9
 10
0.0
 20
0.0
 30
0.0
 70
   128
 71
    77
 72
     6
 73
     7
  0
VERTEX
  5
29F
  8
0
 62
     9
 10
0.0
 20
0.0
 30
0.0
 70
   128
 71
    76
 72
    77
 73
    93
  0
VERTEX
  5
2A0
  8
0
 62
     9
 10
0.0
 20
0.0
 30
0.0
 70
   128
 71
    78
 72
    76
 73
    95
  0
VERTEX
  5
2A1
  8
0
 62
     9
 10
0.0
 20
0.0
 30
0.0
 70
   128
 71
    78
 72
    66
 73
    76
  0
VERTEX
  5
2A2
  8
0
 62
     9
 10
0.0
 20
0.0
 30
0.0
 70
   128
 71
    93
 72
    95
 73
    76
  0
VERTEX
  5
2A3
  8
0
 62
     9
 10
0.0
 20
0.0
 30
0.0
 70
   128
 71
    80
 72
    78
 73
    96
  0
VERTEX
  5
2A4
  8
0
 62
     9
 10
0.0
 20
0.0
 30
0.0
 70
   128
 71
    96
 72
    78
 73
    95
  0
VERTEX
  5
2A5
  8
0
 62
     9
 10
0.0
 20
0.0
 30
0.0
 70
   128
 71
    80
 72
    91
 73
    82
  0
VERTEX
  5
2A6
  8
0
 62
     9
 10
0.0
 20
0.0
 30
0.0
 70
   128
 71
    96
 72
    91
 73
    80
  0
VERTEX
  5
2A7
  8
0
 62
     9
 10
0.0
 20
0.0
 30
0.0
 70
   128
 71
    91
 72
    92
 73
    83
  0
VERTEX
  5
2A8
  8
0
 62
     9
 10
0.0
 20
0.0
 30
0.0
 70
   128
 71
    83
 72
    82
 73
    91
  0
VERTEX
  5
2A9
  8
0
 62
     9
 10
0.0
 20
0.0
 30
0.0
 70
   128
 71
    81
 72
    97
 73
    86
  0
VERTEX
  5
2AA
  8
0
 62
     9
 10
0.0
 20
0.0
 30
0.0
 70
   128
 71
    83
 72
    97
 73
    81
  0
VERTEX
  5
2AB
  8
0
 62
     9
 10
0.0
 20
0.0
 30
0.0
 70
   128
 71
    86
 72
    89
 73
    87
  0
VERTEX
  5
2AC
  8
0
 62
     9
 10
0.0
 20
0.0
 30
0.0
 70
   128
 71
    89
 72
    86
 73
    97
  0
VERTEX
  5
2AD
  8
0
 62
     9
 10
0.0
 20
0.0
 30
0.0
 70
   128
 71
    88
 72
    87
 73
    85
  0
VERTEX
  5
2AE
  8
0
 62
     9
 10
0.0
 20
0.0
 30
0.0
 70
   128
 71
    88
 72
    14
 73
    15
  0
VERTEX
  5
2AF
  8
0
 62
     9
 10
0.0
 20
0.0
 30
0.0
 70
   128
 71
    87
 72
    88
 73
    75
  0
VERTEX
  5
2B0
  8
0
 62
     9
 10
0.0
 20
0.0
 30
0.0
 70
   128
 71
    77
 72
    29
 73
    30
  0
VERTEX
  5
2B1
  8
0
 62
     9
 10
0.0
 20
0.0
 30
0.0
 70
   128
 71
    98
 72
    93
 73
    94
  0
VERTEX
  5
2B2
  8
0
 62
     9
 10
0.0
 20
0.0
 30
0.0
 70
   128
 71
    98
 72
    95
 73
    93
  0
VERTEX
  5
2B3
  8
0
 62
     9
 10
0.0
 20
0.0
 30
0.0
 70
   128
 71
    99
 72
    95
 73
    98
  0
VERTEX
  5
2B4
  8
0
 62
     9
 10
0.0
 20
0.0
 30
0.0
 70
   128
 71
   100
 72
    96
 73
    99
  0
VERTEX
  5
2B5
  8
0
 62
     9
 10
0.0
 20
0.0
 30
0.0
 70
   128
 71
    96
 72
    95
 73
    99
  0
VERTEX
  5
2B6
  8
0
 62
     9
 10
0.0
 20
0.0
 30
0.0
 70
   128
 71
    96
 72
   100
 73
    90
  0
VERTEX
  5
2B7
  8
0
 62
     9
 10
0.0
 20
0.0
 30
0.0
 70
   128
 71
    91
 72
    96
 73
    90
  0
VERTEX
  5
2B8
  8
0
 62
     9
 10
0.0
 20
0.0
 30
0.0
 70
   128
 71
   101
 72
    83
 73
    92
  0
VERTEX
  5
2B9
  8
0
 62
     9
 10
0.0
 20
0.0
 30
0.0
 70
   128
 71
   102
 72
    83
 73
   101
  0
VERTEX
  5
2BA
  8
0
 62
     9
 10
0.0
 20
0.0
 30
0.0
 70
   128
 71
   103
 72
    97
 73
   102
  0
VERTEX
  5
2BB
  8
0
 62
     9
 10
0.0
 20
0.0
 30
0.0
 70
   128
 71
    97
 72
    83
 73
   102
  0
VERTEX
  5
2BC
  8
0
 62
     9
 10
0.0
 20
0.0
 30
0.0
 70
   128
 71
   104
 72
    89
 73
   103
  0
VERTEX
  5
2BD
  8
0
 62
     9
 10
0.0
 20
0.0
 30
0.0
 70
   128
 71
    89
 72
    97
 73
   103
  0
VERTEX
  5
2BE
  8
0
 62
     9
 10
0.0
 20
0.0
 30
0.0
 70
   128
 71
    89
 72
   104
 73
    84
  0
VERTEX
  5
2BF
  8
0
 62
     9
 10
0.0
 20
0.0
 30
0.0
 70
   128
 71
    85
 72
    89
 73
    84
  0
VERTEX
  5
2C0
  8
0
 62
     9
 10
0.0
 20
0.0
 30
0.0
 70
   128
 71
    88
 72
    85
 73
    52
  0
VERTEX
  5
2C1
  8
0
 62
     9
 10
0.0
 20
0.0
 30
0.0
 70
   128
 71
    28
 72
    26
 73
   105
  0
VERTEX
  5
2C2
  8
0
 62
     9
 10
0.0
 20
0.0
 30
0.0
 70
   128
 71
   106
 72
    24
 73
     8
  0
VERTEX
  5
2C3
  8
0
 62
     9
 10
0.0
 20
0.0
 30
0.0
 70
   128
 71
   108
 72
   107
 73
    37
  0
VERTEX
  5
2C4
  8
0
 62
     9
 10
0.0
 20
0.0
 30
0.0
 70
   128
 71
    31
 72
    28
 73
   109
  0
VERTEX
  5
2C5
  8
0
 62
     9
 10
0.0
 20
0.0
 30
0.0
 70
   128
 71
    37
 72
    31
 73
   108
  0
VERTEX
  5
2C6
  8
0
 62
     9
 10
0.0
 20
0.0
 30
0.0
 70
   128
 71
   107
 72
    13
 73
    37
  0
VERTEX
  5
2C7
  8
0
 62
     9
 10
0.0
 20
0.0
 30
0.0
 70
   128
 71
   106
 72
    26
 73
    24
  0
VERTEX
  5
2C8
  8
0
 62
     9
 10
0.0
 20
0.0
 30
0.0
 70
   128
 71
    28
 72
   105
 73
   109
  0
VERTEX
  5
2C9
  8
0
 62
     9
 10
0.0
 20
0.0
 30
0.0
 70
   128
 71
    31
 72
   109
 73
   108
  0
VERTEX
  5
2CA
  8
0
 62
     9
 10
0.0
 20
0.0
 30
0.0
 70
   128
 71
   106
 72
   105
 73
    26
  0
VERTEX
  5
2CB
  8
0
 62
     9
 10
0.0
 20
0.0
 30
0.0
 70
   128
 71
     7
 72
     8
 73
    24
  0
VERTEX
  5
2CC
  8
0
 62
     9
 10
0.0
 20
0.0
 30
0.0
 70
   128
 71
   112
 72
   111
 73
   110
  0
VERTEX
  5
2CD
  8
0
 62
     9
 10
0.0
 20
0.0
 30
0.0
 70
   128
 71
   113
 72
   111
 73
   112
  0
VERTEX
  5
2CE
  8
0
 62
     9
 10
0.0
 20
0.0
 30
0.0
 70
   128
 71
   112
 72
   110
 73
   114
  0
VERTEX
  5
2CF
  8
0
 62
     9
 10
0.0
 20
0.0
 30
0.0
 70
   128
 71
   116
 72
   113
 73
   115
  0
VERTEX
  5
2D0
  8
0
 62
     9
 10
0.0
 20
0.0
 30
0.0
 70
   128
 71
   113
 72
   116
 73
   111
  0
VERTEX
  5
2D1
  8
0
 62
     9
 10
0.0
 20
0.0
 30
0.0
 70
   128
 71
   118
 72
   117
 73
   115
  0
VERTEX
  5
2D2
  8
0
 62
     9
 10
0.0
 20
0.0
 30
0.0
 70
   128
 71
   116
 72
   115
 73
   117
  0
VERTEX
  5
2D3
  8
0
 62
     9
 10
0.0
 20
0.0
 30
0.0
 70
   128
 71
   118
 72
   119
 73
   117
  0
VERTEX
  5
2D4
  8
0
 62
     9
 10
0.0
 20
0.0
 30
0.0
 70
   128
 71
   122
 72
   121
 73
   120
  0
VERTEX
  5
2D5
  8
0
 62
     9
 10
0.0
 20
0.0
 30
0.0
 70
   128
 71
   118
 72
   122
 73
   119
  0
VERTEX
  5
2D6
  8
0
 62
     9
 10
0.0
 20
0.0
 30
0.0
 70
   128
 71
   120
 72
   119
 73
   122
  0
SEQEND
  5
2D7
  8
0
 62
     9
  0
ENDBLK
  5
2DA
  8
0
  0
BLOCK
  8
0
  2
41
 70
     0
 10
0.0
 20
0.0
 30
0.0
  3
41
  1

  0
POLYLINE
  5
2DC
  8
0
 62
     9
 66
     1
 10
0.0
 20
0.0
 30
0.0
 70
    64
 71
    59
 72
   100
  0
VERTEX
  5
2DD
  8
0
 10
-0.0000000000002198
 20
257.930419921875
 30
54.61763381958008
 70
   192
  0
VERTEX
  5
2DE
  8
0
 10
-1.665818214416504
 20
257.1373291015625
 30
58.51364898681641
 70
   192
  0
VERTEX
  5
2DF
  8
0
 10
-3.784272193908691
 20
257.2716369628906
 30
56.59274673461914
 70
   192
  0
VERTEX
  5
2E0
  8
0
 10
-4.299118041992188
 20
257.4122924804688
 30
54.58140563964844
 70
   192
  0
VERTEX
  5
2E1
  8
0
 10
-4.124246120452881
 20
255.1520233154297
 30
61.59163284301758
 70
   192
  0
VERTEX
  5
2E2
  8
0
 10
-6.292259693145752
 20
255.2807464599609
 30
59.75077819824219
 70
   192
  0
VERTEX
  5
2E3
  8
0
 10
1.439371347427368
 20
255.0840606689453
 30
62.56364059448242
 70
   192
  0
VERTEX
  5
2E4
  8
0
 10
1.628212332725525
 20
257.1344604492188
 30
58.55457305908203
 70
   192
  0
VERTEX
  5
2E5
  8
0
 10
4.12204122543335
 20
255.1524047851562
 30
61.58614730834961
 70
   192
  0
VERTEX
  5
2E6
  8
0
 10
3.797849655151367
 20
257.2705383300781
 30
56.60868072509766
 70
   192
  0
VERTEX
  5
2E7
  8
0
 10
7.754990100860596
 20
255.4545440673828
 30
57.26534652709961
 70
   192
  0
VERTEX
  5
2E8
  8
0
 10
6.287411689758301
 20
255.2827911376953
 30
59.72170257568359
 70
   192
  0
VERTEX
  5
2E9
  8
0
 10
4.299118041992188
 20
257.4122924804688
 30
54.58140563964844
 70
   192
  0
VERTEX
  5
2EA
  8
0
 10
-7.695173740386963
 20
255.4552154541016
 30
57.25580596923828
 70
   192
  0
VERTEX
  5
2EB
  8
0
 10
8.253141403198242
 20
255.6508483886719
 30
54.45823287963867
 70
   192
  0
VERTEX
  5
2EC
  8
0
 10
-8.253141403198242
 20
255.6508483886719
 30
54.45823287963867
 70
   192
  0
VERTEX
  5
2ED
  8
0
 10
-1.423084378242493
 20
255.0838165283203
 30
62.5671501159668
 70
   192
  0
VERTEX
  5
2EE
  8
0
 10
-6.906435012817383
 20
223.0890045166016
 30
54.55081939697266
 70
   192
  0
VERTEX
  5
2EF
  8
0
 10
-5.067042827606201
 20
190.7485809326172
 30
52.01132583618164
 70
   192
  0
VERTEX
  5
2F0
  8
0
 10
-5.5
 20
190.8941192626953
 30
49.93000030517578
 70
   192
  0
VERTEX
  5
2F1
  8
0
 10
6.935906410217285
 20
223.0865783691406
 30
54.58540344238281
 70
   192
  0
VERTEX
  5
2F2
  8
0
 10
5.5
 20
190.8941192626953
 30
49.93000030517578
 70
   192
  0
VERTEX
  5
2F3
  8
0
 10
5.104573249816895
 20
190.7466888427734
 30
52.03841400146484
 70
   192
  0
VERTEX
  5
2F4
  8
0
 10
2.029834270477295
 20
222.7633209228516
 30
59.20836639404297
 70
   192
  0
VERTEX
  5
2F5
  8
0
 10
5.288238525390625
 20
222.8990325927734
 30
57.26741027832031
 70
   192
  0
VERTEX
  5
2F6
  8
0
 10
7.31599760055542
 20
223.2538909912109
 30
52.19281387329102
 70
   192
  0
VERTEX
  5
2F7
  8
0
 10
-2.062485218048096
 20
222.7657928466797
 30
59.17283248901367
 70
   192
  0
VERTEX
  5
2F8
  8
0
 10
-0.0000000000001799
 20
190.5104522705078
 30
55.41660308837891
 70
   192
  0
VERTEX
  5
2F9
  8
0
 10
2.102120876312256
 20
190.5402374267578
 30
54.99081420898438
 70
   192
  0
VERTEX
  5
2FA
  8
0
 10
-5.28595495223999
 20
222.9043884277344
 30
57.19087982177734
 70
   192
  0
VERTEX
  5
2FB
  8
0
 10
-7.31599760055542
 20
223.2538909912109
 30
52.19281387329102
 70
   192
  0
VERTEX
  5
2FC
  8
0
 10
-3.880493640899658
 20
190.6249389648438
 30
53.77949905395508
 70
   192
  0
VERTEX
  5
2FD
  8
0
 10
-2.110852003097534
 20
190.5409240722656
 30
54.98096466064453
 70
   192
  0
VERTEX
  5
2FE
  8
0
 10
3.899818658828735
 20
190.6220397949219
 30
53.82101821899414
 70
   192
  0
VERTEX
  5
2FF
  8
0
 10
6.906435012817383
 20
223.4187774658203
 30
49.83481216430664
 70
   192
  0
VERTEX
  5
300
  8
0
 10
5.28595495223999
 20
223.6033935546875
 30
47.19475173950195
 70
   192
  0
VERTEX
  5
301
  8
0
 10
5.067042827606201
 20
191.0396575927734
 30
47.84867477416992
 70
   192
  0
VERTEX
  5
302
  8
0
 10
1.439371347427368
 20
256.2176208496094
 30
46.35282135009766
 70
   192
  0
VERTEX
  5
303
  8
0
 10
-1.423084378242493
 20
256.2178649902344
 30
46.34931182861328
 70
   192
  0
VERTEX
  5
304
  8
0
 10
2.062485218048096
 20
223.7419738769531
 30
45.21279907226562
 70
   192
  0
VERTEX
  5
305
  8
0
 10
4.12204122543335
 20
256.1492614746094
 30
47.33031463623047
 70
   192
  0
VERTEX
  5
306
  8
0
 10
-5.104573249816895
 20
191.0415496826172
 30
47.82158279418945
 70
   192
  0
VERTEX
  5
307
  8
0
 10
-6.935906410217285
 20
223.4211883544922
 30
49.80022430419922
 70
   192
  0
VERTEX
  5
308
  8
0
 10
-6.292259693145752
 20
256.0209350585938
 30
49.16568374633789
 70
   192
  0
VERTEX
  5
309
  8
0
 10
-5.288238525390625
 20
223.6087341308594
 30
47.11822128295898
 70
   192
  0
VERTEX
  5
30A
  8
0
 10
-4.124246120452881
 20
256.149658203125
 30
47.3248291015625
 70
   192
  0
VERTEX
  5
30B
  8
0
 10
-7.695173740386963
 20
255.8464660644531
 30
51.6606559753418
 70
   192
  0
VERTEX
  5
30C
  8
0
 10
-2.029834270477295
 20
223.7444610595703
 30
45.17726516723633
 70
   192
  0
VERTEX
  5
30D
  8
0
 10
6.287411689758301
 20
256.0188903808594
 30
49.19476318359375
 70
   192
  0
VERTEX
  5
30E
  8
0
 10
-0.0000000000001932
 20
191.2777862548828
 30
44.44339752197266
 70
   192
  0
VERTEX
  5
30F
  8
0
 10
-2.102120876312256
 20
191.2480010986328
 30
44.86918640136719
 70
   192
  0
VERTEX
  5
310
  8
0
 10
3.880493640899658
 20
191.1632995605469
 30
46.08050155639648
 70
   192
  0
VERTEX
  5
311
  8
0
 10
7.754990100860596
 20
255.8471374511719
 30
51.65111541748047
 70
   192
  0
VERTEX
  5
312
  8
0
 10
2.110852003097534
 20
191.247314453125
 30
44.87903594970703
 70
   192
  0
VERTEX
  5
313
  8
0
 10
-3.899818658828735
 20
191.1661987304688
 30
46.03898239135742
 70
   192
  0
VERTEX
  5
314
  8
0
 10
3.784272193908691
 20
257.5529479980469
 30
52.57006072998047
 70
   192
  0
VERTEX
  5
315
  8
0
 10
1.665818214416504
 20
257.687255859375
 30
50.6491584777832
 70
   192
  0
VERTEX
  5
316
  8
0
 10
-1.628212332725525
 20
257.6901245117188
 30
50.60823440551758
 70
   192
  0
VERTEX
  5
317
  8
0
 10
-3.797849655151367
 20
257.5540466308594
 30
52.55412673950195
 70
   192
  0
VERTEX
  5
318
  8
0
 62
     9
 10
0.0
 20
0.0
 30
0.0
 70
   128
 71
     3
 72
     2
 73
     1
  0
VERTEX
  5
319
  8
0
 62
     9
 10
0.0
 20
0.0
 30
0.0
 70
   128
 71
     4
 72
     3
 73
     1
  0
VERTEX
  5
31A
  8
0
 62
     9
 10
0.0
 20
0.0
 30
0.0
 70
   128
 71
     6
 72
     5
 73
     3
  0
VERTEX
  5
31B
  8
0
 62
     9
 10
0.0
 20
0.0
 30
0.0
 70
   128
 71
     9
 72
     8
 73
     7
  0
VERTEX
  5
31C
  8
0
 62
     9
 10
0.0
 20
0.0
 30
0.0
 70
   128
 71
     2
 72
     7
 73
     8
  0
VERTEX
  5
31D
  8
0
 62
     9
 10
0.0
 20
0.0
 30
0.0
 70
   128
 71
    12
 72
    11
 73
    10
  0
VERTEX
  5
31E
  8
0
 62
     9
 10
0.0
 20
0.0
 30
0.0
 70
   128
 71
     8
 72
     1
 73
     2
  0
VERTEX
  5
31F
  8
0
 62
     9
 10
0.0
 20
0.0
 30
0.0
 70
   128
 71
     1
 72
    10
 73
    13
  0
VERTEX
  5
320
  8
0
 62
     9
 10
0.0
 20
0.0
 30
0.0
 70
   128
 71
     3
 72
     4
 73
    14
  0
VERTEX
  5
321
  8
0
 62
     9
 10
0.0
 20
0.0
 30
0.0
 70
   128
 71
    15
 72
    13
 73
    11
  0
VERTEX
  5
322
  8
0
 62
     9
 10
0.0
 20
0.0
 30
0.0
 70
   128
 71
    14
 72
     6
 73
     3
  0
VERTEX
  5
323
  8
0
 62
     9
 10
0.0
 20
0.0
 30
0.0
 70
   128
 71
    14
 72
     4
 73
    16
  0
VERTEX
  5
324
  8
0
 62
     9
 10
0.0
 20
0.0
 30
0.0
 70
   128
 71
     2
 72
     5
 73
    17
  0
VERTEX
  5
325
  8
0
 62
     9
 10
0.0
 20
0.0
 30
0.0
 70
   128
 71
    17
 72
     7
 73
     2
  0
VERTEX
  5
326
  8
0
 62
     9
 10
0.0
 20
0.0
 30
0.0
 70
   128
 71
     5
 72
     2
 73
     3
  0
VERTEX
  5
327
  8
0
 62
     9
 10
0.0
 20
0.0
 30
0.0
 70
   128
 71
     9
 72
    12
 73
     8
  0
VERTEX
  5
328
  8
0
 62
     9
 10
0.0
 20
0.0
 30
0.0
 70
   128
 71
     8
 72
    10
 73
     1
  0
VERTEX
  5
329
  8
0
 62
     9
 10
0.0
 20
0.0
 30
0.0
 70
   128
 71
    10
 72
     8
 73
    12
  0
VERTEX
  5
32A
  8
0
 62
     9
 10
0.0
 20
0.0
 30
0.0
 70
   128
 71
    13
 72
    10
 73
    11
  0
VERTEX
  5
32B
  8
0
 62
     9
 10
0.0
 20
0.0
 30
0.0
 70
   128
 71
    20
 72
    19
 73
    18
  0
VERTEX
  5
32C
  8
0
 62
     9
 10
0.0
 20
0.0
 30
0.0
 70
   128
 71
    23
 72
    22
 73
    21
  0
VERTEX
  5
32D
  8
0
 62
     9
 10
0.0
 20
0.0
 30
0.0
 70
   128
 71
    24
 72
     9
 73
     7
  0
VERTEX
  5
32E
  8
0
 62
     9
 10
0.0
 20
0.0
 30
0.0
 70
   128
 71
    25
 72
     9
 73
    24
  0
VERTEX
  5
32F
  8
0
 62
     9
 10
0.0
 20
0.0
 30
0.0
 70
   128
 71
    21
 72
    12
 73
    25
  0
VERTEX
  5
330
  8
0
 62
     9
 10
0.0
 20
0.0
 30
0.0
 70
   128
 71
    12
 72
     9
 73
    25
  0
VERTEX
  5
331
  8
0
 62
     9
 10
0.0
 20
0.0
 30
0.0
 70
   128
 71
    21
 72
    11
 73
    12
  0
VERTEX
  5
332
  8
0
 62
     9
 10
0.0
 20
0.0
 30
0.0
 70
   128
 71
    21
 72
    22
 73
    26
  0
VERTEX
  5
333
  8
0
 62
     9
 10
0.0
 20
0.0
 30
0.0
 70
   128
 71
    11
 72
    21
 73
    15
  0
VERTEX
  5
334
  8
0
 62
     9
 10
0.0
 20
0.0
 30
0.0
 70
   128
 71
    24
 72
     7
 73
    27
  0
VERTEX
  5
335
  8
0
 62
     9
 10
0.0
 20
0.0
 30
0.0
 70
   128
 71
    29
 72
    24
 73
    28
  0
VERTEX
  5
336
  8
0
 62
     9
 10
0.0
 20
0.0
 30
0.0
 70
   128
 71
    27
 72
     7
 73
    17
  0
VERTEX
  5
337
  8
0
 62
     9
 10
0.0
 20
0.0
 30
0.0
 70
   128
 71
     5
 72
    27
 73
    17
  0
VERTEX
  5
338
  8
0
 62
     9
 10
0.0
 20
0.0
 30
0.0
 70
   128
 71
    30
 72
    27
 73
     5
  0
VERTEX
  5
339
  8
0
 62
     9
 10
0.0
 20
0.0
 30
0.0
 70
   128
 71
    30
 72
    18
 73
    19
  0
VERTEX
  5
33A
  8
0
 62
     9
 10
0.0
 20
0.0
 30
0.0
 70
   128
 71
    30
 72
     6
 73
    18
  0
VERTEX
  5
33B
  8
0
 62
     9
 10
0.0
 20
0.0
 30
0.0
 70
   128
 71
    31
 72
    20
 73
    18
  0
VERTEX
  5
33C
  8
0
 62
     9
 10
0.0
 20
0.0
 30
0.0
 70
   128
 71
    18
 72
     6
 73
    14
  0
VERTEX
  5
33D
  8
0
 62
     9
 10
0.0
 20
0.0
 30
0.0
 70
   128
 71
    31
 72
    18
 73
    16
  0
VERTEX
  5
33E
  8
0
 62
     9
 10
0.0
 20
0.0
 30
0.0
 70
   128
 71
    32
 72
    30
 73
    19
  0
VERTEX
  5
33F
  8
0
 62
     9
 10
0.0
 20
0.0
 30
0.0
 70
   128
 71
    18
 72
    14
 73
    16
  0
VERTEX
  5
340
  8
0
 62
     9
 10
0.0
 20
0.0
 30
0.0
 70
   128
 71
    30
 72
    32
 73
    33
  0
VERTEX
  5
341
  8
0
 62
     9
 10
0.0
 20
0.0
 30
0.0
 70
   128
 71
     6
 72
    30
 73
     5
  0
VERTEX
  5
342
  8
0
 62
     9
 10
0.0
 20
0.0
 30
0.0
 70
   128
 71
    33
 72
    27
 73
    30
  0
VERTEX
  5
343
  8
0
 62
     9
 10
0.0
 20
0.0
 30
0.0
 70
   128
 71
    27
 72
    33
 73
    28
  0
VERTEX
  5
344
  8
0
 62
     9
 10
0.0
 20
0.0
 30
0.0
 70
   128
 71
    24
 72
    27
 73
    28
  0
VERTEX
  5
345
  8
0
 62
     9
 10
0.0
 20
0.0
 30
0.0
 70
   128
 71
    34
 72
    25
 73
    29
  0
VERTEX
  5
346
  8
0
 62
     9
 10
0.0
 20
0.0
 30
0.0
 70
   128
 71
    25
 72
    24
 73
    29
  0
VERTEX
  5
347
  8
0
 62
     9
 10
0.0
 20
0.0
 30
0.0
 70
   128
 71
    25
 72
    34
 73
    23
  0
VERTEX
  5
348
  8
0
 62
     9
 10
0.0
 20
0.0
 30
0.0
 70
   128
 71
    21
 72
    25
 73
    23
  0
VERTEX
  5
349
  8
0
 62
     9
 10
0.0
 20
0.0
 30
0.0
 70
   128
 71
    21
 72
    26
 73
    15
  0
VERTEX
  5
34A
  8
0
 62
     9
 10
0.0
 20
0.0
 30
0.0
 70
   128
 71
    37
 72
    36
 73
    35
  0
VERTEX
  5
34B
  8
0
 62
     9
 10
0.0
 20
0.0
 30
0.0
 70
   128
 71
    40
 72
    39
 73
    38
  0
VERTEX
  5
34C
  8
0
 62
     9
 10
0.0
 20
0.0
 30
0.0
 70
   128
 71
    41
 72
    40
 73
    38
  0
VERTEX
  5
34D
  8
0
 62
     9
 10
0.0
 20
0.0
 30
0.0
 70
   128
 71
    37
 72
    35
 73
    22
  0
VERTEX
  5
34E
  8
0
 62
     9
 10
0.0
 20
0.0
 30
0.0
 70
   128
 71
    43
 72
    42
 73
    20
  0
VERTEX
  5
34F
  8
0
 62
     9
 10
0.0
 20
0.0
 30
0.0
 70
   128
 71
    46
 72
    45
 73
    44
  0
VERTEX
  5
350
  8
0
 62
     9
 10
0.0
 20
0.0
 30
0.0
 70
   128
 71
    43
 72
    16
 73
    47
  0
VERTEX
  5
351
  8
0
 62
     9
 10
0.0
 20
0.0
 30
0.0
 70
   128
 71
    43
 72
    47
 73
    44
  0
VERTEX
  5
352
  8
0
 62
     9
 10
0.0
 20
0.0
 30
0.0
 70
   128
 71
    45
 72
    43
 73
    44
  0
VERTEX
  5
353
  8
0
 62
     9
 10
0.0
 20
0.0
 30
0.0
 70
   128
 71
    20
 72
    31
 73
    43
  0
VERTEX
  5
354
  8
0
 62
     9
 10
0.0
 20
0.0
 30
0.0
 70
   128
 71
    39
 72
    40
 73
    48
  0
VERTEX
  5
355
  8
0
 62
     9
 10
0.0
 20
0.0
 30
0.0
 70
   128
 71
    39
 72
    48
 73
    46
  0
VERTEX
  5
356
  8
0
 62
     9
 10
0.0
 20
0.0
 30
0.0
 70
   128
 71
    46
 72
    48
 73
    45
  0
VERTEX
  5
357
  8
0
 62
     9
 10
0.0
 20
0.0
 30
0.0
 70
   128
 71
    49
 72
    35
 73
    36
  0
VERTEX
  5
358
  8
0
 62
     9
 10
0.0
 20
0.0
 30
0.0
 70
   128
 71
    51
 72
    48
 73
    50
  0
VERTEX
  5
359
  8
0
 62
     9
 10
0.0
 20
0.0
 30
0.0
 70
   128
 71
    40
 72
    41
 73
    36
  0
VERTEX
  5
35A
  8
0
 62
     9
 10
0.0
 20
0.0
 30
0.0
 70
   128
 71
    15
 72
    26
 73
    35
  0
VERTEX
  5
35B
  8
0
 62
     9
 10
0.0
 20
0.0
 30
0.0
 70
   128
 71
    52
 72
    36
 73
    37
  0
VERTEX
  5
35C
  8
0
 62
     9
 10
0.0
 20
0.0
 30
0.0
 70
   128
 71
    35
 72
    49
 73
    53
  0
VERTEX
  5
35D
  8
0
 62
     9
 10
0.0
 20
0.0
 30
0.0
 70
   128
 71
    35
 72
    53
 73
    15
  0
VERTEX
  5
35E
  8
0
 62
     9
 10
0.0
 20
0.0
 30
0.0
 70
   128
 71
    35
 72
    26
 73
    22
  0
VERTEX
  5
35F
  8
0
 62
     9
 10
0.0
 20
0.0
 30
0.0
 70
   128
 71
    36
 72
    52
 73
    54
  0
VERTEX
  5
360
  8
0
 62
     9
 10
0.0
 20
0.0
 30
0.0
 70
   128
 71
    49
 72
    36
 73
    41
  0
VERTEX
  5
361
  8
0
 62
     9
 10
0.0
 20
0.0
 30
0.0
 70
   128
 71
    54
 72
    40
 73
    36
  0
VERTEX
  5
362
  8
0
 62
     9
 10
0.0
 20
0.0
 30
0.0
 70
   128
 71
    40
 72
    54
 73
    50
  0
VERTEX
  5
363
  8
0
 62
     9
 10
0.0
 20
0.0
 30
0.0
 70
   128
 71
    48
 72
    40
 73
    50
  0
VERTEX
  5
364
  8
0
 62
     9
 10
0.0
 20
0.0
 30
0.0
 70
   128
 71
    55
 72
    45
 73
    51
  0
VERTEX
  5
365
  8
0
 62
     9
 10
0.0
 20
0.0
 30
0.0
 70
   128
 71
    45
 72
    48
 73
    51
  0
VERTEX
  5
366
  8
0
 62
     9
 10
0.0
 20
0.0
 30
0.0
 70
   128
 71
    45
 72
    55
 73
    42
  0
VERTEX
  5
367
  8
0
 62
     9
 10
0.0
 20
0.0
 30
0.0
 70
   128
 71
    43
 72
    45
 73
    42
  0
VERTEX
  5
368
  8
0
 62
     9
 10
0.0
 20
0.0
 30
0.0
 70
   128
 71
    43
 72
    31
 73
    16
  0
VERTEX
  5
369
  8
0
 62
     9
 10
0.0
 20
0.0
 30
0.0
 70
   128
 71
    53
 72
    49
 73
    56
  0
VERTEX
  5
36A
  8
0
 62
     9
 10
0.0
 20
0.0
 30
0.0
 70
   128
 71
    39
 72
    57
 73
    38
  0
VERTEX
  5
36B
  8
0
 62
     9
 10
0.0
 20
0.0
 30
0.0
 70
   128
 71
    13
 72
    53
 73
    56
  0
VERTEX
  5
36C
  8
0
 62
     9
 10
0.0
 20
0.0
 30
0.0
 70
   128
 71
    15
 72
    53
 73
    13
  0
VERTEX
  5
36D
  8
0
 62
     9
 10
0.0
 20
0.0
 30
0.0
 70
   128
 71
    58
 72
    39
 73
    46
  0
VERTEX
  5
36E
  8
0
 62
     9
 10
0.0
 20
0.0
 30
0.0
 70
   128
 71
    41
 72
    56
 73
    49
  0
VERTEX
  5
36F
  8
0
 62
     9
 10
0.0
 20
0.0
 30
0.0
 70
   128
 71
    47
 72
    59
 73
    44
  0
VERTEX
  5
370
  8
0
 62
     9
 10
0.0
 20
0.0
 30
0.0
 70
   128
 71
    16
 72
     4
 73
    47
  0
VERTEX
  5
371
  8
0
 62
     9
 10
0.0
 20
0.0
 30
0.0
 70
   128
 71
    59
 72
     4
 73
     1
  0
VERTEX
  5
372
  8
0
 62
     9
 10
0.0
 20
0.0
 30
0.0
 70
   128
 71
    56
 72
    57
 73
     1
  0
VERTEX
  5
373
  8
0
 62
     9
 10
0.0
 20
0.0
 30
0.0
 70
   128
 71
    57
 72
    56
 73
    41
  0
VERTEX
  5
374
  8
0
 62
     9
 10
0.0
 20
0.0
 30
0.0
 70
   128
 71
     1
 72
    13
 73
    56
  0
VERTEX
  5
375
  8
0
 62
     9
 10
0.0
 20
0.0
 30
0.0
 70
   128
 71
    57
 72
    41
 73
    38
  0
VERTEX
  5
376
  8
0
 62
     9
 10
0.0
 20
0.0
 30
0.0
 70
   128
 71
    46
 72
    44
 73
    58
  0
VERTEX
  5
377
  8
0
 62
     9
 10
0.0
 20
0.0
 30
0.0
 70
   128
 71
    58
 72
     1
 73
    57
  0
VERTEX
  5
378
  8
0
 62
     9
 10
0.0
 20
0.0
 30
0.0
 70
   128
 71
    39
 72
    58
 73
    57
  0
VERTEX
  5
379
  8
0
 62
     9
 10
0.0
 20
0.0
 30
0.0
 70
   128
 71
    58
 72
    59
 73
     1
  0
VERTEX
  5
37A
  8
0
 62
     9
 10
0.0
 20
0.0
 30
0.0
 70
   128
 71
    59
 72
    58
 73
    44
  0
VERTEX
  5
37B
  8
0
 62
     9
 10
0.0
 20
0.0
 30
0.0
 70
   128
 71
     4
 72
    59
 73
    47
  0
SEQEND
  5
37C
  8
0
 62
     9
  0
ENDBLK
  5
37F
  8
0
  0
BLOCK
  8
0
  2
ABDECKUNG_OBEN_1_
 70
     0
 10
0.0
 20
0.0
 30
0.0
  3
ABDECKUNG_OBEN_1_
  1

  0
POLYLINE
  5
381
  8
0
 66
     1
 10
0.0
 20
0.0
 30
0.0
 70
    64
 71
    71
 72
   110
  0
VERTEX
  5
382
  8
0
 10
-11.46745491027832
 20
177.7445373535156
 30
59.40172576904297
 70
   192
  0
VERTEX
  5
383
  8
0
 10
-5.847247123718262
 20
180.0
 30
59.82901763916016
 70
   192
  0
VERTEX
  5
384
  8
0
 10
-4.134627819061279
 20
175.8653717041016
 30
59.82901763916016
 70
   192
  0
VERTEX
  5
385
  8
0
 10
-10.80409145355225
 20
175.5469512939453
 30
59.40172576904297
 70
   192
  0
VERTEX
  5
386
  8
0
 10
-0.0000000000001398
 20
180.0
 30
59.97156143188477
 70
   192
  0
VERTEX
  5
387
  8
0
 10
-11.68060207366943
 20
180.0
 30
59.40172576904297
 70
   192
  0
VERTEX
  5
388
  8
0
 10
-8.223062515258789
 20
171.7714233398438
 30
59.40172576904297
 70
   192
  0
VERTEX
  5
389
  8
0
 10
-9.72779655456543
 20
173.5179748535156
 30
59.40172576904297
 70
   192
  0
VERTEX
  5
38A
  8
0
 10
-6.491425037384033
 20
170.2882232666016
 30
59.40172576904297
 70
   192
  0
VERTEX
  5
38B
  8
0
 10
-0.0000000001206096
 20
174.1527404785156
 30
59.82901763916016
 70
   192
  0
VERTEX
  5
38C
  8
0
 10
-0.0000000551262893
 20
168.3198547363281
 30
59.40172576904297
 70
   192
  0
VERTEX
  5
38D
  8
0
 10
-2.278441429138184
 20
168.5436706542969
 30
59.40172576904297
 70
   192
  0
VERTEX
  5
38E
  8
0
 10
-4.469834327697754
 20
169.2081451416016
 30
59.40172576904297
 70
   192
  0
VERTEX
  5
38F
  8
0
 10
2.279053688049316
 20
168.5441436767578
 30
59.40172576904297
 70
   192
  0
VERTEX
  5
390
  8
0
 10
4.134627819061279
 20
175.8653717041016
 30
59.82901763916016
 70
   192
  0
VERTEX
  5
391
  8
0
 10
4.471147537231445
 20
169.2095184326172
 30
59.40172576904297
 70
   192
  0
VERTEX
  5
392
  8
0
 10
8.270426750183105
 20
171.7621765136719
 30
59.40172576904297
 70
   192
  0
VERTEX
  5
393
  8
0
 10
6.483007431030273
 20
170.2942657470703
 30
59.40172576904297
 70
   192
  0
VERTEX
  5
394
  8
0
 10
9.718823432922363
 20
173.5317840576172
 30
59.40172576904297
 70
   192
  0
VERTEX
  5
395
  8
0
 10
5.847247123718262
 20
180.0
 30
59.82901763916016
 70
   192
  0
VERTEX
  5
396
  8
0
 10
11.68060207366943
 20
180.0
 30
59.40172576904297
 70
   192
  0
VERTEX
  5
397
  8
0
 10
11.45695686340332
 20
177.7489776611328
 30
59.40172576904297
 70
   192
  0
VERTEX
  5
398
  8
0
 10
10.79507923126221
 20
175.5528106689453
 30
59.40172576904297
 70
   192
  0
VERTEX
  5
399
  8
0
 10
11.46737766265869
 20
182.2558441162109
 30
59.40172576904297
 70
   192
  0
VERTEX
  5
39A
  8
0
 10
4.134627819061279
 20
184.1346282958984
 30
59.82901763916016
 70
   192
  0
VERTEX
  5
39B
  8
0
 10
10.80378913879395
 20
184.4537811279297
 30
59.40172576904297
 70
   192
  0
VERTEX
  5
39C
  8
0
 10
8.221956253051758
 20
188.2297058105469
 30
59.40172576904297
 70
   192
  0
VERTEX
  5
39D
  8
0
 10
9.727112770080566
 20
186.4830017089844
 30
59.40172576904297
 70
   192
  0
VERTEX
  5
39E
  8
0
 10
6.489765167236328
 20
189.7128753662109
 30
59.40172576904297
 70
   192
  0
VERTEX
  5
39F
  8
0
 10
-0.000000000044696
 20
185.8472442626953
 30
59.82901763916016
 70
   192
  0
VERTEX
  5
3A0
  8
0
 10
-0.0000000505482305
 20
191.6800079345703
 30
59.40172576904297
 70
   192
  0
VERTEX
  5
3A1
  8
0
 10
2.275702238082886
 20
191.4568634033203
 30
59.40172576904297
 70
   192
  0
VERTEX
  5
3A2
  8
0
 10
4.467619895935059
 20
190.7927703857422
 30
59.40172576904297
 70
   192
  0
VERTEX
  5
3A3
  8
0
 10
-1.267145872116089
 20
167.9551544189453
 30
57.63000106811523
 70
   192
  0
VERTEX
  5
3A4
  8
0
 10
-3.743008613586426
 20
168.4822998046875
 30
57.63000106811523
 70
   192
  0
VERTEX
  5
3A5
  8
0
 10
1.26353657245636
 20
167.9544982910156
 30
57.63000106811523
 70
   192
  0
VERTEX
  5
3A6
  8
0
 10
-6.055254936218262
 20
169.5115051269531
 30
57.63000106811523
 70
   192
  0
VERTEX
  5
3A7
  8
0
 10
-8.100799560546875
 20
171.0009765625
 30
57.63000106811523
 70
   192
  0
VERTEX
  5
3A8
  8
0
 10
-9.79210090637207
 20
172.8875122070312
 30
57.63000106811523
 70
   192
  0
VERTEX
  5
3A9
  8
0
 10
-11.06099128723145
 20
175.0758361816406
 30
57.63000106811523
 70
   192
  0
VERTEX
  5
3AA
  8
0
 10
-11.84661293029785
 20
177.4849395751953
 30
57.63000106811523
 70
   192
  0
VERTEX
  5
3AB
  8
0
 10
-12.11164379119873
 20
180.0
 30
57.63000106811523
 70
   192
  0
VERTEX
  5
3AC
  8
0
 10
3.740243911743164
 20
168.4799346923828
 30
57.63000106811523
 70
   192
  0
VERTEX
  5
3AD
  8
0
 10
6.051986694335938
 20
169.5080718994141
 30
57.63000106811523
 70
   192
  0
VERTEX
  5
3AE
  8
0
 10
8.097990989685059
 20
170.9995269775391
 30
57.63000106811523
 70
   192
  0
VERTEX
  5
3AF
  8
0
 10
9.770711898803711
 20
172.9012908935547
 30
57.63000106811523
 70
   192
  0
VERTEX
  5
3B0
  8
0
 10
11.06658458709717
 20
175.0715789794922
 30
57.63000106811523
 70
   192
  0
VERTEX
  5
3B1
  8
0
 10
11.84732532501221
 20
177.4801635742188
 30
57.63000106811523
 70
   192
  0
VERTEX
  5
3B2
  8
0
 10
12.11164379119873
 20
180.0
 30
57.63000106811523
 70
   192
  0
VERTEX
  5
3B3
  8
0
 10
-11.45703792572021
 20
182.2506103515625
 30
59.40172576904297
 70
   192
  0
VERTEX
  5
3B4
  8
0
 10
-9.719493865966797
 20
186.4672088623047
 30
59.40172576904297
 70
   192
  0
VERTEX
  5
3B5
  8
0
 10
-10.79538440704346
 20
184.4464416503906
 30
59.40172576904297
 70
   192
  0
VERTEX
  5
3B6
  8
0
 10
-11.06658458709717
 20
184.9284210205078
 30
57.63000106811523
 70
   192
  0
VERTEX
  5
3B7
  8
0
 10
-6.484629154205322
 20
189.70458984375
 30
59.40172576904297
 70
   192
  0
VERTEX
  5
3B8
  8
0
 10
-6.051986694335938
 20
190.4919128417969
 30
57.63000106811523
 70
   192
  0
VERTEX
  5
3B9
  8
0
 10
-4.473366260528564
 20
190.78955078125
 30
59.40172576904297
 70
   192
  0
VERTEX
  5
3BA
  8
0
 10
-8.097990989685059
 20
189.0004577636719
 30
57.63000106811523
 70
   192
  0
VERTEX
  5
3BB
  8
0
 10
-8.271565437316895
 20
188.2366638183594
 30
59.40172576904297
 70
   192
  0
VERTEX
  5
3BC
  8
0
 10
-9.770711898803711
 20
187.0986938476562
 30
57.63000106811523
 70
   192
  0
VERTEX
  5
3BD
  8
0
 10
1.267145872116089
 20
192.0448455810547
 30
57.63000106811523
 70
   192
  0
VERTEX
  5
3BE
  8
0
 10
-1.26353657245636
 20
192.0455017089844
 30
57.63000106811523
 70
   192
  0
VERTEX
  5
3BF
  8
0
 10
-2.281789541244507
 20
191.4552917480469
 30
59.40172576904297
 70
   192
  0
VERTEX
  5
3C0
  8
0
 10
8.100799560546875
 20
188.9990081787109
 30
57.63000106811523
 70
   192
  0
VERTEX
  5
3C1
  8
0
 10
6.055254936218262
 20
190.4884948730469
 30
57.63000106811523
 70
   192
  0
VERTEX
  5
3C2
  8
0
 10
3.743008613586426
 20
191.5176849365234
 30
57.63000106811523
 70
   192
  0
VERTEX
  5
3C3
  8
0
 10
9.79210090637207
 20
187.1124877929688
 30
57.63000106811523
 70
   192
  0
VERTEX
  5
3C4
  8
0
 10
11.06099128723145
 20
184.9241485595703
 30
57.63000106811523
 70
   192
  0
VERTEX
  5
3C5
  8
0
 10
11.84661293029785
 20
182.5150451660156
 30
57.63000106811523
 70
   192
  0
VERTEX
  5
3C6
  8
0
 10
-3.740243911743164
 20
191.5200653076172
 30
57.63000106811523
 70
   192
  0
VERTEX
  5
3C7
  8
0
 10
-11.84732532501221
 20
182.5198211669922
 30
57.63000106811523
 70
   192
  0
VERTEX
  5
3C8
  8
0
 10
-4.134627819061279
 20
184.1346282958984
 30
59.82901763916016
 70
   192
  0
VERTEX
  5
3C9
  8
0
 62
   253
 10
0.0
 20
0.0
 30
0.0
 70
   128
 71
     3
 72
     2
 73
     1
  0
VERTEX
  5
3CA
  8
0
 62
   253
 10
0.0
 20
0.0
 30
0.0
 70
   128
 71
     1
 72
     4
 73
     3
  0
VERTEX
  5
3CB
  8
0
 62
   253
 10
0.0
 20
0.0
 30
0.0
 70
   128
 71
     2
 72
     3
 73
     5
  0
VERTEX
  5
3CC
  8
0
 62
   253
 10
0.0
 20
0.0
 30
0.0
 70
   128
 71
     2
 72
     6
 73
     1
  0
VERTEX
  5
3CD
  8
0
 62
   253
 10
0.0
 20
0.0
 30
0.0
 70
   128
 71
     3
 72
     8
 73
     7
  0
VERTEX
  5
3CE
  8
0
 62
   253
 10
0.0
 20
0.0
 30
0.0
 70
   128
 71
     4
 72
     8
 73
     3
  0
VERTEX
  5
3CF
  8
0
 62
   253
 10
0.0
 20
0.0
 30
0.0
 70
   128
 71
     9
 72
     3
 73
     7
  0
VERTEX
  5
3D0
  8
0
 62
   253
 10
0.0
 20
0.0
 30
0.0
 70
   128
 71
    12
 72
    11
 73
    10
  0
VERTEX
  5
3D1
  8
0
 62
   253
 10
0.0
 20
0.0
 30
0.0
 70
   128
 71
     9
 72
    10
 73
     3
  0
VERTEX
  5
3D2
  8
0
 62
   253
 10
0.0
 20
0.0
 30
0.0
 70
   128
 71
    13
 72
    12
 73
    10
  0
VERTEX
  5
3D3
  8
0
 62
   253
 10
0.0
 20
0.0
 30
0.0
 70
   128
 71
     9
 72
    13
 73
    10
  0
VERTEX
  5
3D4
  8
0
 62
   253
 10
0.0
 20
0.0
 30
0.0
 70
   128
 71
     5
 72
     3
 73
    10
  0
VERTEX
  5
3D5
  8
0
 62
   253
 10
0.0
 20
0.0
 30
0.0
 70
   128
 71
    15
 72
    10
 73
    14
  0
VERTEX
  5
3D6
  8
0
 62
   253
 10
0.0
 20
0.0
 30
0.0
 70
   128
 71
    14
 72
    16
 73
    15
  0
VERTEX
  5
3D7
  8
0
 62
   253
 10
0.0
 20
0.0
 30
0.0
 70
   128
 71
    10
 72
    15
 73
     5
  0
VERTEX
  5
3D8
  8
0
 62
   253
 10
0.0
 20
0.0
 30
0.0
 70
   128
 71
    10
 72
    11
 73
    14
  0
VERTEX
  5
3D9
  8
0
 62
   253
 10
0.0
 20
0.0
 30
0.0
 70
   128
 71
    15
 72
    18
 73
    17
  0
VERTEX
  5
3DA
  8
0
 62
   253
 10
0.0
 20
0.0
 30
0.0
 70
   128
 71
    16
 72
    18
 73
    15
  0
VERTEX
  5
3DB
  8
0
 62
   253
 10
0.0
 20
0.0
 30
0.0
 70
   128
 71
    19
 72
    15
 73
    17
  0
VERTEX
  5
3DC
  8
0
 62
   253
 10
0.0
 20
0.0
 30
0.0
 70
   128
 71
    22
 72
    21
 73
    20
  0
VERTEX
  5
3DD
  8
0
 62
   253
 10
0.0
 20
0.0
 30
0.0
 70
   128
 71
    19
 72
    20
 73
    15
  0
VERTEX
  5
3DE
  8
0
 62
   253
 10
0.0
 20
0.0
 30
0.0
 70
   128
 71
    23
 72
    22
 73
    20
  0
VERTEX
  5
3DF
  8
0
 62
   253
 10
0.0
 20
0.0
 30
0.0
 70
   128
 71
    19
 72
    23
 73
    20
  0
VERTEX
  5
3E0
  8
0
 62
   253
 10
0.0
 20
0.0
 30
0.0
 70
   128
 71
     5
 72
    15
 73
    20
  0
VERTEX
  5
3E1
  8
0
 62
   253
 10
0.0
 20
0.0
 30
0.0
 70
   128
 71
    25
 72
    20
 73
    24
  0
VERTEX
  5
3E2
  8
0
 62
   253
 10
0.0
 20
0.0
 30
0.0
 70
   128
 71
    24
 72
    26
 73
    25
  0
VERTEX
  5
3E3
  8
0
 62
   253
 10
0.0
 20
0.0
 30
0.0
 70
   128
 71
    20
 72
    25
 73
     5
  0
VERTEX
  5
3E4
  8
0
 62
   253
 10
0.0
 20
0.0
 30
0.0
 70
   128
 71
    20
 72
    21
 73
    24
  0
VERTEX
  5
3E5
  8
0
 62
   253
 10
0.0
 20
0.0
 30
0.0
 70
   128
 71
    25
 72
    28
 73
    27
  0
VERTEX
  5
3E6
  8
0
 62
   253
 10
0.0
 20
0.0
 30
0.0
 70
   128
 71
    26
 72
    28
 73
    25
  0
VERTEX
  5
3E7
  8
0
 62
   253
 10
0.0
 20
0.0
 30
0.0
 70
   128
 71
    29
 72
    25
 73
    27
  0
VERTEX
  5
3E8
  8
0
 62
   253
 10
0.0
 20
0.0
 30
0.0
 70
   128
 71
    32
 72
    31
 73
    30
  0
VERTEX
  5
3E9
  8
0
 62
   253
 10
0.0
 20
0.0
 30
0.0
 70
   128
 71
    29
 72
    30
 73
    25
  0
VERTEX
  5
3EA
  8
0
 62
   253
 10
0.0
 20
0.0
 30
0.0
 70
   128
 71
    33
 72
    32
 73
    30
  0
VERTEX
  5
3EB
  8
0
 62
   253
 10
0.0
 20
0.0
 30
0.0
 70
   128
 71
    29
 72
    33
 73
    30
  0
VERTEX
  5
3EC
  8
0
 62
   253
 10
0.0
 20
0.0
 30
0.0
 70
   128
 71
     5
 72
    25
 73
    30
  0
VERTEX
  5
3ED
  8
0
 62
     9
 10
0.0
 20
0.0
 30
0.0
 70
   128
 71
    35
 72
    34
 73
    12
  0
VERTEX
  5
3EE
  8
0
 62
     9
 10
0.0
 20
0.0
 30
0.0
 70
   128
 71
    36
 72
    11
 73
    34
  0
VERTEX
  5
3EF
  8
0
 62
     9
 10
0.0
 20
0.0
 30
0.0
 70
   128
 71
    13
 72
    35
 73
    12
  0
VERTEX
  5
3F0
  8
0
 62
     9
 10
0.0
 20
0.0
 30
0.0
 70
   128
 71
    35
 72
    13
 73
    37
  0
VERTEX
  5
3F1
  8
0
 62
     9
 10
0.0
 20
0.0
 30
0.0
 70
   128
 71
     9
 72
     7
 73
    38
  0
VERTEX
  5
3F2
  8
0
 62
     9
 10
0.0
 20
0.0
 30
0.0
 70
   128
 71
     7
 72
     8
 73
    39
  0
VERTEX
  5
3F3
  8
0
 62
     9
 10
0.0
 20
0.0
 30
0.0
 70
   128
 71
     9
 72
    38
 73
    37
  0
VERTEX
  5
3F4
  8
0
 62
     9
 10
0.0
 20
0.0
 30
0.0
 70
   128
 71
     7
 72
    39
 73
    38
  0
VERTEX
  5
3F5
  8
0
 62
     9
 10
0.0
 20
0.0
 30
0.0
 70
   128
 71
     8
 72
    40
 73
    39
  0
VERTEX
  5
3F6
  8
0
 62
     9
 10
0.0
 20
0.0
 30
0.0
 70
   128
 71
    11
 72
    12
 73
    34
  0
VERTEX
  5
3F7
  8
0
 62
     9
 10
0.0
 20
0.0
 30
0.0
 70
   128
 71
    13
 72
     9
 73
    37
  0
VERTEX
  5
3F8
  8
0
 62
     9
 10
0.0
 20
0.0
 30
0.0
 70
   128
 71
    41
 72
    40
 73
     4
  0
VERTEX
  5
3F9
  8
0
 62
     9
 10
0.0
 20
0.0
 30
0.0
 70
   128
 71
    42
 72
    41
 73
     1
  0
VERTEX
  5
3FA
  8
0
 62
     9
 10
0.0
 20
0.0
 30
0.0
 70
   128
 71
     1
 72
    41
 73
     4
  0
VERTEX
  5
3FB
  8
0
 62
     9
 10
0.0
 20
0.0
 30
0.0
 70
   128
 71
     8
 72
     4
 73
    40
  0
VERTEX
  5
3FC
  8
0
 62
     9
 10
0.0
 20
0.0
 30
0.0
 70
   128
 71
    42
 72
     1
 73
     6
  0
VERTEX
  5
3FD
  8
0
 62
     9
 10
0.0
 20
0.0
 30
0.0
 70
   128
 71
    36
 72
    43
 73
    14
  0
VERTEX
  5
3FE
  8
0
 62
     9
 10
0.0
 20
0.0
 30
0.0
 70
   128
 71
    14
 72
    11
 73
    36
  0
VERTEX
  5
3FF
  8
0
 62
     9
 10
0.0
 20
0.0
 30
0.0
 70
   128
 71
    16
 72
    43
 73
    44
  0
VERTEX
  5
400
  8
0
 62
     9
 10
0.0
 20
0.0
 30
0.0
 70
   128
 71
    43
 72
    16
 73
    14
  0
VERTEX
  5
401
  8
0
 62
     9
 10
0.0
 20
0.0
 30
0.0
 70
   128
 71
    45
 72
    18
 73
    44
  0
VERTEX
  5
402
  8
0
 62
     9
 10
0.0
 20
0.0
 30
0.0
 70
   128
 71
    16
 72
    44
 73
    18
  0
VERTEX
  5
403
  8
0
 62
     9
 10
0.0
 20
0.0
 30
0.0
 70
   128
 71
    45
 72
    46
 73
    17
  0
VERTEX
  5
404
  8
0
 62
     9
 10
0.0
 20
0.0
 30
0.0
 70
   128
 71
    17
 72
    18
 73
    45
  0
VERTEX
  5
405
  8
0
 62
     9
 10
0.0
 20
0.0
 30
0.0
 70
   128
 71
    19
 72
    46
 73
    47
  0
VERTEX
  5
406
  8
0
 62
     9
 10
0.0
 20
0.0
 30
0.0
 70
   128
 71
    46
 72
    19
 73
    17
  0
VERTEX
  5
407
  8
0
 62
     9
 10
0.0
 20
0.0
 30
0.0
 70
   128
 71
    48
 72
    23
 73
    47
  0
VERTEX
  5
408
  8
0
 62
     9
 10
0.0
 20
0.0
 30
0.0
 70
   128
 71
    19
 72
    47
 73
    23
  0
VERTEX
  5
409
  8
0
 62
     9
 10
0.0
 20
0.0
 30
0.0
 70
   128
 71
    48
 72
    49
 73
    22
  0
VERTEX
  5
40A
  8
0
 62
     9
 10
0.0
 20
0.0
 30
0.0
 70
   128
 71
    22
 72
    23
 73
    48
  0
VERTEX
  5
40B
  8
0
 62
     9
 10
0.0
 20
0.0
 30
0.0
 70
   128
 71
    49
 72
    21
 73
    22
  0
VERTEX
  5
40C
  8
0
 62
     9
 10
0.0
 20
0.0
 30
0.0
 70
   128
 71
    42
 72
     6
 73
    50
  0
VERTEX
  5
40D
  8
0
 62
     9
 10
0.0
 20
0.0
 30
0.0
 70
   128
 71
    53
 72
    52
 73
    51
  0
VERTEX
  5
40E
  8
0
 62
     9
 10
0.0
 20
0.0
 30
0.0
 70
   128
 71
    56
 72
    55
 73
    54
  0
VERTEX
  5
40F
  8
0
 62
     9
 10
0.0
 20
0.0
 30
0.0
 70
   128
 71
    59
 72
    58
 73
    57
  0
VERTEX
  5
410
  8
0
 62
     9
 10
0.0
 20
0.0
 30
0.0
 70
   128
 71
    60
 72
    31
 73
    32
  0
VERTEX
  5
411
  8
0
 62
     9
 10
0.0
 20
0.0
 30
0.0
 70
   128
 71
    62
 72
    31
 73
    61
  0
VERTEX
  5
412
  8
0
 62
     9
 10
0.0
 20
0.0
 30
0.0
 70
   128
 71
    64
 72
    29
 73
    63
  0
VERTEX
  5
413
  8
0
 62
     9
 10
0.0
 20
0.0
 30
0.0
 70
   128
 71
    33
 72
    64
 73
    65
  0
VERTEX
  5
414
  8
0
 62
     9
 10
0.0
 20
0.0
 30
0.0
 70
   128
 71
    66
 72
    27
 73
    28
  0
VERTEX
  5
415
  8
0
 62
     9
 10
0.0
 20
0.0
 30
0.0
 70
   128
 71
    27
 72
    66
 73
    63
  0
VERTEX
  5
416
  8
0
 62
     9
 10
0.0
 20
0.0
 30
0.0
 70
   128
 71
    26
 72
    67
 73
    28
  0
VERTEX
  5
417
  8
0
 62
     9
 10
0.0
 20
0.0
 30
0.0
 70
   128
 71
    66
 72
    28
 73
    67
  0
VERTEX
  5
418
  8
0
 62
     9
 10
0.0
 20
0.0
 30
0.0
 70
   128
 71
    26
 72
    24
 73
    68
  0
VERTEX
  5
419
  8
0
 62
     9
 10
0.0
 20
0.0
 30
0.0
 70
   128
 71
    68
 72
    67
 73
    26
  0
VERTEX
  5
41A
  8
0
 62
     9
 10
0.0
 20
0.0
 30
0.0
 70
   128
 71
    49
 72
    24
 73
    21
  0
VERTEX
  5
41B
  8
0
 62
     9
 10
0.0
 20
0.0
 30
0.0
 70
   128
 71
    24
 72
    49
 73
    68
  0
VERTEX
  5
41C
  8
0
 62
     9
 10
0.0
 20
0.0
 30
0.0
 70
   128
 71
    29
 72
    27
 73
    63
  0
VERTEX
  5
41D
  8
0
 62
     9
 10
0.0
 20
0.0
 30
0.0
 70
   128
 71
    33
 72
    29
 73
    64
  0
VERTEX
  5
41E
  8
0
 62
     9
 10
0.0
 20
0.0
 30
0.0
 70
   128
 71
    32
 72
    33
 73
    65
  0
VERTEX
  5
41F
  8
0
 62
     9
 10
0.0
 20
0.0
 30
0.0
 70
   128
 71
    61
 72
    31
 73
    60
  0
VERTEX
  5
420
  8
0
 62
     9
 10
0.0
 20
0.0
 30
0.0
 70
   128
 71
    65
 72
    60
 73
    32
  0
VERTEX
  5
421
  8
0
 62
     9
 10
0.0
 20
0.0
 30
0.0
 70
   128
 71
    56
 72
    62
 73
    69
  0
VERTEX
  5
422
  8
0
 62
     9
 10
0.0
 20
0.0
 30
0.0
 70
   128
 71
    61
 72
    69
 73
    62
  0
VERTEX
  5
423
  8
0
 62
     9
 10
0.0
 20
0.0
 30
0.0
 70
   128
 71
    54
 72
    57
 73
    58
  0
VERTEX
  5
424
  8
0
 62
     9
 10
0.0
 20
0.0
 30
0.0
 70
   128
 71
    55
 72
    57
 73
    54
  0
VERTEX
  5
425
  8
0
 62
     9
 10
0.0
 20
0.0
 30
0.0
 70
   128
 71
    56
 72
    69
 73
    55
  0
VERTEX
  5
426
  8
0
 62
     9
 10
0.0
 20
0.0
 30
0.0
 70
   128
 71
    58
 72
    59
 73
    51
  0
VERTEX
  5
427
  8
0
 62
     9
 10
0.0
 20
0.0
 30
0.0
 70
   128
 71
    53
 72
    51
 73
    59
  0
VERTEX
  5
428
  8
0
 62
     9
 10
0.0
 20
0.0
 30
0.0
 70
   128
 71
    52
 72
    70
 73
    50
  0
VERTEX
  5
429
  8
0
 62
     9
 10
0.0
 20
0.0
 30
0.0
 70
   128
 71
    70
 72
    52
 73
    53
  0
VERTEX
  5
42A
  8
0
 62
     9
 10
0.0
 20
0.0
 30
0.0
 70
   128
 71
    50
 72
    70
 73
    42
  0
VERTEX
  5
42B
  8
0
 62
   253
 10
0.0
 20
0.0
 30
0.0
 70
   128
 71
    71
 72
    30
 73
    62
  0
VERTEX
  5
42C
  8
0
 62
   253
 10
0.0
 20
0.0
 30
0.0
 70
   128
 71
    62
 72
    56
 73
    71
  0
VERTEX
  5
42D
  8
0
 62
   253
 10
0.0
 20
0.0
 30
0.0
 70
   128
 71
    30
 72
    71
 73
     5
  0
VERTEX
  5
42E
  8
0
 62
   253
 10
0.0
 20
0.0
 30
0.0
 70
   128
 71
    30
 72
    31
 73
    62
  0
VERTEX
  5
42F
  8
0
 62
   253
 10
0.0
 20
0.0
 30
0.0
 70
   128
 71
    71
 72
    54
 73
    58
  0
VERTEX
  5
430
  8
0
 62
   253
 10
0.0
 20
0.0
 30
0.0
 70
   128
 71
    56
 72
    54
 73
    71
  0
VERTEX
  5
431
  8
0
 62
   253
 10
0.0
 20
0.0
 30
0.0
 70
   128
 71
    51
 72
    71
 73
    58
  0
VERTEX
  5
432
  8
0
 62
   253
 10
0.0
 20
0.0
 30
0.0
 70
   128
 71
    50
 72
     6
 73
     2
  0
VERTEX
  5
433
  8
0
 62
   253
 10
0.0
 20
0.0
 30
0.0
 70
   128
 71
    51
 72
     2
 73
    71
  0
VERTEX
  5
434
  8
0
 62
   253
 10
0.0
 20
0.0
 30
0.0
 70
   128
 71
    52
 72
    50
 73
     2
  0
VERTEX
  5
435
  8
0
 62
   253
 10
0.0
 20
0.0
 30
0.0
 70
   128
 71
    51
 72
    52
 73
     2
  0
VERTEX
  5
436
  8
0
 62
   253
 10
0.0
 20
0.0
 30
0.0
 70
   128
 71
     5
 72
    71
 73
     2
  0
SEQEND
  5
437
  8
0
  0
ENDBLK
  5
43A
  8
0
  0
BLOCK
  8
0
  2
RING_OBEN_1_
 70
     0
 10
0.0
 20
0.0
 30
0.0
  3
RING_OBEN_1_
  1

  0
POLYLINE
  5
43C
  8
0
 62
     9
 66
     1
 10
0.0
 20
0.0
 30
0.0
 70
    64
 71
   122
 72
   191
  0
VERTEX
  5
43D
  8
0
 10
-5.650000095367432
 20
190.8941192626953
 30
49.93000030517578
 70
   192
  0
VERTEX
  5
43E
  8
0
 10
-5.790730953216553
 20
192.5316162109375
 30
49.89348602294922
 70
   192
  0
VERTEX
  5
43F
  8
0
 10
-4.895117282867432
 20
191.0901184082031
 30
47.12707138061523
 70
   192
  0
VERTEX
  5
440
  8
0
 10
-5.012557029724121
 20
193.4051818847656
 30
47.07795715332031
 70
   192
  0
VERTEX
  5
441
  8
0
 10
-2.85322093963623
 20
191.2358551025391
 30
45.04300308227539
 70
   192
  0
VERTEX
  5
442
  8
0
 10
-2.942134141921997
 20
194.3555755615234
 30
45.02665328979492
 70
   192
  0
VERTEX
  5
443
  8
0
 10
-0.0000000000001904
 20
194.7928161621094
 30
44.23258972167969
 70
   192
  0
VERTEX
  5
444
  8
0
 10
-0.0000000000001882
 20
191.2882385253906
 30
44.29376220703125
 70
   192
  0
VERTEX
  5
445
  8
0
 10
-2.786083698272705
 20
190.5533599853516
 30
54.80304718017578
 70
   192
  0
VERTEX
  5
446
  8
0
 10
-2.927320003509521
 20
192.4049835205078
 30
55.06907272338867
 70
   192
  0
VERTEX
  5
447
  8
0
 10
-4.853814601898193
 20
190.6959381103516
 30
52.76402282714844
 70
   192
  0
VERTEX
  5
448
  8
0
 10
-5.038323879241943
 20
192.2274322509766
 30
52.86112594604492
 70
   192
  0
VERTEX
  5
449
  8
0
 10
-0.0000000000001816
 20
190.5
 30
55.56623840332031
 70
   192
  0
VERTEX
  5
44A
  8
0
 10
-0.0000000000001766
 20
165.1214294433594
 30
43.68441390991211
 70
   192
  0
VERTEX
  5
44B
  8
0
 10
-0.0000000000001645
 20
167.8499908447266
 30
57.63000106811523
 70
   192
  0
VERTEX
  5
44C
  8
0
 10
3.263919115066528
 20
165.4876861572266
 30
43.6658821105957
 70
   192
  0
VERTEX
  5
44D
  8
0
 10
10.82357501983643
 20
190.2422790527344
 30
43.6658821105957
 70
   192
  0
VERTEX
  5
44E
  8
0
 10
13.76519107818604
 20
185.6658325195312
 30
43.6658821105957
 70
   192
  0
VERTEX
  5
44F
  8
0
 10
10.53706550598145
 20
186.0421600341797
 30
57.63000106811523
 70
   192
  0
VERTEX
  5
450
  8
0
 10
14.86417484283447
 20
179.9380645751953
 30
43.6658821105957
 70
   192
  0
VERTEX
  5
451
  8
0
 10
11.738938331604
 20
183.0997161865234
 30
57.63000106811523
 70
   192
  0
VERTEX
  5
452
  8
0
 10
7.034731864929199
 20
193.1377868652344
 30
43.6658821105957
 70
   192
  0
VERTEX
  5
453
  8
0
 10
6.108843803405762
 20
190.4925231933594
 30
57.63000106811523
 70
   192
  0
VERTEX
  5
454
  8
0
 10
2.934599637985229
 20
194.3582153320312
 30
45.02149200439453
 70
   192
  0
VERTEX
  5
455
  8
0
 10
3.632613182067871
 20
196.1064605712891
 30
29.57391738891602
 70
   192
  0
VERTEX
  5
456
  8
0
 10
5.006664752960205
 20
193.4093475341797
 30
47.06735992431641
 70
   192
  0
VERTEX
  5
457
  8
0
 10
8.591347694396973
 20
188.5913391113281
 30
57.63000106811523
 70
   192
  0
VERTEX
  5
458
  8
0
 10
5.790674686431885
 20
192.5324859619141
 30
49.88944244384766
 70
   192
  0
VERTEX
  5
459
  8
0
 10
-0.0000000000002007
 20
196.4790496826172
 30
29.82675933837891
 70
   192
  0
VERTEX
  5
45A
  8
0
 10
-0.0000000000002341
 20
197.0000305175781
 30
15.35410785675049
 70
   192
  0
VERTEX
  5
45B
  8
0
 10
5.039606094360352
 20
192.2273712158203
 30
52.85919952392578
 70
   192
  0
VERTEX
  5
45C
  8
0
 10
11.7232837677002
 20
176.8216094970703
 30
57.63000106811523
 70
   192
  0
VERTEX
  5
45D
  8
0
 10
12.14999961853027
 20
180.0
 30
57.63000106811523
 70
   192
  0
VERTEX
  5
45E
  8
0
 10
15.26064205169678
 20
186.2813720703125
 30
29.57391738891602
 70
   192
  0
VERTEX
  5
45F
  8
0
 10
13.69352626800537
 20
174.2478332519531
 30
43.6658821105957
 70
   192
  0
VERTEX
  5
460
  8
0
 10
3.178378105163574
 20
191.7232818603516
 30
57.63000106811523
 70
   192
  0
VERTEX
  5
461
  8
0
 10
2.929659605026245
 20
192.40478515625
 30
55.06774520874023
 70
   192
  0
VERTEX
  5
462
  8
0
 10
10.49252223968506
 20
173.8911437988281
 30
57.63000106811523
 70
   192
  0
VERTEX
  5
463
  8
0
 10
16.87627029418945
 20
182.0368957519531
 30
15.35410785675049
 70
   192
  0
VERTEX
  5
464
  8
0
 10
16.87290954589844
 20
177.9381103515625
 30
15.35410785675049
 70
   192
  0
VERTEX
  5
465
  8
0
 10
16.4790210723877
 20
179.9313354492188
 30
29.57391738891602
 70
   192
  0
VERTEX
  5
466
  8
0
 10
10.7424259185791
 20
169.7395172119141
 30
43.6658821105957
 70
   192
  0
VERTEX
  5
467
  8
0
 10
8.591347694396973
 20
171.4086456298828
 30
57.63000106811523
 70
   192
  0
VERTEX
  5
468
  8
0
 10
6.042160511016846
 20
169.4629364013672
 30
57.63000106811523
 70
   192
  0
VERTEX
  5
469
  8
0
 10
6.988903045654297
 20
166.8802185058594
 30
43.6658821105957
 70
   192
  0
VERTEX
  5
46A
  8
0
 10
3.178378105163574
 20
168.2767181396484
 30
57.63000106811523
 70
   192
  0
VERTEX
  5
46B
  8
0
 10
7.748178005218506
 20
165.4548950195312
 30
29.57391738891602
 70
   192
  0
VERTEX
  5
46C
  8
0
 10
4.051150798797607
 20
163.6050720214844
 30
15.35410785675049
 70
   192
  0
VERTEX
  5
46D
  8
0
 10
-0.0000000000001922
 20
162.9999542236328
 30
15.35410785675049
 70
   192
  0
VERTEX
  5
46E
  8
0
 10
3.61851167678833
 20
163.9110717773438
 30
29.57391738891602
 70
   192
  0
VERTEX
  5
46F
  8
0
 10
7.896167278289795
 20
164.9449005126953
 30
15.35410785675049
 70
   192
  0
VERTEX
  5
470
  8
0
 10
-0.0000000000001862
 20
163.5001373291016
 30
29.54907035827637
 70
   192
  0
VERTEX
  5
471
  8
0
 10
11.90948390960693
 20
168.6248168945312
 30
29.57391738891602
 70
   192
  0
VERTEX
  5
472
  8
0
 10
15.18119144439697
 20
173.6229248046875
 30
29.57391738891602
 70
   192
  0
VERTEX
  5
473
  8
0
 10
11.99944972991943
 20
191.3549957275391
 30
29.57391738891602
 70
   192
  0
VERTEX
  5
474
  8
0
 10
7.798985481262207
 20
194.5650787353516
 30
29.57391738891602
 70
   192
  0
VERTEX
  5
475
  8
0
 10
11.26219940185547
 20
167.2727813720703
 30
15.35410785675049
 70
   192
  0
VERTEX
  5
476
  8
0
 10
13.97771739959717
 20
170.3361358642578
 30
15.35410785675049
 70
   192
  0
VERTEX
  5
477
  8
0
 10
15.88617038726807
 20
173.9602203369141
 30
15.35410785675049
 70
   192
  0
VERTEX
  5
478
  8
0
 10
15.89899730682373
 20
186.0161895751953
 30
15.35410785675049
 70
   192
  0
VERTEX
  5
479
  8
0
 10
14.00076293945312
 20
189.6488952636719
 30
15.35410785675049
 70
   192
  0
VERTEX
  5
47A
  8
0
 10
11.2852029800415
 20
192.7212066650391
 30
15.35410785675049
 70
   192
  0
VERTEX
  5
47B
  8
0
 10
7.909774780273438
 20
195.0489501953125
 30
15.35410785675049
 70
   192
  0
VERTEX
  5
47C
  8
0
 10
4.059377193450928
 20
196.4046936035156
 30
15.35410785675049
 70
   192
  0
VERTEX
  5
47D
  8
0
 10
-6.054233074188232
 20
169.5334320068359
 30
57.63000106811523
 70
   192
  0
VERTEX
  5
47E
  8
0
 10
-8.556877136230469
 20
171.4563751220703
 30
57.63000106811523
 70
   192
  0
VERTEX
  5
47F
  8
0
 10
-10.51910591125488
 20
173.9316558837891
 30
57.63000106811523
 70
   192
  0
VERTEX
  5
480
  8
0
 10
-10.52719879150391
 20
186.0715789794922
 30
57.63000106811523
 70
   192
  0
VERTEX
  5
481
  8
0
 10
-6.000298023223877
 20
190.3648529052734
 30
57.63000106811523
 70
   192
  0
VERTEX
  5
482
  8
0
 10
-3.151631355285645
 20
191.7443695068359
 30
57.63000106811523
 70
   192
  0
VERTEX
  5
483
  8
0
 10
-11.7342472076416
 20
176.8575897216797
 30
57.63000106811523
 70
   192
  0
VERTEX
  5
484
  8
0
 10
-11.73715019226074
 20
183.1425476074219
 30
57.63000106811523
 70
   192
  0
VERTEX
  5
485
  8
0
 10
-12.14999961853027
 20
180.0
 30
57.63000106811523
 70
   192
  0
VERTEX
  5
486
  8
0
 10
-8.602682113647461
 20
188.5888977050781
 30
57.63000106811523
 70
   192
  0
VERTEX
  5
487
  8
0
 10
-3.146907091140747
 20
168.2541656494141
 30
57.63000106811523
 70
   192
  0
VERTEX
  5
488
  8
0
 10
-6.988903045654297
 20
193.1197662353516
 30
43.6658821105957
 70
   192
  0
VERTEX
  5
489
  8
0
 10
-3.61851167678833
 20
196.0889129638672
 30
29.57391738891602
 70
   192
  0
VERTEX
  5
48A
  8
0
 10
-10.7424259185791
 20
190.2604675292969
 30
43.6658821105957
 70
   192
  0
VERTEX
  5
48B
  8
0
 10
-4.051150798797607
 20
196.3949127197266
 30
15.35410785675049
 70
   192
  0
VERTEX
  5
48C
  8
0
 10
-13.69352626800537
 20
185.7521514892578
 30
43.6658821105957
 70
   192
  0
VERTEX
  5
48D
  8
0
 10
-13.76519107818604
 20
174.3341522216797
 30
43.6658821105957
 70
   192
  0
VERTEX
  5
48E
  8
0
 10
-14.86417484283447
 20
180.0619201660156
 30
43.6658821105957
 70
   192
  0
VERTEX
  5
48F
  8
0
 10
-15.26064205169678
 20
173.7186126708984
 30
29.57391738891602
 70
   192
  0
VERTEX
  5
490
  8
0
 10
-4.059377193450928
 20
163.5952911376953
 30
15.35410785675049
 70
   192
  0
VERTEX
  5
491
  8
0
 10
-3.632613182067871
 20
163.8935241699219
 30
29.57391738891602
 70
   192
  0
VERTEX
  5
492
  8
0
 10
-10.82357501983643
 20
169.7577056884766
 30
43.6658821105957
 70
   192
  0
VERTEX
  5
493
  8
0
 10
-7.034731864929199
 20
166.8622131347656
 30
43.6658821105957
 70
   192
  0
VERTEX
  5
494
  8
0
 10
-3.276638746261597
 20
165.4718627929688
 30
43.6658821105957
 70
   192
  0
VERTEX
  5
495
  8
0
 10
-7.798985481262207
 20
165.4349212646484
 30
29.57391738891602
 70
   192
  0
VERTEX
  5
496
  8
0
 10
-16.87290954589844
 20
182.0618896484375
 30
15.35410785675049
 70
   192
  0
VERTEX
  5
497
  8
0
 10
-16.4790210723877
 20
180.0686492919922
 30
29.57391738891602
 70
   192
  0
VERTEX
  5
498
  8
0
 10
-16.87627029418945
 20
177.9630889892578
 30
15.35410785675049
 70
   192
  0
VERTEX
  5
499
  8
0
 10
-7.748178005218506
 20
194.5451049804688
 30
29.57391738891602
 70
   192
  0
VERTEX
  5
49A
  8
0
 10
-7.896167278289795
 20
195.0550842285156
 30
15.35410785675049
 70
   192
  0
VERTEX
  5
49B
  8
0
 10
-11.90948390960693
 20
191.3751678466797
 30
29.57391738891602
 70
   192
  0
VERTEX
  5
49C
  8
0
 10
-15.18119144439697
 20
186.3770751953125
 30
29.57391738891602
 70
   192
  0
VERTEX
  5
49D
  8
0
 10
-11.99944972991943
 20
168.6449890136719
 30
29.57391738891602
 70
   192
  0
VERTEX
  5
49E
  8
0
 10
-11.26219940185547
 20
192.7272033691406
 30
15.35410785675049
 70
   192
  0
VERTEX
  5
49F
  8
0
 10
-13.97771739959717
 20
189.6638641357422
 30
15.35410785675049
 70
   192
  0
VERTEX
  5
4A0
  8
0
 10
-15.88617038726807
 20
186.0397796630859
 30
15.35410785675049
 70
   192
  0
VERTEX
  5
4A1
  8
0
 10
-15.89899730682373
 20
173.9837951660156
 30
15.35410785675049
 70
   192
  0
VERTEX
  5
4A2
  8
0
 10
-14.00076293945312
 20
170.3510894775391
 30
15.35410785675049
 70
   192
  0
VERTEX
  5
4A3
  8
0
 10
-11.2852029800415
 20
167.2787780761719
 30
15.35410785675049
 70
   192
  0
VERTEX
  5
4A4
  8
0
 10
-7.909774780273438
 20
164.9510498046875
 30
15.35410785675049
 70
   192
  0
VERTEX
  5
4A5
  8
0
 10
4.853814601898193
 20
191.0923004150391
 30
47.09597778320312
 70
   192
  0
VERTEX
  5
4A6
  8
0
 10
2.786083698272705
 20
191.2348785400391
 30
45.05695343017578
 70
   192
  0
VERTEX
  5
4A7
  8
0
 10
2.85322093963623
 20
190.5523834228516
 30
54.81699752807617
 70
   192
  0
VERTEX
  5
4A8
  8
0
 10
4.895117282867432
 20
190.6981201171875
 30
52.73292922973633
 70
   192
  0
VERTEX
  5
4A9
  8
0
 10
5.650000095367432
 20
190.8941192626953
 30
49.93000030517578
 70
   192
  0
VERTEX
  5
4AA
  8
0
 10
11.27831649780273
 20
167.2802734375
 30
15.34472560882568
 70
   192
  0
VERTEX
  5
4AB
  8
0
 10
-7.907880306243896
 20
195.0475311279297
 30
15.34472560882568
 70
   192
  0
VERTEX
  5
4AC
  8
0
 10
-13.98932361602783
 20
189.6593322753906
 30
15.34472560882568
 70
   192
  0
VERTEX
  5
4AD
  8
0
 10
7.890585899353027
 20
195.0566253662109
 30
15.34472560882568
 70
   192
  0
VERTEX
  5
4AE
  8
0
 10
-0.0000000000002132
 20
197.0000305175781
 30
15.34472560882568
 70
   192
  0
VERTEX
  5
4AF
  8
0
 10
16.87414169311523
 20
182.0589904785156
 30
15.34472560882568
 70
   192
  0
VERTEX
  5
4B0
  8
0
 10
13.98662376403809
 20
189.6624145507812
 30
15.34472560882568
 70
   192
  0
VERTEX
  5
4B1
  8
0
 10
4.074548721313477
 20
163.4957427978516
 30
15.34472560882568
 70
   192
  0
VERTEX
  5
4B2
  8
0
 10
-16.8761157989502
 20
182.0427093505859
 30
15.34472560882568
 70
   192
  0
VERTEX
  5
4B3
  8
0
 10
-4.065896511077881
 20
163.4932861328125
 30
15.34472560882568
 70
   192
  0
VERTEX
  5
4B4
  8
0
 10
15.89776039123535
 20
173.9792785644531
 30
15.34472560882568
 70
   192
  0
VERTEX
  5
4B5
  8
0
 10
-11.26909351348877
 20
167.2721710205078
 30
15.34472560882568
 70
   192
  0
VERTEX
  5
4B6
  8
0
 10
-15.89595413208008
 20
173.9729309082031
 30
15.34472560882568
 70
   192
  0
VERTEX
  5
4B7
  8
0
 62
     9
 10
0.0
 20
0.0
 30
0.0
 70
   128
 71
     3
 72
     2
 73
     1
  0
VERTEX
  5
4B8
  8
0
 62
     9
 10
0.0
 20
0.0
 30
0.0
 70
   128
 71
     3
 72
     5
 73
     4
  0
VERTEX
  5
4B9
  8
0
 62
     9
 10
0.0
 20
0.0
 30
0.0
 70
   128
 71
     4
 72
     2
 73
     3
  0
VERTEX
  5
4BA
  8
0
 62
     9
 10
0.0
 20
0.0
 30
0.0
 70
   128
 71
     7
 72
     6
 73
     5
  0
VERTEX
  5
4BB
  8
0
 62
     9
 10
0.0
 20
0.0
 30
0.0
 70
   128
 71
     5
 72
     6
 73
     4
  0
VERTEX
  5
4BC
  8
0
 62
     9
 10
0.0
 20
0.0
 30
0.0
 70
   128
 71
     7
 72
     5
 73
     8
  0
VERTEX
  5
4BD
  8
0
 62
     9
 10
0.0
 20
0.0
 30
0.0
 70
   128
 71
    11
 72
    10
 73
     9
  0
VERTEX
  5
4BE
  8
0
 62
     9
 10
0.0
 20
0.0
 30
0.0
 70
   128
 71
    12
 72
    11
 73
     1
  0
VERTEX
  5
4BF
  8
0
 62
     9
 10
0.0
 20
0.0
 30
0.0
 70
   128
 71
     1
 72
     2
 73
    12
  0
VERTEX
  5
4C0
  8
0
 62
     9
 10
0.0
 20
0.0
 30
0.0
 70
   128
 71
    10
 72
    11
 73
    12
  0
VERTEX
  5
4C1
  8
0
 62
     9
 10
0.0
 20
0.0
 30
0.0
 70
   128
 71
    10
 72
    13
 73
     9
  0
VERTEX
  5
4C2
  8
0
 62
     9
 10
0.0
 20
0.0
 30
0.0
 70
   128
 71
    16
 72
    15
 73
    14
  0
VERTEX
  5
4C3
  8
0
 62
     9
 10
0.0
 20
0.0
 30
0.0
 70
   128
 71
    19
 72
    18
 73
    17
  0
VERTEX
  5
4C4
  8
0
 62
     9
 10
0.0
 20
0.0
 30
0.0
 70
   128
 71
    18
 72
    21
 73
    20
  0
VERTEX
  5
4C5
  8
0
 62
     9
 10
0.0
 20
0.0
 30
0.0
 70
   128
 71
    23
 72
    17
 73
    22
  0
VERTEX
  5
4C6
  8
0
 62
     9
 10
0.0
 20
0.0
 30
0.0
 70
   128
 71
    26
 72
    25
 73
    24
  0
VERTEX
  5
4C7
  8
0
 62
     9
 10
0.0
 20
0.0
 30
0.0
 70
   128
 71
    17
 72
    23
 73
    27
  0
VERTEX
  5
4C8
  8
0
 62
     9
 10
0.0
 20
0.0
 30
0.0
 70
   128
 71
    23
 72
    22
 73
    28
  0
VERTEX
  5
4C9
  8
0
 62
     9
 10
0.0
 20
0.0
 30
0.0
 70
   128
 71
    27
 72
    19
 73
    17
  0
VERTEX
  5
4CA
  8
0
 62
     9
 10
0.0
 20
0.0
 30
0.0
 70
   128
 71
    28
 72
    22
 73
    26
  0
VERTEX
  5
4CB
  8
0
 62
     9
 10
0.0
 20
0.0
 30
0.0
 70
   128
 71
    19
 72
    21
 73
    18
  0
VERTEX
  5
4CC
  8
0
 62
     9
 10
0.0
 20
0.0
 30
0.0
 70
   128
 71
    24
 72
    29
 73
     7
  0
VERTEX
  5
4CD
  8
0
 62
     9
 10
0.0
 20
0.0
 30
0.0
 70
   128
 71
    25
 72
    30
 73
    29
  0
VERTEX
  5
4CE
  8
0
 62
     9
 10
0.0
 20
0.0
 30
0.0
 70
   128
 71
    31
 72
    23
 73
    28
  0
VERTEX
  5
4CF
  8
0
 62
     9
 10
0.0
 20
0.0
 30
0.0
 70
   128
 71
    25
 72
    26
 73
    22
  0
VERTEX
  5
4D0
  8
0
 62
     9
 10
0.0
 20
0.0
 30
0.0
 70
   128
 71
    20
 72
    33
 73
    32
  0
VERTEX
  5
4D1
  8
0
 62
     9
 10
0.0
 20
0.0
 30
0.0
 70
   128
 71
    20
 72
    34
 73
    18
  0
VERTEX
  5
4D2
  8
0
 62
     9
 10
0.0
 20
0.0
 30
0.0
 70
   128
 71
    35
 72
    20
 73
    32
  0
VERTEX
  5
4D3
  8
0
 62
     9
 10
0.0
 20
0.0
 30
0.0
 70
   128
 71
    21
 72
    33
 73
    20
  0
VERTEX
  5
4D4
  8
0
 62
     9
 10
0.0
 20
0.0
 30
0.0
 70
   128
 71
    23
 72
    31
 73
    36
  0
VERTEX
  5
4D5
  8
0
 62
     9
 10
0.0
 20
0.0
 30
0.0
 70
   128
 71
    37
 72
    36
 73
    31
  0
VERTEX
  5
4D6
  8
0
 62
     9
 10
0.0
 20
0.0
 30
0.0
 70
   128
 71
    37
 72
    13
 73
    36
  0
VERTEX
  5
4D7
  8
0
 62
     9
 10
0.0
 20
0.0
 30
0.0
 70
   128
 71
    32
 72
    38
 73
    35
  0
VERTEX
  5
4D8
  8
0
 62
     9
 10
0.0
 20
0.0
 30
0.0
 70
   128
 71
    41
 72
    40
 73
    39
  0
VERTEX
  5
4D9
  8
0
 62
     9
 10
0.0
 20
0.0
 30
0.0
 70
   128
 71
    38
 72
    42
 73
    35
  0
VERTEX
  5
4DA
  8
0
 62
     9
 10
0.0
 20
0.0
 30
0.0
 70
   128
 71
    42
 72
    38
 73
    43
  0
VERTEX
  5
4DB
  8
0
 62
     9
 10
0.0
 20
0.0
 30
0.0
 70
   128
 71
    43
 72
    44
 73
    42
  0
VERTEX
  5
4DC
  8
0
 62
     9
 10
0.0
 20
0.0
 30
0.0
 70
   128
 71
    44
 72
    46
 73
    45
  0
VERTEX
  5
4DD
  8
0
 62
     9
 10
0.0
 20
0.0
 30
0.0
 70
   128
 71
    45
 72
    42
 73
    44
  0
VERTEX
  5
4DE
  8
0
 62
     9
 10
0.0
 20
0.0
 30
0.0
 70
   128
 71
    47
 72
    45
 73
    16
  0
VERTEX
  5
4DF
  8
0
 62
     9
 10
0.0
 20
0.0
 30
0.0
 70
   128
 71
    46
 72
    16
 73
    45
  0
VERTEX
  5
4E0
  8
0
 62
     9
 10
0.0
 20
0.0
 30
0.0
 70
   128
 71
    46
 72
    15
 73
    16
  0
VERTEX
  5
4E1
  8
0
 62
     9
 10
0.0
 20
0.0
 30
0.0
 70
   128
 71
    50
 72
    49
 73
    48
  0
VERTEX
  5
4E2
  8
0
 62
     9
 10
0.0
 20
0.0
 30
0.0
 70
   128
 71
    51
 72
    47
 73
    48
  0
VERTEX
  5
4E3
  8
0
 62
     9
 10
0.0
 20
0.0
 30
0.0
 70
   128
 71
    14
 72
    52
 73
    50
  0
VERTEX
  5
4E4
  8
0
 62
     9
 10
0.0
 20
0.0
 30
0.0
 70
   128
 71
    50
 72
    48
 73
    47
  0
VERTEX
  5
4E5
  8
0
 62
     9
 10
0.0
 20
0.0
 30
0.0
 70
   128
 71
    50
 72
    47
 73
    16
  0
VERTEX
  5
4E6
  8
0
 62
     9
 10
0.0
 20
0.0
 30
0.0
 70
   128
 71
    45
 72
    53
 73
    42
  0
VERTEX
  5
4E7
  8
0
 62
     9
 10
0.0
 20
0.0
 30
0.0
 70
   128
 71
    47
 72
    53
 73
    45
  0
VERTEX
  5
4E8
  8
0
 62
     9
 10
0.0
 20
0.0
 30
0.0
 70
   128
 71
    35
 72
    42
 73
    54
  0
VERTEX
  5
4E9
  8
0
 62
     9
 10
0.0
 20
0.0
 30
0.0
 70
   128
 71
    54
 72
    42
 73
    53
  0
VERTEX
  5
4EA
  8
0
 62
     9
 10
0.0
 20
0.0
 30
0.0
 70
   128
 71
    35
 72
    41
 73
    20
  0
VERTEX
  5
4EB
  8
0
 62
     9
 10
0.0
 20
0.0
 30
0.0
 70
   128
 71
    54
 72
    41
 73
    35
  0
VERTEX
  5
4EC
  8
0
 62
     9
 10
0.0
 20
0.0
 30
0.0
 70
   128
 71
    41
 72
    39
 73
    34
  0
VERTEX
  5
4ED
  8
0
 62
     9
 10
0.0
 20
0.0
 30
0.0
 70
   128
 71
    34
 72
    20
 73
    41
  0
VERTEX
  5
4EE
  8
0
 62
     9
 10
0.0
 20
0.0
 30
0.0
 70
   128
 71
    18
 72
    55
 73
    17
  0
VERTEX
  5
4EF
  8
0
 62
     9
 10
0.0
 20
0.0
 30
0.0
 70
   128
 71
    34
 72
    55
 73
    18
  0
VERTEX
  5
4F0
  8
0
 62
     9
 10
0.0
 20
0.0
 30
0.0
 70
   128
 71
    17
 72
    56
 73
    22
  0
VERTEX
  5
4F1
  8
0
 62
     9
 10
0.0
 20
0.0
 30
0.0
 70
   128
 71
    55
 72
    56
 73
    17
  0
VERTEX
  5
4F2
  8
0
 62
     9
 10
0.0
 20
0.0
 30
0.0
 70
   128
 71
    22
 72
    56
 73
    25
  0
VERTEX
  5
4F3
  8
0
 62
     9
 10
0.0
 20
0.0
 30
0.0
 70
   128
 71
    29
 72
    24
 73
    25
  0
VERTEX
  5
4F4
  8
0
 62
     9
 10
0.0
 20
0.0
 30
0.0
 70
   128
 71
    50
 72
    16
 73
    14
  0
VERTEX
  5
4F5
  8
0
 62
     9
 10
0.0
 20
0.0
 30
0.0
 70
   128
 71
    50
 72
    52
 73
    49
  0
VERTEX
  5
4F6
  8
0
 62
     9
 10
0.0
 20
0.0
 30
0.0
 70
   128
 71
    57
 72
    47
 73
    51
  0
VERTEX
  5
4F7
  8
0
 62
     9
 10
0.0
 20
0.0
 30
0.0
 70
   128
 71
    57
 72
    53
 73
    47
  0
VERTEX
  5
4F8
  8
0
 62
     9
 10
0.0
 20
0.0
 30
0.0
 70
   128
 71
    58
 72
    53
 73
    57
  0
VERTEX
  5
4F9
  8
0
 62
     9
 10
0.0
 20
0.0
 30
0.0
 70
   128
 71
    59
 72
    54
 73
    58
  0
VERTEX
  5
4FA
  8
0
 62
     9
 10
0.0
 20
0.0
 30
0.0
 70
   128
 71
    54
 72
    53
 73
    58
  0
VERTEX
  5
4FB
  8
0
 62
     9
 10
0.0
 20
0.0
 30
0.0
 70
   128
 71
    54
 72
    59
 73
    40
  0
VERTEX
  5
4FC
  8
0
 62
     9
 10
0.0
 20
0.0
 30
0.0
 70
   128
 71
    41
 72
    54
 73
    40
  0
VERTEX
  5
4FD
  8
0
 62
     9
 10
0.0
 20
0.0
 30
0.0
 70
   128
 71
    60
 72
    34
 73
    39
  0
VERTEX
  5
4FE
  8
0
 62
     9
 10
0.0
 20
0.0
 30
0.0
 70
   128
 71
    61
 72
    34
 73
    60
  0
VERTEX
  5
4FF
  8
0
 62
     9
 10
0.0
 20
0.0
 30
0.0
 70
   128
 71
    62
 72
    55
 73
    61
  0
VERTEX
  5
500
  8
0
 62
     9
 10
0.0
 20
0.0
 30
0.0
 70
   128
 71
    55
 72
    34
 73
    61
  0
VERTEX
  5
501
  8
0
 62
     9
 10
0.0
 20
0.0
 30
0.0
 70
   128
 71
    63
 72
    56
 73
    62
  0
VERTEX
  5
502
  8
0
 62
     9
 10
0.0
 20
0.0
 30
0.0
 70
   128
 71
    56
 72
    55
 73
    62
  0
VERTEX
  5
503
  8
0
 62
     9
 10
0.0
 20
0.0
 30
0.0
 70
   128
 71
    56
 72
    63
 73
    64
  0
VERTEX
  5
504
  8
0
 62
     9
 10
0.0
 20
0.0
 30
0.0
 70
   128
 71
    64
 72
    25
 73
    56
  0
VERTEX
  5
505
  8
0
 62
     9
 10
0.0
 20
0.0
 30
0.0
 70
   128
 71
    25
 72
    64
 73
    30
  0
VERTEX
  5
506
  8
0
 62
     9
 10
0.0
 20
0.0
 30
0.0
 70
   128
 71
    43
 72
    38
 73
    44
  0
VERTEX
  5
507
  8
0
 62
     9
 10
0.0
 20
0.0
 30
0.0
 70
   128
 71
    23
 72
    66
 73
    65
  0
VERTEX
  5
508
  8
0
 62
     9
 10
0.0
 20
0.0
 30
0.0
 70
   128
 71
    38
 72
    32
 73
    21
  0
VERTEX
  5
509
  8
0
 62
     9
 10
0.0
 20
0.0
 30
0.0
 70
   128
 71
    38
 72
    46
 73
    44
  0
VERTEX
  5
50A
  8
0
 62
     9
 10
0.0
 20
0.0
 30
0.0
 70
   128
 71
    32
 72
    33
 73
    21
  0
VERTEX
  5
50B
  8
0
 62
     9
 10
0.0
 20
0.0
 30
0.0
 70
   128
 71
    21
 72
    15
 73
    46
  0
VERTEX
  5
50C
  8
0
 62
     9
 10
0.0
 20
0.0
 30
0.0
 70
   128
 71
    21
 72
    46
 73
    38
  0
VERTEX
  5
50D
  8
0
 62
     9
 10
0.0
 20
0.0
 30
0.0
 70
   128
 71
    66
 72
    23
 73
    67
  0
VERTEX
  5
50E
  8
0
 62
     9
 10
0.0
 20
0.0
 30
0.0
 70
   128
 71
    19
 72
    27
 73
    65
  0
VERTEX
  5
50F
  8
0
 62
     9
 10
0.0
 20
0.0
 30
0.0
 70
   128
 71
    70
 72
    69
 73
    68
  0
VERTEX
  5
510
  8
0
 62
     9
 10
0.0
 20
0.0
 30
0.0
 70
   128
 71
    67
 72
    23
 73
    71
  0
VERTEX
  5
511
  8
0
 62
     9
 10
0.0
 20
0.0
 30
0.0
 70
   128
 71
    71
 72
    68
 73
    72
  0
VERTEX
  5
512
  8
0
 62
     9
 10
0.0
 20
0.0
 30
0.0
 70
   128
 71
    72
 72
    73
 73
    71
  0
VERTEX
  5
513
  8
0
 62
     9
 10
0.0
 20
0.0
 30
0.0
 70
   128
 71
    68
 72
    69
 73
    74
  0
VERTEX
  5
514
  8
0
 62
     9
 10
0.0
 20
0.0
 30
0.0
 70
   128
 71
    70
 72
    71
 73
    13
  0
VERTEX
  5
515
  8
0
 62
     9
 10
0.0
 20
0.0
 30
0.0
 70
   128
 71
    68
 72
    71
 73
    70
  0
VERTEX
  5
516
  8
0
 62
     9
 10
0.0
 20
0.0
 30
0.0
 70
   128
 71
    71
 72
    23
 73
    36
  0
VERTEX
  5
517
  8
0
 62
     9
 10
0.0
 20
0.0
 30
0.0
 70
   128
 71
    13
 72
    71
 73
    36
  0
VERTEX
  5
518
  8
0
 62
     9
 10
0.0
 20
0.0
 30
0.0
 70
   128
 71
    65
 72
    27
 73
    23
  0
VERTEX
  5
519
  8
0
 62
     9
 10
0.0
 20
0.0
 30
0.0
 70
   128
 71
    65
 72
    21
 73
    19
  0
VERTEX
  5
51A
  8
0
 62
     9
 10
0.0
 20
0.0
 30
0.0
 70
   128
 71
    21
 72
    75
 73
    15
  0
VERTEX
  5
51B
  8
0
 62
     9
 10
0.0
 20
0.0
 30
0.0
 70
   128
 71
    75
 72
    21
 73
    65
  0
VERTEX
  5
51C
  8
0
 62
     9
 10
0.0
 20
0.0
 30
0.0
 70
   128
 71
     4
 72
    77
 73
    76
  0
VERTEX
  5
51D
  8
0
 62
     9
 10
0.0
 20
0.0
 30
0.0
 70
   128
 71
    74
 72
    69
 73
    78
  0
VERTEX
  5
51E
  8
0
 62
     9
 10
0.0
 20
0.0
 30
0.0
 70
   128
 71
    12
 72
    69
 73
    70
  0
VERTEX
  5
51F
  8
0
 62
     9
 10
0.0
 20
0.0
 30
0.0
 70
   128
 71
    79
 72
    77
 73
    30
  0
VERTEX
  5
520
  8
0
 62
     9
 10
0.0
 20
0.0
 30
0.0
 70
   128
 71
    68
 72
    80
 73
    72
  0
VERTEX
  5
521
  8
0
 62
     9
 10
0.0
 20
0.0
 30
0.0
 70
   128
 71
    71
 72
    81
 73
    67
  0
VERTEX
  5
522
  8
0
 62
     9
 10
0.0
 20
0.0
 30
0.0
 70
   128
 71
    83
 72
    81
 73
    82
  0
VERTEX
  5
523
  8
0
 62
     9
 10
0.0
 20
0.0
 30
0.0
 70
   128
 71
    85
 72
    84
 73
    49
  0
VERTEX
  5
524
  8
0
 62
     9
 10
0.0
 20
0.0
 30
0.0
 70
   128
 71
    86
 72
    66
 73
    67
  0
VERTEX
  5
525
  8
0
 62
     9
 10
0.0
 20
0.0
 30
0.0
 70
   128
 71
    75
 72
    65
 73
    87
  0
VERTEX
  5
526
  8
0
 62
     9
 10
0.0
 20
0.0
 30
0.0
 70
   128
 71
    15
 72
    75
 73
    88
  0
VERTEX
  5
527
  8
0
 62
     9
 10
0.0
 20
0.0
 30
0.0
 70
   128
 71
    87
 72
    89
 73
    85
  0
VERTEX
  5
528
  8
0
 62
     9
 10
0.0
 20
0.0
 30
0.0
 70
   128
 71
    52
 72
    14
 73
    88
  0
VERTEX
  5
529
  8
0
 62
     9
 10
0.0
 20
0.0
 30
0.0
 70
   128
 71
    85
 72
    49
 73
    52
  0
VERTEX
  5
52A
  8
0
 62
     9
 10
0.0
 20
0.0
 30
0.0
 70
   128
 71
    65
 72
    66
 73
    86
  0
VERTEX
  5
52B
  8
0
 62
     9
 10
0.0
 20
0.0
 30
0.0
 70
   128
 71
    87
 72
    65
 73
    86
  0
VERTEX
  5
52C
  8
0
 62
     9
 10
0.0
 20
0.0
 30
0.0
 70
   128
 71
    81
 72
    86
 73
    67
  0
VERTEX
  5
52D
  8
0
 62
     9
 10
0.0
 20
0.0
 30
0.0
 70
   128
 71
    71
 72
    82
 73
    81
  0
VERTEX
  5
52E
  8
0
 62
     9
 10
0.0
 20
0.0
 30
0.0
 70
   128
 71
    82
 72
    71
 73
    73
  0
VERTEX
  5
52F
  8
0
 62
     9
 10
0.0
 20
0.0
 30
0.0
 70
   128
 71
    72
 72
    82
 73
    73
  0
VERTEX
  5
530
  8
0
 62
     9
 10
0.0
 20
0.0
 30
0.0
 70
   128
 71
    78
 72
    80
 73
    68
  0
VERTEX
  5
531
  8
0
 62
     9
 10
0.0
 20
0.0
 30
0.0
 70
   128
 71
    80
 72
    82
 73
    72
  0
VERTEX
  5
532
  8
0
 62
     9
 10
0.0
 20
0.0
 30
0.0
 70
   128
 71
    78
 72
    68
 73
    74
  0
VERTEX
  5
533
  8
0
 62
     9
 10
0.0
 20
0.0
 30
0.0
 70
   128
 71
    92
 72
    91
 73
    90
  0
VERTEX
  5
534
  8
0
 62
     9
 10
0.0
 20
0.0
 30
0.0
 70
   128
 71
    69
 72
     2
 73
    76
  0
VERTEX
  5
535
  8
0
 62
     9
 10
0.0
 20
0.0
 30
0.0
 70
   128
 71
    69
 72
    12
 73
     2
  0
VERTEX
  5
536
  8
0
 62
     9
 10
0.0
 20
0.0
 30
0.0
 70
   128
 71
    10
 72
    70
 73
    13
  0
VERTEX
  5
537
  8
0
 62
     9
 10
0.0
 20
0.0
 30
0.0
 70
   128
 71
    12
 72
    70
 73
    10
  0
VERTEX
  5
538
  8
0
 62
     9
 10
0.0
 20
0.0
 30
0.0
 70
   128
 71
    77
 72
    79
 73
    93
  0
VERTEX
  5
539
  8
0
 62
     9
 10
0.0
 20
0.0
 30
0.0
 70
   128
 71
     6
 72
    77
 73
     4
  0
VERTEX
  5
53A
  8
0
 62
     9
 10
0.0
 20
0.0
 30
0.0
 70
   128
 71
     2
 72
     4
 73
    76
  0
VERTEX
  5
53B
  8
0
 62
     9
 10
0.0
 20
0.0
 30
0.0
 70
   128
 71
     7
 72
    29
 73
    77
  0
VERTEX
  5
53C
  8
0
 62
     9
 10
0.0
 20
0.0
 30
0.0
 70
   128
 71
    94
 72
    93
 73
    79
  0
VERTEX
  5
53D
  8
0
 62
     9
 10
0.0
 20
0.0
 30
0.0
 70
   128
 71
    77
 72
     6
 73
     7
  0
VERTEX
  5
53E
  8
0
 62
     9
 10
0.0
 20
0.0
 30
0.0
 70
   128
 71
    76
 72
    77
 73
    93
  0
VERTEX
  5
53F
  8
0
 62
     9
 10
0.0
 20
0.0
 30
0.0
 70
   128
 71
    78
 72
    76
 73
    95
  0
VERTEX
  5
540
  8
0
 62
     9
 10
0.0
 20
0.0
 30
0.0
 70
   128
 71
    78
 72
    69
 73
    76
  0
VERTEX
  5
541
  8
0
 62
     9
 10
0.0
 20
0.0
 30
0.0
 70
   128
 71
    93
 72
    95
 73
    76
  0
VERTEX
  5
542
  8
0
 62
     9
 10
0.0
 20
0.0
 30
0.0
 70
   128
 71
    80
 72
    78
 73
    96
  0
VERTEX
  5
543
  8
0
 62
     9
 10
0.0
 20
0.0
 30
0.0
 70
   128
 71
    96
 72
    78
 73
    95
  0
VERTEX
  5
544
  8
0
 62
     9
 10
0.0
 20
0.0
 30
0.0
 70
   128
 71
    80
 72
    91
 73
    82
  0
VERTEX
  5
545
  8
0
 62
     9
 10
0.0
 20
0.0
 30
0.0
 70
   128
 71
    96
 72
    91
 73
    80
  0
VERTEX
  5
546
  8
0
 62
     9
 10
0.0
 20
0.0
 30
0.0
 70
   128
 71
    91
 72
    92
 73
    83
  0
VERTEX
  5
547
  8
0
 62
     9
 10
0.0
 20
0.0
 30
0.0
 70
   128
 71
    83
 72
    82
 73
    91
  0
VERTEX
  5
548
  8
0
 62
     9
 10
0.0
 20
0.0
 30
0.0
 70
   128
 71
    81
 72
    97
 73
    86
  0
VERTEX
  5
549
  8
0
 62
     9
 10
0.0
 20
0.0
 30
0.0
 70
   128
 71
    83
 72
    97
 73
    81
  0
VERTEX
  5
54A
  8
0
 62
     9
 10
0.0
 20
0.0
 30
0.0
 70
   128
 71
    86
 72
    89
 73
    87
  0
VERTEX
  5
54B
  8
0
 62
     9
 10
0.0
 20
0.0
 30
0.0
 70
   128
 71
    89
 72
    86
 73
    97
  0
VERTEX
  5
54C
  8
0
 62
     9
 10
0.0
 20
0.0
 30
0.0
 70
   128
 71
    88
 72
    87
 73
    85
  0
VERTEX
  5
54D
  8
0
 62
     9
 10
0.0
 20
0.0
 30
0.0
 70
   128
 71
    88
 72
    14
 73
    15
  0
VERTEX
  5
54E
  8
0
 62
     9
 10
0.0
 20
0.0
 30
0.0
 70
   128
 71
    87
 72
    88
 73
    75
  0
VERTEX
  5
54F
  8
0
 62
     9
 10
0.0
 20
0.0
 30
0.0
 70
   128
 71
    77
 72
    29
 73
    30
  0
VERTEX
  5
550
  8
0
 62
     9
 10
0.0
 20
0.0
 30
0.0
 70
   128
 71
    98
 72
    93
 73
    94
  0
VERTEX
  5
551
  8
0
 62
     9
 10
0.0
 20
0.0
 30
0.0
 70
   128
 71
    98
 72
    95
 73
    93
  0
VERTEX
  5
552
  8
0
 62
     9
 10
0.0
 20
0.0
 30
0.0
 70
   128
 71
    99
 72
    95
 73
    98
  0
VERTEX
  5
553
  8
0
 62
     9
 10
0.0
 20
0.0
 30
0.0
 70
   128
 71
   100
 72
    96
 73
    99
  0
VERTEX
  5
554
  8
0
 62
     9
 10
0.0
 20
0.0
 30
0.0
 70
   128
 71
    96
 72
    95
 73
    99
  0
VERTEX
  5
555
  8
0
 62
     9
 10
0.0
 20
0.0
 30
0.0
 70
   128
 71
    96
 72
   100
 73
    90
  0
VERTEX
  5
556
  8
0
 62
     9
 10
0.0
 20
0.0
 30
0.0
 70
   128
 71
    91
 72
    96
 73
    90
  0
VERTEX
  5
557
  8
0
 62
     9
 10
0.0
 20
0.0
 30
0.0
 70
   128
 71
   101
 72
    83
 73
    92
  0
VERTEX
  5
558
  8
0
 62
     9
 10
0.0
 20
0.0
 30
0.0
 70
   128
 71
   102
 72
    83
 73
   101
  0
VERTEX
  5
559
  8
0
 62
     9
 10
0.0
 20
0.0
 30
0.0
 70
   128
 71
   103
 72
    97
 73
   102
  0
VERTEX
  5
55A
  8
0
 62
     9
 10
0.0
 20
0.0
 30
0.0
 70
   128
 71
    97
 72
    83
 73
   102
  0
VERTEX
  5
55B
  8
0
 62
     9
 10
0.0
 20
0.0
 30
0.0
 70
   128
 71
   104
 72
    89
 73
   103
  0
VERTEX
  5
55C
  8
0
 62
     9
 10
0.0
 20
0.0
 30
0.0
 70
   128
 71
    89
 72
    97
 73
   103
  0
VERTEX
  5
55D
  8
0
 62
     9
 10
0.0
 20
0.0
 30
0.0
 70
   128
 71
    89
 72
   104
 73
    84
  0
VERTEX
  5
55E
  8
0
 62
     9
 10
0.0
 20
0.0
 30
0.0
 70
   128
 71
    85
 72
    89
 73
    84
  0
VERTEX
  5
55F
  8
0
 62
     9
 10
0.0
 20
0.0
 30
0.0
 70
   128
 71
    88
 72
    85
 73
    52
  0
VERTEX
  5
560
  8
0
 62
     9
 10
0.0
 20
0.0
 30
0.0
 70
   128
 71
    28
 72
    26
 73
   105
  0
VERTEX
  5
561
  8
0
 62
     9
 10
0.0
 20
0.0
 30
0.0
 70
   128
 71
   106
 72
    24
 73
     8
  0
VERTEX
  5
562
  8
0
 62
     9
 10
0.0
 20
0.0
 30
0.0
 70
   128
 71
   108
 72
   107
 73
    37
  0
VERTEX
  5
563
  8
0
 62
     9
 10
0.0
 20
0.0
 30
0.0
 70
   128
 71
    31
 72
    28
 73
   109
  0
VERTEX
  5
564
  8
0
 62
     9
 10
0.0
 20
0.0
 30
0.0
 70
   128
 71
    37
 72
    31
 73
   108
  0
VERTEX
  5
565
  8
0
 62
     9
 10
0.0
 20
0.0
 30
0.0
 70
   128
 71
   107
 72
    13
 73
    37
  0
VERTEX
  5
566
  8
0
 62
     9
 10
0.0
 20
0.0
 30
0.0
 70
   128
 71
   106
 72
    26
 73
    24
  0
VERTEX
  5
567
  8
0
 62
     9
 10
0.0
 20
0.0
 30
0.0
 70
   128
 71
    28
 72
   105
 73
   109
  0
VERTEX
  5
568
  8
0
 62
     9
 10
0.0
 20
0.0
 30
0.0
 70
   128
 71
    31
 72
   109
 73
   108
  0
VERTEX
  5
569
  8
0
 62
     9
 10
0.0
 20
0.0
 30
0.0
 70
   128
 71
   106
 72
   105
 73
    26
  0
VERTEX
  5
56A
  8
0
 62
     9
 10
0.0
 20
0.0
 30
0.0
 70
   128
 71
     7
 72
     8
 73
    24
  0
VERTEX
  5
56B
  8
0
 62
     9
 10
0.0
 20
0.0
 30
0.0
 70
   128
 71
   112
 72
   111
 73
   110
  0
VERTEX
  5
56C
  8
0
 62
     9
 10
0.0
 20
0.0
 30
0.0
 70
   128
 71
   115
 72
   114
 73
   113
  0
VERTEX
  5
56D
  8
0
 62
     9
 10
0.0
 20
0.0
 30
0.0
 70
   128
 71
   116
 72
   115
 73
   113
  0
VERTEX
  5
56E
  8
0
 62
     9
 10
0.0
 20
0.0
 30
0.0
 70
   128
 71
   119
 72
   118
 73
   117
  0
VERTEX
  5
56F
  8
0
 62
     9
 10
0.0
 20
0.0
 30
0.0
 70
   128
 71
   120
 72
   114
 73
   115
  0
VERTEX
  5
570
  8
0
 62
     9
 10
0.0
 20
0.0
 30
0.0
 70
   128
 71
   122
 72
   119
 73
   121
  0
VERTEX
  5
571
  8
0
 62
     9
 10
0.0
 20
0.0
 30
0.0
 70
   128
 71
   122
 72
   118
 73
   119
  0
VERTEX
  5
572
  8
0
 62
     9
 10
0.0
 20
0.0
 30
0.0
 70
   128
 71
   112
 72
   110
 73
   117
  0
VERTEX
  5
573
  8
0
 62
     9
 10
0.0
 20
0.0
 30
0.0
 70
   128
 71
   118
 72
   112
 73
   117
  0
VERTEX
  5
574
  8
0
 62
     9
 10
0.0
 20
0.0
 30
0.0
 70
   128
 71
   120
 72
   111
 73
   114
  0
VERTEX
  5
575
  8
0
 62
     9
 10
0.0
 20
0.0
 30
0.0
 70
   128
 71
   110
 72
   111
 73
   120
  0
SEQEND
  5
576
  8
0
 62
     9
  0
ENDBLK
  5
579
  8
0
  0
BLOCK
  8
0
  2
ROSETTE
 70
     0
 10
0.0
 20
0.0
 30
0.0
  3
ROSETTE
  1

  0
POLYLINE
  5
57B
  8
0
 66
     1
 10
0.0
 20
0.0
 30
0.0
 70
    64
 71
   194
 72
   368
  0
VERTEX
  5
57C
  8
0
 10
11.34462833404541
 20
-192.8086090087891
 30
13.67986679077148
 70
   192
  0
VERTEX
  5
57D
  8
0
 10
7.946542263031006
 20
-195.1480102539062
 30
13.67986679077148
 70
   192
  0
VERTEX
  5
57E
  8
0
 10
10.09738731384277
 20
-193.6764068603516
 30
14.39302635192871
 70
   192
  0
VERTEX
  5
57F
  8
0
 10
-0.013474315404892
 20
-197.0246887207031
 30
14.39302635192871
 70
   192
  0
VERTEX
  5
580
  8
0
 10
5.315042018890381
 20
-196.1670989990234
 30
14.39302635192871
 70
   192
  0
VERTEX
  5
581
  8
0
 10
4.071333408355713
 20
-196.5090484619141
 30
13.67986679077148
 70
   192
  0
VERTEX
  5
582
  8
0
 10
-0.0135377394035459
 20
-197.1048278808594
 30
13.67986679077148
 70
   192
  0
VERTEX
  5
583
  8
0
 10
16.97866439819336
 20
-182.0628967285156
 30
13.67986679077148
 70
   192
  0
VERTEX
  5
584
  8
0
 10
15.9921989440918
 20
-186.0659484863281
 30
13.67986679077148
 70
   192
  0
VERTEX
  5
585
  8
0
 10
15.78402137756348
 20
-186.3003845214844
 30
14.39302635192871
 70
   192
  0
VERTEX
  5
586
  8
0
 10
13.47044944763184
 20
-190.3702850341797
 30
14.39302635192871
 70
   192
  0
VERTEX
  5
587
  8
0
 10
14.07937240600586
 20
-189.7195281982422
 30
13.67986679077148
 70
   192
  0
VERTEX
  5
588
  8
0
 10
15.26848602294922
 20
-172.5323028564453
 30
14.39302635192871
 70
   192
  0
VERTEX
  5
589
  8
0
 10
15.98889446258545
 20
-173.9356536865234
 30
13.67986679077148
 70
   192
  0
VERTEX
  5
58A
  8
0
 10
16.73171043395996
 20
-177.0142059326172
 30
14.39302635192871
 70
   192
  0
VERTEX
  5
58B
  8
0
 10
16.9073371887207
 20
-181.7245635986328
 30
14.39302635192871
 70
   192
  0
VERTEX
  5
58C
  8
0
 10
16.97854804992676
 20
-177.9388427734375
 30
13.67986679077148
 70
   192
  0
VERTEX
  5
58D
  8
0
 10
9.007539749145508
 20
-165.5835876464844
 30
14.39302635192871
 70
   192
  0
VERTEX
  5
58E
  8
0
 10
7.956823825836182
 20
-164.8584136962891
 30
13.67986679077148
 70
   192
  0
VERTEX
  5
58F
  8
0
 10
11.34174823760986
 20
-167.2033233642578
 30
13.67986679077148
 70
   192
  0
VERTEX
  5
590
  8
0
 10
12.62733459472656
 20
-168.6212158203125
 30
14.39302635192871
 70
   192
  0
VERTEX
  5
591
  8
0
 10
14.07156467437744
 20
-170.2877044677734
 30
13.67986679077148
 70
   192
  0
VERTEX
  5
592
  8
0
 10
4.089175701141357
 20
-163.5072631835938
 30
13.67986679077148
 70
   192
  0
VERTEX
  5
593
  8
0
 10
4.690255641937256
 20
-163.6599578857422
 30
14.39302635192871
 70
   192
  0
VERTEX
  5
594
  8
0
 10
0.0134548060595989
 20
-162.9999694824219
 30
14.39302635192871
 70
   192
  0
VERTEX
  5
595
  8
0
 10
0.0135377394035459
 20
-162.8951873779297
 30
13.67986679077148
 70
   192
  0
VERTEX
  5
596
  8
0
 10
5.402564525604248
 20
-158.7897186279297
 30
10.46993350982666
 70
   192
  0
VERTEX
  5
597
  8
0
 10
21.37051391601562
 20
-184.7872009277344
 30
10.46993350982666
 70
   192
  0
VERTEX
  5
598
  8
0
 10
21.36096954345703
 20
-175.1866302490234
 30
10.46993350982666
 70
   192
  0
VERTEX
  5
599
  8
0
 10
25.80777931213379
 20
-183.1420440673828
 30
6.400000095367432
 70
   192
  0
VERTEX
  5
59A
  8
0
 10
17.54169464111328
 20
-193.1435699462891
 30
10.46993350982666
 70
   192
  0
VERTEX
  5
59B
  8
0
 10
11.57320213317871
 20
-198.6093902587891
 30
10.46993350982666
 70
   192
  0
VERTEX
  5
59C
  8
0
 10
24.3084716796875
 20
-189.233642578125
 30
6.400000095367432
 70
   192
  0
VERTEX
  5
59D
  8
0
 10
17.23569869995117
 20
-199.4837188720703
 30
6.400000095367432
 70
   192
  0
VERTEX
  5
59E
  8
0
 10
12.07512187957764
 20
-203.0396270751953
 30
6.400000095367432
 70
   192
  0
VERTEX
  5
59F
  8
0
 10
-0.0205778907984495
 20
-206.0
 30
6.400000095367432
 70
   192
  0
VERTEX
  5
5A0
  8
0
 10
5.386420726776123
 20
-201.2501831054688
 30
10.46993350982666
 70
   192
  0
VERTEX
  5
5A1
  8
0
 10
6.211329460144043
 20
-205.2608337402344
 30
6.400000095367432
 70
   192
  0
VERTEX
  5
5A2
  8
0
 10
21.39540100097656
 20
-194.7960052490234
 30
6.400000095367432
 70
   192
  0
VERTEX
  5
5A3
  8
0
 10
-0.0173363424837589
 20
-201.9043273925781
 30
10.46993350982666
 70
   192
  0
VERTEX
  5
5A4
  8
0
 10
24.29830169677734
 20
-170.7890930175781
 30
6.400000095367432
 70
   192
  0
VERTEX
  5
5A5
  8
0
 10
25.80757713317871
 20
-176.8711242675781
 30
6.400000095367432
 70
   192
  0
VERTEX
  5
5A6
  8
0
 10
17.49946212768555
 20
-166.8696441650391
 30
10.46993350982666
 70
   192
  0
VERTEX
  5
5A7
  8
0
 10
21.38141822814941
 20
-165.2453002929688
 30
6.400000095367432
 70
   192
  0
VERTEX
  5
5A8
  8
0
 10
17.22547149658203
 20
-160.5520172119141
 30
6.400000095367432
 70
   192
  0
VERTEX
  5
5A9
  8
0
 10
11.57975578308105
 20
-161.4148254394531
 30
10.46993350982666
 70
   192
  0
VERTEX
  5
5AA
  8
0
 10
12.07380199432373
 20
-156.9932098388672
 30
6.400000095367432
 70
   192
  0
VERTEX
  5
5AB
  8
0
 10
0.0173363424837589
 20
-158.0956878662109
 30
10.46993350982666
 70
   192
  0
VERTEX
  5
5AC
  8
0
 10
6.224871158599854
 20
-154.7701721191406
 30
6.400000095367432
 70
   192
  0
VERTEX
  5
5AD
  8
0
 10
0.0205778907984495
 20
-154.0000152587891
 30
6.400000095367432
 70
   192
  0
VERTEX
  5
5AE
  8
0
 10
25.88830375671387
 20
-182.3748016357422
 30
0.25
 70
   192
  0
VERTEX
  5
5AF
  8
0
 10
25.53270530700684
 20
-184.8806457519531
 30
0.25
 70
   192
  0
VERTEX
  5
5B0
  8
0
 10
23.72654914855957
 20
-190.5894775390625
 30
0.25
 70
   192
  0
VERTEX
  5
5B1
  8
0
 10
20.67263984680176
 20
-195.7315979003906
 30
0.25
 70
   192
  0
VERTEX
  5
5B2
  8
0
 10
16.53372001647949
 20
-200.0403900146484
 30
0.25
 70
   192
  0
VERTEX
  5
5B3
  8
0
 10
11.52289295196533
 20
-203.2881622314453
 30
0.25
 70
   192
  0
VERTEX
  5
5B4
  8
0
 10
5.904906749725342
 20
-205.3071136474609
 30
0.25
 70
   192
  0
VERTEX
  5
5B5
  8
0
 10
-0.0205778907984495
 20
-206.0
 30
0.0000000000000799
 70
   192
  0
VERTEX
  5
5B6
  8
0
 10
25.99946022033691
 20
-179.8229217529297
 30
0.25
 70
   192
  0
VERTEX
  5
5B7
  8
0
 10
25.85806083679199
 20
-177.2987823486328
 30
0.25
 70
   192
  0
VERTEX
  5
5B8
  8
0
 10
25.46766471862793
 20
-174.7794952392578
 30
0.25
 70
   192
  0
VERTEX
  5
5B9
  8
0
 10
24.84219169616699
 20
-172.3294525146484
 30
0.25
 70
   192
  0
VERTEX
  5
5BA
  8
0
 10
23.97736358642578
 20
-169.9289093017578
 30
0.25
 70
   192
  0
VERTEX
  5
5BB
  8
0
 10
22.88761520385742
 20
-167.6457672119141
 30
0.25
 70
   192
  0
VERTEX
  5
5BC
  8
0
 10
20.05448722839355
 20
-163.4320526123047
 30
0.25
 70
   192
  0
VERTEX
  5
5BD
  8
0
 10
21.56904792785645
 20
-165.4585723876953
 30
0.25
 70
   192
  0
VERTEX
  5
5BE
  8
0
 10
18.33385276794434
 20
-161.5452575683594
 30
0.25
 70
   192
  0
VERTEX
  5
5BF
  8
0
 10
14.40108299255371
 20
-158.3373260498047
 30
0.25
 70
   192
  0
VERTEX
  5
5C0
  8
0
 10
16.45442962646484
 20
-159.8530120849609
 30
0.25
 70
   192
  0
VERTEX
  5
5C1
  8
0
 10
12.23009395599365
 20
-157.042236328125
 30
0.25
 70
   192
  0
VERTEX
  5
5C2
  8
0
 10
9.923048973083496
 20
-155.9531402587891
 30
0.25
 70
   192
  0
VERTEX
  5
5C3
  8
0
 10
5.067716121673584
 20
-154.4838714599609
 30
0.25
 70
   192
  0
VERTEX
  5
5C4
  8
0
 10
7.542525768280029
 20
-155.1041564941406
 30
0.25
 70
   192
  0
VERTEX
  5
5C5
  8
0
 10
2.568236112594604
 20
-154.1188049316406
 30
0.25
 70
   192
  0
VERTEX
  5
5C6
  8
0
 10
0.0203928984701633
 20
-154.2500152587891
 30
0.0000000000000671
 70
   192
  0
VERTEX
  5
5C7
  8
0
 10
-2.496405124664307
 20
-165.8192291259766
 30
17.20000076293945
 70
   192
  0
VERTEX
  5
5C8
  8
0
 10
2.501394748687744
 20
-165.8192901611328
 30
14.39302635192871
 70
   192
  0
VERTEX
  5
5C9
  8
0
 10
2.503215074539185
 20
-165.8208618164062
 30
17.20000076293945
 70
   192
  0
VERTEX
  5
5CA
  8
0
 10
7.200172424316406
 20
-167.5301971435547
 30
14.39302635192871
 70
   192
  0
VERTEX
  5
5CB
  8
0
 10
7.203512668609619
 20
-167.5283355712891
 30
17.20000076293945
 70
   192
  0
VERTEX
  5
5CC
  8
0
 10
11.03810119628906
 20
-170.7447357177734
 30
17.20000076293945
 70
   192
  0
VERTEX
  5
5CD
  8
0
 10
11.03408718109131
 20
-170.7476348876953
 30
14.39302635192871
 70
   192
  0
VERTEX
  5
5CE
  8
0
 10
13.50029754638672
 20
-175.0795288085938
 30
17.20000076293945
 70
   192
  0
VERTEX
  5
5CF
  8
0
 10
13.53405570983887
 20
-175.0821228027344
 30
14.39302635192871
 70
   192
  0
VERTEX
  5
5D0
  8
0
 10
14.39999580383301
 20
-180.0113983154297
 30
17.20000076293945
 70
   192
  0
VERTEX
  5
5D1
  8
0
 10
14.39999580383301
 20
-180.0113983154297
 30
14.39302635192871
 70
   192
  0
VERTEX
  5
5D2
  8
0
 10
-2.503272771835327
 20
-165.8208160400391
 30
14.39302635192871
 70
   192
  0
VERTEX
  5
5D3
  8
0
 10
-7.198839664459229
 20
-167.5292358398438
 30
14.39302635192871
 70
   192
  0
VERTEX
  5
5D4
  8
0
 10
-7.198694705963135
 20
-167.5354766845703
 30
17.20000076293945
 70
   192
  0
VERTEX
  5
5D5
  8
0
 10
-11.0236930847168
 20
-170.7417755126953
 30
17.20000076293945
 70
   192
  0
VERTEX
  5
5D6
  8
0
 10
-11.03002452850342
 20
-170.7452850341797
 30
14.39302635192871
 70
   192
  0
VERTEX
  5
5D7
  8
0
 10
-13.46211242675781
 20
-175.0831909179688
 30
17.20000076293945
 70
   192
  0
VERTEX
  5
5D8
  8
0
 10
-13.52888774871826
 20
-175.0682525634766
 30
14.39302635192871
 70
   192
  0
VERTEX
  5
5D9
  8
0
 10
-14.39999580383301
 20
-179.9886016845703
 30
14.39302635192871
 70
   192
  0
VERTEX
  5
5DA
  8
0
 10
-14.39999580383301
 20
-179.9886016845703
 30
17.20000076293945
 70
   192
  0
VERTEX
  5
5DB
  8
0
 10
13.46211242675781
 20
-184.9168243408203
 30
17.20000076293945
 70
   192
  0
VERTEX
  5
5DC
  8
0
 10
2.496405124664307
 20
-194.1807708740234
 30
17.20000076293945
 70
   192
  0
VERTEX
  5
5DD
  8
0
 10
7.198694705963135
 20
-192.4645385742188
 30
17.20000076293945
 70
   192
  0
VERTEX
  5
5DE
  8
0
 10
2.503272771835327
 20
-194.17919921875
 30
14.39302635192871
 70
   192
  0
VERTEX
  5
5DF
  8
0
 10
11.0236930847168
 20
-189.2582397460938
 30
17.20000076293945
 70
   192
  0
VERTEX
  5
5E0
  8
0
 10
11.03002452850342
 20
-189.2547302246094
 30
14.39302635192871
 70
   192
  0
VERTEX
  5
5E1
  8
0
 10
7.198839664459229
 20
-192.4707794189453
 30
14.39302635192871
 70
   192
  0
VERTEX
  5
5E2
  8
0
 10
-11.03408718109131
 20
-189.2523803710938
 30
14.39302635192871
 70
   192
  0
VERTEX
  5
5E3
  8
0
 10
-7.203512668609619
 20
-192.4716796875
 30
17.20000076293945
 70
   192
  0
VERTEX
  5
5E4
  8
0
 10
-7.200172424316406
 20
-192.4698181152344
 30
14.39302635192871
 70
   192
  0
VERTEX
  5
5E5
  8
0
 10
-2.501394748687744
 20
-194.1807250976562
 30
14.39302635192871
 70
   192
  0
VERTEX
  5
5E6
  8
0
 10
-2.503215074539185
 20
-194.1791381835938
 30
17.20000076293945
 70
   192
  0
VERTEX
  5
5E7
  8
0
 10
-13.53405570983887
 20
-184.9178924560547
 30
14.39302635192871
 70
   192
  0
VERTEX
  5
5E8
  8
0
 10
-13.50029754638672
 20
-184.9204711914062
 30
17.20000076293945
 70
   192
  0
VERTEX
  5
5E9
  8
0
 10
-11.03810119628906
 20
-189.2552642822266
 30
17.20000076293945
 70
   192
  0
VERTEX
  5
5EA
  8
0
 10
13.52888774871826
 20
-184.9317626953125
 30
14.39302635192871
 70
   192
  0
VERTEX
  5
5EB
  8
0
 10
2.719226360321045
 20
-154.3869171142578
 30
-0.0000105748395072
 70
   192
  0
VERTEX
  5
5EC
  8
0
 10
5.45797872543335
 20
-154.8513336181641
 30
-0.0000077799304563
 70
   192
  0
VERTEX
  5
5ED
  8
0
 10
8.059228897094727
 20
-155.5437927246094
 30
0.0000490866368636
 70
   192
  0
VERTEX
  5
5EE
  8
0
 10
10.53536224365234
 20
-156.4778137207031
 30
0.0002058645477518
 70
   192
  0
VERTEX
  5
5EF
  8
0
 10
12.92911624908447
 20
-157.6923370361328
 30
0.0005262167542242
 70
   192
  0
VERTEX
  5
5F0
  8
0
 10
15.28307723999023
 20
-159.2746276855469
 30
0.001157961669378
 70
   192
  0
VERTEX
  5
5F1
  8
0
 10
20.95859146118164
 20
-164.9415283203125
 30
0.0054029636085033
 70
   192
  0
VERTEX
  5
5F2
  8
0
 10
17.37214088439941
 20
-160.9550170898438
 30
0.0020656792912632
 70
   192
  0
VERTEX
  5
5F3
  8
0
 10
19.25813865661621
 20
-162.82958984375
 30
0.0034292947966605
 70
   192
  0
VERTEX
  5
5F4
  8
0
 10
22.45324897766113
 20
-167.3043975830078
 30
0.0081192944198847
 70
   192
  0
VERTEX
  5
5F5
  8
0
 10
23.67132949829102
 20
-169.6591644287109
 30
0.0113123338669538
 70
   192
  0
VERTEX
  5
5F6
  8
0
 10
24.63397789001465
 20
-172.1758728027344
 30
0.0154718402773142
 70
   192
  0
VERTEX
  5
5F7
  8
0
 10
25.3179759979248
 20
-174.7889099121094
 30
0.0206213463097811
 70
   192
  0
VERTEX
  5
5F8
  8
0
 10
25.7125301361084
 20
-177.4246673583984
 30
0.0266857966780663
 70
   192
  0
VERTEX
  5
5F9
  8
0
 10
25.88800239562988
 20
-180.1452941894531
 30
0.0335779115557671
 70
   192
  0
VERTEX
  5
5FA
  8
0
 10
25.78484535217285
 20
-182.5030517578125
 30
0.0405763313174248
 70
   192
  0
VERTEX
  5
5FB
  8
0
 10
-20.23414611816406
 20
-196.2509002685547
 30
0.0000000000000956
 70
   192
  0
VERTEX
  5
5FC
  8
0
 10
-23.31555938720703
 20
-191.3429870605469
 30
0.0000000000000974
 70
   192
  0
VERTEX
  5
5FD
  8
0
 10
-16.13956642150879
 20
-200.3486633300781
 30
0.0000000000000928
 70
   192
  0
VERTEX
  5
5FE
  8
0
 10
-11.23743915557861
 20
-203.4320678710938
 30
0.0000000000000892
 70
   192
  0
VERTEX
  5
5FF
  8
0
 10
-5.773326873779297
 20
-205.3476257324219
 30
0.0000000000000848
 70
   192
  0
VERTEX
  5
600
  8
0
 10
-25.22836875915527
 20
-185.8697204589844
 30
0.000000000000098
 70
   192
  0
VERTEX
  5
601
  8
0
 10
-25.87468910217285
 20
-179.9795227050781
 30
0.0333196073770523
 70
   192
  0
VERTEX
  5
602
  8
0
 10
-24.98476791381836
 20
-172.8466339111328
 30
0.25
 70
   192
  0
VERTEX
  5
603
  8
0
 10
-25.5469970703125
 20
-175.1942138671875
 30
0.25
 70
   192
  0
VERTEX
  5
604
  8
0
 10
-25.88261413574219
 20
-177.5643310546875
 30
0.25
 70
   192
  0
VERTEX
  5
605
  8
0
 10
-11.54565048217773
 20
-156.72314453125
 30
0.25
 70
   192
  0
VERTEX
  5
606
  8
0
 10
-13.64401817321777
 20
-157.8890686035156
 30
0.25
 70
   192
  0
VERTEX
  5
607
  8
0
 10
-15.62502098083496
 20
-159.2418212890625
 30
0.25
 70
   192
  0
VERTEX
  5
608
  8
0
 10
-7.073119640350342
 20
-154.9962005615234
 30
0.25
 70
   192
  0
VERTEX
  5
609
  8
0
 10
-24.21746444702148
 20
-170.5792846679688
 30
0.25
 70
   192
  0
VERTEX
  5
60A
  8
0
 10
-22.06728172302246
 20
-166.29052734375
 30
0.25
 70
   192
  0
VERTEX
  5
60B
  8
0
 10
-19.17173004150391
 20
-162.4682922363281
 30
0.25
 70
   192
  0
VERTEX
  5
60C
  8
0
 10
-23.23652267456055
 20
-168.3789825439453
 30
0.25
 70
   192
  0
VERTEX
  5
60D
  8
0
 10
-20.70358467102051
 20
-164.3091735839844
 30
0.25
 70
   192
  0
VERTEX
  5
60E
  8
0
 10
-17.47061157226562
 20
-160.7721862792969
 30
0.25
 70
   192
  0
VERTEX
  5
60F
  8
0
 10
-9.35316276550293
 20
-155.7582702636719
 30
0.25
 70
   192
  0
VERTEX
  5
610
  8
0
 10
-2.386249303817749
 20
-154.1170806884766
 30
0.25
 70
   192
  0
VERTEX
  5
611
  8
0
 10
-4.750814914703369
 20
-154.4491424560547
 30
0.25
 70
   192
  0
VERTEX
  5
612
  8
0
 10
-5.812044620513916
 20
-205.35595703125
 30
6.400000095367432
 70
   192
  0
VERTEX
  5
613
  8
0
 10
-20.35440063476562
 20
-196.1983489990234
 30
6.400000095367432
 70
   192
  0
VERTEX
  5
614
  8
0
 10
-11.30912685394287
 20
-203.4251403808594
 30
6.400000095367432
 70
   192
  0
VERTEX
  5
615
  8
0
 10
-23.38869094848633
 20
-168.6873626708984
 30
6.400000095367432
 70
   192
  0
VERTEX
  5
616
  8
0
 10
-25.33212089538574
 20
-174.1808776855469
 30
6.400000095367432
 70
   192
  0
VERTEX
  5
617
  8
0
 10
-25.99999237060547
 20
-179.9794311523438
 30
6.400000095367432
 70
   192
  0
VERTEX
  5
618
  8
0
 10
-16.16486167907715
 20
-159.6602783203125
 30
6.400000095367432
 70
   192
  0
VERTEX
  5
619
  8
0
 10
-20.28181457519531
 20
-163.7672729492188
 30
6.400000095367432
 70
   192
  0
VERTEX
  5
61A
  8
0
 10
-5.75126314163208
 20
-154.6572723388672
 30
6.400000095367432
 70
   192
  0
VERTEX
  5
61B
  8
0
 10
-11.23900413513184
 20
-156.5732116699219
 30
6.400000095367432
 70
   192
  0
VERTEX
  5
61C
  8
0
 10
-23.44429779052734
 20
-191.2597961425781
 30
6.400000095367432
 70
   192
  0
VERTEX
  5
61D
  8
0
 10
-25.35141944885254
 20
-185.7601318359375
 30
6.400000095367432
 70
   192
  0
VERTEX
  5
61E
  8
0
 10
-16.23837661743164
 20
-200.3213348388672
 30
6.400000095367432
 70
   192
  0
VERTEX
  5
61F
  8
0
 10
-11.36488914489746
 20
-192.7906494140625
 30
13.67986679077148
 70
   192
  0
VERTEX
  5
620
  8
0
 10
-17.49946212768555
 20
-193.13037109375
 30
10.46993350982666
 70
   192
  0
VERTEX
  5
621
  8
0
 10
-14.09473991394043
 20
-189.6972198486328
 30
13.67986679077148
 70
   192
  0
VERTEX
  5
622
  8
0
 10
-21.36096954345703
 20
-184.8133850097656
 30
10.46993350982666
 70
   192
  0
VERTEX
  5
623
  8
0
 10
-16.00178146362305
 20
-186.0406188964844
 30
13.67986679077148
 70
   192
  0
VERTEX
  5
624
  8
0
 10
-5.402564525604248
 20
-201.2102966308594
 30
10.46993350982666
 70
   192
  0
VERTEX
  5
625
  8
0
 10
-11.57975578308105
 20
-198.5851745605469
 30
10.46993350982666
 70
   192
  0
VERTEX
  5
626
  8
0
 10
-4.097460746765137
 20
-196.5025787353516
 30
13.67986679077148
 70
   192
  0
VERTEX
  5
627
  8
0
 10
-21.37051391601562
 20
-175.2128143310547
 30
10.46993350982666
 70
   192
  0
VERTEX
  5
628
  8
0
 10
-7.932846069335938
 20
-164.8458404541016
 30
13.67986679077148
 70
   192
  0
VERTEX
  5
629
  8
0
 10
-11.32147789001465
 20
-167.1853790283203
 30
13.67986679077148
 70
   192
  0
VERTEX
  5
62A
  8
0
 10
-11.57320213317871
 20
-161.3906097412109
 30
10.46993350982666
 70
   192
  0
VERTEX
  5
62B
  8
0
 10
-17.54169464111328
 20
-166.8564453125
 30
10.46993350982666
 70
   192
  0
VERTEX
  5
62C
  8
0
 10
-15.97927474975586
 20
-173.9103546142578
 30
13.67986679077148
 70
   192
  0
VERTEX
  5
62D
  8
0
 10
-5.386420726776123
 20
-158.7498321533203
 30
10.46993350982666
 70
   192
  0
VERTEX
  5
62E
  8
0
 10
-4.063064098358154
 20
-163.5008087158203
 30
13.67986679077148
 70
   192
  0
VERTEX
  5
62F
  8
0
 10
-16.98190879821777
 20
-182.0360260009766
 30
13.67986679077148
 70
   192
  0
VERTEX
  5
630
  8
0
 10
-7.970510482788086
 20
-195.1354064941406
 30
13.67986679077148
 70
   192
  0
VERTEX
  5
631
  8
0
 10
-16.97526359558105
 20
-177.9119720458984
 30
13.67986679077148
 70
   192
  0
VERTEX
  5
632
  8
0
 10
-14.05617332458496
 20
-170.2654418945312
 30
13.67986679077148
 70
   192
  0
VERTEX
  5
633
  8
0
 10
-3.625881910324097
 20
-196.6287078857422
 30
14.39302635192871
 70
   192
  0
VERTEX
  5
634
  8
0
 10
-10.11902332305908
 20
-193.6604156494141
 30
14.39302635192871
 70
   192
  0
VERTEX
  5
635
  8
0
 10
-6.99439811706543
 20
-195.5072784423828
 30
14.39302635192871
 70
   192
  0
VERTEX
  5
636
  8
0
 10
-15.81425285339355
 20
-186.2352600097656
 30
14.39302635192871
 70
   192
  0
VERTEX
  5
637
  8
0
 10
-13.48684787750244
 20
-190.3489532470703
 30
14.39302635192871
 70
   192
  0
VERTEX
  5
638
  8
0
 10
-16.71649169921875
 20
-176.9255828857422
 30
14.39302635192871
 70
   192
  0
VERTEX
  5
639
  8
0
 10
-8.944504737854004
 20
-165.5491943359375
 30
14.39302635192871
 70
   192
  0
VERTEX
  5
63A
  8
0
 10
-12.56845283508301
 20
-168.5603332519531
 30
14.39302635192871
 70
   192
  0
VERTEX
  5
63B
  8
0
 10
-15.2280216217041
 20
-172.4519958496094
 30
14.39302635192871
 70
   192
  0
VERTEX
  5
63C
  8
0
 10
-4.664384841918945
 20
-163.6525573730469
 30
14.39302635192871
 70
   192
  0
VERTEX
  5
63D
  8
0
 10
-16.9184741973877
 20
-181.6405944824219
 30
14.39302635192871
 70
   192
  0
VERTEX
  5
63E
  8
0
 62
   253
 10
0.0
 20
0.0
 30
0.0
 70
   128
 71
     3
 72
     2
 73
     1
  0
VERTEX
  5
63F
  8
0
 62
   253
 10
0.0
 20
0.0
 30
0.0
 70
   128
 71
     6
 72
     5
 73
     4
  0
VERTEX
  5
640
  8
0
 62
   253
 10
0.0
 20
0.0
 30
0.0
 70
   128
 71
     7
 72
     6
 73
     4
  0
VERTEX
  5
641
  8
0
 62
   253
 10
0.0
 20
0.0
 30
0.0
 70
   128
 71
     5
 72
     6
 73
     2
  0
VERTEX
  5
642
  8
0
 62
   253
 10
0.0
 20
0.0
 30
0.0
 70
   128
 71
     2
 72
     3
 73
     5
  0
VERTEX
  5
643
  8
0
 62
   253
 10
0.0
 20
0.0
 30
0.0
 70
   128
 71
    10
 72
     9
 73
     8
  0
VERTEX
  5
644
  8
0
 62
   253
 10
0.0
 20
0.0
 30
0.0
 70
   128
 71
    12
 72
    11
 73
     1
  0
VERTEX
  5
645
  8
0
 62
   253
 10
0.0
 20
0.0
 30
0.0
 70
   128
 71
    15
 72
    14
 73
    13
  0
VERTEX
  5
646
  8
0
 62
   253
 10
0.0
 20
0.0
 30
0.0
 70
   128
 71
    17
 72
    15
 73
    16
  0
VERTEX
  5
647
  8
0
 62
   253
 10
0.0
 20
0.0
 30
0.0
 70
   128
 71
    20
 72
    19
 73
    18
  0
VERTEX
  5
648
  8
0
 62
   253
 10
0.0
 20
0.0
 30
0.0
 70
   128
 71
    22
 72
    21
 73
    13
  0
VERTEX
  5
649
  8
0
 62
   253
 10
0.0
 20
0.0
 30
0.0
 70
   128
 71
    24
 72
    19
 73
    23
  0
VERTEX
  5
64A
  8
0
 62
   253
 10
0.0
 20
0.0
 30
0.0
 70
   128
 71
    19
 72
    24
 73
    18
  0
VERTEX
  5
64B
  8
0
 62
   253
 10
0.0
 20
0.0
 30
0.0
 70
   128
 71
    26
 72
    25
 73
    23
  0
VERTEX
  5
64C
  8
0
 62
   253
 10
0.0
 20
0.0
 30
0.0
 70
   128
 71
    24
 72
    23
 73
    25
  0
VERTEX
  5
64D
  8
0
 62
   253
 10
0.0
 20
0.0
 30
0.0
 70
   128
 71
    21
 72
    20
 73
    18
  0
VERTEX
  5
64E
  8
0
 62
   253
 10
0.0
 20
0.0
 30
0.0
 70
   128
 71
    22
 72
    20
 73
    21
  0
VERTEX
  5
64F
  8
0
 62
   253
 10
0.0
 20
0.0
 30
0.0
 70
   128
 71
    22
 72
    13
 73
    14
  0
VERTEX
  5
650
  8
0
 62
   253
 10
0.0
 20
0.0
 30
0.0
 70
   128
 71
     8
 72
    17
 73
    16
  0
VERTEX
  5
651
  8
0
 62
   253
 10
0.0
 20
0.0
 30
0.0
 70
   128
 71
    17
 72
    14
 73
    15
  0
VERTEX
  5
652
  8
0
 62
   253
 10
0.0
 20
0.0
 30
0.0
 70
   128
 71
    10
 72
     8
 73
    16
  0
VERTEX
  5
653
  8
0
 62
   253
 10
0.0
 20
0.0
 30
0.0
 70
   128
 71
    12
 72
    10
 73
    11
  0
VERTEX
  5
654
  8
0
 62
   253
 10
0.0
 20
0.0
 30
0.0
 70
   128
 71
    10
 72
    12
 73
     9
  0
VERTEX
  5
655
  8
0
 62
   253
 10
0.0
 20
0.0
 30
0.0
 70
   128
 71
    11
 72
     3
 73
     1
  0
VERTEX
  5
656
  8
0
 62
   253
 10
0.0
 20
0.0
 30
0.0
 70
   128
 71
    26
 72
    23
 73
    27
  0
VERTEX
  5
657
  8
0
 62
   253
 10
0.0
 20
0.0
 30
0.0
 70
   128
 71
    30
 72
    29
 73
    28
  0
VERTEX
  5
658
  8
0
 62
   253
 10
0.0
 20
0.0
 30
0.0
 70
   128
 71
    12
 72
    31
 73
     9
  0
VERTEX
  5
659
  8
0
 62
   253
 10
0.0
 20
0.0
 30
0.0
 70
   128
 71
     9
 72
    31
 73
    28
  0
VERTEX
  5
65A
  8
0
 62
   253
 10
0.0
 20
0.0
 30
0.0
 70
   128
 71
     2
 72
    32
 73
     1
  0
VERTEX
  5
65B
  8
0
 62
   253
 10
0.0
 20
0.0
 30
0.0
 70
   128
 71
    33
 72
    28
 73
    31
  0
VERTEX
  5
65C
  8
0
 62
   253
 10
0.0
 20
0.0
 30
0.0
 70
   128
 71
    32
 72
    35
 73
    34
  0
VERTEX
  5
65D
  8
0
 62
   253
 10
0.0
 20
0.0
 30
0.0
 70
   128
 71
    32
 72
    34
 73
    31
  0
VERTEX
  5
65E
  8
0
 62
   253
 10
0.0
 20
0.0
 30
0.0
 70
   128
 71
    38
 72
    37
 73
    36
  0
VERTEX
  5
65F
  8
0
 62
   253
 10
0.0
 20
0.0
 30
0.0
 70
   128
 71
    39
 72
    33
 73
    31
  0
VERTEX
  5
660
  8
0
 62
   253
 10
0.0
 20
0.0
 30
0.0
 70
   128
 71
    40
 72
     6
 73
     7
  0
VERTEX
  5
661
  8
0
 62
   253
 10
0.0
 20
0.0
 30
0.0
 70
   128
 71
    40
 72
    37
 73
     6
  0
VERTEX
  5
662
  8
0
 62
   253
 10
0.0
 20
0.0
 30
0.0
 70
   128
 71
    37
 72
    38
 73
    35
  0
VERTEX
  5
663
  8
0
 62
   253
 10
0.0
 20
0.0
 30
0.0
 70
   128
 71
    32
 72
    37
 73
    35
  0
VERTEX
  5
664
  8
0
 62
   253
 10
0.0
 20
0.0
 30
0.0
 70
   128
 71
    30
 72
    28
 73
    33
  0
VERTEX
  5
665
  8
0
 62
   253
 10
0.0
 20
0.0
 30
0.0
 70
   128
 71
    42
 72
    41
 73
    29
  0
VERTEX
  5
666
  8
0
 62
   253
 10
0.0
 20
0.0
 30
0.0
 70
   128
 71
    42
 72
    29
 73
    30
  0
VERTEX
  5
667
  8
0
 62
   253
 10
0.0
 20
0.0
 30
0.0
 70
   128
 71
    29
 72
    43
 73
    14
  0
VERTEX
  5
668
  8
0
 62
   253
 10
0.0
 20
0.0
 30
0.0
 70
   128
 71
    41
 72
    43
 73
    29
  0
VERTEX
  5
669
  8
0
 62
   253
 10
0.0
 20
0.0
 30
0.0
 70
   128
 71
    45
 72
    43
 73
    44
  0
VERTEX
  5
66A
  8
0
 62
   253
 10
0.0
 20
0.0
 30
0.0
 70
   128
 71
    43
 72
    41
 73
    44
  0
VERTEX
  5
66B
  8
0
 62
   253
 10
0.0
 20
0.0
 30
0.0
 70
   128
 71
    20
 72
    22
 73
    43
  0
VERTEX
  5
66C
  8
0
 62
   253
 10
0.0
 20
0.0
 30
0.0
 70
   128
 71
    46
 72
    43
 73
    45
  0
VERTEX
  5
66D
  8
0
 62
   253
 10
0.0
 20
0.0
 30
0.0
 70
   128
 71
    45
 72
    47
 73
    46
  0
VERTEX
  5
66E
  8
0
 62
   253
 10
0.0
 20
0.0
 30
0.0
 70
   128
 71
    47
 72
    27
 73
    46
  0
VERTEX
  5
66F
  8
0
 62
   253
 10
0.0
 20
0.0
 30
0.0
 70
   128
 71
    26
 72
    27
 73
    48
  0
VERTEX
  5
670
  8
0
 62
   253
 10
0.0
 20
0.0
 30
0.0
 70
   128
 71
    48
 72
    27
 73
    49
  0
VERTEX
  5
671
  8
0
 62
   253
 10
0.0
 20
0.0
 30
0.0
 70
   128
 71
    50
 72
    48
 73
    49
  0
VERTEX
  5
672
  8
0
 62
   253
 10
0.0
 20
0.0
 30
0.0
 70
   128
 71
    27
 72
    23
 73
    19
  0
VERTEX
  5
673
  8
0
 62
   253
 10
0.0
 20
0.0
 30
0.0
 70
   128
 71
    49
 72
    27
 73
    47
  0
VERTEX
  5
674
  8
0
 62
   253
 10
0.0
 20
0.0
 30
0.0
 70
   128
 71
    19
 72
    46
 73
    27
  0
VERTEX
  5
675
  8
0
 62
   253
 10
0.0
 20
0.0
 30
0.0
 70
   128
 71
    46
 72
    19
 73
    20
  0
VERTEX
  5
676
  8
0
 62
   253
 10
0.0
 20
0.0
 30
0.0
 70
   128
 71
    43
 72
    46
 73
    20
  0
VERTEX
  5
677
  8
0
 62
   253
 10
0.0
 20
0.0
 30
0.0
 70
   128
 71
    22
 72
    14
 73
    43
  0
VERTEX
  5
678
  8
0
 62
   253
 10
0.0
 20
0.0
 30
0.0
 70
   128
 71
    17
 72
    29
 73
    14
  0
VERTEX
  5
679
  8
0
 62
   253
 10
0.0
 20
0.0
 30
0.0
 70
   128
 71
     8
 72
    28
 73
    17
  0
VERTEX
  5
67A
  8
0
 62
   253
 10
0.0
 20
0.0
 30
0.0
 70
   128
 71
    28
 72
    29
 73
    17
  0
VERTEX
  5
67B
  8
0
 62
   253
 10
0.0
 20
0.0
 30
0.0
 70
   128
 71
    28
 72
     8
 73
     9
  0
VERTEX
  5
67C
  8
0
 62
   253
 10
0.0
 20
0.0
 30
0.0
 70
   128
 71
    31
 72
    12
 73
     1
  0
VERTEX
  5
67D
  8
0
 62
   253
 10
0.0
 20
0.0
 30
0.0
 70
   128
 71
    39
 72
    31
 73
    34
  0
VERTEX
  5
67E
  8
0
 62
   253
 10
0.0
 20
0.0
 30
0.0
 70
   128
 71
    32
 72
    31
 73
     1
  0
VERTEX
  5
67F
  8
0
 62
   253
 10
0.0
 20
0.0
 30
0.0
 70
   128
 71
     6
 72
    37
 73
     2
  0
VERTEX
  5
680
  8
0
 62
   253
 10
0.0
 20
0.0
 30
0.0
 70
   128
 71
    32
 72
     2
 73
    37
  0
VERTEX
  5
681
  8
0
 62
   253
 10
0.0
 20
0.0
 30
0.0
 70
   128
 71
    37
 72
    40
 73
    36
  0
VERTEX
  5
682
  8
0
 62
   253
 10
0.0
 20
0.0
 30
0.0
 70
   128
 71
    30
 72
    52
 73
    51
  0
VERTEX
  5
683
  8
0
 62
   253
 10
0.0
 20
0.0
 30
0.0
 70
   128
 71
    52
 72
    33
 73
    53
  0
VERTEX
  5
684
  8
0
 62
   253
 10
0.0
 20
0.0
 30
0.0
 70
   128
 71
    33
 72
    52
 73
    30
  0
VERTEX
  5
685
  8
0
 62
   253
 10
0.0
 20
0.0
 30
0.0
 70
   128
 71
    54
 72
    53
 73
    39
  0
VERTEX
  5
686
  8
0
 62
   253
 10
0.0
 20
0.0
 30
0.0
 70
   128
 71
    33
 72
    39
 73
    53
  0
VERTEX
  5
687
  8
0
 62
   253
 10
0.0
 20
0.0
 30
0.0
 70
   128
 71
    34
 72
    55
 73
    54
  0
VERTEX
  5
688
  8
0
 62
   253
 10
0.0
 20
0.0
 30
0.0
 70
   128
 71
    54
 72
    39
 73
    34
  0
VERTEX
  5
689
  8
0
 62
   253
 10
0.0
 20
0.0
 30
0.0
 70
   128
 71
    55
 72
    35
 73
    56
  0
VERTEX
  5
68A
  8
0
 62
   253
 10
0.0
 20
0.0
 30
0.0
 70
   128
 71
    35
 72
    55
 73
    34
  0
VERTEX
  5
68B
  8
0
 62
   253
 10
0.0
 20
0.0
 30
0.0
 70
   128
 71
    57
 72
    56
 73
    38
  0
VERTEX
  5
68C
  8
0
 62
   253
 10
0.0
 20
0.0
 30
0.0
 70
   128
 71
    35
 72
    38
 73
    56
  0
VERTEX
  5
68D
  8
0
 62
   253
 10
0.0
 20
0.0
 30
0.0
 70
   128
 71
    57
 72
    38
 73
    36
  0
VERTEX
  5
68E
  8
0
 62
   253
 10
0.0
 20
0.0
 30
0.0
 70
   128
 71
    58
 72
    57
 73
    36
  0
VERTEX
  5
68F
  8
0
 62
   253
 10
0.0
 20
0.0
 30
0.0
 70
   128
 71
    59
 72
    30
 73
    51
  0
VERTEX
  5
690
  8
0
 62
   253
 10
0.0
 20
0.0
 30
0.0
 70
   128
 71
    42
 72
    59
 73
    60
  0
VERTEX
  5
691
  8
0
 62
   253
 10
0.0
 20
0.0
 30
0.0
 70
   128
 71
    59
 72
    42
 73
    30
  0
VERTEX
  5
692
  8
0
 62
   253
 10
0.0
 20
0.0
 30
0.0
 70
   128
 71
    41
 72
    42
 73
    61
  0
VERTEX
  5
693
  8
0
 62
   253
 10
0.0
 20
0.0
 30
0.0
 70
   128
 71
    60
 72
    61
 73
    42
  0
VERTEX
  5
694
  8
0
 62
   253
 10
0.0
 20
0.0
 30
0.0
 70
   128
 71
    63
 72
    41
 73
    62
  0
VERTEX
  5
695
  8
0
 62
   253
 10
0.0
 20
0.0
 30
0.0
 70
   128
 71
    41
 72
    61
 73
    62
  0
VERTEX
  5
696
  8
0
 62
   253
 10
0.0
 20
0.0
 30
0.0
 70
   128
 71
    64
 72
    44
 73
    41
  0
VERTEX
  5
697
  8
0
 62
   253
 10
0.0
 20
0.0
 30
0.0
 70
   128
 71
    41
 72
    63
 73
    64
  0
VERTEX
  5
698
  8
0
 62
   253
 10
0.0
 20
0.0
 30
0.0
 70
   128
 71
    66
 72
    65
 73
    44
  0
VERTEX
  5
699
  8
0
 62
   253
 10
0.0
 20
0.0
 30
0.0
 70
   128
 71
    66
 72
    44
 73
    64
  0
VERTEX
  5
69A
  8
0
 62
   253
 10
0.0
 20
0.0
 30
0.0
 70
   128
 71
    45
 72
    65
 73
    67
  0
VERTEX
  5
69B
  8
0
 62
   253
 10
0.0
 20
0.0
 30
0.0
 70
   128
 71
    65
 72
    45
 73
    44
  0
VERTEX
  5
69C
  8
0
 62
   253
 10
0.0
 20
0.0
 30
0.0
 70
   128
 71
    45
 72
    69
 73
    68
  0
VERTEX
  5
69D
  8
0
 62
   253
 10
0.0
 20
0.0
 30
0.0
 70
   128
 71
    67
 72
    69
 73
    45
  0
VERTEX
  5
69E
  8
0
 62
   253
 10
0.0
 20
0.0
 30
0.0
 70
   128
 71
    70
 72
    47
 73
    68
  0
VERTEX
  5
69F
  8
0
 62
   253
 10
0.0
 20
0.0
 30
0.0
 70
   128
 71
    45
 72
    68
 73
    47
  0
VERTEX
  5
6A0
  8
0
 62
   253
 10
0.0
 20
0.0
 30
0.0
 70
   128
 71
    71
 72
    49
 73
    47
  0
VERTEX
  5
6A1
  8
0
 62
   253
 10
0.0
 20
0.0
 30
0.0
 70
   128
 71
    47
 72
    70
 73
    71
  0
VERTEX
  5
6A2
  8
0
 62
   253
 10
0.0
 20
0.0
 30
0.0
 70
   128
 71
    73
 72
    72
 73
    49
  0
VERTEX
  5
6A3
  8
0
 62
   253
 10
0.0
 20
0.0
 30
0.0
 70
   128
 71
    73
 72
    49
 73
    71
  0
VERTEX
  5
6A4
  8
0
 62
   253
 10
0.0
 20
0.0
 30
0.0
 70
   128
 71
    49
 72
    74
 73
    50
  0
VERTEX
  5
6A5
  8
0
 62
   253
 10
0.0
 20
0.0
 30
0.0
 70
   128
 71
    74
 72
    49
 73
    72
  0
VERTEX
  5
6A6
  8
0
 62
   253
 10
0.0
 20
0.0
 30
0.0
 70
   128
 71
    74
 72
    75
 73
    50
  0
VERTEX
  5
6A7
  8
0
 62
     9
 10
0.0
 20
0.0
 30
0.0
 70
   128
 71
    78
 72
    77
 73
    76
  0
VERTEX
  5
6A8
  8
0
 62
     9
 10
0.0
 20
0.0
 30
0.0
 70
   128
 71
    78
 72
    80
 73
    79
  0
VERTEX
  5
6A9
  8
0
 62
     9
 10
0.0
 20
0.0
 30
0.0
 70
   128
 71
    79
 72
    77
 73
    78
  0
VERTEX
  5
6AA
  8
0
 62
     9
 10
0.0
 20
0.0
 30
0.0
 70
   128
 71
    82
 72
    80
 73
    81
  0
VERTEX
  5
6AB
  8
0
 62
     9
 10
0.0
 20
0.0
 30
0.0
 70
   128
 71
    80
 72
    82
 73
    79
  0
VERTEX
  5
6AC
  8
0
 62
     9
 10
0.0
 20
0.0
 30
0.0
 70
   128
 71
    84
 72
    82
 73
    83
  0
VERTEX
  5
6AD
  8
0
 62
     9
 10
0.0
 20
0.0
 30
0.0
 70
   128
 71
    81
 72
    83
 73
    82
  0
VERTEX
  5
6AE
  8
0
 62
     9
 10
0.0
 20
0.0
 30
0.0
 70
   128
 71
    84
 72
    83
 73
    85
  0
VERTEX
  5
6AF
  8
0
 62
     9
 10
0.0
 20
0.0
 30
0.0
 70
   128
 71
    86
 72
    84
 73
    85
  0
VERTEX
  5
6B0
  8
0
 62
     9
 10
0.0
 20
0.0
 30
0.0
 70
   128
 71
    77
 72
    87
 73
    76
  0
VERTEX
  5
6B1
  8
0
 62
     9
 10
0.0
 20
0.0
 30
0.0
 70
   128
 71
    89
 72
    87
 73
    88
  0
VERTEX
  5
6B2
  8
0
 62
     9
 10
0.0
 20
0.0
 30
0.0
 70
   128
 71
    87
 72
    89
 73
    76
  0
VERTEX
  5
6B3
  8
0
 62
     9
 10
0.0
 20
0.0
 30
0.0
 70
   128
 71
    91
 72
    90
 73
    88
  0
VERTEX
  5
6B4
  8
0
 62
     9
 10
0.0
 20
0.0
 30
0.0
 70
   128
 71
    89
 72
    88
 73
    90
  0
VERTEX
  5
6B5
  8
0
 62
     9
 10
0.0
 20
0.0
 30
0.0
 70
   128
 71
    93
 72
    92
 73
    90
  0
VERTEX
  5
6B6
  8
0
 62
     9
 10
0.0
 20
0.0
 30
0.0
 70
   128
 71
    90
 72
    91
 73
    93
  0
VERTEX
  5
6B7
  8
0
 62
     9
 10
0.0
 20
0.0
 30
0.0
 70
   128
 71
    94
 72
    92
 73
    93
  0
VERTEX
  5
6B8
  8
0
 62
     9
 10
0.0
 20
0.0
 30
0.0
 70
   128
 71
    94
 72
    95
 73
    92
  0
VERTEX
  5
6B9
  8
0
 62
     9
 10
0.0
 20
0.0
 30
0.0
 70
   128
 71
    86
 72
    85
 73
    96
  0
VERTEX
  5
6BA
  8
0
 62
     9
 10
0.0
 20
0.0
 30
0.0
 70
   128
 71
    99
 72
    98
 73
    97
  0
VERTEX
  5
6BB
  8
0
 62
     9
 10
0.0
 20
0.0
 30
0.0
 70
   128
 71
   102
 72
   101
 73
   100
  0
VERTEX
  5
6BC
  8
0
 62
     9
 10
0.0
 20
0.0
 30
0.0
 70
   128
 71
   105
 72
   104
 73
   103
  0
VERTEX
  5
6BD
  8
0
 62
     9
 10
0.0
 20
0.0
 30
0.0
 70
   128
 71
   107
 72
   105
 73
   106
  0
VERTEX
  5
6BE
  8
0
 62
     9
 10
0.0
 20
0.0
 30
0.0
 70
   128
 71
   103
 72
   109
 73
   108
  0
VERTEX
  5
6BF
  8
0
 62
     9
 10
0.0
 20
0.0
 30
0.0
 70
   128
 71
   109
 72
   103
 73
   110
  0
VERTEX
  5
6C0
  8
0
 62
     9
 10
0.0
 20
0.0
 30
0.0
 70
   128
 71
    94
 72
   108
 73
    95
  0
VERTEX
  5
6C1
  8
0
 62
     9
 10
0.0
 20
0.0
 30
0.0
 70
   128
 71
   109
 72
    95
 73
   108
  0
VERTEX
  5
6C2
  8
0
 62
     9
 10
0.0
 20
0.0
 30
0.0
 70
   128
 71
   105
 72
   107
 73
   104
  0
VERTEX
  5
6C3
  8
0
 62
     9
 10
0.0
 20
0.0
 30
0.0
 70
   128
 71
   104
 72
   110
 73
   103
  0
VERTEX
  5
6C4
  8
0
 62
     9
 10
0.0
 20
0.0
 30
0.0
 70
   128
 71
    99
 72
    97
 73
   106
  0
VERTEX
  5
6C5
  8
0
 62
     9
 10
0.0
 20
0.0
 30
0.0
 70
   128
 71
    97
 72
   107
 73
   106
  0
VERTEX
  5
6C6
  8
0
 62
     9
 10
0.0
 20
0.0
 30
0.0
 70
   128
 71
   102
 72
   100
 73
    98
  0
VERTEX
  5
6C7
  8
0
 62
     9
 10
0.0
 20
0.0
 30
0.0
 70
   128
 71
   102
 72
    98
 73
    99
  0
VERTEX
  5
6C8
  8
0
 62
     9
 10
0.0
 20
0.0
 30
0.0
 70
   128
 71
   111
 72
    96
 73
   100
  0
VERTEX
  5
6C9
  8
0
 62
     9
 10
0.0
 20
0.0
 30
0.0
 70
   128
 71
   111
 72
   100
 73
   101
  0
VERTEX
  5
6CA
  8
0
 62
     9
 10
0.0
 20
0.0
 30
0.0
 70
   128
 71
    96
 72
   111
 73
    86
  0
VERTEX
  5
6CB
  8
0
 62
   253
 10
0.0
 20
0.0
 30
0.0
 70
   128
 71
   113
 72
   112
 73
    72
  0
VERTEX
  5
6CC
  8
0
 62
   253
 10
0.0
 20
0.0
 30
0.0
 70
   128
 71
    74
 72
    72
 73
   112
  0
VERTEX
  5
6CD
  8
0
 62
   253
 10
0.0
 20
0.0
 30
0.0
 70
   128
 71
   113
 72
    72
 73
    73
  0
VERTEX
  5
6CE
  8
0
 62
   253
 10
0.0
 20
0.0
 30
0.0
 70
   128
 71
    74
 72
   112
 73
    75
  0
VERTEX
  5
6CF
  8
0
 62
   253
 10
0.0
 20
0.0
 30
0.0
 70
   128
 71
   114
 72
    73
 73
    71
  0
VERTEX
  5
6D0
  8
0
 62
   253
 10
0.0
 20
0.0
 30
0.0
 70
   128
 71
   114
 72
   113
 73
    73
  0
VERTEX
  5
6D1
  8
0
 62
   253
 10
0.0
 20
0.0
 30
0.0
 70
   128
 71
   115
 72
   114
 73
    71
  0
VERTEX
  5
6D2
  8
0
 62
   253
 10
0.0
 20
0.0
 30
0.0
 70
   128
 71
    68
 72
   116
 73
    70
  0
VERTEX
  5
6D3
  8
0
 62
   253
 10
0.0
 20
0.0
 30
0.0
 70
   128
 71
   115
 72
    71
 73
    70
  0
VERTEX
  5
6D4
  8
0
 62
   253
 10
0.0
 20
0.0
 30
0.0
 70
   128
 71
   116
 72
   115
 73
    70
  0
VERTEX
  5
6D5
  8
0
 62
   253
 10
0.0
 20
0.0
 30
0.0
 70
   128
 71
   116
 72
    68
 73
   117
  0
VERTEX
  5
6D6
  8
0
 62
   253
 10
0.0
 20
0.0
 30
0.0
 70
   128
 71
   117
 72
    68
 73
    69
  0
VERTEX
  5
6D7
  8
0
 62
   253
 10
0.0
 20
0.0
 30
0.0
 70
   128
 71
    66
 72
   118
 73
    65
  0
VERTEX
  5
6D8
  8
0
 62
   253
 10
0.0
 20
0.0
 30
0.0
 70
   128
 71
   117
 72
    69
 73
   119
  0
VERTEX
  5
6D9
  8
0
 62
   253
 10
0.0
 20
0.0
 30
0.0
 70
   128
 71
   120
 72
    67
 73
    65
  0
VERTEX
  5
6DA
  8
0
 62
   253
 10
0.0
 20
0.0
 30
0.0
 70
   128
 71
   120
 72
   119
 73
    67
  0
VERTEX
  5
6DB
  8
0
 62
   253
 10
0.0
 20
0.0
 30
0.0
 70
   128
 71
    66
 72
   121
 73
   118
  0
VERTEX
  5
6DC
  8
0
 62
   253
 10
0.0
 20
0.0
 30
0.0
 70
   128
 71
    65
 72
   118
 73
   120
  0
VERTEX
  5
6DD
  8
0
 62
   253
 10
0.0
 20
0.0
 30
0.0
 70
   128
 71
   119
 72
    69
 73
    67
  0
VERTEX
  5
6DE
  8
0
 62
   253
 10
0.0
 20
0.0
 30
0.0
 70
   128
 71
   121
 72
    64
 73
   122
  0
VERTEX
  5
6DF
  8
0
 62
   253
 10
0.0
 20
0.0
 30
0.0
 70
   128
 71
   121
 72
    66
 73
    64
  0
VERTEX
  5
6E0
  8
0
 62
   253
 10
0.0
 20
0.0
 30
0.0
 70
   128
 71
   122
 72
    63
 73
   123
  0
VERTEX
  5
6E1
  8
0
 62
   253
 10
0.0
 20
0.0
 30
0.0
 70
   128
 71
    63
 72
    62
 73
   123
  0
VERTEX
  5
6E2
  8
0
 62
   253
 10
0.0
 20
0.0
 30
0.0
 70
   128
 71
   123
 72
    62
 73
   124
  0
VERTEX
  5
6E3
  8
0
 62
   253
 10
0.0
 20
0.0
 30
0.0
 70
   128
 71
    64
 72
    63
 73
   122
  0
VERTEX
  5
6E4
  8
0
 62
   253
 10
0.0
 20
0.0
 30
0.0
 70
   128
 71
    62
 72
    61
 73
   124
  0
VERTEX
  5
6E5
  8
0
 62
   253
 10
0.0
 20
0.0
 30
0.0
 70
   128
 71
   125
 72
   124
 73
    60
  0
VERTEX
  5
6E6
  8
0
 62
   253
 10
0.0
 20
0.0
 30
0.0
 70
   128
 71
   124
 72
    61
 73
    60
  0
VERTEX
  5
6E7
  8
0
 62
   253
 10
0.0
 20
0.0
 30
0.0
 70
   128
 71
    60
 72
    59
 73
   125
  0
VERTEX
  5
6E8
  8
0
 62
   253
 10
0.0
 20
0.0
 30
0.0
 70
   128
 71
    59
 72
   126
 73
   125
  0
VERTEX
  5
6E9
  8
0
 62
   253
 10
0.0
 20
0.0
 30
0.0
 70
   128
 71
    51
 72
   126
 73
    59
  0
VERTEX
  5
6EA
  8
0
 62
   253
 10
0.0
 20
0.0
 30
0.0
 70
   128
 71
   126
 72
    51
 73
   127
  0
VERTEX
  5
6EB
  8
0
 62
   253
 10
0.0
 20
0.0
 30
0.0
 70
   128
 71
    52
 72
   127
 73
    51
  0
VERTEX
  5
6EC
  8
0
 62
     9
 10
0.0
 20
0.0
 30
0.0
 70
   128
 71
   117
 72
   128
 73
   116
  0
VERTEX
  5
6ED
  8
0
 62
     9
 10
0.0
 20
0.0
 30
0.0
 70
   128
 71
   129
 72
   114
 73
   115
  0
VERTEX
  5
6EE
  8
0
 62
     9
 10
0.0
 20
0.0
 30
0.0
 70
   128
 71
   120
 72
   118
 73
   130
  0
VERTEX
  5
6EF
  8
0
 62
     9
 10
0.0
 20
0.0
 30
0.0
 70
   128
 71
   120
 72
   130
 73
   119
  0
VERTEX
  5
6F0
  8
0
 62
     9
 10
0.0
 20
0.0
 30
0.0
 70
   128
 71
   123
 72
   131
 73
   122
  0
VERTEX
  5
6F1
  8
0
 62
     9
 10
0.0
 20
0.0
 30
0.0
 70
   128
 71
   121
 72
   131
 73
   130
  0
VERTEX
  5
6F2
  8
0
 62
     9
 10
0.0
 20
0.0
 30
0.0
 70
   128
 71
   124
 72
   132
 73
   123
  0
VERTEX
  5
6F3
  8
0
 62
     9
 10
0.0
 20
0.0
 30
0.0
 70
   128
 71
    53
 72
    56
 73
    57
  0
VERTEX
  5
6F4
  8
0
 62
     9
 10
0.0
 20
0.0
 30
0.0
 70
   128
 71
    58
 72
   132
 73
   125
  0
VERTEX
  5
6F5
  8
0
 62
     9
 10
0.0
 20
0.0
 30
0.0
 70
   128
 71
    56
 72
    54
 73
    55
  0
VERTEX
  5
6F6
  8
0
 62
     9
 10
0.0
 20
0.0
 30
0.0
 70
   128
 71
   127
 72
    52
 73
    57
  0
VERTEX
  5
6F7
  8
0
 62
     9
 10
0.0
 20
0.0
 30
0.0
 70
   128
 71
    56
 72
    53
 73
    54
  0
VERTEX
  5
6F8
  8
0
 62
     9
 10
0.0
 20
0.0
 30
0.0
 70
   128
 71
    53
 72
    57
 73
    52
  0
VERTEX
  5
6F9
  8
0
 62
     9
 10
0.0
 20
0.0
 30
0.0
 70
   128
 71
   127
 72
    58
 73
   126
  0
VERTEX
  5
6FA
  8
0
 62
     9
 10
0.0
 20
0.0
 30
0.0
 70
   128
 71
    57
 72
    58
 73
   127
  0
VERTEX
  5
6FB
  8
0
 62
     9
 10
0.0
 20
0.0
 30
0.0
 70
   128
 71
   125
 72
   132
 73
   124
  0
VERTEX
  5
6FC
  8
0
 62
     9
 10
0.0
 20
0.0
 30
0.0
 70
   128
 71
   126
 72
    58
 73
   125
  0
VERTEX
  5
6FD
  8
0
 62
     9
 10
0.0
 20
0.0
 30
0.0
 70
   128
 71
   132
 72
   131
 73
   123
  0
VERTEX
  5
6FE
  8
0
 62
     9
 10
0.0
 20
0.0
 30
0.0
 70
   128
 71
   118
 72
   121
 73
   130
  0
VERTEX
  5
6FF
  8
0
 62
     9
 10
0.0
 20
0.0
 30
0.0
 70
   128
 71
   122
 72
   131
 73
   121
  0
VERTEX
  5
700
  8
0
 62
     9
 10
0.0
 20
0.0
 30
0.0
 70
   128
 71
   128
 72
   119
 73
   130
  0
VERTEX
  5
701
  8
0
 62
     9
 10
0.0
 20
0.0
 30
0.0
 70
   128
 71
   119
 72
   128
 73
   117
  0
VERTEX
  5
702
  8
0
 62
     9
 10
0.0
 20
0.0
 30
0.0
 70
   128
 71
   129
 72
   115
 73
   116
  0
VERTEX
  5
703
  8
0
 62
     9
 10
0.0
 20
0.0
 30
0.0
 70
   128
 71
   128
 72
   129
 73
   116
  0
VERTEX
  5
704
  8
0
 62
     9
 10
0.0
 20
0.0
 30
0.0
 70
   128
 71
   133
 72
   114
 73
   129
  0
VERTEX
  5
705
  8
0
 62
     9
 10
0.0
 20
0.0
 30
0.0
 70
   128
 71
   112
 72
   113
 73
   133
  0
VERTEX
  5
706
  8
0
 62
     9
 10
0.0
 20
0.0
 30
0.0
 70
   128
 71
   133
 72
   113
 73
   114
  0
VERTEX
  5
707
  8
0
 62
     9
 10
0.0
 20
0.0
 30
0.0
 70
   128
 71
   134
 72
    75
 73
   112
  0
VERTEX
  5
708
  8
0
 62
     9
 10
0.0
 20
0.0
 30
0.0
 70
   128
 71
   112
 72
   133
 73
   134
  0
VERTEX
  5
709
  8
0
 62
     9
 10
0.0
 20
0.0
 30
0.0
 70
   128
 71
   137
 72
   136
 73
   135
  0
VERTEX
  5
70A
  8
0
 62
     9
 10
0.0
 20
0.0
 30
0.0
 70
   128
 71
   134
 72
   137
 73
    75
  0
VERTEX
  5
70B
  8
0
 62
     9
 10
0.0
 20
0.0
 30
0.0
 70
   128
 71
   140
 72
   139
 73
   138
  0
VERTEX
  5
70C
  8
0
 62
     9
 10
0.0
 20
0.0
 30
0.0
 70
   128
 71
   142
 72
   141
 73
   135
  0
VERTEX
  5
70D
  8
0
 62
     9
 10
0.0
 20
0.0
 30
0.0
 70
   128
 71
   144
 72
   140
 73
   143
  0
VERTEX
  5
70E
  8
0
 62
     9
 10
0.0
 20
0.0
 30
0.0
 70
   128
 71
   145
 72
   143
 73
   142
  0
VERTEX
  5
70F
  8
0
 62
     9
 10
0.0
 20
0.0
 30
0.0
 70
   128
 71
   143
 72
   140
 73
   138
  0
VERTEX
  5
710
  8
0
 62
     9
 10
0.0
 20
0.0
 30
0.0
 70
   128
 71
   146
 72
   144
 73
   143
  0
VERTEX
  5
711
  8
0
 62
     9
 10
0.0
 20
0.0
 30
0.0
 70
   128
 71
   142
 72
   143
 73
   138
  0
VERTEX
  5
712
  8
0
 62
     9
 10
0.0
 20
0.0
 30
0.0
 70
   128
 71
   147
 72
   140
 73
   144
  0
VERTEX
  5
713
  8
0
 62
     9
 10
0.0
 20
0.0
 30
0.0
 70
   128
 71
   148
 72
   141
 73
   138
  0
VERTEX
  5
714
  8
0
 62
     9
 10
0.0
 20
0.0
 30
0.0
 70
   128
 71
   142
 72
   138
 73
   141
  0
VERTEX
  5
715
  8
0
 62
     9
 10
0.0
 20
0.0
 30
0.0
 70
   128
 71
   150
 72
   149
 73
   141
  0
VERTEX
  5
716
  8
0
 62
     9
 10
0.0
 20
0.0
 30
0.0
 70
   128
 71
   135
 72
   141
 73
   137
  0
VERTEX
  5
717
  8
0
 62
     9
 10
0.0
 20
0.0
 30
0.0
 70
   128
 71
   137
 72
   149
 73
    75
  0
VERTEX
  5
718
  8
0
 62
     9
 10
0.0
 20
0.0
 30
0.0
 70
   128
 71
   137
 72
   141
 73
   149
  0
VERTEX
  5
719
  8
0
 62
   253
 10
0.0
 20
0.0
 30
0.0
 70
   128
 71
    58
 72
    36
 73
   151
  0
VERTEX
  5
71A
  8
0
 62
   253
 10
0.0
 20
0.0
 30
0.0
 70
   128
 71
   128
 72
   152
 73
   129
  0
VERTEX
  5
71B
  8
0
 62
   253
 10
0.0
 20
0.0
 30
0.0
 70
   128
 71
   130
 72
   131
 73
   153
  0
VERTEX
  5
71C
  8
0
 62
   253
 10
0.0
 20
0.0
 30
0.0
 70
   128
 71
   142
 72
   155
 73
   154
  0
VERTEX
  5
71D
  8
0
 62
   253
 10
0.0
 20
0.0
 30
0.0
 70
   128
 71
   133
 72
   156
 73
   134
  0
VERTEX
  5
71E
  8
0
 62
   253
 10
0.0
 20
0.0
 30
0.0
 70
   128
 71
   140
 72
   157
 73
   139
  0
VERTEX
  5
71F
  8
0
 62
   253
 10
0.0
 20
0.0
 30
0.0
 70
   128
 71
   158
 72
   144
 73
   146
  0
VERTEX
  5
720
  8
0
 62
   253
 10
0.0
 20
0.0
 30
0.0
 70
   128
 71
   148
 72
   160
 73
   159
  0
VERTEX
  5
721
  8
0
 62
   253
 10
0.0
 20
0.0
 30
0.0
 70
   128
 71
   160
 72
   148
 73
   138
  0
VERTEX
  5
722
  8
0
 62
   253
 10
0.0
 20
0.0
 30
0.0
 70
   128
 71
   159
 72
   150
 73
   141
  0
VERTEX
  5
723
  8
0
 62
   253
 10
0.0
 20
0.0
 30
0.0
 70
   128
 71
   148
 72
   159
 73
   141
  0
VERTEX
  5
724
  8
0
 62
   253
 10
0.0
 20
0.0
 30
0.0
 70
   128
 71
   149
 72
   159
 73
    50
  0
VERTEX
  5
725
  8
0
 62
   253
 10
0.0
 20
0.0
 30
0.0
 70
   128
 71
   159
 72
   149
 73
   150
  0
VERTEX
  5
726
  8
0
 62
   253
 10
0.0
 20
0.0
 30
0.0
 70
   128
 71
   149
 72
    50
 73
    75
  0
VERTEX
  5
727
  8
0
 62
   253
 10
0.0
 20
0.0
 30
0.0
 70
   128
 71
   160
 72
   139
 73
   157
  0
VERTEX
  5
728
  8
0
 62
   253
 10
0.0
 20
0.0
 30
0.0
 70
   128
 71
   160
 72
   138
 73
   139
  0
VERTEX
  5
729
  8
0
 62
   253
 10
0.0
 20
0.0
 30
0.0
 70
   128
 71
   158
 72
   157
 73
   147
  0
VERTEX
  5
72A
  8
0
 62
   253
 10
0.0
 20
0.0
 30
0.0
 70
   128
 71
   157
 72
   140
 73
   147
  0
VERTEX
  5
72B
  8
0
 62
   253
 10
0.0
 20
0.0
 30
0.0
 70
   128
 71
   158
 72
   146
 73
   143
  0
VERTEX
  5
72C
  8
0
 62
   253
 10
0.0
 20
0.0
 30
0.0
 70
   128
 71
   144
 72
   158
 73
   147
  0
VERTEX
  5
72D
  8
0
 62
   253
 10
0.0
 20
0.0
 30
0.0
 70
   128
 71
   143
 72
   145
 73
   154
  0
VERTEX
  5
72E
  8
0
 62
   253
 10
0.0
 20
0.0
 30
0.0
 70
   128
 71
   154
 72
   158
 73
   143
  0
VERTEX
  5
72F
  8
0
 62
   253
 10
0.0
 20
0.0
 30
0.0
 70
   128
 71
   135
 72
   155
 73
   142
  0
VERTEX
  5
730
  8
0
 62
   253
 10
0.0
 20
0.0
 30
0.0
 70
   128
 71
   142
 72
   154
 73
   145
  0
VERTEX
  5
731
  8
0
 62
   253
 10
0.0
 20
0.0
 30
0.0
 70
   128
 71
   136
 72
   137
 73
   155
  0
VERTEX
  5
732
  8
0
 62
   253
 10
0.0
 20
0.0
 30
0.0
 70
   128
 71
   136
 72
   155
 73
   135
  0
VERTEX
  5
733
  8
0
 62
   253
 10
0.0
 20
0.0
 30
0.0
 70
   128
 71
   156
 72
   137
 73
   134
  0
VERTEX
  5
734
  8
0
 62
   253
 10
0.0
 20
0.0
 30
0.0
 70
   128
 71
   137
 72
   156
 73
   155
  0
VERTEX
  5
735
  8
0
 62
   253
 10
0.0
 20
0.0
 30
0.0
 70
   128
 71
   162
 72
   133
 73
   161
  0
VERTEX
  5
736
  8
0
 62
   253
 10
0.0
 20
0.0
 30
0.0
 70
   128
 71
   133
 72
   162
 73
   156
  0
VERTEX
  5
737
  8
0
 62
   253
 10
0.0
 20
0.0
 30
0.0
 70
   128
 71
   129
 72
   161
 73
   133
  0
VERTEX
  5
738
  8
0
 62
   253
 10
0.0
 20
0.0
 30
0.0
 70
   128
 71
   163
 72
   152
 73
   128
  0
VERTEX
  5
739
  8
0
 62
   253
 10
0.0
 20
0.0
 30
0.0
 70
   128
 71
   152
 72
   161
 73
   129
  0
VERTEX
  5
73A
  8
0
 62
   253
 10
0.0
 20
0.0
 30
0.0
 70
   128
 71
   163
 72
   130
 73
   153
  0
VERTEX
  5
73B
  8
0
 62
   253
 10
0.0
 20
0.0
 30
0.0
 70
   128
 71
   130
 72
   163
 73
   128
  0
VERTEX
  5
73C
  8
0
 62
   253
 10
0.0
 20
0.0
 30
0.0
 70
   128
 71
   131
 72
   132
 73
   151
  0
VERTEX
  5
73D
  8
0
 62
   253
 10
0.0
 20
0.0
 30
0.0
 70
   128
 71
   131
 72
   151
 73
   153
  0
VERTEX
  5
73E
  8
0
 62
   253
 10
0.0
 20
0.0
 30
0.0
 70
   128
 71
   151
 72
   132
 73
    58
  0
VERTEX
  5
73F
  8
0
 62
   253
 10
0.0
 20
0.0
 30
0.0
 70
   128
 71
   166
 72
   165
 73
   164
  0
VERTEX
  5
740
  8
0
 62
   253
 10
0.0
 20
0.0
 30
0.0
 70
   128
 71
   165
 72
   168
 73
   167
  0
VERTEX
  5
741
  8
0
 62
   253
 10
0.0
 20
0.0
 30
0.0
 70
   128
 71
   170
 72
   153
 73
   169
  0
VERTEX
  5
742
  8
0
 62
   253
 10
0.0
 20
0.0
 30
0.0
 70
   128
 71
   171
 72
   169
 73
     7
  0
VERTEX
  5
743
  8
0
 62
   253
 10
0.0
 20
0.0
 30
0.0
 70
   128
 71
   172
 72
   155
 73
   156
  0
VERTEX
  5
744
  8
0
 62
   253
 10
0.0
 20
0.0
 30
0.0
 70
   128
 71
   156
 72
   162
 73
   167
  0
VERTEX
  5
745
  8
0
 62
   253
 10
0.0
 20
0.0
 30
0.0
 70
   128
 71
   175
 72
   174
 73
   173
  0
VERTEX
  5
746
  8
0
 62
   253
 10
0.0
 20
0.0
 30
0.0
 70
   128
 71
   172
 72
   177
 73
   176
  0
VERTEX
  5
747
  8
0
 62
   253
 10
0.0
 20
0.0
 30
0.0
 70
   128
 71
   175
 72
   178
 73
   160
  0
VERTEX
  5
748
  8
0
 62
   253
 10
0.0
 20
0.0
 30
0.0
 70
   128
 71
   175
 72
   157
 73
   176
  0
VERTEX
  5
749
  8
0
 62
   253
 10
0.0
 20
0.0
 30
0.0
 70
   128
 71
   178
 72
    50
 73
   159
  0
VERTEX
  5
74A
  8
0
 62
   253
 10
0.0
 20
0.0
 30
0.0
 70
   128
 71
   178
 72
   179
 73
    48
  0
VERTEX
  5
74B
  8
0
 62
   253
 10
0.0
 20
0.0
 30
0.0
 70
   128
 71
    48
 72
   179
 73
    26
  0
VERTEX
  5
74C
  8
0
 62
   253
 10
0.0
 20
0.0
 30
0.0
 70
   128
 71
   159
 72
   160
 73
   178
  0
VERTEX
  5
74D
  8
0
 62
   253
 10
0.0
 20
0.0
 30
0.0
 70
   128
 71
   175
 72
   160
 73
   157
  0
VERTEX
  5
74E
  8
0
 62
   253
 10
0.0
 20
0.0
 30
0.0
 70
   128
 71
   165
 72
   161
 73
   152
  0
VERTEX
  5
74F
  8
0
 62
   253
 10
0.0
 20
0.0
 30
0.0
 70
   128
 71
   172
 72
   176
 73
   154
  0
VERTEX
  5
750
  8
0
 62
   253
 10
0.0
 20
0.0
 30
0.0
 70
   128
 71
   154
 72
   176
 73
   158
  0
VERTEX
  5
751
  8
0
 62
   253
 10
0.0
 20
0.0
 30
0.0
 70
   128
 71
   155
 72
   172
 73
   154
  0
VERTEX
  5
752
  8
0
 62
   253
 10
0.0
 20
0.0
 30
0.0
 70
   128
 71
   180
 72
   172
 73
   167
  0
VERTEX
  5
753
  8
0
 62
   253
 10
0.0
 20
0.0
 30
0.0
 70
   128
 71
   167
 72
   172
 73
   156
  0
VERTEX
  5
754
  8
0
 62
   253
 10
0.0
 20
0.0
 30
0.0
 70
   128
 71
   161
 72
   167
 73
   162
  0
VERTEX
  5
755
  8
0
 62
   253
 10
0.0
 20
0.0
 30
0.0
 70
   128
 71
   161
 72
   165
 73
   167
  0
VERTEX
  5
756
  8
0
 62
   253
 10
0.0
 20
0.0
 30
0.0
 70
   128
 71
   152
 72
   163
 73
   165
  0
VERTEX
  5
757
  8
0
 62
   253
 10
0.0
 20
0.0
 30
0.0
 70
   128
 71
    36
 72
    40
 73
   151
  0
VERTEX
  5
758
  8
0
 62
   253
 10
0.0
 20
0.0
 30
0.0
 70
   128
 71
   170
 72
   163
 73
   153
  0
VERTEX
  5
759
  8
0
 62
   253
 10
0.0
 20
0.0
 30
0.0
 70
   128
 71
   165
 72
   163
 73
   170
  0
VERTEX
  5
75A
  8
0
 62
   253
 10
0.0
 20
0.0
 30
0.0
 70
   128
 71
     7
 72
   169
 73
    40
  0
VERTEX
  5
75B
  8
0
 62
   253
 10
0.0
 20
0.0
 30
0.0
 70
   128
 71
   151
 72
   169
 73
   153
  0
VERTEX
  5
75C
  8
0
 62
   253
 10
0.0
 20
0.0
 30
0.0
 70
   128
 71
   169
 72
   151
 73
    40
  0
VERTEX
  5
75D
  8
0
 62
   253
 10
0.0
 20
0.0
 30
0.0
 70
   128
 71
   169
 72
   171
 73
   181
  0
VERTEX
  5
75E
  8
0
 62
   253
 10
0.0
 20
0.0
 30
0.0
 70
   128
 71
   181
 72
   170
 73
   169
  0
VERTEX
  5
75F
  8
0
 62
   253
 10
0.0
 20
0.0
 30
0.0
 70
   128
 71
   170
 72
   181
 73
   164
  0
VERTEX
  5
760
  8
0
 62
   253
 10
0.0
 20
0.0
 30
0.0
 70
   128
 71
   165
 72
   170
 73
   164
  0
VERTEX
  5
761
  8
0
 62
   253
 10
0.0
 20
0.0
 30
0.0
 70
   128
 71
   166
 72
   168
 73
   165
  0
VERTEX
  5
762
  8
0
 62
   253
 10
0.0
 20
0.0
 30
0.0
 70
   128
 71
   180
 72
   167
 73
   168
  0
VERTEX
  5
763
  8
0
 62
   253
 10
0.0
 20
0.0
 30
0.0
 70
   128
 71
   182
 72
   172
 73
   180
  0
VERTEX
  5
764
  8
0
 62
   253
 10
0.0
 20
0.0
 30
0.0
 70
   128
 71
   177
 72
   172
 73
   182
  0
VERTEX
  5
765
  8
0
 62
   253
 10
0.0
 20
0.0
 30
0.0
 70
   128
 71
   176
 72
   177
 73
   183
  0
VERTEX
  5
766
  8
0
 62
   253
 10
0.0
 20
0.0
 30
0.0
 70
   128
 71
   176
 72
   183
 73
   174
  0
VERTEX
  5
767
  8
0
 62
   253
 10
0.0
 20
0.0
 30
0.0
 70
   128
 71
   158
 72
   176
 73
   157
  0
VERTEX
  5
768
  8
0
 62
   253
 10
0.0
 20
0.0
 30
0.0
 70
   128
 71
   175
 72
   176
 73
   174
  0
VERTEX
  5
769
  8
0
 62
   253
 10
0.0
 20
0.0
 30
0.0
 70
   128
 71
   179
 72
   178
 73
   173
  0
VERTEX
  5
76A
  8
0
 62
   253
 10
0.0
 20
0.0
 30
0.0
 70
   128
 71
   175
 72
   173
 73
   178
  0
VERTEX
  5
76B
  8
0
 62
   253
 10
0.0
 20
0.0
 30
0.0
 70
   128
 71
   178
 72
    48
 73
    50
  0
VERTEX
  5
76C
  8
0
 62
   253
 10
0.0
 20
0.0
 30
0.0
 70
   128
 71
     7
 72
     4
 73
   184
  0
VERTEX
  5
76D
  8
0
 62
   253
 10
0.0
 20
0.0
 30
0.0
 70
   128
 71
   181
 72
   186
 73
   185
  0
VERTEX
  5
76E
  8
0
 62
   253
 10
0.0
 20
0.0
 30
0.0
 70
   128
 71
   187
 72
   180
 73
   168
  0
VERTEX
  5
76F
  8
0
 62
   253
 10
0.0
 20
0.0
 30
0.0
 70
   128
 71
   188
 72
   187
 73
   166
  0
VERTEX
  5
770
  8
0
 62
   253
 10
0.0
 20
0.0
 30
0.0
 70
   128
 71
   177
 72
   182
 73
   189
  0
VERTEX
  5
771
  8
0
 62
   253
 10
0.0
 20
0.0
 30
0.0
 70
   128
 71
   174
 72
   191
 73
   190
  0
VERTEX
  5
772
  8
0
 62
   253
 10
0.0
 20
0.0
 30
0.0
 70
   128
 71
   177
 72
   192
 73
   183
  0
VERTEX
  5
773
  8
0
 62
   253
 10
0.0
 20
0.0
 30
0.0
 70
   128
 71
   193
 72
   173
 73
   190
  0
VERTEX
  5
774
  8
0
 62
   253
 10
0.0
 20
0.0
 30
0.0
 70
   128
 71
   174
 72
   190
 73
   173
  0
VERTEX
  5
775
  8
0
 62
   253
 10
0.0
 20
0.0
 30
0.0
 70
   128
 71
   193
 72
    25
 73
   179
  0
VERTEX
  5
776
  8
0
 62
   253
 10
0.0
 20
0.0
 30
0.0
 70
   128
 71
   179
 72
   173
 73
   193
  0
VERTEX
  5
777
  8
0
 62
   253
 10
0.0
 20
0.0
 30
0.0
 70
   128
 71
   183
 72
   191
 73
   174
  0
VERTEX
  5
778
  8
0
 62
   253
 10
0.0
 20
0.0
 30
0.0
 70
   128
 71
    25
 72
    26
 73
   179
  0
VERTEX
  5
779
  8
0
 62
   253
 10
0.0
 20
0.0
 30
0.0
 70
   128
 71
   191
 72
   183
 73
   192
  0
VERTEX
  5
77A
  8
0
 62
   253
 10
0.0
 20
0.0
 30
0.0
 70
   128
 71
   192
 72
   177
 73
   189
  0
VERTEX
  5
77B
  8
0
 62
   253
 10
0.0
 20
0.0
 30
0.0
 70
   128
 71
   189
 72
   182
 73
   194
  0
VERTEX
  5
77C
  8
0
 62
   253
 10
0.0
 20
0.0
 30
0.0
 70
   128
 71
   187
 72
   194
 73
   180
  0
VERTEX
  5
77D
  8
0
 62
   253
 10
0.0
 20
0.0
 30
0.0
 70
   128
 71
   194
 72
   182
 73
   180
  0
VERTEX
  5
77E
  8
0
 62
   253
 10
0.0
 20
0.0
 30
0.0
 70
   128
 71
   166
 72
   187
 73
   168
  0
VERTEX
  5
77F
  8
0
 62
   253
 10
0.0
 20
0.0
 30
0.0
 70
   128
 71
   184
 72
   171
 73
     7
  0
VERTEX
  5
780
  8
0
 62
   253
 10
0.0
 20
0.0
 30
0.0
 70
   128
 71
   164
 72
   185
 73
   188
  0
VERTEX
  5
781
  8
0
 62
   253
 10
0.0
 20
0.0
 30
0.0
 70
   128
 71
   188
 72
   166
 73
   164
  0
VERTEX
  5
782
  8
0
 62
   253
 10
0.0
 20
0.0
 30
0.0
 70
   128
 71
   181
 72
   185
 73
   164
  0
VERTEX
  5
783
  8
0
 62
   253
 10
0.0
 20
0.0
 30
0.0
 70
   128
 71
   171
 72
   184
 73
   186
  0
VERTEX
  5
784
  8
0
 62
   253
 10
0.0
 20
0.0
 30
0.0
 70
   128
 71
   171
 72
   186
 73
   181
  0
VERTEX
  5
785
  8
0
 62
     9
 10
0.0
 20
0.0
 30
0.0
 70
   128
 71
    88
 72
   193
 73
   190
  0
VERTEX
  5
786
  8
0
 62
     9
 10
0.0
 20
0.0
 30
0.0
 70
   128
 71
    99
 72
     4
 73
     5
  0
VERTEX
  5
787
  8
0
 62
     9
 10
0.0
 20
0.0
 30
0.0
 70
   128
 71
     4
 72
    99
 73
   106
  0
VERTEX
  5
788
  8
0
 62
     9
 10
0.0
 20
0.0
 30
0.0
 70
   128
 71
   194
 72
    94
 73
   189
  0
VERTEX
  5
789
  8
0
 62
     9
 10
0.0
 20
0.0
 30
0.0
 70
   128
 71
    79
 72
    21
 73
    18
  0
VERTEX
  5
78A
  8
0
 62
     9
 10
0.0
 20
0.0
 30
0.0
 70
   128
 71
    21
 72
    82
 73
    13
  0
VERTEX
  5
78B
  8
0
 62
     9
 10
0.0
 20
0.0
 30
0.0
 70
   128
 71
    24
 72
    77
 73
    79
  0
VERTEX
  5
78C
  8
0
 62
     9
 10
0.0
 20
0.0
 30
0.0
 70
   128
 71
    87
 72
    25
 73
   193
  0
VERTEX
  5
78D
  8
0
 62
     9
 10
0.0
 20
0.0
 30
0.0
 70
   128
 71
    25
 72
    77
 73
    24
  0
VERTEX
  5
78E
  8
0
 62
     9
 10
0.0
 20
0.0
 30
0.0
 70
   128
 71
    15
 72
    13
 73
    84
  0
VERTEX
  5
78F
  8
0
 62
     9
 10
0.0
 20
0.0
 30
0.0
 70
   128
 71
    16
 72
    15
 73
    86
  0
VERTEX
  5
790
  8
0
 62
     9
 10
0.0
 20
0.0
 30
0.0
 70
   128
 71
   191
 72
    91
 73
    88
  0
VERTEX
  5
791
  8
0
 62
     9
 10
0.0
 20
0.0
 30
0.0
 70
   128
 71
    93
 72
    91
 73
   192
  0
VERTEX
  5
792
  8
0
 62
     9
 10
0.0
 20
0.0
 30
0.0
 70
   128
 71
   192
 72
   189
 73
    93
  0
VERTEX
  5
793
  8
0
 62
     9
 10
0.0
 20
0.0
 30
0.0
 70
   128
 71
    10
 72
   111
 73
    11
  0
VERTEX
  5
794
  8
0
 62
     9
 10
0.0
 20
0.0
 30
0.0
 70
   128
 71
   189
 72
    94
 73
    93
  0
VERTEX
  5
795
  8
0
 62
     9
 10
0.0
 20
0.0
 30
0.0
 70
   128
 71
   106
 72
   186
 73
   184
  0
VERTEX
  5
796
  8
0
 62
     9
 10
0.0
 20
0.0
 30
0.0
 70
   128
 71
   102
 72
     5
 73
     3
  0
VERTEX
  5
797
  8
0
 62
     9
 10
0.0
 20
0.0
 30
0.0
 70
   128
 71
   186
 72
   105
 73
   185
  0
VERTEX
  5
798
  8
0
 62
     9
 10
0.0
 20
0.0
 30
0.0
 70
   128
 71
   108
 72
   188
 73
   103
  0
VERTEX
  5
799
  8
0
 62
     9
 10
0.0
 20
0.0
 30
0.0
 70
   128
 71
   108
 72
   194
 73
   187
  0
VERTEX
  5
79A
  8
0
 62
     9
 10
0.0
 20
0.0
 30
0.0
 70
   128
 71
     3
 72
    11
 73
   101
  0
VERTEX
  5
79B
  8
0
 62
     9
 10
0.0
 20
0.0
 30
0.0
 70
   128
 71
   105
 72
   103
 73
   185
  0
VERTEX
  5
79C
  8
0
 62
     9
 10
0.0
 20
0.0
 30
0.0
 70
   128
 71
    91
 72
   191
 73
   192
  0
VERTEX
  5
79D
  8
0
 62
     9
 10
0.0
 20
0.0
 30
0.0
 70
   128
 71
    88
 72
   190
 73
   191
  0
VERTEX
  5
79E
  8
0
 62
     9
 10
0.0
 20
0.0
 30
0.0
 70
   128
 71
    88
 72
    87
 73
   193
  0
VERTEX
  5
79F
  8
0
 62
     9
 10
0.0
 20
0.0
 30
0.0
 70
   128
 71
    87
 72
    77
 73
    25
  0
VERTEX
  5
7A0
  8
0
 62
     9
 10
0.0
 20
0.0
 30
0.0
 70
   128
 71
    79
 72
    18
 73
    24
  0
VERTEX
  5
7A1
  8
0
 62
     9
 10
0.0
 20
0.0
 30
0.0
 70
   128
 71
    79
 72
    82
 73
    21
  0
VERTEX
  5
7A2
  8
0
 62
     9
 10
0.0
 20
0.0
 30
0.0
 70
   128
 71
    82
 72
    84
 73
    13
  0
VERTEX
  5
7A3
  8
0
 62
     9
 10
0.0
 20
0.0
 30
0.0
 70
   128
 71
    84
 72
    86
 73
    15
  0
VERTEX
  5
7A4
  8
0
 62
     9
 10
0.0
 20
0.0
 30
0.0
 70
   128
 71
   111
 72
    10
 73
    16
  0
VERTEX
  5
7A5
  8
0
 62
     9
 10
0.0
 20
0.0
 30
0.0
 70
   128
 71
   111
 72
    16
 73
    86
  0
VERTEX
  5
7A6
  8
0
 62
     9
 10
0.0
 20
0.0
 30
0.0
 70
   128
 71
   111
 72
   101
 73
    11
  0
VERTEX
  5
7A7
  8
0
 62
     9
 10
0.0
 20
0.0
 30
0.0
 70
   128
 71
   101
 72
   102
 73
     3
  0
VERTEX
  5
7A8
  8
0
 62
     9
 10
0.0
 20
0.0
 30
0.0
 70
   128
 71
   102
 72
    99
 73
     5
  0
VERTEX
  5
7A9
  8
0
 62
     9
 10
0.0
 20
0.0
 30
0.0
 70
   128
 71
   106
 72
   184
 73
     4
  0
VERTEX
  5
7AA
  8
0
 62
     9
 10
0.0
 20
0.0
 30
0.0
 70
   128
 71
   106
 72
   105
 73
   186
  0
VERTEX
  5
7AB
  8
0
 62
     9
 10
0.0
 20
0.0
 30
0.0
 70
   128
 71
   103
 72
   188
 73
   185
  0
VERTEX
  5
7AC
  8
0
 62
     9
 10
0.0
 20
0.0
 30
0.0
 70
   128
 71
   108
 72
    94
 73
   194
  0
VERTEX
  5
7AD
  8
0
 62
     9
 10
0.0
 20
0.0
 30
0.0
 70
   128
 71
   108
 72
   187
 73
   188
  0
SEQEND
  5
7AE
  8
0
  0
ENDBLK
  5
7B1
  8
0
  0
BLOCK
  8
0
  2
ROSETTE_1_
 70
     0
 10
0.0
 20
0.0
 30
0.0
  3
ROSETTE_1_
  1

  0
POLYLINE
  5
7B3
  8
0
 66
     1
 10
0.0
 20
0.0
 30
0.0
 70
    64
 71
   194
 72
   368
  0
VERTEX
  5
7B4
  8
0
 10
17.07973289489746
 20
178.9783172607422
 30
13.67986679077148
 70
   192
  0
VERTEX
  5
7B5
  8
0
 10
16.3343334197998
 20
174.9207153320312
 30
13.67986679077148
 70
   192
  0
VERTEX
  5
7B6
  8
0
 10
16.81260871887207
 20
177.4825439453125
 30
14.39302635192871
 70
   192
  0
VERTEX
  5
7B7
  8
0
 10
12.03827285766602
 20
167.9617156982422
 30
14.39302635192871
 70
   192
  0
VERTEX
  5
7B8
  8
0
 10
15.1962366104126
 20
172.3384552001953
 30
14.39302635192871
 70
   192
  0
VERTEX
  5
7B9
  8
0
 10
14.55947685241699
 20
171.2167358398438
 30
13.67986679077148
 70
   192
  0
VERTEX
  5
7BA
  8
0
 10
12.09493732452393
 20
167.9050598144531
 30
13.67986679077148
 70
   192
  0
VERTEX
  5
7BB
  8
0
 10
13.45606517791748
 20
190.5576934814453
 30
13.67986679077148
 70
   192
  0
VERTEX
  5
7BC
  8
0
 10
15.59189796447754
 20
187.0312652587891
 30
13.67986679077148
 70
   192
  0
VERTEX
  5
7BD
  8
0
 10
15.61071872711182
 20
186.7182922363281
 30
14.39302635192871
 70
   192
  0
VERTEX
  5
7BE
  8
0
 10
16.85619926452637
 20
182.2054901123047
 30
14.39302635192871
 70
   192
  0
VERTEX
  5
7BF
  8
0
 10
16.82591247558594
 20
183.09619140625
 30
13.67986679077148
 70
   192
  0
VERTEX
  5
7C0
  8
0
 10
5.503261566162109
 20
196.0812683105469
 30
14.39302635192871
 70
   192
  0
VERTEX
  5
7C1
  8
0
 10
7.005364894866943
 20
195.5995483398438
 30
13.67986679077148
 70
   192
  0
VERTEX
  5
7C2
  8
0
 10
9.70879077911377
 20
193.9500732421875
 30
14.39302635192871
 70
   192
  0
VERTEX
  5
7C3
  8
0
 10
13.16624069213867
 20
190.7462615966797
 30
14.39302635192871
 70
   192
  0
VERTEX
  5
7C4
  8
0
 10
10.53752517700195
 20
193.4714508056641
 30
13.67986679077148
 70
   192
  0
VERTEX
  5
7C5
  8
0
 10
-3.837762832641602
 20
196.5601959228516
 30
14.39302635192871
 70
   192
  0
VERTEX
  5
7C6
  8
0
 10
-5.093324184417725
 20
196.3290100097656
 30
13.67986679077148
 70
   192
  0
VERTEX
  5
7C7
  8
0
 10
-1.042302489280701
 20
197.067626953125
 30
13.67986679077148
 70
   192
  0
VERTEX
  5
7C8
  8
0
 10
0.8694243431091309
 20
196.9755706787109
 30
14.39302635192871
 70
   192
  0
VERTEX
  5
7C9
  8
0
 10
3.069156885147095
 20
196.8201599121094
 30
13.67986679077148
 70
   192
  0
VERTEX
  5
7CA
  8
0
 10
-8.782164573669434
 20
194.5466613769531
 30
13.67986679077148
 70
   192
  0
VERTEX
  5
7CB
  8
0
 10
-8.24941349029541
 20
194.8641357421875
 30
14.39302635192871
 70
   192
  0
VERTEX
  5
7CC
  8
0
 10
-12.02084350585938
 20
192.0208435058594
 30
14.39302635192871
 70
   192
  0
VERTEX
  5
7CD
  8
0
 10
-12.09493732452393
 20
192.0949249267578
 30
13.67986679077148
 70
   192
  0
VERTEX
  5
7CE
  8
0
 10
-11.19263553619385
 20
198.8092651367188
 30
10.46993350982666
 70
   192
  0
VERTEX
  5
7CF
  8
0
 10
18.48700523376465
 20
191.7408142089844
 30
10.46993350982666
 70
   192
  0
VERTEX
  5
7D0
  8
0
 10
11.68626499176025
 20
198.5173034667969
 30
10.46993350982666
 70
   192
  0
VERTEX
  5
7D1
  8
0
 10
20.45792579650879
 20
196.0432891845703
 30
6.400000095367432
 70
   192
  0
VERTEX
  5
7D2
  8
0
 10
21.69528579711914
 20
183.1271209716797
 30
10.46993350982666
 70
   192
  0
VERTEX
  5
7D3
  8
0
 10
21.34624481201172
 20
175.0415496826172
 30
10.46993350982666
 70
   192
  0
VERTEX
  5
7D4
  8
0
 10
23.70941162109375
 20
190.6782836914062
 30
6.400000095367432
 70
   192
  0
VERTEX
  5
7D5
  8
0
 10
25.96579360961914
 20
178.4309539794922
 30
6.400000095367432
 70
   192
  0
VERTEX
  5
7D6
  8
0
 10
24.83600044250488
 20
172.2665710449219
 30
6.400000095367432
 70
   192
  0
VERTEX
  5
7D7
  8
0
 10
18.3847770690918
 20
161.6152191162109
 30
6.400000095367432
 70
   192
  0
VERTEX
  5
7D8
  8
0
 10
18.84379005432129
 20
168.7975311279297
 30
10.46993350982666
 70
   192
  0
VERTEX
  5
7D9
  8
0
 10
22.26482582092285
 20
166.5475921630859
 30
6.400000095367432
 70
   192
  0
VERTEX
  5
7DA
  8
0
 10
25.58748435974121
 20
184.6867218017578
 30
6.400000095367432
 70
   192
  0
VERTEX
  5
7DB
  8
0
 10
15.48869895935059
 20
164.5112915039062
 30
10.46993350982666
 70
   192
  0
VERTEX
  5
7DC
  8
0
 10
10.64963626861572
 20
203.7030334472656
 30
6.400000095367432
 70
   192
  0
VERTEX
  5
7DD
  8
0
 10
16.02005767822266
 20
200.4738464355469
 30
6.400000095367432
 70
   192
  0
VERTEX
  5
7DE
  8
0
 10
3.072279691696167
 20
201.6609802246094
 30
10.46993350982666
 70
   192
  0
VERTEX
  5
7DF
  8
0
 10
4.665565013885498
 20
205.5558013916016
 30
6.400000095367432
 70
   192
  0
VERTEX
  5
7E0
  8
0
 10
-1.592084765434265
 20
205.9308013916016
 30
6.400000095367432
 70
   192
  0
VERTEX
  5
7E1
  8
0
 10
-4.970460891723633
 20
201.3258972167969
 30
10.46993350982666
 70
   192
  0
VERTEX
  5
7E2
  8
0
 10
-7.750426292419434
 20
204.7995910644531
 30
6.400000095367432
 70
   192
  0
VERTEX
  5
7E3
  8
0
 10
-15.48869895935059
 20
195.4886932373047
 30
10.46993350982666
 70
   192
  0
VERTEX
  5
7E4
  8
0
 10
-13.45613574981689
 20
202.2311859130859
 30
6.400000095367432
 70
   192
  0
VERTEX
  5
7E5
  8
0
 10
-18.3847770690918
 20
198.384765625
 30
6.400000095367432
 70
   192
  0
VERTEX
  5
7E6
  8
0
 10
19.97186470031738
 20
196.6423645019531
 30
0.25
 70
   192
  0
VERTEX
  5
7E7
  8
0
 10
21.4939136505127
 20
194.6202239990234
 30
0.25
 70
   192
  0
VERTEX
  5
7E8
  8
0
 10
24.25773620605469
 20
189.3085021972656
 30
0.25
 70
   192
  0
VERTEX
  5
7E9
  8
0
 10
25.73890495300293
 20
183.5142211914062
 30
0.25
 70
   192
  0
VERTEX
  5
7EA
  8
0
 10
25.86375617980957
 20
177.5408782958984
 30
0.25
 70
   192
  0
VERTEX
  5
7EB
  8
0
 10
24.62170791625977
 20
171.7001800537109
 30
0.25
 70
   192
  0
VERTEX
  5
7EC
  8
0
 10
22.08108139038086
 20
166.2980346679688
 30
0.25
 70
   192
  0
VERTEX
  5
7ED
  8
0
 10
18.3847770690918
 20
161.6152191162109
 30
-0.0000000000000202
 70
   192
  0
VERTEX
  5
7EE
  8
0
 10
18.24452781677246
 20
198.5240478515625
 30
0.25
 70
   192
  0
VERTEX
  5
7EF
  8
0
 10
16.35836601257324
 20
200.2074127197266
 30
0.25
 70
   192
  0
VERTEX
  5
7F0
  8
0
 10
14.29972076416016
 20
201.7111358642578
 30
0.25
 70
   192
  0
VERTEX
  5
7F1
  8
0
 10
12.12398147583008
 20
202.9995880126953
 30
0.25
 70
   192
  0
VERTEX
  5
7F2
  8
0
 10
9.81416130065918
 20
204.0836639404297
 30
0.25
 70
   192
  0
VERTEX
  5
7F3
  8
0
 10
7.428496360778809
 20
204.9256439208984
 30
0.25
 70
   192
  0
VERTEX
  5
7F4
  8
0
 10
2.444851636886597
 20
205.8979187011719
 30
0.25
 70
   192
  0
VERTEX
  5
7F5
  8
0
 10
4.949069023132324
 20
205.5378875732422
 30
0.25
 70
   192
  0
VERTEX
  5
7F6
  8
0
 10
-0.1060749217867851
 20
206.0133819580078
 30
0.25
 70
   192
  0
VERTEX
  5
7F7
  8
0
 10
-5.154903411865234
 20
205.4968566894531
 30
0.25
 70
   192
  0
VERTEX
  5
7F8
  8
0
 10
-2.631522655487061
 20
205.8790435791016
 30
0.25
 70
   192
  0
VERTEX
  5
7F9
  8
0
 10
-7.605298519134521
 20
204.8755645751953
 30
0.25
 70
   192
  0
VERTEX
  5
7FA
  8
0
 10
-10.00605201721191
 20
204.0124359130859
 30
0.25
 70
   192
  0
VERTEX
  5
7FB
  8
0
 10
-14.47633075714111
 20
201.6145935058594
 30
0.25
 70
   192
  0
VERTEX
  5
7FC
  8
0
 10
-12.2888011932373
 20
202.9276733398438
 30
0.25
 70
   192
  0
VERTEX
  5
7FD
  8
0
 10
-16.50067138671875
 20
200.1037292480469
 30
0.25
 70
   192
  0
VERTEX
  5
7FE
  8
0
 10
-18.2079906463623
 20
198.2080078125
 30
-0.0000000000000072
 70
   192
  0
VERTEX
  5
7FF
  8
0
 10
-11.7990779876709
 20
188.2527465820312
 30
17.20000076293945
 70
   192
  0
VERTEX
  5
800
  8
0
 10
-8.267864227294922
 20
191.7894897460938
 30
14.39302635192871
 70
   192
  0
VERTEX
  5
801
  8
0
 10
-8.265457153320312
 20
191.7896575927734
 30
17.20000076293945
 70
   192
  0
VERTEX
  5
802
  8
0
 10
-3.737202405929565
 20
193.9058227539062
 30
14.39302635192871
 70
   192
  0
VERTEX
  5
803
  8
0
 10
-3.736164569854736
 20
193.9095001220703
 30
17.20000076293945
 70
   192
  0
VERTEX
  5
804
  8
0
 10
1.249297618865967
 20
194.3505706787109
 30
17.20000076293945
 70
   192
  0
VERTEX
  5
805
  8
0
 10
1.248510718345642
 20
194.3456726074219
 30
14.39302635192871
 70
   192
  0
VERTEX
  5
806
  8
0
 10
6.05654239654541
 20
193.0302429199219
 30
17.20000076293945
 70
   192
  0
VERTEX
  5
807
  8
0
 10
6.082220554351807
 20
193.0523071289062
 30
14.39302635192871
 70
   192
  0
VERTEX
  5
808
  8
0
 10
10.18233776092529
 20
190.1823272705078
 30
17.20000076293945
 70
   192
  0
VERTEX
  5
809
  8
0
 10
10.18233776092529
 20
190.1823272705078
 30
14.39302635192871
 70
   192
  0
VERTEX
  5
80A
  8
0
 10
-11.80281543731689
 20
188.2467803955078
 30
14.39302635192871
 70
   192
  0
VERTEX
  5
80B
  8
0
 10
-13.91146183013916
 20
183.716796875
 30
14.39302635192871
 70
   192
  0
VERTEX
  5
80C
  8
0
 10
-13.90694236755371
 20
183.7124938964844
 30
17.20000076293945
 70
   192
  0
VERTEX
  5
80D
  8
0
 10
-14.34049320220947
 20
178.7402801513672
 30
17.20000076293945
 70
   192
  0
VERTEX
  5
80E
  8
0
 10
-14.34248542785645
 20
178.7333221435547
 30
14.39302635192871
 70
   192
  0
VERTEX
  5
80F
  8
0
 10
-12.99107551574707
 20
173.947265625
 30
17.20000076293945
 70
   192
  0
VERTEX
  5
810
  8
0
 10
-13.04883289337158
 20
173.9105834960938
 30
14.39302635192871
 70
   192
  0
VERTEX
  5
811
  8
0
 10
-10.18233776092529
 20
169.8176574707031
 30
14.39302635192871
 70
   192
  0
VERTEX
  5
812
  8
0
 10
-10.18233776092529
 20
169.8176574707031
 30
17.20000076293945
 70
   192
  0
VERTEX
  5
813
  8
0
 10
12.99107551574707
 20
186.0527191162109
 30
17.20000076293945
 70
   192
  0
VERTEX
  5
814
  8
0
 10
11.7990779876709
 20
171.7472381591797
 30
17.20000076293945
 70
   192
  0
VERTEX
  5
815
  8
0
 10
13.90694236755371
 20
176.2874908447266
 30
17.20000076293945
 70
   192
  0
VERTEX
  5
816
  8
0
 10
11.80281543731689
 20
171.7532043457031
 30
14.39302635192871
 70
   192
  0
VERTEX
  5
817
  8
0
 10
14.34049320220947
 20
181.2597198486328
 30
17.20000076293945
 70
   192
  0
VERTEX
  5
818
  8
0
 10
14.34248542785645
 20
181.2666778564453
 30
14.39302635192871
 70
   192
  0
VERTEX
  5
819
  8
0
 10
13.91146183013916
 20
176.2831878662109
 30
14.39302635192871
 70
   192
  0
VERTEX
  5
81A
  8
0
 10
-1.248510718345642
 20
165.6543121337891
 30
14.39302635192871
 70
   192
  0
VERTEX
  5
81B
  8
0
 10
3.736164569854736
 20
166.0904846191406
 30
17.20000076293945
 70
   192
  0
VERTEX
  5
81C
  8
0
 10
3.737202405929565
 20
166.0941772460938
 30
14.39302635192871
 70
   192
  0
VERTEX
  5
81D
  8
0
 10
8.267864227294922
 20
168.2104949951172
 30
14.39302635192871
 70
   192
  0
VERTEX
  5
81E
  8
0
 10
8.265457153320312
 20
168.2103271484375
 30
17.20000076293945
 70
   192
  0
VERTEX
  5
81F
  8
0
 10
-6.082220554351807
 20
166.9476776123047
 30
14.39302635192871
 70
   192
  0
VERTEX
  5
820
  8
0
 10
-6.05654239654541
 20
166.9697418212891
 30
17.20000076293945
 70
   192
  0
VERTEX
  5
821
  8
0
 10
-1.249297618865967
 20
165.6494293212891
 30
17.20000076293945
 70
   192
  0
VERTEX
  5
822
  8
0
 10
13.04883289337158
 20
186.0894165039062
 30
14.39302635192871
 70
   192
  0
VERTEX
  5
823
  8
0
 10
-16.20425605773926
 20
200.0211486816406
 30
-0.0000105748395072
 70
   192
  0
VERTEX
  5
824
  8
0
 10
-13.94054508209229
 20
201.6311340332031
 30
-0.0000077799304563
 70
   192
  0
VERTEX
  5
825
  8
0
 10
-11.6126070022583
 20
202.9826965332031
 30
0.0000490866368636
 70
   192
  0
VERTEX
  5
826
  8
0
 10
-9.202130317687988
 20
204.0750427246094
 30
0.0002058645477518
 70
   192
  0
VERTEX
  5
827
  8
0
 10
-6.651355743408203
 20
204.9109039306641
 30
0.0005262167542242
 70
   192
  0
VERTEX
  5
828
  8
0
 10
-3.868442296981812
 20
205.4587707519531
 30
0.001157961669378
 70
   192
  0
VERTEX
  5
829
  8
0
 10
4.151850700378418
 20
205.4712066650391
 30
0.0054029636085033
 70
   192
  0
VERTEX
  5
82A
  8
0
 10
-1.203258156776428
 20
205.7498474121094
 30
0.0020656792912632
 70
   192
  0
VERTEX
  5
82B
  8
0
 10
1.455855011940002
 20
205.7600250244141
 30
0.0034292947966605
 70
   192
  0
VERTEX
  5
82C
  8
0
 10
6.880020141601562
 20
204.8594360351562
 30
0.0081192944198847
 70
   192
  0
VERTEX
  5
82D
  8
0
 10
9.4070405960083
 20
204.0576782226562
 30
0.0113123338669538
 70
   192
  0
VERTEX
  5
82E
  8
0
 10
11.86818885803223
 20
202.9607391357422
 30
0.0154718402773142
 70
   192
  0
VERTEX
  5
82F
  8
0
 10
14.2006196975708
 20
201.5985565185547
 30
0.0206213463097811
 70
   192
  0
VERTEX
  5
830
  8
0
 10
16.34462738037109
 20
200.0154876708984
 30
0.0266857966780663
 70
   192
  0
VERTEX
  5
831
  8
0
 10
18.3939037322998
 20
198.2174072265625
 30
0.0335779115557671
 70
   192
  0
VERTEX
  5
832
  8
0
 10
19.98952102661133
 20
196.4785461425781
 30
0.0405763313174248
 70
   192
  0
VERTEX
  5
833
  8
0
 10
-24.62979125976562
 20
188.2757263183594
 30
0.25
 70
   192
  0
VERTEX
  5
834
  8
0
 10
-25.28730392456055
 20
185.9669952392578
 30
0.25
 70
   192
  0
VERTEX
  5
835
  8
0
 10
-25.72968101501465
 20
183.6093292236328
 30
0.25
 70
   192
  0
VERTEX
  5
836
  8
0
 10
-25.95067977905273
 20
181.2219848632812
 30
0.25
 70
   192
  0
VERTEX
  5
837
  8
0
 10
-25.95232200622559
 20
178.8197784423828
 30
0.25
 70
   192
  0
VERTEX
  5
838
  8
0
 10
-23.77750205993652
 20
169.5182952880859
 30
0.25
 70
   192
  0
VERTEX
  5
839
  8
0
 10
-25.73192405700684
 20
176.4350738525391
 30
0.25
 70
   192
  0
VERTEX
  5
83A
  8
0
 10
-25.29330253601074
 20
174.0701141357422
 30
0.25
 70
   192
  0
VERTEX
  5
83B
  8
0
 10
-21.4510498046875
 20
165.3167724609375
 30
0.25
 70
   192
  0
VERTEX
  5
83C
  8
0
 10
-22.71511268615723
 20
167.3733215332031
 30
0.25
 70
   192
  0
VERTEX
  5
83D
  8
0
 10
-18.29617500305176
 20
161.7038269042969
 30
0.0333196073770523
 70
   192
  0
VERTEX
  5
83E
  8
0
 10
-20.01092338562012
 20
163.4046630859375
 30
0.25
 70
   192
  0
VERTEX
  5
83F
  8
0
 10
-13.65395259857178
 20
157.9886016845703
 30
-0.0000000000000026
 70
   192
  0
VERTEX
  5
840
  8
0
 10
-8.457993507385254
 20
155.4882965087891
 30
-0.0000000000000052
 70
   192
  0
VERTEX
  5
841
  8
0
 10
-2.809595584869385
 20
154.2004547119141
 30
-0.0000000000000081
 70
   192
  0
VERTEX
  5
842
  8
0
 10
3.015886306762695
 20
154.2050476074219
 30
-0.0000000000000113
 70
   192
  0
VERTEX
  5
843
  8
0
 10
8.648630142211914
 20
155.4940490722656
 30
-0.0000000000000144
 70
   192
  0
VERTEX
  5
844
  8
0
 10
13.83904552459717
 20
157.9920349121094
 30
-0.0000000000000175
 70
   192
  0
VERTEX
  5
845
  8
0
 10
-24.6414966583252
 20
171.76708984375
 30
0.25
 70
   192
  0
VERTEX
  5
846
  8
0
 10
-22.69183540344238
 20
192.6609497070312
 30
0.25
 70
   192
  0
VERTEX
  5
847
  8
0
 10
-20.00247192382812
 20
196.5988311767578
 30
0.25
 70
   192
  0
VERTEX
  5
848
  8
0
 10
-23.76350593566895
 20
190.5090026855469
 30
0.25
 70
   192
  0
VERTEX
  5
849
  8
0
 10
-21.43815803527832
 20
194.6908874511719
 30
0.25
 70
   192
  0
VERTEX
  5
84A
  8
0
 10
13.83706760406494
 20
157.9718322753906
 30
6.400000095367432
 70
   192
  0
VERTEX
  5
84B
  8
0
 10
-2.918319940567017
 20
154.1509857177734
 30
6.400000095367432
 70
   192
  0
VERTEX
  5
84C
  8
0
 10
8.586748123168945
 20
155.4459533691406
 30
6.400000095367432
 70
   192
  0
VERTEX
  5
84D
  8
0
 10
-24.53078460693359
 20
171.4415283203125
 30
6.400000095367432
 70
   192
  0
VERTEX
  5
84E
  8
0
 10
-22.01633453369141
 20
166.1847991943359
 30
6.400000095367432
 70
   192
  0
VERTEX
  5
84F
  8
0
 10
-18.3847770690918
 20
161.6152191162109
 30
6.400000095367432
 70
   192
  0
VERTEX
  5
850
  8
0
 10
-25.81496810913086
 20
182.931640625
 30
6.400000095367432
 70
   192
  0
VERTEX
  5
851
  8
0
 10
-25.81740379333496
 20
177.1164245605469
 30
6.400000095367432
 70
   192
  0
VERTEX
  5
852
  8
0
 10
-21.99773406982422
 20
193.8358459472656
 30
6.400000095367432
 70
   192
  0
VERTEX
  5
853
  8
0
 10
-24.51923370361328
 20
188.5986633300781
 30
6.400000095367432
 70
   192
  0
VERTEX
  5
854
  8
0
 10
-8.596319198608398
 20
155.4536895751953
 30
6.400000095367432
 70
   192
  0
VERTEX
  5
855
  8
0
 10
-13.83572292327881
 20
157.9898529052734
 30
6.400000095367432
 70
   192
  0
VERTEX
  5
856
  8
0
 10
2.907540798187256
 20
154.1506805419922
 30
6.400000095367432
 70
   192
  0
VERTEX
  5
857
  8
0
 10
1.021674394607544
 20
162.9202575683594
 30
13.67986679077148
 70
   192
  0
VERTEX
  5
858
  8
0
 10
-3.072279691696167
 20
158.3390045166016
 30
10.46993350982666
 70
   192
  0
VERTEX
  5
859
  8
0
 10
-3.096199035644531
 20
163.1740875244141
 30
13.67986679077148
 70
   192
  0
VERTEX
  5
85A
  8
0
 10
-11.68626499176025
 20
161.4826812744141
 30
10.46993350982666
 70
   192
  0
VERTEX
  5
85B
  8
0
 10
-7.031269550323486
 20
164.4080963134766
 30
13.67986679077148
 70
   192
  0
VERTEX
  5
85C
  8
0
 10
11.19263553619385
 20
161.1907196044922
 30
10.46993350982666
 70
   192
  0
VERTEX
  5
85D
  8
0
 10
4.970460891723633
 20
158.6740875244141
 30
10.46993350982666
 70
   192
  0
VERTEX
  5
85E
  8
0
 10
8.783265113830566
 20
165.4405212402344
 30
13.67986679077148
 70
   192
  0
VERTEX
  5
85F
  8
0
 10
-18.48700523376465
 20
168.2591857910156
 30
10.46993350982666
 70
   192
  0
VERTEX
  5
860
  8
0
 10
-16.32902145385742
 20
185.0933227539062
 30
13.67986679077148
 70
   192
  0
VERTEX
  5
861
  8
0
 10
-17.06762886047363
 20
181.0422973632812
 30
13.67986679077148
 70
   192
  0
VERTEX
  5
862
  8
0
 10
-21.34624481201172
 20
184.9584350585938
 30
10.46993350982666
 70
   192
  0
VERTEX
  5
863
  8
0
 10
-21.69528579711914
 20
176.8728790283203
 30
10.46993350982666
 70
   192
  0
VERTEX
  5
864
  8
0
 10
-15.5995512008667
 20
172.99462890625
 30
13.67986679077148
 70
   192
  0
VERTEX
  5
865
  8
0
 10
-18.84379005432129
 20
191.2024536132812
 30
10.46993350982666
 70
   192
  0
VERTEX
  5
866
  8
0
 10
-14.54667091369629
 20
188.7821655273438
 30
13.67986679077148
 70
   192
  0
VERTEX
  5
867
  8
0
 10
-10.55769538879395
 20
166.5439300537109
 30
13.67986679077148
 70
   192
  0
VERTEX
  5
868
  8
0
 10
5.07927417755127
 20
163.6656646728516
 30
13.67986679077148
 70
   192
  0
VERTEX
  5
869
  8
0
 10
-13.47145175933838
 20
169.4624633789062
 30
13.67986679077148
 70
   192
  0
VERTEX
  5
86A
  8
0
 10
-16.82016372680664
 20
176.9308319091797
 30
13.67986679077148
 70
   192
  0
VERTEX
  5
86B
  8
0
 10
9.205713272094727
 20
165.6851196289062
 30
14.39302635192871
 70
   192
  0
VERTEX
  5
86C
  8
0
 10
2.517443656921387
 20
163.1873931884766
 30
14.39302635192871
 70
   192
  0
VERTEX
  5
86D
  8
0
 10
6.032103538513184
 20
164.0936737060547
 30
14.39302635192871
 70
   192
  0
VERTEX
  5
86E
  8
0
 10
-6.761037826538086
 20
164.4032897949219
 30
14.39302635192871
 70
   192
  0
VERTEX
  5
86F
  8
0
 10
-2.20549488067627
 20
163.143798828125
 30
14.39302635192871
 70
   192
  0
VERTEX
  5
870
  8
0
 10
-13.98665523529053
 20
170.342529296875
 30
14.39302635192871
 70
   192
  0
VERTEX
  5
871
  8
0
 10
-16.54606437683105
 20
183.8804473876953
 30
14.39302635192871
 70
   192
  0
VERTEX
  5
872
  8
0
 10
-16.97567176818848
 20
179.1883850097656
 30
14.39302635192871
 70
   192
  0
VERTEX
  5
873
  8
0
 10
-16.10078430175781
 20
174.5566711425781
 30
14.39302635192871
 70
   192
  0
VERTEX
  5
874
  8
0
 10
-14.86414527893066
 20
188.2494049072266
 30
14.39302635192871
 70
   192
  0
VERTEX
  5
875
  8
0
 10
-10.79270267486572
 20
166.8682098388672
 30
14.39302635192871
 70
   192
  0
VERTEX
  5
876
  8
0
 62
   253
 10
0.0
 20
0.0
 30
0.0
 70
   128
 71
     3
 72
     2
 73
     1
  0
VERTEX
  5
877
  8
0
 62
   253
 10
0.0
 20
0.0
 30
0.0
 70
   128
 71
     6
 72
     5
 73
     4
  0
VERTEX
  5
878
  8
0
 62
   253
 10
0.0
 20
0.0
 30
0.0
 70
   128
 71
     7
 72
     6
 73
     4
  0
VERTEX
  5
879
  8
0
 62
   253
 10
0.0
 20
0.0
 30
0.0
 70
   128
 71
     5
 72
     6
 73
     2
  0
VERTEX
  5
87A
  8
0
 62
   253
 10
0.0
 20
0.0
 30
0.0
 70
   128
 71
     2
 72
     3
 73
     5
  0
VERTEX
  5
87B
  8
0
 62
   253
 10
0.0
 20
0.0
 30
0.0
 70
   128
 71
    10
 72
     9
 73
     8
  0
VERTEX
  5
87C
  8
0
 62
   253
 10
0.0
 20
0.0
 30
0.0
 70
   128
 71
    12
 72
    11
 73
     1
  0
VERTEX
  5
87D
  8
0
 62
   253
 10
0.0
 20
0.0
 30
0.0
 70
   128
 71
    15
 72
    14
 73
    13
  0
VERTEX
  5
87E
  8
0
 62
   253
 10
0.0
 20
0.0
 30
0.0
 70
   128
 71
    17
 72
    15
 73
    16
  0
VERTEX
  5
87F
  8
0
 62
   253
 10
0.0
 20
0.0
 30
0.0
 70
   128
 71
    20
 72
    19
 73
    18
  0
VERTEX
  5
880
  8
0
 62
   253
 10
0.0
 20
0.0
 30
0.0
 70
   128
 71
    22
 72
    21
 73
    13
  0
VERTEX
  5
881
  8
0
 62
   253
 10
0.0
 20
0.0
 30
0.0
 70
   128
 71
    24
 72
    19
 73
    23
  0
VERTEX
  5
882
  8
0
 62
   253
 10
0.0
 20
0.0
 30
0.0
 70
   128
 71
    19
 72
    24
 73
    18
  0
VERTEX
  5
883
  8
0
 62
   253
 10
0.0
 20
0.0
 30
0.0
 70
   128
 71
    26
 72
    25
 73
    23
  0
VERTEX
  5
884
  8
0
 62
   253
 10
0.0
 20
0.0
 30
0.0
 70
   128
 71
    24
 72
    23
 73
    25
  0
VERTEX
  5
885
  8
0
 62
   253
 10
0.0
 20
0.0
 30
0.0
 70
   128
 71
    21
 72
    20
 73
    18
  0
VERTEX
  5
886
  8
0
 62
   253
 10
0.0
 20
0.0
 30
0.0
 70
   128
 71
    22
 72
    20
 73
    21
  0
VERTEX
  5
887
  8
0
 62
   253
 10
0.0
 20
0.0
 30
0.0
 70
   128
 71
    22
 72
    13
 73
    14
  0
VERTEX
  5
888
  8
0
 62
   253
 10
0.0
 20
0.0
 30
0.0
 70
   128
 71
     8
 72
    17
 73
    16
  0
VERTEX
  5
889
  8
0
 62
   253
 10
0.0
 20
0.0
 30
0.0
 70
   128
 71
    17
 72
    14
 73
    15
  0
VERTEX
  5
88A
  8
0
 62
   253
 10
0.0
 20
0.0
 30
0.0
 70
   128
 71
    10
 72
     8
 73
    16
  0
VERTEX
  5
88B
  8
0
 62
   253
 10
0.0
 20
0.0
 30
0.0
 70
   128
 71
    12
 72
    10
 73
    11
  0
VERTEX
  5
88C
  8
0
 62
   253
 10
0.0
 20
0.0
 30
0.0
 70
   128
 71
    10
 72
    12
 73
     9
  0
VERTEX
  5
88D
  8
0
 62
   253
 10
0.0
 20
0.0
 30
0.0
 70
   128
 71
    11
 72
     3
 73
     1
  0
VERTEX
  5
88E
  8
0
 62
   253
 10
0.0
 20
0.0
 30
0.0
 70
   128
 71
    26
 72
    23
 73
    27
  0
VERTEX
  5
88F
  8
0
 62
   253
 10
0.0
 20
0.0
 30
0.0
 70
   128
 71
    30
 72
    29
 73
    28
  0
VERTEX
  5
890
  8
0
 62
   253
 10
0.0
 20
0.0
 30
0.0
 70
   128
 71
    12
 72
    31
 73
     9
  0
VERTEX
  5
891
  8
0
 62
   253
 10
0.0
 20
0.0
 30
0.0
 70
   128
 71
     9
 72
    31
 73
    28
  0
VERTEX
  5
892
  8
0
 62
   253
 10
0.0
 20
0.0
 30
0.0
 70
   128
 71
     2
 72
    32
 73
     1
  0
VERTEX
  5
893
  8
0
 62
   253
 10
0.0
 20
0.0
 30
0.0
 70
   128
 71
    33
 72
    28
 73
    31
  0
VERTEX
  5
894
  8
0
 62
   253
 10
0.0
 20
0.0
 30
0.0
 70
   128
 71
    32
 72
    35
 73
    34
  0
VERTEX
  5
895
  8
0
 62
   253
 10
0.0
 20
0.0
 30
0.0
 70
   128
 71
    32
 72
    34
 73
    31
  0
VERTEX
  5
896
  8
0
 62
   253
 10
0.0
 20
0.0
 30
0.0
 70
   128
 71
    38
 72
    37
 73
    36
  0
VERTEX
  5
897
  8
0
 62
   253
 10
0.0
 20
0.0
 30
0.0
 70
   128
 71
    39
 72
    33
 73
    31
  0
VERTEX
  5
898
  8
0
 62
   253
 10
0.0
 20
0.0
 30
0.0
 70
   128
 71
    40
 72
     6
 73
     7
  0
VERTEX
  5
899
  8
0
 62
   253
 10
0.0
 20
0.0
 30
0.0
 70
   128
 71
    40
 72
    37
 73
     6
  0
VERTEX
  5
89A
  8
0
 62
   253
 10
0.0
 20
0.0
 30
0.0
 70
   128
 71
    37
 72
    38
 73
    35
  0
VERTEX
  5
89B
  8
0
 62
   253
 10
0.0
 20
0.0
 30
0.0
 70
   128
 71
    32
 72
    37
 73
    35
  0
VERTEX
  5
89C
  8
0
 62
   253
 10
0.0
 20
0.0
 30
0.0
 70
   128
 71
    30
 72
    28
 73
    33
  0
VERTEX
  5
89D
  8
0
 62
   253
 10
0.0
 20
0.0
 30
0.0
 70
   128
 71
    42
 72
    41
 73
    29
  0
VERTEX
  5
89E
  8
0
 62
   253
 10
0.0
 20
0.0
 30
0.0
 70
   128
 71
    42
 72
    29
 73
    30
  0
VERTEX
  5
89F
  8
0
 62
   253
 10
0.0
 20
0.0
 30
0.0
 70
   128
 71
    29
 72
    43
 73
    14
  0
VERTEX
  5
8A0
  8
0
 62
   253
 10
0.0
 20
0.0
 30
0.0
 70
   128
 71
    41
 72
    43
 73
    29
  0
VERTEX
  5
8A1
  8
0
 62
   253
 10
0.0
 20
0.0
 30
0.0
 70
   128
 71
    45
 72
    43
 73
    44
  0
VERTEX
  5
8A2
  8
0
 62
   253
 10
0.0
 20
0.0
 30
0.0
 70
   128
 71
    43
 72
    41
 73
    44
  0
VERTEX
  5
8A3
  8
0
 62
   253
 10
0.0
 20
0.0
 30
0.0
 70
   128
 71
    20
 72
    22
 73
    43
  0
VERTEX
  5
8A4
  8
0
 62
   253
 10
0.0
 20
0.0
 30
0.0
 70
   128
 71
    46
 72
    43
 73
    45
  0
VERTEX
  5
8A5
  8
0
 62
   253
 10
0.0
 20
0.0
 30
0.0
 70
   128
 71
    45
 72
    47
 73
    46
  0
VERTEX
  5
8A6
  8
0
 62
   253
 10
0.0
 20
0.0
 30
0.0
 70
   128
 71
    47
 72
    27
 73
    46
  0
VERTEX
  5
8A7
  8
0
 62
   253
 10
0.0
 20
0.0
 30
0.0
 70
   128
 71
    26
 72
    27
 73
    48
  0
VERTEX
  5
8A8
  8
0
 62
   253
 10
0.0
 20
0.0
 30
0.0
 70
   128
 71
    48
 72
    27
 73
    49
  0
VERTEX
  5
8A9
  8
0
 62
   253
 10
0.0
 20
0.0
 30
0.0
 70
   128
 71
    50
 72
    48
 73
    49
  0
VERTEX
  5
8AA
  8
0
 62
   253
 10
0.0
 20
0.0
 30
0.0
 70
   128
 71
    27
 72
    23
 73
    19
  0
VERTEX
  5
8AB
  8
0
 62
   253
 10
0.0
 20
0.0
 30
0.0
 70
   128
 71
    49
 72
    27
 73
    47
  0
VERTEX
  5
8AC
  8
0
 62
   253
 10
0.0
 20
0.0
 30
0.0
 70
   128
 71
    19
 72
    46
 73
    27
  0
VERTEX
  5
8AD
  8
0
 62
   253
 10
0.0
 20
0.0
 30
0.0
 70
   128
 71
    46
 72
    19
 73
    20
  0
VERTEX
  5
8AE
  8
0
 62
   253
 10
0.0
 20
0.0
 30
0.0
 70
   128
 71
    43
 72
    46
 73
    20
  0
VERTEX
  5
8AF
  8
0
 62
   253
 10
0.0
 20
0.0
 30
0.0
 70
   128
 71
    22
 72
    14
 73
    43
  0
VERTEX
  5
8B0
  8
0
 62
   253
 10
0.0
 20
0.0
 30
0.0
 70
   128
 71
    17
 72
    29
 73
    14
  0
VERTEX
  5
8B1
  8
0
 62
   253
 10
0.0
 20
0.0
 30
0.0
 70
   128
 71
     8
 72
    28
 73
    17
  0
VERTEX
  5
8B2
  8
0
 62
   253
 10
0.0
 20
0.0
 30
0.0
 70
   128
 71
    28
 72
    29
 73
    17
  0
VERTEX
  5
8B3
  8
0
 62
   253
 10
0.0
 20
0.0
 30
0.0
 70
   128
 71
    28
 72
     8
 73
     9
  0
VERTEX
  5
8B4
  8
0
 62
   253
 10
0.0
 20
0.0
 30
0.0
 70
   128
 71
    31
 72
    12
 73
     1
  0
VERTEX
  5
8B5
  8
0
 62
   253
 10
0.0
 20
0.0
 30
0.0
 70
   128
 71
    39
 72
    31
 73
    34
  0
VERTEX
  5
8B6
  8
0
 62
   253
 10
0.0
 20
0.0
 30
0.0
 70
   128
 71
    32
 72
    31
 73
     1
  0
VERTEX
  5
8B7
  8
0
 62
   253
 10
0.0
 20
0.0
 30
0.0
 70
   128
 71
     6
 72
    37
 73
     2
  0
VERTEX
  5
8B8
  8
0
 62
   253
 10
0.0
 20
0.0
 30
0.0
 70
   128
 71
    32
 72
     2
 73
    37
  0
VERTEX
  5
8B9
  8
0
 62
   253
 10
0.0
 20
0.0
 30
0.0
 70
   128
 71
    37
 72
    40
 73
    36
  0
VERTEX
  5
8BA
  8
0
 62
   253
 10
0.0
 20
0.0
 30
0.0
 70
   128
 71
    30
 72
    52
 73
    51
  0
VERTEX
  5
8BB
  8
0
 62
   253
 10
0.0
 20
0.0
 30
0.0
 70
   128
 71
    52
 72
    33
 73
    53
  0
VERTEX
  5
8BC
  8
0
 62
   253
 10
0.0
 20
0.0
 30
0.0
 70
   128
 71
    33
 72
    52
 73
    30
  0
VERTEX
  5
8BD
  8
0
 62
   253
 10
0.0
 20
0.0
 30
0.0
 70
   128
 71
    54
 72
    53
 73
    39
  0
VERTEX
  5
8BE
  8
0
 62
   253
 10
0.0
 20
0.0
 30
0.0
 70
   128
 71
    33
 72
    39
 73
    53
  0
VERTEX
  5
8BF
  8
0
 62
   253
 10
0.0
 20
0.0
 30
0.0
 70
   128
 71
    34
 72
    55
 73
    54
  0
VERTEX
  5
8C0
  8
0
 62
   253
 10
0.0
 20
0.0
 30
0.0
 70
   128
 71
    54
 72
    39
 73
    34
  0
VERTEX
  5
8C1
  8
0
 62
   253
 10
0.0
 20
0.0
 30
0.0
 70
   128
 71
    55
 72
    35
 73
    56
  0
VERTEX
  5
8C2
  8
0
 62
   253
 10
0.0
 20
0.0
 30
0.0
 70
   128
 71
    35
 72
    55
 73
    34
  0
VERTEX
  5
8C3
  8
0
 62
   253
 10
0.0
 20
0.0
 30
0.0
 70
   128
 71
    57
 72
    56
 73
    38
  0
VERTEX
  5
8C4
  8
0
 62
   253
 10
0.0
 20
0.0
 30
0.0
 70
   128
 71
    35
 72
    38
 73
    56
  0
VERTEX
  5
8C5
  8
0
 62
   253
 10
0.0
 20
0.0
 30
0.0
 70
   128
 71
    57
 72
    38
 73
    36
  0
VERTEX
  5
8C6
  8
0
 62
   253
 10
0.0
 20
0.0
 30
0.0
 70
   128
 71
    58
 72
    57
 73
    36
  0
VERTEX
  5
8C7
  8
0
 62
   253
 10
0.0
 20
0.0
 30
0.0
 70
   128
 71
    59
 72
    30
 73
    51
  0
VERTEX
  5
8C8
  8
0
 62
   253
 10
0.0
 20
0.0
 30
0.0
 70
   128
 71
    42
 72
    59
 73
    60
  0
VERTEX
  5
8C9
  8
0
 62
   253
 10
0.0
 20
0.0
 30
0.0
 70
   128
 71
    59
 72
    42
 73
    30
  0
VERTEX
  5
8CA
  8
0
 62
   253
 10
0.0
 20
0.0
 30
0.0
 70
   128
 71
    41
 72
    42
 73
    61
  0
VERTEX
  5
8CB
  8
0
 62
   253
 10
0.0
 20
0.0
 30
0.0
 70
   128
 71
    60
 72
    61
 73
    42
  0
VERTEX
  5
8CC
  8
0
 62
   253
 10
0.0
 20
0.0
 30
0.0
 70
   128
 71
    63
 72
    41
 73
    62
  0
VERTEX
  5
8CD
  8
0
 62
   253
 10
0.0
 20
0.0
 30
0.0
 70
   128
 71
    41
 72
    61
 73
    62
  0
VERTEX
  5
8CE
  8
0
 62
   253
 10
0.0
 20
0.0
 30
0.0
 70
   128
 71
    64
 72
    44
 73
    41
  0
VERTEX
  5
8CF
  8
0
 62
   253
 10
0.0
 20
0.0
 30
0.0
 70
   128
 71
    41
 72
    63
 73
    64
  0
VERTEX
  5
8D0
  8
0
 62
   253
 10
0.0
 20
0.0
 30
0.0
 70
   128
 71
    66
 72
    65
 73
    44
  0
VERTEX
  5
8D1
  8
0
 62
   253
 10
0.0
 20
0.0
 30
0.0
 70
   128
 71
    66
 72
    44
 73
    64
  0
VERTEX
  5
8D2
  8
0
 62
   253
 10
0.0
 20
0.0
 30
0.0
 70
   128
 71
    45
 72
    65
 73
    67
  0
VERTEX
  5
8D3
  8
0
 62
   253
 10
0.0
 20
0.0
 30
0.0
 70
   128
 71
    65
 72
    45
 73
    44
  0
VERTEX
  5
8D4
  8
0
 62
   253
 10
0.0
 20
0.0
 30
0.0
 70
   128
 71
    45
 72
    69
 73
    68
  0
VERTEX
  5
8D5
  8
0
 62
   253
 10
0.0
 20
0.0
 30
0.0
 70
   128
 71
    67
 72
    69
 73
    45
  0
VERTEX
  5
8D6
  8
0
 62
   253
 10
0.0
 20
0.0
 30
0.0
 70
   128
 71
    70
 72
    47
 73
    68
  0
VERTEX
  5
8D7
  8
0
 62
   253
 10
0.0
 20
0.0
 30
0.0
 70
   128
 71
    45
 72
    68
 73
    47
  0
VERTEX
  5
8D8
  8
0
 62
   253
 10
0.0
 20
0.0
 30
0.0
 70
   128
 71
    71
 72
    49
 73
    47
  0
VERTEX
  5
8D9
  8
0
 62
   253
 10
0.0
 20
0.0
 30
0.0
 70
   128
 71
    47
 72
    70
 73
    71
  0
VERTEX
  5
8DA
  8
0
 62
   253
 10
0.0
 20
0.0
 30
0.0
 70
   128
 71
    73
 72
    72
 73
    49
  0
VERTEX
  5
8DB
  8
0
 62
   253
 10
0.0
 20
0.0
 30
0.0
 70
   128
 71
    73
 72
    49
 73
    71
  0
VERTEX
  5
8DC
  8
0
 62
   253
 10
0.0
 20
0.0
 30
0.0
 70
   128
 71
    49
 72
    74
 73
    50
  0
VERTEX
  5
8DD
  8
0
 62
   253
 10
0.0
 20
0.0
 30
0.0
 70
   128
 71
    74
 72
    49
 73
    72
  0
VERTEX
  5
8DE
  8
0
 62
   253
 10
0.0
 20
0.0
 30
0.0
 70
   128
 71
    74
 72
    75
 73
    50
  0
VERTEX
  5
8DF
  8
0
 62
     9
 10
0.0
 20
0.0
 30
0.0
 70
   128
 71
    78
 72
    77
 73
    76
  0
VERTEX
  5
8E0
  8
0
 62
     9
 10
0.0
 20
0.0
 30
0.0
 70
   128
 71
    78
 72
    80
 73
    79
  0
VERTEX
  5
8E1
  8
0
 62
     9
 10
0.0
 20
0.0
 30
0.0
 70
   128
 71
    79
 72
    77
 73
    78
  0
VERTEX
  5
8E2
  8
0
 62
     9
 10
0.0
 20
0.0
 30
0.0
 70
   128
 71
    82
 72
    80
 73
    81
  0
VERTEX
  5
8E3
  8
0
 62
     9
 10
0.0
 20
0.0
 30
0.0
 70
   128
 71
    80
 72
    82
 73
    79
  0
VERTEX
  5
8E4
  8
0
 62
     9
 10
0.0
 20
0.0
 30
0.0
 70
   128
 71
    84
 72
    82
 73
    83
  0
VERTEX
  5
8E5
  8
0
 62
     9
 10
0.0
 20
0.0
 30
0.0
 70
   128
 71
    81
 72
    83
 73
    82
  0
VERTEX
  5
8E6
  8
0
 62
     9
 10
0.0
 20
0.0
 30
0.0
 70
   128
 71
    84
 72
    83
 73
    85
  0
VERTEX
  5
8E7
  8
0
 62
     9
 10
0.0
 20
0.0
 30
0.0
 70
   128
 71
    86
 72
    84
 73
    85
  0
VERTEX
  5
8E8
  8
0
 62
     9
 10
0.0
 20
0.0
 30
0.0
 70
   128
 71
    77
 72
    87
 73
    76
  0
VERTEX
  5
8E9
  8
0
 62
     9
 10
0.0
 20
0.0
 30
0.0
 70
   128
 71
    89
 72
    87
 73
    88
  0
VERTEX
  5
8EA
  8
0
 62
     9
 10
0.0
 20
0.0
 30
0.0
 70
   128
 71
    87
 72
    89
 73
    76
  0
VERTEX
  5
8EB
  8
0
 62
     9
 10
0.0
 20
0.0
 30
0.0
 70
   128
 71
    91
 72
    90
 73
    88
  0
VERTEX
  5
8EC
  8
0
 62
     9
 10
0.0
 20
0.0
 30
0.0
 70
   128
 71
    89
 72
    88
 73
    90
  0
VERTEX
  5
8ED
  8
0
 62
     9
 10
0.0
 20
0.0
 30
0.0
 70
   128
 71
    93
 72
    92
 73
    90
  0
VERTEX
  5
8EE
  8
0
 62
     9
 10
0.0
 20
0.0
 30
0.0
 70
   128
 71
    90
 72
    91
 73
    93
  0
VERTEX
  5
8EF
  8
0
 62
     9
 10
0.0
 20
0.0
 30
0.0
 70
   128
 71
    94
 72
    92
 73
    93
  0
VERTEX
  5
8F0
  8
0
 62
     9
 10
0.0
 20
0.0
 30
0.0
 70
   128
 71
    94
 72
    95
 73
    92
  0
VERTEX
  5
8F1
  8
0
 62
     9
 10
0.0
 20
0.0
 30
0.0
 70
   128
 71
    86
 72
    85
 73
    96
  0
VERTEX
  5
8F2
  8
0
 62
     9
 10
0.0
 20
0.0
 30
0.0
 70
   128
 71
    99
 72
    98
 73
    97
  0
VERTEX
  5
8F3
  8
0
 62
     9
 10
0.0
 20
0.0
 30
0.0
 70
   128
 71
   102
 72
   101
 73
   100
  0
VERTEX
  5
8F4
  8
0
 62
     9
 10
0.0
 20
0.0
 30
0.0
 70
   128
 71
   105
 72
   104
 73
   103
  0
VERTEX
  5
8F5
  8
0
 62
     9
 10
0.0
 20
0.0
 30
0.0
 70
   128
 71
   107
 72
   105
 73
   106
  0
VERTEX
  5
8F6
  8
0
 62
     9
 10
0.0
 20
0.0
 30
0.0
 70
   128
 71
   103
 72
   109
 73
   108
  0
VERTEX
  5
8F7
  8
0
 62
     9
 10
0.0
 20
0.0
 30
0.0
 70
   128
 71
   109
 72
   103
 73
   110
  0
VERTEX
  5
8F8
  8
0
 62
     9
 10
0.0
 20
0.0
 30
0.0
 70
   128
 71
    94
 72
   108
 73
    95
  0
VERTEX
  5
8F9
  8
0
 62
     9
 10
0.0
 20
0.0
 30
0.0
 70
   128
 71
   109
 72
    95
 73
   108
  0
VERTEX
  5
8FA
  8
0
 62
     9
 10
0.0
 20
0.0
 30
0.0
 70
   128
 71
   105
 72
   107
 73
   104
  0
VERTEX
  5
8FB
  8
0
 62
     9
 10
0.0
 20
0.0
 30
0.0
 70
   128
 71
   104
 72
   110
 73
   103
  0
VERTEX
  5
8FC
  8
0
 62
     9
 10
0.0
 20
0.0
 30
0.0
 70
   128
 71
    99
 72
    97
 73
   106
  0
VERTEX
  5
8FD
  8
0
 62
     9
 10
0.0
 20
0.0
 30
0.0
 70
   128
 71
    97
 72
   107
 73
   106
  0
VERTEX
  5
8FE
  8
0
 62
     9
 10
0.0
 20
0.0
 30
0.0
 70
   128
 71
   102
 72
   100
 73
    98
  0
VERTEX
  5
8FF
  8
0
 62
     9
 10
0.0
 20
0.0
 30
0.0
 70
   128
 71
   102
 72
    98
 73
    99
  0
VERTEX
  5
900
  8
0
 62
     9
 10
0.0
 20
0.0
 30
0.0
 70
   128
 71
   111
 72
    96
 73
   100
  0
VERTEX
  5
901
  8
0
 62
     9
 10
0.0
 20
0.0
 30
0.0
 70
   128
 71
   111
 72
   100
 73
   101
  0
VERTEX
  5
902
  8
0
 62
     9
 10
0.0
 20
0.0
 30
0.0
 70
   128
 71
    96
 72
   111
 73
    86
  0
VERTEX
  5
903
  8
0
 62
   253
 10
0.0
 20
0.0
 30
0.0
 70
   128
 71
   113
 72
   112
 73
    72
  0
VERTEX
  5
904
  8
0
 62
   253
 10
0.0
 20
0.0
 30
0.0
 70
   128
 71
    74
 72
    72
 73
   112
  0
VERTEX
  5
905
  8
0
 62
   253
 10
0.0
 20
0.0
 30
0.0
 70
   128
 71
   113
 72
    72
 73
    73
  0
VERTEX
  5
906
  8
0
 62
   253
 10
0.0
 20
0.0
 30
0.0
 70
   128
 71
    74
 72
   112
 73
    75
  0
VERTEX
  5
907
  8
0
 62
   253
 10
0.0
 20
0.0
 30
0.0
 70
   128
 71
   114
 72
    73
 73
    71
  0
VERTEX
  5
908
  8
0
 62
   253
 10
0.0
 20
0.0
 30
0.0
 70
   128
 71
   114
 72
   113
 73
    73
  0
VERTEX
  5
909
  8
0
 62
   253
 10
0.0
 20
0.0
 30
0.0
 70
   128
 71
   115
 72
   114
 73
    71
  0
VERTEX
  5
90A
  8
0
 62
   253
 10
0.0
 20
0.0
 30
0.0
 70
   128
 71
    68
 72
   116
 73
    70
  0
VERTEX
  5
90B
  8
0
 62
   253
 10
0.0
 20
0.0
 30
0.0
 70
   128
 71
   115
 72
    71
 73
    70
  0
VERTEX
  5
90C
  8
0
 62
   253
 10
0.0
 20
0.0
 30
0.0
 70
   128
 71
   116
 72
   115
 73
    70
  0
VERTEX
  5
90D
  8
0
 62
   253
 10
0.0
 20
0.0
 30
0.0
 70
   128
 71
   116
 72
    68
 73
   117
  0
VERTEX
  5
90E
  8
0
 62
   253
 10
0.0
 20
0.0
 30
0.0
 70
   128
 71
   117
 72
    68
 73
    69
  0
VERTEX
  5
90F
  8
0
 62
   253
 10
0.0
 20
0.0
 30
0.0
 70
   128
 71
    66
 72
   118
 73
    65
  0
VERTEX
  5
910
  8
0
 62
   253
 10
0.0
 20
0.0
 30
0.0
 70
   128
 71
   117
 72
    69
 73
   119
  0
VERTEX
  5
911
  8
0
 62
   253
 10
0.0
 20
0.0
 30
0.0
 70
   128
 71
   120
 72
    67
 73
    65
  0
VERTEX
  5
912
  8
0
 62
   253
 10
0.0
 20
0.0
 30
0.0
 70
   128
 71
   120
 72
   119
 73
    67
  0
VERTEX
  5
913
  8
0
 62
   253
 10
0.0
 20
0.0
 30
0.0
 70
   128
 71
    66
 72
   121
 73
   118
  0
VERTEX
  5
914
  8
0
 62
   253
 10
0.0
 20
0.0
 30
0.0
 70
   128
 71
    65
 72
   118
 73
   120
  0
VERTEX
  5
915
  8
0
 62
   253
 10
0.0
 20
0.0
 30
0.0
 70
   128
 71
   119
 72
    69
 73
    67
  0
VERTEX
  5
916
  8
0
 62
   253
 10
0.0
 20
0.0
 30
0.0
 70
   128
 71
   121
 72
    64
 73
   122
  0
VERTEX
  5
917
  8
0
 62
   253
 10
0.0
 20
0.0
 30
0.0
 70
   128
 71
   121
 72
    66
 73
    64
  0
VERTEX
  5
918
  8
0
 62
   253
 10
0.0
 20
0.0
 30
0.0
 70
   128
 71
   122
 72
    63
 73
   123
  0
VERTEX
  5
919
  8
0
 62
   253
 10
0.0
 20
0.0
 30
0.0
 70
   128
 71
    63
 72
    62
 73
   123
  0
VERTEX
  5
91A
  8
0
 62
   253
 10
0.0
 20
0.0
 30
0.0
 70
   128
 71
   123
 72
    62
 73
   124
  0
VERTEX
  5
91B
  8
0
 62
   253
 10
0.0
 20
0.0
 30
0.0
 70
   128
 71
    64
 72
    63
 73
   122
  0
VERTEX
  5
91C
  8
0
 62
   253
 10
0.0
 20
0.0
 30
0.0
 70
   128
 71
    62
 72
    61
 73
   124
  0
VERTEX
  5
91D
  8
0
 62
   253
 10
0.0
 20
0.0
 30
0.0
 70
   128
 71
   125
 72
   124
 73
    60
  0
VERTEX
  5
91E
  8
0
 62
   253
 10
0.0
 20
0.0
 30
0.0
 70
   128
 71
   124
 72
    61
 73
    60
  0
VERTEX
  5
91F
  8
0
 62
   253
 10
0.0
 20
0.0
 30
0.0
 70
   128
 71
    60
 72
    59
 73
   125
  0
VERTEX
  5
920
  8
0
 62
   253
 10
0.0
 20
0.0
 30
0.0
 70
   128
 71
    59
 72
   126
 73
   125
  0
VERTEX
  5
921
  8
0
 62
   253
 10
0.0
 20
0.0
 30
0.0
 70
   128
 71
    51
 72
   126
 73
    59
  0
VERTEX
  5
922
  8
0
 62
   253
 10
0.0
 20
0.0
 30
0.0
 70
   128
 71
   126
 72
    51
 73
   127
  0
VERTEX
  5
923
  8
0
 62
   253
 10
0.0
 20
0.0
 30
0.0
 70
   128
 71
    52
 72
   127
 73
    51
  0
VERTEX
  5
924
  8
0
 62
     9
 10
0.0
 20
0.0
 30
0.0
 70
   128
 71
   115
 72
   116
 73
   114
  0
VERTEX
  5
925
  8
0
 62
     9
 10
0.0
 20
0.0
 30
0.0
 70
   128
 71
   130
 72
   129
 73
   128
  0
VERTEX
  5
926
  8
0
 62
     9
 10
0.0
 20
0.0
 30
0.0
 70
   128
 71
   113
 72
   114
 73
   112
  0
VERTEX
  5
927
  8
0
 62
     9
 10
0.0
 20
0.0
 30
0.0
 70
   128
 71
   119
 72
   116
 73
   117
  0
VERTEX
  5
928
  8
0
 62
     9
 10
0.0
 20
0.0
 30
0.0
 70
   128
 71
   119
 72
   132
 73
   131
  0
VERTEX
  5
929
  8
0
 62
     9
 10
0.0
 20
0.0
 30
0.0
 70
   128
 71
   122
 72
   123
 73
   133
  0
VERTEX
  5
92A
  8
0
 62
     9
 10
0.0
 20
0.0
 30
0.0
 70
   128
 71
   118
 72
   135
 73
   134
  0
VERTEX
  5
92B
  8
0
 62
     9
 10
0.0
 20
0.0
 30
0.0
 70
   128
 71
   124
 72
   125
 73
   136
  0
VERTEX
  5
92C
  8
0
 62
     9
 10
0.0
 20
0.0
 30
0.0
 70
   128
 71
   123
 72
   137
 73
   133
  0
VERTEX
  5
92D
  8
0
 62
     9
 10
0.0
 20
0.0
 30
0.0
 70
   128
 71
   139
 72
   126
 73
   138
  0
VERTEX
  5
92E
  8
0
 62
     9
 10
0.0
 20
0.0
 30
0.0
 70
   128
 71
   125
 72
   139
 73
   136
  0
VERTEX
  5
92F
  8
0
 62
     9
 10
0.0
 20
0.0
 30
0.0
 70
   128
 71
    53
 72
   140
 73
    52
  0
VERTEX
  5
930
  8
0
 62
     9
 10
0.0
 20
0.0
 30
0.0
 70
   128
 71
   127
 72
   140
 73
   138
  0
VERTEX
  5
931
  8
0
 62
     9
 10
0.0
 20
0.0
 30
0.0
 70
   128
 71
   140
 72
    53
 73
   141
  0
VERTEX
  5
932
  8
0
 62
     9
 10
0.0
 20
0.0
 30
0.0
 70
   128
 71
    54
 72
   142
 73
   141
  0
VERTEX
  5
933
  8
0
 62
     9
 10
0.0
 20
0.0
 30
0.0
 70
   128
 71
    56
 72
   144
 73
   143
  0
VERTEX
  5
934
  8
0
 62
     9
 10
0.0
 20
0.0
 30
0.0
 70
   128
 71
    58
 72
   145
 73
    57
  0
VERTEX
  5
935
  8
0
 62
     9
 10
0.0
 20
0.0
 30
0.0
 70
   128
 71
    56
 72
    57
 73
   144
  0
VERTEX
  5
936
  8
0
 62
     9
 10
0.0
 20
0.0
 30
0.0
 70
   128
 71
    55
 72
    56
 73
   143
  0
VERTEX
  5
937
  8
0
 62
     9
 10
0.0
 20
0.0
 30
0.0
 70
   128
 71
   145
 72
   144
 73
    57
  0
VERTEX
  5
938
  8
0
 62
     9
 10
0.0
 20
0.0
 30
0.0
 70
   128
 71
   142
 72
    54
 73
   143
  0
VERTEX
  5
939
  8
0
 62
     9
 10
0.0
 20
0.0
 30
0.0
 70
   128
 71
    55
 72
   143
 73
    54
  0
VERTEX
  5
93A
  8
0
 62
     9
 10
0.0
 20
0.0
 30
0.0
 70
   128
 71
   141
 72
    53
 73
    54
  0
VERTEX
  5
93B
  8
0
 62
     9
 10
0.0
 20
0.0
 30
0.0
 70
   128
 71
    52
 72
   140
 73
   127
  0
VERTEX
  5
93C
  8
0
 62
     9
 10
0.0
 20
0.0
 30
0.0
 70
   128
 71
   125
 72
   126
 73
   139
  0
VERTEX
  5
93D
  8
0
 62
     9
 10
0.0
 20
0.0
 30
0.0
 70
   128
 71
   127
 72
   138
 73
   126
  0
VERTEX
  5
93E
  8
0
 62
     9
 10
0.0
 20
0.0
 30
0.0
 70
   128
 71
   137
 72
   123
 73
   124
  0
VERTEX
  5
93F
  8
0
 62
     9
 10
0.0
 20
0.0
 30
0.0
 70
   128
 71
   137
 72
   124
 73
   136
  0
VERTEX
  5
940
  8
0
 62
     9
 10
0.0
 20
0.0
 30
0.0
 70
   128
 71
   146
 72
   121
 73
   122
  0
VERTEX
  5
941
  8
0
 62
     9
 10
0.0
 20
0.0
 30
0.0
 70
   128
 71
   146
 72
   122
 73
   133
  0
VERTEX
  5
942
  8
0
 62
     9
 10
0.0
 20
0.0
 30
0.0
 70
   128
 71
   121
 72
   135
 73
   118
  0
VERTEX
  5
943
  8
0
 62
     9
 10
0.0
 20
0.0
 30
0.0
 70
   128
 71
   135
 72
   121
 73
   146
  0
VERTEX
  5
944
  8
0
 62
     9
 10
0.0
 20
0.0
 30
0.0
 70
   128
 71
   118
 72
   132
 73
   120
  0
VERTEX
  5
945
  8
0
 62
     9
 10
0.0
 20
0.0
 30
0.0
 70
   128
 71
   118
 72
   134
 73
   132
  0
VERTEX
  5
946
  8
0
 62
     9
 10
0.0
 20
0.0
 30
0.0
 70
   128
 71
   131
 72
   130
 73
   119
  0
VERTEX
  5
947
  8
0
 62
     9
 10
0.0
 20
0.0
 30
0.0
 70
   128
 71
   120
 72
   132
 73
   119
  0
VERTEX
  5
948
  8
0
 62
     9
 10
0.0
 20
0.0
 30
0.0
 70
   128
 71
   128
 72
   116
 73
   130
  0
VERTEX
  5
949
  8
0
 62
     9
 10
0.0
 20
0.0
 30
0.0
 70
   128
 71
   119
 72
   130
 73
   116
  0
VERTEX
  5
94A
  8
0
 62
     9
 10
0.0
 20
0.0
 30
0.0
 70
   128
 71
   147
 72
   114
 73
   128
  0
VERTEX
  5
94B
  8
0
 62
     9
 10
0.0
 20
0.0
 30
0.0
 70
   128
 71
   116
 72
   128
 73
   114
  0
VERTEX
  5
94C
  8
0
 62
     9
 10
0.0
 20
0.0
 30
0.0
 70
   128
 71
   114
 72
   147
 73
   148
  0
VERTEX
  5
94D
  8
0
 62
     9
 10
0.0
 20
0.0
 30
0.0
 70
   128
 71
   147
 72
   128
 73
   149
  0
VERTEX
  5
94E
  8
0
 62
     9
 10
0.0
 20
0.0
 30
0.0
 70
   128
 71
   147
 72
   150
 73
   148
  0
VERTEX
  5
94F
  8
0
 62
     9
 10
0.0
 20
0.0
 30
0.0
 70
   128
 71
   112
 72
   114
 73
   148
  0
VERTEX
  5
950
  8
0
 62
     9
 10
0.0
 20
0.0
 30
0.0
 70
   128
 71
    75
 72
   112
 73
   148
  0
VERTEX
  5
951
  8
0
 62
   253
 10
0.0
 20
0.0
 30
0.0
 70
   128
 71
    58
 72
    36
 73
   151
  0
VERTEX
  5
952
  8
0
 62
   253
 10
0.0
 20
0.0
 30
0.0
 70
   128
 71
   142
 72
   152
 73
   141
  0
VERTEX
  5
953
  8
0
 62
   253
 10
0.0
 20
0.0
 30
0.0
 70
   128
 71
   143
 72
   144
 73
   153
  0
VERTEX
  5
954
  8
0
 62
   253
 10
0.0
 20
0.0
 30
0.0
 70
   128
 71
   133
 72
   155
 73
   154
  0
VERTEX
  5
955
  8
0
 62
   253
 10
0.0
 20
0.0
 30
0.0
 70
   128
 71
   140
 72
   156
 73
   138
  0
VERTEX
  5
956
  8
0
 62
   253
 10
0.0
 20
0.0
 30
0.0
 70
   128
 71
   130
 72
   157
 73
   129
  0
VERTEX
  5
957
  8
0
 62
   253
 10
0.0
 20
0.0
 30
0.0
 70
   128
 71
   158
 72
   132
 73
   134
  0
VERTEX
  5
958
  8
0
 62
   253
 10
0.0
 20
0.0
 30
0.0
 70
   128
 71
   149
 72
   160
 73
   159
  0
VERTEX
  5
959
  8
0
 62
   253
 10
0.0
 20
0.0
 30
0.0
 70
   128
 71
   160
 72
   149
 73
   128
  0
VERTEX
  5
95A
  8
0
 62
   253
 10
0.0
 20
0.0
 30
0.0
 70
   128
 71
   159
 72
   150
 73
   147
  0
VERTEX
  5
95B
  8
0
 62
   253
 10
0.0
 20
0.0
 30
0.0
 70
   128
 71
   149
 72
   159
 73
   147
  0
VERTEX
  5
95C
  8
0
 62
   253
 10
0.0
 20
0.0
 30
0.0
 70
   128
 71
   148
 72
   159
 73
    50
  0
VERTEX
  5
95D
  8
0
 62
   253
 10
0.0
 20
0.0
 30
0.0
 70
   128
 71
   159
 72
   148
 73
   150
  0
VERTEX
  5
95E
  8
0
 62
   253
 10
0.0
 20
0.0
 30
0.0
 70
   128
 71
   148
 72
    50
 73
    75
  0
VERTEX
  5
95F
  8
0
 62
   253
 10
0.0
 20
0.0
 30
0.0
 70
   128
 71
   160
 72
   129
 73
   157
  0
VERTEX
  5
960
  8
0
 62
   253
 10
0.0
 20
0.0
 30
0.0
 70
   128
 71
   160
 72
   128
 73
   129
  0
VERTEX
  5
961
  8
0
 62
   253
 10
0.0
 20
0.0
 30
0.0
 70
   128
 71
   158
 72
   157
 73
   131
  0
VERTEX
  5
962
  8
0
 62
   253
 10
0.0
 20
0.0
 30
0.0
 70
   128
 71
   157
 72
   130
 73
   131
  0
VERTEX
  5
963
  8
0
 62
   253
 10
0.0
 20
0.0
 30
0.0
 70
   128
 71
   158
 72
   134
 73
   135
  0
VERTEX
  5
964
  8
0
 62
   253
 10
0.0
 20
0.0
 30
0.0
 70
   128
 71
   132
 72
   158
 73
   131
  0
VERTEX
  5
965
  8
0
 62
   253
 10
0.0
 20
0.0
 30
0.0
 70
   128
 71
   135
 72
   146
 73
   154
  0
VERTEX
  5
966
  8
0
 62
   253
 10
0.0
 20
0.0
 30
0.0
 70
   128
 71
   154
 72
   158
 73
   135
  0
VERTEX
  5
967
  8
0
 62
   253
 10
0.0
 20
0.0
 30
0.0
 70
   128
 71
   137
 72
   155
 73
   133
  0
VERTEX
  5
968
  8
0
 62
   253
 10
0.0
 20
0.0
 30
0.0
 70
   128
 71
   133
 72
   154
 73
   146
  0
VERTEX
  5
969
  8
0
 62
   253
 10
0.0
 20
0.0
 30
0.0
 70
   128
 71
   136
 72
   139
 73
   155
  0
VERTEX
  5
96A
  8
0
 62
   253
 10
0.0
 20
0.0
 30
0.0
 70
   128
 71
   136
 72
   155
 73
   137
  0
VERTEX
  5
96B
  8
0
 62
   253
 10
0.0
 20
0.0
 30
0.0
 70
   128
 71
   156
 72
   139
 73
   138
  0
VERTEX
  5
96C
  8
0
 62
   253
 10
0.0
 20
0.0
 30
0.0
 70
   128
 71
   139
 72
   156
 73
   155
  0
VERTEX
  5
96D
  8
0
 62
   253
 10
0.0
 20
0.0
 30
0.0
 70
   128
 71
   162
 72
   140
 73
   161
  0
VERTEX
  5
96E
  8
0
 62
   253
 10
0.0
 20
0.0
 30
0.0
 70
   128
 71
   140
 72
   162
 73
   156
  0
VERTEX
  5
96F
  8
0
 62
   253
 10
0.0
 20
0.0
 30
0.0
 70
   128
 71
   141
 72
   161
 73
   140
  0
VERTEX
  5
970
  8
0
 62
   253
 10
0.0
 20
0.0
 30
0.0
 70
   128
 71
   163
 72
   152
 73
   142
  0
VERTEX
  5
971
  8
0
 62
   253
 10
0.0
 20
0.0
 30
0.0
 70
   128
 71
   152
 72
   161
 73
   141
  0
VERTEX
  5
972
  8
0
 62
   253
 10
0.0
 20
0.0
 30
0.0
 70
   128
 71
   163
 72
   143
 73
   153
  0
VERTEX
  5
973
  8
0
 62
   253
 10
0.0
 20
0.0
 30
0.0
 70
   128
 71
   143
 72
   163
 73
   142
  0
VERTEX
  5
974
  8
0
 62
   253
 10
0.0
 20
0.0
 30
0.0
 70
   128
 71
   144
 72
   145
 73
   151
  0
VERTEX
  5
975
  8
0
 62
   253
 10
0.0
 20
0.0
 30
0.0
 70
   128
 71
   144
 72
   151
 73
   153
  0
VERTEX
  5
976
  8
0
 62
   253
 10
0.0
 20
0.0
 30
0.0
 70
   128
 71
   151
 72
   145
 73
    58
  0
VERTEX
  5
977
  8
0
 62
   253
 10
0.0
 20
0.0
 30
0.0
 70
   128
 71
   166
 72
   165
 73
   164
  0
VERTEX
  5
978
  8
0
 62
   253
 10
0.0
 20
0.0
 30
0.0
 70
   128
 71
   165
 72
   168
 73
   167
  0
VERTEX
  5
979
  8
0
 62
   253
 10
0.0
 20
0.0
 30
0.0
 70
   128
 71
   170
 72
   153
 73
   169
  0
VERTEX
  5
97A
  8
0
 62
   253
 10
0.0
 20
0.0
 30
0.0
 70
   128
 71
   171
 72
   169
 73
     7
  0
VERTEX
  5
97B
  8
0
 62
   253
 10
0.0
 20
0.0
 30
0.0
 70
   128
 71
   172
 72
   155
 73
   156
  0
VERTEX
  5
97C
  8
0
 62
   253
 10
0.0
 20
0.0
 30
0.0
 70
   128
 71
   156
 72
   162
 73
   167
  0
VERTEX
  5
97D
  8
0
 62
   253
 10
0.0
 20
0.0
 30
0.0
 70
   128
 71
   175
 72
   174
 73
   173
  0
VERTEX
  5
97E
  8
0
 62
   253
 10
0.0
 20
0.0
 30
0.0
 70
   128
 71
   172
 72
   177
 73
   176
  0
VERTEX
  5
97F
  8
0
 62
   253
 10
0.0
 20
0.0
 30
0.0
 70
   128
 71
   175
 72
   178
 73
   160
  0
VERTEX
  5
980
  8
0
 62
   253
 10
0.0
 20
0.0
 30
0.0
 70
   128
 71
   175
 72
   157
 73
   176
  0
VERTEX
  5
981
  8
0
 62
   253
 10
0.0
 20
0.0
 30
0.0
 70
   128
 71
   178
 72
    50
 73
   159
  0
VERTEX
  5
982
  8
0
 62
   253
 10
0.0
 20
0.0
 30
0.0
 70
   128
 71
   178
 72
   179
 73
    48
  0
VERTEX
  5
983
  8
0
 62
   253
 10
0.0
 20
0.0
 30
0.0
 70
   128
 71
    48
 72
   179
 73
    26
  0
VERTEX
  5
984
  8
0
 62
   253
 10
0.0
 20
0.0
 30
0.0
 70
   128
 71
   159
 72
   160
 73
   178
  0
VERTEX
  5
985
  8
0
 62
   253
 10
0.0
 20
0.0
 30
0.0
 70
   128
 71
   175
 72
   160
 73
   157
  0
VERTEX
  5
986
  8
0
 62
   253
 10
0.0
 20
0.0
 30
0.0
 70
   128
 71
   165
 72
   161
 73
   152
  0
VERTEX
  5
987
  8
0
 62
   253
 10
0.0
 20
0.0
 30
0.0
 70
   128
 71
   172
 72
   176
 73
   154
  0
VERTEX
  5
988
  8
0
 62
   253
 10
0.0
 20
0.0
 30
0.0
 70
   128
 71
   154
 72
   176
 73
   158
  0
VERTEX
  5
989
  8
0
 62
   253
 10
0.0
 20
0.0
 30
0.0
 70
   128
 71
   155
 72
   172
 73
   154
  0
VERTEX
  5
98A
  8
0
 62
   253
 10
0.0
 20
0.0
 30
0.0
 70
   128
 71
   180
 72
   172
 73
   167
  0
VERTEX
  5
98B
  8
0
 62
   253
 10
0.0
 20
0.0
 30
0.0
 70
   128
 71
   167
 72
   172
 73
   156
  0
VERTEX
  5
98C
  8
0
 62
   253
 10
0.0
 20
0.0
 30
0.0
 70
   128
 71
   161
 72
   167
 73
   162
  0
VERTEX
  5
98D
  8
0
 62
   253
 10
0.0
 20
0.0
 30
0.0
 70
   128
 71
   161
 72
   165
 73
   167
  0
VERTEX
  5
98E
  8
0
 62
   253
 10
0.0
 20
0.0
 30
0.0
 70
   128
 71
   152
 72
   163
 73
   165
  0
VERTEX
  5
98F
  8
0
 62
   253
 10
0.0
 20
0.0
 30
0.0
 70
   128
 71
    36
 72
    40
 73
   151
  0
VERTEX
  5
990
  8
0
 62
   253
 10
0.0
 20
0.0
 30
0.0
 70
   128
 71
   170
 72
   163
 73
   153
  0
VERTEX
  5
991
  8
0
 62
   253
 10
0.0
 20
0.0
 30
0.0
 70
   128
 71
   165
 72
   163
 73
   170
  0
VERTEX
  5
992
  8
0
 62
   253
 10
0.0
 20
0.0
 30
0.0
 70
   128
 71
     7
 72
   169
 73
    40
  0
VERTEX
  5
993
  8
0
 62
   253
 10
0.0
 20
0.0
 30
0.0
 70
   128
 71
   151
 72
   169
 73
   153
  0
VERTEX
  5
994
  8
0
 62
   253
 10
0.0
 20
0.0
 30
0.0
 70
   128
 71
   169
 72
   151
 73
    40
  0
VERTEX
  5
995
  8
0
 62
   253
 10
0.0
 20
0.0
 30
0.0
 70
   128
 71
   169
 72
   171
 73
   181
  0
VERTEX
  5
996
  8
0
 62
   253
 10
0.0
 20
0.0
 30
0.0
 70
   128
 71
   181
 72
   170
 73
   169
  0
VERTEX
  5
997
  8
0
 62
   253
 10
0.0
 20
0.0
 30
0.0
 70
   128
 71
   170
 72
   181
 73
   164
  0
VERTEX
  5
998
  8
0
 62
   253
 10
0.0
 20
0.0
 30
0.0
 70
   128
 71
   165
 72
   170
 73
   164
  0
VERTEX
  5
999
  8
0
 62
   253
 10
0.0
 20
0.0
 30
0.0
 70
   128
 71
   166
 72
   168
 73
   165
  0
VERTEX
  5
99A
  8
0
 62
   253
 10
0.0
 20
0.0
 30
0.0
 70
   128
 71
   180
 72
   167
 73
   168
  0
VERTEX
  5
99B
  8
0
 62
   253
 10
0.0
 20
0.0
 30
0.0
 70
   128
 71
   182
 72
   172
 73
   180
  0
VERTEX
  5
99C
  8
0
 62
   253
 10
0.0
 20
0.0
 30
0.0
 70
   128
 71
   177
 72
   172
 73
   182
  0
VERTEX
  5
99D
  8
0
 62
   253
 10
0.0
 20
0.0
 30
0.0
 70
   128
 71
   176
 72
   177
 73
   183
  0
VERTEX
  5
99E
  8
0
 62
   253
 10
0.0
 20
0.0
 30
0.0
 70
   128
 71
   176
 72
   183
 73
   174
  0
VERTEX
  5
99F
  8
0
 62
   253
 10
0.0
 20
0.0
 30
0.0
 70
   128
 71
   158
 72
   176
 73
   157
  0
VERTEX
  5
9A0
  8
0
 62
   253
 10
0.0
 20
0.0
 30
0.0
 70
   128
 71
   175
 72
   176
 73
   174
  0
VERTEX
  5
9A1
  8
0
 62
   253
 10
0.0
 20
0.0
 30
0.0
 70
   128
 71
   179
 72
   178
 73
   173
  0
VERTEX
  5
9A2
  8
0
 62
   253
 10
0.0
 20
0.0
 30
0.0
 70
   128
 71
   175
 72
   173
 73
   178
  0
VERTEX
  5
9A3
  8
0
 62
   253
 10
0.0
 20
0.0
 30
0.0
 70
   128
 71
   178
 72
    48
 73
    50
  0
VERTEX
  5
9A4
  8
0
 62
   253
 10
0.0
 20
0.0
 30
0.0
 70
   128
 71
     7
 72
     4
 73
   184
  0
VERTEX
  5
9A5
  8
0
 62
   253
 10
0.0
 20
0.0
 30
0.0
 70
   128
 71
   181
 72
   186
 73
   185
  0
VERTEX
  5
9A6
  8
0
 62
   253
 10
0.0
 20
0.0
 30
0.0
 70
   128
 71
   187
 72
   180
 73
   168
  0
VERTEX
  5
9A7
  8
0
 62
   253
 10
0.0
 20
0.0
 30
0.0
 70
   128
 71
   188
 72
   187
 73
   166
  0
VERTEX
  5
9A8
  8
0
 62
   253
 10
0.0
 20
0.0
 30
0.0
 70
   128
 71
   177
 72
   182
 73
   189
  0
VERTEX
  5
9A9
  8
0
 62
   253
 10
0.0
 20
0.0
 30
0.0
 70
   128
 71
   174
 72
   191
 73
   190
  0
VERTEX
  5
9AA
  8
0
 62
   253
 10
0.0
 20
0.0
 30
0.0
 70
   128
 71
   177
 72
   192
 73
   183
  0
VERTEX
  5
9AB
  8
0
 62
   253
 10
0.0
 20
0.0
 30
0.0
 70
   128
 71
   193
 72
   173
 73
   190
  0
VERTEX
  5
9AC
  8
0
 62
   253
 10
0.0
 20
0.0
 30
0.0
 70
   128
 71
   174
 72
   190
 73
   173
  0
VERTEX
  5
9AD
  8
0
 62
   253
 10
0.0
 20
0.0
 30
0.0
 70
   128
 71
   193
 72
    25
 73
   179
  0
VERTEX
  5
9AE
  8
0
 62
   253
 10
0.0
 20
0.0
 30
0.0
 70
   128
 71
   179
 72
   173
 73
   193
  0
VERTEX
  5
9AF
  8
0
 62
   253
 10
0.0
 20
0.0
 30
0.0
 70
   128
 71
   183
 72
   191
 73
   174
  0
VERTEX
  5
9B0
  8
0
 62
   253
 10
0.0
 20
0.0
 30
0.0
 70
   128
 71
    25
 72
    26
 73
   179
  0
VERTEX
  5
9B1
  8
0
 62
   253
 10
0.0
 20
0.0
 30
0.0
 70
   128
 71
   191
 72
   183
 73
   192
  0
VERTEX
  5
9B2
  8
0
 62
   253
 10
0.0
 20
0.0
 30
0.0
 70
   128
 71
   192
 72
   177
 73
   189
  0
VERTEX
  5
9B3
  8
0
 62
   253
 10
0.0
 20
0.0
 30
0.0
 70
   128
 71
   189
 72
   182
 73
   194
  0
VERTEX
  5
9B4
  8
0
 62
   253
 10
0.0
 20
0.0
 30
0.0
 70
   128
 71
   187
 72
   194
 73
   180
  0
VERTEX
  5
9B5
  8
0
 62
   253
 10
0.0
 20
0.0
 30
0.0
 70
   128
 71
   194
 72
   182
 73
   180
  0
VERTEX
  5
9B6
  8
0
 62
   253
 10
0.0
 20
0.0
 30
0.0
 70
   128
 71
   166
 72
   187
 73
   168
  0
VERTEX
  5
9B7
  8
0
 62
   253
 10
0.0
 20
0.0
 30
0.0
 70
   128
 71
   184
 72
   171
 73
     7
  0
VERTEX
  5
9B8
  8
0
 62
   253
 10
0.0
 20
0.0
 30
0.0
 70
   128
 71
   164
 72
   185
 73
   188
  0
VERTEX
  5
9B9
  8
0
 62
   253
 10
0.0
 20
0.0
 30
0.0
 70
   128
 71
   188
 72
   166
 73
   164
  0
VERTEX
  5
9BA
  8
0
 62
   253
 10
0.0
 20
0.0
 30
0.0
 70
   128
 71
   181
 72
   185
 73
   164
  0
VERTEX
  5
9BB
  8
0
 62
   253
 10
0.0
 20
0.0
 30
0.0
 70
   128
 71
   171
 72
   184
 73
   186
  0
VERTEX
  5
9BC
  8
0
 62
   253
 10
0.0
 20
0.0
 30
0.0
 70
   128
 71
   171
 72
   186
 73
   181
  0
VERTEX
  5
9BD
  8
0
 62
     9
 10
0.0
 20
0.0
 30
0.0
 70
   128
 71
    77
 72
    24
 73
    25
  0
VERTEX
  5
9BE
  8
0
 62
     9
 10
0.0
 20
0.0
 30
0.0
 70
   128
 71
    13
 72
    84
 73
    15
  0
VERTEX
  5
9BF
  8
0
 62
     9
 10
0.0
 20
0.0
 30
0.0
 70
   128
 71
    79
 72
    82
 73
    18
  0
VERTEX
  5
9C0
  8
0
 62
     9
 10
0.0
 20
0.0
 30
0.0
 70
   128
 71
    82
 72
    13
 73
    21
  0
VERTEX
  5
9C1
  8
0
 62
     9
 10
0.0
 20
0.0
 30
0.0
 70
   128
 71
    15
 72
    86
 73
    16
  0
VERTEX
  5
9C2
  8
0
 62
     9
 10
0.0
 20
0.0
 30
0.0
 70
   128
 71
    77
 72
    79
 73
    24
  0
VERTEX
  5
9C3
  8
0
 62
     9
 10
0.0
 20
0.0
 30
0.0
 70
   128
 71
    87
 72
    25
 73
   193
  0
VERTEX
  5
9C4
  8
0
 62
     9
 10
0.0
 20
0.0
 30
0.0
 70
   128
 71
   111
 72
    11
 73
    10
  0
VERTEX
  5
9C5
  8
0
 62
     9
 10
0.0
 20
0.0
 30
0.0
 70
   128
 71
     5
 72
     3
 73
   102
  0
VERTEX
  5
9C6
  8
0
 62
     9
 10
0.0
 20
0.0
 30
0.0
 70
   128
 71
    11
 72
   101
 73
     3
  0
VERTEX
  5
9C7
  8
0
 62
     9
 10
0.0
 20
0.0
 30
0.0
 70
   128
 71
     4
 72
     5
 73
    99
  0
VERTEX
  5
9C8
  8
0
 62
     9
 10
0.0
 20
0.0
 30
0.0
 70
   128
 71
   193
 72
   190
 73
    88
  0
VERTEX
  5
9C9
  8
0
 62
     9
 10
0.0
 20
0.0
 30
0.0
 70
   128
 71
    91
 72
    88
 73
   191
  0
VERTEX
  5
9CA
  8
0
 62
     9
 10
0.0
 20
0.0
 30
0.0
 70
   128
 71
   106
 72
     4
 73
    99
  0
VERTEX
  5
9CB
  8
0
 62
     9
 10
0.0
 20
0.0
 30
0.0
 70
   128
 71
   103
 72
   108
 73
   188
  0
VERTEX
  5
9CC
  8
0
 62
     9
 10
0.0
 20
0.0
 30
0.0
 70
   128
 71
    93
 72
    91
 73
   192
  0
VERTEX
  5
9CD
  8
0
 62
     9
 10
0.0
 20
0.0
 30
0.0
 70
   128
 71
   189
 72
   194
 73
    94
  0
VERTEX
  5
9CE
  8
0
 62
     9
 10
0.0
 20
0.0
 30
0.0
 70
   128
 71
   108
 72
   194
 73
   187
  0
VERTEX
  5
9CF
  8
0
 62
     9
 10
0.0
 20
0.0
 30
0.0
 70
   128
 71
   186
 72
   184
 73
   106
  0
VERTEX
  5
9D0
  8
0
 62
     9
 10
0.0
 20
0.0
 30
0.0
 70
   128
 71
    93
 72
   189
 73
    94
  0
VERTEX
  5
9D1
  8
0
 62
     9
 10
0.0
 20
0.0
 30
0.0
 70
   128
 71
   186
 72
   105
 73
   185
  0
VERTEX
  5
9D2
  8
0
 62
     9
 10
0.0
 20
0.0
 30
0.0
 70
   128
 71
    93
 72
   192
 73
   189
  0
VERTEX
  5
9D3
  8
0
 62
     9
 10
0.0
 20
0.0
 30
0.0
 70
   128
 71
   105
 72
   103
 73
   185
  0
VERTEX
  5
9D4
  8
0
 62
     9
 10
0.0
 20
0.0
 30
0.0
 70
   128
 71
    91
 72
   191
 73
   192
  0
VERTEX
  5
9D5
  8
0
 62
     9
 10
0.0
 20
0.0
 30
0.0
 70
   128
 71
    88
 72
   190
 73
   191
  0
VERTEX
  5
9D6
  8
0
 62
     9
 10
0.0
 20
0.0
 30
0.0
 70
   128
 71
    88
 72
    87
 73
   193
  0
VERTEX
  5
9D7
  8
0
 62
     9
 10
0.0
 20
0.0
 30
0.0
 70
   128
 71
    87
 72
    77
 73
    25
  0
VERTEX
  5
9D8
  8
0
 62
     9
 10
0.0
 20
0.0
 30
0.0
 70
   128
 71
    79
 72
    18
 73
    24
  0
VERTEX
  5
9D9
  8
0
 62
     9
 10
0.0
 20
0.0
 30
0.0
 70
   128
 71
    82
 72
    21
 73
    18
  0
VERTEX
  5
9DA
  8
0
 62
     9
 10
0.0
 20
0.0
 30
0.0
 70
   128
 71
    82
 72
    84
 73
    13
  0
VERTEX
  5
9DB
  8
0
 62
     9
 10
0.0
 20
0.0
 30
0.0
 70
   128
 71
    84
 72
    86
 73
    15
  0
VERTEX
  5
9DC
  8
0
 62
     9
 10
0.0
 20
0.0
 30
0.0
 70
   128
 71
   111
 72
    10
 73
    16
  0
VERTEX
  5
9DD
  8
0
 62
     9
 10
0.0
 20
0.0
 30
0.0
 70
   128
 71
   111
 72
    16
 73
    86
  0
VERTEX
  5
9DE
  8
0
 62
     9
 10
0.0
 20
0.0
 30
0.0
 70
   128
 71
   111
 72
   101
 73
    11
  0
VERTEX
  5
9DF
  8
0
 62
     9
 10
0.0
 20
0.0
 30
0.0
 70
   128
 71
   101
 72
   102
 73
     3
  0
VERTEX
  5
9E0
  8
0
 62
     9
 10
0.0
 20
0.0
 30
0.0
 70
   128
 71
   102
 72
    99
 73
     5
  0
VERTEX
  5
9E1
  8
0
 62
     9
 10
0.0
 20
0.0
 30
0.0
 70
   128
 71
   106
 72
   184
 73
     4
  0
VERTEX
  5
9E2
  8
0
 62
     9
 10
0.0
 20
0.0
 30
0.0
 70
   128
 71
   106
 72
   105
 73
   186
  0
VERTEX
  5
9E3
  8
0
 62
     9
 10
0.0
 20
0.0
 30
0.0
 70
   128
 71
   103
 72
   188
 73
   185
  0
VERTEX
  5
9E4
  8
0
 62
     9
 10
0.0
 20
0.0
 30
0.0
 70
   128
 71
   108
 72
    94
 73
   194
  0
VERTEX
  5
9E5
  8
0
 62
     9
 10
0.0
 20
0.0
 30
0.0
 70
   128
 71
   108
 72
   187
 73
   188
  0
SEQEND
  5
9E6
  8
0
  0
ENDBLK
  5
9E9
  8
0
  0
BLOCK
  8
0
  2
46
 70
     0
 10
0.0
 20
0.0
 30
0.0
  3
46
  1

  0
POLYLINE
  5
9EB
  8
0
 62
     9
 66
     1
 10
0.0
 20
0.0
 30
0.0
 70
    64
 71
    40
 72
    58
  0
VERTEX
  5
9EC
  8
0
 10
101.2191314697266
 20
-0.0106322085484862
 30
83.5318832397461
 70
   192
  0
VERTEX
  5
9ED
  8
0
 10
97.85364532470703
 20
-0.0000051143729252
 30
96.08869934082031
 70
   192
  0
VERTEX
  5
9EE
  8
0
 10
98.42938232421875
 20
-3.715888977050781
 30
96.24296569824219
 70
   192
  0
VERTEX
  5
9EF
  8
0
 10
100.0812072753906
 20
-7.05568265914917
 30
96.6855697631836
 70
   192
  0
VERTEX
  5
9F0
  8
0
 10
101.7889938354492
 20
-3.717542409896851
 30
83.68457794189453
 70
   192
  0
VERTEX
  5
9F1
  8
0
 10
102.6426391601562
 20
-9.706209182739258
 30
97.37190246582031
 70
   192
  0
VERTEX
  5
9F2
  8
0
 10
103.4354019165039
 20
-7.05780553817749
 30
84.125732421875
 70
   192
  0
VERTEX
  5
9F3
  8
0
 10
106.0037689208984
 20
-9.712745666503906
 30
84.81392669677734
 70
   192
  0
VERTEX
  5
9F4
  8
0
 10
105.873908996582
 20
-11.40851783752441
 30
98.23771667480469
 70
   192
  0
VERTEX
  5
9F5
  8
0
 10
109.4447555541992
 20
-12.00000476837158
 30
99.19452667236328
 70
   192
  0
VERTEX
  5
9F6
  8
0
 10
109.2310791015625
 20
-11.41410541534424
 30
85.67868041992188
 70
   192
  0
VERTEX
  5
9F7
  8
0
 10
112.8094024658203
 20
-12.00000476837158
 30
86.63748931884766
 70
   192
  0
VERTEX
  5
9F8
  8
0
 10
101.7832946777344
 20
3.700758218765259
 30
83.68305206298828
 70
   192
  0
VERTEX
  5
9F9
  8
0
 10
103.4244537353516
 20
7.040606498718262
 30
84.122802734375
 70
   192
  0
VERTEX
  5
9FA
  8
0
 10
98.41930389404297
 20
3.702950000762939
 30
96.24026489257812
 70
   192
  0
VERTEX
  5
9FB
  8
0
 10
100.0622253417969
 20
7.056599617004395
 30
96.68048858642578
 70
   192
  0
VERTEX
  5
9FC
  8
0
 10
105.9883041381836
 20
9.702069282531738
 30
84.80978393554688
 70
   192
  0
VERTEX
  5
9FD
  8
0
 10
109.2171783447266
 20
11.4087963104248
 30
85.67495727539062
 70
   192
  0
VERTEX
  5
9FE
  8
0
 10
102.6278991699219
 20
9.712199211120605
 30
97.36795806884766
 70
   192
  0
VERTEX
  5
9FF
  8
0
 10
112.8094024658203
 20
11.99747753143311
 30
86.63748931884766
 70
   192
  0
VERTEX
  5
A00
  8
0
 10
105.8584976196289
 20
11.41774559020996
 30
98.23358917236328
 70
   192
  0
VERTEX
  5
A01
  8
0
 10
109.4447555541992
 20
11.99999523162842
 30
99.19452667236328
 70
   192
  0
VERTEX
  5
A02
  8
0
 10
113.0310211181641
 20
-11.41775608062744
 30
100.1554641723633
 70
   192
  0
VERTEX
  5
A03
  8
0
 10
116.3964538574219
 20
-11.41062545776367
 30
87.59864044189453
 70
   192
  0
VERTEX
  5
A04
  8
0
 10
121.0358657836914
 20
-0.0000051143729252
 30
102.3003540039062
 70
   192
  0
VERTEX
  5
A05
  8
0
 10
123.8356170654297
 20
-3.702065706253052
 30
89.59195709228516
 70
   192
  0
VERTEX
  5
A06
  8
0
 10
120.47021484375
 20
-3.702960252761841
 30
102.1487884521484
 70
   192
  0
VERTEX
  5
A07
  8
0
 10
119.6279220581055
 20
-9.703466415405273
 30
88.46450805664062
 70
   192
  0
VERTEX
  5
A08
  8
0
 10
116.2616195678711
 20
-9.712209701538086
 30
101.0211029052734
 70
   192
  0
VERTEX
  5
A09
  8
0
 10
118.8272933959961
 20
-7.056609630584717
 30
101.7085723876953
 70
   192
  0
VERTEX
  5
A0A
  8
0
 10
118.8083038330078
 20
7.055672168731689
 30
101.703483581543
 70
   192
  0
VERTEX
  5
A0B
  8
0
 10
122.1799850463867
 20
7.062668323516846
 30
89.14833068847656
 70
   192
  0
VERTEX
  5
A0C
  8
0
 10
123.8305816650391
 20
3.715754508972168
 30
89.59060668945312
 70
   192
  0
VERTEX
  5
A0D
  8
0
 10
124.3992538452148
 20
0.0116736721247435
 30
89.74298095703125
 70
   192
  0
VERTEX
  5
A0E
  8
0
 10
120.4601364135742
 20
3.71587872505188
 30
102.1460876464844
 70
   192
  0
VERTEX
  5
A0F
  8
0
 10
113.0156097412109
 20
11.40850734710693
 30
100.1513366699219
 70
   192
  0
VERTEX
  5
A10
  8
0
 10
119.6123123168945
 20
9.714932441711426
 30
88.4603271484375
 70
   192
  0
VERTEX
  5
A11
  8
0
 10
116.2468795776367
 20
9.706199645996094
 30
101.0171508789062
 70
   192
  0
VERTEX
  5
A12
  8
0
 10
116.3811111450195
 20
11.41608333587646
 30
87.59452819824219
 70
   192
  0
VERTEX
  5
A13
  8
0
 10
122.1896362304688
 20
-7.04907751083374
 30
89.15091705322266
 70
   192
  0
VERTEX
  5
A14
  8
0
 62
     9
 10
0.0
 20
0.0
 30
0.0
 70
   128
 71
     3
 72
     2
 73
     1
  0
VERTEX
  5
A15
  8
0
 62
     9
 10
0.0
 20
0.0
 30
0.0
 70
   128
 71
     5
 72
     4
 73
     3
  0
VERTEX
  5
A16
  8
0
 62
     9
 10
0.0
 20
0.0
 30
0.0
 70
   128
 71
     3
 72
     1
 73
     5
  0
VERTEX
  5
A17
  8
0
 62
     9
 10
0.0
 20
0.0
 30
0.0
 70
   128
 71
     4
 72
     7
 73
     6
  0
VERTEX
  5
A18
  8
0
 62
     9
 10
0.0
 20
0.0
 30
0.0
 70
   128
 71
     7
 72
     4
 73
     5
  0
VERTEX
  5
A19
  8
0
 62
     9
 10
0.0
 20
0.0
 30
0.0
 70
   128
 71
     9
 72
     6
 73
     8
  0
VERTEX
  5
A1A
  8
0
 62
     9
 10
0.0
 20
0.0
 30
0.0
 70
   128
 71
     7
 72
     8
 73
     6
  0
VERTEX
  5
A1B
  8
0
 62
     9
 10
0.0
 20
0.0
 30
0.0
 70
   128
 71
    11
 72
    10
 73
     9
  0
VERTEX
  5
A1C
  8
0
 62
     9
 10
0.0
 20
0.0
 30
0.0
 70
   128
 71
     9
 72
     8
 73
    11
  0
VERTEX
  5
A1D
  8
0
 62
     9
 10
0.0
 20
0.0
 30
0.0
 70
   128
 71
    12
 72
    10
 73
    11
  0
VERTEX
  5
A1E
  8
0
 62
     9
 10
0.0
 20
0.0
 30
0.0
 70
   128
 71
    13
 72
     1
 73
     2
  0
VERTEX
  5
A1F
  8
0
 62
     9
 10
0.0
 20
0.0
 30
0.0
 70
   128
 71
    13
 72
    15
 73
    14
  0
VERTEX
  5
A20
  8
0
 62
     9
 10
0.0
 20
0.0
 30
0.0
 70
   128
 71
    15
 72
    13
 73
     2
  0
VERTEX
  5
A21
  8
0
 62
     9
 10
0.0
 20
0.0
 30
0.0
 70
   128
 71
    17
 72
    14
 73
    16
  0
VERTEX
  5
A22
  8
0
 62
     9
 10
0.0
 20
0.0
 30
0.0
 70
   128
 71
    15
 72
    16
 73
    14
  0
VERTEX
  5
A23
  8
0
 62
     9
 10
0.0
 20
0.0
 30
0.0
 70
   128
 71
    19
 72
    18
 73
    17
  0
VERTEX
  5
A24
  8
0
 62
     9
 10
0.0
 20
0.0
 30
0.0
 70
   128
 71
    17
 72
    16
 73
    19
  0
VERTEX
  5
A25
  8
0
 62
     9
 10
0.0
 20
0.0
 30
0.0
 70
   128
 71
    18
 72
    21
 73
    20
  0
VERTEX
  5
A26
  8
0
 62
     9
 10
0.0
 20
0.0
 30
0.0
 70
   128
 71
    21
 72
    18
 73
    19
  0
VERTEX
  5
A27
  8
0
 62
     9
 10
0.0
 20
0.0
 30
0.0
 70
   128
 71
    21
 72
    22
 73
    20
  0
VERTEX
  5
A28
  8
0
 62
     9
 10
0.0
 20
0.0
 30
0.0
 70
   128
 71
    12
 72
    24
 73
    23
  0
VERTEX
  5
A29
  8
0
 62
     9
 10
0.0
 20
0.0
 30
0.0
 70
   128
 71
    27
 72
    26
 73
    25
  0
VERTEX
  5
A2A
  8
0
 62
     9
 10
0.0
 20
0.0
 30
0.0
 70
   128
 71
    30
 72
    29
 73
    28
  0
VERTEX
  5
A2B
  8
0
 62
     9
 10
0.0
 20
0.0
 30
0.0
 70
   128
 71
    33
 72
    32
 73
    31
  0
VERTEX
  5
A2C
  8
0
 62
     9
 10
0.0
 20
0.0
 30
0.0
 70
   128
 71
    33
 72
    35
 73
    34
  0
VERTEX
  5
A2D
  8
0
 62
     9
 10
0.0
 20
0.0
 30
0.0
 70
   128
 71
    38
 72
    37
 73
    36
  0
VERTEX
  5
A2E
  8
0
 62
     9
 10
0.0
 20
0.0
 30
0.0
 70
   128
 71
    37
 72
    38
 73
    32
  0
VERTEX
  5
A2F
  8
0
 62
     9
 10
0.0
 20
0.0
 30
0.0
 70
   128
 71
    22
 72
    36
 73
    39
  0
VERTEX
  5
A30
  8
0
 62
     9
 10
0.0
 20
0.0
 30
0.0
 70
   128
 71
    37
 72
    39
 73
    36
  0
VERTEX
  5
A31
  8
0
 62
     9
 10
0.0
 20
0.0
 30
0.0
 70
   128
 71
    22
 72
    39
 73
    20
  0
VERTEX
  5
A32
  8
0
 62
     9
 10
0.0
 20
0.0
 30
0.0
 70
   128
 71
    33
 72
    31
 73
    35
  0
VERTEX
  5
A33
  8
0
 62
     9
 10
0.0
 20
0.0
 30
0.0
 70
   128
 71
    32
 72
    38
 73
    31
  0
VERTEX
  5
A34
  8
0
 62
     9
 10
0.0
 20
0.0
 30
0.0
 70
   128
 71
    26
 72
    34
 73
    25
  0
VERTEX
  5
A35
  8
0
 62
     9
 10
0.0
 20
0.0
 30
0.0
 70
   128
 71
    34
 72
    35
 73
    25
  0
VERTEX
  5
A36
  8
0
 62
     9
 10
0.0
 20
0.0
 30
0.0
 70
   128
 71
    30
 72
    40
 73
    27
  0
VERTEX
  5
A37
  8
0
 62
     9
 10
0.0
 20
0.0
 30
0.0
 70
   128
 71
    40
 72
    26
 73
    27
  0
VERTEX
  5
A38
  8
0
 62
     9
 10
0.0
 20
0.0
 30
0.0
 70
   128
 71
    29
 72
    24
 73
    28
  0
VERTEX
  5
A39
  8
0
 62
     9
 10
0.0
 20
0.0
 30
0.0
 70
   128
 71
    30
 72
    28
 73
    40
  0
VERTEX
  5
A3A
  8
0
 62
     9
 10
0.0
 20
0.0
 30
0.0
 70
   128
 71
    23
 72
    10
 73
    12
  0
VERTEX
  5
A3B
  8
0
 62
     9
 10
0.0
 20
0.0
 30
0.0
 70
   128
 71
    29
 72
    23
 73
    24
  0
VERTEX
  5
A3C
  8
0
 62
     9
 10
0.0
 20
0.0
 30
0.0
 70
   128
 71
    39
 72
     5
 73
    20
  0
VERTEX
  5
A3D
  8
0
 62
     9
 10
0.0
 20
0.0
 30
0.0
 70
   128
 71
     1
 72
    13
 73
    20
  0
VERTEX
  5
A3E
  8
0
 62
     9
 10
0.0
 20
0.0
 30
0.0
 70
   128
 71
    17
 72
    18
 73
    14
  0
VERTEX
  5
A3F
  8
0
 62
     9
 10
0.0
 20
0.0
 30
0.0
 70
   128
 71
    13
 72
    14
 73
    18
  0
VERTEX
  5
A40
  8
0
 62
     9
 10
0.0
 20
0.0
 30
0.0
 70
   128
 71
    20
 72
    13
 73
    18
  0
VERTEX
  5
A41
  8
0
 62
     9
 10
0.0
 20
0.0
 30
0.0
 70
   128
 71
     5
 72
    39
 73
    37
  0
VERTEX
  5
A42
  8
0
 62
     9
 10
0.0
 20
0.0
 30
0.0
 70
   128
 71
     5
 72
     1
 73
    20
  0
VERTEX
  5
A43
  8
0
 62
     9
 10
0.0
 20
0.0
 30
0.0
 70
   128
 71
     7
 72
    37
 73
     8
  0
VERTEX
  5
A44
  8
0
 62
     9
 10
0.0
 20
0.0
 30
0.0
 70
   128
 71
     7
 72
     5
 73
    37
  0
VERTEX
  5
A45
  8
0
 62
     9
 10
0.0
 20
0.0
 30
0.0
 70
   128
 71
    37
 72
    32
 73
     8
  0
VERTEX
  5
A46
  8
0
 62
     9
 10
0.0
 20
0.0
 30
0.0
 70
   128
 71
    32
 72
    33
 73
     8
  0
VERTEX
  5
A47
  8
0
 62
     9
 10
0.0
 20
0.0
 30
0.0
 70
   128
 71
    33
 72
    34
 73
    11
  0
VERTEX
  5
A48
  8
0
 62
     9
 10
0.0
 20
0.0
 30
0.0
 70
   128
 71
    11
 72
     8
 73
    33
  0
VERTEX
  5
A49
  8
0
 62
     9
 10
0.0
 20
0.0
 30
0.0
 70
   128
 71
    34
 72
    26
 73
    24
  0
VERTEX
  5
A4A
  8
0
 62
     9
 10
0.0
 20
0.0
 30
0.0
 70
   128
 71
    34
 72
    12
 73
    11
  0
VERTEX
  5
A4B
  8
0
 62
     9
 10
0.0
 20
0.0
 30
0.0
 70
   128
 71
    28
 72
    24
 73
    26
  0
VERTEX
  5
A4C
  8
0
 62
     9
 10
0.0
 20
0.0
 30
0.0
 70
   128
 71
    40
 72
    28
 73
    26
  0
VERTEX
  5
A4D
  8
0
 62
     9
 10
0.0
 20
0.0
 30
0.0
 70
   128
 71
    12
 72
    34
 73
    24
  0
SEQEND
  5
A4E
  8
0
 62
     9
  0
ENDBLK
  5
A51
  8
0
  0
BLOCK
  8
0
  2
47
 70
     0
 10
0.0
 20
0.0
 30
0.0
  3
47
  1

  0
POLYLINE
  5
A53
  8
0
 62
     9
 66
     1
 10
0.0
 20
0.0
 30
0.0
 70
    64
 71
    87
 72
   170
  0
VERTEX
  5
A54
  8
0
 10
3.187524318695068
 20
5.810015678405762
 30
87.29209899902344
 70
   192
  0
VERTEX
  5
A55
  8
0
 10
2.833176136016846
 20
2.833170890808105
 30
82.0
 70
   192
  0
VERTEX
  5
A56
  8
0
 10
1.811949729919434
 20
3.573085069656372
 30
82.0
 70
   192
  0
VERTEX
  5
A57
  8
0
 10
-8.981364250183105
 20
0.6445043683052063
 30
92.7071762084961
 70
   192
  0
VERTEX
  5
A58
  8
0
 10
-6.568519115447998
 20
-0.9383652210235596
 30
87.29209899902344
 70
   192
  0
VERTEX
  5
A59
  8
0
 10
-8.798295021057129
 20
-1.915566802024841
 30
92.7071762084961
 70
   192
  0
VERTEX
  5
A5A
  8
0
 10
-6.346609592437744
 20
1.952797532081604
 30
87.29209899902344
 70
   192
  0
VERTEX
  5
A5B
  8
0
 10
-8.434471130371094
 20
3.147461891174316
 30
92.7071762084961
 70
   192
  0
VERTEX
  5
A5C
  8
0
 10
-7.201948165893555
 20
5.396107196807861
 30
92.7071762084961
 70
   192
  0
VERTEX
  5
A5D
  8
0
 10
-4.691799163818359
 20
4.691793918609619
 30
87.29209899902344
 70
   192
  0
VERTEX
  5
A5E
  8
0
 10
-3.952340364456177
 20
-0.6413366198539734
 30
82.0
 70
   192
  0
VERTEX
  5
A5F
  8
0
 10
-5.828362464904785
 20
-3.190783739089966
 30
87.29209899902344
 70
   192
  0
VERTEX
  5
A60
  8
0
 10
-6.363961219787598
 20
-6.363966464996338
 30
92.7071762084961
 70
   192
  0
VERTEX
  5
A61
  8
0
 10
-7.904446125030518
 20
-4.313055992126465
 30
92.7071762084961
 70
   192
  0
VERTEX
  5
A62
  8
0
 10
-3.573090314865112
 20
-1.811955094337463
 30
82.0
 70
   192
  0
VERTEX
  5
A63
  8
0
 10
-2.833176136016846
 20
-2.833181619644165
 30
82.0
 70
   192
  0
VERTEX
  5
A64
  8
0
 10
-4.691799163818359
 20
-4.6918044090271
 30
87.29209899902344
 70
   192
  0
VERTEX
  5
A65
  8
0
 10
-3.573090314865112
 20
1.811944365501404
 30
82.0
 70
   192
  0
VERTEX
  5
A66
  8
0
 10
-3.957916021347046
 20
0.6133148670196533
 30
82.0
 70
   192
  0
VERTEX
  5
A67
  8
0
 10
-5.38877534866333
 20
7.206747055053711
 30
92.7071762084961
 70
   192
  0
VERTEX
  5
A68
  8
0
 10
-1.914761304855347
 20
6.340263843536377
 30
87.29209899902344
 70
   192
  0
VERTEX
  5
A69
  8
0
 10
-3.136125326156616
 20
8.42919921875
 30
92.7071762084961
 70
   192
  0
VERTEX
  5
A6A
  8
0
 10
-0.6336637139320374
 20
8.970256805419922
 30
92.7071762084961
 70
   192
  0
VERTEX
  5
A6B
  8
0
 10
0.9383598566055298
 20
6.5685133934021
 30
87.29209899902344
 70
   192
  0
VERTEX
  5
A6C
  8
0
 10
-0.6413312554359436
 20
3.952334880828857
 30
82.0
 70
   192
  0
VERTEX
  5
A6D
  8
0
 10
1.917063593864441
 20
8.78709888458252
 30
92.7071762084961
 70
   192
  0
VERTEX
  5
A6E
  8
0
 10
4.691799163818359
 20
4.691793918609619
 30
87.29209899902344
 70
   192
  0
VERTEX
  5
A6F
  8
0
 10
4.316663265228271
 20
7.891188144683838
 30
92.7071762084961
 70
   192
  0
VERTEX
  5
A70
  8
0
 10
6.363961219787598
 20
6.363955497741699
 30
92.7071762084961
 70
   192
  0
VERTEX
  5
A71
  8
0
 10
0.6133202314376831
 20
3.957910776138306
 30
82.0
 70
   192
  0
VERTEX
  5
A72
  8
0
 10
-1.82778263092041
 20
3.562508821487427
 30
82.0
 70
   192
  0
VERTEX
  5
A73
  8
0
 10
-2.833176136016846
 20
2.833170890808105
 30
82.0
 70
   192
  0
VERTEX
  5
A74
  8
0
 10
-6.363961219787598
 20
6.363955497741699
 30
96.3933334350586
 70
   192
  0
VERTEX
  5
A75
  8
0
 10
-7.94703197479248
 20
4.215940475463867
 30
96.3933334350586
 70
   192
  0
VERTEX
  5
A76
  8
0
 10
-8.875892639160156
 20
1.484444737434387
 30
96.3933334350586
 70
   192
  0
VERTEX
  5
A77
  8
0
 10
-8.877778053283691
 20
-1.475353598594666
 30
96.3933334350586
 70
   192
  0
VERTEX
  5
A78
  8
0
 10
-7.957447528839111
 20
-4.209282875061035
 30
96.3933334350586
 70
   192
  0
VERTEX
  5
A79
  8
0
 10
-6.363961219787598
 20
-6.363966464996338
 30
96.3933334350586
 70
   192
  0
VERTEX
  5
A7A
  8
0
 10
-4.209277629852295
 20
7.957442283630371
 30
96.3933334350586
 70
   192
  0
VERTEX
  5
A7B
  8
0
 10
-1.475348234176636
 20
8.877772331237793
 30
96.3933334350586
 70
   192
  0
VERTEX
  5
A7C
  8
0
 10
1.484450221061707
 20
8.875887870788574
 30
96.3933334350586
 70
   192
  0
VERTEX
  5
A7D
  8
0
 10
4.215946197509766
 20
7.94702672958374
 30
96.3933334350586
 70
   192
  0
VERTEX
  5
A7E
  8
0
 10
6.363961219787598
 20
6.363955497741699
 30
96.3933334350586
 70
   192
  0
VERTEX
  5
A7F
  8
0
 10
3.195053815841675
 20
3.195048332214355
 30
97.00541687011719
 70
   192
  0
VERTEX
  5
A80
  8
0
 10
-3.195053815841675
 20
3.195048332214355
 30
97.00541687011719
 70
   192
  0
VERTEX
  5
A81
  8
0
 10
0.000000000000042
 20
-0.0000053724083955
 30
97.20999908447266
 70
   192
  0
VERTEX
  5
A82
  8
0
 10
0.0211893618106842
 20
4.512455940246582
 30
97.00541687011719
 70
   192
  0
VERTEX
  5
A83
  8
0
 10
8.882782936096191
 20
-1.399112701416016
 30
96.3933334350586
 70
   192
  0
VERTEX
  5
A84
  8
0
 10
3.195053815841675
 20
-3.195059061050415
 30
97.00541687011719
 70
   192
  0
VERTEX
  5
A85
  8
0
 10
8.01850700378418
 20
-4.077222347259521
 30
96.3933334350586
 70
   192
  0
VERTEX
  5
A86
  8
0
 10
4.512461185455322
 20
-0.0211947336792946
 30
97.00541687011719
 70
   192
  0
VERTEX
  5
A87
  8
0
 10
8.010811805725098
 20
4.089737892150879
 30
96.3933334350586
 70
   192
  0
VERTEX
  5
A88
  8
0
 10
8.88211441040039
 20
1.412865042686462
 30
96.3933334350586
 70
   192
  0
VERTEX
  5
A89
  8
0
 10
6.363961219787598
 20
-6.363966464996338
 30
96.3933334350586
 70
   192
  0
VERTEX
  5
A8A
  8
0
 10
-1.40795910358429
 20
-8.893394470214844
 30
96.3933334350586
 70
   192
  0
VERTEX
  5
A8B
  8
0
 10
-3.195053815841675
 20
-3.195059061050415
 30
97.00541687011719
 70
   192
  0
VERTEX
  5
A8C
  8
0
 10
-4.086183071136475
 20
-8.024175643920898
 30
96.3933334350586
 70
   192
  0
VERTEX
  5
A8D
  8
0
 10
-0.0211893618106842
 20
-4.512466430664062
 30
97.00541687011719
 70
   192
  0
VERTEX
  5
A8E
  8
0
 10
4.089159965515137
 20
-8.016827583312988
 30
96.3933334350586
 70
   192
  0
VERTEX
  5
A8F
  8
0
 10
1.409038543701172
 20
-8.89370346069336
 30
96.3933334350586
 70
   192
  0
VERTEX
  5
A90
  8
0
 10
-4.512461185455322
 20
0.0211839880794287
 30
97.00541687011719
 70
   192
  0
VERTEX
  5
A91
  8
0
 10
-4.313050270080566
 20
-7.904451370239258
 30
92.7071762084961
 70
   192
  0
VERTEX
  5
A92
  8
0
 10
3.147467136383057
 20
-8.434476852416992
 30
92.7071762084961
 70
   192
  0
VERTEX
  5
A93
  8
0
 10
0.6445097327232361
 20
-8.981369972229004
 30
92.7071762084961
 70
   192
  0
VERTEX
  5
A94
  8
0
 10
-1.915561437606812
 20
-8.798299789428711
 30
92.7071762084961
 70
   192
  0
VERTEX
  5
A95
  8
0
 10
7.206752777099609
 20
-5.388781070709229
 30
92.7071762084961
 70
   192
  0
VERTEX
  5
A96
  8
0
 10
8.429203987121582
 20
-3.136130809783936
 30
92.7071762084961
 70
   192
  0
VERTEX
  5
A97
  8
0
 10
5.396112442016602
 20
-7.201953887939453
 30
92.7071762084961
 70
   192
  0
VERTEX
  5
A98
  8
0
 10
8.970261573791504
 20
-0.6336690783500671
 30
92.7071762084961
 70
   192
  0
VERTEX
  5
A99
  8
0
 10
8.787104606628418
 20
1.917058229446411
 30
92.7071762084961
 70
   192
  0
VERTEX
  5
A9A
  8
0
 10
7.891193389892578
 20
4.316658020019531
 30
92.7071762084961
 70
   192
  0
VERTEX
  5
A9B
  8
0
 10
-0.9383598566055298
 20
-6.568524360656738
 30
87.29209899902344
 70
   192
  0
VERTEX
  5
A9C
  8
0
 10
-3.187524318695068
 20
-5.8100266456604
 30
87.29209899902344
 70
   192
  0
VERTEX
  5
A9D
  8
0
 10
4.691799163818359
 20
-4.6918044090271
 30
87.29209899902344
 70
   192
  0
VERTEX
  5
A9E
  8
0
 10
1.914761304855347
 20
-6.340274810791016
 30
87.29209899902344
 70
   192
  0
VERTEX
  5
A9F
  8
0
 10
0.6413312554359436
 20
-3.952345609664917
 30
82.0
 70
   192
  0
VERTEX
  5
AA0
  8
0
 10
-1.811949729919434
 20
-3.573095798492432
 30
82.0
 70
   192
  0
VERTEX
  5
AA1
  8
0
 10
6.346609592437744
 20
-1.952808260917664
 30
87.29209899902344
 70
   192
  0
VERTEX
  5
AA2
  8
0
 10
6.568519115447998
 20
0.9383544921875
 30
87.29209899902344
 70
   192
  0
VERTEX
  5
AA3
  8
0
 10
3.952340364456177
 20
0.6413258910179138
 30
82.0
 70
   192
  0
VERTEX
  5
AA4
  8
0
 10
5.828362464904785
 20
3.190773010253906
 30
87.29209899902344
 70
   192
  0
VERTEX
  5
AA5
  8
0
 10
3.573090314865112
 20
1.811944365501404
 30
82.0
 70
   192
  0
VERTEX
  5
AA6
  8
0
 10
3.573090314865112
 20
-1.811955094337463
 30
82.0
 70
   192
  0
VERTEX
  5
AA7
  8
0
 10
3.957916021347046
 20
-0.6133255958557129
 30
82.0
 70
   192
  0
VERTEX
  5
AA8
  8
0
 10
-0.6133202314376831
 20
-3.957921504974365
 30
82.0
 70
   192
  0
VERTEX
  5
AA9
  8
0
 10
1.82778263092041
 20
-3.562519788742065
 30
82.0
 70
   192
  0
VERTEX
  5
AAA
  8
0
 10
2.833176136016846
 20
-2.833181619644165
 30
82.0
 70
   192
  0
VERTEX
  5
AAB
  8
0
 62
     9
 10
0.0
 20
0.0
 30
0.0
 70
   128
 71
     3
 72
     2
 73
     1
  0
VERTEX
  5
AAC
  8
0
 62
     9
 10
0.0
 20
0.0
 30
0.0
 70
   128
 71
     6
 72
     5
 73
     4
  0
VERTEX
  5
AAD
  8
0
 62
     9
 10
0.0
 20
0.0
 30
0.0
 70
   128
 71
     9
 72
     8
 73
     7
  0
VERTEX
  5
AAE
  8
0
 62
     9
 10
0.0
 20
0.0
 30
0.0
 70
   128
 71
     7
 72
     4
 73
     5
  0
VERTEX
  5
AAF
  8
0
 62
     9
 10
0.0
 20
0.0
 30
0.0
 70
   128
 71
    10
 72
     9
 73
     7
  0
VERTEX
  5
AB0
  8
0
 62
     9
 10
0.0
 20
0.0
 30
0.0
 70
   128
 71
     7
 72
     8
 73
     4
  0
VERTEX
  5
AB1
  8
0
 62
     9
 10
0.0
 20
0.0
 30
0.0
 70
   128
 71
    12
 72
    11
 73
     5
  0
VERTEX
  5
AB2
  8
0
 62
     9
 10
0.0
 20
0.0
 30
0.0
 70
   128
 71
    12
 72
    14
 73
    13
  0
VERTEX
  5
AB3
  8
0
 62
     9
 10
0.0
 20
0.0
 30
0.0
 70
   128
 71
     6
 72
    14
 73
    12
  0
VERTEX
  5
AB4
  8
0
 62
     9
 10
0.0
 20
0.0
 30
0.0
 70
   128
 71
    17
 72
    16
 73
    15
  0
VERTEX
  5
AB5
  8
0
 62
     9
 10
0.0
 20
0.0
 30
0.0
 70
   128
 71
     6
 72
    12
 73
     5
  0
VERTEX
  5
AB6
  8
0
 62
     9
 10
0.0
 20
0.0
 30
0.0
 70
   128
 71
     7
 72
    19
 73
    18
  0
VERTEX
  5
AB7
  8
0
 62
     9
 10
0.0
 20
0.0
 30
0.0
 70
   128
 71
    20
 72
     9
 73
    10
  0
VERTEX
  5
AB8
  8
0
 62
     9
 10
0.0
 20
0.0
 30
0.0
 70
   128
 71
    21
 72
    20
 73
    10
  0
VERTEX
  5
AB9
  8
0
 62
     9
 10
0.0
 20
0.0
 30
0.0
 70
   128
 71
    21
 72
    23
 73
    22
  0
VERTEX
  5
ABA
  8
0
 62
     9
 10
0.0
 20
0.0
 30
0.0
 70
   128
 71
    20
 72
    21
 73
    22
  0
VERTEX
  5
ABB
  8
0
 62
     9
 10
0.0
 20
0.0
 30
0.0
 70
   128
 71
    25
 72
    24
 73
    21
  0
VERTEX
  5
ABC
  8
0
 62
     9
 10
0.0
 20
0.0
 30
0.0
 70
   128
 71
    21
 72
    24
 73
    23
  0
VERTEX
  5
ABD
  8
0
 62
     9
 10
0.0
 20
0.0
 30
0.0
 70
   128
 71
     1
 72
    24
 73
     3
  0
VERTEX
  5
ABE
  8
0
 62
     9
 10
0.0
 20
0.0
 30
0.0
 70
   128
 71
    26
 72
    24
 73
     1
  0
VERTEX
  5
ABF
  8
0
 62
     9
 10
0.0
 20
0.0
 30
0.0
 70
   128
 71
     2
 72
    27
 73
     1
  0
VERTEX
  5
AC0
  8
0
 62
     9
 10
0.0
 20
0.0
 30
0.0
 70
   128
 71
    26
 72
     1
 73
    28
  0
VERTEX
  5
AC1
  8
0
 62
     9
 10
0.0
 20
0.0
 30
0.0
 70
   128
 71
    27
 72
    29
 73
    28
  0
VERTEX
  5
AC2
  8
0
 62
     9
 10
0.0
 20
0.0
 30
0.0
 70
   128
 71
    24
 72
    30
 73
     3
  0
VERTEX
  5
AC3
  8
0
 62
     9
 10
0.0
 20
0.0
 30
0.0
 70
   128
 71
     1
 72
    27
 73
    28
  0
VERTEX
  5
AC4
  8
0
 62
     9
 10
0.0
 20
0.0
 30
0.0
 70
   128
 71
    30
 72
    24
 73
    25
  0
VERTEX
  5
AC5
  8
0
 62
     9
 10
0.0
 20
0.0
 30
0.0
 70
   128
 71
    24
 72
    26
 73
    23
  0
VERTEX
  5
AC6
  8
0
 62
     9
 10
0.0
 20
0.0
 30
0.0
 70
   128
 71
    21
 72
    31
 73
    25
  0
VERTEX
  5
AC7
  8
0
 62
     9
 10
0.0
 20
0.0
 30
0.0
 70
   128
 71
    10
 72
    32
 73
    31
  0
VERTEX
  5
AC8
  8
0
 62
     9
 10
0.0
 20
0.0
 30
0.0
 70
   128
 71
    21
 72
    10
 73
    31
  0
VERTEX
  5
AC9
  8
0
 62
     9
 10
0.0
 20
0.0
 30
0.0
 70
   128
 71
    32
 72
    10
 73
    18
  0
VERTEX
  5
ACA
  8
0
 62
     9
 10
0.0
 20
0.0
 30
0.0
 70
   128
 71
    10
 72
     7
 73
    18
  0
VERTEX
  5
ACB
  8
0
 62
     9
 10
0.0
 20
0.0
 30
0.0
 70
   128
 71
     5
 72
    11
 73
    19
  0
VERTEX
  5
ACC
  8
0
 62
     9
 10
0.0
 20
0.0
 30
0.0
 70
   128
 71
     7
 72
     5
 73
    19
  0
VERTEX
  5
ACD
  8
0
 62
     9
 10
0.0
 20
0.0
 30
0.0
 70
   128
 71
    12
 72
    15
 73
    11
  0
VERTEX
  5
ACE
  8
0
 62
     9
 10
0.0
 20
0.0
 30
0.0
 70
   128
 71
    12
 72
    17
 73
    15
  0
VERTEX
  5
ACF
  8
0
 62
     9
 10
0.0
 20
0.0
 30
0.0
 70
   128
 71
    17
 72
    12
 73
    13
  0
VERTEX
  5
AD0
  8
0
 62
     9
 10
0.0
 20
0.0
 30
0.0
 70
   128
 71
    20
 72
    33
 73
     9
  0
VERTEX
  5
AD1
  8
0
 62
     9
 10
0.0
 20
0.0
 30
0.0
 70
   128
 71
    34
 72
     8
 73
     9
  0
VERTEX
  5
AD2
  8
0
 62
     9
 10
0.0
 20
0.0
 30
0.0
 70
   128
 71
     9
 72
    33
 73
    34
  0
VERTEX
  5
AD3
  8
0
 62
     9
 10
0.0
 20
0.0
 30
0.0
 70
   128
 71
     4
 72
     8
 73
    35
  0
VERTEX
  5
AD4
  8
0
 62
     9
 10
0.0
 20
0.0
 30
0.0
 70
   128
 71
    34
 72
    35
 73
     8
  0
VERTEX
  5
AD5
  8
0
 62
     9
 10
0.0
 20
0.0
 30
0.0
 70
   128
 71
     4
 72
    36
 73
     6
  0
VERTEX
  5
AD6
  8
0
 62
     9
 10
0.0
 20
0.0
 30
0.0
 70
   128
 71
    36
 72
     4
 73
    35
  0
VERTEX
  5
AD7
  8
0
 62
     9
 10
0.0
 20
0.0
 30
0.0
 70
   128
 71
    37
 72
    14
 73
     6
  0
VERTEX
  5
AD8
  8
0
 62
     9
 10
0.0
 20
0.0
 30
0.0
 70
   128
 71
     6
 72
    36
 73
    37
  0
VERTEX
  5
AD9
  8
0
 62
     9
 10
0.0
 20
0.0
 30
0.0
 70
   128
 71
    37
 72
    38
 73
    14
  0
VERTEX
  5
ADA
  8
0
 62
     9
 10
0.0
 20
0.0
 30
0.0
 70
   128
 71
    38
 72
    13
 73
    14
  0
VERTEX
  5
ADB
  8
0
 62
     9
 10
0.0
 20
0.0
 30
0.0
 70
   128
 71
    39
 72
    33
 73
    20
  0
VERTEX
  5
ADC
  8
0
 62
     9
 10
0.0
 20
0.0
 30
0.0
 70
   128
 71
    40
 72
    39
 73
    22
  0
VERTEX
  5
ADD
  8
0
 62
     9
 10
0.0
 20
0.0
 30
0.0
 70
   128
 71
    20
 72
    22
 73
    39
  0
VERTEX
  5
ADE
  8
0
 62
     9
 10
0.0
 20
0.0
 30
0.0
 70
   128
 71
    23
 72
    40
 73
    22
  0
VERTEX
  5
ADF
  8
0
 62
     9
 10
0.0
 20
0.0
 30
0.0
 70
   128
 71
    23
 72
    26
 73
    41
  0
VERTEX
  5
AE0
  8
0
 62
     9
 10
0.0
 20
0.0
 30
0.0
 70
   128
 71
    41
 72
    40
 73
    23
  0
VERTEX
  5
AE1
  8
0
 62
     9
 10
0.0
 20
0.0
 30
0.0
 70
   128
 71
    28
 72
    42
 73
    26
  0
VERTEX
  5
AE2
  8
0
 62
     9
 10
0.0
 20
0.0
 30
0.0
 70
   128
 71
    41
 72
    26
 73
    42
  0
VERTEX
  5
AE3
  8
0
 62
     9
 10
0.0
 20
0.0
 30
0.0
 70
   128
 71
    28
 72
    43
 73
    42
  0
VERTEX
  5
AE4
  8
0
 62
     9
 10
0.0
 20
0.0
 30
0.0
 70
   128
 71
    29
 72
    43
 73
    28
  0
VERTEX
  5
AE5
  8
0
 62
     9
 10
0.0
 20
0.0
 30
0.0
 70
   128
 71
    42
 72
    44
 73
    41
  0
VERTEX
  5
AE6
  8
0
 62
     9
 10
0.0
 20
0.0
 30
0.0
 70
   128
 71
    47
 72
    46
 73
    45
  0
VERTEX
  5
AE7
  8
0
 62
     9
 10
0.0
 20
0.0
 30
0.0
 70
   128
 71
    46
 72
    47
 73
    44
  0
VERTEX
  5
AE8
  8
0
 62
     9
 10
0.0
 20
0.0
 30
0.0
 70
   128
 71
    47
 72
    45
 73
    39
  0
VERTEX
  5
AE9
  8
0
 62
     9
 10
0.0
 20
0.0
 30
0.0
 70
   128
 71
    40
 72
    41
 73
    47
  0
VERTEX
  5
AEA
  8
0
 62
     9
 10
0.0
 20
0.0
 30
0.0
 70
   128
 71
    45
 72
    33
 73
    39
  0
VERTEX
  5
AEB
  8
0
 62
     9
 10
0.0
 20
0.0
 30
0.0
 70
   128
 71
    44
 72
    42
 73
    43
  0
VERTEX
  5
AEC
  8
0
 62
     9
 10
0.0
 20
0.0
 30
0.0
 70
   128
 71
    44
 72
    47
 73
    41
  0
VERTEX
  5
AED
  8
0
 62
     9
 10
0.0
 20
0.0
 30
0.0
 70
   128
 71
    40
 72
    47
 73
    39
  0
VERTEX
  5
AEE
  8
0
 62
     9
 10
0.0
 20
0.0
 30
0.0
 70
   128
 71
    50
 72
    49
 73
    48
  0
VERTEX
  5
AEF
  8
0
 62
     9
 10
0.0
 20
0.0
 30
0.0
 70
   128
 71
    51
 72
    46
 73
    44
  0
VERTEX
  5
AF0
  8
0
 62
     9
 10
0.0
 20
0.0
 30
0.0
 70
   128
 71
    46
 72
    51
 73
    49
  0
VERTEX
  5
AF1
  8
0
 62
     9
 10
0.0
 20
0.0
 30
0.0
 70
   128
 71
    51
 72
    44
 73
    52
  0
VERTEX
  5
AF2
  8
0
 62
     9
 10
0.0
 20
0.0
 30
0.0
 70
   128
 71
    53
 72
    48
 73
    51
  0
VERTEX
  5
AF3
  8
0
 62
     9
 10
0.0
 20
0.0
 30
0.0
 70
   128
 71
    44
 72
    43
 73
    52
  0
VERTEX
  5
AF4
  8
0
 62
     9
 10
0.0
 20
0.0
 30
0.0
 70
   128
 71
    49
 72
    50
 73
    54
  0
VERTEX
  5
AF5
  8
0
 62
     9
 10
0.0
 20
0.0
 30
0.0
 70
   128
 71
    49
 72
    51
 73
    48
  0
VERTEX
  5
AF6
  8
0
 62
     9
 10
0.0
 20
0.0
 30
0.0
 70
   128
 71
    53
 72
    51
 73
    52
  0
VERTEX
  5
AF7
  8
0
 62
     9
 10
0.0
 20
0.0
 30
0.0
 70
   128
 71
    57
 72
    56
 73
    55
  0
VERTEX
  5
AF8
  8
0
 62
     9
 10
0.0
 20
0.0
 30
0.0
 70
   128
 71
    58
 72
    46
 73
    49
  0
VERTEX
  5
AF9
  8
0
 62
     9
 10
0.0
 20
0.0
 30
0.0
 70
   128
 71
    46
 72
    58
 73
    56
  0
VERTEX
  5
AFA
  8
0
 62
     9
 10
0.0
 20
0.0
 30
0.0
 70
   128
 71
    58
 72
    49
 73
    59
  0
VERTEX
  5
AFB
  8
0
 62
     9
 10
0.0
 20
0.0
 30
0.0
 70
   128
 71
    60
 72
    55
 73
    58
  0
VERTEX
  5
AFC
  8
0
 62
     9
 10
0.0
 20
0.0
 30
0.0
 70
   128
 71
    49
 72
    54
 73
    59
  0
VERTEX
  5
AFD
  8
0
 62
     9
 10
0.0
 20
0.0
 30
0.0
 70
   128
 71
    56
 72
    57
 73
    38
  0
VERTEX
  5
AFE
  8
0
 62
     9
 10
0.0
 20
0.0
 30
0.0
 70
   128
 71
    56
 72
    58
 73
    55
  0
VERTEX
  5
AFF
  8
0
 62
     9
 10
0.0
 20
0.0
 30
0.0
 70
   128
 71
    60
 72
    58
 73
    59
  0
VERTEX
  5
B00
  8
0
 62
     9
 10
0.0
 20
0.0
 30
0.0
 70
   128
 71
    34
 72
    45
 73
    35
  0
VERTEX
  5
B01
  8
0
 62
     9
 10
0.0
 20
0.0
 30
0.0
 70
   128
 71
    61
 72
    45
 73
    46
  0
VERTEX
  5
B02
  8
0
 62
     9
 10
0.0
 20
0.0
 30
0.0
 70
   128
 71
    35
 72
    61
 73
    36
  0
VERTEX
  5
B03
  8
0
 62
     9
 10
0.0
 20
0.0
 30
0.0
 70
   128
 71
    34
 72
    33
 73
    45
  0
VERTEX
  5
B04
  8
0
 62
     9
 10
0.0
 20
0.0
 30
0.0
 70
   128
 71
    56
 72
    61
 73
    46
  0
VERTEX
  5
B05
  8
0
 62
     9
 10
0.0
 20
0.0
 30
0.0
 70
   128
 71
    37
 72
    61
 73
    56
  0
VERTEX
  5
B06
  8
0
 62
     9
 10
0.0
 20
0.0
 30
0.0
 70
   128
 71
    56
 72
    38
 73
    37
  0
VERTEX
  5
B07
  8
0
 62
     9
 10
0.0
 20
0.0
 30
0.0
 70
   128
 71
    45
 72
    61
 73
    35
  0
VERTEX
  5
B08
  8
0
 62
     9
 10
0.0
 20
0.0
 30
0.0
 70
   128
 71
    36
 72
    61
 73
    37
  0
VERTEX
  5
B09
  8
0
 62
     9
 10
0.0
 20
0.0
 30
0.0
 70
   128
 71
    13
 72
    38
 73
    62
  0
VERTEX
  5
B0A
  8
0
 62
     9
 10
0.0
 20
0.0
 30
0.0
 70
   128
 71
    63
 72
    60
 73
    59
  0
VERTEX
  5
B0B
  8
0
 62
     9
 10
0.0
 20
0.0
 30
0.0
 70
   128
 71
    65
 72
    55
 73
    64
  0
VERTEX
  5
B0C
  8
0
 62
     9
 10
0.0
 20
0.0
 30
0.0
 70
   128
 71
    67
 72
    66
 73
    50
  0
VERTEX
  5
B0D
  8
0
 62
     9
 10
0.0
 20
0.0
 30
0.0
 70
   128
 71
    54
 72
    66
 73
    68
  0
VERTEX
  5
B0E
  8
0
 62
     9
 10
0.0
 20
0.0
 30
0.0
 70
   128
 71
    70
 72
    69
 73
    53
  0
VERTEX
  5
B0F
  8
0
 62
     9
 10
0.0
 20
0.0
 30
0.0
 70
   128
 71
    48
 72
    69
 73
    67
  0
VERTEX
  5
B10
  8
0
 62
     9
 10
0.0
 20
0.0
 30
0.0
 70
   128
 71
    70
 72
    52
 73
    71
  0
VERTEX
  5
B11
  8
0
 62
     9
 10
0.0
 20
0.0
 30
0.0
 70
   128
 71
    52
 72
    70
 73
    53
  0
VERTEX
  5
B12
  8
0
 62
     9
 10
0.0
 20
0.0
 30
0.0
 70
   128
 71
    43
 72
    29
 73
    71
  0
VERTEX
  5
B13
  8
0
 62
     9
 10
0.0
 20
0.0
 30
0.0
 70
   128
 71
    71
 72
    52
 73
    43
  0
VERTEX
  5
B14
  8
0
 62
     9
 10
0.0
 20
0.0
 30
0.0
 70
   128
 71
    48
 72
    67
 73
    50
  0
VERTEX
  5
B15
  8
0
 62
     9
 10
0.0
 20
0.0
 30
0.0
 70
   128
 71
    53
 72
    69
 73
    48
  0
VERTEX
  5
B16
  8
0
 62
     9
 10
0.0
 20
0.0
 30
0.0
 70
   128
 71
    59
 72
    54
 73
    68
  0
VERTEX
  5
B17
  8
0
 62
     9
 10
0.0
 20
0.0
 30
0.0
 70
   128
 71
    50
 72
    66
 73
    54
  0
VERTEX
  5
B18
  8
0
 62
     9
 10
0.0
 20
0.0
 30
0.0
 70
   128
 71
    63
 72
    59
 73
    68
  0
VERTEX
  5
B19
  8
0
 62
     9
 10
0.0
 20
0.0
 30
0.0
 70
   128
 71
    64
 72
    55
 73
    60
  0
VERTEX
  5
B1A
  8
0
 62
     9
 10
0.0
 20
0.0
 30
0.0
 70
   128
 71
    63
 72
    64
 73
    60
  0
VERTEX
  5
B1B
  8
0
 62
     9
 10
0.0
 20
0.0
 30
0.0
 70
   128
 71
    62
 72
    57
 73
    65
  0
VERTEX
  5
B1C
  8
0
 62
     9
 10
0.0
 20
0.0
 30
0.0
 70
   128
 71
    65
 72
    57
 73
    55
  0
VERTEX
  5
B1D
  8
0
 62
     9
 10
0.0
 20
0.0
 30
0.0
 70
   128
 71
    57
 72
    62
 73
    38
  0
VERTEX
  5
B1E
  8
0
 62
     9
 10
0.0
 20
0.0
 30
0.0
 70
   128
 71
    73
 72
    65
 73
    72
  0
VERTEX
  5
B1F
  8
0
 62
     9
 10
0.0
 20
0.0
 30
0.0
 70
   128
 71
    74
 72
    68
 73
    66
  0
VERTEX
  5
B20
  8
0
 62
     9
 10
0.0
 20
0.0
 30
0.0
 70
   128
 71
    76
 72
    72
 73
    75
  0
VERTEX
  5
B21
  8
0
 62
     9
 10
0.0
 20
0.0
 30
0.0
 70
   128
 71
    73
 72
    77
 73
    16
  0
VERTEX
  5
B22
  8
0
 62
     9
 10
0.0
 20
0.0
 30
0.0
 70
   128
 71
    78
 72
    67
 73
    69
  0
VERTEX
  5
B23
  8
0
 62
     9
 10
0.0
 20
0.0
 30
0.0
 70
   128
 71
    74
 72
    66
 73
    78
  0
VERTEX
  5
B24
  8
0
 62
     9
 10
0.0
 20
0.0
 30
0.0
 70
   128
 71
    81
 72
    80
 73
    79
  0
VERTEX
  5
B25
  8
0
 62
     9
 10
0.0
 20
0.0
 30
0.0
 70
   128
 71
    69
 72
    79
 73
    78
  0
VERTEX
  5
B26
  8
0
 62
     9
 10
0.0
 20
0.0
 30
0.0
 70
   128
 71
    29
 72
    81
 73
    71
  0
VERTEX
  5
B27
  8
0
 62
     9
 10
0.0
 20
0.0
 30
0.0
 70
   128
 71
    71
 72
    81
 73
    70
  0
VERTEX
  5
B28
  8
0
 62
     9
 10
0.0
 20
0.0
 30
0.0
 70
   128
 71
    70
 72
    81
 73
    79
  0
VERTEX
  5
B29
  8
0
 62
     9
 10
0.0
 20
0.0
 30
0.0
 70
   128
 71
     2
 72
    82
 73
    27
  0
VERTEX
  5
B2A
  8
0
 62
     9
 10
0.0
 20
0.0
 30
0.0
 70
   128
 71
    70
 72
    79
 73
    69
  0
VERTEX
  5
B2B
  8
0
 62
     9
 10
0.0
 20
0.0
 30
0.0
 70
   128
 71
    66
 72
    67
 73
    78
  0
VERTEX
  5
B2C
  8
0
 62
     9
 10
0.0
 20
0.0
 30
0.0
 70
   128
 71
    75
 72
    68
 73
    74
  0
VERTEX
  5
B2D
  8
0
 62
     9
 10
0.0
 20
0.0
 30
0.0
 70
   128
 71
    78
 72
    84
 73
    83
  0
VERTEX
  5
B2E
  8
0
 62
     9
 10
0.0
 20
0.0
 30
0.0
 70
   128
 71
    63
 72
    75
 73
    64
  0
VERTEX
  5
B2F
  8
0
 62
     9
 10
0.0
 20
0.0
 30
0.0
 70
   128
 71
    63
 72
    68
 73
    75
  0
VERTEX
  5
B30
  8
0
 62
     9
 10
0.0
 20
0.0
 30
0.0
 70
   128
 71
    64
 72
    75
 73
    72
  0
VERTEX
  5
B31
  8
0
 62
     9
 10
0.0
 20
0.0
 30
0.0
 70
   128
 71
    73
 72
    62
 73
    65
  0
VERTEX
  5
B32
  8
0
 62
     9
 10
0.0
 20
0.0
 30
0.0
 70
   128
 71
    77
 72
    73
 73
    72
  0
VERTEX
  5
B33
  8
0
 62
     9
 10
0.0
 20
0.0
 30
0.0
 70
   128
 71
    62
 72
    17
 73
    13
  0
VERTEX
  5
B34
  8
0
 62
     9
 10
0.0
 20
0.0
 30
0.0
 70
   128
 71
    72
 72
    85
 73
    77
  0
VERTEX
  5
B35
  8
0
 62
     9
 10
0.0
 20
0.0
 30
0.0
 70
   128
 71
    73
 72
    17
 73
    62
  0
VERTEX
  5
B36
  8
0
 62
     9
 10
0.0
 20
0.0
 30
0.0
 70
   128
 71
    17
 72
    73
 73
    16
  0
VERTEX
  5
B37
  8
0
 62
     9
 10
0.0
 20
0.0
 30
0.0
 70
   128
 71
    85
 72
    72
 73
    76
  0
VERTEX
  5
B38
  8
0
 62
     9
 10
0.0
 20
0.0
 30
0.0
 70
   128
 71
    72
 72
    65
 73
    64
  0
VERTEX
  5
B39
  8
0
 62
     9
 10
0.0
 20
0.0
 30
0.0
 70
   128
 71
    75
 72
    86
 73
    76
  0
VERTEX
  5
B3A
  8
0
 62
     9
 10
0.0
 20
0.0
 30
0.0
 70
   128
 71
    74
 72
    87
 73
    86
  0
VERTEX
  5
B3B
  8
0
 62
     9
 10
0.0
 20
0.0
 30
0.0
 70
   128
 71
    75
 72
    74
 73
    86
  0
VERTEX
  5
B3C
  8
0
 62
     9
 10
0.0
 20
0.0
 30
0.0
 70
   128
 71
    87
 72
    74
 73
    83
  0
VERTEX
  5
B3D
  8
0
 62
     9
 10
0.0
 20
0.0
 30
0.0
 70
   128
 71
    74
 72
    78
 73
    83
  0
VERTEX
  5
B3E
  8
0
 62
     9
 10
0.0
 20
0.0
 30
0.0
 70
   128
 71
    79
 72
    80
 73
    84
  0
VERTEX
  5
B3F
  8
0
 62
     9
 10
0.0
 20
0.0
 30
0.0
 70
   128
 71
    78
 72
    79
 73
    84
  0
VERTEX
  5
B40
  8
0
 62
     9
 10
0.0
 20
0.0
 30
0.0
 70
   128
 71
    81
 72
    82
 73
    80
  0
VERTEX
  5
B41
  8
0
 62
     9
 10
0.0
 20
0.0
 30
0.0
 70
   128
 71
    81
 72
    27
 73
    82
  0
VERTEX
  5
B42
  8
0
 62
     9
 10
0.0
 20
0.0
 30
0.0
 70
   128
 71
    27
 72
    81
 73
    29
  0
VERTEX
  5
B43
  8
0
 62
     9
 10
0.0
 20
0.0
 30
0.0
 70
   128
 71
    77
 72
    85
 73
    80
  0
VERTEX
  5
B44
  8
0
 62
     9
 10
0.0
 20
0.0
 30
0.0
 70
   128
 71
    18
 72
    31
 73
    32
  0
VERTEX
  5
B45
  8
0
 62
     9
 10
0.0
 20
0.0
 30
0.0
 70
   128
 71
    18
 72
    19
 73
    31
  0
VERTEX
  5
B46
  8
0
 62
     9
 10
0.0
 20
0.0
 30
0.0
 70
   128
 71
    25
 72
    31
 73
    19
  0
VERTEX
  5
B47
  8
0
 62
     9
 10
0.0
 20
0.0
 30
0.0
 70
   128
 71
    25
 72
    11
 73
    30
  0
VERTEX
  5
B48
  8
0
 62
     9
 10
0.0
 20
0.0
 30
0.0
 70
   128
 71
    11
 72
    25
 73
    19
  0
VERTEX
  5
B49
  8
0
 62
     9
 10
0.0
 20
0.0
 30
0.0
 70
   128
 71
    11
 72
    15
 73
     3
  0
VERTEX
  5
B4A
  8
0
 62
     9
 10
0.0
 20
0.0
 30
0.0
 70
   128
 71
     3
 72
    30
 73
    11
  0
VERTEX
  5
B4B
  8
0
 62
     9
 10
0.0
 20
0.0
 30
0.0
 70
   128
 71
    16
 72
     2
 73
    15
  0
VERTEX
  5
B4C
  8
0
 62
     9
 10
0.0
 20
0.0
 30
0.0
 70
   128
 71
     3
 72
    15
 73
     2
  0
VERTEX
  5
B4D
  8
0
 62
     9
 10
0.0
 20
0.0
 30
0.0
 70
   128
 71
    83
 72
    84
 73
    86
  0
VERTEX
  5
B4E
  8
0
 62
     9
 10
0.0
 20
0.0
 30
0.0
 70
   128
 71
    82
 72
     2
 73
    16
  0
VERTEX
  5
B4F
  8
0
 62
     9
 10
0.0
 20
0.0
 30
0.0
 70
   128
 71
    76
 72
    86
 73
    84
  0
VERTEX
  5
B50
  8
0
 62
     9
 10
0.0
 20
0.0
 30
0.0
 70
   128
 71
    83
 72
    86
 73
    87
  0
VERTEX
  5
B51
  8
0
 62
     9
 10
0.0
 20
0.0
 30
0.0
 70
   128
 71
    84
 72
    80
 73
    76
  0
VERTEX
  5
B52
  8
0
 62
     9
 10
0.0
 20
0.0
 30
0.0
 70
   128
 71
    80
 72
    82
 73
    77
  0
VERTEX
  5
B53
  8
0
 62
     9
 10
0.0
 20
0.0
 30
0.0
 70
   128
 71
    80
 72
    85
 73
    76
  0
VERTEX
  5
B54
  8
0
 62
     9
 10
0.0
 20
0.0
 30
0.0
 70
   128
 71
    16
 72
    77
 73
    82
  0
SEQEND
  5
B55
  8
0
 62
     9
  0
ENDBLK
  5
B58
  8
0
  0
BLOCK
  8
0
  2
48
 70
     0
 10
0.0
 20
0.0
 30
0.0
  3
48
  1

  0
POLYLINE
  5
B5A
  8
0
 62
     9
 66
     1
 10
0.0
 20
0.0
 30
0.0
 70
    64
 71
    24
 72
    24
  0
VERTEX
  5
B5B
  8
0
 10
0.503828227519989
 20
1.926017999649048
 30
90.0
 70
   192
  0
VERTEX
  5
B5C
  8
0
 10
1.414213538169861
 20
1.414208173751831
 30
8.807709693908691
 70
   192
  0
VERTEX
  5
B5D
  8
0
 10
1.414213538169861
 20
1.414208173751831
 30
90.0
 70
   192
  0
VERTEX
  5
B5E
  8
0
 10
0.5219682455062866
 20
1.928554177284241
 30
8.807709693908691
 70
   192
  0
VERTEX
  5
B5F
  8
0
 10
-0.5253525376319885
 20
1.920078992843628
 30
90.0
 70
   192
  0
VERTEX
  5
B60
  8
0
 10
-1.414213538169861
 20
1.414208173751831
 30
90.0
 70
   192
  0
VERTEX
  5
B61
  8
0
 10
-0.5120480060577393
 20
1.940383791923523
 30
8.807709693908691
 70
   192
  0
VERTEX
  5
B62
  8
0
 10
-1.414213538169861
 20
1.414208173751831
 30
8.807709693908691
 70
   192
  0
VERTEX
  5
B63
  8
0
 10
1.926023364067078
 20
0.5038228631019592
 30
8.807709693908691
 70
   192
  0
VERTEX
  5
B64
  8
0
 10
1.920084357261658
 20
-0.5253579020500183
 30
8.807709693908691
 70
   192
  0
VERTEX
  5
B65
  8
0
 10
1.928559541702271
 20
0.5219628810882568
 30
90.0
 70
   192
  0
VERTEX
  5
B66
  8
0
 10
1.414213538169861
 20
-1.414218902587891
 30
8.807709693908691
 70
   192
  0
VERTEX
  5
B67
  8
0
 10
1.940389156341553
 20
-0.512053370475769
 30
90.0
 70
   192
  0
VERTEX
  5
B68
  8
0
 10
1.414213538169861
 20
-1.414218902587891
 30
90.0
 70
   192
  0
VERTEX
  5
B69
  8
0
 10
-1.940389156341553
 20
0.5120426416397095
 30
90.0
 70
   192
  0
VERTEX
  5
B6A
  8
0
 10
-1.920084357261658
 20
0.5253471732139587
 30
8.807709693908691
 70
   192
  0
VERTEX
  5
B6B
  8
0
 10
-0.5219682455062866
 20
-1.9285649061203
 30
8.807709693908691
 70
   192
  0
VERTEX
  5
B6C
  8
0
 10
-1.414213538169861
 20
-1.414218902587891
 30
8.807709693908691
 70
   192
  0
VERTEX
  5
B6D
  8
0
 10
-0.503828227519989
 20
-1.926028728485107
 30
90.0
 70
   192
  0
VERTEX
  5
B6E
  8
0
 10
-1.926023364067078
 20
-0.5038335919380188
 30
8.807709693908691
 70
   192
  0
VERTEX
  5
B6F
  8
0
 10
-1.928559541702271
 20
-0.5219736099243164
 30
90.0
 70
   192
  0
VERTEX
  5
B70
  8
0
 10
-1.414213538169861
 20
-1.414218902587891
 30
90.0
 70
   192
  0
VERTEX
  5
B71
  8
0
 10
0.5120480060577393
 20
-1.940394520759583
 30
8.807709693908691
 70
   192
  0
VERTEX
  5
B72
  8
0
 10
0.5253525376319885
 20
-1.920089721679688
 30
90.0
 70
   192
  0
VERTEX
  5
B73
  8
0
 62
     9
 10
0.0
 20
0.0
 30
0.0
 70
   128
 71
     3
 72
     2
 73
     1
  0
VERTEX
  5
B74
  8
0
 62
     9
 10
0.0
 20
0.0
 30
0.0
 70
   128
 71
     5
 72
     1
 73
     4
  0
VERTEX
  5
B75
  8
0
 62
     9
 10
0.0
 20
0.0
 30
0.0
 70
   128
 71
     2
 72
     4
 73
     1
  0
VERTEX
  5
B76
  8
0
 62
     9
 10
0.0
 20
0.0
 30
0.0
 70
   128
 71
     7
 72
     6
 73
     5
  0
VERTEX
  5
B77
  8
0
 62
     9
 10
0.0
 20
0.0
 30
0.0
 70
   128
 71
     5
 72
     4
 73
     7
  0
VERTEX
  5
B78
  8
0
 62
     9
 10
0.0
 20
0.0
 30
0.0
 70
   128
 71
     8
 72
     6
 73
     7
  0
VERTEX
  5
B79
  8
0
 62
     9
 10
0.0
 20
0.0
 30
0.0
 70
   128
 71
     9
 72
     2
 73
     3
  0
VERTEX
  5
B7A
  8
0
 62
     9
 10
0.0
 20
0.0
 30
0.0
 70
   128
 71
    11
 72
    10
 73
     9
  0
VERTEX
  5
B7B
  8
0
 62
     9
 10
0.0
 20
0.0
 30
0.0
 70
   128
 71
     9
 72
     3
 73
    11
  0
VERTEX
  5
B7C
  8
0
 62
     9
 10
0.0
 20
0.0
 30
0.0
 70
   128
 71
    10
 72
    13
 73
    12
  0
VERTEX
  5
B7D
  8
0
 62
     9
 10
0.0
 20
0.0
 30
0.0
 70
   128
 71
    13
 72
    10
 73
    11
  0
VERTEX
  5
B7E
  8
0
 62
     9
 10
0.0
 20
0.0
 30
0.0
 70
   128
 71
    13
 72
    14
 73
    12
  0
VERTEX
  5
B7F
  8
0
 62
     9
 10
0.0
 20
0.0
 30
0.0
 70
   128
 71
     8
 72
    16
 73
    15
  0
VERTEX
  5
B80
  8
0
 62
     9
 10
0.0
 20
0.0
 30
0.0
 70
   128
 71
    19
 72
    18
 73
    17
  0
VERTEX
  5
B81
  8
0
 62
     9
 10
0.0
 20
0.0
 30
0.0
 70
   128
 71
    22
 72
    21
 73
    20
  0
VERTEX
  5
B82
  8
0
 62
     9
 10
0.0
 20
0.0
 30
0.0
 70
   128
 71
    14
 72
    24
 73
    23
  0
VERTEX
  5
B83
  8
0
 62
     9
 10
0.0
 20
0.0
 30
0.0
 70
   128
 71
    17
 72
    23
 73
    24
  0
VERTEX
  5
B84
  8
0
 62
     9
 10
0.0
 20
0.0
 30
0.0
 70
   128
 71
    14
 72
    23
 73
    12
  0
VERTEX
  5
B85
  8
0
 62
     9
 10
0.0
 20
0.0
 30
0.0
 70
   128
 71
    18
 72
    19
 73
    22
  0
VERTEX
  5
B86
  8
0
 62
     9
 10
0.0
 20
0.0
 30
0.0
 70
   128
 71
    19
 72
    17
 73
    24
  0
VERTEX
  5
B87
  8
0
 62
     9
 10
0.0
 20
0.0
 30
0.0
 70
   128
 71
    21
 72
    16
 73
    20
  0
VERTEX
  5
B88
  8
0
 62
     9
 10
0.0
 20
0.0
 30
0.0
 70
   128
 71
    22
 72
    20
 73
    18
  0
VERTEX
  5
B89
  8
0
 62
     9
 10
0.0
 20
0.0
 30
0.0
 70
   128
 71
    15
 72
     6
 73
     8
  0
VERTEX
  5
B8A
  8
0
 62
     9
 10
0.0
 20
0.0
 30
0.0
 70
   128
 71
    21
 72
    15
 73
    16
  0
SEQEND
  5
B8B
  8
0
 62
     9
  0
ENDBLK
  5
B8E
  8
0
  0
BLOCK
  8
0
  2
C-SPOUT_
 70
     0
 10
0.0
 20
0.0
 30
0.0
  3
C-SPOUT_
  1

  0
POLYLINE
  5
B90
  8
0
 62
     9
 66
     1
 10
0.0
 20
0.0
 30
0.0
 70
    64
 71
    90
 72
   176
  0
VERTEX
  5
B91
  8
0
 10
125.9397811889648
 20
-15.84865474700928
 30
100.2621002197266
 70
   192
  0
VERTEX
  5
B92
  8
0
 10
129.5699462890625
 20
-0.0273333080112934
 30
100.793083190918
 70
   192
  0
VERTEX
  5
B93
  8
0
 10
111.9655685424805
 20
-0.0000000000015388
 30
109.7550659179688
 70
   192
  0
VERTEX
  5
B94
  8
0
 10
51.56021118164062
 20
15.01371383666992
 30
110.9121017456055
 70
   192
  0
VERTEX
  5
B95
  8
0
 10
33.71409225463867
 20
-0.0000000000001661
 30
105.4661483764648
 70
   192
  0
VERTEX
  5
B96
  8
0
 10
51.32536697387695
 20
-0.0000000000001377
 30
112.7857818603516
 70
   192
  0
VERTEX
  5
B97
  8
0
 10
19.73326301574707
 20
-14.92181587219238
 30
93.002685546875
 70
   192
  0
VERTEX
  5
B98
  8
0
 10
34.89134216308594
 20
-15.02517986297607
 30
103.8346176147461
 70
   192
  0
VERTEX
  5
B99
  8
0
 10
18.57214736938477
 20
-4.97393798828125
 30
94.33247375488281
 70
   192
  0
VERTEX
  5
B9A
  8
0
 10
18.57214736938477
 20
4.973939418792725
 30
94.33247375488281
 70
   192
  0
VERTEX
  5
B9B
  8
0
 10
51.52011108398438
 20
-15.008469581604
 30
110.9077682495117
 70
   192
  0
VERTEX
  5
B9C
  8
0
 10
34.92369842529297
 20
15.02952003479004
 30
103.8377227783203
 70
   192
  0
VERTEX
  5
B9D
  8
0
 10
19.73326301574707
 20
14.92181587219238
 30
93.002685546875
 70
   192
  0
VERTEX
  5
B9E
  8
0
 10
70.09732818603516
 20
-14.97401142120361
 30
114.194938659668
 70
   192
  0
VERTEX
  5
B9F
  8
0
 10
71.18472290039062
 20
-0.0000000000004046
 30
116.3055725097656
 70
   192
  0
VERTEX
  5
BA0
  8
0
 10
92.1949691772461
 20
-0.0000000000009597
 30
115.6047515869141
 70
   192
  0
VERTEX
  5
BA1
  8
0
 10
89.85362243652344
 20
-15.04068183898926
 30
113.4752960205078
 70
   192
  0
VERTEX
  5
BA2
  8
0
 10
108.5653839111328
 20
-15.34500885009766
 30
108.4067077636719
 70
   192
  0
VERTEX
  5
BA3
  8
0
 10
125.9931030273438
 20
15.85040092468262
 30
100.2340316772461
 70
   192
  0
VERTEX
  5
BA4
  8
0
 10
108.6445083618164
 20
15.34019756317139
 30
108.489143371582
 70
   192
  0
VERTEX
  5
BA5
  8
0
 10
89.81908416748047
 20
15.04465198516846
 30
113.4767608642578
 70
   192
  0
VERTEX
  5
BA6
  8
0
 10
70.12789154052734
 20
14.97399997711182
 30
114.1970672607422
 70
   192
  0
VERTEX
  5
BA7
  8
0
 10
116.6946487426758
 20
16.04389953613281
 30
96.19084167480469
 70
   192
  0
VERTEX
  5
BA8
  8
0
 10
98.08414459228516
 20
15.90282440185547
 30
102.7265930175781
 70
   192
  0
VERTEX
  5
BA9
  8
0
 10
47.78141021728516
 20
-18.40153503417969
 30
97.98900604248047
 70
   192
  0
VERTEX
  5
BAA
  8
0
 10
34.09793853759766
 20
-18.56370735168457
 30
76.55126190185547
 70
   192
  0
VERTEX
  5
BAB
  8
0
 10
52.76226425170898
 20
-14.73884296417236
 30
88.37461853027344
 70
   192
  0
VERTEX
  5
BAC
  8
0
 10
107.6532440185547
 20
12.8994140625
 30
93.21736145019531
 70
   192
  0
VERTEX
  5
BAD
  8
0
 10
74.92289733886719
 20
4.984221935272217
 30
90.83438110351562
 70
   192
  0
VERTEX
  5
BAE
  8
0
 10
96.55538940429688
 20
11.963547706604
 30
95.05433654785156
 70
   192
  0
VERTEX
  5
BAF
  8
0
 10
98.99555969238281
 20
7.953114986419678
 30
91.19735717773438
 70
   192
  0
VERTEX
  5
BB0
  8
0
 10
72.18195343017578
 20
16.76490783691406
 30
104.9012680053711
 70
   192
  0
VERTEX
  5
BB1
  8
0
 10
26.5584831237793
 20
20.00155639648438
 30
85.18596649169922
 70
   192
  0
VERTEX
  5
BB2
  8
0
 10
47.70101165771484
 20
18.43728446960449
 30
98.145263671875
 70
   192
  0
VERTEX
  5
BB3
  8
0
 10
73.88764190673828
 20
13.03217315673828
 30
96.13377380371094
 70
   192
  0
VERTEX
  5
BB4
  8
0
 10
52.6622428894043
 20
14.94147491455078
 30
88.56937408447266
 70
   192
  0
VERTEX
  5
BB5
  8
0
 10
55.74615859985352
 20
5.829483985900879
 30
82.60640716552734
 70
   192
  0
VERTEX
  5
BB6
  8
0
 10
39.88674545288086
 20
11.07846927642822
 30
69.92151641845703
 70
   192
  0
VERTEX
  5
BB7
  8
0
 10
93.11861419677734
 20
0.0260982699692249
 30
90.46550750732422
 70
   192
  0
VERTEX
  5
BB8
  8
0
 10
74.93620300292969
 20
-4.7240309715271
 30
90.7677001953125
 70
   192
  0
VERTEX
  5
BB9
  8
0
 10
42.04696273803711
 20
0.0000323223612213
 30
67.4474868774414
 70
   192
  0
VERTEX
  5
BBA
  8
0
 10
55.79046630859375
 20
-5.485783100128174
 30
82.52005767822266
 70
   192
  0
VERTEX
  5
BBB
  8
0
 10
72.2069320678711
 20
-16.72661209106445
 30
104.7751693725586
 70
   192
  0
VERTEX
  5
BBC
  8
0
 10
98.06459045410156
 20
-15.86427116394043
 30
102.6278381347656
 70
   192
  0
VERTEX
  5
BBD
  8
0
 10
39.88669967651367
 20
-11.07857704162598
 30
69.92156982421875
 70
   192
  0
VERTEX
  5
BBE
  8
0
 10
116.7008285522461
 20
-16.08350944519043
 30
96.26068878173828
 70
   192
  0
VERTEX
  5
BBF
  8
0
 10
96.53231811523438
 20
-11.82860374450684
 30
94.93768310546875
 70
   192
  0
VERTEX
  5
BC0
  8
0
 10
26.55838012695312
 20
-20.00152969360352
 30
85.18608856201172
 70
   192
  0
VERTEX
  5
BC1
  8
0
 10
73.9179916381836
 20
-12.87113857269287
 30
95.98133850097656
 70
   192
  0
VERTEX
  5
BC2
  8
0
 10
34.09799575805664
 20
18.56367111206055
 30
76.55119323730469
 70
   192
  0
VERTEX
  5
BC3
  8
0
 10
99.16373443603516
 20
-7.829765319824219
 30
91.21676635742188
 70
   192
  0
VERTEX
  5
BC4
  8
0
 10
107.5307464599609
 20
-13.1982479095459
 30
93.14976501464844
 70
   192
  0
VERTEX
  5
BC5
  8
0
 10
112.0462036132812
 20
-0.0240504909306765
 30
93.37796020507812
 70
   192
  0
VERTEX
  5
BC6
  8
0
 10
22.69523811340332
 20
14.42750263214111
 30
0.0
 70
   192
  0
VERTEX
  5
BC7
  8
0
 10
-24.05171394348145
 20
7.541484355926514
 30
0.0
 70
   192
  0
VERTEX
  5
BC8
  8
0
 10
11.4399356842041
 20
24.37322235107422
 30
0.0
 70
   192
  0
VERTEX
  5
BC9
  8
0
 10
-3.394497632980347
 20
26.71961212158203
 30
0.0
 70
   192
  0
VERTEX
  5
BCA
  8
0
 10
-17.16515159606934
 20
20.72454643249512
 30
0.0
 70
   192
  0
VERTEX
  5
BCB
  8
0
 10
-24.07959938049316
 20
-7.383146286010742
 30
0.0
 70
   192
  0
VERTEX
  5
BCC
  8
0
 10
26.87621116638184
 20
0.0000136091912282
 30
0.0
 70
   192
  0
VERTEX
  5
BCD
  8
0
 10
22.69522094726562
 20
-14.42755508422852
 30
0.0
 70
   192
  0
VERTEX
  5
BCE
  8
0
 10
11.43988132476807
 20
-24.37323570251465
 30
0.0
 70
   192
  0
VERTEX
  5
BCF
  8
0
 10
-3.394464731216431
 20
-26.7196159362793
 30
0.0
 70
   192
  0
VERTEX
  5
BD0
  8
0
 10
-17.16515731811523
 20
-20.72454071044922
 30
0.0
 70
   192
  0
VERTEX
  5
BD1
  8
0
 10
-18.53682327270508
 20
6.346211910247803
 30
24.44894981384277
 70
   192
  0
VERTEX
  5
BD2
  8
0
 10
-11.23902893066406
 20
-5.543205738067627
 30
48.61111450195312
 70
   192
  0
VERTEX
  5
BD3
  8
0
 10
0.7254311442375183
 20
-5.035524368286133
 30
73.13983917236328
 70
   192
  0
VERTEX
  5
BD4
  8
0
 10
0.7241784334182739
 20
5.022369861602783
 30
73.14032745361328
 70
   192
  0
VERTEX
  5
BD5
  8
0
 10
-11.24715900421143
 20
5.458163738250732
 30
48.6142463684082
 70
   192
  0
VERTEX
  5
BD6
  8
0
 10
-7.921637535095215
 20
15.95952701568604
 30
50.34594345092773
 70
   192
  0
VERTEX
  5
BD7
  8
0
 10
2.956431865692139
 20
-14.94439315795898
 30
73.57734680175781
 70
   192
  0
VERTEX
  5
BD8
  8
0
 10
2.839272975921631
 20
14.90835952758789
 30
73.56990814208984
 70
   192
  0
VERTEX
  5
BD9
  8
0
 10
-13.82224464416504
 20
18.06198310852051
 30
25.38223648071289
 70
   192
  0
VERTEX
  5
BDA
  8
0
 10
-13.63388633728027
 20
-18.10155296325684
 30
25.35777854919434
 70
   192
  0
VERTEX
  5
BDB
  8
0
 10
-18.52988243103027
 20
-6.418839454650879
 30
24.44627571105957
 70
   192
  0
VERTEX
  5
BDC
  8
0
 10
-8.071006774902344
 20
-15.93025493621826
 30
50.39700698852539
 70
   192
  0
VERTEX
  5
BDD
  8
0
 10
19.18636512756348
 20
-20.72795677185059
 30
53.61231994628906
 70
   192
  0
VERTEX
  5
BDE
  8
0
 10
7.613637447357178
 20
-21.70666313171387
 30
59.22608947753906
 70
   192
  0
VERTEX
  5
BDF
  8
0
 10
13.47007465362549
 20
-22.54159355163574
 30
28.03119850158691
 70
   192
  0
VERTEX
  5
BE0
  8
0
 10
-0.3469960987567902
 20
-23.99827003479004
 30
30.1412296295166
 70
   192
  0
VERTEX
  5
BE1
  8
0
 10
28.28048896789551
 20
-12.55567932128906
 30
49.20185470581055
 70
   192
  0
VERTEX
  5
BE2
  8
0
 10
24.19120979309082
 20
-13.532958984375
 30
26.40039253234863
 70
   192
  0
VERTEX
  5
BE3
  8
0
 10
24.31242179870605
 20
13.37921619415283
 30
26.38699722290039
 70
   192
  0
VERTEX
  5
BE4
  8
0
 10
28.23661422729492
 20
0.0018756991485134
 30
25.79303550720215
 70
   192
  0
VERTEX
  5
BE5
  8
0
 10
31.73541641235352
 20
-0.0010343206813559
 30
47.52474975585938
 70
   192
  0
VERTEX
  5
BE6
  8
0
 10
28.39570045471191
 20
12.39568424224854
 30
49.14501953125
 70
   192
  0
VERTEX
  5
BE7
  8
0
 10
13.72380352020264
 20
22.42392539978027
 30
28.00010108947754
 70
   192
  0
VERTEX
  5
BE8
  8
0
 10
19.42705345153809
 20
20.61399459838867
 30
53.49440765380859
 70
   192
  0
VERTEX
  5
BE9
  8
0
 10
-0.1520090252161026
 20
24.00702095031738
 30
30.11978912353516
 70
   192
  0
VERTEX
  5
BEA
  8
0
 10
7.798849582672119
 20
21.7282600402832
 30
59.13474273681641
 70
   192
  0
VERTEX
  5
BEB
  8
0
 62
     9
 10
0.0
 20
0.0
 30
0.0
 70
   128
 71
     3
 72
     2
 73
     1
  0
VERTEX
  5
BEC
  8
0
 62
     9
 10
0.0
 20
0.0
 30
0.0
 70
   128
 71
     6
 72
     5
 73
     4
  0
VERTEX
  5
BED
  8
0
 62
     9
 10
0.0
 20
0.0
 30
0.0
 70
   128
 71
     9
 72
     8
 73
     7
  0
VERTEX
  5
BEE
  8
0
 62
     9
 10
0.0
 20
0.0
 30
0.0
 70
   128
 71
     5
 72
     9
 73
    10
  0
VERTEX
  5
BEF
  8
0
 62
     9
 10
0.0
 20
0.0
 30
0.0
 70
   128
 71
     5
 72
     6
 73
    11
  0
VERTEX
  5
BF0
  8
0
 62
     9
 10
0.0
 20
0.0
 30
0.0
 70
   128
 71
    10
 72
    13
 73
    12
  0
VERTEX
  5
BF1
  8
0
 62
     9
 10
0.0
 20
0.0
 30
0.0
 70
   128
 71
     8
 72
     5
 73
    11
  0
VERTEX
  5
BF2
  8
0
 62
     9
 10
0.0
 20
0.0
 30
0.0
 70
   128
 71
     6
 72
    15
 73
    14
  0
VERTEX
  5
BF3
  8
0
 62
     9
 10
0.0
 20
0.0
 30
0.0
 70
   128
 71
    11
 72
     6
 73
    14
  0
VERTEX
  5
BF4
  8
0
 62
     9
 10
0.0
 20
0.0
 30
0.0
 70
   128
 71
    17
 72
    15
 73
    16
  0
VERTEX
  5
BF5
  8
0
 62
     9
 10
0.0
 20
0.0
 30
0.0
 70
   128
 71
    15
 72
    17
 73
    14
  0
VERTEX
  5
BF6
  8
0
 62
     9
 10
0.0
 20
0.0
 30
0.0
 70
   128
 71
    16
 72
     3
 73
    18
  0
VERTEX
  5
BF7
  8
0
 62
     9
 10
0.0
 20
0.0
 30
0.0
 70
   128
 71
    18
 72
    17
 73
    16
  0
VERTEX
  5
BF8
  8
0
 62
     9
 10
0.0
 20
0.0
 30
0.0
 70
   128
 71
     3
 72
    19
 73
     2
  0
VERTEX
  5
BF9
  8
0
 62
     9
 10
0.0
 20
0.0
 30
0.0
 70
   128
 71
     3
 72
    20
 73
    19
  0
VERTEX
  5
BFA
  8
0
 62
     9
 10
0.0
 20
0.0
 30
0.0
 70
   128
 71
    16
 72
    21
 73
    20
  0
VERTEX
  5
BFB
  8
0
 62
     9
 10
0.0
 20
0.0
 30
0.0
 70
   128
 71
    18
 72
     3
 73
     1
  0
VERTEX
  5
BFC
  8
0
 62
     9
 10
0.0
 20
0.0
 30
0.0
 70
   128
 71
     3
 72
    16
 73
    20
  0
VERTEX
  5
BFD
  8
0
 62
     9
 10
0.0
 20
0.0
 30
0.0
 70
   128
 71
    15
 72
    22
 73
    21
  0
VERTEX
  5
BFE
  8
0
 62
     9
 10
0.0
 20
0.0
 30
0.0
 70
   128
 71
    16
 72
    15
 73
    21
  0
VERTEX
  5
BFF
  8
0
 62
     9
 10
0.0
 20
0.0
 30
0.0
 70
   128
 71
     6
 72
     4
 73
    22
  0
VERTEX
  5
C00
  8
0
 62
     9
 10
0.0
 20
0.0
 30
0.0
 70
   128
 71
    15
 72
     6
 73
    22
  0
VERTEX
  5
C01
  8
0
 62
     9
 10
0.0
 20
0.0
 30
0.0
 70
   128
 71
     5
 72
    12
 73
     4
  0
VERTEX
  5
C02
  8
0
 62
     9
 10
0.0
 20
0.0
 30
0.0
 70
   128
 71
    12
 72
     5
 73
    10
  0
VERTEX
  5
C03
  8
0
 62
     9
 10
0.0
 20
0.0
 30
0.0
 70
   128
 71
     5
 72
     8
 73
     9
  0
VERTEX
  5
C04
  8
0
 62
     9
 10
0.0
 20
0.0
 30
0.0
 70
   128
 71
    24
 72
    23
 73
    20
  0
VERTEX
  5
C05
  8
0
 62
     9
 10
0.0
 20
0.0
 30
0.0
 70
   128
 71
    27
 72
    26
 73
    25
  0
VERTEX
  5
C06
  8
0
 62
     9
 10
0.0
 20
0.0
 30
0.0
 70
   128
 71
    28
 72
    23
 73
    24
  0
VERTEX
  5
C07
  8
0
 62
     9
 10
0.0
 20
0.0
 30
0.0
 70
   128
 71
    31
 72
    30
 73
    29
  0
VERTEX
  5
C08
  8
0
 62
     9
 10
0.0
 20
0.0
 30
0.0
 70
   128
 71
    21
 72
    22
 73
    32
  0
VERTEX
  5
C09
  8
0
 62
     9
 10
0.0
 20
0.0
 30
0.0
 70
   128
 71
    28
 72
    30
 73
    31
  0
VERTEX
  5
C0A
  8
0
 62
     9
 10
0.0
 20
0.0
 30
0.0
 70
   128
 71
    12
 72
    13
 73
    33
  0
VERTEX
  5
C0B
  8
0
 62
     9
 10
0.0
 20
0.0
 30
0.0
 70
   128
 71
    32
 72
     4
 73
    34
  0
VERTEX
  5
C0C
  8
0
 62
     9
 10
0.0
 20
0.0
 30
0.0
 70
   128
 71
    34
 72
     4
 73
    12
  0
VERTEX
  5
C0D
  8
0
 62
     9
 10
0.0
 20
0.0
 30
0.0
 70
   128
 71
    20
 72
    23
 73
    19
  0
VERTEX
  5
C0E
  8
0
 62
     9
 10
0.0
 20
0.0
 30
0.0
 70
   128
 71
    35
 72
    29
 73
    30
  0
VERTEX
  5
C0F
  8
0
 62
     9
 10
0.0
 20
0.0
 30
0.0
 70
   128
 71
    34
 72
    36
 73
    32
  0
VERTEX
  5
C10
  8
0
 62
     9
 10
0.0
 20
0.0
 30
0.0
 70
   128
 71
    36
 72
    38
 73
    37
  0
VERTEX
  5
C11
  8
0
 62
     9
 10
0.0
 20
0.0
 30
0.0
 70
   128
 71
    29
 72
    40
 73
    39
  0
VERTEX
  5
C12
  8
0
 62
     9
 10
0.0
 20
0.0
 30
0.0
 70
   128
 71
    42
 72
    37
 73
    41
  0
VERTEX
  5
C13
  8
0
 62
     9
 10
0.0
 20
0.0
 30
0.0
 70
   128
 71
    44
 72
    43
 73
    17
  0
VERTEX
  5
C14
  8
0
 62
     9
 10
0.0
 20
0.0
 30
0.0
 70
   128
 71
    27
 72
    42
 73
    45
  0
VERTEX
  5
C15
  8
0
 62
     9
 10
0.0
 20
0.0
 30
0.0
 70
   128
 71
    44
 72
    17
 73
    18
  0
VERTEX
  5
C16
  8
0
 62
     9
 10
0.0
 20
0.0
 30
0.0
 70
   128
 71
     8
 72
    11
 73
    25
  0
VERTEX
  5
C17
  8
0
 62
     9
 10
0.0
 20
0.0
 30
0.0
 70
   128
 71
    46
 72
    44
 73
    18
  0
VERTEX
  5
C18
  8
0
 62
     9
 10
0.0
 20
0.0
 30
0.0
 70
   128
 71
    18
 72
     1
 73
    46
  0
VERTEX
  5
C19
  8
0
 62
     9
 10
0.0
 20
0.0
 30
0.0
 70
   128
 71
    47
 72
    43
 73
    44
  0
VERTEX
  5
C1A
  8
0
 62
     9
 10
0.0
 20
0.0
 30
0.0
 70
   128
 71
     8
 72
    25
 73
    48
  0
VERTEX
  5
C1B
  8
0
 62
     9
 10
0.0
 20
0.0
 30
0.0
 70
   128
 71
     8
 72
    48
 73
     7
  0
VERTEX
  5
C1C
  8
0
 62
     9
 10
0.0
 20
0.0
 30
0.0
 70
   128
 71
    49
 72
    27
 73
    25
  0
VERTEX
  5
C1D
  8
0
 62
     9
 10
0.0
 20
0.0
 30
0.0
 70
   128
 71
    32
 72
    24
 73
    21
  0
VERTEX
  5
C1E
  8
0
 62
     9
 10
0.0
 20
0.0
 30
0.0
 70
   128
 71
    20
 72
    21
 73
    24
  0
VERTEX
  5
C1F
  8
0
 62
     9
 10
0.0
 20
0.0
 30
0.0
 70
   128
 71
    12
 72
    33
 73
    34
  0
VERTEX
  5
C20
  8
0
 62
     9
 10
0.0
 20
0.0
 30
0.0
 70
   128
 71
     4
 72
    32
 73
    22
  0
VERTEX
  5
C21
  8
0
 62
     9
 10
0.0
 20
0.0
 30
0.0
 70
   128
 71
    36
 72
    35
 73
    32
  0
VERTEX
  5
C22
  8
0
 62
     9
 10
0.0
 20
0.0
 30
0.0
 70
   128
 71
    34
 72
    33
 73
    50
  0
VERTEX
  5
C23
  8
0
 62
     9
 10
0.0
 20
0.0
 30
0.0
 70
   128
 71
    35
 72
    30
 73
    24
  0
VERTEX
  5
C24
  8
0
 62
     9
 10
0.0
 20
0.0
 30
0.0
 70
   128
 71
    24
 72
    30
 73
    28
  0
VERTEX
  5
C25
  8
0
 62
     9
 10
0.0
 20
0.0
 30
0.0
 70
   128
 71
    34
 72
    50
 73
    36
  0
VERTEX
  5
C26
  8
0
 62
     9
 10
0.0
 20
0.0
 30
0.0
 70
   128
 71
    32
 72
    35
 73
    24
  0
VERTEX
  5
C27
  8
0
 62
     9
 10
0.0
 20
0.0
 30
0.0
 70
   128
 71
    37
 72
    29
 73
    35
  0
VERTEX
  5
C28
  8
0
 62
     9
 10
0.0
 20
0.0
 30
0.0
 70
   128
 71
    36
 72
    50
 73
    38
  0
VERTEX
  5
C29
  8
0
 62
     9
 10
0.0
 20
0.0
 30
0.0
 70
   128
 71
    29
 72
    39
 73
    31
  0
VERTEX
  5
C2A
  8
0
 62
     9
 10
0.0
 20
0.0
 30
0.0
 70
   128
 71
    52
 72
    51
 73
    47
  0
VERTEX
  5
C2B
  8
0
 62
     9
 10
0.0
 20
0.0
 30
0.0
 70
   128
 71
    36
 72
    37
 73
    35
  0
VERTEX
  5
C2C
  8
0
 62
     9
 10
0.0
 20
0.0
 30
0.0
 70
   128
 71
    42
 72
    40
 73
    29
  0
VERTEX
  5
C2D
  8
0
 62
     9
 10
0.0
 20
0.0
 30
0.0
 70
   128
 71
    41
 72
    37
 73
    38
  0
VERTEX
  5
C2E
  8
0
 62
     9
 10
0.0
 20
0.0
 30
0.0
 70
   128
 71
    40
 72
    51
 73
    39
  0
VERTEX
  5
C2F
  8
0
 62
     9
 10
0.0
 20
0.0
 30
0.0
 70
   128
 71
    37
 72
    42
 73
    29
  0
VERTEX
  5
C30
  8
0
 62
     9
 10
0.0
 20
0.0
 30
0.0
 70
   128
 71
    27
 72
    49
 73
    40
  0
VERTEX
  5
C31
  8
0
 62
     9
 10
0.0
 20
0.0
 30
0.0
 70
   128
 71
    45
 72
    42
 73
    41
  0
VERTEX
  5
C32
  8
0
 62
     9
 10
0.0
 20
0.0
 30
0.0
 70
   128
 71
    51
 72
    49
 73
    47
  0
VERTEX
  5
C33
  8
0
 62
     9
 10
0.0
 20
0.0
 30
0.0
 70
   128
 71
    43
 72
    14
 73
    17
  0
VERTEX
  5
C34
  8
0
 62
     9
 10
0.0
 20
0.0
 30
0.0
 70
   128
 71
    42
 72
    27
 73
    40
  0
VERTEX
  5
C35
  8
0
 62
     9
 10
0.0
 20
0.0
 30
0.0
 70
   128
 71
    40
 72
    49
 73
    51
  0
VERTEX
  5
C36
  8
0
 62
     9
 10
0.0
 20
0.0
 30
0.0
 70
   128
 71
    49
 72
    25
 73
    43
  0
VERTEX
  5
C37
  8
0
 62
     9
 10
0.0
 20
0.0
 30
0.0
 70
   128
 71
    26
 72
    27
 73
    45
  0
VERTEX
  5
C38
  8
0
 62
     9
 10
0.0
 20
0.0
 30
0.0
 70
   128
 71
    44
 72
    52
 73
    47
  0
VERTEX
  5
C39
  8
0
 62
     9
 10
0.0
 20
0.0
 30
0.0
 70
   128
 71
    52
 72
    44
 73
    46
  0
VERTEX
  5
C3A
  8
0
 62
     9
 10
0.0
 20
0.0
 30
0.0
 70
   128
 71
    14
 72
    43
 73
    11
  0
VERTEX
  5
C3B
  8
0
 62
     9
 10
0.0
 20
0.0
 30
0.0
 70
   128
 71
    49
 72
    43
 73
    47
  0
VERTEX
  5
C3C
  8
0
 62
     9
 10
0.0
 20
0.0
 30
0.0
 70
   128
 71
    11
 72
    43
 73
    25
  0
VERTEX
  5
C3D
  8
0
 62
     9
 10
0.0
 20
0.0
 30
0.0
 70
   128
 71
    48
 72
    25
 73
    26
  0
VERTEX
  5
C3E
  8
0
 62
     9
 10
0.0
 20
0.0
 30
0.0
 70
   128
 71
    53
 72
    39
 73
    51
  0
VERTEX
  5
C3F
  8
0
 62
     9
 10
0.0
 20
0.0
 30
0.0
 70
   128
 71
    53
 72
    28
 73
    31
  0
VERTEX
  5
C40
  8
0
 62
     9
 10
0.0
 20
0.0
 30
0.0
 70
   128
 71
    31
 72
    39
 73
    53
  0
VERTEX
  5
C41
  8
0
 62
     9
 10
0.0
 20
0.0
 30
0.0
 70
   128
 71
    53
 72
    46
 73
     2
  0
VERTEX
  5
C42
  8
0
 62
     9
 10
0.0
 20
0.0
 30
0.0
 70
   128
 71
    23
 72
    53
 73
     2
  0
VERTEX
  5
C43
  8
0
 62
     9
 10
0.0
 20
0.0
 30
0.0
 70
   128
 71
    23
 72
     2
 73
    19
  0
VERTEX
  5
C44
  8
0
 62
     9
 10
0.0
 20
0.0
 30
0.0
 70
   128
 71
     2
 72
    46
 73
     1
  0
VERTEX
  5
C45
  8
0
 62
     9
 10
0.0
 20
0.0
 30
0.0
 70
   128
 71
    52
 72
    46
 73
    53
  0
VERTEX
  5
C46
  8
0
 62
     9
 10
0.0
 20
0.0
 30
0.0
 70
   128
 71
    52
 72
    53
 73
    51
  0
VERTEX
  5
C47
  8
0
 62
     9
 10
0.0
 20
0.0
 30
0.0
 70
   128
 71
    28
 72
    53
 73
    23
  0
VERTEX
  5
C48
  8
0
 62
     9
 10
0.0
 20
0.0
 30
0.0
 70
   128
 71
    56
 72
    55
 73
    54
  0
VERTEX
  5
C49
  8
0
 62
     9
 10
0.0
 20
0.0
 30
0.0
 70
   128
 71
    58
 72
    55
 73
    57
  0
VERTEX
  5
C4A
  8
0
 62
     9
 10
0.0
 20
0.0
 30
0.0
 70
   128
 71
    61
 72
    60
 73
    59
  0
VERTEX
  5
C4B
  8
0
 62
     9
 10
0.0
 20
0.0
 30
0.0
 70
   128
 71
    61
 72
    59
 73
    62
  0
VERTEX
  5
C4C
  8
0
 62
     9
 10
0.0
 20
0.0
 30
0.0
 70
   128
 71
    62
 72
    59
 73
    63
  0
VERTEX
  5
C4D
  8
0
 62
     9
 10
0.0
 20
0.0
 30
0.0
 70
   128
 71
    59
 72
    64
 73
    63
  0
VERTEX
  5
C4E
  8
0
 62
     9
 10
0.0
 20
0.0
 30
0.0
 70
   128
 71
    54
 72
    59
 73
    60
  0
VERTEX
  5
C4F
  8
0
 62
     9
 10
0.0
 20
0.0
 30
0.0
 70
   128
 71
    56
 72
    57
 73
    55
  0
VERTEX
  5
C50
  8
0
 62
     9
 10
0.0
 20
0.0
 30
0.0
 70
   128
 71
    59
 72
    54
 73
    55
  0
VERTEX
  5
C51
  8
0
 62
     9
 10
0.0
 20
0.0
 30
0.0
 70
   128
 71
    55
 72
    65
 73
    59
  0
VERTEX
  5
C52
  8
0
 62
     9
 10
0.0
 20
0.0
 30
0.0
 70
   128
 71
    68
 72
    67
 73
    66
  0
VERTEX
  5
C53
  8
0
 62
     9
 10
0.0
 20
0.0
 30
0.0
 70
   128
 71
    70
 72
    68
 73
    69
  0
VERTEX
  5
C54
  8
0
 62
     9
 10
0.0
 20
0.0
 30
0.0
 70
   128
 71
    10
 72
    68
 73
    13
  0
VERTEX
  5
C55
  8
0
 62
     9
 10
0.0
 20
0.0
 30
0.0
 70
   128
 71
     7
 72
    71
 73
     9
  0
VERTEX
  5
C56
  8
0
 62
     9
 10
0.0
 20
0.0
 30
0.0
 70
   128
 71
    68
 72
    70
 73
    72
  0
VERTEX
  5
C57
  8
0
 62
     9
 10
0.0
 20
0.0
 30
0.0
 70
   128
 71
    68
 72
    72
 73
    13
  0
VERTEX
  5
C58
  8
0
 62
     9
 10
0.0
 20
0.0
 30
0.0
 70
   128
 71
    69
 72
    65
 73
    73
  0
VERTEX
  5
C59
  8
0
 62
     9
 10
0.0
 20
0.0
 30
0.0
 70
   128
 71
    73
 72
    70
 73
    69
  0
VERTEX
  5
C5A
  8
0
 62
     9
 10
0.0
 20
0.0
 30
0.0
 70
   128
 71
    55
 72
    73
 73
    65
  0
VERTEX
  5
C5B
  8
0
 62
     9
 10
0.0
 20
0.0
 30
0.0
 70
   128
 71
    55
 72
    58
 73
    73
  0
VERTEX
  5
C5C
  8
0
 62
     9
 10
0.0
 20
0.0
 30
0.0
 70
   128
 71
    64
 72
    75
 73
    74
  0
VERTEX
  5
C5D
  8
0
 62
     9
 10
0.0
 20
0.0
 30
0.0
 70
   128
 71
    76
 72
    74
 73
    66
  0
VERTEX
  5
C5E
  8
0
 62
     9
 10
0.0
 20
0.0
 30
0.0
 70
   128
 71
    74
 72
    75
 73
    66
  0
VERTEX
  5
C5F
  8
0
 62
     9
 10
0.0
 20
0.0
 30
0.0
 70
   128
 71
    75
 72
    65
 73
    69
  0
VERTEX
  5
C60
  8
0
 62
     9
 10
0.0
 20
0.0
 30
0.0
 70
   128
 71
    67
 72
    10
 73
     9
  0
VERTEX
  5
C61
  8
0
 62
     9
 10
0.0
 20
0.0
 30
0.0
 70
   128
 71
    68
 72
    66
 73
    69
  0
VERTEX
  5
C62
  8
0
 62
     9
 10
0.0
 20
0.0
 30
0.0
 70
   128
 71
    67
 72
    68
 73
    10
  0
VERTEX
  5
C63
  8
0
 62
     9
 10
0.0
 20
0.0
 30
0.0
 70
   128
 71
    75
 72
    59
 73
    65
  0
VERTEX
  5
C64
  8
0
 62
     9
 10
0.0
 20
0.0
 30
0.0
 70
   128
 71
    59
 72
    75
 73
    64
  0
VERTEX
  5
C65
  8
0
 62
     9
 10
0.0
 20
0.0
 30
0.0
 70
   128
 71
    67
 72
    71
 73
    76
  0
VERTEX
  5
C66
  8
0
 62
     9
 10
0.0
 20
0.0
 30
0.0
 70
   128
 71
    66
 72
    75
 73
    69
  0
VERTEX
  5
C67
  8
0
 62
     9
 10
0.0
 20
0.0
 30
0.0
 70
   128
 71
    66
 72
    67
 73
    76
  0
VERTEX
  5
C68
  8
0
 62
     9
 10
0.0
 20
0.0
 30
0.0
 70
   128
 71
    67
 72
     9
 73
    71
  0
VERTEX
  5
C69
  8
0
 62
     9
 10
0.0
 20
0.0
 30
0.0
 70
   128
 71
    79
 72
    78
 73
    77
  0
VERTEX
  5
C6A
  8
0
 62
     9
 10
0.0
 20
0.0
 30
0.0
 70
   128
 71
    64
 72
    74
 73
    63
  0
VERTEX
  5
C6B
  8
0
 62
     9
 10
0.0
 20
0.0
 30
0.0
 70
   128
 71
    74
 72
    76
 73
    80
  0
VERTEX
  5
C6C
  8
0
 62
     9
 10
0.0
 20
0.0
 30
0.0
 70
   128
 71
    74
 72
    80
 73
    63
  0
VERTEX
  5
C6D
  8
0
 62
     9
 10
0.0
 20
0.0
 30
0.0
 70
   128
 71
    63
 72
    80
 73
    62
  0
VERTEX
  5
C6E
  8
0
 62
     9
 10
0.0
 20
0.0
 30
0.0
 70
   128
 71
    78
 72
    80
 73
    76
  0
VERTEX
  5
C6F
  8
0
 62
     9
 10
0.0
 20
0.0
 30
0.0
 70
   128
 71
    71
 72
    78
 73
    76
  0
VERTEX
  5
C70
  8
0
 62
     9
 10
0.0
 20
0.0
 30
0.0
 70
   128
 71
    48
 72
    71
 73
     7
  0
VERTEX
  5
C71
  8
0
 62
     9
 10
0.0
 20
0.0
 30
0.0
 70
   128
 71
    82
 72
    77
 73
    81
  0
VERTEX
  5
C72
  8
0
 62
     9
 10
0.0
 20
0.0
 30
0.0
 70
   128
 71
    79
 72
    82
 73
    61
  0
VERTEX
  5
C73
  8
0
 62
     9
 10
0.0
 20
0.0
 30
0.0
 70
   128
 71
    26
 72
    45
 73
    81
  0
VERTEX
  5
C74
  8
0
 62
     9
 10
0.0
 20
0.0
 30
0.0
 70
   128
 71
    54
 72
    84
 73
    83
  0
VERTEX
  5
C75
  8
0
 62
     9
 10
0.0
 20
0.0
 30
0.0
 70
   128
 71
    85
 72
    83
 73
    84
  0
VERTEX
  5
C76
  8
0
 62
     9
 10
0.0
 20
0.0
 30
0.0
 70
   128
 71
    86
 72
    85
 73
    41
  0
VERTEX
  5
C77
  8
0
 62
     9
 10
0.0
 20
0.0
 30
0.0
 70
   128
 71
    86
 72
    87
 73
    83
  0
VERTEX
  5
C78
  8
0
 62
     9
 10
0.0
 20
0.0
 30
0.0
 70
   128
 71
    86
 72
    38
 73
    88
  0
VERTEX
  5
C79
  8
0
 62
     9
 10
0.0
 20
0.0
 30
0.0
 70
   128
 71
    73
 72
    58
 73
    57
  0
VERTEX
  5
C7A
  8
0
 62
     9
 10
0.0
 20
0.0
 30
0.0
 70
   128
 71
    87
 72
    88
 73
    89
  0
VERTEX
  5
C7B
  8
0
 62
     9
 10
0.0
 20
0.0
 30
0.0
 70
   128
 71
    70
 72
    90
 73
    72
  0
VERTEX
  5
C7C
  8
0
 62
     9
 10
0.0
 20
0.0
 30
0.0
 70
   128
 71
    33
 72
    72
 73
    90
  0
VERTEX
  5
C7D
  8
0
 62
     9
 10
0.0
 20
0.0
 30
0.0
 70
   128
 71
    50
 72
    90
 73
    88
  0
VERTEX
  5
C7E
  8
0
 62
     9
 10
0.0
 20
0.0
 30
0.0
 70
   128
 71
    72
 72
    33
 73
    13
  0
VERTEX
  5
C7F
  8
0
 62
     9
 10
0.0
 20
0.0
 30
0.0
 70
   128
 71
    77
 72
    82
 73
    79
  0
VERTEX
  5
C80
  8
0
 62
     9
 10
0.0
 20
0.0
 30
0.0
 70
   128
 71
    48
 72
    78
 73
    71
  0
VERTEX
  5
C81
  8
0
 62
     9
 10
0.0
 20
0.0
 30
0.0
 70
   128
 71
    79
 72
    62
 73
    80
  0
VERTEX
  5
C82
  8
0
 62
     9
 10
0.0
 20
0.0
 30
0.0
 70
   128
 71
    77
 72
    78
 73
    48
  0
VERTEX
  5
C83
  8
0
 62
     9
 10
0.0
 20
0.0
 30
0.0
 70
   128
 71
    78
 72
    79
 73
    80
  0
VERTEX
  5
C84
  8
0
 62
     9
 10
0.0
 20
0.0
 30
0.0
 70
   128
 71
    79
 72
    61
 73
    62
  0
VERTEX
  5
C85
  8
0
 62
     9
 10
0.0
 20
0.0
 30
0.0
 70
   128
 71
    81
 72
    77
 73
    26
  0
VERTEX
  5
C86
  8
0
 62
     9
 10
0.0
 20
0.0
 30
0.0
 70
   128
 71
    48
 72
    26
 73
    77
  0
VERTEX
  5
C87
  8
0
 62
     9
 10
0.0
 20
0.0
 30
0.0
 70
   128
 71
    82
 72
    60
 73
    61
  0
VERTEX
  5
C88
  8
0
 62
     9
 10
0.0
 20
0.0
 30
0.0
 70
   128
 71
    54
 72
    60
 73
    84
  0
VERTEX
  5
C89
  8
0
 62
     9
 10
0.0
 20
0.0
 30
0.0
 70
   128
 71
    84
 72
    60
 73
    82
  0
VERTEX
  5
C8A
  8
0
 62
     9
 10
0.0
 20
0.0
 30
0.0
 70
   128
 71
    85
 72
    81
 73
    45
  0
VERTEX
  5
C8B
  8
0
 62
     9
 10
0.0
 20
0.0
 30
0.0
 70
   128
 71
    82
 72
    81
 73
    84
  0
VERTEX
  5
C8C
  8
0
 62
     9
 10
0.0
 20
0.0
 30
0.0
 70
   128
 71
    83
 72
    56
 73
    54
  0
VERTEX
  5
C8D
  8
0
 62
     9
 10
0.0
 20
0.0
 30
0.0
 70
   128
 71
    41
 72
    85
 73
    45
  0
VERTEX
  5
C8E
  8
0
 62
     9
 10
0.0
 20
0.0
 30
0.0
 70
   128
 71
    85
 72
    84
 73
    81
  0
VERTEX
  5
C8F
  8
0
 62
     9
 10
0.0
 20
0.0
 30
0.0
 70
   128
 71
    56
 72
    87
 73
    57
  0
VERTEX
  5
C90
  8
0
 62
     9
 10
0.0
 20
0.0
 30
0.0
 70
   128
 71
    87
 72
    56
 73
    83
  0
VERTEX
  5
C91
  8
0
 62
     9
 10
0.0
 20
0.0
 30
0.0
 70
   128
 71
    38
 72
    86
 73
    41
  0
VERTEX
  5
C92
  8
0
 62
     9
 10
0.0
 20
0.0
 30
0.0
 70
   128
 71
    86
 72
    83
 73
    85
  0
VERTEX
  5
C93
  8
0
 62
     9
 10
0.0
 20
0.0
 30
0.0
 70
   128
 71
    73
 72
    57
 73
    89
  0
VERTEX
  5
C94
  8
0
 62
     9
 10
0.0
 20
0.0
 30
0.0
 70
   128
 71
    90
 72
    70
 73
    89
  0
VERTEX
  5
C95
  8
0
 62
     9
 10
0.0
 20
0.0
 30
0.0
 70
   128
 71
    50
 72
    88
 73
    38
  0
VERTEX
  5
C96
  8
0
 62
     9
 10
0.0
 20
0.0
 30
0.0
 70
   128
 71
    88
 72
    87
 73
    86
  0
VERTEX
  5
C97
  8
0
 62
     9
 10
0.0
 20
0.0
 30
0.0
 70
   128
 71
    87
 72
    89
 73
    57
  0
VERTEX
  5
C98
  8
0
 62
     9
 10
0.0
 20
0.0
 30
0.0
 70
   128
 71
    89
 72
    70
 73
    73
  0
VERTEX
  5
C99
  8
0
 62
     9
 10
0.0
 20
0.0
 30
0.0
 70
   128
 71
    33
 72
    90
 73
    50
  0
VERTEX
  5
C9A
  8
0
 62
     9
 10
0.0
 20
0.0
 30
0.0
 70
   128
 71
    90
 72
    89
 73
    88
  0
SEQEND
  5
C9B
  8
0
 62
     9
  0
ENDBLK
  5
C9E
  8
0
  0
ENDSEC
  0
SECTION
  2
ENTITIES
  0
INSERT
  5
DD
  8
LAYER_1
  2
38
 10
0.0
 20
0.0
 30
0.0
  0
INSERT
  5
199
  8
LAYER_1
  2
ABDECKUNG_OBEN
 10
0.0
 20
0.0
 30
0.0
  0
INSERT
  5
2D8
  8
LAYER_1
  2
RING_OBEN
 10
0.0
 20
0.0
 30
0.0
  0
INSERT
  5
37D
  8
LAYER_1
  2
41
 10
0.0
 20
0.0
 30
0.0
  0
INSERT
  5
438
  8
LAYER_1
  2
ABDECKUNG_OBEN_1_
 10
0.0
 20
0.0
 30
0.0
  0
INSERT
  5
577
  8
LAYER_1
  2
RING_OBEN_1_
 10
0.0
 20
0.0
 30
0.0
  0
INSERT
  5
7AF
  8
LAYER_1
  2
ROSETTE
 10
0.0
 20
0.0
 30
0.0
  0
INSERT
  5
9E7
  8
LAYER_1
  2
ROSETTE_1_
 10
0.0
 20
0.0
 30
0.0
  0
INSERT
  5
A4F
  8
LAYER_1
  2
46
 10
0.0
 20
0.0
 30
0.0
  0
INSERT
  5
B56
  8
LAYER_1
  2
47
 10
0.0
 20
0.0
 30
0.0
  0
INSERT
  5
B8C
  8
LAYER_1
  2
48
 10
0.0
 20
0.0
 30
0.0
  0
INSERT
  5
C9C
  8
LAYER_1
  2
C-SPOUT_
 10
0.0
 20
0.0
 30
0.0
  0
ENDSEC
  0
EOF
