  0
SECTION
  2
HEADER
  9
$ACADVER
  1
AC1015
  9
$ACADMAINTVER
 70
     6
  9
$DWGCODEPAGE
  3
ANSI_1252
  9
$INSBASE
 10
0.0
 20
0.0
 30
0.0
  9
$EXTMIN
 10
0.0
 20
0.0
 30
0.0
  9
$EXTMAX
 10
1682.0
 20
2378.0
 30
0.0
  9
$LIMMIN
 10
0.0
 20
0.0
  9
$LIMMAX
 10
1682.0
 20
2378.0
  9
$ORTHOMODE
 70
     0
  9
$REGENMODE
 70
     1
  9
$FILLMODE
 70
     1
  9
$QTEXTMODE
 70
     0
  9
$MIRRTEXT
 70
     1
  9
$LTSCALE
 40
1.0
  9
$ATTMODE
 70
     1
  9
$TEXTSIZE
 40
2.5
  9
$TRACEWID
 40
1.0
  9
$TEXTSTYLE
  7
Standard
  9
$CLAYER
  8
0
  9
$CELTYPE
  6
ByLayer
  9
$CECOLOR
 62
   256
  9
$CELTSCALE
 40
1.0
  9
$DISPSILH
 70
     0
  9
$DIMSCALE
 40
1.0
  9
$DIMASZ
 40
2.5
  9
$DIMEXO
 40
0.625
  9
$DIMDLI
 40
3.75
  9
$DIMRND
 40
0.0
  9
$DIMDLE
 40
0.0
  9
$DIMEXE
 40
1.25
  9
$DIMTP
 40
0.0
  9
$DIMTM
 40
0.0
  9
$DIMTXT
 40
2.5
  9
$DIMCEN
 40
2.5
  9
$DIMTSZ
 40
0.0
  9
$DIMTOL
 70
     0
  9
$DIMLIM
 70
     0
  9
$DIMTIH
 70
     0
  9
$DIMTOH
 70
     0
  9
$DIMSE1
 70
     0
  9
$DIMSE2
 70
     0
  9
$DIMTAD
 70
     1
  9
$DIMZIN
 70
     8
  9
$DIMBLK
  1

  9
$DIMASO
 70
     1
  9
$DIMSHO
 70
     1
  9
$DIMPOST
  1

  9
$DIMAPOST
  1

  9
$DIMALT
 70
     0
  9
$DIMALTD
 70
     3
  9
$DIMALTF
 40
0.0393700787
  9
$DIMLFAC
 40
1.0
  9
$DIMTOFL
 70
     1
  9
$DIMTVP
 40
0.0
  9
$DIMTIX
 70
     0
  9
$DIMSOXD
 70
     0
  9
$DIMSAH
 70
     0
  9
$DIMBLK1
  1

  9
$DIMBLK2
  1

  9
$DIMSTYLE
  2
ISO-25
  9
$DIMCLRD
 70
     0
  9
$DIMCLRE
 70
     0
  9
$DIMCLRT
 70
     0
  9
$DIMTFAC
 40
1.0
  9
$DIMGAP
 40
0.625
  9
$DIMJUST
 70
     0
  9
$DIMSD1
 70
     0
  9
$DIMSD2
 70
     0
  9
$DIMTOLJ
 70
     0
  9
$DIMTZIN
 70
     8
  9
$DIMALTZ
 70
     0
  9
$DIMALTTZ
 70
     0
  9
$DIMUPT
 70
     0
  9
$DIMDEC
 70
     2
  9
$DIMTDEC
 70
     2
  9
$DIMALTU
 70
     2
  9
$DIMALTTD
 70
     3
  9
$DIMTXSTY
  7
Standard
  9
$DIMAUNIT
 70
     0
  9
$DIMADEC
 70
     0
  9
$DIMALTRND
 40
0.0
  9
$DIMAZIN
 70
     0
  9
$DIMDSEP
 70
    44
  9
$DIMATFIT
 70
     3
  9
$DIMFRAC
 70
     0
  9
$DIMLDRBLK
  1

  9
$DIMLUNIT
 70
     2
  9
$DIMLWD
 70
    -2
  9
$DIMLWE
 70
    -2
  9
$DIMTMOVE
 70
     0
  9
$LUNITS
 70
     2
  9
$LUPREC
 70
     4
  9
$SKETCHINC
 40
1.0
  9
$FILLETRAD
 40
10.0
  9
$AUNITS
 70
     0
  9
$AUPREC
 70
     0
  9
$MENU
  1
.
  9
$ELEVATION
 40
0.0
  9
$PELEVATION
 40
0.0
  9
$THICKNESS
 40
0.0
  9
$LIMCHECK
 70
     0
  9
$CHAMFERA
 40
10.0
  9
$CHAMFERB
 40
10.0
  9
$CHAMFERC
 40
20.0
  9
$CHAMFERD
 40
0.0
  9
$SKPOLY
 70
     0
  9
$TDCREATE
 40
2455748.414137106
  9
$TDUCREATE
 40
2455748.330803773
  9
$TDUPDATE
 40
2455748.414137118
  9
$TDUUPDATE
 40
2455748.330803785
  9
$TDINDWG
 40
0.0000000116
  9
$TDUSRTIMER
 40
0.0000000116
  9
$USRTIMER
 70
     1
  9
$ANGBASE
 50
0.0
  9
$ANGDIR
 70
     0
  9
$PDMODE
 70
     0
  9
$PDSIZE
 40
0.0
  9
$PLINEWID
 40
0.0
  9
$SPLFRAME
 70
     0
  9
$SPLINETYPE
 70
     6
  9
$SPLINESEGS
 70
     8
  9
$HANDSEED
  5
160
  9
$SURFTAB1
 70
     6
  9
$SURFTAB2
 70
     6
  9
$SURFTYPE
 70
     6
  9
$SURFU
 70
     6
  9
$SURFV
 70
     6
  9
$UCSBASE
  2

  9
$UCSNAME
  2

  9
$UCSORG
 10
0.0
 20
0.0
 30
0.0
  9
$UCSXDIR
 10
1.0
 20
0.0
 30
0.0
  9
$UCSYDIR
 10
0.0
 20
1.0
 30
0.0
  9
$UCSORTHOREF
  2

  9
$UCSORTHOVIEW
 70
     0
  9
$UCSORGTOP
 10
0.0
 20
0.0
 30
0.0
  9
$UCSORGBOTTOM
 10
0.0
 20
0.0
 30
0.0
  9
$UCSORGLEFT
 10
0.0
 20
0.0
 30
0.0
  9
$UCSORGRIGHT
 10
0.0
 20
0.0
 30
0.0
  9
$UCSORGFRONT
 10
0.0
 20
0.0
 30
0.0
  9
$UCSORGBACK
 10
0.0
 20
0.0
 30
0.0
  9
$PUCSBASE
  2

  9
$PUCSNAME
  2

  9
$PUCSORG
 10
0.0
 20
0.0
 30
0.0
  9
$PUCSXDIR
 10
1.0
 20
0.0
 30
0.0
  9
$PUCSYDIR
 10
0.0
 20
1.0
 30
0.0
  9
$PUCSORTHOREF
  2

  9
$PUCSORTHOVIEW
 70
     0
  9
$PUCSORGTOP
 10
0.0
 20
0.0
 30
0.0
  9
$PUCSORGBOTTOM
 10
0.0
 20
0.0
 30
0.0
  9
$PUCSORGLEFT
 10
0.0
 20
0.0
 30
0.0
  9
$PUCSORGRIGHT
 10
0.0
 20
0.0
 30
0.0
  9
$PUCSORGFRONT
 10
0.0
 20
0.0
 30
0.0
  9
$PUCSORGBACK
 10
0.0
 20
0.0
 30
0.0
  9
$USERI1
 70
     0
  9
$USERI2
 70
     0
  9
$USERI3
 70
     0
  9
$USERI4
 70
     0
  9
$USERI5
 70
     0
  9
$USERR1
 40
0.0
  9
$USERR2
 40
0.0
  9
$USERR3
 40
0.0
  9
$USERR4
 40
0.0
  9
$USERR5
 40
0.0
  9
$WORLDVIEW
 70
     1
  9
$SHADEDGE
 70
     3
  9
$SHADEDIF
 70
    70
  9
$TILEMODE
 70
     1
  9
$MAXACTVP
 70
    64
  9
$PINSBASE
 10
0.0
 20
0.0
 30
0.0
  9
$PLIMCHECK
 70
     0
  9
$PEXTMIN
 10
0.0
 20
0.0
 30
0.0
  9
$PEXTMAX
 10
1682.0
 20
2378.0
 30
0.0
  9
$PLIMMIN
 10
0.0
 20
0.0
  9
$PLIMMAX
 10
1682.0
 20
2378.0
  9
$UNITMODE
 70
     0
  9
$VISRETAIN
 70
     1
  9
$PLINEGEN
 70
     0
  9
$PSLTSCALE
 70
     1
  9
$TREEDEPTH
 70
  3020
  9
$CMLSTYLE
  2
Standard
  9
$CMLJUST
 70
     0
  9
$CMLSCALE
 40
20.0
  9
$PROXYGRAPHICS
 70
     1
  9
$MEASUREMENT
 70
     1
  9
$CELWEIGHT
370
    -1
  9
$ENDCAPS
280
     0
  9
$JOINSTYLE
280
     0
  9
$LWDISPLAY
290
     0
  9
$INSUNITS
 70
     4
  9
$HYPERLINKBASE
  1

  9
$STYLESHEET
  1

  9
$XEDIT
290
     1
  9
$CEPSNTYPE
380
     0
  9
$PSTYLEMODE
290
     1
  9
$FINGERPRINTGUID
  2
{AB320DB0-ECCF-4FD7-9A70-6196497C0222}
  9
$VERSIONGUID
  2
{FAEB1C32-E019-11D5-929B-00C0DF256EC4}
  9
$EXTNAMES
290
     1
  9
$PSVPSCALE
 40
0.0
  9
$OLESTARTUP
290
     0
  0
ENDSEC
  0
SECTION
  2
CLASSES
  0
CLASS
  1
ACDBDICTIONARYWDFLT
  2
AcDbDictionaryWithDefault
  3
ObjectDBX Classes
 90
        0
280
     0
281
     0
  0
CLASS
  1
VISUALSTYLE
  2
AcDbVisualStyle
  3
ObjectDBX Classes
 90
     4095
280
     0
281
     0
  0
CLASS
  1
SCALE
  2
AcDbScale
  3
ObjectDBX Classes
 90
     1153
280
     0
281
     0
  0
CLASS
  1
DICTIONARYVAR
  2
AcDbDictionaryVar
  3
ObjectDBX Classes
 90
        0
280
     0
281
     0
  0
CLASS
  1
ACDBPLACEHOLDER
  2
AcDbPlaceHolder
  3
ObjectDBX Classes
 90
        0
280
     0
281
     0
  0
CLASS
  1
LAYOUT
  2
AcDbLayout
  3
ObjectDBX Classes
 90
        0
280
     0
281
     0
  0
ENDSEC
  0
SECTION
  2
TABLES
  0
TABLE
  2
VPORT
  5
8
330
0
100
AcDbSymbolTable
 70
     1
  0
VPORT
  5
29
330
8
100
AcDbSymbolTableRecord
100
AcDbViewportTableRecord
  2
*Active
 70
     0
 10
0.0
 20
0.0
 11
1.0
 21
1.0
 12
344.1869158879
 22
148.5
 13
0.0
 23
0.0
 14
10.0
 24
10.0
 15
10.0
 25
10.0
 16
0.0
 26
0.0
 36
1.0
 17
0.0
 27
0.0
 37
0.0
 40
297.0
 41
1.9729729729
 42
50.0
 43
0.0
 44
0.0
 50
0.0
 51
0.0
 71
     0
 72
   100
 73
     1
 74
     3
 75
     0
 76
     0
 77
     0
 78
     0
281
     0
 65
     1
110
0.0
120
0.0
130
0.0
111
1.0
121
0.0
131
0.0
112
0.0
122
1.0
132
0.0
 79
     0
146
0.0
  0
ENDTAB
  0
TABLE
  2
LTYPE
  5
5
330
0
100
AcDbSymbolTable
 70
     2
  0
LTYPE
  5
14
330
5
100
AcDbSymbolTableRecord
100
AcDbLinetypeTableRecord
  2
ByBlock
 70
     0
  3

 72
    65
 73
     0
 40
0.0
  0
LTYPE
  5
15
330
5
100
AcDbSymbolTableRecord
100
AcDbLinetypeTableRecord
  2
ByLayer
 70
     0
  3

 72
    65
 73
     0
 40
0.0
  0
LTYPE
  5
16
330
5
100
AcDbSymbolTableRecord
100
AcDbLinetypeTableRecord
  2
Continuous
 70
     0
  3
Solid line
 72
    65
 73
     0
 40
0.0
  0
LTYPE
  5
60
330
5
100
AcDbSymbolTableRecord
100
AcDbLinetypeTableRecord
  2
CENTER2
 70
     0
  3
Center (.5x) ___ _ ___ _ ___ _ ___ _ ___ _ ___
 72
    65
 73
     4
 40
28.575
 49
19.05
 74
     4
 75
     0
340
0
 46
0.0
 50
0.0
 44
0.0
 45
0.0
 49
-3.175
 74
     4
 75
     0
340
0
 46
0.0
 50
0.0
 44
0.0
 45
0.0
 49
3.175
 74
     4
 75
     0
340
0
 46
0.0
 50
0.0
 44
0.0
 45
0.0
 49
-3.175
 74
     4
 75
     0
340
0
 46
0.0
 50
0.0
 44
0.0
 45
0.0
  0
ENDTAB
  0
TABLE
  2
LAYER
  5
2
330
0
100
AcDbSymbolTable
 70
    11
  0
LAYER
  5
10
330
2
100
AcDbSymbolTableRecord
100
AcDbLayerTableRecord
  2
0
 70
     0
 62
     7
  6
Continuous
370
    -3
390
F
  0
LAYER
  5
5D
330
2
100
AcDbSymbolTableRecord
100
AcDbLayerTableRecord
  2
Default
 70
     0
 62
     7
  6
Continuous
370
    -3
390
F
  0
LAYER
  5
77
330
2
100
AcDbSymbolTableRecord
100
AcDbLayerTableRecord
  2
410312038_LEVER_
 70
     0
 62
     7
  6
Continuous
370
    -3
390
F
  0
LAYER
  5
7D
330
2
100
AcDbSymbolTableRecord
100
AcDbLayerTableRecord
  2
410332038_BUTTON
 70
     0
 62
     7
  6
Continuous
370
    -3
390
F
  0
LAYER
  5
83
330
2
100
AcDbSymbolTableRecord
100
AcDbLayerTableRecord
  2
410319038_HANDLE
 70
     0
 62
     7
  6
Continuous
370
    -3
390
F
  0
LAYER
  5
89
330
2
100
AcDbSymbolTableRecord
100
AcDbLayerTableRecord
  2
11218038_GRIFF__
 70
     0
 62
     7
  6
Continuous
370
    -3
390
F
  0
LAYER
  5
98
330
2
100
AcDbSymbolTableRecord
100
AcDbLayerTableRecord
  2
410365040_ESCUTC
 70
     0
 62
     7
  6
Continuous
370
    -3
390
F
  0
LAYER
  5
A1
330
2
100
AcDbSymbolTableRecord
100
AcDbLayerTableRecord
  2
410064038_SLEEVE
 70
     0
 62
     7
  6
Continuous
370
    -3
390
F
  0
LAYER
  5
A4
330
2
100
AcDbSymbolTableRecord
100
AcDbLayerTableRecord
  2
410306038_DIVERT
 70
     0
 62
     7
  6
Continuous
370
    -3
390
F
  0
LAYER
  5
B8
330
2
100
AcDbSymbolTableRecord
100
AcDbLayerTableRecord
  2
410228031_BEARIN
 70
     0
 62
     7
  6
Continuous
370
    -3
390
F
  0
LAYER
  5
BC
330
2
100
AcDbSymbolTableRecord
100
AcDbLayerTableRecord
  2
11232031_STIFT_G
 70
     0
 62
     7
  6
Continuous
370
    -3
390
F
  0
ENDTAB
  0
TABLE
  2
STYLE
  5
3
330
0
100
AcDbSymbolTable
 70
     2
  0
STYLE
  5
11
330
3
100
AcDbSymbolTableRecord
100
AcDbTextStyleTableRecord
  2
Standard
 70
     0
 40
0.0
 41
1.0
 50
0.0
 71
     0
 42
2.5
  3
txt
  4

  0
STYLE
  5
14F
330
3
100
AcDbSymbolTableRecord
100
AcDbTextStyleTableRecord
  2
SEACAD_seiso_ttf
 70
     0
 40
0.0
 41
1.0
 50
0.0
 71
     0
 42
0.2
  3
seiso.ttf
  4

  0
ENDTAB
  0
TABLE
  2
VIEW
  5
6
330
0
100
AcDbSymbolTable
 70
     0
  0
ENDTAB
  0
TABLE
  2
UCS
  5
7
330
0
100
AcDbSymbolTable
 70
     0
  0
ENDTAB
  0
TABLE
  2
APPID
  5
9
330
0
100
AcDbSymbolTable
 70
     1
  0
APPID
  5
12
330
9
100
AcDbSymbolTableRecord
100
AcDbRegAppTableRecord
  2
ACAD
 70
     0
  0
ENDTAB
  0
TABLE
  2
DIMSTYLE
  5
A
330
0
100
AcDbSymbolTable
 70
     1
100
AcDbDimStyleTable
  0
DIMSTYLE
105
27
330
A
100
AcDbSymbolTableRecord
100
AcDbDimStyleTableRecord
  2
ISO-25
 70
     0
 41
2.5
 42
0.625
 43
3.75
 44
1.25
 73
     0
 74
     0
 77
     1
 78
     8
140
2.5
141
2.5
143
0.0393700787
147
0.625
171
     3
172
     1
271
     2
272
     2
274
     3
278
    44
283
     0
284
     8
340
11
  0
ENDTAB
  0
TABLE
  2
BLOCK_RECORD
  5
1
330
0
100
AcDbSymbolTable
 70
     7
  0
BLOCK_RECORD
  5
1F
330
1
100
AcDbSymbolTableRecord
100
AcDbBlockTableRecord
  2
*Model_Space
340
22
  0
BLOCK_RECORD
  5
1B
330
1
100
AcDbSymbolTableRecord
100
AcDbBlockTableRecord
  2
*Paper_Space
340
1E
  0
BLOCK_RECORD
  5
5E
330
1
100
AcDbSymbolTableRecord
100
AcDbBlockTableRecord
  2
SEANNOT_GROUP
340
0
102
{BLKREFS
331
5F
102
}
  0
BLOCK_RECORD
  5
69
330
1
100
AcDbSymbolTableRecord
100
AcDbBlockTableRecord
  2
SEANNOT_GROUP1
340
0
102
{BLKREFS
331
6A
102
}
  0
BLOCK_RECORD
  5
6F
330
1
100
AcDbSymbolTableRecord
100
AcDbBlockTableRecord
  2
SEANNOT_GROUP2
340
0
102
{BLKREFS
331
70
102
}
  0
BLOCK_RECORD
  5
75
330
1
100
AcDbSymbolTableRecord
100
AcDbBlockTableRecord
  2
SE
340
0
102
{BLKREFS
331
76
102
}
  0
BLOCK_RECORD
  5
9F
330
1
100
AcDbSymbolTableRecord
100
AcDbBlockTableRecord
  2
SE1
340
0
102
{BLKREFS
331
A0
102
}
  0
BLOCK_RECORD
  5
10C
330
1
100
AcDbSymbolTableRecord
100
AcDbBlockTableRecord
  2
SE2
340
0
102
{BLKREFS
331
10D
102
}
  0
ENDTAB
  0
ENDSEC
  0
SECTION
  2
BLOCKS
  0
BLOCK
  5
20
330
1F
100
AcDbEntity
  8
0
100
AcDbBlockBegin
  2
*Model_Space
 70
     0
 10
0.0
 20
0.0
 30
0.0
  3
*Model_Space
  1

  0
ENDBLK
  5
21
330
1F
100
AcDbEntity
  8
0
100
AcDbBlockEnd
  0
BLOCK
  5
1C
330
1B
100
AcDbEntity
 67
     1
  8
0
100
AcDbBlockBegin
  2
*Paper_Space
 70
     0
 10
0.0
 20
0.0
 30
0.0
  3
*Paper_Space
  1

  0
ENDBLK
  5
1D
330
1B
100
AcDbEntity
 67
     1
  8
0
100
AcDbBlockEnd
  0
BLOCK
  5
67
330
5E
100
AcDbEntity
  8
0
100
AcDbBlockBegin
  2
SEANNOT_GROUP
 70
     0
 10
0.0
 20
0.0
 30
0.0
  3
SEANNOT_GROUP
  1

  0
LINE
  5
61
330
5E
100
AcDbEntity
  8
Default
  6
CENTER2
 62
     7
100
AcDbLine
 10
111.449999553
 20
364.4840836048
 30
0.0
 11
71.450000447
 21
364.4840836048
 31
0.0
  0
LINE
  5
62
330
5E
100
AcDbEntity
  8
Default
  6
CENTER2
 62
     7
100
AcDbLine
 10
91.45
 20
384.4840831577
 30
0.0
 11
91.45
 21
344.4840840518
 31
0.0
  0
LINE
  5
63
330
5E
100
AcDbEntity
  8
Default
  6
CENTER2
 62
     7
100
AcDbLine
 10
116.4499994412
 20
364.4840836048
 30
0.0
 11
117.95
 21
364.4840836048
 31
0.0
  0
LINE
  5
64
330
5E
100
AcDbEntity
  8
Default
  6
CENTER2
 62
     7
100
AcDbLine
 10
91.45
 20
389.484083046
 30
0.0
 11
91.45
 21
390.9840836048
 31
0.0
  0
LINE
  5
65
330
5E
100
AcDbEntity
  8
Default
  6
CENTER2
 62
     7
100
AcDbLine
 10
66.4500005588
 20
364.4840836048
 30
0.0
 11
64.95
 21
364.4840836048
 31
0.0
  0
LINE
  5
66
330
5E
100
AcDbEntity
  8
Default
  6
CENTER2
 62
     7
100
AcDbLine
 10
91.45
 20
339.4840841635
 30
0.0
 11
91.45
 21
337.9840836048
 31
0.0
  0
ENDBLK
  5
68
330
5E
100
AcDbEntity
  8
0
100
AcDbBlockEnd
  0
BLOCK
  5
6D
330
69
100
AcDbEntity
  8
0
100
AcDbBlockBegin
  2
SEANNOT_GROUP1
 70
     0
 10
0.0
 20
0.0
 30
0.0
  3
SEANNOT_GROUP1
  1

  0
LINE
  5
6B
330
69
100
AcDbEntity
  8
Default
  6
CENTER2
 62
     7
100
AcDbLine
 10
274.0619791926
 20
364.6092690651
 30
0.0
 11
234.0619800867
 21
364.6092690651
 31
0.0
  0
LINE
  5
6C
330
69
100
AcDbEntity
  8
Default
  6
CENTER2
 62
     7
100
AcDbLine
 10
254.0619796396
 20
384.6092686181
 30
0.0
 11
254.0619796396
 21
344.6092695121
 31
0.0
  0
ENDBLK
  5
6E
330
69
100
AcDbEntity
  8
0
100
AcDbBlockEnd
  0
BLOCK
  5
73
330
6F
100
AcDbEntity
  8
0
100
AcDbBlockBegin
  2
SEANNOT_GROUP2
 70
     0
 10
0.0
 20
0.0
 30
0.0
  3
SEANNOT_GROUP2
  1

  0
LINE
  5
71
330
6F
100
AcDbEntity
  8
Default
  6
CENTER2
 62
     7
100
AcDbLine
 10
111.449999553
 20
219.1499976592
 30
0.0
 11
71.450000447
 21
219.1499976592
 31
0.0
  0
LINE
  5
72
330
6F
100
AcDbEntity
  8
Default
  6
CENTER2
 62
     7
100
AcDbLine
 10
91.45
 20
239.1499972122
 30
0.0
 11
91.45
 21
199.1499981062
 31
0.0
  0
ENDBLK
  5
74
330
6F
100
AcDbEntity
  8
0
100
AcDbBlockEnd
  0
BLOCK
  5
9D
330
75
100
AcDbEntity
  8
0
100
AcDbBlockBegin
  2
SE
 70
     0
 10
0.0
 20
0.0
 30
0.0
  3
SE
  1

  0
LINE
  5
78
330
75
100
AcDbEntity
  8
410312038_LEVER_
  6
Continuous
 62
     7
100
AcDbLine
 10
86.75
 20
279.2840836048
 30
0.0
 11
96.15
 21
279.2840836048
 31
0.0
  0
ARC
  5
79
330
75
100
AcDbEntity
  8
410312038_LEVER_
  6
Continuous
 62
     7
100
AcDbCircle
 10
96.15
 20
279.5840836048
 30
0.0
 40
0.2999999999999947
100
AcDbArc
 50
270.0
 51
0.0
  0
ARC
  5
7A
330
75
100
AcDbEntity
  8
410312038_LEVER_
  6
Continuous
 62
     7
100
AcDbCircle
 10
86.75
 20
279.5840836048
 30
0.0
 40
0.2999999999999999
100
AcDbArc
 50
180.0
 51
270.0
  0
LINE
  5
7B
330
75
100
AcDbEntity
  8
410312038_LEVER_
  6
Continuous
 62
     7
100
AcDbLine
 10
96.45
 20
279.5840836048
 30
0.0
 11
96.45
 21
304.4840836048
 31
0.0
  0
LINE
  5
7C
330
75
100
AcDbEntity
  8
410312038_LEVER_
  6
Continuous
 62
     7
100
AcDbLine
 10
86.45
 20
304.4840836048
 30
0.0
 11
86.45
 21
279.5840836048
 31
0.0
  0
LINE
  5
7E
330
75
100
AcDbEntity
  8
410332038_BUTTON
  6
Continuous
 62
     7
100
AcDbLine
 10
96.95
 20
402.0447216829
 30
0.0
 11
85.95
 21
402.0447216829
 31
0.0
  0
ARC
  5
7F
330
75
100
AcDbEntity
  8
410332038_BUTTON
  6
Continuous
 62
     7
100
AcDbCircle
 10
96.95
 20
401.5447216829
 30
0.0
 40
0.5000000000000004
100
AcDbArc
 50
0.0
 51
90.0
  0
ARC
  5
80
330
75
100
AcDbEntity
  8
410332038_BUTTON
  6
Continuous
 62
     7
100
AcDbCircle
 10
85.95
 20
401.5447216829
 30
0.0
 40
0.5000000000000004
100
AcDbArc
 50
90.0
 51
180.0
  0
LINE
  5
81
330
75
100
AcDbEntity
  8
410332038_BUTTON
  6
Continuous
 62
     7
100
AcDbLine
 10
97.45
 20
395.6620004691
 30
0.0
 11
97.45
 21
401.5447216829
 31
0.0
  0
LINE
  5
82
330
75
100
AcDbEntity
  8
410332038_BUTTON
  6
Continuous
 62
     7
100
AcDbLine
 10
85.45
 20
401.5447216829
 30
0.0
 11
85.45
 21
395.6620004691
 31
0.0
  0
ARC
  5
84
330
75
100
AcDbEntity
  8
410319038_HANDLE
  6
Continuous
 62
     7
100
AcDbCircle
 10
91.45
 20
364.4840836048
 30
0.0
 40
22.99999999999989
100
AcDbArc
 50
285.1216653149
 51
0.0
  0
ARC
  5
85
330
75
100
AcDbEntity
  8
410319038_HANDLE
  6
Continuous
 62
     7
100
AcDbCircle
 10
91.45
 20
364.4840836048
 30
0.0
 40
22.99999999999989
100
AcDbArc
 50
0.0
 51
254.8783346851
  0
ARC
  5
86
330
75
100
AcDbEntity
  8
410319038_HANDLE
  6
Continuous
 62
     7
100
AcDbCircle
 10
91.45
 20
364.4840836048
 30
0.0
 40
31.74999999999993
100
AcDbArc
 50
280.8930528194
 51
0.0
  0
ARC
  5
87
330
75
100
AcDbEntity
  8
410319038_HANDLE
  6
Continuous
 62
     7
100
AcDbCircle
 10
91.45
 20
364.4840836048
 30
0.0
 40
31.74999999999993
100
AcDbArc
 50
0.0
 51
259.1069471806
  0
ARC
  5
88
330
75
100
AcDbEntity
  8
410319038_HANDLE
  6
Continuous
 62
     7
100
AcDbCircle
 10
91.45
 20
364.4840836048
 30
0.0
 40
31.7500000000001
100
AcDbArc
 50
101.7022750705
 51
101.7038176576
  0
LINE
  5
8A
330
75
100
AcDbEntity
  8
11218038_GRIFF__
  6
Continuous
 62
     7
100
AcDbLine
 10
85.95
 20
304.4840836048
 30
0.0
 11
96.95
 21
304.4840836048
 31
0.0
  0
ARC
  5
8B
330
75
100
AcDbEntity
  8
11218038_GRIFF__
  6
Continuous
 62
     7
100
AcDbCircle
 10
91.45
 20
364.4840836048
 30
0.0
 40
11.0
100
AcDbArc
 50
122.9261300415
 51
237.0738699585
  0
LINE
  5
8C
330
75
100
AcDbEntity
  8
11218038_GRIFF__
  6
Continuous
 62
     7
100
AcDbLine
 10
85.45
 20
373.1009275746
 30
0.0
 11
85.45
 21
355.8672396349
 31
0.0
  0
ARC
  5
8D
330
75
100
AcDbEntity
  8
11218038_GRIFF__
  6
Continuous
 62
     7
100
AcDbCircle
 10
91.45
 20
364.4840836048
 30
0.0
 40
11.0
100
AcDbArc
 50
302.9261300415
 51
57.0738699585
  0
LINE
  5
8E
330
75
100
AcDbEntity
  8
11218038_GRIFF__
  6
Continuous
 62
     7
100
AcDbLine
 10
97.45
 20
355.8672396349
 30
0.0
 11
97.45
 21
373.1009275746
 31
0.0
  0
LINE
  5
8F
330
75
100
AcDbEntity
  8
11218038_GRIFF__
  6
Continuous
 62
     7
100
AcDbLine
 10
96.95
 20
380.4840836048
 30
0.0
 11
85.95
 21
380.4840836048
 31
0.0
  0
LINE
  5
90
330
75
100
AcDbEntity
  8
11218038_GRIFF__
  6
Continuous
 62
     7
100
AcDbLine
 10
85.45
 20
355.8672396349
 30
0.0
 11
85.45
 21
304.9840836048
 31
0.0
  0
LINE
  5
91
330
75
100
AcDbEntity
  8
11218038_GRIFF__
  6
Continuous
 62
     7
100
AcDbLine
 10
85.45
 20
379.9840836048
 30
0.0
 11
85.45
 21
373.1009275746
 31
0.0
  0
LINE
  5
92
330
75
100
AcDbEntity
  8
11218038_GRIFF__
  6
Continuous
 62
     7
100
AcDbLine
 10
97.45
 20
373.1009275746
 30
0.0
 11
97.45
 21
379.9840836048
 31
0.0
  0
LINE
  5
93
330
75
100
AcDbEntity
  8
11218038_GRIFF__
  6
Continuous
 62
     7
100
AcDbLine
 10
97.45
 20
304.9840836048
 30
0.0
 11
97.45
 21
355.8672396349
 31
0.0
  0
ARC
  5
94
330
75
100
AcDbEntity
  8
11218038_GRIFF__
  6
Continuous
 62
     7
100
AcDbCircle
 10
96.95
 20
304.9840836048
 30
0.0
 40
0.5000000000000004
100
AcDbArc
 50
270.0
 51
0.0
  0
ARC
  5
95
330
75
100
AcDbEntity
  8
11218038_GRIFF__
  6
Continuous
 62
     7
100
AcDbCircle
 10
85.95
 20
304.9840836048
 30
0.0
 40
0.4999999999999996
100
AcDbArc
 50
180.0
 51
270.0
  0
ARC
  5
96
330
75
100
AcDbEntity
  8
11218038_GRIFF__
  6
Continuous
 62
     7
100
AcDbCircle
 10
96.95
 20
379.9840836048
 30
0.0
 40
0.4999999999999996
100
AcDbArc
 50
0.0
 51
90.0
  0
ARC
  5
97
330
75
100
AcDbEntity
  8
11218038_GRIFF__
  6
Continuous
 62
     7
100
AcDbCircle
 10
85.95
 20
379.9840836048
 30
0.0
 40
0.5000000000000004
100
AcDbArc
 50
90.0
 51
180.0
  0
ARC
  5
99
330
75
100
AcDbEntity
  8
410365040_ESCUTC
  6
Continuous
 62
     7
100
AcDbCircle
 10
91.45
 20
364.4840836048
 30
0.0
 40
79.0
100
AcDbArc
 50
273.6287405634
 51
360.0
  0
ARC
  5
9A
330
75
100
AcDbEntity
  8
410365040_ESCUTC
  6
Continuous
 62
     7
100
AcDbCircle
 10
91.45
 20
364.4840836048
 30
0.0
 40
79.0
100
AcDbArc
 50
0.0
 51
266.3712594367
  0
ARC
  5
9B
330
75
100
AcDbEntity
  8
410365040_ESCUTC
  6
Continuous
 62
     7
100
AcDbCircle
 10
91.45
 20
364.4840836048
 30
0.0
 40
85.0
100
AcDbArc
 50
273.3722866834
 51
360.0
  0
ARC
  5
9C
330
75
100
AcDbEntity
  8
410365040_ESCUTC
  6
Continuous
 62
     7
100
AcDbCircle
 10
91.45
 20
364.4840836048
 30
0.0
 40
85.0
100
AcDbArc
 50
0.0
 51
266.6277133166
  0
ENDBLK
  5
9E
330
75
100
AcDbEntity
  8
0
100
AcDbBlockEnd
  0
BLOCK
  5
10A
330
9F
100
AcDbEntity
  8
0
100
AcDbBlockBegin
  2
SE1
 70
     0
 10
0.0
 20
0.0
 30
0.0
  3
SE1
  1

  0
LINE
  5
A2
330
9F
100
AcDbEntity
  8
410064038_SLEEVE
  6
Continuous
 62
     7
100
AcDbLine
 10
283.0619772988
 20
396.2340836048
 30
0.0
 11
265.7750693944
 21
396.2340836048
 31
0.0
  0
LINE
  5
A3
330
9F
100
AcDbEntity
  8
410064038_SLEEVE
  6
Continuous
 62
     7
100
AcDbLine
 10
265.7750693944
 20
332.7340836048
 30
0.0
 11
283.0619772988
 21
332.7340836048
 31
0.0
  0
ARC
  5
A5
330
9F
100
AcDbEntity
  8
410306038_DIVERT
  6
Continuous
 62
     7
100
AcDbCircle
 10
292.5902312521
 20
301.7761937815
 30
0.0
 40
31.47282213703754
100
AcDbArc
 50
79.989509121
 51
99.0104896454
  0
LINE
  5
A6
330
9F
100
AcDbEntity
  8
410306038_DIVERT
  6
Continuous
 62
     7
100
AcDbLine
 10
284.1619772988
 20
333.3868228303
 30
0.0
 11
284.1619772988
 21
395.5813443792
 31
0.0
  0
LINE
  5
A7
330
9F
100
AcDbEntity
  8
410306038_DIVERT
  6
Continuous
 62
     7
100
AcDbLine
 10
302.1619772988
 20
395.7297011317
 30
0.0
 11
302.1619772988
 21
333.2384660778
 31
0.0
  0
LINE
  5
A8
330
9F
100
AcDbEntity
  8
410306038_DIVERT
  6
Continuous
 62
     7
100
AcDbLine
 10
301.6576140311
 20
396.2296820932
 30
0.0
 11
284.6576140311
 21
396.0813253408
 31
0.0
  0
LINE
  5
A9
330
9F
100
AcDbEntity
  8
410306038_DIVERT
  6
Continuous
 62
     7
100
AcDbLine
 10
298.0477690414
 20
332.7699877563
 30
0.0
 11
301.6576140311
 21
332.7384851163
 31
0.0
  0
LINE
  5
AA
330
9F
100
AcDbEntity
  8
410306038_DIVERT
  6
Continuous
 62
     7
100
AcDbLine
 10
284.6576140311
 20
332.8868418688
 30
0.0
 11
287.6628338787
 21
332.8606157125
 31
0.0
  0
LINE
  5
AB
330
9F
100
AcDbEntity
  8
410306038_DIVERT
  6
Continuous
 62
     7
100
AcDbLine
 10
283.9637226059
 20
394.4823534623
 30
0.0
 11
283.6619772988
 21
394.4797201709
 31
0.0
  0
LINE
  5
AC
330
9F
100
AcDbEntity
  8
410306038_DIVERT
  6
Continuous
 62
     7
100
AcDbLine
 10
283.6619772988
 20
334.4884470387
 30
0.0
 11
283.9637226059
 21
334.4858137472
 31
0.0
  0
ARC
  5
AD
330
9F
100
AcDbEntity
  8
410306038_DIVERT
  6
Continuous
 62
     7
100
AcDbCircle
 10
283.9619772988
 20
394.6823458469
 30
0.0
 40
0.1999999999999988
100
AcDbArc
 50
270.5
 51
0.0
  0
ARC
  5
AE
330
9F
100
AcDbEntity
  8
410306038_DIVERT
  6
Continuous
 62
     7
100
AcDbCircle
 10
283.9619772988
 20
334.2858213626
 30
0.0
 40
0.2000000000000034
100
AcDbArc
 50
0.0
 51
89.5
  0
ARC
  5
AF
330
9F
100
AcDbEntity
  8
410306038_DIVERT
  6
Continuous
 62
     7
100
AcDbCircle
 10
284.6619772988
 20
395.5813443792
 30
0.0
 40
0.5000000000000014
100
AcDbArc
 50
90.5
 51
180.0
  0
ARC
  5
B0
330
9F
100
AcDbEntity
  8
410306038_DIVERT
  6
Continuous
 62
     7
100
AcDbCircle
 10
284.6619772988
 20
333.3868228303
 30
0.0
 40
0.5000000000000004
100
AcDbArc
 50
180.0
 51
269.5
  0
ARC
  5
B1
330
9F
100
AcDbEntity
  8
410306038_DIVERT
  6
Continuous
 62
     7
100
AcDbCircle
 10
301.6619772988
 20
395.7297011317
 30
0.0
 40
0.5000000000000004
100
AcDbArc
 50
0.0
 51
90.5
  0
ARC
  5
B2
330
9F
100
AcDbEntity
  8
410306038_DIVERT
  6
Continuous
 62
     7
100
AcDbCircle
 10
301.6619772988
 20
333.2384660778
 30
0.0
 40
0.5000000000000003
100
AcDbArc
 50
269.5
 51
0.0
  0
LINE
  5
B3
330
9F
100
AcDbEntity
  8
410312038_LEVER_
  6
Continuous
 62
     7
100
AcDbLine
 10
297.5619779533
 20
279.2840836048
 30
0.0
 11
288.1619779533
 21
279.2840836048
 31
0.0
  0
ARC
  5
B4
330
9F
100
AcDbEntity
  8
410312038_LEVER_
  6
Continuous
 62
     7
100
AcDbCircle
 10
297.5619779533
 20
279.5840836048
 30
0.0
 40
0.2999999999999947
100
AcDbArc
 50
270.0
 51
0.0
  0
ARC
  5
B5
330
9F
100
AcDbEntity
  8
410312038_LEVER_
  6
Continuous
 62
     7
100
AcDbCircle
 10
288.1619779533
 20
279.5840836048
 30
0.0
 40
0.3000000000000017
100
AcDbArc
 50
180.0
 51
270.0
  0
LINE
  5
B6
330
9F
100
AcDbEntity
  8
410312038_LEVER_
  6
Continuous
 62
     7
100
AcDbLine
 10
297.8619779533
 20
279.5840836048
 30
0.0
 11
297.8619779533
 21
332.8037884463
 31
0.0
  0
LINE
  5
B7
330
9F
100
AcDbEntity
  8
410312038_LEVER_
  6
Continuous
 62
     7
100
AcDbLine
 10
287.8619779533
 20
332.8913221331
 30
0.0
 11
287.8619779533
 21
279.5840836048
 31
0.0
  0
LINE
  5
B9
330
9F
100
AcDbEntity
  8
410228031_BEARIN
  6
Continuous
 62
     7
100
AcDbLine
 10
283.6619772988
 20
332.9340836048
 30
0.0
 11
283.6619772988
 21
396.0340836048
 31
0.0
  0
LINE
  5
BA
330
9F
100
AcDbEntity
  8
410228031_BEARIN
  6
Continuous
 62
     7
100
AcDbLine
 10
283.0619772988
 20
332.9340836048
 30
0.0
 11
283.6619772988
 21
332.9340836048
 31
0.0
  0
LINE
  5
BB
330
9F
100
AcDbEntity
  8
410228031_BEARIN
  6
Continuous
 62
     7
100
AcDbLine
 10
283.6619772988
 20
396.0340836048
 30
0.0
 11
283.0619772988
 21
396.0340836048
 31
0.0
  0
CIRCLE
  5
BD
330
9F
100
AcDbEntity
  8
11232031_STIFT_G
  6
Continuous
 62
     7
100
AcDbCircle
 10
355.8619772988
 20
364.4840836048
 30
0.0
 40
2.0
  0
LINE
  5
BE
330
9F
100
AcDbEntity
  8
11232031_STIFT_G
  6
Continuous
 62
     7
100
AcDbLine
 10
355.8619772988
 20
365.6387841431
 30
0.0
 11
356.8619772988
 21
365.0614338739
 31
0.0
  0
LINE
  5
BF
330
9F
100
AcDbEntity
  8
11232031_STIFT_G
  6
Continuous
 62
     7
100
AcDbLine
 10
356.8619772988
 20
365.0614338739
 30
0.0
 11
356.8619772988
 21
363.9067333356
 31
0.0
  0
LINE
  5
C0
330
9F
100
AcDbEntity
  8
11232031_STIFT_G
  6
Continuous
 62
     7
100
AcDbLine
 10
356.8619772988
 20
363.9067333356
 30
0.0
 11
355.8619772988
 21
363.3293830664
 31
0.0
  0
LINE
  5
C1
330
9F
100
AcDbEntity
  8
11232031_STIFT_G
  6
Continuous
 62
     7
100
AcDbLine
 10
355.8619772988
 20
363.3293830664
 30
0.0
 11
354.8619772988
 21
363.9067333356
 31
0.0
  0
LINE
  5
C2
330
9F
100
AcDbEntity
  8
11232031_STIFT_G
  6
Continuous
 62
     7
100
AcDbLine
 10
354.8619772988
 20
363.9067333356
 30
0.0
 11
354.8619772988
 21
365.0614338739
 31
0.0
  0
LINE
  5
C3
330
9F
100
AcDbEntity
  8
11232031_STIFT_G
  6
Continuous
 62
     7
100
AcDbLine
 10
354.8619772988
 20
365.0614338739
 30
0.0
 11
355.8619772988
 21
365.6387841431
 31
0.0
  0
LINE
  5
C4
330
9F
100
AcDbEntity
  8
410332038_BUTTON
  6
Continuous
 62
     7
100
AcDbLine
 10
309.6619772988
 20
402.0447216829
 30
0.0
 11
320.6619772988
 21
402.0447216829
 31
0.0
  0
ARC
  5
C5
330
9F
100
AcDbEntity
  8
410332038_BUTTON
  6
Continuous
 62
     7
100
AcDbCircle
 10
320.6619772988
 20
401.5447216829
 30
0.0
 40
0.5000000000000004
100
AcDbArc
 50
0.0
 51
90.0
  0
ARC
  5
C6
330
9F
100
AcDbEntity
  8
410332038_BUTTON
  6
Continuous
 62
     7
100
AcDbCircle
 10
309.6619772988
 20
401.5447216829
 30
0.0
 40
0.5000000000000004
100
AcDbArc
 50
90.0
 51
180.0
  0
LINE
  5
C7
330
9F
100
AcDbEntity
  8
410332038_BUTTON
  6
Continuous
 62
     7
100
AcDbLine
 10
321.1619772988
 20
396.1550419701
 30
0.0
 11
321.1619772988
 21
401.5447216829
 31
0.0
  0
LINE
  5
C8
330
9F
100
AcDbEntity
  8
410332038_BUTTON
  6
Continuous
 62
     7
100
AcDbLine
 10
309.1619772988
 20
401.5447216829
 30
0.0
 11
309.1619772988
 21
396.1554048116
 31
0.0
  0
LINE
  5
C9
330
9F
100
AcDbEntity
  8
410319038_HANDLE
  6
Continuous
 62
     7
100
AcDbLine
 10
340.3619772988
 20
386.9840836048
 30
0.0
 11
340.3619772988
 21
341.9840836048
 31
0.0
  0
LINE
  5
CA
330
9F
100
AcDbEntity
  8
410319038_HANDLE
  6
Continuous
 62
     7
100
AcDbLine
 10
332.3619772988
 20
395.7340836048
 30
0.0
 11
332.3619772988
 21
333.2340836048
 31
0.0
  0
LINE
  5
CB
330
9F
100
AcDbEntity
  8
410319038_HANDLE
  6
Continuous
 62
     7
100
AcDbLine
 10
302.6619772988
 20
332.9340836048
 30
0.0
 11
302.6619772988
 21
396.0340836048
 31
0.0
  0
ARC
  5
CC
330
9F
100
AcDbEntity
  8
410319038_HANDLE
  6
Continuous
 62
     7
100
AcDbCircle
 10
315.1619772934
 20
426.9476438934
 30
0.0
 40
31.37328139575829
100
AcDbArc
 50
258.2293124554
 51
281.7706865746
  0
LINE
  5
CD
330
9F
100
AcDbEntity
  8
410319038_HANDLE
  6
Continuous
 62
     7
100
AcDbLine
 10
302.4619772988
 20
393.6840836048
 30
0.0
 11
302.1619772988
 21
393.6840836048
 31
0.0
  0
LINE
  5
CE
330
9F
100
AcDbEntity
  8
410319038_HANDLE
  6
Continuous
 62
     7
100
AcDbLine
 10
302.1619772988
 20
335.2840836048
 30
0.0
 11
302.4619772988
 21
335.2840836048
 31
0.0
  0
LINE
  5
CF
330
9F
100
AcDbEntity
  8
410319038_HANDLE
  6
Continuous
 62
     7
100
AcDbLine
 10
339.8619772988
 20
387.4840836048
 30
0.0
 11
332.8619772988
 21
387.4840836048
 31
0.0
  0
LINE
  5
D0
330
9F
100
AcDbEntity
  8
410319038_HANDLE
  6
Continuous
 62
     7
100
AcDbLine
 10
332.8619772988
 20
341.4840836048
 30
0.0
 11
339.8619772988
 21
341.4840836048
 31
0.0
  0
ARC
  5
D1
330
9F
100
AcDbEntity
  8
410319038_HANDLE
  6
Continuous
 62
     7
100
AcDbCircle
 10
339.8619772988
 20
341.9840836048
 30
0.0
 40
0.5000000000000004
100
AcDbArc
 50
270.0
 51
0.0
  0
ARC
  5
D2
330
9F
100
AcDbEntity
  8
410319038_HANDLE
  6
Continuous
 62
     7
100
AcDbCircle
 10
339.8619772988
 20
386.9840836048
 30
0.0
 40
0.5000000000000004
100
AcDbArc
 50
0.0
 51
90.0
  0
ARC
  5
D3
330
9F
100
AcDbEntity
  8
410319038_HANDLE
  6
Continuous
 62
     7
100
AcDbCircle
 10
331.8619772988
 20
333.2340836048
 30
0.0
 40
0.499999999999997
100
AcDbArc
 50
270.0
 51
0.0
  0
ARC
  5
D4
330
9F
100
AcDbEntity
  8
410319038_HANDLE
  6
Continuous
 62
     7
100
AcDbCircle
 10
331.8619772988
 20
395.7340836048
 30
0.0
 40
0.5000000000000004
100
AcDbArc
 50
0.0
 51
90.0
  0
ARC
  5
D5
330
9F
100
AcDbEntity
  8
410319038_HANDLE
  6
Continuous
 62
     7
100
AcDbCircle
 10
332.8619772988
 20
340.9840836048
 30
0.0
 40
0.5000000000000004
100
AcDbArc
 50
90.0
 51
180.0
  0
ARC
  5
D6
330
9F
100
AcDbEntity
  8
410319038_HANDLE
  6
Continuous
 62
     7
100
AcDbCircle
 10
332.8619772988
 20
387.9840836048
 30
0.0
 40
0.5000000000000004
100
AcDbArc
 50
180.0
 51
270.0
  0
ARC
  5
D7
330
9F
100
AcDbEntity
  8
410319038_HANDLE
  6
Continuous
 62
     7
100
AcDbCircle
 10
302.8619772988
 20
396.0340836048
 30
0.0
 40
0.1999999999999988
100
AcDbArc
 50
90.0
 51
180.0
  0
ARC
  5
D8
330
9F
100
AcDbEntity
  8
410319038_HANDLE
  6
Continuous
 62
     7
100
AcDbCircle
 10
302.8619772988
 20
332.9340836048
 30
0.0
 40
0.1999999999999988
100
AcDbArc
 50
180.0
 51
270.0
  0
LINE
  5
D9
330
9F
100
AcDbEntity
  8
410319038_HANDLE
  6
Continuous
 62
     7
100
AcDbLine
 10
308.7619772988
 20
396.2340836048
 30
0.0
 11
302.8619772988
 21
396.2340836048
 31
0.0
  0
LINE
  5
DA
330
9F
100
AcDbEntity
  8
410319038_HANDLE
  6
Continuous
 62
     7
100
AcDbLine
 10
331.8619772988
 20
396.2340836048
 30
0.0
 11
321.5462316911
 21
396.2340836048
 31
0.0
  0
LINE
  5
DB
330
9F
100
AcDbEntity
  8
410319038_HANDLE
  6
Continuous
 62
     7
100
AcDbLine
 10
302.8619772988
 20
332.7340836048
 30
0.0
 11
331.8619772988
 21
332.7340836048
 31
0.0
  0
ARC
  5
DC
330
9F
100
AcDbEntity
  8
410319038_HANDLE
  6
Continuous
 62
     7
100
AcDbCircle
 10
302.4619772988
 20
393.8840836048
 30
0.0
 40
0.1999999999999988
100
AcDbArc
 50
270.0
 51
0.0
  0
ARC
  5
DD
330
9F
100
AcDbEntity
  8
410319038_HANDLE
  6
Continuous
 62
     7
100
AcDbCircle
 10
302.4619772988
 20
335.0840836048
 30
0.0
 40
0.1999999999999988
100
AcDbArc
 50
0.0
 51
90.0
  0
LINE
  5
DE
330
9F
100
AcDbEntity
  8
11218038_GRIFF__
  6
Continuous
 62
     7
100
AcDbLine
 10
366.3619772988
 20
304.4840836048
 30
0.0
 11
355.3619772988
 21
304.4840836048
 31
0.0
  0
LINE
  5
DF
330
9F
100
AcDbEntity
  8
11218038_GRIFF__
  6
Continuous
 62
     7
100
AcDbLine
 10
360.8619772988
 20
373.1009275746
 30
0.0
 11
360.8619772988
 21
355.8672396349
 31
0.0
  0
SPLINE
  5
E0
330
9F
100
AcDbEntity
  8
11218038_GRIFF__
  6
Continuous
 62
     7
100
AcDbSpline
210
0.0
220
0.0
230
1.0
 70
     8
 71
     3
 72
    10
 73
     6
 74
     0
 42
0.000000011169161
 43
0.0000000001
 40
0.0
 40
0.0
 40
0.0
 40
0.0
 40
0.5
 40
0.5
 40
1.0
 40
1.0
 40
1.0
 40
1.0
 10
360.3619772988256
 20
373.7171762610652
 30
0.0
 10
360.5084577067634
 20
373.7092439022451
 30
0.0
 10
360.6431793827854
 20
373.6263951858093
 30
0.0
 10
360.8183946851199
 20
373.3940256262679
 30
0.0
 10
360.8619772988256
 20
373.2475387618706
 30
0.0
 10
360.8619772988256
 20
373.1009275745626
 30
0.0
  0
SPLINE
  5
E1
330
9F
100
AcDbEntity
  8
11218038_GRIFF__
  6
Continuous
 62
     7
100
AcDbSpline
210
0.0
220
0.0
230
1.0
 70
     8
 71
     3
 72
    12
 73
     8
 74
     0
 42
0.000000011240689
 43
0.0000000001
 40
0.0
 40
0.0
 40
0.0
 40
0.0
 40
0.2499999999999994
 40
0.2499999999999994
 40
0.4999999999999988
 40
0.4999999999999988
 40
1.0
 40
1.0
 40
1.0
 40
1.0
 10
360.8619772988257
 20
355.8672396349485
 30
0.0
 10
360.8619772988257
 20
355.7937690279055
 30
0.0
 10
360.8514098907896
 20
355.7221759720545
 30
0.0
 10
360.8079219198814
 20
355.5829616650581
 30
0.0
 10
360.7751460961336
 20
355.5170647662887
 30
0.0
 10
360.6445174209491
 20
355.3429958472812
 30
0.0
 10
360.5090526170115
 20
355.2589555234621
 30
0.0
 10
360.3619772988257
 20
355.2509909484459
 30
0.0
  0
ARC
  5
E2
330
9F
100
AcDbEntity
  8
11218038_GRIFF__
  6
Continuous
 62
     7
100
AcDbCircle
 10
361.7559226291
 20
341.4683320961
 30
0.0
 40
13.85296966807099
100
AcDbArc
 50
95.7751213805
 51
119.84471751
  0
ARC
  5
E3
330
9F
100
AcDbEntity
  8
11218038_GRIFF__
  6
Continuous
 62
     7
100
AcDbCircle
 10
361.5233373275
 20
386.77584604
 30
0.0
 40
13.11021027713001
100
AcDbArc
 50
239.4623443057
 51
264.917826471
  0
LINE
  5
E4
330
9F
100
AcDbEntity
  8
11218038_GRIFF__
  6
Continuous
 62
     7
100
AcDbLine
 10
355.3619772988
 20
380.4840836048
 30
0.0
 11
366.3619772988
 21
380.4840836048
 31
0.0
  0
LINE
  5
E5
330
9F
100
AcDbEntity
  8
11218038_GRIFF__
  6
Continuous
 62
     7
100
AcDbLine
 10
340.3619772988
 20
353.4840836048
 30
0.0
 11
354.8798393517
 21
353.4840836048
 31
0.0
  0
LINE
  5
E6
330
9F
100
AcDbEntity
  8
11218038_GRIFF__
  6
Continuous
 62
     7
100
AcDbLine
 10
354.8831513477
 20
375.4840836048
 30
0.0
 11
340.3619772988
 21
375.4840836048
 31
0.0
  0
LINE
  5
E7
330
9F
100
AcDbEntity
  8
11218038_GRIFF__
  6
Continuous
 62
     7
100
AcDbLine
 10
354.8619772988
 20
353.493798218
 30
0.0
 11
354.8619772988
 21
304.9840836048
 31
0.0
  0
LINE
  5
E8
330
9F
100
AcDbEntity
  8
11218038_GRIFF__
  6
Continuous
 62
     7
100
AcDbLine
 10
354.8619772988
 20
379.9840836048
 30
0.0
 11
354.8619772988
 21
375.4725489838
 31
0.0
  0
LINE
  5
E9
330
9F
100
AcDbEntity
  8
11218038_GRIFF__
  6
Continuous
 62
     7
100
AcDbLine
 10
366.8619772988
 20
304.9840836048
 30
0.0
 11
366.8619772988
 21
379.9840836048
 31
0.0
  0
ARC
  5
EA
330
9F
100
AcDbEntity
  8
11218038_GRIFF__
  6
Continuous
 62
     7
100
AcDbCircle
 10
366.3619772988
 20
304.9840836048
 30
0.0
 40
0.5000000000000004
100
AcDbArc
 50
270.0
 51
0.0
  0
ARC
  5
EB
330
9F
100
AcDbEntity
  8
11218038_GRIFF__
  6
Continuous
 62
     7
100
AcDbCircle
 10
355.3619772988
 20
304.9840836048
 30
0.0
 40
0.5000000000000004
100
AcDbArc
 50
180.0
 51
270.0
  0
ARC
  5
EC
330
9F
100
AcDbEntity
  8
11218038_GRIFF__
  6
Continuous
 62
     7
100
AcDbCircle
 10
366.3619772988
 20
379.9840836048
 30
0.0
 40
0.5000000000000004
100
AcDbArc
 50
0.0
 51
90.0
  0
ARC
  5
ED
330
9F
100
AcDbEntity
  8
11218038_GRIFF__
  6
Continuous
 62
     7
100
AcDbCircle
 10
355.3619772988
 20
379.9840836048
 30
0.0
 40
0.5000000000000004
100
AcDbArc
 50
90.0
 51
180.0
  0
LINE
  5
EE
330
9F
100
AcDbEntity
  8
410365040_ESCUTC
  6
Continuous
 62
     7
100
AcDbLine
 10
260.0619796396
 20
448.9840836048
 30
0.0
 11
260.0619796396
 21
279.9840836048
 31
0.0
  0
LINE
  5
EF
330
9F
100
AcDbEntity
  8
410365040_ESCUTC
  6
Continuous
 62
     7
100
AcDbLine
 10
254.5619796396
 20
279.7359360102
 30
0.0
 11
255.4619796396
 21
279.7359360102
 31
0.0
  0
SPLINE
  5
F0
330
9F
100
AcDbEntity
  8
410365040_ESCUTC
  6
Continuous
 62
     7
100
AcDbSpline
210
0.0
220
0.0
230
1.0
 70
     8
 71
     3
 72
    18
 73
    14
 74
     0
 42
0.0000000065906273
 43
0.0000000001
 40
0.0
 40
0.0
 40
0.0
 40
0.0
 40
0.1250000000000002
 40
0.1250000000000002
 40
0.2500000000000004
 40
0.2500000000000004
 40
0.3750000000000007
 40
0.3750000000000007
 40
0.5000000000000009
 40
0.5000000000000009
 40
0.7500000000000004
 40
0.7500000000000004
 40
1.0
 40
1.0
 40
1.0
 40
1.0
 10
255.4619796396346
 20
279.735936010191
 30
0.0
 10
255.5614307574523
 20
279.735936010191
 30
0.0
 10
255.6591960288827
 20
279.7351743956167
 30
0.0
 10
255.8514962983778
 20
279.7322114442227
 30
0.0
 10
255.9470451243116
 20
279.7299733069416
 30
0.0
 10
256.1289403858094
 20
279.7242067683335
 30
0.0
 10
256.215168812516
 20
279.7207043615311
 30
0.0
 10
256.3782863228622
 20
279.7125580865256
 30
0.0
 10
256.4553380765263
 20
279.7078810974455
 30
0.0
 10
256.6623701288102
 20
279.692861431018
 30
0.0
 10
256.7736189980944
 20
279.6811409210901
 30
0.0
 10
256.9224976466969
 20
279.6572112868789
 30
0.0
 10
256.9619796396346
 20
279.6447850864312
 30
0.0
 10
256.9619796396346
 20
279.633018398169
 30
0.0
  0
LINE
  5
F1
330
9F
100
AcDbEntity
  8
410365040_ESCUTC
  6
Continuous
 62
     7
100
AcDbLine
 10
256.9619796396
 20
279.6330183982
 30
0.0
 11
256.9619796396
 21
279.4840836048
 31
0.0
  0
LINE
  5
F2
330
9F
100
AcDbEntity
  8
410365040_ESCUTC
  6
Continuous
 62
     7
100
AcDbLine
 10
254.0619796396
 20
448.9840836048
 30
0.0
 11
254.0619796396
 21
280.2344545255
 31
0.0
  0
ELLIPSE
  5
F3
330
9F
100
AcDbEntity
  8
410365040_ESCUTC
  6
Continuous
 62
     7
100
AcDbEllipse
 10
254.5619796396
 20
280.2344545255
 30
0.0
 11
0.4999999999999947
 21
2.081668171172169E-13
 31
0.0
210
0.0
220
0.0
230
1.0
 40
0.9970370305
 41
3.141592653589376
 42
4.712388980384274
  0
LINE
  5
F4
330
9F
100
AcDbEntity
  8
410365040_ESCUTC
  6
Continuous
 62
     7
100
AcDbLine
 10
254.5619796396
 20
279.7344545255
 30
0.0
 11
254.5619796396
 21
279.7359360102
 31
0.0
  0
LINE
  5
F5
330
9F
100
AcDbEntity
  8
410365040_ESCUTC
  6
Continuous
 62
     7
100
AcDbLine
 10
255.4619796396
 20
279.7344545255
 30
0.0
 11
255.4619796396
 21
279.7359360102
 31
0.0
  0
ELLIPSE
  5
F6
330
9F
100
AcDbEntity
  8
410365040_ESCUTC
  6
Continuous
 62
     7
100
AcDbEllipse
 10
256.9619796396
 20
280.1321423111
 30
0.0
 11
0.4999999999999705
 21
2.775557561562891E-13
 31
0.0
210
0.0
220
0.0
230
1.0
 40
0.998247826
 41
4.256204330661252
 42
4.712388980384135
  0
LINE
  5
F7
330
9F
100
AcDbEntity
  8
410365040_ESCUTC
  6
Continuous
 62
     7
100
AcDbLine
 10
263.855832985
 20
443.4840836048
 30
0.0
 11
260.5619796396
 21
443.4840836048
 31
0.0
  0
LINE
  5
F8
330
9F
100
AcDbEntity
  8
410365040_ESCUTC
  6
Continuous
 62
     7
100
AcDbLine
 10
260.5619796396
 20
285.4840836048
 30
0.0
 11
263.855832985
 21
285.4840836048
 31
0.0
  0
ARC
  5
F9
330
9F
100
AcDbEntity
  8
410365040_ESCUTC
  6
Continuous
 62
     7
100
AcDbCircle
 10
-1541.1880203602
 20
364.4840836048
 30
0.0
 40
1807.249999999848
100
AcDbArc
 50
357.5098187432
 51
358.978986886
  0
ARC
  5
FA
330
9F
100
AcDbEntity
  8
410365040_ESCUTC
  6
Continuous
 62
     7
100
AcDbCircle
 10
-1541.1880203602
 20
364.4840836048
 30
0.0
 40
1807.249999999848
100
AcDbArc
 50
1.021013114
 51
2.4901812568
  0
LINE
  5
FB
330
9F
100
AcDbEntity
  8
410365040_ESCUTC
  6
Continuous
 62
     7
100
AcDbLine
 10
265.7750693944
 20
332.2840836048
 30
0.0
 11
265.7750693944
 21
396.6840836048
 31
0.0
  0
ARC
  5
FC
330
9F
100
AcDbEntity
  8
410365040_ESCUTC
  6
Continuous
 62
     7
100
AcDbCircle
 10
263.855832985
 20
285.9840836048
 30
0.0
 40
0.5000000000000004
100
AcDbArc
 50
270.0
 51
357.5098187426
  0
ARC
  5
FD
330
9F
100
AcDbEntity
  8
410365040_ESCUTC
  6
Continuous
 62
     7
100
AcDbCircle
 10
263.855832985
 20
442.9840836048
 30
0.0
 40
0.4999999999997695
100
AcDbArc
 50
2.4901812574
 51
90.0
  0
ARC
  5
FE
330
9F
100
AcDbEntity
  8
410365040_ESCUTC
  6
Continuous
 62
     7
100
AcDbCircle
 10
259.5619796396
 20
448.9840836048
 30
0.0
 40
0.5000000000000004
100
AcDbArc
 50
0.0
 51
90.0
  0
ARC
  5
FF
330
9F
100
AcDbEntity
  8
410365040_ESCUTC
  6
Continuous
 62
     7
100
AcDbCircle
 10
259.5619796396
 20
279.9840836048
 30
0.0
 40
0.5000000000000004
100
AcDbArc
 50
270.0
 51
0.0
  0
ARC
  5
100
330
9F
100
AcDbEntity
  8
410365040_ESCUTC
  6
Continuous
 62
     7
100
AcDbCircle
 10
260.5619796396
 20
443.9840836048
 30
0.0
 40
0.5000000000000004
100
AcDbArc
 50
180.0
 51
270.0
  0
ARC
  5
101
330
9F
100
AcDbEntity
  8
410365040_ESCUTC
  6
Continuous
 62
     7
100
AcDbCircle
 10
260.5619796396
 20
284.9840836048
 30
0.0
 40
0.4999999999999996
100
AcDbArc
 50
90.0
 51
180.0
  0
LINE
  5
102
330
9F
100
AcDbEntity
  8
410365040_ESCUTC
  6
Continuous
 62
     7
100
AcDbLine
 10
259.5619796396
 20
449.4840836048
 30
0.0
 11
254.5619796396
 21
449.4840836048
 31
0.0
  0
LINE
  5
103
330
9F
100
AcDbEntity
  8
410365040_ESCUTC
  6
Continuous
 62
     7
100
AcDbLine
 10
256.9619796396
 20
279.4840836048
 30
0.0
 11
259.5619796396
 21
279.4840836048
 31
0.0
  0
ARC
  5
104
330
9F
100
AcDbEntity
  8
410365040_ESCUTC
  6
Continuous
 62
     7
100
AcDbCircle
 10
254.5619796396
 20
448.9840836048
 30
0.0
 40
0.5000000000000004
100
AcDbArc
 50
90.0
 51
180.0
  0
ARC
  5
105
330
9F
100
AcDbEntity
  8
410365040_ESCUTC
  6
Continuous
 62
     7
100
AcDbCircle
 10
254.5619796396
 20
280.2344545255
 30
0.0
 40
0.5
100
AcDbArc
 50
180.0
 51
270.0
  0
LINE
  5
106
330
9F
100
AcDbEntity
  8
410365040_ESCUTC
  6
Continuous
 62
     7
100
AcDbLine
 10
254.5619796396
 20
279.7344545255
 30
0.0
 11
255.4619796396
 21
279.7344545255
 31
0.0
  0
SPLINE
  5
107
330
9F
100
AcDbEntity
  8
410365040_ESCUTC
  6
Continuous
 62
     7
100
AcDbSpline
210
0.0
220
0.0
230
1.0
 70
     8
 71
     3
 72
    14
 73
    10
 74
     0
 42
0.0000000052568392
 43
0.0000000001
 40
0.0
 40
0.0
 40
0.0
 40
0.0
 40
0.0516472190266339
 40
0.2066995941949799
 40
0.3610570525863793
 40
0.5139137320856214
 40
0.6332098194299949
 40
0.698807197693914
 40
0.70195110309226
 40
0.70195110309226
 40
0.70195110309226
 40
0.70195110309226
 10
255.4620650166177
 20
279.7334351180427
 30
0.0
 10
255.5128331641195
 20
279.7337591498566
 30
0.0
 10
255.6873282600688
 20
279.7347798427141
 30
0.0
 10
256.015371866437
 20
279.7274069891492
 30
0.0
 10
256.3728971419646
 20
279.7121406782675
 30
0.0
 10
256.632585102915
 20
279.6924879591234
 30
0.0
 10
256.7646107639054
 20
279.6758873440797
 30
0.0
 10
256.7940276849471
 20
279.669946128071
 30
0.0
 10
256.7945457924016
 20
279.6697487836104
 30
0.0
 10
256.794547074122
 20
279.6697446176576
 30
0.0
  0
SPLINE
  5
108
330
9F
100
AcDbEntity
  8
410365040_ESCUTC
  6
Continuous
 62
     7
100
AcDbSpline
210
0.0
220
0.0
230
1.0
 70
     8
 71
     3
 72
    13
 73
     9
 74
     0
 42
0.0000000039744275
 43
0.0000000001
 40
0.775963507924366
 40
0.775963507924366
 40
0.775963507924366
 40
0.775963507924366
 40
0.7800629497928987
 40
0.8160012592877773
 40
0.8685534993303735
 40
0.9311765251901631
 40
0.9991269845559818
 40
1.0
 40
1.0
 40
1.0
 40
1.0
 10
256.7453665950986
 20
279.6873331520782
 30
0.0
 10
256.7434242674893
 20
279.6881946968093
 30
0.0
 10
256.7239119131743
 20
279.6970336354996
 30
0.0
 10
256.666773799055
 20
279.727611653848
 30
0.0
 10
256.5683544358303
 20
279.8126583542916
 30
0.0
 10
256.4897168873443
 20
279.9498882123903
 30
0.0
 10
256.451489878447
 20
280.0726770817025
 30
0.0
 10
256.4622664468367
 20
280.1293172944165
 30
0.0
 10
256.4624249367405
 20
280.1301493649772
 30
0.0
  0
ARC
  5
109
330
9F
100
AcDbEntity
  8
410365040_ESCUTC
  6
Continuous
 62
     7
100
AcDbCircle
 10
256.9619796396
 20
279.9840836048
 30
0.0
 40
0.4999999999999996
100
AcDbArc
 50
215.9993721326
 51
270.0
  0
ENDBLK
  5
10B
330
9F
100
AcDbEntity
  8
0
100
AcDbBlockEnd
  0
BLOCK
  5
14D
330
10C
100
AcDbEntity
  8
0
100
AcDbBlockBegin
  2
SE2
 70
     0
 10
0.0
 20
0.0
 30
0.0
  3
SE2
  1

  0
LINE
  5
10E
330
10C
100
AcDbEntity
  8
410064038_SLEEVE
  6
Continuous
 62
     7
100
AcDbLine
 10
123.2
 20
190.15
 30
0.0
 11
123.2
 21
207.4369079045
 31
0.0
  0
LINE
  5
10F
330
10C
100
AcDbEntity
  8
410064038_SLEEVE
  6
Continuous
 62
     7
100
AcDbLine
 10
59.7
 20
207.4369079045
 30
0.0
 11
59.7
 21
190.15
 31
0.0
  0
LINE
  5
110
330
10C
100
AcDbEntity
  8
410306038_DIVERT
  6
Continuous
 62
     7
100
AcDbLine
 10
122.5472607745
 20
189.05
 30
0.0
 11
60.3527392255
 21
189.05
 31
0.0
  0
LINE
  5
111
330
10C
100
AcDbEntity
  8
410306038_DIVERT
  6
Continuous
 62
     7
100
AcDbLine
 10
60.2043824731
 20
171.05
 30
0.0
 11
122.6956175269
 21
171.05
 31
0.0
  0
LINE
  5
112
330
10C
100
AcDbEntity
  8
410306038_DIVERT
  6
Continuous
 62
     7
100
AcDbLine
 10
123.1955984884
 20
171.5543632677
 30
0.0
 11
123.047241736
 21
188.5543632677
 31
0.0
  0
LINE
  5
113
330
10C
100
AcDbEntity
  8
410306038_DIVERT
  6
Continuous
 62
     7
100
AcDbLine
 10
59.852758264
 20
188.5543632677
 30
0.0
 11
59.7044015116
 21
171.5543632677
 31
0.0
  0
LINE
  5
114
330
10C
100
AcDbEntity
  8
410306038_DIVERT
  6
Continuous
 62
     7
100
AcDbLine
 10
121.4482698575
 20
189.2482546929
 30
0.0
 11
121.4456365661
 21
189.55
 31
0.0
  0
LINE
  5
115
330
10C
100
AcDbEntity
  8
410306038_DIVERT
  6
Continuous
 62
     7
100
AcDbLine
 10
61.4543634339
 20
189.55
 30
0.0
 11
61.4517301425
 21
189.2482546929
 31
0.0
  0
ARC
  5
116
330
10C
100
AcDbEntity
  8
410306038_DIVERT
  6
Continuous
 62
     7
100
AcDbCircle
 10
121.6482622421
 20
189.25
 30
0.0
 40
0.1999999999999988
100
AcDbArc
 50
180.5
 51
270.0
  0
ARC
  5
117
330
10C
100
AcDbEntity
  8
410306038_DIVERT
  6
Continuous
 62
     7
100
AcDbCircle
 10
61.2517377579
 20
189.25
 30
0.0
 40
0.2000000000000034
100
AcDbArc
 50
270.0
 51
359.5
  0
ARC
  5
118
330
10C
100
AcDbEntity
  8
410306038_DIVERT
  6
Continuous
 62
     7
100
AcDbCircle
 10
122.5472607745
 20
188.55
 30
0.0
 40
0.500000000000005
100
AcDbArc
 50
0.5
 51
90.0
  0
ARC
  5
119
330
10C
100
AcDbEntity
  8
410306038_DIVERT
  6
Continuous
 62
     7
100
AcDbCircle
 10
60.3527392255
 20
188.55
 30
0.0
 40
0.5000000000000004
100
AcDbArc
 50
90.0
 51
179.5
  0
ARC
  5
11A
330
10C
100
AcDbEntity
  8
410306038_DIVERT
  6
Continuous
 62
     7
100
AcDbCircle
 10
122.6956175269
 20
171.55
 30
0.0
 40
0.5000000000000004
100
AcDbArc
 50
270.0
 51
0.5
  0
ARC
  5
11B
330
10C
100
AcDbEntity
  8
410306038_DIVERT
  6
Continuous
 62
     7
100
AcDbCircle
 10
60.2043824731
 20
171.55
 30
0.0
 40
0.4999999999999969
100
AcDbArc
 50
179.5
 51
270.0
  0
LINE
  5
11C
330
10C
100
AcDbEntity
  8
410228031_BEARIN
  6
Continuous
 62
     7
100
AcDbLine
 10
59.9
 20
189.55
 30
0.0
 11
123.0
 21
189.55
 31
0.0
  0
LINE
  5
11D
330
10C
100
AcDbEntity
  8
410228031_BEARIN
  6
Continuous
 62
     7
100
AcDbLine
 10
59.9
 20
190.15
 30
0.0
 11
59.9
 21
189.55
 31
0.0
  0
LINE
  5
11E
330
10C
100
AcDbEntity
  8
410228031_BEARIN
  6
Continuous
 62
     7
100
AcDbLine
 10
123.0
 20
189.55
 30
0.0
 11
123.0
 21
190.15
 31
0.0
  0
CIRCLE
  5
11F
330
10C
100
AcDbEntity
  8
410332038_BUTTON
  6
Continuous
 62
     7
100
AcDbCircle
 10
91.45
 20
158.05
 30
0.0
 40
6.0
  0
LINE
  5
120
330
10C
100
AcDbEntity
  8
410319038_HANDLE
  6
Continuous
 62
     7
100
AcDbLine
 10
68.95
 20
132.85
 30
0.0
 11
113.95
 21
132.85
 31
0.0
  0
LINE
  5
121
330
10C
100
AcDbEntity
  8
410319038_HANDLE
  6
Continuous
 62
     7
100
AcDbLine
 10
60.2
 20
140.85
 30
0.0
 11
122.7
 21
140.85
 31
0.0
  0
LINE
  5
122
330
10C
100
AcDbEntity
  8
410319038_HANDLE
  6
Continuous
 62
     7
100
AcDbLine
 10
123.0
 20
170.55
 30
0.0
 11
59.9
 21
170.55
 31
0.0
  0
LINE
  5
123
330
10C
100
AcDbEntity
  8
410319038_HANDLE
  6
Continuous
 62
     7
100
AcDbLine
 10
120.65
 20
170.75
 30
0.0
 11
120.65
 21
171.05
 31
0.0
  0
LINE
  5
124
330
10C
100
AcDbEntity
  8
410319038_HANDLE
  6
Continuous
 62
     7
100
AcDbLine
 10
62.25
 20
171.05
 30
0.0
 11
62.25
 21
170.75
 31
0.0
  0
LINE
  5
125
330
10C
100
AcDbEntity
  8
410319038_HANDLE
  6
Continuous
 62
     7
100
AcDbLine
 10
114.45
 20
133.35
 30
0.0
 11
114.45
 21
140.35
 31
0.0
  0
LINE
  5
126
330
10C
100
AcDbEntity
  8
410319038_HANDLE
  6
Continuous
 62
     7
100
AcDbLine
 10
68.45
 20
140.35
 30
0.0
 11
68.45
 21
133.35
 31
0.0
  0
ARC
  5
127
330
10C
100
AcDbEntity
  8
410319038_HANDLE
  6
Continuous
 62
     7
100
AcDbCircle
 10
68.95
 20
133.35
 30
0.0
 40
0.5000000000000004
100
AcDbArc
 50
180.0
 51
270.0
  0
ARC
  5
128
330
10C
100
AcDbEntity
  8
410319038_HANDLE
  6
Continuous
 62
     7
100
AcDbCircle
 10
113.95
 20
133.35
 30
0.0
 40
0.5000000000000004
100
AcDbArc
 50
270.0
 51
0.0
  0
ARC
  5
129
330
10C
100
AcDbEntity
  8
410319038_HANDLE
  6
Continuous
 62
     7
100
AcDbCircle
 10
60.2
 20
141.35
 30
0.0
 40
0.49999999999999
100
AcDbArc
 50
180.0
 51
270.0
  0
ARC
  5
12A
330
10C
100
AcDbEntity
  8
410319038_HANDLE
  6
Continuous
 62
     7
100
AcDbCircle
 10
122.7
 20
141.35
 30
0.0
 40
0.5000000000000004
100
AcDbArc
 50
270.0
 51
0.0
  0
ARC
  5
12B
330
10C
100
AcDbEntity
  8
410319038_HANDLE
  6
Continuous
 62
     7
100
AcDbCircle
 10
67.95
 20
140.35
 30
0.0
 40
0.5000000000000004
100
AcDbArc
 50
0.0
 51
90.0
  0
ARC
  5
12C
330
10C
100
AcDbEntity
  8
410319038_HANDLE
  6
Continuous
 62
     7
100
AcDbCircle
 10
114.95
 20
140.35
 30
0.0
 40
0.5000000000000004
100
AcDbArc
 50
90.0
 51
180.0
  0
ARC
  5
12D
330
10C
100
AcDbEntity
  8
410319038_HANDLE
  6
Continuous
 62
     7
100
AcDbCircle
 10
123.0
 20
170.35
 30
0.0
 40
0.2000000000000057
100
AcDbArc
 50
0.0
 51
90.0
  0
ARC
  5
12E
330
10C
100
AcDbEntity
  8
410319038_HANDLE
  6
Continuous
 62
     7
100
AcDbCircle
 10
59.9
 20
170.35
 30
0.0
 40
0.1999999999999988
100
AcDbArc
 50
90.0
 51
180.0
  0
LINE
  5
12F
330
10C
100
AcDbEntity
  8
410319038_HANDLE
  6
Continuous
 62
     7
100
AcDbLine
 10
123.2
 20
141.35
 30
0.0
 11
123.2
 21
170.35
 31
0.0
  0
LINE
  5
130
330
10C
100
AcDbEntity
  8
410319038_HANDLE
  6
Continuous
 62
     7
100
AcDbLine
 10
59.7
 20
170.35
 30
0.0
 11
59.7
 21
141.35
 31
0.0
  0
ARC
  5
131
330
10C
100
AcDbEntity
  8
410319038_HANDLE
  6
Continuous
 62
     7
100
AcDbCircle
 10
120.85
 20
170.75
 30
0.0
 40
0.1999999999999988
100
AcDbArc
 50
180.0
 51
270.0
  0
ARC
  5
132
330
10C
100
AcDbEntity
  8
410319038_HANDLE
  6
Continuous
 62
     7
100
AcDbCircle
 10
62.05
 20
170.75
 30
0.0
 40
0.1999999999999988
100
AcDbArc
 50
270.0
 51
0.0
  0
LINE
  5
133
330
10C
100
AcDbEntity
  8
11218038_GRIFF__
  6
Continuous
 62
     7
100
AcDbLine
 10
85.45
 20
112.35
 30
0.0
 11
80.95
 21
112.35
 31
0.0
  0
LINE
  5
134
330
10C
100
AcDbEntity
  8
11218038_GRIFF__
  6
Continuous
 62
     7
100
AcDbLine
 10
97.45
 20
112.35
 30
0.0
 11
101.95
 21
112.35
 31
0.0
  0
CIRCLE
  5
135
330
10C
100
AcDbEntity
  8
11218038_GRIFF__
  6
Continuous
 62
     7
100
AcDbCircle
 10
91.45
 20
112.35
 30
0.0
 40
5.999999999999999
  0
ARC
  5
136
330
10C
100
AcDbEntity
  8
11218038_GRIFF__
  6
Continuous
 62
     7
100
AcDbCircle
 10
70.0863778288
 20
117.3500000149
 30
0.0
 40
10.61577432116654
100
AcDbArc
 50
347.4871486534
 51
12.5128584701
  0
LINE
  5
137
330
10C
100
AcDbEntity
  8
11218038_GRIFF__
  6
Continuous
 62
     7
100
AcDbLine
 10
80.45
 20
115.0504966507
 30
0.0
 11
80.45
 21
112.85
 31
0.0
  0
LINE
  5
138
330
10C
100
AcDbEntity
  8
11218038_GRIFF__
  6
Continuous
 62
     7
100
AcDbLine
 10
80.45
 20
132.85
 30
0.0
 11
80.45
 21
119.65
 31
0.0
  0
LINE
  5
139
330
10C
100
AcDbEntity
  8
11218038_GRIFF__
  6
Continuous
 62
     7
100
AcDbLine
 10
102.45
 20
112.85
 30
0.0
 11
102.45
 21
132.85
 31
0.0
  0
ARC
  5
13A
330
10C
100
AcDbEntity
  8
11218038_GRIFF__
  6
Continuous
 62
     7
100
AcDbCircle
 10
80.95
 20
112.85
 30
0.0
 40
0.5000000000000004
100
AcDbArc
 50
180.0
 51
270.0
  0
ARC
  5
13B
330
10C
100
AcDbEntity
  8
11218038_GRIFF__
  6
Continuous
 62
     7
100
AcDbCircle
 10
101.95
 20
112.85
 30
0.0
 40
0.5000000000000004
100
AcDbArc
 50
270.0
 51
0.0
  0
LINE
  5
13C
330
10C
100
AcDbEntity
  8
410365040_ESCUTC
  6
Continuous
 62
     7
100
AcDbLine
 10
6.95
 20
213.1499976592
 30
0.0
 11
175.95
 21
213.1499976592
 31
0.0
  0
LINE
  5
13D
330
10C
100
AcDbEntity
  8
410365040_ESCUTC
  6
Continuous
 62
     7
100
AcDbLine
 10
6.95
 20
219.1499976592
 30
0.0
 11
175.95
 21
219.1499976592
 31
0.0
  0
LINE
  5
13E
330
10C
100
AcDbEntity
  8
410365040_ESCUTC
  6
Continuous
 62
     7
100
AcDbLine
 10
170.45
 20
209.3561443138
 30
0.0
 11
170.45
 21
212.6499976592
 31
0.0
  0
LINE
  5
13F
330
10C
100
AcDbEntity
  8
410365040_ESCUTC
  6
Continuous
 62
     7
100
AcDbLine
 10
12.45
 20
212.6499976592
 30
0.0
 11
12.45
 21
209.3561443138
 31
0.0
  0
ARC
  5
140
330
10C
100
AcDbEntity
  8
410365040_ESCUTC
  6
Continuous
 62
     7
100
AcDbCircle
 10
91.4499999999
 20
2014.399997659
 30
0.0
 40
1807.249999999848
100
AcDbArc
 50
267.5098187432
 51
268.978986886
  0
ARC
  5
141
330
10C
100
AcDbEntity
  8
410365040_ESCUTC
  6
Continuous
 62
     7
100
AcDbCircle
 10
91.4499999999
 20
2014.399997659
 30
0.0
 40
1807.249999999849
100
AcDbArc
 50
271.021013114
 51
272.4901812568
  0
LINE
  5
142
330
10C
100
AcDbEntity
  8
410365040_ESCUTC
  6
Continuous
 62
     7
100
AcDbLine
 10
59.25
 20
207.4369079045
 30
0.0
 11
123.65
 21
207.4369079045
 31
0.0
  0
ARC
  5
143
330
10C
100
AcDbEntity
  8
410365040_ESCUTC
  6
Continuous
 62
     7
100
AcDbCircle
 10
12.95
 20
209.3561443138
 30
0.0
 40
0.5000000000000004
100
AcDbArc
 50
180.0
 51
267.5098187397
  0
ARC
  5
144
330
10C
100
AcDbEntity
  8
410365040_ESCUTC
  6
Continuous
 62
     7
100
AcDbCircle
 10
169.95
 20
209.3561443138
 30
0.0
 40
0.4999999999986559
100
AcDbArc
 50
272.4901812545
 51
0.0
  0
ARC
  5
145
330
10C
100
AcDbEntity
  8
410365040_ESCUTC
  6
Continuous
 62
     7
100
AcDbCircle
 10
175.95
 20
213.6499976592
 30
0.0
 40
0.5000000000000004
100
AcDbArc
 50
270.0
 51
0.0
  0
ARC
  5
146
330
10C
100
AcDbEntity
  8
410365040_ESCUTC
  6
Continuous
 62
     7
100
AcDbCircle
 10
6.95
 20
213.6499976592
 30
0.0
 40
0.5000000000000004
100
AcDbArc
 50
180.0
 51
270.0
  0
ARC
  5
147
330
10C
100
AcDbEntity
  8
410365040_ESCUTC
  6
Continuous
 62
     7
100
AcDbCircle
 10
170.95
 20
212.6499976592
 30
0.0
 40
0.5000000000000004
100
AcDbArc
 50
90.0
 51
180.0
  0
ARC
  5
148
330
10C
100
AcDbEntity
  8
410365040_ESCUTC
  6
Continuous
 62
     7
100
AcDbCircle
 10
11.95
 20
212.6499976592
 30
0.0
 40
0.4999999999999996
100
AcDbArc
 50
0.0
 51
90.0
  0
LINE
  5
149
330
10C
100
AcDbEntity
  8
410365040_ESCUTC
  6
Continuous
 62
     7
100
AcDbLine
 10
176.45
 20
213.6499976592
 30
0.0
 11
176.45
 21
218.6499976592
 31
0.0
  0
LINE
  5
14A
330
10C
100
AcDbEntity
  8
410365040_ESCUTC
  6
Continuous
 62
     7
100
AcDbLine
 10
6.45
 20
218.6499976592
 30
0.0
 11
6.45
 21
213.6499976592
 31
0.0
  0
ARC
  5
14B
330
10C
100
AcDbEntity
  8
410365040_ESCUTC
  6
Continuous
 62
     7
100
AcDbCircle
 10
6.95
 20
218.6499976592
 30
0.0
 40
0.5000000000000002
100
AcDbArc
 50
90.0
 51
180.0
  0
ARC
  5
14C
330
10C
100
AcDbEntity
  8
410365040_ESCUTC
  6
Continuous
 62
     7
100
AcDbCircle
 10
175.95
 20
218.6499976592
 30
0.0
 40
0.5000000000000004
100
AcDbArc
 50
0.0
 51
90.0
  0
ENDBLK
  5
14E
330
10C
100
AcDbEntity
  8
0
100
AcDbBlockEnd
  0
ENDSEC
  0
SECTION
  2
ENTITIES
  0
INSERT
  5
5F
330
1F
100
AcDbEntity
  8
Default
100
AcDbBlockReference
  2
SEANNOT_GROUP
 10
0.0
 20
0.0
 30
0.0
  0
INSERT
  5
6A
330
1F
100
AcDbEntity
  8
Default
100
AcDbBlockReference
  2
SEANNOT_GROUP1
 10
0.0
 20
0.0
 30
0.0
  0
INSERT
  5
70
330
1F
100
AcDbEntity
  8
Default
100
AcDbBlockReference
  2
SEANNOT_GROUP2
 10
0.0
 20
0.0
 30
0.0
  0
INSERT
  5
76
330
1F
100
AcDbEntity
  8
Default
100
AcDbBlockReference
  2
SE
 10
0.0
 20
0.0
 30
0.0
  0
INSERT
  5
A0
330
1F
100
AcDbEntity
  8
Default
100
AcDbBlockReference
  2
SE1
 10
0.0
 20
0.0
 30
0.0
  0
INSERT
  5
10D
330
1F
100
AcDbEntity
  8
Default
100
AcDbBlockReference
  2
SE2
 10
0.0
 20
0.0
 30
0.0
  0
TEXT
  5
150
330
1F
100
AcDbEntity
  8
Default
  6
Continuous
 62
     7
100
AcDbText
 10
5.9362635081
 20
53.4225120485
 30
0.0
 40
10.0
  1
Grohe AG^J
  7
SEACAD_seiso_ttf
 11
5.9362635081
 21
63.4225120485
 31
0.0
100
AcDbText
 73
     3
  0
TEXT
  5
151
330
1F
100
AcDbEntity
  8
Default
  6
Continuous
 62
     7
100
AcDbText
 10
5.9362635081
 20
37.0588756849
 30
0.0
 40
10.0
  1
 
  7
SEACAD_seiso_ttf
 11
5.9362635081
 21
47.0588756849
 31
0.0
100
AcDbText
 73
     3
  0
TEXT
  5
152
330
1F
100
AcDbEntity
  8
Default
  6
Continuous
 62
     7
100
AcDbText
 10
5.9362635081
 20
20.6952393213
 30
0.0
 40
10.0
  1
ecn: 
  7
SEACAD_seiso_ttf
 11
5.9362635081
 21
30.6952393213
 31
0.0
100
AcDbText
 73
     3
  0
TEXT
  5
153
330
1F
100
AcDbEntity
  8
Default
  6
Continuous
 62
     7
100
AcDbText
 10
5.9362635081
 20
4.3316029576
 30
0.0
 40
10.0
  1
unit: mm
  7
SEACAD_seiso_ttf
 11
5.9362635081
 21
14.3316029576
 31
0.0
100
AcDbText
 73
     3
  0
LINE
  5
154
330
1F
100
AcDbEntity
  8
Default
  6
Continuous
 62
     7
100
AcDbLine
 10
0.0
 20
0.0
 30
0.0
 11
100.0
 21
0.0
 31
0.0
  0
LINE
  5
155
330
1F
100
AcDbEntity
  8
Default
  6
Continuous
 62
     7
100
AcDbLine
 10
0.0
 20
0.0
 30
0.0
 11
0.0
 21
100.0
 31
0.0
  0
TEXT
  5
156
330
1F
100
AcDbEntity
  8
Default
  6
Continuous
 62
     7
100
AcDbText
 10
24.3923665681
 20
-18.2375342018
 30
0.0
 40
10.0
  1
100 mm
  7
SEACAD_seiso_ttf
 11
24.3923665681
 21
-8.2375342018
 31
0.0
100
AcDbText
 73
     3
  0
TEXT
  5
157
330
1F
100
AcDbEntity
  8
Default
  6
Continuous
 62
     7
100
AcDbText
 10
-7.6150308803
 20
24.6231930421
 30
0.0
 40
10.0
  1
100 mm
 50
90.0
  7
SEACAD_seiso_ttf
 11
-17.6150308803
 21
24.6231930421
 31
0.0
100
AcDbText
 73
     3
  0
TEXT
  5
158
330
1F
100
AcDbEntity
  8
Default
  6
Continuous
 62
     7
100
AcDbText
 10
28.4878128572
 20
20.0907663715
 30
0.0
 40
10.0
  1
219326
  7
SEACAD_seiso_ttf
 11
28.4878128572
 21
30.0907663715
 31
0.0
100
AcDbText
 73
     3
  0
TEXT
  5
159
330
1F
100
AcDbEntity
  8
Default
  6
Continuous
 62
     7
100
AcDbText
 10
5.9012241913
 20
36.7242780188
 30
0.0
 40
10.0
  1
19849000
  7
SEACAD_seiso_ttf
 11
5.9012241913
 21
46.7242780188
 31
0.0
100
AcDbText
 73
     3
  0
ENDSEC
  0
SECTION
  2
OBJECTS
  0
DICTIONARY
  5
C
330
0
100
AcDbDictionary
281
     1
  3
ACAD_GROUP
350
D
  3
ACAD_LAYOUT
350
1A
  3
ACAD_MLEADERSTYLE
350
15D
  3
ACAD_MLINESTYLE
350
17
  3
ACAD_PLOTSETTINGS
350
19
  3
ACAD_PLOTSTYLENAME
350
E
  3
ACAD_SCALELIST
350
3B
  3
ACAD_TABLESTYLE
350
15C
  3
ACAD_VISUALSTYLE
350
2A
  3
AcDbVariableDictionary
350
15A
  0
DICTIONARY
  5
D
102
{ACAD_REACTORS
330
C
102
}
330
C
100
AcDbDictionary
281
     1
  0
DICTIONARY
  5
1A
102
{ACAD_REACTORS
330
C
102
}
330
C
100
AcDbDictionary
281
     1
  3
Layout1
350
1E
  3
Model
350
22
  0
DICTIONARY
  5
15D
102
{ACAD_REACTORS
330
C
102
}
330
C
100
AcDbDictionary
281
     1
  0
DICTIONARY
  5
17
102
{ACAD_REACTORS
330
C
102
}
330
C
100
AcDbDictionary
281
     1
  3
Standard
350
18
  0
DICTIONARY
  5
19
102
{ACAD_REACTORS
330
C
102
}
330
C
100
AcDbDictionary
281
     1
  0
ACDBDICTIONARYWDFLT
  5
E
102
{ACAD_REACTORS
330
C
102
}
330
C
100
AcDbDictionary
281
     1
  3
Normal
350
F
100
AcDbDictionaryWithDefault
340
F
  0
DICTIONARY
  5
3B
102
{ACAD_REACTORS
330
C
102
}
330
C
100
AcDbDictionary
281
     1
  3
A0
350
3C
  3
A1
350
3D
  3
A2
350
3E
  3
A3
350
3F
  3
A4
350
40
  3
A5
350
41
  3
A6
350
42
  3
A7
350
43
  3
A8
350
44
  3
A9
350
45
  3
B0
350
46
  3
B1
350
47
  3
B2
350
48
  3
B3
350
49
  3
B4
350
4A
  3
B5
350
4B
  3
B6
350
4C
  3
B7
350
4D
  3
B8
350
4E
  3
B9
350
4F
  3
C0
350
50
  3
C1
350
51
  3
C2
350
52
  3
C3
350
53
  3
C4
350
54
  3
C5
350
55
  3
C6
350
56
  3
C7
350
57
  3
C8
350
58
  3
C9
350
59
  3
D0
350
5A
  3
D1
350
5B
  3
D2
350
5C
  0
DICTIONARY
  5
15C
102
{ACAD_REACTORS
330
C
102
}
330
C
100
AcDbDictionary
281
     1
  0
DICTIONARY
  5
2A
102
{ACAD_REACTORS
330
C
102
}
330
C
100
AcDbDictionary
281
     1
  3
2dWireframe
350
2F
  3
3D Hidden
350
31
  3
3dWireframe
350
30
  3
Basic
350
32
  3
Brighten
350
36
  3
ColorChange
350
3A
  3
Conceptual
350
34
  3
Dim
350
35
  3
Facepattern
350
39
  3
Flat
350
2B
  3
FlatWithEdges
350
2C
  3
Gouraud
350
2D
  3
GouraudWithEdges
350
2E
  3
Linepattern
350
38
  3
Realistic
350
33
  3
Thicken
350
37
  0
DICTIONARY
  5
15A
102
{ACAD_REACTORS
330
C
102
}
330
C
100
AcDbDictionary
281
     1
  3
CANNOSCALE
350
15B
  3
PSOLHEIGHT
350
15F
  3
PSOLWIDTH
350
15E
  0
LAYOUT
  5
1E
102
{ACAD_REACTORS
330
1A
102
}
330
1A
100
AcDbPlotSettings
  1

  2
none_device
  4

  6

 40
0.0
 41
0.0
 42
0.0
 43
0.0
 44
0.0
 45
0.0
 46
0.0
 47
0.0
 48
0.0
 49
0.0
140
0.0
141
0.0
142
1.0
143
1.0
 70
   688
 72
     0
 73
     0
 74
     5
  7

 75
    16
147
1.0
148
0.0
149
0.0
100
AcDbLayout
  1
Layout1
 70
     1
 71
     1
 10
0.0
 20
0.0
 11
1682.0
 21
2378.0
 12
0.0
 22
0.0
 32
0.0
 14
0.0
 24
0.0
 34
0.0
 15
1682.0
 25
2378.0
 35
0.0
146
0.0
 13
0.0
 23
0.0
 33
0.0
 16
1.0
 26
0.0
 36
0.0
 17
0.0
 27
1.0
 37
0.0
 76
     0
330
1B
  0
LAYOUT
  5
22
102
{ACAD_REACTORS
330
1A
102
}
330
1A
100
AcDbPlotSettings
  1

  2
none_device
  4

  6

 40
0.0
 41
0.0
 42
0.0
 43
0.0
 44
0.0
 45
0.0
 46
0.0
 47
0.0
 48
0.0
 49
0.0
140
0.0
141
0.0
142
1.0
143
1.0
 70
  1712
 72
     0
 73
     0
 74
     0
  7

 75
     0
147
1.0
148
0.0
149
0.0
100
AcDbLayout
  1
Model
 70
     1
 71
     0
 10
0.0
 20
0.0
 11
1682.0
 21
2378.0
 12
0.0
 22
0.0
 32
0.0
 14
0.0
 24
0.0
 34
0.0
 15
1682.0
 25
2378.0
 35
0.0
146
0.0
 13
0.0
 23
0.0
 33
0.0
 16
1.0
 26
0.0
 36
0.0
 17
0.0
 27
1.0
 37
0.0
 76
     0
330
1F
331
29
  0
MLINESTYLE
  5
18
102
{ACAD_REACTORS
330
17
102
}
330
17
100
AcDbMlineStyle
  2
Standard
 70
     0
  3

 62
   256
 51
90.0
 52
90.0
 71
     2
 49
0.5
 62
   256
  6
BYLAYER
 49
-0.5
 62
   256
  6
BYLAYER
  0
ACDBPLACEHOLDER
  5
F
102
{ACAD_REACTORS
330
E
102
}
330
E
  0
SCALE
  5
3C
102
{ACAD_REACTORS
330
3B
102
}
330
3B
100
AcDbScale
 70
     0
300
1:1
140
1.0
141
1.0
290
     1
  0
SCALE
  5
3D
102
{ACAD_REACTORS
330
3B
102
}
330
3B
100
AcDbScale
 70
     0
300
1:2
140
1.0
141
2.0
290
     0
  0
SCALE
  5
3E
102
{ACAD_REACTORS
330
3B
102
}
330
3B
100
AcDbScale
 70
     0
300
1:4
140
1.0
141
4.0
290
     0
  0
SCALE
  5
3F
102
{ACAD_REACTORS
330
3B
102
}
330
3B
100
AcDbScale
 70
     0
300
1:5
140
1.0
141
5.0
290
     0
  0
SCALE
  5
40
102
{ACAD_REACTORS
330
3B
102
}
330
3B
100
AcDbScale
 70
     0
300
1:8
140
1.0
141
8.0
290
     0
  0
SCALE
  5
41
102
{ACAD_REACTORS
330
3B
102
}
330
3B
100
AcDbScale
 70
     0
300
1:10
140
1.0
141
10.0
290
     0
  0
SCALE
  5
42
102
{ACAD_REACTORS
330
3B
102
}
330
3B
100
AcDbScale
 70
     0
300
1:16
140
1.0
141
16.0
290
     0
  0
SCALE
  5
43
102
{ACAD_REACTORS
330
3B
102
}
330
3B
100
AcDbScale
 70
     0
300
1:20
140
1.0
141
20.0
290
     0
  0
SCALE
  5
44
102
{ACAD_REACTORS
330
3B
102
}
330
3B
100
AcDbScale
 70
     0
300
1:30
140
1.0
141
30.0
290
     0
  0
SCALE
  5
45
102
{ACAD_REACTORS
330
3B
102
}
330
3B
100
AcDbScale
 70
     0
300
1:40
140
1.0
141
40.0
290
     0
  0
SCALE
  5
46
102
{ACAD_REACTORS
330
3B
102
}
330
3B
100
AcDbScale
 70
     0
300
1:50
140
1.0
141
50.0
290
     0
  0
SCALE
  5
47
102
{ACAD_REACTORS
330
3B
102
}
330
3B
100
AcDbScale
 70
     0
300
1:100
140
1.0
141
100.0
290
     0
  0
SCALE
  5
48
102
{ACAD_REACTORS
330
3B
102
}
330
3B
100
AcDbScale
 70
     0
300
2:1
140
2.0
141
1.0
290
     0
  0
SCALE
  5
49
102
{ACAD_REACTORS
330
3B
102
}
330
3B
100
AcDbScale
 70
     0
300
4:1
140
4.0
141
1.0
290
     0
  0
SCALE
  5
4A
102
{ACAD_REACTORS
330
3B
102
}
330
3B
100
AcDbScale
 70
     0
300
8:1
140
8.0
141
1.0
290
     0
  0
SCALE
  5
4B
102
{ACAD_REACTORS
330
3B
102
}
330
3B
100
AcDbScale
 70
     0
300
10:1
140
10.0
141
1.0
290
     0
  0
SCALE
  5
4C
102
{ACAD_REACTORS
330
3B
102
}
330
3B
100
AcDbScale
 70
     0
300
100:1
140
100.0
141
1.0
290
     0
  0
SCALE
  5
4D
102
{ACAD_REACTORS
330
3B
102
}
330
3B
100
AcDbScale
 70
     0
300
1/128" = 1'-0"
140
0.0078125
141
12.0
290
     0
  0
SCALE
  5
4E
102
{ACAD_REACTORS
330
3B
102
}
330
3B
100
AcDbScale
 70
     0
300
1/64" = 1'-0"
140
0.015625
141
12.0
290
     0
  0
SCALE
  5
4F
102
{ACAD_REACTORS
330
3B
102
}
330
3B
100
AcDbScale
 70
     0
300
1/32" = 1'-0"
140
0.03125
141
12.0
290
     0
  0
SCALE
  5
50
102
{ACAD_REACTORS
330
3B
102
}
330
3B
100
AcDbScale
 70
     0
300
1/16" = 1'-0"
140
0.0625
141
12.0
290
     0
  0
SCALE
  5
51
102
{ACAD_REACTORS
330
3B
102
}
330
3B
100
AcDbScale
 70
     0
300
3/32" = 1'-0"
140
0.09375
141
12.0
290
     0
  0
SCALE
  5
52
102
{ACAD_REACTORS
330
3B
102
}
330
3B
100
AcDbScale
 70
     0
300
1/8" = 1'-0"
140
0.125
141
12.0
290
     0
  0
SCALE
  5
53
102
{ACAD_REACTORS
330
3B
102
}
330
3B
100
AcDbScale
 70
     0
300
3/16" = 1'-0"
140
0.1875
141
12.0
290
     0
  0
SCALE
  5
54
102
{ACAD_REACTORS
330
3B
102
}
330
3B
100
AcDbScale
 70
     0
300
1/4" = 1'-0"
140
0.25
141
12.0
290
     0
  0
SCALE
  5
55
102
{ACAD_REACTORS
330
3B
102
}
330
3B
100
AcDbScale
 70
     0
300
3/8" = 1'-0"
140
0.375
141
12.0
290
     0
  0
SCALE
  5
56
102
{ACAD_REACTORS
330
3B
102
}
330
3B
100
AcDbScale
 70
     0
300
1/2" = 1'-0"
140
0.5
141
12.0
290
     0
  0
SCALE
  5
57
102
{ACAD_REACTORS
330
3B
102
}
330
3B
100
AcDbScale
 70
     0
300
3/4" = 1'-0"
140
0.75
141
12.0
290
     0
  0
SCALE
  5
58
102
{ACAD_REACTORS
330
3B
102
}
330
3B
100
AcDbScale
 70
     0
300
1" = 1'-0"
140
1.0
141
12.0
290
     0
  0
SCALE
  5
59
102
{ACAD_REACTORS
330
3B
102
}
330
3B
100
AcDbScale
 70
     0
300
1-1/2" = 1'-0"
140
1.5
141
12.0
290
     0
  0
SCALE
  5
5A
102
{ACAD_REACTORS
330
3B
102
}
330
3B
100
AcDbScale
 70
     0
300
3" = 1'-0"
140
3.0
141
12.0
290
     0
  0
SCALE
  5
5B
102
{ACAD_REACTORS
330
3B
102
}
330
3B
100
AcDbScale
 70
     0
300
6" = 1'-0"
140
6.0
141
12.0
290
     0
  0
SCALE
  5
5C
102
{ACAD_REACTORS
330
3B
102
}
330
3B
100
AcDbScale
 70
     0
300
1'-0" = 1'-0"
140
12.0
141
12.0
290
     0
  0
VISUALSTYLE
  5
2F
102
{ACAD_REACTORS
330
2A
102
}
330
2A
100
AcDbVisualStyle
  2
2dWireframe
 70
     4
 71
     0
 72
     2
 73
     0
 90
        0
 40
-0.6
 41
-30.0
 62
     5
 63
     7
 74
     1
 91
        4
 64
     7
 65
   257
 75
     1
175
     1
 42
1.0
 92
        0
 66
   257
 43
1.0
 76
     1
 77
     6
 78
     2
 67
     7
 79
     5
170
     0
171
     0
290
     0
174
     0
 93
        1
 44
0.0
173
     0
291
     0
 45
0.0
1001
ACAD
1000
AcDbSavedByObjectVersion
1070
     0
  0
VISUALSTYLE
  5
31
102
{ACAD_REACTORS
330
2A
102
}
330
2A
100
AcDbVisualStyle
  2
3D Hidden
 70
     6
 71
     1
 72
     2
 73
     2
 90
        0
 40
-0.6
 41
-30.0
 62
     5
 63
     7
 74
     2
 91
        2
 64
     7
 65
   257
 75
     2
175
     1
 42
40.0
 92
        0
 66
   257
 43
1.0
 76
     1
 77
     6
 78
     2
 67
     7
 79
     3
170
     0
171
     0
290
     0
174
     0
 93
        1
 44
0.0
173
     0
291
     0
 45
0.0
1001
ACAD
1000
AcDbSavedByObjectVersion
1070
     0
  0
VISUALSTYLE
  5
30
102
{ACAD_REACTORS
330
2A
102
}
330
2A
100
AcDbVisualStyle
  2
3dWireframe
 70
     5
 71
     0
 72
     2
 73
     0
 90
        0
 40
-0.6
 41
-30.0
 62
     5
 63
     7
 74
     1
 91
        4
 64
     7
 65
   257
 75
     1
175
     1
 42
1.0
 92
        0
 66
   257
 43
1.0
 76
     1
 77
     6
 78
     2
 67
     7
 79
     5
170
     0
171
     0
290
     0
174
     0
 93
        1
 44
0.0
173
     0
291
     0
 45
0.0
1001
ACAD
1000
AcDbSavedByObjectVersion
1070
     0
  0
VISUALSTYLE
  5
32
102
{ACAD_REACTORS
330
2A
102
}
330
2A
100
AcDbVisualStyle
  2
Basic
 70
     7
 71
     1
 72
     0
 73
     1
 90
        0
 40
-0.6
 41
-30.0
 62
     5
 63
     7
 74
     0
 91
        4
 64
     7
 65
   257
 75
     1
175
     1
 42
1.0
 92
        8
 66
     7
 43
1.0
 76
     1
 77
     6
 78
     2
 67
     7
 79
     5
170
     0
171
     0
290
     0
174
     0
 93
        1
 44
0.0
173
     0
291
     1
 45
0.0
1001
ACAD
1000
AcDbSavedByObjectVersion
1070
     0
  0
VISUALSTYLE
  5
36
102
{ACAD_REACTORS
330
2A
102
}
330
2A
100
AcDbVisualStyle
  2
Brighten
 70
    12
 71
     2
 72
     2
 73
     0
 90
        0
 40
-0.6
 41
-30.0
 62
     5
 63
     7
 74
     1
 91
        4
 64
     7
 65
   257
 75
     1
175
     1
 42
1.0
 92
        8
 66
     7
 43
1.0
 76
     1
 77
     6
 78
     2
 67
     7
 79
     5
170
     0
171
     0
290
     0
174
     0
 93
        1
 44
50.0
173
     0
291
     1
 45
0.0
1001
ACAD
1000
AcDbSavedByObjectVersion
1070
     0
  0
VISUALSTYLE
  5
3A
102
{ACAD_REACTORS
330
2A
102
}
330
2A
100
AcDbVisualStyle
  2
ColorChange
 70
    16
 71
     2
 72
     2
 73
     3
 90
        0
 40
-0.6
 41
-30.0
 62
     5
 63
     8
 74
     1
 91
        4
 64
     7
 65
   257
 75
     1
175
     1
 42
1.0
 92
        8
 66
     8
 43
1.0
 76
     1
 77
     6
 78
     2
 67
     7
 79
     5
170
     0
171
     0
290
     0
174
     0
 93
        1
 44
0.0
173
     0
291
     1
 45
0.0
1001
ACAD
1000
AcDbSavedByObjectVersion
1070
     0
  0
VISUALSTYLE
  5
34
102
{ACAD_REACTORS
330
2A
102
}
330
2A
100
AcDbVisualStyle
  2
Conceptual
 70
     9
 71
     3
 72
     2
 73
     0
 90
        0
 40
-0.6
 41
-30.0
 62
     5
 63
     7
 74
     2
 91
        2
 64
     7
 65
   257
 75
     1
175
     1
 42
40.0
 92
        8
 66
     7
 43
1.0
 76
     1
 77
     6
 78
     2
 67
     7
 79
     3
170
     0
171
     0
290
     0
174
     0
 93
        1
 44
0.0
173
     0
291
     0
 45
0.0
1001
ACAD
1000
AcDbSavedByObjectVersion
1070
     0
  0
VISUALSTYLE
  5
35
102
{ACAD_REACTORS
330
2A
102
}
330
2A
100
AcDbVisualStyle
  2
Dim
 70
    11
 71
     2
 72
     2
 73
     0
 90
        0
 40
-0.6
 41
-30.0
 62
     5
 63
     7
 74
     1
 91
        4
 64
     7
 65
   257
 75
     1
175
     1
 42
1.0
 92
        8
 66
     7
 43
1.0
 76
     1
 77
     6
 78
     2
 67
     7
 79
     5
170
     0
171
     0
290
     0
174
     0
 93
        1
 44
-50.0
173
     0
291
     1
 45
0.0
1001
ACAD
1000
AcDbSavedByObjectVersion
1070
     0
  0
VISUALSTYLE
  5
39
102
{ACAD_REACTORS
330
2A
102
}
330
2A
100
AcDbVisualStyle
  2
Facepattern
 70
    15
 71
     2
 72
     2
 73
     0
 90
        0
 40
-0.6
 41
-30.0
 62
     5
 63
     7
 74
     1
 91
        4
 64
     7
 65
   257
 75
     1
175
     1
 42
1.0
 92
        8
 66
     7
 43
1.0
 76
     1
 77
     6
 78
     2
 67
     7
 79
     5
170
     0
171
     0
290
     0
174
     0
 93
        1
 44
0.0
173
     0
291
     1
 45
0.0
1001
ACAD
1000
AcDbSavedByObjectVersion
1070
     0
  0
VISUALSTYLE
  5
2B
102
{ACAD_REACTORS
330
2A
102
}
330
2A
100
AcDbVisualStyle
  2
Flat
 70
     0
 71
     2
 72
     1
 73
     1
 90
        2
 40
-0.6
 41
30.0
 62
     5
 63
     7
 74
     0
 91
        4
 64
     7
 65
   257
 75
     1
175
     1
 42
1.0
 92
        8
 66
     7
 43
1.0
 76
     1
 77
     6
 78
     2
 67
     7
 79
     5
170
     0
171
     0
290
     0
174
     0
 93
       13
 44
0.0
173
     0
291
     1
 45
0.0
1001
ACAD
1000
AcDbSavedByObjectVersion
1070
     0
  0
VISUALSTYLE
  5
2C
102
{ACAD_REACTORS
330
2A
102
}
330
2A
100
AcDbVisualStyle
  2
FlatWithEdges
 70
     1
 71
     2
 72
     1
 73
     1
 90
        2
 40
-0.6
 41
30.0
 62
     5
 63
     7
 74
     1
 91
        4
 64
     7
 65
   257
 75
     1
175
     1
 42
1.0
 92
        0
 66
   257
 43
1.0
 76
     1
 77
     6
 78
     2
 67
     7
 79
     5
170
     0
171
     0
290
     0
174
     0
 93
       13
 44
0.0
173
     0
291
     1
 45
0.0
1001
ACAD
1000
AcDbSavedByObjectVersion
1070
     0
  0
VISUALSTYLE
  5
2D
102
{ACAD_REACTORS
330
2A
102
}
330
2A
100
AcDbVisualStyle
  2
Gouraud
 70
     2
 71
     2
 72
     2
 73
     1
 90
        2
 40
-0.6
 41
30.0
 62
     5
 63
     7
 74
     0
 91
        4
 64
     7
 65
   257
 75
     1
175
     1
 42
1.0
 92
        0
 66
     7
 43
1.0
 76
     1
 77
     6
 78
     2
 67
     7
 79
     5
170
     0
171
     0
290
     0
174
     0
 93
       13
 44
0.0
173
     0
291
     1
 45
0.0
1001
ACAD
1000
AcDbSavedByObjectVersion
1070
     0
  0
VISUALSTYLE
  5
2E
102
{ACAD_REACTORS
330
2A
102
}
330
2A
100
AcDbVisualStyle
  2
GouraudWithEdges
 70
     3
 71
     2
 72
     2
 73
     1
 90
        2
 40
-0.6
 41
30.0
 62
     5
 63
     7
 74
     1
 91
        4
 64
     7
 65
   257
 75
     1
175
     1
 42
1.0
 92
        0
 66
   257
 43
1.0
 76
     1
 77
     6
 78
     2
 67
     7
 79
     5
170
     0
171
     0
290
     0
174
     0
 93
       13
 44
0.0
173
     0
291
     1
 45
0.0
1001
ACAD
1000
AcDbSavedByObjectVersion
1070
     0
  0
VISUALSTYLE
  5
38
102
{ACAD_REACTORS
330
2A
102
}
330
2A
100
AcDbVisualStyle
  2
Linepattern
 70
    14
 71
     2
 72
     2
 73
     0
 90
        0
 40
-0.6
 41
-30.0
 62
     5
 63
     7
 74
     1
 91
        4
 64
     7
 65
   257
 75
     7
175
     7
 42
1.0
 92
        8
 66
     7
 43
1.0
 76
     1
 77
     6
 78
     2
 67
     7
 79
     5
170
     0
171
     0
290
     0
174
     0
 93
        1
 44
0.0
173
     0
291
     1
 45
0.0
1001
ACAD
1000
AcDbSavedByObjectVersion
1070
     0
  0
VISUALSTYLE
  5
33
102
{ACAD_REACTORS
330
2A
102
}
330
2A
100
AcDbVisualStyle
  2
Realistic
 70
     8
 71
     2
 72
     2
 73
     0
 90
        0
 40
-0.6
 41
-30.0
 62
     5
 63
     7
 74
     1
 91
        0
 64
     7
 65
   257
 75
     1
175
     1
 42
1.0
 92
        8
 66
     8
 43
1.0
 76
     1
 77
     6
 78
     2
 67
     7
 79
     5
170
     0
171
     0
290
     0
174
     0
 93
       13
 44
0.0
173
     0
291
     0
 45
0.0
1001
ACAD
1000
AcDbSavedByObjectVersion
1070
     0
  0
VISUALSTYLE
  5
37
102
{ACAD_REACTORS
330
2A
102
}
330
2A
100
AcDbVisualStyle
  2
Thicken
 70
    13
 71
     2
 72
     2
 73
     0
 90
        0
 40
-0.6
 41
-30.0
 62
     5
 63
     7
 74
     1
 91
        4
 64
     7
 65
   257
 75
     1
175
     1
 42
1.0
 92
       12
 66
     7
 43
1.0
 76
     1
 77
     6
 78
     2
 67
     7
 79
     5
170
     0
171
     0
290
     0
174
     0
 93
        1
 44
0.0
173
     0
291
     1
 45
0.0
1001
ACAD
1000
AcDbSavedByObjectVersion
1070
     0
  0
DICTIONARYVAR
  5
15B
102
{ACAD_REACTORS
330
15A
102
}
330
15A
100
DictionaryVariables
280
     0
  1
1:1
  0
DICTIONARYVAR
  5
15F
102
{ACAD_REACTORS
330
15A
102
}
330
15A
100
DictionaryVariables
280
     0
  1
80.000000
  0
DICTIONARYVAR
  5
15E
102
{ACAD_REACTORS
330
15A
102
}
330
15A
100
DictionaryVariables
280
     0
  1
5.000000
  0
ENDSEC
  0
EOF
