  0
SECTION
  2
HEADER
  9
$ACADVER
  1
AC1015
  9
$ACADMAINTVER
 70
     6
  9
$DWGCODEPAGE
  3
ANSI_1252
  9
$INSBASE
 10
0.0
 20
0.0
 30
0.0
  9
$EXTMIN
 10
0.0
 20
0.0
 30
0.0
  9
$EXTMAX
 10
1682.0
 20
2378.0
 30
0.0
  9
$LIMMIN
 10
0.0
 20
0.0
  9
$LIMMAX
 10
1682.0
 20
2378.0
  9
$ORTHOMODE
 70
     0
  9
$REGENMODE
 70
     1
  9
$FILLMODE
 70
     1
  9
$QTEXTMODE
 70
     0
  9
$MIRRTEXT
 70
     1
  9
$LTSCALE
 40
1.0
  9
$ATTMODE
 70
     1
  9
$TEXTSIZE
 40
2.5
  9
$TRACEWID
 40
1.0
  9
$TEXTSTYLE
  7
Standard
  9
$CLAYER
  8
0
  9
$CELTYPE
  6
ByLayer
  9
$CECOLOR
 62
   256
  9
$CELTSCALE
 40
1.0
  9
$DISPSILH
 70
     0
  9
$DIMSCALE
 40
1.0
  9
$DIMASZ
 40
2.5
  9
$DIMEXO
 40
0.625
  9
$DIMDLI
 40
3.75
  9
$DIMRND
 40
0.0
  9
$DIMDLE
 40
0.0
  9
$DIMEXE
 40
1.25
  9
$DIMTP
 40
0.0
  9
$DIMTM
 40
0.0
  9
$DIMTXT
 40
2.5
  9
$DIMCEN
 40
2.5
  9
$DIMTSZ
 40
0.0
  9
$DIMTOL
 70
     0
  9
$DIMLIM
 70
     0
  9
$DIMTIH
 70
     0
  9
$DIMTOH
 70
     0
  9
$DIMSE1
 70
     0
  9
$DIMSE2
 70
     0
  9
$DIMTAD
 70
     1
  9
$DIMZIN
 70
     8
  9
$DIMBLK
  1

  9
$DIMASO
 70
     1
  9
$DIMSHO
 70
     1
  9
$DIMPOST
  1

  9
$DIMAPOST
  1

  9
$DIMALT
 70
     0
  9
$DIMALTD
 70
     3
  9
$DIMALTF
 40
0.0393700787
  9
$DIMLFAC
 40
1.0
  9
$DIMTOFL
 70
     1
  9
$DIMTVP
 40
0.0
  9
$DIMTIX
 70
     0
  9
$DIMSOXD
 70
     0
  9
$DIMSAH
 70
     0
  9
$DIMBLK1
  1

  9
$DIMBLK2
  1

  9
$DIMSTYLE
  2
ISO-25
  9
$DIMCLRD
 70
     0
  9
$DIMCLRE
 70
     0
  9
$DIMCLRT
 70
     0
  9
$DIMTFAC
 40
1.0
  9
$DIMGAP
 40
0.625
  9
$DIMJUST
 70
     0
  9
$DIMSD1
 70
     0
  9
$DIMSD2
 70
     0
  9
$DIMTOLJ
 70
     0
  9
$DIMTZIN
 70
     8
  9
$DIMALTZ
 70
     0
  9
$DIMALTTZ
 70
     0
  9
$DIMUPT
 70
     0
  9
$DIMDEC
 70
     2
  9
$DIMTDEC
 70
     2
  9
$DIMALTU
 70
     2
  9
$DIMALTTD
 70
     3
  9
$DIMTXSTY
  7
Standard
  9
$DIMAUNIT
 70
     0
  9
$DIMADEC
 70
     0
  9
$DIMALTRND
 40
0.0
  9
$DIMAZIN
 70
     0
  9
$DIMDSEP
 70
    44
  9
$DIMATFIT
 70
     3
  9
$DIMFRAC
 70
     0
  9
$DIMLDRBLK
  1

  9
$DIMLUNIT
 70
     2
  9
$DIMLWD
 70
    -2
  9
$DIMLWE
 70
    -2
  9
$DIMTMOVE
 70
     0
  9
$LUNITS
 70
     2
  9
$LUPREC
 70
     4
  9
$SKETCHINC
 40
1.0
  9
$FILLETRAD
 40
10.0
  9
$AUNITS
 70
     0
  9
$AUPREC
 70
     0
  9
$MENU
  1
.
  9
$ELEVATION
 40
0.0
  9
$PELEVATION
 40
0.0
  9
$THICKNESS
 40
0.0
  9
$LIMCHECK
 70
     0
  9
$CHAMFERA
 40
10.0
  9
$CHAMFERB
 40
10.0
  9
$CHAMFERC
 40
20.0
  9
$CHAMFERD
 40
0.0
  9
$SKPOLY
 70
     0
  9
$TDCREATE
 40
2455748.346347894
  9
$TDUCREATE
 40
2455748.26301456
  9
$TDUPDATE
 40
2455748.346347905
  9
$TDUUPDATE
 40
2455748.263014572
  9
$TDINDWG
 40
0.0000000116
  9
$TDUSRTIMER
 40
0.0000000116
  9
$USRTIMER
 70
     1
  9
$ANGBASE
 50
0.0
  9
$ANGDIR
 70
     0
  9
$PDMODE
 70
     0
  9
$PDSIZE
 40
0.0
  9
$PLINEWID
 40
0.0
  9
$SPLFRAME
 70
     0
  9
$SPLINETYPE
 70
     6
  9
$SPLINESEGS
 70
     8
  9
$HANDSEED
  5
18C
  9
$SURFTAB1
 70
     6
  9
$SURFTAB2
 70
     6
  9
$SURFTYPE
 70
     6
  9
$SURFU
 70
     6
  9
$SURFV
 70
     6
  9
$UCSBASE
  2

  9
$UCSNAME
  2

  9
$UCSORG
 10
0.0
 20
0.0
 30
0.0
  9
$UCSXDIR
 10
1.0
 20
0.0
 30
0.0
  9
$UCSYDIR
 10
0.0
 20
1.0
 30
0.0
  9
$UCSORTHOREF
  2

  9
$UCSORTHOVIEW
 70
     0
  9
$UCSORGTOP
 10
0.0
 20
0.0
 30
0.0
  9
$UCSORGBOTTOM
 10
0.0
 20
0.0
 30
0.0
  9
$UCSORGLEFT
 10
0.0
 20
0.0
 30
0.0
  9
$UCSORGRIGHT
 10
0.0
 20
0.0
 30
0.0
  9
$UCSORGFRONT
 10
0.0
 20
0.0
 30
0.0
  9
$UCSORGBACK
 10
0.0
 20
0.0
 30
0.0
  9
$PUCSBASE
  2

  9
$PUCSNAME
  2

  9
$PUCSORG
 10
0.0
 20
0.0
 30
0.0
  9
$PUCSXDIR
 10
1.0
 20
0.0
 30
0.0
  9
$PUCSYDIR
 10
0.0
 20
1.0
 30
0.0
  9
$PUCSORTHOREF
  2

  9
$PUCSORTHOVIEW
 70
     0
  9
$PUCSORGTOP
 10
0.0
 20
0.0
 30
0.0
  9
$PUCSORGBOTTOM
 10
0.0
 20
0.0
 30
0.0
  9
$PUCSORGLEFT
 10
0.0
 20
0.0
 30
0.0
  9
$PUCSORGRIGHT
 10
0.0
 20
0.0
 30
0.0
  9
$PUCSORGFRONT
 10
0.0
 20
0.0
 30
0.0
  9
$PUCSORGBACK
 10
0.0
 20
0.0
 30
0.0
  9
$USERI1
 70
     0
  9
$USERI2
 70
     0
  9
$USERI3
 70
     0
  9
$USERI4
 70
     0
  9
$USERI5
 70
     0
  9
$USERR1
 40
0.0
  9
$USERR2
 40
0.0
  9
$USERR3
 40
0.0
  9
$USERR4
 40
0.0
  9
$USERR5
 40
0.0
  9
$WORLDVIEW
 70
     1
  9
$SHADEDGE
 70
     3
  9
$SHADEDIF
 70
    70
  9
$TILEMODE
 70
     1
  9
$MAXACTVP
 70
    64
  9
$PINSBASE
 10
0.0
 20
0.0
 30
0.0
  9
$PLIMCHECK
 70
     0
  9
$PEXTMIN
 10
0.0
 20
0.0
 30
0.0
  9
$PEXTMAX
 10
1682.0
 20
2378.0
 30
0.0
  9
$PLIMMIN
 10
0.0
 20
0.0
  9
$PLIMMAX
 10
1682.0
 20
2378.0
  9
$UNITMODE
 70
     0
  9
$VISRETAIN
 70
     1
  9
$PLINEGEN
 70
     0
  9
$PSLTSCALE
 70
     1
  9
$TREEDEPTH
 70
  3020
  9
$CMLSTYLE
  2
Standard
  9
$CMLJUST
 70
     0
  9
$CMLSCALE
 40
20.0
  9
$PROXYGRAPHICS
 70
     1
  9
$MEASUREMENT
 70
     1
  9
$CELWEIGHT
370
    -1
  9
$ENDCAPS
280
     0
  9
$JOINSTYLE
280
     0
  9
$LWDISPLAY
290
     0
  9
$INSUNITS
 70
     4
  9
$HYPERLINKBASE
  1

  9
$STYLESHEET
  1

  9
$XEDIT
290
     1
  9
$CEPSNTYPE
380
     0
  9
$PSTYLEMODE
290
     1
  9
$FINGERPRINTGUID
  2
{4777EB61-4B06-42F5-B9DA-49DD15445B81}
  9
$VERSIONGUID
  2
{FAEB1C32-E019-11D5-929B-00C0DF256EC4}
  9
$EXTNAMES
290
     1
  9
$PSVPSCALE
 40
0.0
  9
$OLESTARTUP
290
     0
  0
ENDSEC
  0
SECTION
  2
CLASSES
  0
CLASS
  1
ACDBDICTIONARYWDFLT
  2
AcDbDictionaryWithDefault
  3
ObjectDBX Classes
 90
        0
280
     0
281
     0
  0
CLASS
  1
VISUALSTYLE
  2
AcDbVisualStyle
  3
ObjectDBX Classes
 90
     4095
280
     0
281
     0
  0
CLASS
  1
SCALE
  2
AcDbScale
  3
ObjectDBX Classes
 90
     1153
280
     0
281
     0
  0
CLASS
  1
DICTIONARYVAR
  2
AcDbDictionaryVar
  3
ObjectDBX Classes
 90
        0
280
     0
281
     0
  0
CLASS
  1
ACDBPLACEHOLDER
  2
AcDbPlaceHolder
  3
ObjectDBX Classes
 90
        0
280
     0
281
     0
  0
CLASS
  1
LAYOUT
  2
AcDbLayout
  3
ObjectDBX Classes
 90
        0
280
     0
281
     0
  0
ENDSEC
  0
SECTION
  2
TABLES
  0
TABLE
  2
VPORT
  5
8
330
0
100
AcDbSymbolTable
 70
     1
  0
VPORT
  5
29
330
8
100
AcDbSymbolTableRecord
100
AcDbViewportTableRecord
  2
*Active
 70
     0
 10
0.0
 20
0.0
 11
1.0
 21
1.0
 12
344.1869158879
 22
148.5
 13
0.0
 23
0.0
 14
10.0
 24
10.0
 15
10.0
 25
10.0
 16
0.0
 26
0.0
 36
1.0
 17
0.0
 27
0.0
 37
0.0
 40
297.0
 41
1.9729729729
 42
50.0
 43
0.0
 44
0.0
 50
0.0
 51
0.0
 71
     0
 72
   100
 73
     1
 74
     3
 75
     0
 76
     0
 77
     0
 78
     0
281
     0
 65
     1
110
0.0
120
0.0
130
0.0
111
1.0
121
0.0
131
0.0
112
0.0
122
1.0
132
0.0
 79
     0
146
0.0
  0
ENDTAB
  0
TABLE
  2
LTYPE
  5
5
330
0
100
AcDbSymbolTable
 70
     2
  0
LTYPE
  5
14
330
5
100
AcDbSymbolTableRecord
100
AcDbLinetypeTableRecord
  2
ByBlock
 70
     0
  3

 72
    65
 73
     0
 40
0.0
  0
LTYPE
  5
15
330
5
100
AcDbSymbolTableRecord
100
AcDbLinetypeTableRecord
  2
ByLayer
 70
     0
  3

 72
    65
 73
     0
 40
0.0
  0
LTYPE
  5
16
330
5
100
AcDbSymbolTableRecord
100
AcDbLinetypeTableRecord
  2
Continuous
 70
     0
  3
Solid line
 72
    65
 73
     0
 40
0.0
  0
LTYPE
  5
60
330
5
100
AcDbSymbolTableRecord
100
AcDbLinetypeTableRecord
  2
CENTER2
 70
     0
  3
Center (.5x) ___ _ ___ _ ___ _ ___ _ ___ _ ___
 72
    65
 73
     4
 40
28.575
 49
19.05
 74
     4
 75
     0
340
0
 46
0.0
 50
0.0
 44
0.0
 45
0.0
 49
-3.175
 74
     4
 75
     0
340
0
 46
0.0
 50
0.0
 44
0.0
 45
0.0
 49
3.175
 74
     4
 75
     0
340
0
 46
0.0
 50
0.0
 44
0.0
 45
0.0
 49
-3.175
 74
     4
 75
     0
340
0
 46
0.0
 50
0.0
 44
0.0
 45
0.0
  0
ENDTAB
  0
TABLE
  2
LAYER
  5
2
330
0
100
AcDbSymbolTable
 70
    13
  0
LAYER
  5
10
330
2
100
AcDbSymbolTableRecord
100
AcDbLayerTableRecord
  2
0
 70
     0
 62
     7
  6
Continuous
370
    -3
390
F
  0
LAYER
  5
5D
330
2
100
AcDbSymbolTableRecord
100
AcDbLayerTableRecord
  2
Default
 70
     0
 62
     7
  6
Continuous
370
    -3
390
F
  0
LAYER
  5
71
330
2
100
AcDbSymbolTableRecord
100
AcDbLayerTableRecord
  2
410005038_HANDLE
 70
     0
 62
     7
  6
Continuous
370
    -3
390
F
  0
LAYER
  5
74
330
2
100
AcDbSymbolTableRecord
100
AcDbLayerTableRecord
  2
410307038_LEVER_
 70
     0
 62
     7
  6
Continuous
370
    -3
390
F
  0
LAYER
  5
7E
330
2
100
AcDbSymbolTableRecord
100
AcDbLayerTableRecord
  2
02080010_M4X55_S
 70
     0
 62
     7
  6
Continuous
370
    -3
390
F
  0
LAYER
  5
A8
330
2
100
AcDbSymbolTableRecord
100
AcDbLayerTableRecord
  2
12080006_MP_HE_P
 70
     0
 62
     7
  6
Continuous
370
    -3
390
F
  0
LAYER
  5
AA
330
2
100
AcDbSymbolTableRecord
100
AcDbLayerTableRecord
  2
410374040_ESCUTC
 70
     0
 62
     7
  6
Continuous
370
    -3
390
F
  0
LAYER
  5
C5
330
2
100
AcDbSymbolTableRecord
100
AcDbLayerTableRecord
  2
410064038_SLEEVE
 70
     0
 62
     7
  6
Continuous
370
    -3
390
F
  0
LAYER
  5
C8
330
2
100
AcDbSymbolTableRecord
100
AcDbLayerTableRecord
  2
410316038_HANDLE
 70
     0
 62
     7
  6
Continuous
370
    -3
390
F
  0
LAYER
  5
D9
330
2
100
AcDbSymbolTableRecord
100
AcDbLayerTableRecord
  2
410310038_RING_K
 70
     0
 62
     7
  6
Continuous
370
    -3
390
F
  0
LAYER
  5
FC
330
2
100
AcDbSymbolTableRecord
100
AcDbLayerTableRecord
  2
410006038_DECORA
 70
     0
 62
     7
  6
Continuous
370
    -3
390
F
  0
LAYER
  5
11F
330
2
100
AcDbSymbolTableRecord
100
AcDbLayerTableRecord
  2
410228031_BEARIN
 70
     0
 62
     7
  6
Continuous
370
    -3
390
F
  0
LAYER
  5
123
330
2
100
AcDbSymbolTableRecord
100
AcDbLayerTableRecord
  2
DV2_Standard
 70
     0
 62
     7
  6
Continuous
370
    -3
390
F
  0
ENDTAB
  0
TABLE
  2
STYLE
  5
3
330
0
100
AcDbSymbolTable
 70
     2
  0
STYLE
  5
11
330
3
100
AcDbSymbolTableRecord
100
AcDbTextStyleTableRecord
  2
Standard
 70
     0
 40
0.0
 41
1.0
 50
0.0
 71
     0
 42
2.5
  3
txt
  4

  0
STYLE
  5
17B
330
3
100
AcDbSymbolTableRecord
100
AcDbTextStyleTableRecord
  2
SEACAD_seiso_ttf
 70
     0
 40
0.0
 41
1.0
 50
0.0
 71
     0
 42
0.2
  3
seiso.ttf
  4

  0
ENDTAB
  0
TABLE
  2
VIEW
  5
6
330
0
100
AcDbSymbolTable
 70
     0
  0
ENDTAB
  0
TABLE
  2
UCS
  5
7
330
0
100
AcDbSymbolTable
 70
     0
  0
ENDTAB
  0
TABLE
  2
APPID
  5
9
330
0
100
AcDbSymbolTable
 70
     1
  0
APPID
  5
12
330
9
100
AcDbSymbolTableRecord
100
AcDbRegAppTableRecord
  2
ACAD
 70
     0
  0
ENDTAB
  0
TABLE
  2
DIMSTYLE
  5
A
330
0
100
AcDbSymbolTable
 70
     1
100
AcDbDimStyleTable
  0
DIMSTYLE
105
27
330
A
100
AcDbSymbolTableRecord
100
AcDbDimStyleTableRecord
  2
ISO-25
 70
     0
 41
2.5
 42
0.625
 43
3.75
 44
1.25
 73
     0
 74
     0
 77
     1
 78
     8
140
2.5
141
2.5
143
0.0393700787
147
0.625
171
     3
172
     1
271
     2
272
     2
274
     3
278
    44
283
     0
284
     8
340
11
  0
ENDTAB
  0
TABLE
  2
BLOCK_RECORD
  5
1
330
0
100
AcDbSymbolTable
 70
     6
  0
BLOCK_RECORD
  5
1F
330
1
100
AcDbSymbolTableRecord
100
AcDbBlockTableRecord
  2
*Model_Space
340
22
  0
BLOCK_RECORD
  5
1B
330
1
100
AcDbSymbolTableRecord
100
AcDbBlockTableRecord
  2
*Paper_Space
340
1E
  0
BLOCK_RECORD
  5
5E
330
1
100
AcDbSymbolTableRecord
100
AcDbBlockTableRecord
  2
SEANNOT_GROUP
340
0
102
{BLKREFS
331
5F
102
}
  0
BLOCK_RECORD
  5
69
330
1
100
AcDbSymbolTableRecord
100
AcDbBlockTableRecord
  2
SEANNOT_GROUP1
340
0
102
{BLKREFS
331
6A
102
}
  0
BLOCK_RECORD
  5
6F
330
1
100
AcDbSymbolTableRecord
100
AcDbBlockTableRecord
  2
SE
340
0
102
{BLKREFS
331
70
102
}
  0
BLOCK_RECORD
  5
C3
330
1
100
AcDbSymbolTableRecord
100
AcDbBlockTableRecord
  2
SE1
340
0
102
{BLKREFS
331
C4
102
}
  0
BLOCK_RECORD
  5
128
330
1
100
AcDbSymbolTableRecord
100
AcDbBlockTableRecord
  2
SE2
340
0
102
{BLKREFS
331
129
102
}
  0
ENDTAB
  0
ENDSEC
  0
SECTION
  2
BLOCKS
  0
BLOCK
  5
20
330
1F
100
AcDbEntity
  8
0
100
AcDbBlockBegin
  2
*Model_Space
 70
     0
 10
0.0
 20
0.0
 30
0.0
  3
*Model_Space
  1

  0
ENDBLK
  5
21
330
1F
100
AcDbEntity
  8
0
100
AcDbBlockEnd
  0
BLOCK
  5
1C
330
1B
100
AcDbEntity
 67
     1
  8
0
100
AcDbBlockBegin
  2
*Paper_Space
 70
     0
 10
0.0
 20
0.0
 30
0.0
  3
*Paper_Space
  1

  0
ENDBLK
  5
1D
330
1B
100
AcDbEntity
 67
     1
  8
0
100
AcDbBlockEnd
  0
BLOCK
  5
67
330
5E
100
AcDbEntity
  8
0
100
AcDbBlockBegin
  2
SEANNOT_GROUP
 70
     0
 10
0.0
 20
0.0
 30
0.0
  3
SEANNOT_GROUP
  1

  0
LINE
  5
61
330
5E
100
AcDbEntity
  8
Default
  6
CENTER2
 62
     7
100
AcDbLine
 10
121.149994553
 20
350.8242093051
 30
0.0
 11
81.149995447
 21
350.8242093051
 31
0.0
  0
LINE
  5
62
330
5E
100
AcDbEntity
  8
Default
  6
CENTER2
 62
     7
100
AcDbLine
 10
101.149995
 20
370.8242088581
 30
0.0
 11
101.149995
 21
330.8242097522
 31
0.0
  0
LINE
  5
63
330
5E
100
AcDbEntity
  8
Default
  6
CENTER2
 62
     7
100
AcDbLine
 10
126.1499944412
 20
350.8242093051
 30
0.0
 11
113.599995
 21
350.8242093051
 31
0.0
  0
LINE
  5
64
330
5E
100
AcDbEntity
  8
Default
  6
CENTER2
 62
     7
100
AcDbLine
 10
101.149995
 20
375.8242087463
 30
0.0
 11
101.149995
 21
363.2742093051
 31
0.0
  0
LINE
  5
65
330
5E
100
AcDbEntity
  8
Default
  6
CENTER2
 62
     7
100
AcDbLine
 10
76.1499955588
 20
350.8242093051
 30
0.0
 11
88.699995
 21
350.8242093051
 31
0.0
  0
LINE
  5
66
330
5E
100
AcDbEntity
  8
Default
  6
CENTER2
 62
     7
100
AcDbLine
 10
101.149995
 20
325.8242098639
 30
0.0
 11
101.149995
 21
338.3742093051
 31
0.0
  0
ENDBLK
  5
68
330
5E
100
AcDbEntity
  8
0
100
AcDbBlockEnd
  0
BLOCK
  5
6D
330
69
100
AcDbEntity
  8
0
100
AcDbBlockBegin
  2
SEANNOT_GROUP1
 70
     0
 10
0.0
 20
0.0
 30
0.0
  3
SEANNOT_GROUP1
  1

  0
LINE
  5
6B
330
69
100
AcDbEntity
  8
Default
  6
CENTER2
 62
     7
100
AcDbLine
 10
121.149998428
 20
212.2982807504
 30
0.0
 11
81.149999322
 21
212.2982807504
 31
0.0
  0
LINE
  5
6C
330
69
100
AcDbEntity
  8
Default
  6
CENTER2
 62
     7
100
AcDbLine
 10
101.149998875
 20
232.2982803033
 30
0.0
 11
101.149998875
 21
192.2982811974
 31
0.0
  0
ENDBLK
  5
6E
330
69
100
AcDbEntity
  8
0
100
AcDbBlockEnd
  0
BLOCK
  5
C1
330
6F
100
AcDbEntity
  8
0
100
AcDbBlockBegin
  2
SE
 70
     0
 10
0.0
 20
0.0
 30
0.0
  3
SE
  1

  0
ARC
  5
72
330
6F
100
AcDbEntity
  8
410005038_HANDLE
  6
Continuous
 62
     7
100
AcDbCircle
 10
101.156798606
 20
-345.8616449418
 30
0.0
 40
683.5621545246171
100
AcDbArc
 50
89.5395903503
 51
90.4610706023
  0
ARC
  5
73
330
6F
100
AcDbEntity
  8
410005038_HANDLE
  6
Continuous
 62
     7
100
AcDbCircle
 10
101.149995
 20
350.8242093051
 30
0.0
 40
14.25
100
AcDbArc
 50
292.6355604218
 51
247.3330762468
  0
LINE
  5
75
330
6F
100
AcDbEntity
  8
410307038_LEVER_
  6
Continuous
 62
     7
100
AcDbLine
 10
107.046439739
 20
329.4742093051
 30
0.0
 11
95.253550261
 21
329.4742093051
 31
0.0
  0
ARC
  5
76
330
6F
100
AcDbEntity
  8
410307038_LEVER_
  6
Continuous
 62
     7
100
AcDbCircle
 10
-4.6319693926
 20
317.8776799589
 30
0.0
 40
100.0
100
AcDbArc
 50
346.0429344828
 51
6.3391368539
  0
ARC
  5
77
330
6F
100
AcDbEntity
  8
410307038_LEVER_
  6
Continuous
 62
     7
100
AcDbCircle
 10
206.9319593926
 20
317.8776799589
 30
0.0
 40
100.0
100
AcDbArc
 50
173.6608631461
 51
193.9570655172
  0
ARC
  5
78
330
6F
100
AcDbEntity
  8
410307038_LEVER_
  6
Continuous
 62
     7
100
AcDbCircle
 10
101.149995
 20
291.5874534625
 30
0.0
 40
8.999999999999991
100
AcDbArc
 50
166.0429344828
 51
180.0
  0
ARC
  5
79
330
6F
100
AcDbEntity
  8
410307038_LEVER_
  6
Continuous
 62
     7
100
AcDbCircle
 10
101.149995
 20
291.5874534625
 30
0.0
 40
9.0
100
AcDbArc
 50
180.0
 51
13.9570655172
  0
ARC
  5
7A
330
6F
100
AcDbEntity
  8
410307038_LEVER_
  6
Continuous
 62
     7
100
AcDbCircle
 10
107.046439739
 20
328.9742093051
 30
0.0
 40
0.4999999999999974
100
AcDbArc
 50
353.6608631461
 51
90.0
  0
ARC
  5
7B
330
6F
100
AcDbEntity
  8
410307038_LEVER_
  6
Continuous
 62
     7
100
AcDbCircle
 10
95.253550261
 20
328.9742093051
 30
0.0
 40
0.4999999999999935
100
AcDbArc
 50
90.0
 51
186.3391368539
  0
LINE
  5
7C
330
6F
100
AcDbEntity
  8
410307038_LEVER_
  6
Continuous
 62
     7
100
AcDbLine
 10
106.499995
 20
329.4742093051
 30
0.0
 11
106.499995
 21
337.681591081
 31
0.0
  0
LINE
  5
7D
330
6F
100
AcDbEntity
  8
410307038_LEVER_
  6
Continuous
 62
     7
100
AcDbLine
 10
95.799995
 20
337.6815734758
 30
0.0
 11
95.799995
 21
329.4742093051
 31
0.0
  0
ARC
  5
7F
330
6F
100
AcDbEntity
  8
02080010_M4X55_S
  6
Continuous
 62
     7
100
AcDbCircle
 10
60.149995
 20
350.8242093051
 30
0.0
 40
2.359581272915711
100
AcDbArc
 50
258.9029606255
 51
281.0970393745
  0
ARC
  5
80
330
6F
100
AcDbEntity
  8
02080010_M4X55_S
  6
Continuous
 62
     7
100
AcDbCircle
 10
60.149995
 20
350.8242093051
 30
0.0
 40
2.359581272915713
100
AcDbArc
 50
78.9029606255
 51
101.0970393745
  0
ELLIPSE
  5
81
330
6F
100
AcDbEntity
  8
02080010_M4X55_S
  6
Continuous
 62
     7
100
AcDbEllipse
 10
60.1622274914
 20
350.8242093051
 30
0.0
 11
0.0
 21
1.543768918883109
 31
0.0
210
0.0
220
0.0
230
1.0
 40
1.0
 41
-0.3084064732200358
 42
-0.1885875889196558
  0
ELLIPSE
  5
82
330
6F
100
AcDbEntity
  8
02080010_M4X55_S
  6
Continuous
 62
     7
100
AcDbEllipse
 10
60.6438408032
 20
351.0287669345
 30
0.0
 11
-2.123224080503174
 21
5.125916371113989
 31
0.0
210
0.0
220
0.0
230
0.9999999999999998
 40
0.0871557427
 41
-1.494819759406434
 42
-1.357409741810137
  0
ELLIPSE
  5
83
330
6F
100
AcDbEntity
  8
02080010_M4X55_S
  6
Continuous
 62
     7
100
AcDbEllipse
 10
60.3545526294
 20
351.3180551084
 30
0.0
 11
5.125916371017982
 21
-2.123224080466287
 31
0.0
210
0.0
220
0.0
230
1.0
 40
0.0871557427
 41
1.357409741811566
 42
1.494819759410471
  0
ELLIPSE
  5
84
330
6F
100
AcDbEntity
  8
02080010_M4X55_S
  6
Continuous
 62
     7
100
AcDbEllipse
 10
60.149995
 20
350.8364417965
 30
0.0
 11
5.57412440617161
 21
2.078298674107991E-12
 31
0.0
210
0.0
220
0.0
230
1.0
 40
0.0871557427
 41
1.142419358105887
 42
1.303747867341759
  0
ARC
  5
85
330
6F
100
AcDbEntity
  8
02080010_M4X55_S
  6
Continuous
 62
     7
100
AcDbCircle
 10
60.149995
 20
350.8242093051
 30
0.0
 40
2.359581272915716
100
AcDbArc
 50
348.9029606255
 51
11.0970393745
  0
ELLIPSE
  5
86
330
6F
100
AcDbEntity
  8
02080010_M4X55_S
  6
Continuous
 62
     7
100
AcDbEllipse
 10
60.149995
 20
350.8119768138
 30
0.0
 11
5.574124406154588
 21
-1.184638257173236E-12
 31
0.0
210
0.0
220
0.0
230
1.0
 40
0.0871557427
 41
-1.303747867342605
 42
-1.142419358106193
  0
ELLIPSE
  5
87
330
6F
100
AcDbEntity
  8
02080010_M4X55_S
  6
Continuous
 62
     7
100
AcDbEllipse
 10
60.3545526295
 20
350.3303635019
 30
0.0
 11
5.125916370950042
 21
2.12322408044023
 31
0.0
210
0.0
220
0.0
230
1.0
 40
0.0871557427
 41
-1.494819759413317
 42
-1.35740974181257
  0
ELLIPSE
  5
88
330
6F
100
AcDbEntity
  8
02080010_M4X55_S
  6
Continuous
 62
     7
100
AcDbEllipse
 10
60.6438408032
 20
350.6196516757
 30
0.0
 11
-2.123224080461707
 21
-5.125916371006235
 31
0.0
210
0.0
220
0.0
230
1.0
 40
0.0871557427
 41
1.357409741811689
 42
1.494819759410881
  0
ELLIPSE
  5
89
330
6F
100
AcDbEntity
  8
02080010_M4X55_S
  6
Continuous
 62
     7
100
AcDbEllipse
 10
60.1622274914
 20
350.8242093051
 30
0.0
 11
1.582067810090848E-12
 21
-5.574124406160551
 31
0.0
210
0.0
220
0.0
230
1.0
 40
0.0871557427
 41
1.142419358105915
 42
1.30374786734219
  0
ELLIPSE
  5
8A
330
6F
100
AcDbEntity
  8
02080010_M4X55_S
  6
Continuous
 62
     7
100
AcDbEllipse
 10
60.1377625086
 20
350.8242093052
 30
0.0
 11
-2.782496455466799E-12
 21
-5.574124406185362
 31
0.0
210
0.0
220
0.0
230
1.0
 40
0.0871557427
 41
-1.303747867340629
 42
-1.14241935810506
  0
ELLIPSE
  5
8B
330
6F
100
AcDbEntity
  8
02080010_M4X55_S
  6
Continuous
 62
     7
100
AcDbEllipse
 10
59.6561491968
 20
350.6196516757
 30
0.0
 11
2.123224080457904
 21
-5.125916370996253
 31
0.0
210
0.0
220
0.0
230
1.0
 40
0.0871557427
 41
-1.494819759411405
 42
-1.357409741811852
  0
ELLIPSE
  5
8C
330
6F
100
AcDbEntity
  8
02080010_M4X55_S
  6
Continuous
 62
     7
100
AcDbEllipse
 10
59.9454373705
 20
350.3303635019
 30
0.0
 11
-5.125916370948981
 21
2.123224080439593
 31
0.0
210
0.0
220
0.0
230
0.9999999999999999
 40
0.0871557427
 41
1.357409741812608
 42
1.494819759413213
  0
ELLIPSE
  5
8D
330
6F
100
AcDbEntity
  8
02080010_M4X55_S
  6
Continuous
 62
     7
100
AcDbEllipse
 10
60.149995
 20
350.8119768138
 30
0.0
 11
-5.574124406110943
 21
9.155138669739160E-13
 31
0.0
210
0.0
220
0.0
230
1.0
 40
0.0871557427
 41
1.142419358108199
 42
1.303747867345654
  0
ARC
  5
8E
330
6F
100
AcDbEntity
  8
02080010_M4X55_S
  6
Continuous
 62
     7
100
AcDbCircle
 10
60.149995
 20
350.8242093051
 30
0.0
 40
2.359581272915713
100
AcDbArc
 50
168.9029606255
 51
191.0970393745
  0
ELLIPSE
  5
8F
330
6F
100
AcDbEntity
  8
02080010_M4X55_S
  6
Continuous
 62
     7
100
AcDbEllipse
 10
60.149995
 20
350.8364417965
 30
0.0
 11
-5.574124406112671
 21
-9.251446315841974E-13
 31
0.0
210
0.0
220
0.0
230
1.0
 40
0.0871557427
 41
-1.303747867345441
 42
-1.142419358107937
  0
ELLIPSE
  5
90
330
6F
100
AcDbEntity
  8
02080010_M4X55_S
  6
Continuous
 62
     7
100
AcDbEllipse
 10
59.9454373706
 20
351.3180551084
 30
0.0
 11
-5.125916371057443
 21
-2.123224080481541
 31
0.0
210
0.0
220
0.0
230
1.0
 40
0.0871557427
 41
-1.494819759408962
 42
-1.357409741811253
  0
ELLIPSE
  5
91
330
6F
100
AcDbEntity
  8
02080010_M4X55_S
  6
Continuous
 62
     7
100
AcDbEllipse
 10
59.6561491968
 20
351.0287669345
 30
0.0
 11
2.12322408048421
 21
5.125916371064482
 31
0.0
210
0.0
220
0.0
230
1.0
 40
0.0871557427
 41
1.357409741810861
 42
1.494819759408637
  0
ELLIPSE
  5
92
330
6F
100
AcDbEntity
  8
02080010_M4X55_S
  6
Continuous
 62
     7
100
AcDbEllipse
 10
60.1377625086
 20
350.8242093051
 30
0.0
 11
0.0
 21
2.35725743329636
 31
0.0
210
0.0
220
0.0
230
1.0
 40
1.0
 41
0.1885875889194433
 42
0.308406473219661
  0
CIRCLE
  5
93
330
6F
100
AcDbEntity
  8
02080010_M4X55_S
  6
Continuous
 62
     7
100
AcDbCircle
 10
142.1499988749
 20
350.8242093051
 30
0.0
 40
3.75
  0
ARC
  5
94
330
6F
100
AcDbEntity
  8
02080010_M4X55_S
  6
Continuous
 62
     7
100
AcDbCircle
 10
142.1499988749
 20
350.8242093051
 30
0.0
 40
2.359581272915712
100
AcDbArc
 50
258.9029606255
 51
281.0970393745
  0
ARC
  5
95
330
6F
100
AcDbEntity
  8
02080010_M4X55_S
  6
Continuous
 62
     7
100
AcDbCircle
 10
142.1499988749
 20
350.8242093051
 30
0.0
 40
2.359581272915713
100
AcDbArc
 50
78.9029606255
 51
101.0970393745
  0
ELLIPSE
  5
96
330
6F
100
AcDbEntity
  8
02080010_M4X55_S
  6
Continuous
 62
     7
100
AcDbEllipse
 10
142.1622313662
 20
350.8242093051
 30
0.0
 11
0.0
 21
1.543768918884434
 31
0.0
210
0.0
220
0.0
230
1.0
 40
1.0
 41
-0.3084064732199412
 42
-0.1885875889196793
  0
ELLIPSE
  5
97
330
6F
100
AcDbEntity
  8
02080010_M4X55_S
  6
Continuous
 62
     7
100
AcDbEllipse
 10
142.6438446781
 20
351.0287669345
 30
0.0
 11
-2.123224080483745
 21
5.125916371063159
 31
0.0
210
0.0
220
0.0
230
1.0
 40
0.0871557427
 41
-1.494819759408481
 42
-1.357409741810745
  0
ELLIPSE
  5
98
330
6F
100
AcDbEntity
  8
02080010_M4X55_S
  6
Continuous
 62
     7
100
AcDbEllipse
 10
142.3545565043
 20
351.3180551084
 30
0.0
 11
5.125916370980588
 21
-2.123224080451854
 31
0.0
210
0.0
220
0.0
230
1.0
 40
0.0871557427
 41
1.357409741812339
 42
1.494819759412078
  0
ELLIPSE
  5
99
330
6F
100
AcDbEntity
  8
02080010_M4X55_S
  6
Continuous
 62
     7
100
AcDbEllipse
 10
142.1499988749
 20
350.8364417965
 30
0.0
 11
5.574124406108903
 21
-1.068718410209696E-12
 31
0.0
210
0.0
220
0.0
230
1.0
 40
0.0871557427
 41
1.142419358108121
 42
1.303747867345675
  0
ARC
  5
9A
330
6F
100
AcDbEntity
  8
02080010_M4X55_S
  6
Continuous
 62
     7
100
AcDbCircle
 10
142.1499988749
 20
350.8242093051
 30
0.0
 40
2.35958127291571
100
AcDbArc
 50
348.9029606255
 51
11.0970393745
  0
ELLIPSE
  5
9B
330
6F
100
AcDbEntity
  8
02080010_M4X55_S
  6
Continuous
 62
     7
100
AcDbEllipse
 10
142.1499988749
 20
350.8119768138
 30
0.0
 11
5.57412440611129
 21
9.906660181861066E-13
 31
0.0
210
0.0
220
0.0
230
1.0
 40
0.0871557427
 41
-1.303747867345632
 42
-1.142419358108187
  0
ELLIPSE
  5
9C
330
6F
100
AcDbEntity
  8
02080010_M4X55_S
  6
Continuous
 62
     7
100
AcDbEllipse
 10
142.3545565043
 20
350.3303635019
 30
0.0
 11
5.125916370943062
 21
2.12322408043734
 31
0.0
210
0.0
220
0.0
230
0.9999999999999998
 40
0.0871557427
 41
-1.494819759413377
 42
-1.357409741812508
  0
ELLIPSE
  5
9D
330
6F
100
AcDbEntity
  8
02080010_M4X55_S
  6
Continuous
 62
     7
100
AcDbEllipse
 10
142.6438446781
 20
350.6196516757
 30
0.0
 11
-2.123224080479325
 21
-5.125916371052154
 31
0.0
210
0.0
220
0.0
230
1.0
 40
0.0871557427
 41
1.357409741811024
 42
1.494819759409065
  0
ELLIPSE
  5
9E
330
6F
100
AcDbEntity
  8
02080010_M4X55_S
  6
Continuous
 62
     7
100
AcDbEllipse
 10
142.1622313662
 20
350.8242093051
 30
0.0
 11
1.575128916186941E-12
 21
-5.574124406159973
 31
0.0
210
0.0
220
0.0
230
1.0
 40
0.0871557427
 41
1.142419358105913
 42
1.303747867342225
  0
ELLIPSE
  5
9F
330
6F
100
AcDbEntity
  8
02080010_M4X55_S
  6
Continuous
 62
     7
100
AcDbEllipse
 10
142.1377663835
 20
350.8242093051
 30
0.0
 11
-6.730727086790012E-13
 21
-5.574124406148827
 31
0.0
210
0.0
220
0.0
230
1.0
 40
0.0871557427
 41
-1.303747867343152
 42
-1.14241935810664
  0
ELLIPSE
  5
A0
330
6F
100
AcDbEntity
  8
02080010_M4X55_S
  6
Continuous
 62
     7
100
AcDbEllipse
 10
141.6561530716
 20
350.6196516757
 30
0.0
 11
2.123224080440842
 21
-5.125916370951902
 31
0.0
210
0.0
220
0.0
230
1.0
 40
0.0871557427
 41
-1.494819759413303
 42
-1.357409741812713
  0
ELLIPSE
  5
A1
330
6F
100
AcDbEntity
  8
02080010_M4X55_S
  6
Continuous
 62
     7
100
AcDbEllipse
 10
141.9454412454
 20
350.3303635019
 30
0.0
 11
-5.12591637106291
 21
2.123224080483733
 31
0.0
210
0.0
220
0.0
230
0.9999999999999999
 40
0.0871557427
 41
1.357409741810982
 42
1.494819759408753
  0
ELLIPSE
  5
A2
330
6F
100
AcDbEntity
  8
02080010_M4X55_S
  6
Continuous
 62
     7
100
AcDbEllipse
 10
142.1499988749
 20
350.8119768138
 30
0.0
 11
-5.574124406143619
 21
-7.961144086630553E-13
 31
0.0
210
0.0
220
0.0
230
1.0
 40
0.0871557427
 41
1.142419358106626
 42
1.303747867343279
  0
ARC
  5
A3
330
6F
100
AcDbEntity
  8
02080010_M4X55_S
  6
Continuous
 62
     7
100
AcDbCircle
 10
142.1499988749
 20
350.8242093051
 30
0.0
 40
2.359581272915713
100
AcDbArc
 50
168.9029606255
 51
191.0970393745
  0
ELLIPSE
  5
A4
330
6F
100
AcDbEntity
  8
02080010_M4X55_S
  6
Continuous
 62
     7
100
AcDbEllipse
 10
142.1499988749
 20
350.8364417965
 30
0.0
 11
-5.574124406155588
 21
1.282262192476083E-12
 31
0.0
210
0.0
220
0.0
230
1.0
 40
0.0871557427
 41
-1.303747867342649
 42
-1.142419358106299
  0
ELLIPSE
  5
A5
330
6F
100
AcDbEntity
  8
02080010_M4X55_S
  6
Continuous
 62
     7
100
AcDbEllipse
 10
141.9454412454
 20
351.3180551084
 30
0.0
 11
-5.125916371028577
 21
-2.123224080470384
 31
0.0
210
0.0
220
0.0
230
1.0
 40
0.0871557427
 41
-1.494819759410083
 42
-1.357409741811504
  0
ELLIPSE
  5
A6
330
6F
100
AcDbEntity
  8
02080010_M4X55_S
  6
Continuous
 62
     7
100
AcDbEllipse
 10
141.6561530716
 20
351.0287669345
 30
0.0
 11
2.123224080479498
 21
5.125916371052554
 31
0.0
210
0.0
220
0.0
230
1.0
 40
0.0871557427
 41
1.357409741811037
 42
1.49481975940908
  0
ELLIPSE
  5
A7
330
6F
100
AcDbEntity
  8
02080010_M4X55_S
  6
Continuous
 62
     7
100
AcDbEllipse
 10
142.1377663835
 20
350.8242093051
 30
0.0
 11
0.0
 21
2.357257433296845
 31
0.0
210
0.0
220
0.0
230
1.0
 40
1.0
 41
0.1885875889198796
 42
0.308406473220316
  0
CIRCLE
  5
A9
330
6F
100
AcDbEntity
  8
12080006_MP_HE_P
  6
Continuous
 62
     7
100
AcDbCircle
 10
101.149995
 20
350.8242093051
 30
0.0
 40
8.949999999999989
  0
SPLINE
  5
AB
330
6F
100
AcDbEntity
  8
410374040_ESCUTC
  6
Continuous
 62
     7
100
AcDbSpline
210
0.0
220
0.0
230
1.0
 70
     8
 71
     3
 72
    20
 73
    16
 74
     0
 42
0.000000000162968
 43
0.0000000001
 40
0.0
 40
0.0
 40
0.0
 40
0.0
 40
0.0624999999999998
 40
0.0624999999999998
 40
0.1249999999999997
 40
0.1249999999999997
 40
0.1562499999999996
 40
0.1562499999999996
 40
0.1874999999999995
 40
0.1874999999999995
 40
0.2499999999999994
 40
0.2499999999999994
 40
0.4999999999999996
 40
0.4999999999999996
 40
1.0
 40
1.0
 40
1.0
 40
1.0
 10
23.54348391695155
 20
294.7813048774001
 30
0.0
 10
22.28969882400724
 20
295.0169730676525
 30
0.0
 10
21.06653753908977
 20
295.5035383705627
 30
0.0
 10
18.92813239844686
 20
296.8731613282465
 30
0.0
 10
17.98406211269557
 20
297.7713462007481
 30
0.0
 10
16.87767878643676
 20
299.3242251789986
 30
0.0
 10
16.56047858496541
 20
299.8729125335441
 30
0.0
 10
16.0303407666357
 20
301.0330560461382
 30
0.0
 10
15.80529915532657
 20
301.6373092031822
 30
0.0
 10
15.10037401895327
 20
303.4278648307902
 30
0.0
 10
14.64795953575453
 20
304.6278224291326
 30
0.0
 10
12.4734278227242
 20
310.6588315592775
 30
0.0
 10
11.01377499894818
 20
315.5905482886108
 30
0.0
 10
7.526552002735124
 20
330.4654451987238
 30
0.0
 10
6.350003874912233
 20
340.5558012815036
 30
0.0
 10
6.350003874859151
 20
350.8242093058109
 30
0.0
  0
SPLINE
  5
AC
330
6F
100
AcDbEntity
  8
410374040_ESCUTC
  6
Continuous
 62
     7
100
AcDbSpline
210
0.0
220
0.0
230
1.0
 70
     8
 71
     3
 72
    28
 73
    24
 74
     0
 42
0.0000000001250032
 43
0.0000000001
 40
0.0
 40
0.0
 40
0.0
 40
0.0
 40
0.5000000000000003
 40
0.5000000000000003
 40
0.5625000000000004
 40
0.5625000000000004
 40
0.5937500000000006
 40
0.5937500000000006
 40
0.6250000000000006
 40
0.6250000000000006
 40
0.6562500000000006
 40
0.6562500000000006
 40
0.6875000000000006
 40
0.6875000000000006
 40
0.7500000000000004
 40
0.7500000000000004
 40
0.8750000000000004
 40
0.8750000000000004
 40
0.9375000000000004
 40
0.9375000000000004
 40
0.9687500000000002
 40
0.9687500000000002
 40
1.0
 40
1.0
 40
1.0
 40
1.0
 10
101.1499988750135
 20
278.6242092978154
 30
0.0
 10
87.78936980018906
 20
278.6249926820716
 30
0.0
 10
74.6649492055389
 20
279.9635637576999
 30
0.0
 10
60.15465208822366
 20
282.9117941773079
 30
0.0
 10
58.54597289386711
 20
283.2596278902039
 30
0.0
 10
56.13838099970643
 20
283.8121182088898
 30
0.0
 10
55.33654807091403
 20
284.0001883761591
 30
0.0
 10
53.73500944944777
 20
284.3885015390067
 30
0.0
 10
52.93304787226794
 20
284.5760804836366
 30
0.0
 10
51.37608170785472
 20
285.2216798720888
 30
0.0
 10
50.61641183097902
 20
285.6524329409777
 30
0.0
 10
49.07818740903502
 20
286.4049900515413
 30
0.0
 10
48.30767808250512
 20
286.7730968533527
 30
0.0
 10
45.99003405918898
 20
287.8418176680947
 30
0.0
 10
44.43889794524941
 20
288.5087053867051
 30
0.0
 10
39.75027443132082
 20
290.3927597920805
 30
0.0
 10
36.57578683261385
 20
291.4911662119586
 30
0.0
 10
31.741113104094
 20
292.9029435643612
 30
0.0
 10
30.11742408812012
 20
293.3343120013867
 30
0.0
 10
27.66357637274033
 20
293.9221505128165
 30
0.0
 10
26.8422144988764
 20
294.1082893243719
 30
0.0
 10
25.19580663574116
 20
294.4601083811508
 30
0.0
 10
24.3499426845644
 20
294.6297185494512
 30
0.0
 10
23.54348391695155
 20
294.7813048774001
 30
0.0
  0
SPLINE
  5
AD
330
6F
100
AcDbEntity
  8
410374040_ESCUTC
  6
Continuous
 62
     7
100
AcDbSpline
210
0.0
220
0.0
230
1.0
 70
     8
 71
     3
 72
    24
 73
    20
 74
     0
 42
0.0000000001250433
 43
0.0000000001
 40
0.0
 40
0.0
 40
0.0
 40
0.0
 40
0.2500000000000004
 40
0.2500000000000004
 40
0.3125000000000006
 40
0.3125000000000006
 40
0.3437500000000005
 40
0.3437500000000005
 40
0.3750000000000004
 40
0.3750000000000004
 40
0.4062500000000004
 40
0.4062500000000004
 40
0.4375000000000003
 40
0.4375000000000003
 40
0.5000000000000002
 40
0.5000000000000002
 40
0.7500000000000001
 40
0.7500000000000001
 40
1.0
 40
1.0
 40
1.0
 40
1.0
 10
178.756513832767
 20
294.7813048774002
 30
0.0
 10
172.2592412537947
 20
293.5600425742514
 30
0.0
 10
165.8930486327757
 20
291.7137507681318
 30
0.0
 10
158.1745755427956
 20
288.6396355477423
 30
0.0
 10
156.6420924098709
 20
287.9867644152665
 30
0.0
 10
154.3614526532893
 20
286.9461210867904
 30
0.0
 10
153.6044594275072
 20
286.5883249933248
 30
0.0
 10
152.0953430235016
 20
285.8561554693478
 30
0.0
 10
151.3510999241816
 20
285.4555088262648
 30
0.0
 10
149.8367236772153
 20
284.740051094636
 30
0.0
 10
149.0414099066755
 20
284.5097491602876
 30
0.0
 10
147.4327474506605
 20
284.1107461744114
 30
0.0
 10
146.6254441613323
 20
283.9211869357441
 30
0.0
 10
144.2015485428402
 20
283.3588073470407
 30
0.0
 10
142.5794657762451
 20
283.0041455674337
 30
0.0
 10
134.4384250757664
 20
281.3316616268355
 30
0.0
 10
127.8049365081628
 20
280.3162579604356
 30
0.0
 10
114.5150960150891
 20
278.9656201352146
 30
0.0
 10
107.8452448732584
 20
278.6246018654317
 30
0.0
 10
101.1499988750135
 20
278.6242092978154
 30
0.0
  0
SPLINE
  5
AE
330
6F
100
AcDbEntity
  8
410374040_ESCUTC
  6
Continuous
 62
     7
100
AcDbSpline
210
0.0
220
0.0
230
1.0
 70
     8
 71
     3
 72
    20
 73
    16
 74
     0
 42
0.0000000001629674
 43
0.0000000001
 40
0.0
 40
0.0
 40
0.0
 40
0.0
 40
0.5000000000000007
 40
0.5000000000000007
 40
0.7500000000000012
 40
0.7500000000000012
 40
0.8125000000000014
 40
0.8125000000000014
 40
0.8437500000000013
 40
0.8437500000000013
 40
0.8750000000000013
 40
0.8750000000000013
 40
0.9375000000000007
 40
0.9375000000000007
 40
1.0
 40
1.0
 40
1.0
 40
1.0
 10
195.9499938748593
 20
350.8242093044408
 30
0.0
 10
195.9499938748062
 20
340.5321511742006
 30
0.0
 10
194.7681538309466
 20
330.4416335923769
 30
0.0
 10
191.287605232792
 20
315.5970650189117
 30
0.0
 10
189.8372013911313
 20
310.6903613113287
 30
0.0
 10
187.6569436896104
 20
304.6409211518638
 30
0.0
 10
187.2034019606683
 20
303.4376573343912
 30
0.0
 10
186.4968576124432
 20
301.6426963099728
 30
0.0
 10
186.2712941696524
 20
301.0370596091125
 30
0.0
 10
185.7401501493194
 20
299.8738743856118
 30
0.0
 10
185.4222308687619
 20
299.32391887155
 30
0.0
 10
184.3132108921923
 20
297.7678878891915
 30
0.0
 10
183.3725814721356
 20
296.8723644486136
 30
0.0
 10
181.2187640158186
 20
295.4953893580286
 30
0.0
 10
180.0013814213791
 20
295.0152968855705
 30
0.0
 10
178.756513832767
 20
294.7813048774002
 30
0.0
  0
SPLINE
  5
AF
330
6F
100
AcDbEntity
  8
410374040_ESCUTC
  6
Continuous
 62
     7
100
AcDbSpline
210
0.0
220
0.0
230
1.0
 70
     8
 71
     3
 72
    20
 73
    16
 74
     0
 42
0.000000000162968
 43
0.0000000001
 40
0.0
 40
0.0
 40
0.0
 40
0.0
 40
0.0625
 40
0.0625
 40
0.1249999999999999
 40
0.1249999999999999
 40
0.1562499999999998
 40
0.1562499999999998
 40
0.1874999999999998
 40
0.1874999999999998
 40
0.2499999999999996
 40
0.2499999999999996
 40
0.4999999999999998
 40
0.4999999999999998
 40
1.0
 40
1.0
 40
1.0
 40
1.0
 10
178.756513832767
 20
406.8671137328516
 30
0.0
 10
180.0102989253024
 20
406.631445542676
 30
0.0
 10
181.2334602095214
 20
406.1448802401075
 30
0.0
 10
183.3718653491319
 20
404.7752572836662
 30
0.0
 10
184.3159356353086
 20
403.8770724111135
 30
0.0
 10
185.4223189609752
 20
402.3241934348886
 30
0.0
 10
185.7395191625594
 20
401.7755060807962
 30
0.0
 10
186.2696569814197
 20
400.6153625684651
 30
0.0
 10
186.4946985927645
 20
400.0111094111474
 30
0.0
 10
187.1996237293516
 20
398.2205537831647
 30
0.0
 10
187.6520382126956
 20
397.0205961845428
 30
0.0
 10
189.8265699264547
 20
390.9895870528484
 30
0.0
 10
191.2862227502337
 20
386.0578703235557
 30
0.0
 10
194.773445746533
 20
371.1829734141974
 30
0.0
 10
195.9499938748063
 20
361.0926173307199
 30
0.0
 10
195.9499938748593
 20
350.8242093044408
 30
0.0
  0
SPLINE
  5
B0
330
6F
100
AcDbEntity
  8
410374040_ESCUTC
  6
Continuous
 62
     7
100
AcDbSpline
210
0.0
220
0.0
230
1.0
 70
     8
 71
     3
 72
    28
 73
    24
 74
     0
 42
0.0000000001250032
 43
0.0000000001
 40
0.0
 40
0.0
 40
0.0
 40
0.0
 40
0.4999999999999996
 40
0.4999999999999996
 40
0.5624999999999997
 40
0.5624999999999997
 40
0.5937499999999998
 40
0.5937499999999998
 40
0.6249999999999999
 40
0.6249999999999999
 40
0.65625
 40
0.65625
 40
0.6875
 40
0.6875
 40
0.75
 40
0.75
 40
0.875
 40
0.875
 40
0.9374999999999999
 40
0.9374999999999999
 40
0.9687499999999999
 40
0.9687499999999999
 40
1.0
 40
1.0
 40
1.0
 40
1.0
 10
101.1499988750134
 20
423.0242093124363
 30
0.0
 10
114.5106279486503
 20
423.0234259281802
 30
0.0
 10
127.6350485431951
 20
421.6848548526775
 30
0.0
 10
142.1453456604207
 20
418.7366244331715
 30
0.0
 10
143.7540248547723
 20
418.3887907202859
 30
0.0
 10
146.1616167489325
 20
417.8363004016143
 30
0.0
 10
146.9634496777259
 20
417.6482302343454
 30
0.0
 10
148.5649882991967
 20
417.2599170715141
 30
0.0
 10
149.3669498763817
 20
417.0723381269513
 30
0.0
 10
150.9239160407846
 20
416.4267387387174
 30
0.0
 10
151.6835859176351
 20
415.9959856698227
 30
0.0
 10
153.2218103395452
 20
415.2434285592587
 30
0.0
 10
153.9923196660606
 20
414.8753217574428
 30
0.0
 10
156.3099636893423
 20
413.8066009426799
 30
0.0
 10
157.8610998032693
 20
413.1397132240515
 30
0.0
 10
162.5497233171784
 20
411.2556588186156
 30
0.0
 10
165.7242109159617
 20
410.1572523986609
 30
0.0
 10
170.5588846447552
 20
408.7454750461274
 30
0.0
 10
172.1825736608469
 20
408.3141066090555
 30
0.0
 10
174.6364213764475
 20
407.7262680975571
 30
0.0
 10
175.4577832503944
 20
407.5401292859784
 30
0.0
 10
177.1041911137382
 20
407.188310229149
 30
0.0
 10
177.950055065021
 20
407.0187000608254
 30
0.0
 10
178.756513832767
 20
406.8671137328516
 30
0.0
  0
SPLINE
  5
B1
330
6F
100
AcDbEntity
  8
410374040_ESCUTC
  6
Continuous
 62
     7
100
AcDbSpline
210
0.0
220
0.0
230
1.0
 70
     8
 71
     3
 72
    24
 73
    20
 74
     0
 42
0.0000000001250433
 43
0.0000000001
 40
0.0
 40
0.0
 40
0.0
 40
0.0
 40
0.2500000000000012
 40
0.2500000000000012
 40
0.3125000000000012
 40
0.3125000000000012
 40
0.3437500000000012
 40
0.3437500000000012
 40
0.3750000000000011
 40
0.3750000000000011
 40
0.406250000000001
 40
0.406250000000001
 40
0.4375000000000009
 40
0.4375000000000009
 40
0.5000000000000008
 40
0.5000000000000008
 40
0.7500000000000003
 40
0.7500000000000003
 40
1.0
 40
1.0
 40
1.0
 40
1.0
 10
23.54348391695153
 20
406.8671137328515
 30
0.0
 10
30.04075649718617
 20
408.0883760362375
 30
0.0
 10
36.40694911864595
 20
409.9346678426606
 30
0.0
 10
44.12542220880766
 20
413.0087830632945
 30
0.0
 10
45.65790534174531
 20
413.6616541958124
 30
0.0
 10
47.93854509831119
 20
414.7022975243393
 30
0.0
 10
48.69553832408222
 20
415.0600936178196
 30
0.0
 10
50.20465472805644
 20
415.7922631418113
 30
0.0
 10
50.94889782733377
 20
416.1929097849979
 30
0.0
 10
52.46327407431264
 20
416.9083675163083
 30
0.0
 10
53.25858784488106
 20
417.1386694504402
 30
0.0
 10
54.86725030092396
 20
417.537672436283
 30
0.0
 10
55.67455359026311
 20
417.7272316749514
 30
0.0
 10
58.0984492087792
 20
418.2896112636351
 30
0.0
 10
59.720531975379
 20
418.6442730432263
 30
0.0
 10
67.86157267582097
 20
420.3167569837334
 30
0.0
 10
74.49506124319088
 20
421.3321606500291
 30
0.0
 10
87.78490173575729
 20
422.6827984751048
 30
0.0
 10
94.45475287692459
 20
423.0238167448201
 30
0.0
 10
101.1499988750134
 20
423.0242093124363
 30
0.0
  0
SPLINE
  5
B2
330
6F
100
AcDbEntity
  8
410374040_ESCUTC
  6
Continuous
 62
     7
100
AcDbSpline
210
0.0
220
0.0
230
1.0
 70
     8
 71
     3
 72
    20
 73
    16
 74
     0
 42
0.0000000001629674
 43
0.0000000001
 40
0.0
 40
0.0
 40
0.0
 40
0.0
 40
0.5000000000000006
 40
0.5000000000000006
 40
0.7500000000000007
 40
0.7500000000000007
 40
0.8125000000000004
 40
0.8125000000000004
 40
0.8437500000000001
 40
0.8437500000000001
 40
0.8749999999999999
 40
0.8749999999999999
 40
0.9374999999999999
 40
0.9374999999999999
 40
1.0
 40
1.0
 40
1.0
 40
1.0
 10
6.350003874859151
 20
350.8242093058109
 30
0.0
 10
6.350003874912344
 20
361.1162674354502
 30
0.0
 10
7.531843918643643
 20
371.2067850169532
 30
0.0
 10
11.01239251660889
 20
386.0513535901725
 30
0.0
 10
12.46279635822774
 20
390.9580572977752
 30
0.0
 10
14.64305405964124
 20
397.0074974571302
 30
0.0
 10
15.0965957885609
 20
398.21076127458
 30
0.0
 10
15.80314013675019
 20
400.0057222989632
 30
0.0
 10
16.02870357954743
 20
400.6113589997812
 30
0.0
 10
16.55984759972151
 20
401.7745442233777
 30
0.0
 10
16.87776688022753
 20
402.324499737541
 30
0.0
 10
17.98678685680119
 20
403.8805307203181
 30
0.0
 10
18.92741627676499
 20
404.7760541609888
 30
0.0
 10
21.08123373331411
 20
406.1530292519749
 30
0.0
 10
22.29861632823332
 20
406.6331217246612
 30
0.0
 10
23.54348391695153
 20
406.8671137328515
 30
0.0
  0
SPLINE
  5
B3
330
6F
100
AcDbEntity
  8
410374040_ESCUTC
  6
Continuous
 62
     7
100
AcDbSpline
210
0.0
220
0.0
230
1.0
 70
     8
 71
     3
 72
    44
 73
    40
 74
     0
 42
0.0000000000749322
 43
0.0000000001
 40
0.0316081608403913
 40
0.0316081608403913
 40
0.0316081608403913
 40
0.0316081608403913
 40
0.1249999999999993
 40
0.1249999999999993
 40
0.2499999999999987
 40
0.2499999999999987
 40
0.3124999999999983
 40
0.3124999999999983
 40
0.343749999999998
 40
0.343749999999998
 40
0.351562499999998
 40
0.351562499999998
 40
0.3593749999999981
 40
0.3593749999999981
 40
0.374999999999998
 40
0.374999999999998
 40
0.4999999999999973
 40
0.4999999999999973
 40
0.5624999999999972
 40
0.5624999999999972
 40
0.5781249999999973
 40
0.5781249999999973
 40
0.5937499999999974
 40
0.5937499999999974
 40
0.6249999999999974
 40
0.6249999999999974
 40
0.6328124999999976
 40
0.6328124999999976
 40
0.6406249999999976
 40
0.6406249999999976
 40
0.6562499999999978
 40
0.6562499999999978
 40
0.6874999999999981
 40
0.6874999999999981
 40
0.7499999999999986
 40
0.7499999999999986
 40
0.8749999999999992
 40
0.8749999999999992
 40
1.0
 40
1.0
 40
1.0
 40
1.0
 10
96.91301204172771
 20
283.6698904580837
 30
0.0
 10
92.74295135141303
 20
283.7620981331945
 30
0.0
 10
88.58216373058598
 20
283.9898526119757
 30
0.0
 10
78.87383371640959
 20
284.8350839207378
 30
0.0
 10
73.32532353993489
 20
285.5602336053138
 30
0.0
 10
65.07761444553067
 20
287.0066583656803
 30
0.0
 10
62.33955937673633
 20
287.548598171136
 30
0.0
 10
58.24928666436555
 20
288.4514057388561
 30
0.0
 10
56.88686011603971
 20
288.7654261385592
 30
0.0
 10
55.19326245285968
 20
289.179571366108
 30
0.0
 10
54.85319957311127
 20
289.2590448950837
 30
0.0
 10
54.18798047564192
 20
289.4550715666292
 30
0.0
 10
53.87337157248418
 20
289.5978767278818
 30
0.0
 10
52.94636564699027
 20
290.0681198657397
 30
0.0
 10
52.32844276408823
 20
290.3817688224414
 30
0.0
 10
46.72674896308143
 20
293.1036679822388
 30
0.0
 10
41.58321826309693
 20
295.1371237589593
 30
0.0
 10
33.67860587159582
 20
297.5753096102254
 30
0.0
 10
31.01113673224383
 20
298.2872615634033
 30
0.0
 10
27.6509531962348
 20
299.047390577401
 30
0.0
 10
26.97744478718008
 20
299.1929657250499
 30
0.0
 10
25.62747191195075
 20
299.4711610281425
 30
0.0
 10
24.94532569258005
 20
299.5795955198465
 30
0.0
 10
22.93144771100948
 20
300.0429442223532
 30
0.0
 10
21.7265761235691
 20
300.93203650463
 30
0.0
 10
20.86743199103963
 20
302.4498302471563
 30
0.0
 10
20.7387739361058
 20
302.773851505566
 30
0.0
 10
20.47905147370865
 20
303.4180463930895
 30
0.0
 10
20.35050345195742
 20
303.7406770995792
 30
0.0
 10
19.96879964749598
 20
304.7101692764909
 30
0.0
 10
19.71954160247846
 20
305.3587442123311
 30
0.0
 10
18.98785117187747
 20
307.3100461835252
 30
0.0
 10
18.5216800660367
 20
308.6178380476355
 30
0.0
 10
17.18782788899065
 20
312.5619198242559
 30
0.0
 10
16.38473913262245
 20
315.2188938960962
 30
0.0
 10
14.23474334549996
 20
323.2728458229801
 30
0.0
 10
13.15739577839548
 20
328.7115455706218
 30
0.0
 10
11.71383673158627
 20
339.7069524817439
 30
0.0
 10
11.34960764307628
 20
345.2650488437696
 30
0.0
 10
11.34960764316936
 20
350.8242093050865
 30
0.0
  0
SPLINE
  5
B4
330
6F
100
AcDbEntity
  8
410374040_ESCUTC
  6
Continuous
 62
     7
100
AcDbSpline
210
0.0
220
0.0
230
1.0
 70
     8
 71
     3
 72
    30
 73
    26
 74
     0
 42
0.0000000000751293
 43
0.0000000001
 40
0.0
 40
0.0
 40
0.0
 40
0.0
 40
0.2499999999999899
 40
0.2499999999999899
 40
0.3124999999999873
 40
0.3124999999999873
 40
0.3437499999999861
 40
0.3437499999999861
 40
0.3593749999999854
 40
0.3593749999999854
 40
0.3671874999999852
 40
0.3671874999999852
 40
0.3749999999999849
 40
0.3749999999999849
 40
0.4062499999999845
 40
0.4062499999999845
 40
0.4140624999999845
 40
0.4140624999999845
 40
0.4218749999999844
 40
0.4218749999999844
 40
0.4374999999999846
 40
0.4374999999999846
 40
0.499999999999986
 40
0.499999999999986
 40
0.5940062749439629
 40
0.5940062749439629
 40
0.5940062749439629
 40
0.5940062749439629
 10
11.34960764316936
 20
350.8242093050865
 30
0.0
 10
11.34960765077812
 20
361.8887147077069
 30
0.0
 10
12.79521377579683
 20
372.93320612322
 30
0.0
 10
16.33878856849473
 20
386.2694394300472
 30
0.0
 10
17.1332395947057
 20
388.9111730226447
 30
0.0
 10
18.45359311933457
 20
392.8354841627753
 30
0.0
 10
18.91517396273992
 20
394.1372013280011
 30
0.0
 10
19.63990202772234
 20
396.0801492483126
 30
0.0
 10
19.88682266506431
 20
396.7260521088034
 30
0.0
 10
20.26489385655254
 20
397.6914375411325
 30
0.0
 10
20.39221438261604
 20
398.0126951344491
 30
0.0
 10
20.64944803932872
 20
398.6541356363134
 30
0.0
 10
20.76898088241753
 20
398.9785904288087
 30
0.0
 10
21.54835986407452
 20
400.5260611622368
 30
0.0
 10
22.7104320751435
 20
401.482092746097
 30
0.0
 10
24.37952424934181
 20
401.9496760985375
 30
0.0
 10
24.72202282999235
 20
402.0024702160965
 30
0.0
 10
25.40149107660963
 20
402.134142250323
 30
0.0
 10
25.74088680191607
 20
402.2016237271294
 30
0.0
 10
26.75806144671543
 20
402.4089920814917
 30
0.0
 10
27.43495416028327
 20
402.553831439747
 30
0.0
 10
30.81045567271563
 20
403.3102307191214
 30
0.0
 10
33.48309080583052
 20
404.0182022431822
 30
0.0
 10
40.10626017818143
 20
406.0480615142112
 30
0.0
 10
44.01831997260305
 20
407.5002235115502
 30
0.0
 10
47.85308633945976
 20
409.1830476868452
 30
0.0
  0
SPLINE
  5
B5
330
6F
100
AcDbEntity
  8
410374040_ESCUTC
  6
Continuous
 62
     7
100
AcDbSpline
210
0.0
220
0.0
230
1.0
 70
     8
 71
     3
 72
    18
 73
    14
 74
     0
 42
0.0000000000746831
 43
0.0000000001
 40
0.5940062749439629
 40
0.5940062749439629
 40
0.5940062749439629
 40
0.5940062749439629
 40
0.6249999999999886
 40
0.6249999999999886
 40
0.640624999999989
 40
0.640624999999989
 40
0.6484374999999891
 40
0.6484374999999891
 40
0.6562499999999892
 40
0.6562499999999892
 40
0.6874999999999902
 40
0.6874999999999902
 40
0.7044131807121454
 40
0.7044131807121454
 40
0.7044131807121454
 40
0.7044131807121454
 10
47.85308633945976
 20
409.1830476868452
 30
0.0
 10
49.11740294491276
 20
409.7378722433741
 30
0.0
 10
50.37331767120612
 20
410.3177700280797
 30
0.0
 10
52.24914545457212
 20
411.2276061382679
 30
0.0
 10
52.87482811650642
 20
411.5416348464699
 30
0.0
 10
53.81096305746232
 20
412.0198841707328
 30
0.0
 10
54.12607257640859
 20
412.1701934387365
 30
0.0
 10
54.78866863164317
 20
412.374447097697
 30
0.0
 10
55.1280267736384
 20
412.4525910683581
 30
0.0
 10
56.81689814719943
 20
412.8669645923727
 30
0.0
 10
58.17432322759187
 20
413.1798622408201
 30
0.0
 10
60.2726516739476
 20
413.6439129192452
 30
0.0
 10
61.01126424931891
 20
413.8026829796319
 30
0.0
 10
61.75132542370019
 20
413.9571938830355
 30
0.0
  0
SPLINE
  5
B6
330
6F
100
AcDbEntity
  8
410374040_ESCUTC
  6
Continuous
 62
     7
100
AcDbSpline
210
0.0
220
0.0
230
1.0
 70
     8
 71
     3
 72
    10
 73
     6
 74
     0
 42
0.0000000000744163
 43
0.0000000001
 40
0.7044131807121454
 40
0.7044131807121454
 40
0.7044131807121454
 40
0.7044131807121454
 40
0.7499999999999921
 40
0.7499999999999921
 40
1.0
 40
1.0
 40
1.0
 40
1.0
 10
61.75132542370019
 20
413.9571938830355
 30
0.0
 10
63.74604395669764
 20
414.373653728841
 30
0.0
 10
65.7512863769915
 20
414.7591713416618
 30
0.0
 10
78.78270544931564
 20
417.0492036557384
 30
0.0
 10
89.94810464341337
 20
418.0248324675994
 30
0.0
 10
101.1500584131755
 20
418.0254994298218
 30
0.0
  0
SPLINE
  5
B7
330
6F
100
AcDbEntity
  8
410374040_ESCUTC
  6
Continuous
 62
     7
100
AcDbSpline
210
0.0
220
0.0
230
1.0
 70
     8
 71
     3
 72
    44
 73
    40
 74
     0
 42
0.0000000000749198
 43
0.0000000001
 40
0.0
 40
0.0
 40
0.0
 40
0.0
 40
0.1250000000000013
 40
0.1250000000000013
 40
0.2500000000000027
 40
0.2500000000000027
 40
0.3125000000000033
 40
0.3125000000000033
 40
0.3437500000000036
 40
0.3437500000000036
 40
0.3515625000000038
 40
0.3515625000000038
 40
0.3593750000000039
 40
0.3593750000000039
 40
0.3750000000000042
 40
0.3750000000000042
 40
0.5000000000000066
 40
0.5000000000000066
 40
0.5625000000000078
 40
0.5625000000000078
 40
0.5781250000000081
 40
0.5781250000000081
 40
0.5937500000000083
 40
0.5937500000000083
 40
0.6250000000000085
 40
0.6250000000000085
 40
0.6328125000000085
 40
0.6328125000000085
 40
0.6406250000000085
 40
0.6406250000000085
 40
0.6562500000000081
 40
0.6562500000000081
 40
0.6875000000000074
 40
0.6875000000000074
 40
0.7500000000000059
 40
0.7500000000000059
 40
0.875000000000003
 40
0.875000000000003
 40
1.0
 40
1.0
 40
1.0
 40
1.0
 10
101.1500584131755
 20
418.0254994298218
 30
0.0
 10
106.7398668118666
 20
418.0251631420318
 30
0.0
 10
112.313002157486
 20
417.7808815900254
 30
0.0
 10
123.4264075550253
 20
416.8133060503098
 30
0.0
 10
128.9749047641982
 20
416.0881510882348
 30
0.0
 10
137.2225940104625
 20
414.6417200376016
 30
0.0
 10
139.9606425107004
 20
414.099778408794
 30
0.0
 10
144.05090543194
 20
413.1969684642336
 30
0.0
 10
145.4133291929189
 20
412.8829487021768
 30
0.0
 10
147.1069217435881
 20
412.4688008845627
 30
0.0
 10
147.446984908186
 20
412.3893300904929
 30
0.0
 10
148.1121943532446
 20
412.193283457302
 30
0.0
 10
148.4267949320506
 20
412.0504596235701
 30
0.0
 10
149.3537954548979
 20
411.5802091909416
 30
0.0
 10
149.9717200338473
 20
411.2665685562696
 30
0.0
 10
155.5734045709003
 20
408.5446832120113
 30
0.0
 10
160.716927598193
 20
406.5112413801941
 30
0.0
 10
168.6215259995759
 20
404.0730715216814
 30
0.0
 10
171.2889900665111
 20
403.3611245169068
 30
0.0
 10
174.6491671207182
 20
402.6010011367266
 30
0.0
 10
175.3226742272661
 20
402.4554270886252
 30
0.0
 10
176.6726444855556
 20
402.1772339317848
 30
0.0
 10
177.3547921137987
 20
402.0688120765276
 30
0.0
 10
179.3686545447558
 20
401.6054171103257
 30
0.0
 10
180.573501805096
 20
400.7163028403377
 30
0.0
 10
181.4326135614568
 20
399.1984883107608
 30
0.0
 10
181.5612645357886
 20
398.8744668775216
 30
0.0
 10
181.8209858867559
 20
398.2302731832555
 30
0.0
 10
181.9495333585446
 20
397.9076430757343
 30
0.0
 10
182.3312355302994
 20
396.9381527027166
 30
0.0
 10
182.5804925151541
 20
396.2895789637224
 30
0.0
 10
183.3121797746781
 20
394.3382807718811
 30
0.0
 10
183.7783488638283
 20
393.0304914584864
 30
0.0
 10
185.1121952767357
 20
389.0864174254863
 30
0.0
 10
185.9152805710023
 20
386.4294486378357
 30
0.0
 10
188.0652670865621
 20
378.3755129201564
 30
0.0
 10
189.1426098651789
 20
372.9368250719302
 30
0.0
 10
190.5861626205498
 20
361.9414417328231
 30
0.0
 10
190.950390105848
 20
356.3833575710248
 30
0.0
 10
190.9503901065331
 20
350.8242093053337
 30
0.0
  0
SPLINE
  5
B8
330
6F
100
AcDbEntity
  8
410374040_ESCUTC
  6
Continuous
 62
     7
100
AcDbSpline
210
0.0
220
0.0
230
1.0
 70
     8
 71
     3
 72
    30
 73
    26
 74
     0
 42
0.0000000000751296
 43
0.0000000001
 40
0.0
 40
0.0
 40
0.0
 40
0.0
 40
0.2500000000000064
 40
0.2500000000000064
 40
0.312500000000008
 40
0.312500000000008
 40
0.3437500000000089
 40
0.3437500000000089
 40
0.3593750000000094
 40
0.3593750000000094
 40
0.3671875000000097
 40
0.3671875000000097
 40
0.37500000000001
 40
0.37500000000001
 40
0.4062500000000107
 40
0.4062500000000107
 40
0.4140625000000108
 40
0.4140625000000108
 40
0.4218750000000109
 40
0.4218750000000109
 40
0.4375000000000108
 40
0.4375000000000108
 40
0.5000000000000102
 40
0.5000000000000102
 40
0.5938527954173607
 40
0.5938527954173607
 40
0.5938527954173607
 40
0.5938527954173607
 10
190.9503901065331
 20
350.8242093053337
 30
0.0
 10
190.9503901004733
 20
339.7597280391832
 30
0.0
 10
189.5047903538324
 20
328.7152608182132
 30
0.0
 10
185.9612307802983
 20
315.3790543754035
 30
0.0
 10
185.166783167202
 20
312.7373260456667
 30
0.0
 10
183.8464353326044
 20
308.8130226300427
 30
0.0
 10
183.3848564810824
 20
307.5113080113117
 30
0.0
 10
182.6601315501693
 20
305.5683638672131
 30
0.0
 10
182.4132119547886
 20
304.9224621872418
 30
0.0
 10
182.0351423687333
 20
303.9570785371595
 30
0.0
 10
181.9078223834081
 20
303.6358215356047
 30
0.0
 10
181.6505898194059
 20
302.9943822126045
 30
0.0
 10
181.5310585010365
 20
302.6699276068298
 30
0.0
 10
180.7517161808223
 20
301.1224458569514
 30
0.0
 10
179.5896695478598
 20
300.1663888511671
 30
0.0
 10
177.920589539525
 20
299.6987665444749
 30
0.0
 10
177.5780921006484
 20
299.6459707024636
 30
0.0
 10
176.8986251806159
 20
299.5142997169174
 30
0.0
 10
176.5592301172364
 20
299.4468187710913
 30
0.0
 10
175.5420574540632
 20
299.2394520298704
 30
0.0
 10
174.865166046249
 20
299.0946137723312
 30
0.0
 10
171.4896708377888
 20
298.3382200846374
 30
0.0
 10
168.8170406363219
 20
297.6302534469006
 30
0.0
 10
162.200378358403
 20
295.6023981992255
 30
0.0
 10
158.2946040169448
 20
294.1529966291284
 30
0.0
 10
154.4658528456844
 20
292.4736816739124
 30
0.0
  0
SPLINE
  5
B9
330
6F
100
AcDbEntity
  8
410374040_ESCUTC
  6
Continuous
 62
     7
100
AcDbSpline
210
0.0
220
0.0
230
1.0
 70
     8
 71
     3
 72
    18
 73
    14
 74
     0
 42
0.0000000000746835
 43
0.0000000001
 40
0.5938527954173607
 40
0.5938527954173607
 40
0.5938527954173607
 40
0.5938527954173607
 40
0.6250000000000095
 40
0.6250000000000095
 40
0.6406250000000093
 40
0.6406250000000093
 40
0.6484375000000093
 40
0.6484375000000093
 40
0.6562500000000093
 40
0.6562500000000093
 40
0.6875000000000084
 40
0.6875000000000084
 40
0.7042973717247785
 40
0.7042973717247785
 40
0.7042973717247785
 40
0.7042973717247785
 10
154.4658528456844
 20
292.4736816739124
 30
0.0
 10
153.1951938791934
 20
291.9163624567679
 30
0.0
 10
151.9330182183638
 20
291.3337206579042
 30
0.0
 10
150.0510179741997
 20
290.4208938985329
 30
0.0
 10
149.4253343819628
 20
290.106872720243
 30
0.0
 10
148.4892035475124
 20
289.6286183116694
 30
0.0
 10
148.174099991081
 20
289.4782936731991
 30
0.0
 10
147.5115142762526
 20
289.2740139889154
 30
0.0
 10
147.1721557095991
 20
289.1958736640173
 30
0.0
 10
145.4832892640253
 20
288.7814973742379
 30
0.0
 10
144.1258671341984
 20
288.4686004672701
 30
0.0
 10
142.0325894461085
 20
288.0056644718835
 30
0.0
 10
141.2990481464361
 20
287.8479526586323
 30
0.0
 10
140.5640759456809
 20
287.6944413725677
 30
0.0
  0
SPLINE
  5
BA
330
6F
100
AcDbEntity
  8
410374040_ESCUTC
  6
Continuous
 62
     7
100
AcDbSpline
210
0.0
220
0.0
230
1.0
 70
     8
 71
     3
 72
    10
 73
     6
 74
     0
 42
0.0000000000744457
 43
0.0000000001
 40
0.7042973717247785
 40
0.7042973717247785
 40
0.7042973717247785
 40
0.7042973717247785
 40
0.7500000000000068
 40
0.7500000000000068
 40
0.9684389360482608
 40
0.9684389360482608
 40
0.9684389360482608
 40
0.9684389360482608
 10
140.5640759456809
 20
287.6944413725677
 30
0.0
 10
138.5643487363216
 20
287.276764764702
 30
0.0
 10
136.5540287629176
 20
286.8901840822539
 30
0.0
 10
124.9089512045946
 20
284.8437620592815
 30
0.0
 10
115.1689991130631
 20
283.8852610070796
 30
0.0
 10
105.3908066310692
 20
283.6697660917592
 30
0.0
  0
SPLINE
  5
BB
330
6F
100
AcDbEntity
  8
410374040_ESCUTC
  6
Continuous
 62
     7
100
AcDbSpline
210
0.0
220
0.0
230
1.0
 70
     8
 71
     3
 72
     8
 73
     4
 74
     0
 42
0.0000000006511975
 43
0.0000000001
 40
0.0
 40
0.0
 40
0.0
 40
0.0
 40
0.010232332657812
 40
0.010232332657812
 40
0.010232332657812
 40
0.010232332657812
 10
58.68767308400646
 20
347.0474245242034
 30
0.0
 10
58.73657321502878
 20
347.0284909796893
 30
0.0
 10
58.78580248998599
 20
347.0105953297282
 30
0.0
 10
58.83532542533961
 20
346.9937412325929
 30
0.0
  0
SPLINE
  5
BC
330
6F
100
AcDbEntity
  8
410374040_ESCUTC
  6
Continuous
 62
     7
100
AcDbSpline
210
0.0
220
0.0
230
1.0
 70
     8
 71
     3
 72
    16
 73
    12
 74
     0
 42
0.0000000006363197
 43
0.0000000001
 40
0.010232332657812
 40
0.010232332657812
 40
0.010232332657812
 40
0.010232332657812
 40
0.1250000000000004
 40
0.1250000000000004
 40
0.2500000000000009
 40
0.2500000000000009
 40
0.5000000000000007
 40
0.5000000000000007
 40
0.7500000000000003
 40
0.7500000000000003
 40
0.9840223821291519
 40
0.9840223821291519
 40
0.9840223821291519
 40
0.9840223821291519
 10
58.83532542533961
 20
346.9937412325929
 30
0.0
 10
59.3907834973692
 20
346.8047026743224
 30
0.0
 10
59.98318482701947
 20
346.7466942271561
 30
0.0
 10
61.19338418788809
 20
346.9100319915717
 30
0.0
 10
61.79805999516302
 20
347.1571719437903
 30
0.0
 10
63.33042930172524
 20
348.2761023706503
 30
0.0
 10
63.9597771024967
 20
349.5458530864095
 30
0.0
 10
63.96042617334952
 20
352.1004491935157
 30
0.0
 10
63.34404425267557
 20
353.3617142516724
 30
0.0
 10
61.34235743298205
 20
354.8246163828617
 30
0.0
 10
60.05900615853009
 20
355.0368636948252
 30
0.0
 10
58.9190167885774
 20
354.6816975310379
 30
0.0
  0
SPLINE
  5
BD
330
6F
100
AcDbEntity
  8
410374040_ESCUTC
  6
Continuous
 62
     7
100
AcDbSpline
210
0.0
220
0.0
230
1.0
 70
     8
 71
     3
 72
     8
 73
     4
 74
     0
 42
0.0000000006518577
 43
0.0000000001
 40
0.9840223821291519
 40
0.9840223821291519
 40
0.9840223821291519
 40
0.9840223821291519
 40
1.0
 40
1.0
 40
1.0
 40
1.0
 10
58.9190167885774
 20
354.6816975310379
 30
0.0
 10
58.84118528218807
 20
354.6574489562049
 30
0.0
 10
58.76402203205068
 20
354.6305554834548
 30
0.0
 10
58.68767308402145
 20
354.600994086054
 30
0.0
  0
ARC
  5
BE
330
6F
100
AcDbEntity
  8
410374040_ESCUTC
  6
Continuous
 62
     7
100
AcDbCircle
 10
60.1499988749
 20
350.8242093051
 30
0.0
 40
4.050000000000002
100
AcDbArc
 50
111.1658059791
 51
248.8341940207
  0
ARC
  5
BF
330
6F
100
AcDbEntity
  8
410374040_ESCUTC
  6
Continuous
 62
     7
100
AcDbCircle
 10
101.1499988749
 20
350.8242093051
 30
0.0
 40
32.0
100
AcDbArc
 50
0.0
 51
259.5704395296
  0
ARC
  5
C0
330
6F
100
AcDbEntity
  8
410374040_ESCUTC
  6
Continuous
 62
     7
100
AcDbCircle
 10
101.1499988749
 20
350.8242093051
 30
0.0
 40
32.0
100
AcDbArc
 50
280.4295463231
 51
0.0
  0
ENDBLK
  5
C2
330
6F
100
AcDbEntity
  8
0
100
AcDbBlockEnd
  0
BLOCK
  5
126
330
C3
100
AcDbEntity
  8
0
100
AcDbBlockBegin
  2
SE1
 70
     0
 10
0.0
 20
0.0
 30
0.0
  3
SE1
  1

  0
LINE
  5
C6
330
C3
100
AcDbEntity
  8
410064038_SLEEVE
  6
Continuous
 62
     7
100
AcDbLine
 10
287.3122603518
 20
382.5742093051
 30
0.0
 11
270.6552945251
 21
382.5742093051
 31
0.0
  0
LINE
  5
C7
330
C3
100
AcDbEntity
  8
410064038_SLEEVE
  6
Continuous
 62
     7
100
AcDbLine
 10
270.6553081471
 20
319.0742093051
 30
0.0
 11
287.3122603518
 21
319.0742093051
 31
0.0
  0
LINE
  5
C9
330
C3
100
AcDbEntity
  8
410316038_HANDLE
  6
Continuous
 62
     7
100
AcDbLine
 10
328.0105405203
 20
363.6296425228
 30
0.0
 11
328.0105405203
 21
338.0187760874
 31
0.0
  0
ARC
  5
CA
330
C3
100
AcDbEntity
  8
410316038_HANDLE
  6
Continuous
 62
     7
100
AcDbCircle
 10
292.8022304162
 20
414.7094924773
 30
0.0
 40
32.22328477276592
100
AcDbArc
 50
265.7680681007
 51
274.2320320178
  0
LINE
  5
CB
330
C3
100
AcDbEntity
  8
410316038_HANDLE
  6
Continuous
 62
     7
100
AcDbLine
 10
288.4022603518
 20
319.2742093051
 30
0.0
 11
288.4022603518
 21
382.3742093051
 31
0.0
  0
LINE
  5
CC
330
C3
100
AcDbEntity
  8
410316038_HANDLE
  6
Continuous
 62
     7
100
AcDbLine
 10
288.6022603518
 20
319.0742093051
 30
0.0
 11
312.5859902181
 21
319.0742093051
 31
0.0
  0
LINE
  5
CD
330
C3
100
AcDbEntity
  8
410316038_HANDLE
  6
Continuous
 62
     7
100
AcDbLine
 10
290.4264252387
 20
382.5742093051
 30
0.0
 11
288.6022603518
 21
382.5742093051
 31
0.0
  0
LINE
  5
CE
330
C3
100
AcDbEntity
  8
410316038_HANDLE
  6
Continuous
 62
     7
100
AcDbLine
 10
312.5859902181
 20
382.5742093051
 30
0.0
 11
295.1525453224
 21
382.5742093051
 31
0.0
  0
ARC
  5
CF
330
C3
100
AcDbEntity
  8
410316038_HANDLE
  6
Continuous
 62
     7
100
AcDbCircle
 10
334.4610639915
 20
318.7330242619
 30
0.0
 40
20.00000000000007
100
AcDbArc
 50
109.8190009703
 51
173.8911589413
  0
ARC
  5
D0
330
C3
100
AcDbEntity
  8
410316038_HANDLE
  6
Continuous
 62
     7
100
AcDbCircle
 10
334.4610639915
 20
382.9153943484
 30
0.0
 40
20.0
100
AcDbArc
 50
186.1088410586
 51
250.1809990297
  0
ARC
  5
D1
330
C3
100
AcDbEntity
  8
410316038_HANDLE
  6
Continuous
 62
     7
100
AcDbCircle
 10
327.5105405203
 20
363.6296425228
 30
0.0
 40
0.5000000000000004
100
AcDbArc
 50
0.0
 51
70.1809990297
  0
ARC
  5
D2
330
C3
100
AcDbEntity
  8
410316038_HANDLE
  6
Continuous
 62
     7
100
AcDbCircle
 10
327.5105405203
 20
338.0187760874
 30
0.0
 40
0.4999999999999972
100
AcDbArc
 50
289.8190009703
 51
0.0
  0
ARC
  5
D3
330
C3
100
AcDbEntity
  8
410316038_HANDLE
  6
Continuous
 62
     7
100
AcDbCircle
 10
312.5859902181
 20
380.5742093051
 30
0.0
 40
1.999999999999928
100
AcDbArc
 50
6.1088410587
 51
90.0
  0
ARC
  5
D4
330
C3
100
AcDbEntity
  8
410316038_HANDLE
  6
Continuous
 62
     7
100
AcDbCircle
 10
312.5859902181
 20
321.0742093051
 30
0.0
 40
2.000000000000005
100
AcDbArc
 50
270.0
 51
353.8911589413
  0
ARC
  5
D5
330
C3
100
AcDbEntity
  8
410316038_HANDLE
  6
Continuous
 62
     7
100
AcDbCircle
 10
288.6022603518
 20
382.3742093051
 30
0.0
 40
0.1999999999999988
100
AcDbArc
 50
90.0
 51
180.0
  0
ARC
  5
D6
330
C3
100
AcDbEntity
  8
410316038_HANDLE
  6
Continuous
 62
     7
100
AcDbCircle
 10
288.6022603518
 20
319.2742093051
 30
0.0
 40
0.1999999999999988
100
AcDbArc
 50
180.0
 51
270.0
  0
LINE
  5
D7
330
C3
100
AcDbEntity
  8
410316038_HANDLE
  6
Continuous
 62
     7
100
AcDbLine
 10
287.9122603518
 20
321.6242093051
 30
0.0
 11
288.4022603518
 21
321.6242093051
 31
0.0
  0
LINE
  5
D8
330
C3
100
AcDbEntity
  8
410316038_HANDLE
  6
Continuous
 62
     7
100
AcDbLine
 10
288.4022603518
 20
380.0242093051
 30
0.0
 11
287.9122603518
 21
380.0242093051
 31
0.0
  0
SPLINE
  5
DA
330
C3
100
AcDbEntity
  8
410310038_RING_K
  6
Continuous
 62
     7
100
AcDbSpline
210
0.0
220
0.0
230
1.0
 70
     8
 71
     3
 72
    10
 73
     6
 74
     0
 42
0.0000000014409689
 43
0.0000000001
 40
0.0
 40
0.0
 40
0.0
 40
0.0
 40
0.2097938720897738
 40
0.5275645304712006
 40
1.0
 40
1.0
 40
1.0
 40
1.0
 10
328.6821673625712
 20
337.8862385253195
 30
0.0
 10
329.1868762708213
 20
338.0591909392441
 30
0.0
 10
330.2587904664111
 20
338.4226789801427
 30
0.0
 10
332.5819122047317
 20
339.0471345655544
 30
0.0
 10
334.2224612865649
 20
339.3449816570716
 30
0.0
 10
335.4057945314518
 20
339.5527542530957
 30
0.0
  0
SPLINE
  5
DB
330
C3
100
AcDbEntity
  8
410310038_RING_K
  6
Continuous
 62
     7
100
AcDbSpline
210
0.0
220
0.0
230
1.0
 70
     8
 71
     3
 72
    10
 73
     6
 74
     0
 42
0.0000000014423799
 43
0.0000000001
 40
0.0
 40
0.0
 40
0.0
 40
0.0
 40
0.2917655393123829
 40
0.6104268598598134
 40
1.0
 40
1.0
 40
1.0
 40
1.0
 10
335.4107461735436
 20
362.0921527698414
 30
0.0
 10
334.6796682878256
 20
362.2146307730709
 30
0.0
 10
333.3980811709559
 20
362.4356316424988
 30
0.0
 10
331.0609543346823
 20
362.9854622280957
 30
0.0
 10
329.6359130743905
 20
363.4553959664533
 30
0.0
 10
328.697223043142
 20
363.7692160562472
 30
0.0
  0
ARC
  5
DC
330
C3
100
AcDbEntity
  8
410310038_RING_K
  6
Continuous
 62
     7
100
AcDbCircle
 10
340.1885553377
 20
347.8845484417
 30
0.0
 40
9.499999999999986
100
AcDbArc
 50
241.8850039707
 51
254.2095579456
  0
ARC
  5
DD
330
C3
100
AcDbEntity
  8
410310038_RING_K
  6
Continuous
 62
     7
100
AcDbCircle
 10
340.1885553377
 20
353.7638701686
 30
0.0
 40
9.49999999999999
100
AcDbArc
 50
105.7904420544
 51
118.1149960293
  0
ARC
  5
DE
330
C3
100
AcDbEntity
  8
410310038_RING_K
  6
Continuous
 62
     7
100
AcDbCircle
 10
337.7394777827
 20
339.2241778301
 30
0.0
 40
0.4999999999999897
100
AcDbArc
 50
254.2095579456
 51
309.8055710923
  0
ARC
  5
DF
330
C3
100
AcDbEntity
  8
410310038_RING_K
  6
Continuous
 62
     7
100
AcDbCircle
 10
337.7394777827
 20
362.4242407801
 30
0.0
 40
0.5000000000000157
100
AcDbArc
 50
50.1944289077
 51
105.7904420544
  0
LINE
  5
E0
330
C3
100
AcDbEntity
  8
410310038_RING_K
  6
Continuous
 62
     7
100
AcDbLine
 10
338.0595699825
 20
338.8400671903
 30
0.0
 11
338.5806327202
 21
339.2742861383
 31
0.0
  0
LINE
  5
E1
330
C3
100
AcDbEntity
  8
410310038_RING_K
  6
Continuous
 62
     7
100
AcDbLine
 10
338.5806327202
 20
362.3741324719
 30
0.0
 11
338.0595699825
 21
362.8083514199
 31
0.0
  0
ARC
  5
E2
330
C3
100
AcDbEntity
  8
410310038_RING_K
  6
Continuous
 62
     7
100
AcDbCircle
 10
335.4761278955
 20
339.0645128634
 30
0.0
 40
0.499999999999997
100
AcDbArc
 50
61.8850039707
 51
98.9249464668
  0
ARC
  5
E3
330
C3
100
AcDbEntity
  8
410310038_RING_K
  6
Continuous
 62
     7
100
AcDbCircle
 10
335.4761278955
 20
362.5839057468
 30
0.0
 40
0.5000000000000151
100
AcDbArc
 50
261.0750535332
 51
298.1149960293
  0
ARC
  5
E4
330
C3
100
AcDbEntity
  8
410310038_RING_K
  6
Continuous
 62
     7
100
AcDbCircle
 10
328.5105405203
 20
338.3699688679
 30
0.0
 40
0.5000000000000004
100
AcDbArc
 50
180.0
 51
288.8443742512
  0
ARC
  5
E5
330
C3
100
AcDbEntity
  8
410310038_RING_K
  6
Continuous
 62
     7
100
AcDbCircle
 10
328.5105405203
 20
363.2784497424
 30
0.0
 40
0.4999999999999963
100
AcDbArc
 50
71.1556257488
 51
180.0
  0
ARC
  5
E6
330
C3
100
AcDbEntity
  8
410310038_RING_K
  6
Continuous
 62
     7
100
AcDbCircle
 10
338.2605405203
 20
361.9900218321
 30
0.0
 40
0.5000000000000004
100
AcDbArc
 50
0.0
 51
50.1944289077
  0
ARC
  5
E7
330
C3
100
AcDbEntity
  8
410310038_RING_K
  6
Continuous
 62
     7
100
AcDbCircle
 10
338.2605405203
 20
339.6583967781
 30
0.0
 40
0.5000000000000222
100
AcDbArc
 50
309.8055710923
 51
0.0
  0
LINE
  5
E8
330
C3
100
AcDbEntity
  8
410005038_HANDLE
  6
Continuous
 62
     7
100
AcDbLine
 10
345.6223279679
 20
337.6742093051
 30
0.0
 11
341.7366251938
 21
337.6742093051
 31
0.0
  0
LINE
  5
E9
330
C3
100
AcDbEntity
  8
410005038_HANDLE
  6
Continuous
 62
     7
100
AcDbLine
 10
345.6223279679
 20
337.6742093051
 30
0.0
 11
352.7605399945
 21
337.6926374116
 31
0.0
  0
LINE
  5
EA
330
C3
100
AcDbEntity
  8
410005038_HANDLE
  6
Continuous
 62
     7
100
AcDbLine
 10
356.8605405203
 20
361.102045869
 30
0.0
 11
356.8605405203
 21
340.5463727412
 31
0.0
  0
LINE
  5
EB
330
C3
100
AcDbEntity
  8
410005038_HANDLE
  6
Continuous
 62
     7
100
AcDbLine
 10
338.7605405203
 20
339.6168840187
 30
0.0
 11
338.7605405203
 21
362.0315345916
 31
0.0
  0
ARC
  5
EC
330
C3
100
AcDbEntity
  8
410005038_HANDLE
  6
Continuous
 62
     7
100
AcDbCircle
 10
347.2266160863
 20
350.8242093051
 30
0.0
 40
14.25
100
AcDbArc
 50
234.5950951231
 51
247.3399612862
  0
ARC
  5
ED
330
C3
100
AcDbEntity
  8
410005038_HANDLE
  6
Continuous
 62
     7
100
AcDbCircle
 10
347.2266160863
 20
350.8242093051
 30
0.0
 40
14.25
100
AcDbArc
 50
48.372472413
 51
125.4049048769
  0
ARC
  5
EE
330
C3
100
AcDbEntity
  8
410005038_HANDLE
  6
Continuous
 62
     7
100
AcDbCircle
 10
347.2266160863
 20
350.8242093051
 30
0.0
 40
14.25
100
AcDbArc
 50
292.803834895
 51
311.627527587
  0
ARC
  5
EF
330
C3
100
AcDbEntity
  8
410005038_HANDLE
  6
Continuous
 62
     7
100
AcDbCircle
 10
356.3605405203
 20
361.102045869
 30
0.0
 40
0.5000000000000004
100
AcDbArc
 50
0.0
 51
48.372472413
  0
ARC
  5
F0
330
C3
100
AcDbEntity
  8
410005038_HANDLE
  6
Continuous
 62
     7
100
AcDbCircle
 10
356.3605405203
 20
340.5463727412
 30
0.0
 40
0.4999999999999992
100
AcDbArc
 50
311.627527587
 51
0.0
  0
ARC
  5
F1
330
C3
100
AcDbEntity
  8
410005038_HANDLE
  6
Continuous
 62
     7
100
AcDbCircle
 10
339.2605405203
 20
339.6168840187
 30
0.0
 40
0.5000000000000004
100
AcDbArc
 50
180.0
 51
234.5950951231
  0
ARC
  5
F2
330
C3
100
AcDbEntity
  8
410005038_HANDLE
  6
Continuous
 62
     7
100
AcDbCircle
 10
339.2605405203
 20
362.0315345916
 30
0.0
 40
0.4999999999999993
100
AcDbArc
 50
125.4049048769
 51
180.0
  0
LINE
  5
F3
330
C3
100
AcDbEntity
  8
410307038_LEVER_
  6
Continuous
 62
     7
100
AcDbLine
 10
341.3640957813
 20
329.4742093051
 30
0.0
 11
353.1569852594
 21
329.4742093051
 31
0.0
  0
ARC
  5
F4
330
C3
100
AcDbEntity
  8
410307038_LEVER_
  6
Continuous
 62
     7
100
AcDbCircle
 10
241.4785761277
 20
317.8776799589
 30
0.0
 40
100.0
100
AcDbArc
 50
346.0429344828
 51
6.3391368539
  0
ARC
  5
F5
330
C3
100
AcDbEntity
  8
410307038_LEVER_
  6
Continuous
 62
     7
100
AcDbCircle
 10
453.042504913
 20
317.8776799589
 30
0.0
 40
100.0
100
AcDbArc
 50
173.6608631461
 51
193.9570655172
  0
ARC
  5
F6
330
C3
100
AcDbEntity
  8
410307038_LEVER_
  6
Continuous
 62
     7
100
AcDbCircle
 10
347.2605405203
 20
291.5874534625
 30
0.0
 40
8.999999999999984
100
AcDbArc
 50
166.0429344828
 51
270.0
  0
ARC
  5
F7
330
C3
100
AcDbEntity
  8
410307038_LEVER_
  6
Continuous
 62
     7
100
AcDbCircle
 10
347.2605405203
 20
291.5874534625
 30
0.0
 40
8.999999999999995
100
AcDbArc
 50
270.0
 51
13.9570655172
  0
ARC
  5
F8
330
C3
100
AcDbEntity
  8
410307038_LEVER_
  6
Continuous
 62
     7
100
AcDbCircle
 10
353.1569852594
 20
328.9742093051
 30
0.0
 40
0.4999999999999931
100
AcDbArc
 50
353.6608631461
 51
90.0
  0
ARC
  5
F9
330
C3
100
AcDbEntity
  8
410307038_LEVER_
  6
Continuous
 62
     7
100
AcDbCircle
 10
341.3640957813
 20
328.9742093051
 30
0.0
 40
0.4999999999999935
100
AcDbArc
 50
90.0
 51
186.3391368539
  0
LINE
  5
FA
330
C3
100
AcDbEntity
  8
410307038_LEVER_
  6
Continuous
 62
     7
100
AcDbLine
 10
352.6105405203
 20
329.4742093051
 30
0.0
 11
352.6105405203
 21
337.6922499074
 31
0.0
  0
LINE
  5
FB
330
C3
100
AcDbEntity
  8
410307038_LEVER_
  6
Continuous
 62
     7
100
AcDbLine
 10
341.9105405203
 20
337.6742093051
 30
0.0
 11
341.9105405203
 21
329.4742093051
 31
0.0
  0
LINE
  5
FD
330
C3
100
AcDbEntity
  8
410006038_DECORA
  6
Continuous
 62
     7
100
AcDbLine
 10
361.7605405203
 20
341.4673193376
 30
0.0
 11
361.7605405203
 21
360.1810992726
 31
0.0
  0
ARC
  5
FE
330
C3
100
AcDbEntity
  8
410006038_DECORA
  6
Continuous
 62
     7
100
AcDbCircle
 10
357.3605405203
 20
340.7796727043
 30
0.0
 40
0.5000000000000004
100
AcDbArc
 50
180.0
 51
263.2851563915
  0
ARC
  5
FF
330
C3
100
AcDbEntity
  8
410006038_DECORA
  6
Continuous
 62
     7
100
AcDbCircle
 10
357.3605405203
 20
360.868745906
 30
0.0
 40
0.5000000000000002
100
AcDbArc
 50
96.7148436086
 51
180.0
  0
ARC
  5
100
330
C3
100
AcDbEntity
  8
410006038_DECORA
  6
Continuous
 62
     7
100
AcDbCircle
 10
356.2380313574
 20
331.245524626
 30
0.0
 40
9.100000333333366
100
AcDbArc
 50
63.7226300101
 51
83.2851563915
  0
ARC
  5
101
330
C3
100
AcDbEntity
  8
410006038_DECORA
  6
Continuous
 62
     7
100
AcDbCircle
 10
356.2380313574
 20
370.4028939843
 30
0.0
 40
9.100000333333364
100
AcDbArc
 50
276.7148436085
 51
296.2773699899
  0
ARC
  5
102
330
C3
100
AcDbEntity
  8
410006038_DECORA
  6
Continuous
 62
     7
100
AcDbCircle
 10
360.576658817
 20
340.0328062478
 30
0.0
 40
0.7000000000000013
100
AcDbArc
 50
243.7226300103
 51
341.1008225568
  0
ARC
  5
103
330
C3
100
AcDbEntity
  8
410006038_DECORA
  6
Continuous
 62
     7
100
AcDbCircle
 10
360.576658817
 20
361.6156123625
 30
0.0
 40
0.7000000000000045
100
AcDbArc
 50
18.8991774432
 51
116.2773699897
  0
ARC
  5
104
330
C3
100
AcDbEntity
  8
410006038_DECORA
  6
Continuous
 62
     7
100
AcDbCircle
 10
329.0718615175
 20
350.8188039818
 30
0.0
 40
34.00000000000158
100
AcDbArc
 50
341.1008225568
 51
344.0353836123
  0
ARC
  5
105
330
C3
100
AcDbEntity
  8
410006038_DECORA
  6
Continuous
 62
     7
100
AcDbCircle
 10
329.0718615175
 20
350.8296146285
 30
0.0
 40
34.00000000000158
100
AcDbArc
 50
15.9646163877
 51
18.8991774432
  0
LINE
  5
106
330
C3
100
AcDbEntity
  8
12080006_MP_HE_P
  6
Continuous
 62
     7
100
AcDbLine
 10
361.7605405203
 20
341.8742093051
 30
0.0
 11
361.9016460856
 21
341.8742093051
 31
0.0
  0
LINE
  5
107
330
C3
100
AcDbEntity
  8
12080006_MP_HE_P
  6
Continuous
 62
     7
100
AcDbLine
 10
361.9016460856
 20
359.7742093051
 30
0.0
 11
361.7605405203
 21
359.7742093051
 31
0.0
  0
ARC
  5
108
330
C3
100
AcDbEntity
  8
12080006_MP_HE_P
  6
Continuous
 62
     7
100
AcDbCircle
 10
344.7605405203
 20
350.8242093051
 30
0.0
 40
19.5
100
AcDbArc
 50
333.2228950132
 51
26.7771049868
  0
ARC
  5
109
330
C3
100
AcDbEntity
  8
12080006_MP_HE_P
  6
Continuous
 62
     7
100
AcDbCircle
 10
361.9016460856
 20
342.1742093051
 30
0.0
 40
0.2999999999999999
100
AcDbArc
 50
270.0
 51
333.2228950132
  0
ARC
  5
10A
330
C3
100
AcDbEntity
  8
12080006_MP_HE_P
  6
Continuous
 62
     7
100
AcDbCircle
 10
361.9016460856
 20
359.4742093051
 30
0.0
 40
0.2999999999999987
100
AcDbArc
 50
26.7771049868
 51
90.0
  0
LINE
  5
10B
330
C3
100
AcDbEntity
  8
410374040_ESCUTC
  6
Continuous
 62
     7
100
AcDbLine
 10
258.31225977
 20
350.8242093058
 30
0.0
 11
258.31225977
 21
278.6242092978
 31
0.0
  0
LINE
  5
10C
330
C3
100
AcDbEntity
  8
410374040_ESCUTC
  6
Continuous
 62
     7
100
AcDbLine
 10
258.31225977
 20
423.0242093124
 30
0.0
 11
258.31225977
 21
350.8242093058
 31
0.0
  0
SPLINE
  5
10D
330
C3
100
AcDbEntity
  8
410374040_ESCUTC
  6
Continuous
 62
     7
100
AcDbSpline
210
0.0
220
0.0
230
1.0
 70
     8
 71
     3
 72
    38
 73
    34
 74
     0
 42
0.0000000001444718
 43
0.0000000001
 40
0.0
 40
0.0
 40
0.0
 40
0.0
 40
0.2500000000000019
 40
0.2500000000000019
 40
0.3125000000000023
 40
0.3125000000000023
 40
0.3437500000000027
 40
0.3437500000000027
 40
0.3593750000000028
 40
0.3593750000000028
 40
0.3750000000000029
 40
0.3750000000000029
 40
0.4062500000000031
 40
0.4062500000000031
 40
0.4218750000000031
 40
0.4218750000000031
 40
0.4375000000000031
 40
0.4375000000000031
 40
0.5000000000000031
 40
0.5000000000000031
 40
0.6250000000000033
 40
0.6250000000000033
 40
0.6406250000000033
 40
0.6406250000000033
 40
0.6484375000000031
 40
0.6484375000000031
 40
0.656250000000003
 40
0.656250000000003
 40
0.6875000000000027
 40
0.6875000000000027
 40
0.7500000000000021
 40
0.7500000000000021
 40
1.0
 40
1.0
 40
1.0
 40
1.0
 10
263.6152935742354
 20
350.8242093024908
 30
0.0
 10
263.6152935627741
 20
362.1366473180071
 30
0.0
 10
263.5361506714933
 20
373.2111636281526
 30
0.0
 10
263.3441417516424
 20
386.7642528433785
 30
0.0
 10
263.3010109713718
 20
389.4614909481433
 30
0.0
 10
263.2292871684834
 20
393.4804625907046
 30
0.0
 10
263.2042691312403
 20
394.8122409448635
 30
0.0
 10
263.1650971644199
 20
396.798096825165
 30
0.0
 10
263.1517630561562
 20
397.4582036598111
 30
0.0
 10
263.1245636723286
 20
398.7737873184509
 30
0.0
 10
263.1074829371221
 20
399.4422475836743
 30
0.0
 10
263.0810361244732
 20
401.3370613454411
 30
0.0
 10
263.1048136271974
 20
402.4068719317937
 30
0.0
 10
263.1953826530045
 20
403.4122726238768
 30
0.0
 10
263.2349718497089
 20
403.6558822135721
 30
0.0
 10
263.3287916895418
 20
403.9262704679321
 30
0.0
 10
263.3750160735911
 20
404.0603189056151
 30
0.0
 10
263.5979157817051
 20
404.7859989986881
 30
0.0
 10
263.7552217359268
 20
405.4797807792586
 30
0.0
 10
264.1617716091248
 20
407.8896272754974
 30
0.0
 10
264.3460262916411
 20
409.929944732597
 30
0.0
 10
264.4520736423918
 20
412.7272532713183
 30
0.0
 10
264.4627766055055
 20
413.0412552063544
 30
0.0
 10
264.475564573624
 20
413.5356533748715
 30
0.0
 10
264.4794676569707
 20
413.7022154709723
 30
0.0
 10
264.4922305373061
 20
413.9744091754207
 30
0.0
 10
264.5013103663434
 20
414.0775705829636
 30
0.0
 10
264.5517285557665
 20
414.5251953943364
 30
0.0
 10
264.5927688730259
 20
414.8395651590367
 30
0.0
 10
264.7068270014644
 20
415.7781026973217
 30
0.0
 10
264.7756509692864
 20
416.3442201457132
 30
0.0
 10
265.0814228465494
 20
418.8585662517415
 30
0.0
 10
265.2035533917711
 20
419.8669997974294
 30
0.0
 10
265.2035010935389
 20
419.8676933607537
 30
0.0
  0
SPLINE
  5
10E
330
C3
100
AcDbEntity
  8
410374040_ESCUTC
  6
Continuous
 62
     7
100
AcDbSpline
210
0.0
220
0.0
230
1.0
 70
     8
 71
     3
 72
    36
 73
    32
 74
     0
 42
0.0000000001444694
 43
0.0000000001
 40
0.0
 40
0.0
 40
0.0
 40
0.0
 40
0.2500000000000002
 40
0.2500000000000002
 40
0.3125000000000002
 40
0.3125000000000002
 40
0.3437500000000002
 40
0.3437500000000002
 40
0.3593750000000001
 40
0.3593750000000001
 40
0.3750000000000001
 40
0.3750000000000001
 40
0.4999999999999998
 40
0.4999999999999998
 40
0.5624999999999998
 40
0.5624999999999998
 40
0.5781249999999999
 40
0.5781249999999999
 40
0.5937500000000001
 40
0.5937500000000001
 40
0.6249999999999999
 40
0.6249999999999999
 40
0.6406249999999998
 40
0.6406249999999998
 40
0.6562499999999997
 40
0.6562499999999997
 40
0.6874999999999996
 40
0.6874999999999996
 40
0.7499999999999996
 40
0.7499999999999996
 40
1.0
 40
1.0
 40
1.0
 40
1.0
 10
265.2035010932379
 20
281.7807252494321
 30
0.0
 10
265.2035553636867
 20
281.7813895557802
 30
0.0
 10
265.0844571253802
 20
282.7650332038532
 30
0.0
 10
264.7885433757208
 20
285.198159316408
 30
0.0
 10
264.7219771650668
 20
285.7457358325743
 30
0.0
 10
264.6109187409089
 20
286.6594816073607
 30
0.0
 10
264.5718166586037
 20
286.97673140963
 30
0.0
 10
264.5108382213435
 20
287.482305074386
 30
0.0
 10
264.4898975693155
 20
287.6557488974724
 30
0.0
 10
264.4702132177736
 20
288.260187178538
 30
0.0
 10
264.4627772311294
 20
288.5971234403925
 30
0.0
 10
264.3663726697822
 20
291.3849367321752
 30
0.0
 10
264.193349431583
 20
293.4617476759915
 30
0.0
 10
263.8036973229876
 20
295.9238816672712
 30
0.0
 10
263.6526766479031
 20
296.635198084146
 30
0.0
 10
263.4375853907164
 20
297.3875287297897
 30
0.0
 10
263.3932504257526
 20
297.5311246729678
 30
0.0
 10
263.3019199386861
 20
297.8045300687704
 30
0.0
 10
263.2531350645889
 20
297.9125750190254
 30
0.0
 10
263.1376687331006
 20
298.6402930697709
 30
0.0
 10
263.0937297832206
 20
299.5629258568892
 30
0.0
 10
263.0924001669177
 20
301.3160189537647
 30
0.0
 10
263.1055726826824
 20
301.9790775666758
 30
0.0
 10
263.1337852983303
 20
303.3159608696436
 30
0.0
 10
263.147609978076
 20
303.98648453556
 30
0.0
 10
263.1882345467793
 20
306.0042954249278
 30
0.0
 10
263.2141851479087
 20
307.3578208012892
 30
0.0
 10
263.2885963713439
 20
311.4433647475964
 30
0.0
 10
263.3335168112978
 20
314.1960121244422
 30
0.0
 10
263.5331200627207
 20
328.0079524402991
 30
0.0
 10
263.6152935859275
 20
339.2948657403575
 30
0.0
 10
263.6152935742354
 20
350.8242093024908
 30
0.0
  0
ARC
  5
10F
330
C3
100
AcDbEntity
  8
410374040_ESCUTC
  6
Continuous
 62
     7
100
AcDbCircle
 10
267.1973674034
 20
281.6242092759
 30
0.0
 40
2.000000028218742
100
AcDbArc
 50
92.0580747475
 51
175.5115582975
  0
LINE
  5
110
330
C3
100
AcDbEntity
  8
410374040_ESCUTC
  6
Continuous
 62
     7
100
AcDbLine
 10
262.643860739
 20
278.6242092978
 30
0.0
 11
258.31225977
 21
278.6242092978
 31
0.0
  0
LINE
  5
111
330
C3
100
AcDbEntity
  8
410374040_ESCUTC
  6
Continuous
 62
     7
100
AcDbLine
 10
262.6438607393
 20
423.0242093124
 30
0.0
 11
258.31225977
 21
423.0242093124
 31
0.0
  0
ARC
  5
112
330
C3
100
AcDbEntity
  8
410374040_ESCUTC
  6
Continuous
 62
     7
100
AcDbCircle
 10
262.64386074
 20
420.5242093168
 30
0.0
 40
2.499999999289755
100
AcDbArc
 50
4.5437619734
 51
90.0000000161
  0
ARC
  5
113
330
C3
100
AcDbEntity
  8
410374040_ESCUTC
  6
Continuous
 62
     7
100
AcDbCircle
 10
262.6438607224
 20
281.1242093094
 30
0.0
 40
2.500000011593895
100
AcDbArc
 50
270.0000003801
 51
355.4562376951
  0
ARC
  5
114
330
C3
100
AcDbEntity
  8
410374040_ESCUTC
  6
Continuous
 62
     7
100
AcDbCircle
 10
267.1973673827
 20
420.0242093125
 30
0.0
 40
2.000000005518552
100
AcDbArc
 50
184.4884411283
 51
267.9419235136
  0
SPLINE
  5
115
330
C3
100
AcDbEntity
  8
410374040_ESCUTC
  6
Continuous
 62
     7
100
AcDbSpline
210
0.0
220
0.0
230
1.0
 70
     8
 71
     3
 72
     8
 73
     4
 74
     0
 42
0.0000000137667732
 43
0.0000000001
 40
0.998623322678188
 40
0.998623322678188
 40
0.998623322678188
 40
0.998623322678188
 40
1.0
 40
1.0
 40
1.0
 40
1.0
 10
269.5290273308319
 20
285.9381590733128
 30
0.0
 10
269.529033901405
 20
285.9380991168072
 30
0.0
 10
269.529037044075
 20
285.9380673801543
 30
0.0
 10
269.529036758706
 20
285.9380638658218
 30
0.0
  0
SPLINE
  5
116
330
C3
100
AcDbEntity
  8
410374040_ESCUTC
  6
Continuous
 62
     7
100
AcDbSpline
210
0.0
220
0.0
230
1.0
 70
     8
 71
     3
 72
     8
 73
     4
 74
     0
 42
0.0000000149190454
 43
0.0000000001
 40
0.0
 40
0.0
 40
0.0
 40
0.0
 40
0.0014919045365143
 40
0.0014919045365143
 40
0.0014919045365143
 40
0.0014919045365143
 10
269.5290365808262
 20
415.710354723874
 30
0.0
 10
269.5290368744513
 20
415.7103507805509
 30
0.0
 10
269.5290331287729
 20
415.7103135835538
 30
0.0
 10
269.52902534393
 20
415.7102431357352
 30
0.0
  0
ARC
  5
117
330
C3
100
AcDbEntity
  8
410374040_ESCUTC
  6
Continuous
 62
     7
100
AcDbCircle
 10
267.0357611952
 20
415.5271120801
 30
0.0
 40
2.500000003052833
100
AcDbArc
 50
4.2033815337
 51
87.9419236155
  0
ARC
  5
118
330
C3
100
AcDbEntity
  8
410374040_ESCUTC
  6
Continuous
 62
     7
100
AcDbCircle
 10
267.0357614086
 20
286.1213065018
 30
0.0
 40
2.499999967001632
100
AcDbArc
 50
272.0580733674
 51
355.7966185826
  0
ARC
  5
119
330
C3
100
AcDbEntity
  8
410374040_ESCUTC
  6
Continuous
 62
     7
100
AcDbCircle
 10
-9985.2925412069
 20
350.8241835774
 30
0.0
 40
10255.99742801355
100
AcDbArc
 50
359.7300476185
 51
0.2699526711
  0
ARC
  5
11A
330
C3
100
AcDbEntity
  8
410374040_ESCUTC
  6
Continuous
 62
     7
100
AcDbCircle
 10
-9924.1717319683
 20
350.8241836938
 30
0.0
 40
10194.832554786
100
AcDbArc
 50
359.7303946568
 51
359.7303973085
  0
LINE
  5
11B
330
C3
100
AcDbEntity
  8
410374040_ESCUTC
  6
Continuous
 62
     7
100
AcDbLine
 10
265.1857600186
 20
419.8664727914
 30
0.0
 11
265.126809964
 21
420.7216290507
 31
0.0
  0
LINE
  5
11C
330
C3
100
AcDbEntity
  8
410374040_ESCUTC
  6
Continuous
 62
     7
100
AcDbLine
 10
265.1268104519
 20
280.9267966398
 30
0.0
 11
265.185760528
 21
281.7819532123
 31
0.0
  0
LINE
  5
11D
330
C3
100
AcDbEntity
  8
410374040_ESCUTC
  6
Continuous
 62
     7
100
AcDbLine
 10
270.548449842
 20
399.1128641298
 30
0.0
 11
269.5197636627
 21
415.7097777446
 31
0.0
  0
LINE
  5
11E
330
C3
100
AcDbEntity
  8
410374040_ESCUTC
  6
Continuous
 62
     7
100
AcDbLine
 10
269.5197641907
 20
285.9386465213
 30
0.0
 11
270.5469186444
 21
302.5108452509
 31
0.0
  0
LINE
  5
120
330
C3
100
AcDbEntity
  8
410228031_BEARIN
  6
Continuous
 62
     7
100
AcDbLine
 10
287.9122603518
 20
319.2742093051
 30
0.0
 11
287.9122603518
 21
382.3742093051
 31
0.0
  0
LINE
  5
121
330
C3
100
AcDbEntity
  8
410228031_BEARIN
  6
Continuous
 62
     7
100
AcDbLine
 10
287.3122603518
 20
319.2742093051
 30
0.0
 11
287.9122603518
 21
319.2742093051
 31
0.0
  0
LINE
  5
122
330
C3
100
AcDbEntity
  8
410228031_BEARIN
  6
Continuous
 62
     7
100
AcDbLine
 10
287.9122603518
 20
382.3742093051
 30
0.0
 11
287.3122603518
 21
382.3742093051
 31
0.0
  0
LINE
  5
124
330
C3
100
AcDbEntity
  8
DV2_Standard
  6
CENTER2
 62
     7
100
AcDbLine
 10
278.3122593229
 20
350.8242093058
 30
0.0
 11
238.312260217
 21
350.8242093058
 31
0.0
  0
LINE
  5
125
330
C3
100
AcDbEntity
  8
DV2_Standard
  6
CENTER2
 62
     7
100
AcDbLine
 10
258.31225977
 20
370.8242088588
 30
0.0
 11
258.31225977
 21
330.8242097528
 31
0.0
  0
ENDBLK
  5
127
330
C3
100
AcDbEntity
  8
0
100
AcDbBlockEnd
  0
BLOCK
  5
179
330
128
100
AcDbEntity
  8
0
100
AcDbBlockBegin
  2
SE2
 70
     0
 10
0.0
 20
0.0
 30
0.0
  3
SE2
  1

  0
LINE
  5
12A
330
128
100
AcDbEntity
  8
410064038_SLEEVE
  6
Continuous
 62
     7
100
AcDbLine
 10
132.899995
 20
183.2982801685
 30
0.0
 11
132.899995
 21
199.971352459
 31
0.0
  0
LINE
  5
12B
330
128
100
AcDbEntity
  8
410064038_SLEEVE
  6
Continuous
 62
     7
100
AcDbLine
 10
69.399995
 20
199.9713975407
 30
0.0
 11
69.399995
 21
183.2982801685
 31
0.0
  0
LINE
  5
12C
330
128
100
AcDbEntity
  8
410316038_HANDLE
  6
Continuous
 62
     7
100
AcDbLine
 10
88.3445617823
 20
142.6
 30
0.0
 11
113.9554282177
 21
142.6
 31
0.0
  0
LINE
  5
12D
330
128
100
AcDbEntity
  8
410316038_HANDLE
  6
Continuous
 62
     7
100
AcDbLine
 10
69.599995
 20
182.2082801685
 30
0.0
 11
132.699995
 21
182.2082801685
 31
0.0
  0
LINE
  5
12E
330
128
100
AcDbEntity
  8
410316038_HANDLE
  6
Continuous
 62
     7
100
AcDbLine
 10
69.399995
 20
182.0082801685
 30
0.0
 11
69.399995
 21
158.0245503023
 31
0.0
  0
LINE
  5
12F
330
128
100
AcDbEntity
  8
410316038_HANDLE
  6
Continuous
 62
     7
100
AcDbLine
 10
132.899995
 20
158.0245503023
 30
0.0
 11
132.899995
 21
182.0082801685
 31
0.0
  0
ARC
  5
130
330
128
100
AcDbEntity
  8
410316038_HANDLE
  6
Continuous
 62
     7
100
AcDbCircle
 10
69.0588099567
 20
136.1494765288
 30
0.0
 40
20.00000000000007
100
AcDbArc
 50
19.8190009703
 51
83.8911589413
  0
ARC
  5
131
330
128
100
AcDbEntity
  8
410316038_HANDLE
  6
Continuous
 62
     7
100
AcDbCircle
 10
133.2411800433
 20
136.1494765288
 30
0.0
 40
20.0
100
AcDbArc
 50
96.1088410586
 51
160.1809990297
  0
ARC
  5
132
330
128
100
AcDbEntity
  8
410316038_HANDLE
  6
Continuous
 62
     7
100
AcDbCircle
 10
113.9554282177
 20
143.1
 30
0.0
 40
0.5000000000000004
100
AcDbArc
 50
270.0
 51
340.1809990298
  0
ARC
  5
133
330
128
100
AcDbEntity
  8
410316038_HANDLE
  6
Continuous
 62
     7
100
AcDbCircle
 10
88.3445617823
 20
143.1
 30
0.0
 40
0.4999999999999972
100
AcDbArc
 50
199.8190009702
 51
270.0
  0
ARC
  5
134
330
128
100
AcDbEntity
  8
410316038_HANDLE
  6
Continuous
 62
     7
100
AcDbCircle
 10
130.899995
 20
158.0245503023
 30
0.0
 40
1.999999999999929
100
AcDbArc
 50
276.1088410587
 51
0.0
  0
ARC
  5
135
330
128
100
AcDbEntity
  8
410316038_HANDLE
  6
Continuous
 62
     7
100
AcDbCircle
 10
71.399995
 20
158.0245503023
 30
0.0
 40
2.000000000000002
100
AcDbArc
 50
180.0
 51
263.8911589413
  0
ARC
  5
136
330
128
100
AcDbEntity
  8
410316038_HANDLE
  6
Continuous
 62
     7
100
AcDbCircle
 10
132.699995
 20
182.0082801685
 30
0.0
 40
0.1999999999999988
100
AcDbArc
 50
0.0
 51
90.0
  0
ARC
  5
137
330
128
100
AcDbEntity
  8
410316038_HANDLE
  6
Continuous
 62
     7
100
AcDbCircle
 10
69.599995
 20
182.0082801685
 30
0.0
 40
0.1999999999999919
100
AcDbArc
 50
90.0
 51
180.0
  0
LINE
  5
138
330
128
100
AcDbEntity
  8
410316038_HANDLE
  6
Continuous
 62
     7
100
AcDbLine
 10
71.949995
 20
182.6982801685
 30
0.0
 11
71.949995
 21
182.2082801685
 31
0.0
  0
LINE
  5
139
330
128
100
AcDbEntity
  8
410316038_HANDLE
  6
Continuous
 62
     7
100
AcDbLine
 10
130.349995
 20
182.2082801685
 30
0.0
 11
130.349995
 21
182.6982801685
 31
0.0
  0
SPLINE
  5
13A
330
128
100
AcDbEntity
  8
410310038_RING_K
  6
Continuous
 62
     7
100
AcDbSpline
210
0.0
220
0.0
230
1.0
 70
     8
 71
     3
 72
     8
 73
     4
 74
     0
 42
0.0000000014411616
 43
0.0000000001
 40
0.0
 40
0.0
 40
0.0
 40
0.0
 40
1.0
 40
1.0
 40
1.0
 40
1.0
 10
88.19827856020792
 20
141.9061045258826
 30
0.0
 10
89.00427638072529
 20
139.6085818574974
 30
0.0
 10
89.56490852178075
 20
137.3720314171286
 30
0.0
 10
89.88017498337435
 20
135.1964532047761
 30
0.0
  0
SPLINE
  5
13B
330
128
100
AcDbEntity
  8
410310038_RING_K
  6
Continuous
 62
     7
100
AcDbSpline
210
0.0
220
0.0
230
1.0
 70
     8
 71
     3
 72
     8
 73
     4
 74
     0
 42
0.0000000014101317
 43
0.0000000001
 40
0.015869182408565
 40
0.015869182408565
 40
0.015869182408565
 40
0.015869182408565
 40
1.0
 40
1.0
 40
1.0
 40
1.0
 10
112.4131289562417
 20
135.1807881705027
 30
0.0
 10
112.8990365313102
 20
138.0069063741892
 30
0.0
 10
113.4615317694453
 20
140.2570593659804
 30
0.0
 10
114.1006146706469
 20
141.9312471458762
 30
0.0
  0
ARC
  5
13C
330
128
100
AcDbEntity
  8
410310038_RING_K
  6
Continuous
 62
     7
100
AcDbCircle
 10
98.2103341365
 20
130.4219851826
 30
0.0
 40
9.499999999999986
100
AcDbArc
 50
151.8850039707
 51
164.2095579456
  0
ARC
  5
13D
330
128
100
AcDbEntity
  8
410310038_RING_K
  6
Continuous
 62
     7
100
AcDbCircle
 10
104.0896558635
 20
130.4219851826
 30
0.0
 40
9.49999999999999
100
AcDbArc
 50
15.7904420544
 51
28.1149960293
  0
ARC
  5
13E
330
128
100
AcDbEntity
  8
410310038_RING_K
  6
Continuous
 62
     7
100
AcDbCircle
 10
89.549963525
 20
132.8710627376
 30
0.0
 40
0.4999999999999897
100
AcDbArc
 50
164.2095579456
 51
219.8055710923
  0
ARC
  5
13F
330
128
100
AcDbEntity
  8
410310038_RING_K
  6
Continuous
 62
     7
100
AcDbCircle
 10
112.750026475
 20
132.8710627376
 30
0.0
 40
0.5000000000000157
100
AcDbArc
 50
320.1944289077
 51
15.7904420544
  0
LINE
  5
140
330
128
100
AcDbEntity
  8
410310038_RING_K
  6
Continuous
 62
     7
100
AcDbLine
 10
89.1658528852
 20
132.5509705378
 30
0.0
 11
89.6000718332
 21
132.0299078002
 31
0.0
  0
LINE
  5
141
330
128
100
AcDbEntity
  8
410310038_RING_K
  6
Continuous
 62
     7
100
AcDbLine
 10
112.6999181668
 20
132.0299078002
 30
0.0
 11
113.1341371148
 21
132.5509705378
 31
0.0
  0
ARC
  5
142
330
128
100
AcDbEntity
  8
410310038_RING_K
  6
Continuous
 62
     7
100
AcDbCircle
 10
89.3902985583
 20
135.1344126248
 30
0.0
 40
0.499999999999997
100
AcDbArc
 50
331.8850039707
 51
8.9249464668
  0
ARC
  5
143
330
128
100
AcDbEntity
  8
410310038_RING_K
  6
Continuous
 62
     7
100
AcDbCircle
 10
112.9096914417
 20
135.1344126248
 30
0.0
 40
0.5000000000000151
100
AcDbArc
 50
171.0750535332
 51
208.1149960293
  0
ARC
  5
144
330
128
100
AcDbEntity
  8
410310038_RING_K
  6
Continuous
 62
     7
100
AcDbCircle
 10
88.6957545628
 20
142.1
 30
0.0
 40
0.5000000000000004
100
AcDbArc
 50
90.0
 51
198.8443742512
  0
ARC
  5
145
330
128
100
AcDbEntity
  8
410310038_RING_K
  6
Continuous
 62
     7
100
AcDbCircle
 10
113.6042354372
 20
142.1
 30
0.0
 40
0.4999999999999963
100
AcDbArc
 50
341.1556257488
 51
90.0
  0
ARC
  5
146
330
128
100
AcDbEntity
  8
410310038_RING_K
  6
Continuous
 62
     7
100
AcDbCircle
 10
112.315807527
 20
132.35
 30
0.0
 40
0.5000000000000004
100
AcDbArc
 50
270.0
 51
320.1944289077
  0
ARC
  5
147
330
128
100
AcDbEntity
  8
410310038_RING_K
  6
Continuous
 62
     7
100
AcDbCircle
 10
89.984182473
 20
132.35
 30
0.0
 40
0.5000000000000222
100
AcDbArc
 50
219.8055710923
 51
270.0
  0
LINE
  5
148
330
128
100
AcDbEntity
  8
410005038_HANDLE
  6
Continuous
 62
     7
100
AcDbLine
 10
90.8721584361
 20
113.75
 30
0.0
 11
111.4278315639
 21
113.75
 31
0.0
  0
LINE
  5
149
330
128
100
AcDbEntity
  8
410005038_HANDLE
  6
Continuous
 62
     7
100
AcDbLine
 10
89.9426697135
 20
131.85
 30
0.0
 11
112.3573202865
 21
131.85
 31
0.0
  0
ARC
  5
14A
330
128
100
AcDbEntity
  8
410005038_HANDLE
  6
Continuous
 62
     7
100
AcDbCircle
 10
101.149995
 20
123.383924434
 30
0.0
 40
14.25
100
AcDbArc
 50
144.5950951231
 51
221.627527587
  0
ARC
  5
14B
330
128
100
AcDbEntity
  8
410005038_HANDLE
  6
Continuous
 62
     7
100
AcDbCircle
 10
101.149995
 20
123.383924434
 30
0.0
 40
14.25
100
AcDbArc
 50
318.372472413
 51
35.4049048769
  0
ARC
  5
14C
330
128
100
AcDbEntity
  8
410005038_HANDLE
  6
Continuous
 62
     7
100
AcDbCircle
 10
111.4278315639
 20
114.25
 30
0.0
 40
0.5000000000000004
100
AcDbArc
 50
270.0
 51
318.372472413
  0
ARC
  5
14D
330
128
100
AcDbEntity
  8
410005038_HANDLE
  6
Continuous
 62
     7
100
AcDbCircle
 10
90.8721584361
 20
114.25
 30
0.0
 40
0.4999999999999992
100
AcDbArc
 50
221.627527587
 51
270.0
  0
ARC
  5
14E
330
128
100
AcDbEntity
  8
410005038_HANDLE
  6
Continuous
 62
     7
100
AcDbCircle
 10
89.9426697135
 20
131.35
 30
0.0
 40
0.5000000000000004
100
AcDbArc
 50
90.0
 51
144.5950951231
  0
ARC
  5
14F
330
128
100
AcDbEntity
  8
410005038_HANDLE
  6
Continuous
 62
     7
100
AcDbCircle
 10
112.3573202865
 20
131.35
 30
0.0
 40
0.4999999999999993
100
AcDbArc
 50
35.4049048769
 51
90.0
  0
LINE
  5
150
330
128
100
AcDbEntity
  8
410006038_DECORA
  6
Continuous
 62
     7
100
AcDbLine
 10
91.7931050325
 20
108.85
 30
0.0
 11
110.5068849675
 21
108.85
 31
0.0
  0
ARC
  5
151
330
128
100
AcDbEntity
  8
410006038_DECORA
  6
Continuous
 62
     7
100
AcDbCircle
 10
91.1054583992
 20
113.25
 30
0.0
 40
0.5000000000000004
100
AcDbArc
 50
90.0
 51
173.2851563915
  0
ARC
  5
152
330
128
100
AcDbEntity
  8
410006038_DECORA
  6
Continuous
 62
     7
100
AcDbCircle
 10
111.1945316008
 20
113.25
 30
0.0
 40
0.5000000000000002
100
AcDbArc
 50
6.7148436085
 51
90.0
  0
ARC
  5
153
330
128
100
AcDbEntity
  8
410006038_DECORA
  6
Continuous
 62
     7
100
AcDbCircle
 10
81.5713103209
 20
114.3725091629
 30
0.0
 40
9.100000333333368
100
AcDbArc
 50
333.7226300101
 51
353.2851563915
  0
ARC
  5
154
330
128
100
AcDbEntity
  8
410006038_DECORA
  6
Continuous
 62
     7
100
AcDbCircle
 10
120.7286796791
 20
114.3725091629
 30
0.0
 40
9.100000333333359
100
AcDbArc
 50
186.7148436085
 51
206.2773699899
  0
ARC
  5
155
330
128
100
AcDbEntity
  8
410006038_DECORA
  6
Continuous
 62
     7
100
AcDbCircle
 10
90.3585919426
 20
110.0338817033
 30
0.0
 40
0.7000000000000013
100
AcDbArc
 50
153.7226300103
 51
251.1008225568
  0
ARC
  5
156
330
128
100
AcDbEntity
  8
410006038_DECORA
  6
Continuous
 62
     7
100
AcDbCircle
 10
111.9413980574
 20
110.0338817033
 30
0.0
 40
0.7000000000000045
100
AcDbArc
 50
288.8991774432
 51
26.2773699897
  0
ARC
  5
157
330
128
100
AcDbEntity
  8
410006038_DECORA
  6
Continuous
 62
     7
100
AcDbCircle
 10
101.1445896767
 20
141.5386790028
 30
0.0
 40
34.00000000000158
100
AcDbArc
 50
251.1008225568
 51
254.0353836123
  0
ARC
  5
158
330
128
100
AcDbEntity
  8
410006038_DECORA
  6
Continuous
 62
     7
100
AcDbCircle
 10
101.1554003233
 20
141.5386790028
 30
0.0
 40
34.00000000000158
100
AcDbArc
 50
285.9646163877
 51
288.8991774432
  0
LINE
  5
159
330
128
100
AcDbEntity
  8
12080006_MP_HE_P
  6
Continuous
 62
     7
100
AcDbLine
 10
92.199995
 20
108.85
 30
0.0
 11
92.199995
 21
108.7088944347
 31
0.0
  0
LINE
  5
15A
330
128
100
AcDbEntity
  8
12080006_MP_HE_P
  6
Continuous
 62
     7
100
AcDbLine
 10
110.099995
 20
108.7088944347
 30
0.0
 11
110.099995
 21
108.85
 31
0.0
  0
ARC
  5
15B
330
128
100
AcDbEntity
  8
12080006_MP_HE_P
  6
Continuous
 62
     7
100
AcDbCircle
 10
101.149995
 20
125.85
 30
0.0
 40
19.5
100
AcDbArc
 50
243.2228950132
 51
296.7771049868
  0
ARC
  5
15C
330
128
100
AcDbEntity
  8
12080006_MP_HE_P
  6
Continuous
 62
     7
100
AcDbCircle
 10
92.499995
 20
108.7088944347
 30
0.0
 40
0.2999999999999999
100
AcDbArc
 50
180.0
 51
243.2228950132
  0
ARC
  5
15D
330
128
100
AcDbEntity
  8
12080006_MP_HE_P
  6
Continuous
 62
     7
100
AcDbCircle
 10
109.799995
 20
108.7088944347
 30
0.0
 40
0.2999999999999987
100
AcDbArc
 50
296.7771049868
 51
0.0
  0
LINE
  5
15E
330
128
100
AcDbEntity
  8
410374040_ESCUTC
  6
Continuous
 62
     7
100
AcDbLine
 10
195.9499938749
 20
212.2982807504
 30
0.0
 11
101.149998875
 21
212.2982807504
 31
0.0
  0
LINE
  5
15F
330
128
100
AcDbEntity
  8
410374040_ESCUTC
  6
Continuous
 62
     7
100
AcDbLine
 10
101.149998875
 20
212.2982807504
 30
0.0
 11
6.3500038749
 21
212.2982807504
 31
0.0
  0
SPLINE
  5
160
330
128
100
AcDbEntity
  8
410374040_ESCUTC
  6
Continuous
 62
     7
100
AcDbSpline
210
0.0
220
0.0
230
1.0
 70
     8
 71
     3
 72
     8
 73
     4
 74
     0
 42
0.0000000214380652
 43
0.0000000001
 40
0.0
 40
0.0
 40
0.0
 40
0.0
 40
0.0021438065199386
 40
0.0021438065199386
 40
0.0021438065199386
 40
0.0021438065199386
 10
9.53684618661836
 20
206.9952469460827
 30
0.0
 10
9.536846186591383
 20
206.9952469461809
 30
0.0
 10
9.536953501398242
 20
206.9952527660115
 30
0.0
 10
9.53716810840019
 20
206.9952644026241
 30
0.0
  0
SPLINE
  5
161
330
128
100
AcDbEntity
  8
410374040_ESCUTC
  6
Continuous
 62
     7
100
AcDbSpline
210
0.0
220
0.0
230
1.0
 70
     8
 71
     3
 72
    18
 73
    14
 74
     0
 42
0.0000000003726255
 43
0.0000000001
 40
0.0021438065199386
 40
0.0021438065199386
 40
0.0021438065199386
 40
0.0021438065199386
 40
0.2500000000000031
 40
0.2500000000000031
 40
0.3125000000000039
 40
0.3125000000000039
 40
0.3437500000000044
 40
0.3437500000000044
 40
0.3593750000000046
 40
0.3593750000000046
 40
0.3750000000000048
 40
0.3750000000000048
 40
0.3804995538023029
 40
0.3804995538023029
 40
0.3804995538023029
 40
0.3804995538023029
 10
9.53716810840019
 20
206.9952644026241
 30
0.0
 10
9.561979897197787
 20
206.9966097696057
 30
0.0
 10
11.02094805847868
 20
207.0757070647424
 30
0.0
 10
14.59980141017014
 20
207.2663987686756
 30
0.0
 10
15.41136405292533
 20
207.3095295489462
 30
0.0
 10
16.76640628529133
 20
207.3812533518346
 30
0.0
 10
17.23988751433476
 20
207.4062713890777
 30
0.0
 10
17.98279273460954
 20
207.4454433558981
 30
0.0
 10
18.23592541641937
 20
207.4587774641618
 30
0.0
 10
18.75282484455684
 20
207.4859768479894
 30
0.0
 10
18.98699356260078
 20
207.5030575831959
 30
0.0
 10
19.41678361051026
 20
207.5149760283522
 30
0.0
 10
19.54122566161298
 20
207.5167964011659
 30
0.0
 10
19.67708903151413
 20
207.5173605054181
 30
0.0
  0
SPLINE
  5
162
330
128
100
AcDbEntity
  8
410374040_ESCUTC
  6
Continuous
 62
     7
100
AcDbSpline
210
0.0
220
0.0
230
1.0
 70
     8
 71
     3
 72
    16
 73
    12
 74
     0
 42
0.0000000000791424
 43
0.0000000001
 40
0.3804995538023029
 40
0.3804995538023029
 40
0.3804995538023029
 40
0.3804995538023029
 40
0.4062500000000051
 40
0.4062500000000051
 40
0.4218750000000051
 40
0.4218750000000051
 40
0.4375000000000052
 40
0.4375000000000052
 40
0.5000000000000056
 40
0.5000000000000056
 40
0.6107323041832821
 40
0.6107323041832821
 40
0.6107323041832821
 40
0.6107323041832821
 10
19.67708903151413
 20
207.5173605054181
 30
0.0
 10
20.31323925799543
 20
207.5200017990063
 30
0.0
 10
21.19978748771358
 20
207.495100989542
 30
0.0
 10
22.84032380752571
 20
207.4151578673136
 30
0.0
 10
23.51829852939295
 20
207.3755686706092
 30
0.0
 10
24.91374741610673
 20
207.2817488307763
 30
0.0
 10
25.61177995175635
 20
207.2355244467269
 30
0.0
 10
29.08955924559756
 20
207.0126247386129
 30
0.0
 10
31.85046860661811
 20
206.8553187843912
 30
0.0
 10
39.40825604613603
 20
206.4797050707938
 30
0.0
 10
44.1283485513157
 20
206.3077070418372
 30
0.0
 10
48.73469947897625
 20
206.2060408332518
 30
0.0
  0
SPLINE
  5
163
330
128
100
AcDbEntity
  8
410374040_ESCUTC
  6
Continuous
 62
     7
100
AcDbSpline
210
0.0
220
0.0
230
1.0
 70
     8
 71
     3
 72
    18
 73
    14
 74
     0
 42
0.0000000000766198
 43
0.0000000001
 40
0.6107323041832821
 40
0.6107323041832821
 40
0.6107323041832821
 40
0.6107323041832821
 40
0.6250000000000064
 40
0.6250000000000064
 40
0.6406250000000066
 40
0.6406250000000066
 40
0.6484375000000064
 40
0.6484375000000064
 40
0.6562500000000062
 40
0.6562500000000062
 40
0.6875000000000057
 40
0.6875000000000057
 40
0.728239779043937
 40
0.728239779043937
 40
0.728239779043937
 40
0.728239779043937
 10
48.73469947897625
 20
206.2060408332518
 30
0.0
 10
49.32822107455479
 20
206.1929412906239
 30
0.0
 10
49.9198543385515
 20
206.1810093931132
 30
0.0
 10
51.15543484678513
 20
206.1584668779262
 30
0.0
 10
51.80025051278267
 20
206.1477639148125
 30
0.0
 10
52.75980470725131
 20
206.134975946694
 30
0.0
 10
53.07908180224589
 20
206.1310728633473
 30
0.0
 10
53.73772057586996
 20
206.1183099830119
 30
0.0
 10
54.07789591463079
 20
206.1092301539746
 30
0.0
 10
55.80126403970929
 20
206.0588119645516
 30
0.0
 10
57.19446224310414
 20
206.0177716472921
 30
0.0
 10
60.40531830954715
 20
205.9301874396713
 30
0.0
 10
62.23292731837267
 20
205.8836881035741
 30
0.0
 10
64.06659445191235
 20
205.8403802261325
 30
0.0
  0
SPLINE
  5
164
330
128
100
AcDbEntity
  8
410374040_ESCUTC
  6
Continuous
 62
     7
100
AcDbSpline
210
0.0
220
0.0
230
1.0
 70
     8
 71
     3
 72
    10
 73
     6
 74
     0
 42
0.0000000000732758
 43
0.0000000001
 40
0.728239779043937
 40
0.728239779043937
 40
0.728239779043937
 40
0.728239779043937
 40
0.7500000000000046
 40
0.7500000000000046
 40
1.0
 40
1.0
 40
1.0
 40
1.0
 10
64.06659445191235
 20
205.8403802261325
 30
0.0
 10
65.04600580175487
 20
205.8172483141687
 30
0.0
 10
66.0271454847993
 20
205.7950268991355
 30
0.0
 10
78.29348927868837
 20
205.5291176737686
 30
0.0
 10
89.6735078616732
 20
205.4069871285469
 30
0.0
 10
101.1498233461212
 20
205.4070394267792
 30
0.0
  0
SPLINE
  5
165
330
128
100
AcDbEntity
  8
410374040_ESCUTC
  6
Continuous
 62
     7
100
AcDbSpline
210
0.0
220
0.0
230
1.0
 70
     8
 71
     3
 72
     8
 73
     4
 74
     0
 42
0.0000000000736649
 43
0.0000000001
 40
0.0
 40
0.0
 40
0.0
 40
0.0
 40
0.0409604203067225
 40
0.0409604203067225
 40
0.0409604203067225
 40
0.0409604203067225
 10
101.1498233461212
 20
205.4070394267792
 30
0.0
 10
103.0065525598342
 20
205.407030535764
 30
0.0
 10
104.8600007720402
 20
205.4102201858405
 30
0.0
 10
106.7101789268529
 20
205.416601692898
 30
0.0
  0
SPLINE
  5
166
330
128
100
AcDbEntity
  8
410374040_ESCUTC
  6
Continuous
 62
     7
100
AcDbSpline
210
0.0
220
0.0
230
1.0
 70
     8
 71
     3
 72
    28
 73
    24
 74
     0
 42
0.0000000000770941
 43
0.0000000001
 40
0.0409604203067225
 40
0.0409604203067225
 40
0.0409604203067225
 40
0.0409604203067225
 40
0.2500000000000004
 40
0.2500000000000004
 40
0.3125000000000005
 40
0.3125000000000005
 40
0.3437500000000006
 40
0.3437500000000006
 40
0.3593750000000005
 40
0.3593750000000005
 40
0.3750000000000006
 40
0.3750000000000006
 40
0.5000000000000007
 40
0.5000000000000007
 40
0.562500000000001
 40
0.562500000000001
 40
0.578125000000001
 40
0.578125000000001
 40
0.5937500000000011
 40
0.5937500000000011
 40
0.6250000000000012
 40
0.6250000000000012
 40
0.6262830934159606
 40
0.6262830934159606
 40
0.6262830934159606
 40
0.6262830934159606
 10
106.7101789268529
 20
205.416601692898
 30
0.0
 10
116.1524761724274
 20
205.4491694142038
 30
0.0
 10
125.5096040129957
 20
205.5648697925997
 30
0.0
 10
137.5556419375413
 20
205.8219971172803
 30
0.0
 10
140.3206880737335
 20
205.8885633227442
 30
0.0
 10
144.4567703963595
 20
205.9996217383863
 30
0.0
 10
145.8338812392808
 20
206.0387238176967
 30
0.0
 10
147.8958736623811
 20
206.0997022504134
 30
0.0
 10
148.5872093021069
 20
206.120642901366
 30
0.0
 10
149.8622704634864
 20
206.140327251014
 30
0.0
 10
150.4854942178768
 20
206.1477632360913
 30
0.0
 10
156.1949552874943
 20
206.2441677852265
 30
0.0
 10
161.4479022447959
 20
206.4171910108242
 30
0.0
 10
169.5462396241772
 20
206.8068430972331
 30
0.0
 10
172.2734726503605
 20
206.9578637643703
 30
0.0
 10
175.7172725893134
 20
207.1729550107353
 30
0.0
 10
176.4077436155345
 20
207.2172899734899
 30
0.0
 10
177.7923881673022
 20
207.3086204560431
 30
0.0
 10
178.4925736180761
 20
207.3574053281277
 30
0.0
 10
180.4815829997839
 20
207.47287165579
 30
0.0
 10
181.6823881928408
 20
207.5168106054236
 30
0.0
 10
182.527071528943
 20
207.5177334134804
 30
0.0
 10
182.5595811561307
 20
207.5176779929589
 30
0.0
 10
182.591342453913
 20
207.5175377793344
 30
0.0
  0
SPLINE
  5
167
330
128
100
AcDbEntity
  8
410374040_ESCUTC
  6
Continuous
 62
     7
100
AcDbSpline
210
0.0
220
0.0
230
1.0
 70
     8
 71
     3
 72
    16
 73
    12
 74
     0
 42
0.0000000003669064
 43
0.0000000001
 40
0.6262830934159606
 40
0.6262830934159606
 40
0.6262830934159606
 40
0.6262830934159606
 40
0.6406250000000011
 40
0.6406250000000011
 40
0.656250000000001
 40
0.656250000000001
 40
0.6875000000000009
 40
0.6875000000000009
 40
0.7500000000000007
 40
0.7500000000000007
 40
1.0
 40
1.0
 40
1.0
 40
1.0
 10
182.591342453913
 20
207.5175377793344
 30
0.0
 10
182.9463575760516
 20
207.5159705273472
 30
0.0
 10
183.2078773427706
 20
207.5038093293585
 30
0.0
 10
183.7225051320678
 20
207.4767550974037
 30
0.0
 10
183.9851888378517
 20
207.4629304188795
 30
0.0
 10
184.7563141239955
 20
207.4223058540482
 30
0.0
 10
185.2478345922729
 20
207.3963552557762
 30
0.0
 10
186.6546724813077
 20
207.3219440417142
 30
0.0
 10
187.5003982867608
 20
207.2770236090626
 30
0.0
 10
191.2482509524086
 20
207.0774203985695
 30
0.0
 10
192.763151561145
 20
206.9952469228522
 30
0.0
 10
192.7631515622928
 20
206.9952469831501
 30
0.0
  0
SPLINE
  5
168
330
128
100
AcDbEntity
  8
410374040_ESCUTC
  6
Continuous
 62
     7
100
AcDbSpline
210
0.0
220
0.0
230
1.0
 70
     8
 71
     3
 72
    14
 73
    10
 74
     0
 42
0.0000000034121265
 43
0.0000000001
 40
0.0
 40
0.0
 40
0.0
 40
0.0
 40
0.25
 40
0.25
 40
0.5
 40
0.5
 40
0.75
 40
0.75
 40
1.0
 40
1.0
 40
1.0
 40
1.0
 10
192.7631515622928
 20
206.9952469831501
 30
0.0
 10
192.5213249846714
 20
206.9725560298674
 30
0.0
 10
192.283747626779
 20
206.9053381221021
 30
0.0
 10
191.8480114779111
 20
206.6905966482558
 30
0.0
 10
191.6499798383448
 20
206.5431357455117
 30
0.0
 10
191.319362775324
 20
206.1872252937695
 30
0.0
 10
191.1868738286608
 20
205.9788796023824
 30
0.0
 10
191.0047782259811
 20
205.5285229842402
 30
0.0
 10
190.9552247069663
 20
205.2866434752678
 30
0.0
 10
190.9503901065331
 20
205.0438027874834
 30
0.0
  0
LINE
  5
169
330
128
100
AcDbEntity
  8
410374040_ESCUTC
  6
Continuous
 62
     7
100
AcDbLine
 10
6.3500038749
 20
209.571110624
 30
0.0
 11
6.3500038749
 21
212.2982807504
 31
0.0
  0
LINE
  5
16A
330
128
100
AcDbEntity
  8
410374040_ESCUTC
  6
Continuous
 62
     7
100
AcDbLine
 10
195.9499938749
 20
209.5711106616
 30
0.0
 11
195.9499938749
 21
212.2982807504
 31
0.0
  0
ARC
  5
16B
330
128
100
AcDbEntity
  8
410374040_ESCUTC
  6
Continuous
 62
     7
100
AcDbCircle
 10
193.4499938749
 20
209.5711106616
 30
0.0
 40
2.500000000000002
100
AcDbArc
 50
275.4141238415
 51
360.0
  0
ARC
  5
16C
330
128
100
AcDbEntity
  8
410374040_ESCUTC
  6
Continuous
 62
     7
100
AcDbCircle
 10
8.8500038749
 20
209.571110624
 30
0.0
 40
2.499999999999996
100
AcDbArc
 50
180.0
 51
264.5858761818
  0
SPLINE
  5
16D
330
128
100
AcDbEntity
  8
410374040_ESCUTC
  6
Continuous
 62
     7
100
AcDbSpline
210
0.0
220
0.0
230
1.0
 70
     8
 71
     3
 72
    14
 73
    10
 74
     0
 42
0.0000000034121265
 43
0.0000000001
 40
0.0
 40
0.0
 40
0.0
 40
0.0
 40
0.25
 40
0.25
 40
0.5
 40
0.5
 40
0.75
 40
0.75
 40
1.0
 40
1.0
 40
1.0
 40
1.0
 10
11.34960764316936
 20
205.0438027511508
 30
0.0
 10
11.34477304263763
 20
205.2866434389333
 30
0.0
 10
11.29521952352479
 20
205.5285229478856
 30
0.0
 10
11.11312392066253
 20
205.9788795659541
 30
0.0
 10
10.98063497391479
 20
206.1872252572874
 30
0.0
 10
10.6500179107497
 20
206.5431357088956
 30
0.0
 10
10.45198627112351
 20
206.6905966115595
 30
0.0
 10
10.01625012216861
 20
206.905338085229
 30
0.0
 10
9.778672764248943
 20
206.9725559928981
 30
0.0
 10
9.53684618661836
 20
206.9952469460827
 30
0.0
  0
ARC
  5
16E
330
128
100
AcDbEntity
  8
410374040_ESCUTC
  6
Continuous
 62
     7
100
AcDbCircle
 10
188.4508853961
 20
205.0935642449
 30
0.0
 40
2.500000000000001
100
AcDbArc
 50
275.1009610637
 51
358.8594760826
  0
SPLINE
  5
16F
330
128
100
AcDbEntity
  8
410374040_ESCUTC
  6
Continuous
 62
     7
100
AcDbSpline
210
0.0
220
0.0
230
1.0
 70
     8
 71
     3
 72
    14
 73
    10
 74
     0
 42
0.0000000027211518
 43
0.0000000001
 40
0.0
 40
0.0
 40
0.0
 40
0.0
 40
0.2499999999999999
 40
0.2499999999999999
 40
0.4999999999999998
 40
0.4999999999999998
 40
0.7499999999999999
 40
0.7499999999999999
 40
1.0
 40
1.0
 40
1.0
 40
1.0
 10
13.62683484413436
 20
202.6034652740723
 30
0.0
 10
13.3234864549166
 20
202.6305435252535
 30
0.0
 10
13.02523011164843
 20
202.7136542263631
 30
0.0
 10
12.47795576838395
 20
202.9810578555767
 30
0.0
 10
12.22909945568573
 20
203.1652717816759
 30
0.0
 10
11.81353426581654
 20
203.6106025359262
 30
0.0
 10
11.64694816365516
 20
203.8715877950986
 30
0.0
 10
11.41798204510561
 20
204.4360241726192
 30
0.0
 10
11.35566967470442
 20
204.7393085333001
 30
0.0
 10
11.34960764316936
 20
205.0438027511508
 30
0.0
  0
SPLINE
  5
170
330
128
100
AcDbEntity
  8
410374040_ESCUTC
  6
Continuous
 62
     7
100
AcDbSpline
210
0.0
220
0.0
230
1.0
 70
     8
 71
     3
 72
    38
 73
    34
 74
     0
 42
0.0000000000511712
 43
0.0000000001
 40
0.0016605734312975
 40
0.0016605734312975
 40
0.0016605734312975
 40
0.0016605734312975
 40
0.03125
 40
0.03125
 40
0.0625
 40
0.0625
 40
0.09375
 40
0.09375
 40
0.1250000000000001
 40
0.1250000000000001
 40
0.1562500000000001
 40
0.1562500000000001
 40
0.1875000000000001
 40
0.1875000000000001
 40
0.2187500000000001
 40
0.2187500000000001
 40
0.2500000000000001
 40
0.2500000000000001
 40
0.2812500000000001
 40
0.2812500000000001
 40
0.3125000000000001
 40
0.3125000000000001
 40
0.3437500000000001
 40
0.3437500000000001
 40
0.3750000000000001
 40
0.3750000000000001
 40
0.4062500000000001
 40
0.4062500000000001
 40
0.4375000000000001
 40
0.4375000000000001
 40
0.4687500000000001
 40
0.4687500000000001
 40
0.4998756049745966
 40
0.4998756049745966
 40
0.4998756049745966
 40
0.4998756049745966
 10
52.47036307124744
 20
199.9056851866233
 30
0.0
 10
52.5029834365314
 20
199.9058411500037
 30
0.0
 10
52.82575995681026
 20
199.9073821214135
 30
0.0
 10
54.05148436639134
 20
199.9130747040398
 30
0.0
 10
54.98048422940469
 20
199.9173416442953
 30
0.0
 10
57.43708649325431
 20
199.9280517013644
 30
0.0
 10
58.97295921850458
 20
199.9345180932704
 30
0.0
 10
62.5166822899055
 20
199.9483445059672
 30
0.0
 10
64.53670927030711
 20
199.9557635794303
 30
0.0
 10
69.08960030982519
 20
199.9707779784201
 30
0.0
 10
71.55776604727808
 20
199.9781483166879
 30
0.0
 10
76.8304896785271
 20
199.9917249282184
 30
0.0
 10
79.67148370616134
 20
199.998002952133
 30
0.0
 10
85.55873706630716
 20
200.0083782582732
 30
0.0
 10
88.5848760609231
 20
200.0124661662054
 30
0.0
 10
94.79978333764163
 20
200.0180377979289
 30
0.0
 10
98.01292425150703
 20
200.0194971731122
 30
0.0
 10
104.3414711530566
 20
200.0194808602749
 30
0.0
 10
107.4856300562568
 20
200.0180513251708
 30
0.0
 10
113.7329495804787
 20
200.0124496448832
 30
0.0
 10
116.8038558700473
 20
200.0082791724731
 30
0.0
 10
122.6471629942057
 20
199.9979585301559
 30
0.0
 10
125.4588152889974
 20
199.9917576197241
 30
0.0
 10
130.7937369457364
 20
199.9780102535984
 30
0.0
 10
133.2476932062411
 20
199.9706566145585
 30
0.0
 10
137.7419741030909
 20
199.9558319431862
 30
0.0
 10
139.8012013796856
 20
199.9482787902234
 30
0.0
 10
143.3567856188168
 20
199.9343976132623
 30
0.0
 10
144.8592020359904
 20
199.9280671487491
 30
0.0
 10
147.3137363126294
 20
199.9173673208339
 30
0.0
 10
148.2625067027009
 20
199.9130104324882
 30
0.0
 10
149.5162224239686
 20
199.9071862880101
 30
0.0
 10
149.8323437745852
 20
199.9056723486579
 30
0.0
 10
149.8323818591882
 20
199.9056720613607
 30
0.0
  0
LINE
  5
171
330
128
100
AcDbEntity
  8
410374040_ESCUTC
  6
Continuous
 62
     7
100
AcDbLine
 10
192.7627780096
 20
206.9992656832
 30
0.0
 11
193.6856258076
 21
207.0849789489
 31
0.0
  0
LINE
  5
172
330
128
100
AcDbEntity
  8
410374040_ESCUTC
  6
Continuous
 62
     7
100
AcDbLine
 10
8.6142354023
 20
207.0834917082
 30
0.0
 11
9.5369684664
 21
206.9965429261
 31
0.0
  0
ARC
  5
173
330
128
100
AcDbEntity
  8
410374040_ESCUTC
  6
Continuous
 62
     7
100
AcDbCircle
 10
116.2177443018
 20
984.1302633386
 30
0.0
 40
784.8653347441036
100
AcDbArc
 50
272.4519398361
 51
275.2967701805
  0
ARC
  5
174
330
128
100
AcDbEntity
  8
410374040_ESCUTC
  6
Continuous
 62
     7
100
AcDbCircle
 10
86.0478474878
 20
983.7084343408
 30
0.0
 40
784.4421308631659
100
AcDbArc
 50
264.7028879283
 51
267.5468458281
  0
ARC
  5
175
330
128
100
AcDbEntity
  8
410374040_ESCUTC
  6
Continuous
 62
     7
100
AcDbCircle
 10
52.5422098858
 20
200.8181584256
 30
0.0
 40
0.9132217654087997
100
AcDbArc
 50
270.5958068968
 51
272.1652751039
  0
LINE
  5
176
330
128
100
AcDbEntity
  8
410228031_BEARIN
  6
Continuous
 62
     7
100
AcDbLine
 10
69.599995
 20
182.6982801685
 30
0.0
 11
132.699995
 21
182.6982801685
 31
0.0
  0
LINE
  5
177
330
128
100
AcDbEntity
  8
410228031_BEARIN
  6
Continuous
 62
     7
100
AcDbLine
 10
69.599995
 20
183.2982801685
 30
0.0
 11
69.599995
 21
182.6982801685
 31
0.0
  0
LINE
  5
178
330
128
100
AcDbEntity
  8
410228031_BEARIN
  6
Continuous
 62
     7
100
AcDbLine
 10
132.699995
 20
182.6982801685
 30
0.0
 11
132.699995
 21
183.2982801685
 31
0.0
  0
ENDBLK
  5
17A
330
128
100
AcDbEntity
  8
0
100
AcDbBlockEnd
  0
ENDSEC
  0
SECTION
  2
ENTITIES
  0
INSERT
  5
5F
330
1F
100
AcDbEntity
  8
Default
100
AcDbBlockReference
  2
SEANNOT_GROUP
 10
0.0
 20
0.0
 30
0.0
  0
INSERT
  5
6A
330
1F
100
AcDbEntity
  8
Default
100
AcDbBlockReference
  2
SEANNOT_GROUP1
 10
0.0
 20
0.0
 30
0.0
  0
INSERT
  5
70
330
1F
100
AcDbEntity
  8
Default
100
AcDbBlockReference
  2
SE
 10
0.0
 20
0.0
 30
0.0
  0
INSERT
  5
C4
330
1F
100
AcDbEntity
  8
Default
100
AcDbBlockReference
  2
SE1
 10
0.0
 20
0.0
 30
0.0
  0
INSERT
  5
129
330
1F
100
AcDbEntity
  8
Default
100
AcDbBlockReference
  2
SE2
 10
0.0
 20
0.0
 30
0.0
  0
TEXT
  5
17C
330
1F
100
AcDbEntity
  8
Default
  6
Continuous
 62
     7
100
AcDbText
 10
5.9362635081
 20
53.4225120485
 30
0.0
 40
10.0
  1
Grohe AG^J
  7
SEACAD_seiso_ttf
 11
5.9362635081
 21
63.4225120485
 31
0.0
100
AcDbText
 73
     3
  0
TEXT
  5
17D
330
1F
100
AcDbEntity
  8
Default
  6
Continuous
 62
     7
100
AcDbText
 10
5.9362635081
 20
37.0588756849
 30
0.0
 40
10.0
  1
 
  7
SEACAD_seiso_ttf
 11
5.9362635081
 21
47.0588756849
 31
0.0
100
AcDbText
 73
     3
  0
TEXT
  5
17E
330
1F
100
AcDbEntity
  8
Default
  6
Continuous
 62
     7
100
AcDbText
 10
5.9362635081
 20
20.6952393213
 30
0.0
 40
10.0
  1
ecn: 
  7
SEACAD_seiso_ttf
 11
5.9362635081
 21
30.6952393213
 31
0.0
100
AcDbText
 73
     3
  0
TEXT
  5
17F
330
1F
100
AcDbEntity
  8
Default
  6
Continuous
 62
     7
100
AcDbText
 10
5.9362635081
 20
4.3316029576
 30
0.0
 40
10.0
  1
unit: mm
  7
SEACAD_seiso_ttf
 11
5.9362635081
 21
14.3316029576
 31
0.0
100
AcDbText
 73
     3
  0
LINE
  5
180
330
1F
100
AcDbEntity
  8
Default
  6
Continuous
 62
     7
100
AcDbLine
 10
0.0
 20
0.0
 30
0.0
 11
100.0
 21
0.0
 31
0.0
  0
LINE
  5
181
330
1F
100
AcDbEntity
  8
Default
  6
Continuous
 62
     7
100
AcDbLine
 10
0.0
 20
0.0
 30
0.0
 11
0.0
 21
100.0
 31
0.0
  0
TEXT
  5
182
330
1F
100
AcDbEntity
  8
Default
  6
Continuous
 62
     7
100
AcDbText
 10
24.3923665681
 20
-18.2375342018
 30
0.0
 40
10.0
  1
100 mm
  7
SEACAD_seiso_ttf
 11
24.3923665681
 21
-8.2375342018
 31
0.0
100
AcDbText
 73
     3
  0
TEXT
  5
183
330
1F
100
AcDbEntity
  8
Default
  6
Continuous
 62
     7
100
AcDbText
 10
-7.6150308803
 20
24.6231930421
 30
0.0
 40
10.0
  1
100 mm
 50
90.0
  7
SEACAD_seiso_ttf
 11
-17.6150308803
 21
24.6231930421
 31
0.0
100
AcDbText
 73
     3
  0
TEXT
  5
184
330
1F
100
AcDbEntity
  8
Default
  6
Continuous
 62
     7
100
AcDbText
 10
28.4878128572
 20
20.0907663715
 30
0.0
 40
10.0
  1
219326
  7
SEACAD_seiso_ttf
 11
28.4878128572
 21
30.0907663715
 31
0.0
100
AcDbText
 73
     3
  0
TEXT
  5
185
330
1F
100
AcDbEntity
  8
Default
  6
Continuous
 62
     7
100
AcDbText
 10
5.9012241913
 20
36.7242780188
 30
0.0
 40
10.0
  1
19843000
  7
SEACAD_seiso_ttf
 11
5.9012241913
 21
46.7242780188
 31
0.0
100
AcDbText
 73
     3
  0
ENDSEC
  0
SECTION
  2
OBJECTS
  0
DICTIONARY
  5
C
330
0
100
AcDbDictionary
281
     1
  3
ACAD_GROUP
350
D
  3
ACAD_LAYOUT
350
1A
  3
ACAD_MLEADERSTYLE
350
189
  3
ACAD_MLINESTYLE
350
17
  3
ACAD_PLOTSETTINGS
350
19
  3
ACAD_PLOTSTYLENAME
350
E
  3
ACAD_SCALELIST
350
3B
  3
ACAD_TABLESTYLE
350
188
  3
ACAD_VISUALSTYLE
350
2A
  3
AcDbVariableDictionary
350
186
  0
DICTIONARY
  5
D
102
{ACAD_REACTORS
330
C
102
}
330
C
100
AcDbDictionary
281
     1
  0
DICTIONARY
  5
1A
102
{ACAD_REACTORS
330
C
102
}
330
C
100
AcDbDictionary
281
     1
  3
Layout1
350
1E
  3
Model
350
22
  0
DICTIONARY
  5
189
102
{ACAD_REACTORS
330
C
102
}
330
C
100
AcDbDictionary
281
     1
  0
DICTIONARY
  5
17
102
{ACAD_REACTORS
330
C
102
}
330
C
100
AcDbDictionary
281
     1
  3
Standard
350
18
  0
DICTIONARY
  5
19
102
{ACAD_REACTORS
330
C
102
}
330
C
100
AcDbDictionary
281
     1
  0
ACDBDICTIONARYWDFLT
  5
E
102
{ACAD_REACTORS
330
C
102
}
330
C
100
AcDbDictionary
281
     1
  3
Normal
350
F
100
AcDbDictionaryWithDefault
340
F
  0
DICTIONARY
  5
3B
102
{ACAD_REACTORS
330
C
102
}
330
C
100
AcDbDictionary
281
     1
  3
A0
350
3C
  3
A1
350
3D
  3
A2
350
3E
  3
A3
350
3F
  3
A4
350
40
  3
A5
350
41
  3
A6
350
42
  3
A7
350
43
  3
A8
350
44
  3
A9
350
45
  3
B0
350
46
  3
B1
350
47
  3
B2
350
48
  3
B3
350
49
  3
B4
350
4A
  3
B5
350
4B
  3
B6
350
4C
  3
B7
350
4D
  3
B8
350
4E
  3
B9
350
4F
  3
C0
350
50
  3
C1
350
51
  3
C2
350
52
  3
C3
350
53
  3
C4
350
54
  3
C5
350
55
  3
C6
350
56
  3
C7
350
57
  3
C8
350
58
  3
C9
350
59
  3
D0
350
5A
  3
D1
350
5B
  3
D2
350
5C
  0
DICTIONARY
  5
188
102
{ACAD_REACTORS
330
C
102
}
330
C
100
AcDbDictionary
281
     1
  0
DICTIONARY
  5
2A
102
{ACAD_REACTORS
330
C
102
}
330
C
100
AcDbDictionary
281
     1
  3
2dWireframe
350
2F
  3
3D Hidden
350
31
  3
3dWireframe
350
30
  3
Basic
350
32
  3
Brighten
350
36
  3
ColorChange
350
3A
  3
Conceptual
350
34
  3
Dim
350
35
  3
Facepattern
350
39
  3
Flat
350
2B
  3
FlatWithEdges
350
2C
  3
Gouraud
350
2D
  3
GouraudWithEdges
350
2E
  3
Linepattern
350
38
  3
Realistic
350
33
  3
Thicken
350
37
  0
DICTIONARY
  5
186
102
{ACAD_REACTORS
330
C
102
}
330
C
100
AcDbDictionary
281
     1
  3
CANNOSCALE
350
187
  3
PSOLHEIGHT
350
18B
  3
PSOLWIDTH
350
18A
  0
LAYOUT
  5
1E
102
{ACAD_REACTORS
330
1A
102
}
330
1A
100
AcDbPlotSettings
  1

  2
none_device
  4

  6

 40
0.0
 41
0.0
 42
0.0
 43
0.0
 44
0.0
 45
0.0
 46
0.0
 47
0.0
 48
0.0
 49
0.0
140
0.0
141
0.0
142
1.0
143
1.0
 70
   688
 72
     0
 73
     0
 74
     5
  7

 75
    16
147
1.0
148
0.0
149
0.0
100
AcDbLayout
  1
Layout1
 70
     1
 71
     1
 10
0.0
 20
0.0
 11
1682.0
 21
2378.0
 12
0.0
 22
0.0
 32
0.0
 14
0.0
 24
0.0
 34
0.0
 15
1682.0
 25
2378.0
 35
0.0
146
0.0
 13
0.0
 23
0.0
 33
0.0
 16
1.0
 26
0.0
 36
0.0
 17
0.0
 27
1.0
 37
0.0
 76
     0
330
1B
  0
LAYOUT
  5
22
102
{ACAD_REACTORS
330
1A
102
}
330
1A
100
AcDbPlotSettings
  1

  2
none_device
  4

  6

 40
0.0
 41
0.0
 42
0.0
 43
0.0
 44
0.0
 45
0.0
 46
0.0
 47
0.0
 48
0.0
 49
0.0
140
0.0
141
0.0
142
1.0
143
1.0
 70
  1712
 72
     0
 73
     0
 74
     0
  7

 75
     0
147
1.0
148
0.0
149
0.0
100
AcDbLayout
  1
Model
 70
     1
 71
     0
 10
0.0
 20
0.0
 11
1682.0
 21
2378.0
 12
0.0
 22
0.0
 32
0.0
 14
0.0
 24
0.0
 34
0.0
 15
1682.0
 25
2378.0
 35
0.0
146
0.0
 13
0.0
 23
0.0
 33
0.0
 16
1.0
 26
0.0
 36
0.0
 17
0.0
 27
1.0
 37
0.0
 76
     0
330
1F
331
29
  0
MLINESTYLE
  5
18
102
{ACAD_REACTORS
330
17
102
}
330
17
100
AcDbMlineStyle
  2
Standard
 70
     0
  3

 62
   256
 51
90.0
 52
90.0
 71
     2
 49
0.5
 62
   256
  6
BYLAYER
 49
-0.5
 62
   256
  6
BYLAYER
  0
ACDBPLACEHOLDER
  5
F
102
{ACAD_REACTORS
330
E
102
}
330
E
  0
SCALE
  5
3C
102
{ACAD_REACTORS
330
3B
102
}
330
3B
100
AcDbScale
 70
     0
300
1:1
140
1.0
141
1.0
290
     1
  0
SCALE
  5
3D
102
{ACAD_REACTORS
330
3B
102
}
330
3B
100
AcDbScale
 70
     0
300
1:2
140
1.0
141
2.0
290
     0
  0
SCALE
  5
3E
102
{ACAD_REACTORS
330
3B
102
}
330
3B
100
AcDbScale
 70
     0
300
1:4
140
1.0
141
4.0
290
     0
  0
SCALE
  5
3F
102
{ACAD_REACTORS
330
3B
102
}
330
3B
100
AcDbScale
 70
     0
300
1:5
140
1.0
141
5.0
290
     0
  0
SCALE
  5
40
102
{ACAD_REACTORS
330
3B
102
}
330
3B
100
AcDbScale
 70
     0
300
1:8
140
1.0
141
8.0
290
     0
  0
SCALE
  5
41
102
{ACAD_REACTORS
330
3B
102
}
330
3B
100
AcDbScale
 70
     0
300
1:10
140
1.0
141
10.0
290
     0
  0
SCALE
  5
42
102
{ACAD_REACTORS
330
3B
102
}
330
3B
100
AcDbScale
 70
     0
300
1:16
140
1.0
141
16.0
290
     0
  0
SCALE
  5
43
102
{ACAD_REACTORS
330
3B
102
}
330
3B
100
AcDbScale
 70
     0
300
1:20
140
1.0
141
20.0
290
     0
  0
SCALE
  5
44
102
{ACAD_REACTORS
330
3B
102
}
330
3B
100
AcDbScale
 70
     0
300
1:30
140
1.0
141
30.0
290
     0
  0
SCALE
  5
45
102
{ACAD_REACTORS
330
3B
102
}
330
3B
100
AcDbScale
 70
     0
300
1:40
140
1.0
141
40.0
290
     0
  0
SCALE
  5
46
102
{ACAD_REACTORS
330
3B
102
}
330
3B
100
AcDbScale
 70
     0
300
1:50
140
1.0
141
50.0
290
     0
  0
SCALE
  5
47
102
{ACAD_REACTORS
330
3B
102
}
330
3B
100
AcDbScale
 70
     0
300
1:100
140
1.0
141
100.0
290
     0
  0
SCALE
  5
48
102
{ACAD_REACTORS
330
3B
102
}
330
3B
100
AcDbScale
 70
     0
300
2:1
140
2.0
141
1.0
290
     0
  0
SCALE
  5
49
102
{ACAD_REACTORS
330
3B
102
}
330
3B
100
AcDbScale
 70
     0
300
4:1
140
4.0
141
1.0
290
     0
  0
SCALE
  5
4A
102
{ACAD_REACTORS
330
3B
102
}
330
3B
100
AcDbScale
 70
     0
300
8:1
140
8.0
141
1.0
290
     0
  0
SCALE
  5
4B
102
{ACAD_REACTORS
330
3B
102
}
330
3B
100
AcDbScale
 70
     0
300
10:1
140
10.0
141
1.0
290
     0
  0
SCALE
  5
4C
102
{ACAD_REACTORS
330
3B
102
}
330
3B
100
AcDbScale
 70
     0
300
100:1
140
100.0
141
1.0
290
     0
  0
SCALE
  5
4D
102
{ACAD_REACTORS
330
3B
102
}
330
3B
100
AcDbScale
 70
     0
300
1/128" = 1'-0"
140
0.0078125
141
12.0
290
     0
  0
SCALE
  5
4E
102
{ACAD_REACTORS
330
3B
102
}
330
3B
100
AcDbScale
 70
     0
300
1/64" = 1'-0"
140
0.015625
141
12.0
290
     0
  0
SCALE
  5
4F
102
{ACAD_REACTORS
330
3B
102
}
330
3B
100
AcDbScale
 70
     0
300
1/32" = 1'-0"
140
0.03125
141
12.0
290
     0
  0
SCALE
  5
50
102
{ACAD_REACTORS
330
3B
102
}
330
3B
100
AcDbScale
 70
     0
300
1/16" = 1'-0"
140
0.0625
141
12.0
290
     0
  0
SCALE
  5
51
102
{ACAD_REACTORS
330
3B
102
}
330
3B
100
AcDbScale
 70
     0
300
3/32" = 1'-0"
140
0.09375
141
12.0
290
     0
  0
SCALE
  5
52
102
{ACAD_REACTORS
330
3B
102
}
330
3B
100
AcDbScale
 70
     0
300
1/8" = 1'-0"
140
0.125
141
12.0
290
     0
  0
SCALE
  5
53
102
{ACAD_REACTORS
330
3B
102
}
330
3B
100
AcDbScale
 70
     0
300
3/16" = 1'-0"
140
0.1875
141
12.0
290
     0
  0
SCALE
  5
54
102
{ACAD_REACTORS
330
3B
102
}
330
3B
100
AcDbScale
 70
     0
300
1/4" = 1'-0"
140
0.25
141
12.0
290
     0
  0
SCALE
  5
55
102
{ACAD_REACTORS
330
3B
102
}
330
3B
100
AcDbScale
 70
     0
300
3/8" = 1'-0"
140
0.375
141
12.0
290
     0
  0
SCALE
  5
56
102
{ACAD_REACTORS
330
3B
102
}
330
3B
100
AcDbScale
 70
     0
300
1/2" = 1'-0"
140
0.5
141
12.0
290
     0
  0
SCALE
  5
57
102
{ACAD_REACTORS
330
3B
102
}
330
3B
100
AcDbScale
 70
     0
300
3/4" = 1'-0"
140
0.75
141
12.0
290
     0
  0
SCALE
  5
58
102
{ACAD_REACTORS
330
3B
102
}
330
3B
100
AcDbScale
 70
     0
300
1" = 1'-0"
140
1.0
141
12.0
290
     0
  0
SCALE
  5
59
102
{ACAD_REACTORS
330
3B
102
}
330
3B
100
AcDbScale
 70
     0
300
1-1/2" = 1'-0"
140
1.5
141
12.0
290
     0
  0
SCALE
  5
5A
102
{ACAD_REACTORS
330
3B
102
}
330
3B
100
AcDbScale
 70
     0
300
3" = 1'-0"
140
3.0
141
12.0
290
     0
  0
SCALE
  5
5B
102
{ACAD_REACTORS
330
3B
102
}
330
3B
100
AcDbScale
 70
     0
300
6" = 1'-0"
140
6.0
141
12.0
290
     0
  0
SCALE
  5
5C
102
{ACAD_REACTORS
330
3B
102
}
330
3B
100
AcDbScale
 70
     0
300
1'-0" = 1'-0"
140
12.0
141
12.0
290
     0
  0
VISUALSTYLE
  5
2F
102
{ACAD_REACTORS
330
2A
102
}
330
2A
100
AcDbVisualStyle
  2
2dWireframe
 70
     4
 71
     0
 72
     2
 73
     0
 90
        0
 40
-0.6
 41
-30.0
 62
     5
 63
     7
 74
     1
 91
        4
 64
     7
 65
   257
 75
     1
175
     1
 42
1.0
 92
        0
 66
   257
 43
1.0
 76
     1
 77
     6
 78
     2
 67
     7
 79
     5
170
     0
171
     0
290
     0
174
     0
 93
        1
 44
0.0
173
     0
291
     0
 45
0.0
1001
ACAD
1000
AcDbSavedByObjectVersion
1070
     0
  0
VISUALSTYLE
  5
31
102
{ACAD_REACTORS
330
2A
102
}
330
2A
100
AcDbVisualStyle
  2
3D Hidden
 70
     6
 71
     1
 72
     2
 73
     2
 90
        0
 40
-0.6
 41
-30.0
 62
     5
 63
     7
 74
     2
 91
        2
 64
     7
 65
   257
 75
     2
175
     1
 42
40.0
 92
        0
 66
   257
 43
1.0
 76
     1
 77
     6
 78
     2
 67
     7
 79
     3
170
     0
171
     0
290
     0
174
     0
 93
        1
 44
0.0
173
     0
291
     0
 45
0.0
1001
ACAD
1000
AcDbSavedByObjectVersion
1070
     0
  0
VISUALSTYLE
  5
30
102
{ACAD_REACTORS
330
2A
102
}
330
2A
100
AcDbVisualStyle
  2
3dWireframe
 70
     5
 71
     0
 72
     2
 73
     0
 90
        0
 40
-0.6
 41
-30.0
 62
     5
 63
     7
 74
     1
 91
        4
 64
     7
 65
   257
 75
     1
175
     1
 42
1.0
 92
        0
 66
   257
 43
1.0
 76
     1
 77
     6
 78
     2
 67
     7
 79
     5
170
     0
171
     0
290
     0
174
     0
 93
        1
 44
0.0
173
     0
291
     0
 45
0.0
1001
ACAD
1000
AcDbSavedByObjectVersion
1070
     0
  0
VISUALSTYLE
  5
32
102
{ACAD_REACTORS
330
2A
102
}
330
2A
100
AcDbVisualStyle
  2
Basic
 70
     7
 71
     1
 72
     0
 73
     1
 90
        0
 40
-0.6
 41
-30.0
 62
     5
 63
     7
 74
     0
 91
        4
 64
     7
 65
   257
 75
     1
175
     1
 42
1.0
 92
        8
 66
     7
 43
1.0
 76
     1
 77
     6
 78
     2
 67
     7
 79
     5
170
     0
171
     0
290
     0
174
     0
 93
        1
 44
0.0
173
     0
291
     1
 45
0.0
1001
ACAD
1000
AcDbSavedByObjectVersion
1070
     0
  0
VISUALSTYLE
  5
36
102
{ACAD_REACTORS
330
2A
102
}
330
2A
100
AcDbVisualStyle
  2
Brighten
 70
    12
 71
     2
 72
     2
 73
     0
 90
        0
 40
-0.6
 41
-30.0
 62
     5
 63
     7
 74
     1
 91
        4
 64
     7
 65
   257
 75
     1
175
     1
 42
1.0
 92
        8
 66
     7
 43
1.0
 76
     1
 77
     6
 78
     2
 67
     7
 79
     5
170
     0
171
     0
290
     0
174
     0
 93
        1
 44
50.0
173
     0
291
     1
 45
0.0
1001
ACAD
1000
AcDbSavedByObjectVersion
1070
     0
  0
VISUALSTYLE
  5
3A
102
{ACAD_REACTORS
330
2A
102
}
330
2A
100
AcDbVisualStyle
  2
ColorChange
 70
    16
 71
     2
 72
     2
 73
     3
 90
        0
 40
-0.6
 41
-30.0
 62
     5
 63
     8
 74
     1
 91
        4
 64
     7
 65
   257
 75
     1
175
     1
 42
1.0
 92
        8
 66
     8
 43
1.0
 76
     1
 77
     6
 78
     2
 67
     7
 79
     5
170
     0
171
     0
290
     0
174
     0
 93
        1
 44
0.0
173
     0
291
     1
 45
0.0
1001
ACAD
1000
AcDbSavedByObjectVersion
1070
     0
  0
VISUALSTYLE
  5
34
102
{ACAD_REACTORS
330
2A
102
}
330
2A
100
AcDbVisualStyle
  2
Conceptual
 70
     9
 71
     3
 72
     2
 73
     0
 90
        0
 40
-0.6
 41
-30.0
 62
     5
 63
     7
 74
     2
 91
        2
 64
     7
 65
   257
 75
     1
175
     1
 42
40.0
 92
        8
 66
     7
 43
1.0
 76
     1
 77
     6
 78
     2
 67
     7
 79
     3
170
     0
171
     0
290
     0
174
     0
 93
        1
 44
0.0
173
     0
291
     0
 45
0.0
1001
ACAD
1000
AcDbSavedByObjectVersion
1070
     0
  0
VISUALSTYLE
  5
35
102
{ACAD_REACTORS
330
2A
102
}
330
2A
100
AcDbVisualStyle
  2
Dim
 70
    11
 71
     2
 72
     2
 73
     0
 90
        0
 40
-0.6
 41
-30.0
 62
     5
 63
     7
 74
     1
 91
        4
 64
     7
 65
   257
 75
     1
175
     1
 42
1.0
 92
        8
 66
     7
 43
1.0
 76
     1
 77
     6
 78
     2
 67
     7
 79
     5
170
     0
171
     0
290
     0
174
     0
 93
        1
 44
-50.0
173
     0
291
     1
 45
0.0
1001
ACAD
1000
AcDbSavedByObjectVersion
1070
     0
  0
VISUALSTYLE
  5
39
102
{ACAD_REACTORS
330
2A
102
}
330
2A
100
AcDbVisualStyle
  2
Facepattern
 70
    15
 71
     2
 72
     2
 73
     0
 90
        0
 40
-0.6
 41
-30.0
 62
     5
 63
     7
 74
     1
 91
        4
 64
     7
 65
   257
 75
     1
175
     1
 42
1.0
 92
        8
 66
     7
 43
1.0
 76
     1
 77
     6
 78
     2
 67
     7
 79
     5
170
     0
171
     0
290
     0
174
     0
 93
        1
 44
0.0
173
     0
291
     1
 45
0.0
1001
ACAD
1000
AcDbSavedByObjectVersion
1070
     0
  0
VISUALSTYLE
  5
2B
102
{ACAD_REACTORS
330
2A
102
}
330
2A
100
AcDbVisualStyle
  2
Flat
 70
     0
 71
     2
 72
     1
 73
     1
 90
        2
 40
-0.6
 41
30.0
 62
     5
 63
     7
 74
     0
 91
        4
 64
     7
 65
   257
 75
     1
175
     1
 42
1.0
 92
        8
 66
     7
 43
1.0
 76
     1
 77
     6
 78
     2
 67
     7
 79
     5
170
     0
171
     0
290
     0
174
     0
 93
       13
 44
0.0
173
     0
291
     1
 45
0.0
1001
ACAD
1000
AcDbSavedByObjectVersion
1070
     0
  0
VISUALSTYLE
  5
2C
102
{ACAD_REACTORS
330
2A
102
}
330
2A
100
AcDbVisualStyle
  2
FlatWithEdges
 70
     1
 71
     2
 72
     1
 73
     1
 90
        2
 40
-0.6
 41
30.0
 62
     5
 63
     7
 74
     1
 91
        4
 64
     7
 65
   257
 75
     1
175
     1
 42
1.0
 92
        0
 66
   257
 43
1.0
 76
     1
 77
     6
 78
     2
 67
     7
 79
     5
170
     0
171
     0
290
     0
174
     0
 93
       13
 44
0.0
173
     0
291
     1
 45
0.0
1001
ACAD
1000
AcDbSavedByObjectVersion
1070
     0
  0
VISUALSTYLE
  5
2D
102
{ACAD_REACTORS
330
2A
102
}
330
2A
100
AcDbVisualStyle
  2
Gouraud
 70
     2
 71
     2
 72
     2
 73
     1
 90
        2
 40
-0.6
 41
30.0
 62
     5
 63
     7
 74
     0
 91
        4
 64
     7
 65
   257
 75
     1
175
     1
 42
1.0
 92
        0
 66
     7
 43
1.0
 76
     1
 77
     6
 78
     2
 67
     7
 79
     5
170
     0
171
     0
290
     0
174
     0
 93
       13
 44
0.0
173
     0
291
     1
 45
0.0
1001
ACAD
1000
AcDbSavedByObjectVersion
1070
     0
  0
VISUALSTYLE
  5
2E
102
{ACAD_REACTORS
330
2A
102
}
330
2A
100
AcDbVisualStyle
  2
GouraudWithEdges
 70
     3
 71
     2
 72
     2
 73
     1
 90
        2
 40
-0.6
 41
30.0
 62
     5
 63
     7
 74
     1
 91
        4
 64
     7
 65
   257
 75
     1
175
     1
 42
1.0
 92
        0
 66
   257
 43
1.0
 76
     1
 77
     6
 78
     2
 67
     7
 79
     5
170
     0
171
     0
290
     0
174
     0
 93
       13
 44
0.0
173
     0
291
     1
 45
0.0
1001
ACAD
1000
AcDbSavedByObjectVersion
1070
     0
  0
VISUALSTYLE
  5
38
102
{ACAD_REACTORS
330
2A
102
}
330
2A
100
AcDbVisualStyle
  2
Linepattern
 70
    14
 71
     2
 72
     2
 73
     0
 90
        0
 40
-0.6
 41
-30.0
 62
     5
 63
     7
 74
     1
 91
        4
 64
     7
 65
   257
 75
     7
175
     7
 42
1.0
 92
        8
 66
     7
 43
1.0
 76
     1
 77
     6
 78
     2
 67
     7
 79
     5
170
     0
171
     0
290
     0
174
     0
 93
        1
 44
0.0
173
     0
291
     1
 45
0.0
1001
ACAD
1000
AcDbSavedByObjectVersion
1070
     0
  0
VISUALSTYLE
  5
33
102
{ACAD_REACTORS
330
2A
102
}
330
2A
100
AcDbVisualStyle
  2
Realistic
 70
     8
 71
     2
 72
     2
 73
     0
 90
        0
 40
-0.6
 41
-30.0
 62
     5
 63
     7
 74
     1
 91
        0
 64
     7
 65
   257
 75
     1
175
     1
 42
1.0
 92
        8
 66
     8
 43
1.0
 76
     1
 77
     6
 78
     2
 67
     7
 79
     5
170
     0
171
     0
290
     0
174
     0
 93
       13
 44
0.0
173
     0
291
     0
 45
0.0
1001
ACAD
1000
AcDbSavedByObjectVersion
1070
     0
  0
VISUALSTYLE
  5
37
102
{ACAD_REACTORS
330
2A
102
}
330
2A
100
AcDbVisualStyle
  2
Thicken
 70
    13
 71
     2
 72
     2
 73
     0
 90
        0
 40
-0.6
 41
-30.0
 62
     5
 63
     7
 74
     1
 91
        4
 64
     7
 65
   257
 75
     1
175
     1
 42
1.0
 92
       12
 66
     7
 43
1.0
 76
     1
 77
     6
 78
     2
 67
     7
 79
     5
170
     0
171
     0
290
     0
174
     0
 93
        1
 44
0.0
173
     0
291
     1
 45
0.0
1001
ACAD
1000
AcDbSavedByObjectVersion
1070
     0
  0
DICTIONARYVAR
  5
187
102
{ACAD_REACTORS
330
186
102
}
330
186
100
DictionaryVariables
280
     0
  1
1:1
  0
DICTIONARYVAR
  5
18B
102
{ACAD_REACTORS
330
186
102
}
330
186
100
DictionaryVariables
280
     0
  1
80.000000
  0
DICTIONARYVAR
  5
18A
102
{ACAD_REACTORS
330
186
102
}
330
186
100
DictionaryVariables
280
     0
  1
5.000000
  0
ENDSEC
  0
EOF
