  0
SECTION
  2
HEADER
  9
$ACADVER
  1
AC1015
  9
$ACADMAINTVER
 70
     6
  9
$DWGCODEPAGE
  3
ANSI_1252
  9
$INSBASE
 10
0.0
 20
0.0
 30
0.0
  9
$EXTMIN
 10
0.0
 20
0.0
 30
0.0
  9
$EXTMAX
 10
1682.0
 20
2378.0
 30
0.0
  9
$LIMMIN
 10
0.0
 20
0.0
  9
$LIMMAX
 10
1682.0
 20
2378.0
  9
$ORTHOMODE
 70
     0
  9
$REGENMODE
 70
     1
  9
$FILLMODE
 70
     1
  9
$QTEXTMODE
 70
     0
  9
$MIRRTEXT
 70
     1
  9
$LTSCALE
 40
1.0
  9
$ATTMODE
 70
     1
  9
$TEXTSIZE
 40
2.5
  9
$TRACEWID
 40
1.0
  9
$TEXTSTYLE
  7
Standard
  9
$CLAYER
  8
0
  9
$CELTYPE
  6
ByLayer
  9
$CECOLOR
 62
   256
  9
$CELTSCALE
 40
1.0
  9
$DISPSILH
 70
     0
  9
$DIMSCALE
 40
1.0
  9
$DIMASZ
 40
2.5
  9
$DIMEXO
 40
0.625
  9
$DIMDLI
 40
3.75
  9
$DIMRND
 40
0.0
  9
$DIMDLE
 40
0.0
  9
$DIMEXE
 40
1.25
  9
$DIMTP
 40
0.0
  9
$DIMTM
 40
0.0
  9
$DIMTXT
 40
2.5
  9
$DIMCEN
 40
2.5
  9
$DIMTSZ
 40
0.0
  9
$DIMTOL
 70
     0
  9
$DIMLIM
 70
     0
  9
$DIMTIH
 70
     0
  9
$DIMTOH
 70
     0
  9
$DIMSE1
 70
     0
  9
$DIMSE2
 70
     0
  9
$DIMTAD
 70
     1
  9
$DIMZIN
 70
     8
  9
$DIMBLK
  1

  9
$DIMASO
 70
     1
  9
$DIMSHO
 70
     1
  9
$DIMPOST
  1

  9
$DIMAPOST
  1

  9
$DIMALT
 70
     0
  9
$DIMALTD
 70
     3
  9
$DIMALTF
 40
0.0393700787
  9
$DIMLFAC
 40
1.0
  9
$DIMTOFL
 70
     1
  9
$DIMTVP
 40
0.0
  9
$DIMTIX
 70
     0
  9
$DIMSOXD
 70
     0
  9
$DIMSAH
 70
     0
  9
$DIMBLK1
  1

  9
$DIMBLK2
  1

  9
$DIMSTYLE
  2
ISO-25
  9
$DIMCLRD
 70
     0
  9
$DIMCLRE
 70
     0
  9
$DIMCLRT
 70
     0
  9
$DIMTFAC
 40
1.0
  9
$DIMGAP
 40
0.625
  9
$DIMJUST
 70
     0
  9
$DIMSD1
 70
     0
  9
$DIMSD2
 70
     0
  9
$DIMTOLJ
 70
     0
  9
$DIMTZIN
 70
     8
  9
$DIMALTZ
 70
     0
  9
$DIMALTTZ
 70
     0
  9
$DIMUPT
 70
     0
  9
$DIMDEC
 70
     2
  9
$DIMTDEC
 70
     2
  9
$DIMALTU
 70
     2
  9
$DIMALTTD
 70
     3
  9
$DIMTXSTY
  7
Standard
  9
$DIMAUNIT
 70
     0
  9
$DIMADEC
 70
     0
  9
$DIMALTRND
 40
0.0
  9
$DIMAZIN
 70
     0
  9
$DIMDSEP
 70
    44
  9
$DIMATFIT
 70
     3
  9
$DIMFRAC
 70
     0
  9
$DIMLDRBLK
  1

  9
$DIMLUNIT
 70
     2
  9
$DIMLWD
 70
    -2
  9
$DIMLWE
 70
    -2
  9
$DIMTMOVE
 70
     0
  9
$LUNITS
 70
     2
  9
$LUPREC
 70
     4
  9
$SKETCHINC
 40
1.0
  9
$FILLETRAD
 40
10.0
  9
$AUNITS
 70
     0
  9
$AUPREC
 70
     0
  9
$MENU
  1
.
  9
$ELEVATION
 40
0.0
  9
$PELEVATION
 40
0.0
  9
$THICKNESS
 40
0.0
  9
$LIMCHECK
 70
     0
  9
$CHAMFERA
 40
10.0
  9
$CHAMFERB
 40
10.0
  9
$CHAMFERC
 40
20.0
  9
$CHAMFERD
 40
0.0
  9
$SKPOLY
 70
     0
  9
$TDCREATE
 40
2455747.708407963
  9
$TDUCREATE
 40
2455747.62507463
  9
$TDUPDATE
 40
2455747.708407974
  9
$TDUUPDATE
 40
2455747.625074641
  9
$TDINDWG
 40
0.0000000116
  9
$TDUSRTIMER
 40
0.0000000116
  9
$USRTIMER
 70
     1
  9
$ANGBASE
 50
0.0
  9
$ANGDIR
 70
     0
  9
$PDMODE
 70
     0
  9
$PDSIZE
 40
0.0
  9
$PLINEWID
 40
0.0
  9
$SPLFRAME
 70
     0
  9
$SPLINETYPE
 70
     6
  9
$SPLINESEGS
 70
     8
  9
$HANDSEED
  5
1AA
  9
$SURFTAB1
 70
     6
  9
$SURFTAB2
 70
     6
  9
$SURFTYPE
 70
     6
  9
$SURFU
 70
     6
  9
$SURFV
 70
     6
  9
$UCSBASE
  2

  9
$UCSNAME
  2

  9
$UCSORG
 10
0.0
 20
0.0
 30
0.0
  9
$UCSXDIR
 10
1.0
 20
0.0
 30
0.0
  9
$UCSYDIR
 10
0.0
 20
1.0
 30
0.0
  9
$UCSORTHOREF
  2

  9
$UCSORTHOVIEW
 70
     0
  9
$UCSORGTOP
 10
0.0
 20
0.0
 30
0.0
  9
$UCSORGBOTTOM
 10
0.0
 20
0.0
 30
0.0
  9
$UCSORGLEFT
 10
0.0
 20
0.0
 30
0.0
  9
$UCSORGRIGHT
 10
0.0
 20
0.0
 30
0.0
  9
$UCSORGFRONT
 10
0.0
 20
0.0
 30
0.0
  9
$UCSORGBACK
 10
0.0
 20
0.0
 30
0.0
  9
$PUCSBASE
  2

  9
$PUCSNAME
  2

  9
$PUCSORG
 10
0.0
 20
0.0
 30
0.0
  9
$PUCSXDIR
 10
1.0
 20
0.0
 30
0.0
  9
$PUCSYDIR
 10
0.0
 20
1.0
 30
0.0
  9
$PUCSORTHOREF
  2

  9
$PUCSORTHOVIEW
 70
     0
  9
$PUCSORGTOP
 10
0.0
 20
0.0
 30
0.0
  9
$PUCSORGBOTTOM
 10
0.0
 20
0.0
 30
0.0
  9
$PUCSORGLEFT
 10
0.0
 20
0.0
 30
0.0
  9
$PUCSORGRIGHT
 10
0.0
 20
0.0
 30
0.0
  9
$PUCSORGFRONT
 10
0.0
 20
0.0
 30
0.0
  9
$PUCSORGBACK
 10
0.0
 20
0.0
 30
0.0
  9
$USERI1
 70
     0
  9
$USERI2
 70
     0
  9
$USERI3
 70
     0
  9
$USERI4
 70
     0
  9
$USERI5
 70
     0
  9
$USERR1
 40
0.0
  9
$USERR2
 40
0.0
  9
$USERR3
 40
0.0
  9
$USERR4
 40
0.0
  9
$USERR5
 40
0.0
  9
$WORLDVIEW
 70
     1
  9
$SHADEDGE
 70
     3
  9
$SHADEDIF
 70
    70
  9
$TILEMODE
 70
     1
  9
$MAXACTVP
 70
    64
  9
$PINSBASE
 10
0.0
 20
0.0
 30
0.0
  9
$PLIMCHECK
 70
     0
  9
$PEXTMIN
 10
0.0
 20
0.0
 30
0.0
  9
$PEXTMAX
 10
1682.0
 20
2378.0
 30
0.0
  9
$PLIMMIN
 10
0.0
 20
0.0
  9
$PLIMMAX
 10
1682.0
 20
2378.0
  9
$UNITMODE
 70
     0
  9
$VISRETAIN
 70
     1
  9
$PLINEGEN
 70
     0
  9
$PSLTSCALE
 70
     1
  9
$TREEDEPTH
 70
  3020
  9
$CMLSTYLE
  2
Standard
  9
$CMLJUST
 70
     0
  9
$CMLSCALE
 40
20.0
  9
$PROXYGRAPHICS
 70
     1
  9
$MEASUREMENT
 70
     1
  9
$CELWEIGHT
370
    -1
  9
$ENDCAPS
280
     0
  9
$JOINSTYLE
280
     0
  9
$LWDISPLAY
290
     0
  9
$INSUNITS
 70
     4
  9
$HYPERLINKBASE
  1

  9
$STYLESHEET
  1

  9
$XEDIT
290
     1
  9
$CEPSNTYPE
380
     0
  9
$PSTYLEMODE
290
     1
  9
$FINGERPRINTGUID
  2
{6E46B403-BF57-449A-94B6-8CFF3266083E}
  9
$VERSIONGUID
  2
{FAEB1C32-E019-11D5-929B-00C0DF256EC4}
  9
$EXTNAMES
290
     1
  9
$PSVPSCALE
 40
0.0
  9
$OLESTARTUP
290
     0
  0
ENDSEC
  0
SECTION
  2
CLASSES
  0
CLASS
  1
ACDBDICTIONARYWDFLT
  2
AcDbDictionaryWithDefault
  3
ObjectDBX Classes
 90
        0
280
     0
281
     0
  0
CLASS
  1
VISUALSTYLE
  2
AcDbVisualStyle
  3
ObjectDBX Classes
 90
     4095
280
     0
281
     0
  0
CLASS
  1
SCALE
  2
AcDbScale
  3
ObjectDBX Classes
 90
     1153
280
     0
281
     0
  0
CLASS
  1
DICTIONARYVAR
  2
AcDbDictionaryVar
  3
ObjectDBX Classes
 90
        0
280
     0
281
     0
  0
CLASS
  1
ACDBPLACEHOLDER
  2
AcDbPlaceHolder
  3
ObjectDBX Classes
 90
        0
280
     0
281
     0
  0
CLASS
  1
LAYOUT
  2
AcDbLayout
  3
ObjectDBX Classes
 90
        0
280
     0
281
     0
  0
ENDSEC
  0
SECTION
  2
TABLES
  0
TABLE
  2
VPORT
  5
8
330
0
100
AcDbSymbolTable
 70
     1
  0
VPORT
  5
29
330
8
100
AcDbSymbolTableRecord
100
AcDbViewportTableRecord
  2
*Active
 70
     0
 10
0.0
 20
0.0
 11
1.0
 21
1.0
 12
344.1869158879
 22
148.5
 13
0.0
 23
0.0
 14
10.0
 24
10.0
 15
10.0
 25
10.0
 16
0.0
 26
0.0
 36
1.0
 17
0.0
 27
0.0
 37
0.0
 40
297.0
 41
1.9729729729
 42
50.0
 43
0.0
 44
0.0
 50
0.0
 51
0.0
 71
     0
 72
   100
 73
     1
 74
     3
 75
     0
 76
     0
 77
     0
 78
     0
281
     0
 65
     1
110
0.0
120
0.0
130
0.0
111
1.0
121
0.0
131
0.0
112
0.0
122
1.0
132
0.0
 79
     0
146
0.0
  0
ENDTAB
  0
TABLE
  2
LTYPE
  5
5
330
0
100
AcDbSymbolTable
 70
     2
  0
LTYPE
  5
14
330
5
100
AcDbSymbolTableRecord
100
AcDbLinetypeTableRecord
  2
ByBlock
 70
     0
  3

 72
    65
 73
     0
 40
0.0
  0
LTYPE
  5
15
330
5
100
AcDbSymbolTableRecord
100
AcDbLinetypeTableRecord
  2
ByLayer
 70
     0
  3

 72
    65
 73
     0
 40
0.0
  0
LTYPE
  5
16
330
5
100
AcDbSymbolTableRecord
100
AcDbLinetypeTableRecord
  2
Continuous
 70
     0
  3
Solid line
 72
    65
 73
     0
 40
0.0
  0
LTYPE
  5
60
330
5
100
AcDbSymbolTableRecord
100
AcDbLinetypeTableRecord
  2
CENTER2
 70
     0
  3
Center (.5x) ___ _ ___ _ ___ _ ___ _ ___ _ ___
 72
    65
 73
     4
 40
28.575
 49
19.05
 74
     4
 75
     0
340
0
 46
0.0
 50
0.0
 44
0.0
 45
0.0
 49
-3.175
 74
     4
 75
     0
340
0
 46
0.0
 50
0.0
 44
0.0
 45
0.0
 49
3.175
 74
     4
 75
     0
340
0
 46
0.0
 50
0.0
 44
0.0
 45
0.0
 49
-3.175
 74
     4
 75
     0
340
0
 46
0.0
 50
0.0
 44
0.0
 45
0.0
  0
ENDTAB
  0
TABLE
  2
LAYER
  5
2
330
0
100
AcDbSymbolTable
 70
    13
  0
LAYER
  5
10
330
2
100
AcDbSymbolTableRecord
100
AcDbLayerTableRecord
  2
0
 70
     0
 62
     7
  6
Continuous
370
    -3
390
F
  0
LAYER
  5
5D
330
2
100
AcDbSymbolTableRecord
100
AcDbLayerTableRecord
  2
Default
 70
     0
 62
     7
  6
Continuous
370
    -3
390
F
  0
LAYER
  5
77
330
2
100
AcDbSymbolTableRecord
100
AcDbLayerTableRecord
  2
410317038_HANDLE
 70
     0
 62
     7
  6
Continuous
370
    -3
390
F
  0
LAYER
  5
79
330
2
100
AcDbSymbolTableRecord
100
AcDbLayerTableRecord
  2
410250038_BUTTON
 70
     0
 62
     7
  6
Continuous
370
    -3
390
F
  0
LAYER
  5
7F
330
2
100
AcDbSymbolTableRecord
100
AcDbLayerTableRecord
  2
410005038_HANDLE
 70
     0
 62
     7
  6
Continuous
370
    -3
390
F
  0
LAYER
  5
82
330
2
100
AcDbSymbolTableRecord
100
AcDbLayerTableRecord
  2
410307038_LEVER_
 70
     0
 62
     7
  6
Continuous
370
    -3
390
F
  0
LAYER
  5
8C
330
2
100
AcDbSymbolTableRecord
100
AcDbLayerTableRecord
  2
410006038_DECORA
 70
     0
 62
     7
  6
Continuous
370
    -3
390
F
  0
LAYER
  5
8E
330
2
100
AcDbSymbolTableRecord
100
AcDbLayerTableRecord
  2
02080010_M4X55_S
 70
     0
 62
     7
  6
Continuous
370
    -3
390
F
  0
LAYER
  5
B8
330
2
100
AcDbSymbolTableRecord
100
AcDbLayerTableRecord
  2
410278040_ESCUTC
 70
     0
 62
     7
  6
Continuous
370
    -3
390
F
  0
LAYER
  5
D4
330
2
100
AcDbSymbolTableRecord
100
AcDbLayerTableRecord
  2
410290038_SLEEVE
 70
     0
 62
     7
  6
Continuous
370
    -3
390
F
  0
LAYER
  5
ED
330
2
100
AcDbSymbolTableRecord
100
AcDbLayerTableRecord
  2
410310038_RING_K
 70
     0
 62
     7
  6
Continuous
370
    -3
390
F
  0
LAYER
  5
119
330
2
100
AcDbSymbolTableRecord
100
AcDbLayerTableRecord
  2
410228031_BEARIN
 70
     0
 62
     7
  6
Continuous
370
    -3
390
F
  0
LAYER
  5
11D
330
2
100
AcDbSymbolTableRecord
100
AcDbLayerTableRecord
  2
12080006_MP_HE_P
 70
     0
 62
     7
  6
Continuous
370
    -3
390
F
  0
ENDTAB
  0
TABLE
  2
STYLE
  5
3
330
0
100
AcDbSymbolTable
 70
     2
  0
STYLE
  5
11
330
3
100
AcDbSymbolTableRecord
100
AcDbTextStyleTableRecord
  2
Standard
 70
     0
 40
0.0
 41
1.0
 50
0.0
 71
     0
 42
2.5
  3
txt
  4

  0
STYLE
  5
199
330
3
100
AcDbSymbolTableRecord
100
AcDbTextStyleTableRecord
  2
SEACAD_seiso_ttf
 70
     0
 40
0.0
 41
1.0
 50
0.0
 71
     0
 42
0.2
  3
seiso.ttf
  4

  0
ENDTAB
  0
TABLE
  2
VIEW
  5
6
330
0
100
AcDbSymbolTable
 70
     0
  0
ENDTAB
  0
TABLE
  2
UCS
  5
7
330
0
100
AcDbSymbolTable
 70
     0
  0
ENDTAB
  0
TABLE
  2
APPID
  5
9
330
0
100
AcDbSymbolTable
 70
     1
  0
APPID
  5
12
330
9
100
AcDbSymbolTableRecord
100
AcDbRegAppTableRecord
  2
ACAD
 70
     0
  0
ENDTAB
  0
TABLE
  2
DIMSTYLE
  5
A
330
0
100
AcDbSymbolTable
 70
     1
100
AcDbDimStyleTable
  0
DIMSTYLE
105
27
330
A
100
AcDbSymbolTableRecord
100
AcDbDimStyleTableRecord
  2
ISO-25
 70
     0
 41
2.5
 42
0.625
 43
3.75
 44
1.25
 73
     0
 74
     0
 77
     1
 78
     8
140
2.5
141
2.5
143
0.0393700787
147
0.625
171
     3
172
     1
271
     2
272
     2
274
     3
278
    44
283
     0
284
     8
340
11
  0
ENDTAB
  0
TABLE
  2
BLOCK_RECORD
  5
1
330
0
100
AcDbSymbolTable
 70
     7
  0
BLOCK_RECORD
  5
1F
330
1
100
AcDbSymbolTableRecord
100
AcDbBlockTableRecord
  2
*Model_Space
340
22
  0
BLOCK_RECORD
  5
1B
330
1
100
AcDbSymbolTableRecord
100
AcDbBlockTableRecord
  2
*Paper_Space
340
1E
  0
BLOCK_RECORD
  5
5E
330
1
100
AcDbSymbolTableRecord
100
AcDbBlockTableRecord
  2
SEANNOT_GROUP
340
0
102
{BLKREFS
331
5F
102
}
  0
BLOCK_RECORD
  5
65
330
1
100
AcDbSymbolTableRecord
100
AcDbBlockTableRecord
  2
SEANNOT_GROUP1
340
0
102
{BLKREFS
331
66
102
}
  0
BLOCK_RECORD
  5
6B
330
1
100
AcDbSymbolTableRecord
100
AcDbBlockTableRecord
  2
SEANNOT_GROUP2
340
0
102
{BLKREFS
331
6C
102
}
  0
BLOCK_RECORD
  5
75
330
1
100
AcDbSymbolTableRecord
100
AcDbBlockTableRecord
  2
SE
340
0
102
{BLKREFS
331
76
102
}
  0
BLOCK_RECORD
  5
D2
330
1
100
AcDbSymbolTableRecord
100
AcDbBlockTableRecord
  2
SE1
340
0
102
{BLKREFS
331
D3
102
}
  0
BLOCK_RECORD
  5
13B
330
1
100
AcDbSymbolTableRecord
100
AcDbBlockTableRecord
  2
SE2
340
0
102
{BLKREFS
331
13C
102
}
  0
ENDTAB
  0
ENDSEC
  0
SECTION
  2
BLOCKS
  0
BLOCK
  5
20
330
1F
100
AcDbEntity
  8
0
100
AcDbBlockBegin
  2
*Model_Space
 70
     0
 10
0.0
 20
0.0
 30
0.0
  3
*Model_Space
  1

  0
ENDBLK
  5
21
330
1F
100
AcDbEntity
  8
0
100
AcDbBlockEnd
  0
BLOCK
  5
1C
330
1B
100
AcDbEntity
 67
     1
  8
0
100
AcDbBlockBegin
  2
*Paper_Space
 70
     0
 10
0.0
 20
0.0
 30
0.0
  3
*Paper_Space
  1

  0
ENDBLK
  5
1D
330
1B
100
AcDbEntity
 67
     1
  8
0
100
AcDbBlockEnd
  0
BLOCK
  5
63
330
5E
100
AcDbEntity
  8
0
100
AcDbBlockBegin
  2
SEANNOT_GROUP
 70
     0
 10
0.0
 20
0.0
 30
0.0
  3
SEANNOT_GROUP
  1

  0
LINE
  5
61
330
5E
100
AcDbEntity
  8
Default
  6
CENTER2
 62
     7
100
AcDbLine
 10
121.149998428
 20
231.0000005819
 30
0.0
 11
81.149999322
 21
231.0000005819
 31
0.0
  0
LINE
  5
62
330
5E
100
AcDbEntity
  8
Default
  6
CENTER2
 62
     7
100
AcDbLine
 10
101.149998875
 20
251.0000001349
 30
0.0
 11
101.149998875
 21
211.0000010289
 31
0.0
  0
ENDBLK
  5
64
330
5E
100
AcDbEntity
  8
0
100
AcDbBlockEnd
  0
BLOCK
  5
69
330
65
100
AcDbEntity
  8
0
100
AcDbBlockBegin
  2
SEANNOT_GROUP1
 70
     0
 10
0.0
 20
0.0
 30
0.0
  3
SEANNOT_GROUP1
  1

  0
LINE
  5
67
330
65
100
AcDbEntity
  8
Default
  6
CENTER2
 62
     7
100
AcDbLine
 10
294.8550058059
 20
362.5406089395
 30
0.0
 11
254.8550067
 21
362.5406089395
 31
0.0
  0
LINE
  5
68
330
65
100
AcDbEntity
  8
Default
  6
CENTER2
 62
     7
100
AcDbLine
 10
274.855006253
 20
382.5406084925
 30
0.0
 11
274.855006253
 21
342.5406093865
 31
0.0
  0
ENDBLK
  5
6A
330
65
100
AcDbEntity
  8
0
100
AcDbBlockEnd
  0
BLOCK
  5
73
330
6B
100
AcDbEntity
  8
0
100
AcDbBlockBegin
  2
SEANNOT_GROUP2
 70
     0
 10
0.0
 20
0.0
 30
0.0
  3
SEANNOT_GROUP2
  1

  0
LINE
  5
6D
330
6B
100
AcDbEntity
  8
Default
  6
CENTER2
 62
     7
100
AcDbLine
 10
121.149994553
 20
362.5406089388
 30
0.0
 11
81.149995447
 21
362.5406089388
 31
0.0
  0
LINE
  5
6E
330
6B
100
AcDbEntity
  8
Default
  6
CENTER2
 62
     7
100
AcDbLine
 10
101.149995
 20
382.5406084918
 30
0.0
 11
101.149995
 21
342.5406093859
 31
0.0
  0
LINE
  5
6F
330
6B
100
AcDbEntity
  8
Default
  6
CENTER2
 62
     7
100
AcDbLine
 10
126.1499944412
 20
362.5406089388
 30
0.0
 11
113.649995
 21
362.5406089388
 31
0.0
  0
LINE
  5
70
330
6B
100
AcDbEntity
  8
Default
  6
CENTER2
 62
     7
100
AcDbLine
 10
101.149995
 20
387.54060838
 30
0.0
 11
101.149995
 21
375.0406089388
 31
0.0
  0
LINE
  5
71
330
6B
100
AcDbEntity
  8
Default
  6
CENTER2
 62
     7
100
AcDbLine
 10
76.1499955588
 20
362.5406089388
 30
0.0
 11
88.649995
 21
362.5406089388
 31
0.0
  0
LINE
  5
72
330
6B
100
AcDbEntity
  8
Default
  6
CENTER2
 62
     7
100
AcDbLine
 10
101.149995
 20
337.5406094976
 30
0.0
 11
101.149995
 21
350.0406089388
 31
0.0
  0
ENDBLK
  5
74
330
6B
100
AcDbEntity
  8
0
100
AcDbBlockEnd
  0
BLOCK
  5
D0
330
75
100
AcDbEntity
  8
0
100
AcDbBlockBegin
  2
SE
 70
     0
 10
0.0
 20
0.0
 30
0.0
  3
SE
  1

  0
ARC
  5
78
330
75
100
AcDbEntity
  8
410317038_HANDLE
  6
Continuous
 62
     7
100
AcDbCircle
 10
101.1497029036
 20
363.9184296285
 30
0.0
 40
30.23143959785048
100
AcDbArc
 50
74.1607200293
 51
105.8357906565
  0
ARC
  5
7A
330
75
100
AcDbEntity
  8
410250038_BUTTON
  6
Continuous
 62
     7
100
AcDbCircle
 10
101.149995
 20
358.701247017
 30
0.0
 40
39.99999999999999
100
AcDbArc
 50
79.7745231662
 51
100.2254768338
  0
LINE
  5
7B
330
75
100
AcDbEntity
  8
410250038_BUTTON
  6
Continuous
 62
     7
100
AcDbLine
 10
93.349995
 20
397.2294185282
 30
0.0
 11
93.349995
 21
393.0737500814
 31
0.0
  0
LINE
  5
7C
330
75
100
AcDbEntity
  8
410250038_BUTTON
  6
Continuous
 62
     7
100
AcDbLine
 10
108.949995
 20
393.0736451497
 30
0.0
 11
108.949995
 21
397.2294185282
 31
0.0
  0
ARC
  5
7D
330
75
100
AcDbEntity
  8
410250038_BUTTON
  6
Continuous
 62
     7
100
AcDbCircle
 10
108.099995
 20
397.2294185282
 30
0.0
 40
0.8500000000000001
100
AcDbArc
 50
0.0
 51
79.7745231662
  0
ARC
  5
7E
330
75
100
AcDbEntity
  8
410250038_BUTTON
  6
Continuous
 62
     7
100
AcDbCircle
 10
94.199995
 20
397.2294185282
 30
0.0
 40
0.8499999999999973
100
AcDbArc
 50
100.2254768338
 51
180.0
  0
ARC
  5
80
330
75
100
AcDbEntity
  8
410005038_HANDLE
  6
Continuous
 62
     7
100
AcDbCircle
 10
101.156798606
 20
-334.1452453081
 30
0.0
 40
683.5621545245849
100
AcDbArc
 50
89.5395903503
 51
90.4610706023
  0
ARC
  5
81
330
75
100
AcDbEntity
  8
410005038_HANDLE
  6
Continuous
 62
     7
100
AcDbCircle
 10
101.149995
 20
362.5406089388
 30
0.0
 40
14.25
100
AcDbArc
 50
292.6355604218
 51
247.3330762468
  0
LINE
  5
83
330
75
100
AcDbEntity
  8
410307038_LEVER_
  6
Continuous
 62
     7
100
AcDbLine
 10
107.0464397391
 20
341.1906089388
 30
0.0
 11
95.253550261
 21
341.1906089388
 31
0.0
  0
ARC
  5
84
330
75
100
AcDbEntity
  8
410307038_LEVER_
  6
Continuous
 62
     7
100
AcDbCircle
 10
-4.6319693926
 20
329.5940795926
 30
0.0
 40
100.0
100
AcDbArc
 50
346.0429344828
 51
6.3391368539
  0
ARC
  5
85
330
75
100
AcDbEntity
  8
410307038_LEVER_
  6
Continuous
 62
     7
100
AcDbCircle
 10
206.9319593926
 20
329.5940795926
 30
0.0
 40
100.0
100
AcDbArc
 50
173.6608631461
 51
193.9570655172
  0
ARC
  5
86
330
75
100
AcDbEntity
  8
410307038_LEVER_
  6
Continuous
 62
     7
100
AcDbCircle
 10
101.149995
 20
303.3038530962
 30
0.0
 40
8.99999999999999
100
AcDbArc
 50
166.0429344828
 51
180.0
  0
ARC
  5
87
330
75
100
AcDbEntity
  8
410307038_LEVER_
  6
Continuous
 62
     7
100
AcDbCircle
 10
101.149995
 20
303.3038530962
 30
0.0
 40
9.0
100
AcDbArc
 50
180.0
 51
13.9570655172
  0
ARC
  5
88
330
75
100
AcDbEntity
  8
410307038_LEVER_
  6
Continuous
 62
     7
100
AcDbCircle
 10
107.0464397391
 20
340.6906089388
 30
0.0
 40
0.4999999999999974
100
AcDbArc
 50
353.6608631461
 51
90.0
  0
ARC
  5
89
330
75
100
AcDbEntity
  8
410307038_LEVER_
  6
Continuous
 62
     7
100
AcDbCircle
 10
95.253550261
 20
340.6906089388
 30
0.0
 40
0.4999999999999935
100
AcDbArc
 50
90.0
 51
186.3391368539
  0
LINE
  5
8A
330
75
100
AcDbEntity
  8
410307038_LEVER_
  6
Continuous
 62
     7
100
AcDbLine
 10
106.499995
 20
341.1906089388
 30
0.0
 11
106.499995
 21
349.3979907147
 31
0.0
  0
LINE
  5
8B
330
75
100
AcDbEntity
  8
410307038_LEVER_
  6
Continuous
 62
     7
100
AcDbLine
 10
95.799995
 20
349.3979731095
 30
0.0
 11
95.799995
 21
341.1906089388
 31
0.0
  0
CIRCLE
  5
8D
330
75
100
AcDbEntity
  8
410006038_DECORA
  6
Continuous
 62
     7
100
AcDbCircle
 10
101.149995
 20
362.5406089388
 30
0.0
 40
8.999999999999996
  0
ARC
  5
8F
330
75
100
AcDbEntity
  8
02080010_M4X55_S
  6
Continuous
 62
     7
100
AcDbCircle
 10
60.149995
 20
362.5406089388
 30
0.0
 40
2.359581272915712
100
AcDbArc
 50
258.9029606255
 51
281.0970393745
  0
ARC
  5
90
330
75
100
AcDbEntity
  8
02080010_M4X55_S
  6
Continuous
 62
     7
100
AcDbCircle
 10
60.149995
 20
362.5406089388
 30
0.0
 40
2.359581272915713
100
AcDbArc
 50
78.9029606255
 51
101.0970393745
  0
ELLIPSE
  5
91
330
75
100
AcDbEntity
  8
02080010_M4X55_S
  6
Continuous
 62
     7
100
AcDbEllipse
 10
60.1622274914
 20
362.5406089388
 30
0.0
 11
0.0
 21
1.543768918894152
 31
0.0
210
0.0
220
0.0
230
1.0
 40
1.0
 41
-0.3084064732194429
 42
-0.1885875889198048
  0
ELLIPSE
  5
92
330
75
100
AcDbEntity
  8
02080010_M4X55_S
  6
Continuous
 62
     7
100
AcDbEllipse
 10
60.6438408032
 20
362.7451665682
 30
0.0
 11
-2.123224080502237
 21
5.125916371111488
 31
0.0
210
0.0
220
0.0
230
0.9999999999999999
 40
0.0871557427
 41
-1.494819759406458
 42
-1.357409741809957
  0
ELLIPSE
  5
93
330
75
100
AcDbEntity
  8
02080010_M4X55_S
  6
Continuous
 62
     7
100
AcDbEllipse
 10
60.3545526294
 20
363.0344547421
 30
0.0
 11
5.125916371029986
 21
-2.123224080470736
 31
0.0
210
0.0
220
0.0
230
1.0
 40
0.0871557427
 41
1.357409741811022
 42
1.494819759409684
  0
ELLIPSE
  5
94
330
75
100
AcDbEntity
  8
02080010_M4X55_S
  6
Continuous
 62
     7
100
AcDbEllipse
 10
60.149995
 20
362.5528414302
 30
0.0
 11
5.574124406165088
 21
1.744505012451700E-12
 31
0.0
210
0.0
220
0.0
230
1.0
 40
0.0871557427
 41
1.142419358106004
 42
1.303747867342091
  0
ARC
  5
95
330
75
100
AcDbEntity
  8
02080010_M4X55_S
  6
Continuous
 62
     7
100
AcDbCircle
 10
60.149995
 20
362.5406089388
 30
0.0
 40
2.359581272915716
100
AcDbArc
 50
348.9029606255
 51
11.0970393745
  0
ELLIPSE
  5
96
330
75
100
AcDbEntity
  8
02080010_M4X55_S
  6
Continuous
 62
     7
100
AcDbEllipse
 10
60.149995
 20
362.5283764475
 30
0.0
 11
5.574124406183858
 21
-2.647836851578204E-12
 31
0.0
210
0.0
220
0.0
230
1.0
 40
0.0871557427
 41
-1.303747867340771
 42
-1.142419358105165
  0
ELLIPSE
  5
97
330
75
100
AcDbEntity
  8
02080010_M4X55_S
  6
Continuous
 62
     7
100
AcDbEllipse
 10
60.3545526295
 20
362.0467631356
 30
0.0
 11
5.125916370954775
 21
2.12322408044203
 31
0.0
210
0.0
220
0.0
230
0.9999999999999999
 40
0.0871557427
 41
-1.494819759413112
 42
-1.357409741812478
  0
ELLIPSE
  5
98
330
75
100
AcDbEntity
  8
02080010_M4X55_S
  6
Continuous
 62
     7
100
AcDbEllipse
 10
60.6438408032
 20
362.3360513094
 30
0.0
 11
-2.123224080482718
 21
-5.125916371060579
 31
0.0
210
0.0
220
0.0
230
1.0
 40
0.0871557427
 41
1.357409741810903
 42
1.494819759408748
  0
ELLIPSE
  5
99
330
75
100
AcDbEntity
  8
02080010_M4X55_S
  6
Continuous
 62
     7
100
AcDbEllipse
 10
60.1622274914
 20
362.5406089388
 30
0.0
 11
1.339206523454095E-12
 21
-5.574124406155376
 31
0.0
210
0.0
220
0.0
230
1.0
 40
0.0871557427
 41
1.142419358105787
 42
1.303747867342299
  0
ELLIPSE
  5
9A
330
75
100
AcDbEntity
  8
02080010_M4X55_S
  6
Continuous
 62
     7
100
AcDbEllipse
 10
60.1377625086
 20
362.5406089388
 30
0.0
 11
-6.314393452555578E-13
 21
-5.574124406143664
 31
0.0
210
0.0
220
0.0
230
1.0
 40
0.0871557427
 41
-1.303747867343448
 42
-1.142419358106789
  0
ELLIPSE
  5
9B
330
75
100
AcDbEntity
  8
02080010_M4X55_S
  6
Continuous
 62
     7
100
AcDbEllipse
 10
59.6561491968
 20
362.3360513094
 30
0.0
 11
2.123224080458126
 21
-5.125916370996917
 31
0.0
210
0.0
220
0.0
230
1.0
 40
0.0871557427
 41
-1.494819759411473
 42
-1.357409741812067
  0
ELLIPSE
  5
9C
330
75
100
AcDbEntity
  8
02080010_M4X55_S
  6
Continuous
 62
     7
100
AcDbEllipse
 10
59.9454373706
 20
362.0467631356
 30
0.0
 11
-5.125916370956523
 21
2.123224080442665
 31
0.0
210
0.0
220
0.0
230
0.9999999999999999
 40
0.0871557427
 41
1.357409741812413
 42
1.49481975941292
  0
ELLIPSE
  5
9D
330
75
100
AcDbEntity
  8
02080010_M4X55_S
  6
Continuous
 62
     7
100
AcDbEllipse
 10
60.1499950001
 20
362.5283764475
 30
0.0
 11
-5.574124406212334
 21
-4.222272894814291E-12
 31
0.0
210
0.0
220
0.0
230
1.0
 40
0.0871557427
 41
1.142419358104168
 42
1.303747867338994
  0
ARC
  5
9E
330
75
100
AcDbEntity
  8
02080010_M4X55_S
  6
Continuous
 62
     7
100
AcDbCircle
 10
60.149995
 20
362.5406089388
 30
0.0
 40
2.359581272915713
100
AcDbArc
 50
168.9029606255
 51
191.0970393745
  0
ELLIPSE
  5
9F
330
75
100
AcDbEntity
  8
02080010_M4X55_S
  6
Continuous
 62
     7
100
AcDbEllipse
 10
60.149995
 20
362.5528414302
 30
0.0
 11
-5.574124406129533
 21
-5.751523118446150E-14
 31
0.0
210
0.0
220
0.0
230
1.0
 40
0.0871557427
 41
-1.303747867344182
 42
-1.142419358107079
  0
ELLIPSE
  5
A0
330
75
100
AcDbEntity
  8
02080010_M4X55_S
  6
Continuous
 62
     7
100
AcDbEllipse
 10
59.9454373706
 20
363.0344547421
 30
0.0
 11
-5.125916371062925
 21
-2.12322408048363
 31
0.0
210
0.0
220
0.0
230
0.9999999999999998
 40
0.0871557427
 41
-1.494819759408722
 42
-1.357409741811128
  0
ELLIPSE
  5
A1
330
75
100
AcDbEntity
  8
02080010_M4X55_S
  6
Continuous
 62
     7
100
AcDbEllipse
 10
59.6561491968
 20
362.7451665683
 30
0.0
 11
2.123224080462546
 21
5.12591637100849
 31
0.0
210
0.0
220
0.0
230
0.9999999999999997
 40
0.0871557427
 41
1.357409741811557
 42
1.494819759410772
  0
ELLIPSE
  5
A2
330
75
100
AcDbEntity
  8
02080010_M4X55_S
  6
Continuous
 62
     7
100
AcDbEllipse
 10
60.1377625086
 20
362.5406089388
 30
0.0
 11
0.0
 21
2.357257433288123
 31
0.0
210
0.0
220
0.0
230
1.0
 40
1.0
 41
0.1885875889192725
 42
0.3084064732199041
  0
CIRCLE
  5
A3
330
75
100
AcDbEntity
  8
02080010_M4X55_S
  6
Continuous
 62
     7
100
AcDbCircle
 10
142.1499988749
 20
362.5406089388
 30
0.0
 40
3.75
  0
ARC
  5
A4
330
75
100
AcDbEntity
  8
02080010_M4X55_S
  6
Continuous
 62
     7
100
AcDbCircle
 10
142.1499988749
 20
362.5406089388
 30
0.0
 40
2.359581272915712
100
AcDbArc
 50
258.9029606255
 51
281.0970393745
  0
ARC
  5
A5
330
75
100
AcDbEntity
  8
02080010_M4X55_S
  6
Continuous
 62
     7
100
AcDbCircle
 10
142.1499988749
 20
362.5406089388
 30
0.0
 40
2.359581272915713
100
AcDbArc
 50
78.9029606255
 51
101.0970393745
  0
ELLIPSE
  5
A6
330
75
100
AcDbEntity
  8
02080010_M4X55_S
  6
Continuous
 62
     7
100
AcDbEllipse
 10
142.1622313662
 20
362.5406089388
 30
0.0
 11
0.0
 21
1.543768918883048
 31
0.0
210
0.0
220
0.0
230
1.0
 40
1.0
 41
-0.308406473220034
 42
-0.1885875889196513
  0
ELLIPSE
  5
A7
330
75
100
AcDbEntity
  8
02080010_M4X55_S
  6
Continuous
 62
     7
100
AcDbEllipse
 10
142.6438446781
 20
362.7451665683
 30
0.0
 11
-2.123224080462498
 21
5.125916371007992
 31
0.0
210
0.0
220
0.0
230
1.0
 40
0.0871557427
 41
-1.494819759410913
 42
-1.357409741811884
  0
ELLIPSE
  5
A8
330
75
100
AcDbEntity
  8
02080010_M4X55_S
  6
Continuous
 62
     7
100
AcDbEllipse
 10
142.3545565043
 20
363.0344547421
 30
0.0
 11
5.125916370982579
 21
-2.123224080452606
 31
0.0
210
0.0
220
0.0
230
0.9999999999999999
 40
0.0871557427
 41
1.357409741812326
 42
1.494819759412004
  0
ELLIPSE
  5
A9
330
75
100
AcDbEntity
  8
02080010_M4X55_S
  6
Continuous
 62
     7
100
AcDbEllipse
 10
142.1499988749
 20
362.5528414302
 30
0.0
 11
5.574124406108299
 21
-1.092350629438091E-12
 31
0.0
210
0.0
220
0.0
230
1.0
 40
0.0871557427
 41
1.142419358108297
 42
1.30374786734582
  0
ARC
  5
AA
330
75
100
AcDbEntity
  8
02080010_M4X55_S
  6
Continuous
 62
     7
100
AcDbCircle
 10
142.1499988749
 20
362.5406089388
 30
0.0
 40
2.35958127291571
100
AcDbArc
 50
348.9029606255
 51
11.0970393745
  0
ELLIPSE
  5
AB
330
75
100
AcDbEntity
  8
02080010_M4X55_S
  6
Continuous
 62
     7
100
AcDbEllipse
 10
142.1499988748
 20
362.5283764475
 30
0.0
 11
5.57412440617102
 21
-2.041283334312978E-12
 31
0.0
210
0.0
220
0.0
230
1.0
 40
0.0871557427
 41
-1.303747867341533
 42
-1.142419358105594
  0
ELLIPSE
  5
AC
330
75
100
AcDbEntity
  8
02080010_M4X55_S
  6
Continuous
 62
     7
100
AcDbEllipse
 10
142.3545565043
 20
362.0467631356
 30
0.0
 11
5.125916370954976
 21
2.123224080442229
 31
0.0
210
0.0
220
0.0
230
1.0
 40
0.0871557427
 41
-1.494819759413136
 42
-1.35740974181258
  0
ELLIPSE
  5
AD
330
75
100
AcDbEntity
  8
02080010_M4X55_S
  6
Continuous
 62
     7
100
AcDbEllipse
 10
142.6438446781
 20
362.3360513094
 30
0.0
 11
-2.123224080458355
 21
-5.125916370997929
 31
0.0
210
0.0
220
0.0
230
1.0
 40
0.0871557427
 41
1.357409741811705
 42
1.49481975941116
  0
ELLIPSE
  5
AE
330
75
100
AcDbEntity
  8
02080010_M4X55_S
  6
Continuous
 62
     7
100
AcDbEllipse
 10
142.1622313662
 20
362.5406089388
 30
0.0
 11
1.484923295436147E-12
 21
-5.574124406158563
 31
0.0
210
0.0
220
0.0
230
1.0
 40
0.0871557427
 41
1.14241935810581
 42
1.303747867342199
  0
ELLIPSE
  5
AF
330
75
100
AcDbEntity
  8
02080010_M4X55_S
  6
Continuous
 62
     7
100
AcDbEllipse
 10
142.1377663835
 20
362.5406089388
 30
0.0
 11
-4.718447854656915E-13
 21
-5.574124406145111
 31
0.0
210
0.0
220
0.0
230
1.0
 40
0.0871557427
 41
-1.3037478673433
 42
-1.142419358106642
  0
ELLIPSE
  5
B0
330
75
100
AcDbEntity
  8
02080010_M4X55_S
  6
Continuous
 62
     7
100
AcDbEllipse
 10
141.6561530716
 20
362.3360513094
 30
0.0
 11
2.123224080465343
 21
-5.125916371015387
 31
0.0
210
0.0
220
0.0
230
1.0
 40
0.0871557427
 41
-1.494819759410454
 42
-1.357409741811441
  0
ELLIPSE
  5
B1
330
75
100
AcDbEntity
  8
02080010_M4X55_S
  6
Continuous
 62
     7
100
AcDbEllipse
 10
141.9454412454
 20
362.0467631356
 30
0.0
 11
-5.125916370954712
 21
2.123224080441936
 31
0.0
210
0.0
220
0.0
230
1.0
 40
0.0871557427
 41
1.357409741812547
 42
1.494819759413036
  0
ELLIPSE
  5
B2
330
75
100
AcDbEntity
  8
02080010_M4X55_S
  6
Continuous
 62
     7
100
AcDbEllipse
 10
142.1499988749
 20
362.5283764475
 30
0.0
 11
-5.574124406186217
 21
-2.891392705231706E-12
 31
0.0
210
0.0
220
0.0
230
1.0
 40
0.0871557427
 41
1.142419358105094
 42
1.303747867340638
  0
ARC
  5
B3
330
75
100
AcDbEntity
  8
02080010_M4X55_S
  6
Continuous
 62
     7
100
AcDbCircle
 10
142.1499988749
 20
362.5406089388
 30
0.0
 40
2.359581272915713
100
AcDbArc
 50
168.9029606255
 51
191.0970393745
  0
ELLIPSE
  5
B4
330
75
100
AcDbEntity
  8
02080010_M4X55_S
  6
Continuous
 62
     7
100
AcDbEllipse
 10
142.1499988748
 20
362.5528414302
 30
0.0
 11
-5.574124406112463
 21
-9.440588772963859E-13
 31
0.0
210
0.0
220
0.0
230
1.0
 40
0.0871557427
 41
-1.303747867345456
 42
-1.142419358107946
  0
ELLIPSE
  5
B5
330
75
100
AcDbEntity
  8
02080010_M4X55_S
  6
Continuous
 62
     7
100
AcDbEllipse
 10
141.9454412454
 20
363.0344547421
 30
0.0
 11
-5.125916371058296
 21
-2.123224080481889
 31
0.0
210
0.0
220
0.0
230
1.0
 40
0.0871557427
 41
-1.494819759408839
 42
-1.357409741811005
  0
ELLIPSE
  5
B6
330
75
100
AcDbEntity
  8
02080010_M4X55_S
  6
Continuous
 62
     7
100
AcDbEllipse
 10
141.6561530716
 20
362.7451665682
 30
0.0
 11
2.123224080475723
 21
5.125916371042586
 31
0.0
210
0.0
220
0.0
230
1.0
 40
0.0871557427
 41
1.357409741811268
 42
1.494819759409423
  0
ELLIPSE
  5
B7
330
75
100
AcDbEntity
  8
02080010_M4X55_S
  6
Continuous
 62
     7
100
AcDbEllipse
 10
142.1377663835
 20
362.5406089388
 30
0.0
 11
0.0
 21
2.35725743329387
 31
0.0
210
0.0
220
0.0
230
1.0
 40
1.0
 41
0.1885875889198259
 42
0.3084064732203853
  0
SPLINE
  5
B9
330
75
100
AcDbEntity
  8
410278040_ESCUTC
  6
Continuous
 62
     7
100
AcDbSpline
210
0.0
220
0.0
230
1.0
 70
     8
 71
     3
 72
    20
 73
    16
 74
     0
 42
0.000000000162968
 43
0.0000000001
 40
0.0
 40
0.0
 40
0.0
 40
0.0
 40
0.0624999999999998
 40
0.0624999999999998
 40
0.1249999999999997
 40
0.1249999999999997
 40
0.1562499999999996
 40
0.1562499999999996
 40
0.1874999999999995
 40
0.1874999999999995
 40
0.2499999999999994
 40
0.2499999999999994
 40
0.4999999999999996
 40
0.4999999999999996
 40
1.0
 40
1.0
 40
1.0
 40
1.0
 10
23.54348391695155
 20
306.4977045110963
 30
0.0
 10
22.28969882400724
 20
306.7333727013487
 30
0.0
 10
21.06653753908977
 20
307.2199380042589
 30
0.0
 10
18.92813239844686
 20
308.5895609619427
 30
0.0
 10
17.98406211269557
 20
309.4877458344443
 30
0.0
 10
16.87767878643676
 20
311.0406248126948
 30
0.0
 10
16.56047858496541
 20
311.5893121672403
 30
0.0
 10
16.0303407666357
 20
312.7494556798344
 30
0.0
 10
15.80529915532657
 20
313.3537088368784
 30
0.0
 10
15.10037401895327
 20
315.1442644644864
 30
0.0
 10
14.64795953575453
 20
316.3442220628287
 30
0.0
 10
12.4734278227242
 20
322.3752311929737
 30
0.0
 10
11.01377499894818
 20
327.306947922307
 30
0.0
 10
7.526552002735124
 20
342.18184483242
 30
0.0
 10
6.350003874912233
 20
352.2722009151998
 30
0.0
 10
6.350003874859151
 20
362.5406089395071
 30
0.0
  0
SPLINE
  5
BA
330
75
100
AcDbEntity
  8
410278040_ESCUTC
  6
Continuous
 62
     7
100
AcDbSpline
210
0.0
220
0.0
230
1.0
 70
     8
 71
     3
 72
    28
 73
    24
 74
     0
 42
0.0000000001250032
 43
0.0000000001
 40
0.0
 40
0.0
 40
0.0
 40
0.0
 40
0.5000000000000003
 40
0.5000000000000003
 40
0.5625000000000004
 40
0.5625000000000004
 40
0.5937500000000006
 40
0.5937500000000006
 40
0.6250000000000006
 40
0.6250000000000006
 40
0.6562500000000006
 40
0.6562500000000006
 40
0.6875000000000006
 40
0.6875000000000006
 40
0.7500000000000004
 40
0.7500000000000004
 40
0.8750000000000004
 40
0.8750000000000004
 40
0.9375000000000004
 40
0.9375000000000004
 40
0.9687500000000002
 40
0.9687500000000002
 40
1.0
 40
1.0
 40
1.0
 40
1.0
 10
101.1499988750135
 20
290.3406089315117
 30
0.0
 10
87.78936980018906
 20
290.3413923157679
 30
0.0
 10
74.6649492055389
 20
291.6799633913961
 30
0.0
 10
60.15465208822366
 20
294.6281938110041
 30
0.0
 10
58.54597289386711
 20
294.9760275239001
 30
0.0
 10
56.13838099970643
 20
295.528517842586
 30
0.0
 10
55.33654807091403
 20
295.7165880098553
 30
0.0
 10
53.73500944944777
 20
296.1049011727029
 30
0.0
 10
52.93304787226794
 20
296.2924801173328
 30
0.0
 10
51.37608170785472
 20
296.938079505785
 30
0.0
 10
50.61641183097902
 20
297.3688325746739
 30
0.0
 10
49.07818740903502
 20
298.1213896852375
 30
0.0
 10
48.30767808250512
 20
298.4894964870489
 30
0.0
 10
45.99003405918898
 20
299.5582173017909
 30
0.0
 10
44.43889794524941
 20
300.2251050204013
 30
0.0
 10
39.75027443132082
 20
302.1091594257766
 30
0.0
 10
36.57578683261385
 20
303.2075658456547
 30
0.0
 10
31.741113104094
 20
304.6193431980574
 30
0.0
 10
30.11742408812012
 20
305.0507116350829
 30
0.0
 10
27.66357637274033
 20
305.6385501465127
 30
0.0
 10
26.8422144988764
 20
305.8246889580681
 30
0.0
 10
25.19580663574116
 20
306.1765080148469
 30
0.0
 10
24.3499426845644
 20
306.3461181831474
 30
0.0
 10
23.54348391695155
 20
306.4977045110963
 30
0.0
  0
SPLINE
  5
BB
330
75
100
AcDbEntity
  8
410278040_ESCUTC
  6
Continuous
 62
     7
100
AcDbSpline
210
0.0
220
0.0
230
1.0
 70
     8
 71
     3
 72
    24
 73
    20
 74
     0
 42
0.0000000001250433
 43
0.0000000001
 40
0.0
 40
0.0
 40
0.0
 40
0.0
 40
0.2500000000000004
 40
0.2500000000000004
 40
0.3125000000000006
 40
0.3125000000000006
 40
0.3437500000000005
 40
0.3437500000000005
 40
0.3750000000000004
 40
0.3750000000000004
 40
0.4062500000000004
 40
0.4062500000000004
 40
0.4375000000000003
 40
0.4375000000000003
 40
0.5000000000000002
 40
0.5000000000000002
 40
0.7500000000000001
 40
0.7500000000000001
 40
1.0
 40
1.0
 40
1.0
 40
1.0
 10
178.756513832767
 20
306.4977045110963
 30
0.0
 10
172.2592412537947
 20
305.2764422079476
 30
0.0
 10
165.8930486327757
 20
303.430150401828
 30
0.0
 10
158.1745755427956
 20
300.3560351814385
 30
0.0
 10
156.6420924098709
 20
299.7031640489627
 30
0.0
 10
154.3614526532894
 20
298.6625207204867
 30
0.0
 10
153.6044594275072
 20
298.304724627021
 30
0.0
 10
152.0953430235016
 20
297.5725551030441
 30
0.0
 10
151.3510999241816
 20
297.171908459961
 30
0.0
 10
149.8367236772153
 20
296.4564507283322
 30
0.0
 10
149.0414099066755
 20
296.2261487939838
 30
0.0
 10
147.4327474506605
 20
295.8271458081076
 30
0.0
 10
146.6254441613323
 20
295.6375865694403
 30
0.0
 10
144.2015485428402
 20
295.0752069807369
 30
0.0
 10
142.5794657762451
 20
294.7205452011299
 30
0.0
 10
134.4384250757664
 20
293.0480612605316
 30
0.0
 10
127.8049365081628
 20
292.0326575941318
 30
0.0
 10
114.5150960150891
 20
290.6820197689109
 30
0.0
 10
107.8452448732584
 20
290.3410014991279
 30
0.0
 10
101.1499988750135
 20
290.3406089315117
 30
0.0
  0
SPLINE
  5
BC
330
75
100
AcDbEntity
  8
410278040_ESCUTC
  6
Continuous
 62
     7
100
AcDbSpline
210
0.0
220
0.0
230
1.0
 70
     8
 71
     3
 72
    20
 73
    16
 74
     0
 42
0.0000000001629674
 43
0.0000000001
 40
0.0
 40
0.0
 40
0.0
 40
0.0
 40
0.5000000000000007
 40
0.5000000000000007
 40
0.7500000000000012
 40
0.7500000000000012
 40
0.8125000000000014
 40
0.8125000000000014
 40
0.8437500000000013
 40
0.8437500000000013
 40
0.8750000000000013
 40
0.8750000000000013
 40
0.9375000000000007
 40
0.9375000000000007
 40
1.0
 40
1.0
 40
1.0
 40
1.0
 10
195.9499938748593
 20
362.540608938137
 30
0.0
 10
195.9499938748062
 20
352.2485508078968
 30
0.0
 10
194.7681538309466
 20
342.1580332260731
 30
0.0
 10
191.287605232792
 20
327.3134646526079
 30
0.0
 10
189.8372013911313
 20
322.4067609450249
 30
0.0
 10
187.6569436896104
 20
316.3573207855599
 30
0.0
 10
187.2034019606683
 20
315.1540569680874
 30
0.0
 10
186.4968576124432
 20
313.359095943669
 30
0.0
 10
186.2712941696524
 20
312.7534592428087
 30
0.0
 10
185.7401501493194
 20
311.590274019308
 30
0.0
 10
185.4222308687619
 20
311.0403185052462
 30
0.0
 10
184.3132108921923
 20
309.4842875228877
 30
0.0
 10
183.3725814721356
 20
308.5887640823098
 30
0.0
 10
181.2187640158186
 20
307.2117889917248
 30
0.0
 10
180.0013814213791
 20
306.7316965192667
 30
0.0
 10
178.756513832767
 20
306.4977045110963
 30
0.0
  0
SPLINE
  5
BD
330
75
100
AcDbEntity
  8
410278040_ESCUTC
  6
Continuous
 62
     7
100
AcDbSpline
210
0.0
220
0.0
230
1.0
 70
     8
 71
     3
 72
    20
 73
    16
 74
     0
 42
0.000000000162968
 43
0.0000000001
 40
0.0
 40
0.0
 40
0.0
 40
0.0
 40
0.0625
 40
0.0625
 40
0.1249999999999999
 40
0.1249999999999999
 40
0.1562499999999998
 40
0.1562499999999998
 40
0.1874999999999998
 40
0.1874999999999998
 40
0.2499999999999996
 40
0.2499999999999996
 40
0.4999999999999998
 40
0.4999999999999998
 40
1.0
 40
1.0
 40
1.0
 40
1.0
 10
178.756513832767
 20
418.5835133665478
 30
0.0
 10
180.0102989253024
 20
418.3478451763722
 30
0.0
 10
181.2334602095214
 20
417.8612798738037
 30
0.0
 10
183.3718653491319
 20
416.4916569173624
 30
0.0
 10
184.3159356353086
 20
415.5934720448097
 30
0.0
 10
185.4223189609752
 20
414.0405930685848
 30
0.0
 10
185.7395191625594
 20
413.4919057144924
 30
0.0
 10
186.2696569814197
 20
412.3317622021613
 30
0.0
 10
186.4946985927645
 20
411.7275090448436
 30
0.0
 10
187.1996237293516
 20
409.9369534168609
 30
0.0
 10
187.6520382126956
 20
408.736995818239
 30
0.0
 10
189.8265699264547
 20
402.7059866865446
 30
0.0
 10
191.2862227502337
 20
397.7742699572519
 30
0.0
 10
194.773445746533
 20
382.8993730478936
 30
0.0
 10
195.9499938748063
 20
372.8090169644162
 30
0.0
 10
195.9499938748593
 20
362.540608938137
 30
0.0
  0
SPLINE
  5
BE
330
75
100
AcDbEntity
  8
410278040_ESCUTC
  6
Continuous
 62
     7
100
AcDbSpline
210
0.0
220
0.0
230
1.0
 70
     8
 71
     3
 72
    28
 73
    24
 74
     0
 42
0.0000000001250032
 43
0.0000000001
 40
0.0
 40
0.0
 40
0.0
 40
0.0
 40
0.4999999999999996
 40
0.4999999999999996
 40
0.5624999999999997
 40
0.5624999999999997
 40
0.5937499999999998
 40
0.5937499999999998
 40
0.6249999999999999
 40
0.6249999999999999
 40
0.65625
 40
0.65625
 40
0.6875
 40
0.6875
 40
0.75
 40
0.75
 40
0.875
 40
0.875
 40
0.9374999999999999
 40
0.9374999999999999
 40
0.9687499999999999
 40
0.9687499999999999
 40
1.0
 40
1.0
 40
1.0
 40
1.0
 10
101.1499988750134
 20
434.7406089461324
 30
0.0
 10
114.5106279486503
 20
434.7398255618764
 30
0.0
 10
127.6350485431951
 20
433.4012544863737
 30
0.0
 10
142.1453456604207
 20
430.4530240668677
 30
0.0
 10
143.7540248547723
 20
430.1051903539821
 30
0.0
 10
146.1616167489325
 20
429.5527000353105
 30
0.0
 10
146.9634496777259
 20
429.3646298680416
 30
0.0
 10
148.5649882991967
 20
428.9763167052103
 30
0.0
 10
149.3669498763817
 20
428.7887377606475
 30
0.0
 10
150.9239160407846
 20
428.1431383724137
 30
0.0
 10
151.6835859176351
 20
427.7123853035189
 30
0.0
 10
153.2218103395452
 20
426.9598281929549
 30
0.0
 10
153.9923196660606
 20
426.591721391139
 30
0.0
 10
156.3099636893423
 20
425.5230005763761
 30
0.0
 10
157.8610998032693
 20
424.8561128577477
 30
0.0
 10
162.5497233171784
 20
422.9720584523118
 30
0.0
 10
165.7242109159617
 20
421.8736520323571
 30
0.0
 10
170.5588846447552
 20
420.4618746798236
 30
0.0
 10
172.1825736608469
 20
420.0305062427517
 30
0.0
 10
174.6364213764475
 20
419.4426677312533
 30
0.0
 10
175.4577832503944
 20
419.2565289196746
 30
0.0
 10
177.1041911137382
 20
418.9047098628452
 30
0.0
 10
177.950055065021
 20
418.7350996945216
 30
0.0
 10
178.756513832767
 20
418.5835133665478
 30
0.0
  0
SPLINE
  5
BF
330
75
100
AcDbEntity
  8
410278040_ESCUTC
  6
Continuous
 62
     7
100
AcDbSpline
210
0.0
220
0.0
230
1.0
 70
     8
 71
     3
 72
    24
 73
    20
 74
     0
 42
0.0000000001250433
 43
0.0000000001
 40
0.0
 40
0.0
 40
0.0
 40
0.0
 40
0.2500000000000012
 40
0.2500000000000012
 40
0.3125000000000012
 40
0.3125000000000012
 40
0.3437500000000012
 40
0.3437500000000012
 40
0.3750000000000011
 40
0.3750000000000011
 40
0.406250000000001
 40
0.406250000000001
 40
0.4375000000000009
 40
0.4375000000000009
 40
0.5000000000000008
 40
0.5000000000000008
 40
0.7500000000000003
 40
0.7500000000000003
 40
1.0
 40
1.0
 40
1.0
 40
1.0
 10
23.54348391695153
 20
418.5835133665477
 30
0.0
 10
30.04075649718617
 20
419.8047756699337
 30
0.0
 10
36.40694911864595
 20
421.6510674763568
 30
0.0
 10
44.12542220880766
 20
424.7251826969907
 30
0.0
 10
45.65790534174531
 20
425.3780538295086
 30
0.0
 10
47.93854509831119
 20
426.4186971580355
 30
0.0
 10
48.69553832408222
 20
426.7764932515158
 30
0.0
 10
50.20465472805644
 20
427.5086627755075
 30
0.0
 10
50.94889782733377
 20
427.9093094186941
 30
0.0
 10
52.46327407431264
 20
428.6247671500045
 30
0.0
 10
53.25858784488106
 20
428.8550690841364
 30
0.0
 10
54.86725030092396
 20
429.2540720699792
 30
0.0
 10
55.67455359026311
 20
429.4436313086476
 30
0.0
 10
58.09844920877919
 20
430.0060108973313
 30
0.0
 10
59.720531975379
 20
430.3606726769225
 30
0.0
 10
67.86157267582097
 20
432.0331566174296
 30
0.0
 10
74.49506124319088
 20
433.0485602837253
 30
0.0
 10
87.78490173575729
 20
434.399198108801
 30
0.0
 10
94.45475287692459
 20
434.7402163785164
 30
0.0
 10
101.1499988750134
 20
434.7406089461324
 30
0.0
  0
SPLINE
  5
C0
330
75
100
AcDbEntity
  8
410278040_ESCUTC
  6
Continuous
 62
     7
100
AcDbSpline
210
0.0
220
0.0
230
1.0
 70
     8
 71
     3
 72
    20
 73
    16
 74
     0
 42
0.0000000001629674
 43
0.0000000001
 40
0.0
 40
0.0
 40
0.0
 40
0.0
 40
0.5000000000000006
 40
0.5000000000000006
 40
0.7500000000000007
 40
0.7500000000000007
 40
0.8125000000000004
 40
0.8125000000000004
 40
0.8437500000000001
 40
0.8437500000000001
 40
0.8749999999999999
 40
0.8749999999999999
 40
0.9374999999999999
 40
0.9374999999999999
 40
1.0
 40
1.0
 40
1.0
 40
1.0
 10
6.350003874859151
 20
362.5406089395071
 30
0.0
 10
6.350003874912344
 20
372.8326670691464
 30
0.0
 10
7.531843918643643
 20
382.9231846506494
 30
0.0
 10
11.01239251660889
 20
397.7677532238687
 30
0.0
 10
12.46279635822774
 20
402.6744569314714
 30
0.0
 10
14.64305405964124
 20
408.7238970908264
 30
0.0
 10
15.0965957885609
 20
409.9271609082762
 30
0.0
 10
15.80314013675019
 20
411.7221219326594
 30
0.0
 10
16.02870357954743
 20
412.3277586334774
 30
0.0
 10
16.55984759972151
 20
413.4909438570739
 30
0.0
 10
16.87776688022753
 20
414.0408993712372
 30
0.0
 10
17.98678685680119
 20
415.5969303540143
 30
0.0
 10
18.92741627676499
 20
416.492453794685
 30
0.0
 10
21.08123373331411
 20
417.8694288856711
 30
0.0
 10
22.29861632823332
 20
418.3495213583574
 30
0.0
 10
23.54348391695153
 20
418.5835133665477
 30
0.0
  0
SPLINE
  5
C1
330
75
100
AcDbEntity
  8
410278040_ESCUTC
  6
Continuous
 62
     7
100
AcDbSpline
210
0.0
220
0.0
230
1.0
 70
     8
 71
     3
 72
    44
 73
    40
 74
     0
 42
0.0000000000749322
 43
0.0000000001
 40
0.031608160840334
 40
0.031608160840334
 40
0.031608160840334
 40
0.031608160840334
 40
0.1249999999999993
 40
0.1249999999999993
 40
0.2499999999999987
 40
0.2499999999999987
 40
0.3124999999999983
 40
0.3124999999999983
 40
0.343749999999998
 40
0.343749999999998
 40
0.351562499999998
 40
0.351562499999998
 40
0.3593749999999981
 40
0.3593749999999981
 40
0.374999999999998
 40
0.374999999999998
 40
0.4999999999999973
 40
0.4999999999999973
 40
0.5624999999999972
 40
0.5624999999999972
 40
0.5781249999999973
 40
0.5781249999999973
 40
0.5937499999999974
 40
0.5937499999999974
 40
0.6249999999999974
 40
0.6249999999999974
 40
0.6328124999999976
 40
0.6328124999999976
 40
0.6406249999999976
 40
0.6406249999999976
 40
0.6562499999999978
 40
0.6562499999999978
 40
0.6874999999999981
 40
0.6874999999999981
 40
0.7499999999999986
 40
0.7499999999999986
 40
0.8749999999999992
 40
0.8749999999999992
 40
1.0
 40
1.0
 40
1.0
 40
1.0
 10
96.91301204173537
 20
295.3862900917798
 30
0.0
 10
92.74295135141811
 20
295.4784977668905
 30
0.0
 10
88.58216373058852
 20
295.7062522456716
 30
0.0
 10
78.87383371640959
 20
296.551483554434
 30
0.0
 10
73.32532353993489
 20
297.27663323901
 30
0.0
 10
65.07761444553067
 20
298.7230579993765
 30
0.0
 10
62.33955937673633
 20
299.2649978048322
 30
0.0
 10
58.24928666436555
 20
300.1678053725523
 30
0.0
 10
56.88686011603971
 20
300.4818257722554
 30
0.0
 10
55.19326245285968
 20
300.8959709998041
 30
0.0
 10
54.85319957311127
 20
300.9754445287799
 30
0.0
 10
54.18798047564192
 20
301.1714712003254
 30
0.0
 10
53.87337157248418
 20
301.314276361578
 30
0.0
 10
52.94636564699027
 20
301.7845194994359
 30
0.0
 10
52.32844276408823
 20
302.0981684561376
 30
0.0
 10
46.72674896308143
 20
304.820067615935
 30
0.0
 10
41.58321826309693
 20
306.8535233926555
 30
0.0
 10
33.67860587159582
 20
309.2917092439216
 30
0.0
 10
31.01113673224383
 20
310.0036611970995
 30
0.0
 10
27.6509531962348
 20
310.7637902110972
 30
0.0
 10
26.97744478718008
 20
310.9093653587461
 30
0.0
 10
25.62747191195075
 20
311.1875606618387
 30
0.0
 10
24.94532569258005
 20
311.2959951535427
 30
0.0
 10
22.93144771100948
 20
311.7593438560494
 30
0.0
 10
21.7265761235691
 20
312.6484361383262
 30
0.0
 10
20.86743199103963
 20
314.1662298808525
 30
0.0
 10
20.7387739361058
 20
314.4902511392622
 30
0.0
 10
20.47905147370865
 20
315.1344460267857
 30
0.0
 10
20.35050345195742
 20
315.4570767332754
 30
0.0
 10
19.96879964749598
 20
316.4265689101871
 30
0.0
 10
19.71954160247846
 20
317.0751438460273
 30
0.0
 10
18.98785117187747
 20
319.0264458172214
 30
0.0
 10
18.5216800660367
 20
320.3342376813317
 30
0.0
 10
17.18782788899065
 20
324.2783194579521
 30
0.0
 10
16.38473913262245
 20
326.9352935297924
 30
0.0
 10
14.23474334549996
 20
334.9892454566763
 30
0.0
 10
13.15739577839548
 20
340.427945204318
 30
0.0
 10
11.71383673158627
 20
351.4233521154401
 30
0.0
 10
11.34960764307628
 20
356.9814484774658
 30
0.0
 10
11.34960764316936
 20
362.5406089387827
 30
0.0
  0
SPLINE
  5
C2
330
75
100
AcDbEntity
  8
410278040_ESCUTC
  6
Continuous
 62
     7
100
AcDbSpline
210
0.0
220
0.0
230
1.0
 70
     8
 71
     3
 72
    30
 73
    26
 74
     0
 42
0.0000000000751293
 43
0.0000000001
 40
0.0
 40
0.0
 40
0.0
 40
0.0
 40
0.2499999999999899
 40
0.2499999999999899
 40
0.3124999999999873
 40
0.3124999999999873
 40
0.3437499999999861
 40
0.3437499999999861
 40
0.3593749999999854
 40
0.3593749999999854
 40
0.3671874999999852
 40
0.3671874999999852
 40
0.3749999999999849
 40
0.3749999999999849
 40
0.4062499999999845
 40
0.4062499999999845
 40
0.4140624999999845
 40
0.4140624999999845
 40
0.4218749999999844
 40
0.4218749999999844
 40
0.4374999999999846
 40
0.4374999999999846
 40
0.499999999999986
 40
0.499999999999986
 40
0.5940062749439686
 40
0.5940062749439686
 40
0.5940062749439686
 40
0.5940062749439686
 10
11.34960764316936
 20
362.5406089387827
 30
0.0
 10
11.34960765077812
 20
373.6051143414031
 30
0.0
 10
12.79521377579683
 20
384.6496057569162
 30
0.0
 10
16.33878856849473
 20
397.9858390637434
 30
0.0
 10
17.1332395947057
 20
400.6275726563409
 30
0.0
 10
18.45359311933457
 20
404.5518837964715
 30
0.0
 10
18.91517396273992
 20
405.8536009616973
 30
0.0
 10
19.63990202772234
 20
407.7965488820088
 30
0.0
 10
19.88682266506431
 20
408.4424517424996
 30
0.0
 10
20.26489385655254
 20
409.4078371748287
 30
0.0
 10
20.39221438261604
 20
409.7290947681453
 30
0.0
 10
20.64944803932872
 20
410.3705352700096
 30
0.0
 10
20.76898088241753
 20
410.6949900625049
 30
0.0
 10
21.54835986407452
 20
412.242460795933
 30
0.0
 10
22.7104320751435
 20
413.1984923797932
 30
0.0
 10
24.37952424934181
 20
413.6660757322337
 30
0.0
 10
24.72202282999235
 20
413.7188698497927
 30
0.0
 10
25.40149107660963
 20
413.8505418840192
 30
0.0
 10
25.74088680191607
 20
413.9180233608256
 30
0.0
 10
26.75806144671543
 20
414.1253917151879
 30
0.0
 10
27.43495416028327
 20
414.2702310734432
 30
0.0
 10
30.81045567271563
 20
415.0266303528176
 30
0.0
 10
33.48309080583052
 20
415.7346018768784
 30
0.0
 10
40.10626017818168
 20
417.7644611479075
 30
0.0
 10
44.01831997260353
 20
419.2166231452466
 30
0.0
 10
47.85308633946045
 20
420.8994473205418
 30
0.0
  0
SPLINE
  5
C3
330
75
100
AcDbEntity
  8
410278040_ESCUTC
  6
Continuous
 62
     7
100
AcDbSpline
210
0.0
220
0.0
230
1.0
 70
     8
 71
     3
 72
    18
 73
    14
 74
     0
 42
0.0000000000746831
 43
0.0000000001
 40
0.5940062749439686
 40
0.5940062749439686
 40
0.5940062749439686
 40
0.5940062749439686
 40
0.6249999999999886
 40
0.6249999999999886
 40
0.640624999999989
 40
0.640624999999989
 40
0.6484374999999891
 40
0.6484374999999891
 40
0.6562499999999892
 40
0.6562499999999892
 40
0.6874999999999902
 40
0.6874999999999902
 40
0.7044131807121519
 40
0.7044131807121519
 40
0.7044131807121519
 40
0.7044131807121519
 10
47.85308633946045
 20
420.8994473205418
 30
0.0
 10
49.11740294491323
 20
421.4542718770705
 30
0.0
 10
50.37331767120637
 20
422.034169661776
 30
0.0
 10
52.24914545457212
 20
422.9440057719641
 30
0.0
 10
52.87482811650642
 20
423.2580344801661
 30
0.0
 10
53.81096305746232
 20
423.736283804429
 30
0.0
 10
54.12607257640859
 20
423.8865930724327
 30
0.0
 10
54.78866863164317
 20
424.0908467313932
 30
0.0
 10
55.1280267736384
 20
424.1689907020543
 30
0.0
 10
56.81689814719943
 20
424.5833642260689
 30
0.0
 10
58.17432322759187
 20
424.8962618745163
 30
0.0
 10
60.27265167394788
 20
425.3603125529414
 30
0.0
 10
61.01126424931947
 20
425.5190826133282
 30
0.0
 10
61.75132542370104
 20
425.673593516732
 30
0.0
  0
SPLINE
  5
C4
330
75
100
AcDbEntity
  8
410278040_ESCUTC
  6
Continuous
 62
     7
100
AcDbSpline
210
0.0
220
0.0
230
1.0
 70
     8
 71
     3
 72
    10
 73
     6
 74
     0
 42
0.0000000000744163
 43
0.0000000001
 40
0.7044131807121519
 40
0.7044131807121519
 40
0.7044131807121519
 40
0.7044131807121519
 40
0.7499999999999921
 40
0.7499999999999921
 40
1.0
 40
1.0
 40
1.0
 40
1.0
 10
61.75132542370104
 20
425.673593516732
 30
0.0
 10
63.74604395669822
 20
426.0900533625372
 30
0.0
 10
65.75128637699179
 20
426.475570975358
 30
0.0
 10
78.78270544931564
 20
428.7656032894346
 30
0.0
 10
89.94810464341337
 20
429.7412321012956
 30
0.0
 10
101.1500584131755
 20
429.741899063518
 30
0.0
  0
SPLINE
  5
C5
330
75
100
AcDbEntity
  8
410278040_ESCUTC
  6
Continuous
 62
     7
100
AcDbSpline
210
0.0
220
0.0
230
1.0
 70
     8
 71
     3
 72
    44
 73
    40
 74
     0
 42
0.0000000000749198
 43
0.0000000001
 40
0.0
 40
0.0
 40
0.0
 40
0.0
 40
0.1250000000000013
 40
0.1250000000000013
 40
0.2500000000000027
 40
0.2500000000000027
 40
0.3125000000000033
 40
0.3125000000000033
 40
0.3437500000000036
 40
0.3437500000000036
 40
0.3515625000000038
 40
0.3515625000000038
 40
0.3593750000000039
 40
0.3593750000000039
 40
0.3750000000000042
 40
0.3750000000000042
 40
0.5000000000000066
 40
0.5000000000000066
 40
0.5625000000000078
 40
0.5625000000000078
 40
0.5781250000000081
 40
0.5781250000000081
 40
0.5937500000000083
 40
0.5937500000000083
 40
0.6250000000000085
 40
0.6250000000000085
 40
0.6328125000000085
 40
0.6328125000000085
 40
0.6406250000000085
 40
0.6406250000000085
 40
0.6562500000000081
 40
0.6562500000000081
 40
0.6875000000000074
 40
0.6875000000000074
 40
0.7500000000000059
 40
0.7500000000000059
 40
0.875000000000003
 40
0.875000000000003
 40
1.0
 40
1.0
 40
1.0
 40
1.0
 10
101.1500584131755
 20
429.741899063518
 30
0.0
 10
106.7398668118666
 20
429.741562775728
 30
0.0
 10
112.313002157486
 20
429.4972812237217
 30
0.0
 10
123.4264075550253
 20
428.529705684006
 30
0.0
 10
128.9749047641982
 20
427.8045507219311
 30
0.0
 10
137.2225940104625
 20
426.3581196712978
 30
0.0
 10
139.9606425107004
 20
425.8161780424902
 30
0.0
 10
144.05090543194
 20
424.9133680979298
 30
0.0
 10
145.4133291929189
 20
424.599348335873
 30
0.0
 10
147.1069217435881
 20
424.1852005182589
 30
0.0
 10
147.446984908186
 20
424.1057297241891
 30
0.0
 10
148.1121943532446
 20
423.9096830909982
 30
0.0
 10
148.4267949320506
 20
423.7668592572663
 30
0.0
 10
149.3537954548979
 20
423.2966088246378
 30
0.0
 10
149.9717200338473
 20
422.9829681899658
 30
0.0
 10
155.5734045709003
 20
420.2610828457074
 30
0.0
 10
160.716927598193
 20
418.2276410138903
 30
0.0
 10
168.6215259995759
 20
415.7894711553776
 30
0.0
 10
171.2889900665111
 20
415.077524150603
 30
0.0
 10
174.6491671207182
 20
414.3174007704228
 30
0.0
 10
175.3226742272661
 20
414.1718267223214
 30
0.0
 10
176.6726444855556
 20
413.893633565481
 30
0.0
 10
177.3547921137987
 20
413.7852117102238
 30
0.0
 10
179.3686545447558
 20
413.3218167440219
 30
0.0
 10
180.573501805096
 20
412.4327024740339
 30
0.0
 10
181.4326135614568
 20
410.914887944457
 30
0.0
 10
181.5612645357886
 20
410.5908665112178
 30
0.0
 10
181.8209858867559
 20
409.9466728169517
 30
0.0
 10
181.9495333585446
 20
409.6240427094305
 30
0.0
 10
182.3312355302994
 20
408.6545523364128
 30
0.0
 10
182.5804925151541
 20
408.0059785974186
 30
0.0
 10
183.3121797746781
 20
406.0546804055773
 30
0.0
 10
183.7783488638283
 20
404.7468910921826
 30
0.0
 10
185.1121952767357
 20
400.8028170591825
 30
0.0
 10
185.9152805710023
 20
398.1458482715319
 30
0.0
 10
188.0652670865621
 20
390.0919125538526
 30
0.0
 10
189.1426098651789
 20
384.6532247056264
 30
0.0
 10
190.5861626205498
 20
373.6578413665193
 30
0.0
 10
190.950390105848
 20
368.099757204721
 30
0.0
 10
190.9503901065331
 20
362.5406089390299
 30
0.0
  0
SPLINE
  5
C6
330
75
100
AcDbEntity
  8
410278040_ESCUTC
  6
Continuous
 62
     7
100
AcDbSpline
210
0.0
220
0.0
230
1.0
 70
     8
 71
     3
 72
    30
 73
    26
 74
     0
 42
0.0000000000751296
 43
0.0000000001
 40
0.0
 40
0.0
 40
0.0
 40
0.0
 40
0.2500000000000064
 40
0.2500000000000064
 40
0.312500000000008
 40
0.312500000000008
 40
0.3437500000000089
 40
0.3437500000000089
 40
0.3593750000000094
 40
0.3593750000000094
 40
0.3671875000000097
 40
0.3671875000000097
 40
0.37500000000001
 40
0.37500000000001
 40
0.4062500000000107
 40
0.4062500000000107
 40
0.4140625000000108
 40
0.4140625000000108
 40
0.4218750000000109
 40
0.4218750000000109
 40
0.4375000000000108
 40
0.4375000000000108
 40
0.5000000000000102
 40
0.5000000000000102
 40
0.5938527954173647
 40
0.5938527954173647
 40
0.5938527954173647
 40
0.5938527954173647
 10
190.9503901065331
 20
362.5406089390299
 30
0.0
 10
190.9503901004733
 20
351.4761276728794
 30
0.0
 10
189.5047903538324
 20
340.4316604519094
 30
0.0
 10
185.9612307802983
 20
327.0954540090997
 30
0.0
 10
185.166783167202
 20
324.4537256793629
 30
0.0
 10
183.8464353326044
 20
320.5294222637389
 30
0.0
 10
183.3848564810824
 20
319.2277076450079
 30
0.0
 10
182.6601315501693
 20
317.2847635009093
 30
0.0
 10
182.4132119547886
 20
316.638861820938
 30
0.0
 10
182.0351423687333
 20
315.6734781708557
 30
0.0
 10
181.9078223834081
 20
315.3522211693009
 30
0.0
 10
181.6505898194059
 20
314.7107818463007
 30
0.0
 10
181.5310585010365
 20
314.386327240526
 30
0.0
 10
180.7517161808223
 20
312.8388454906476
 30
0.0
 10
179.5896695478598
 20
311.8827884848633
 30
0.0
 10
177.920589539525
 20
311.4151661781711
 30
0.0
 10
177.5780921006484
 20
311.3623703361598
 30
0.0
 10
176.8986251806159
 20
311.2306993506136
 30
0.0
 10
176.5592301172364
 20
311.1632184047875
 30
0.0
 10
175.5420574540632
 20
310.9558516635666
 30
0.0
 10
174.865166046249
 20
310.8110134060274
 30
0.0
 10
171.4896708377888
 20
310.0546197183336
 30
0.0
 10
168.8170406363219
 20
309.3466530805968
 30
0.0
 10
162.2003783584028
 20
307.3187978329217
 30
0.0
 10
158.2946040169444
 20
305.8693962628245
 30
0.0
 10
154.4658528456839
 20
304.1900813076084
 30
0.0
  0
SPLINE
  5
C7
330
75
100
AcDbEntity
  8
410278040_ESCUTC
  6
Continuous
 62
     7
100
AcDbSpline
210
0.0
220
0.0
230
1.0
 70
     8
 71
     3
 72
    18
 73
    14
 74
     0
 42
0.0000000000746835
 43
0.0000000001
 40
0.5938527954173647
 40
0.5938527954173647
 40
0.5938527954173647
 40
0.5938527954173647
 40
0.6250000000000095
 40
0.6250000000000095
 40
0.6406250000000093
 40
0.6406250000000093
 40
0.6484375000000093
 40
0.6484375000000093
 40
0.6562500000000093
 40
0.6562500000000093
 40
0.6875000000000084
 40
0.6875000000000084
 40
0.7042973717247766
 40
0.7042973717247766
 40
0.7042973717247766
 40
0.7042973717247766
 10
154.4658528456839
 20
304.1900813076084
 30
0.0
 10
153.1951938791931
 20
303.632762090464
 30
0.0
 10
151.9330182183636
 20
303.0501202916003
 30
0.0
 10
150.0510179741997
 20
302.1372935322291
 30
0.0
 10
149.4253343819628
 20
301.8232723539392
 30
0.0
 10
148.4892035475124
 20
301.3450179453656
 30
0.0
 10
148.174099991081
 20
301.1946933068953
 30
0.0
 10
147.5115142762526
 20
300.9904136226116
 30
0.0
 10
147.1721557095991
 20
300.9122732977135
 30
0.0
 10
145.4832892640253
 20
300.4978970079341
 30
0.0
 10
144.1258671341984
 20
300.1850001009663
 30
0.0
 10
142.0325894461086
 20
299.7220641055798
 30
0.0
 10
141.2990481464363
 20
299.5643522923285
 30
0.0
 10
140.5640759456811
 20
299.410841006264
 30
0.0
  0
SPLINE
  5
C8
330
75
100
AcDbEntity
  8
410278040_ESCUTC
  6
Continuous
 62
     7
100
AcDbSpline
210
0.0
220
0.0
230
1.0
 70
     8
 71
     3
 72
    10
 73
     6
 74
     0
 42
0.0000000000744457
 43
0.0000000001
 40
0.7042973717247766
 40
0.7042973717247766
 40
0.7042973717247766
 40
0.7042973717247766
 40
0.7500000000000068
 40
0.7500000000000068
 40
0.968438936048257
 40
0.968438936048257
 40
0.968438936048257
 40
0.968438936048257
 10
140.5640759456811
 20
299.410841006264
 30
0.0
 10
138.5643487363218
 20
298.9931643983982
 30
0.0
 10
136.5540287629177
 20
298.6065837159501
 30
0.0
 10
124.9089512045948
 20
296.5601616929777
 30
0.0
 10
115.1689991130634
 20
295.6016606407759
 30
0.0
 10
105.3908066310697
 20
295.3861657254554
 30
0.0
  0
SPLINE
  5
C9
330
75
100
AcDbEntity
  8
410278040_ESCUTC
  6
Continuous
 62
     7
100
AcDbSpline
210
0.0
220
0.0
230
1.0
 70
     8
 71
     3
 72
     8
 73
     4
 74
     0
 42
0.0000000006511975
 43
0.0000000001
 40
0.0
 40
0.0
 40
0.0
 40
0.0
 40
0.010232332657812
 40
0.010232332657812
 40
0.010232332657812
 40
0.010232332657812
 10
58.68767308400646
 20
358.7638241578996
 30
0.0
 10
58.73657321502878
 20
358.7448906133855
 30
0.0
 10
58.78580248998599
 20
358.7269949634244
 30
0.0
 10
58.83532542533961
 20
358.7101408662891
 30
0.0
  0
SPLINE
  5
CA
330
75
100
AcDbEntity
  8
410278040_ESCUTC
  6
Continuous
 62
     7
100
AcDbSpline
210
0.0
220
0.0
230
1.0
 70
     8
 71
     3
 72
    16
 73
    12
 74
     0
 42
0.0000000006363197
 43
0.0000000001
 40
0.010232332657812
 40
0.010232332657812
 40
0.010232332657812
 40
0.010232332657812
 40
0.1250000000000004
 40
0.1250000000000004
 40
0.2500000000000009
 40
0.2500000000000009
 40
0.5000000000000007
 40
0.5000000000000007
 40
0.7500000000000003
 40
0.7500000000000003
 40
0.9840223821291519
 40
0.9840223821291519
 40
0.9840223821291519
 40
0.9840223821291519
 10
58.83532542533961
 20
358.7101408662891
 30
0.0
 10
59.3907834973692
 20
358.5211023080186
 30
0.0
 10
59.98318482701947
 20
358.4630938608523
 30
0.0
 10
61.19338418788809
 20
358.6264316252679
 30
0.0
 10
61.79805999516302
 20
358.8735715774865
 30
0.0
 10
63.33042930172524
 20
359.9925020043465
 30
0.0
 10
63.9597771024967
 20
361.2622527201057
 30
0.0
 10
63.96042617334952
 20
363.8168488272118
 30
0.0
 10
63.34404425267557
 20
365.0781138853686
 30
0.0
 10
61.34235743298205
 20
366.5410160165579
 30
0.0
 10
60.05900615853009
 20
366.7532633285214
 30
0.0
 10
58.9190167885774
 20
366.3980971647341
 30
0.0
  0
SPLINE
  5
CB
330
75
100
AcDbEntity
  8
410278040_ESCUTC
  6
Continuous
 62
     7
100
AcDbSpline
210
0.0
220
0.0
230
1.0
 70
     8
 71
     3
 72
     8
 73
     4
 74
     0
 42
0.0000000006518577
 43
0.0000000001
 40
0.9840223821291519
 40
0.9840223821291519
 40
0.9840223821291519
 40
0.9840223821291519
 40
1.0
 40
1.0
 40
1.0
 40
1.0
 10
58.9190167885774
 20
366.3980971647341
 30
0.0
 10
58.84118528218807
 20
366.3738485899011
 30
0.0
 10
58.76402203205068
 20
366.346955117151
 30
0.0
 10
58.68767308402145
 20
366.3173937197502
 30
0.0
  0
ARC
  5
CC
330
75
100
AcDbEntity
  8
410278040_ESCUTC
  6
Continuous
 62
     7
100
AcDbCircle
 10
60.1499988749
 20
362.5406089388
 30
0.0
 40
4.050000000000002
100
AcDbArc
 50
111.1658059791
 51
248.8341940207
  0
ARC
  5
CD
330
75
100
AcDbEntity
  8
410278040_ESCUTC
  6
Continuous
 62
     7
100
AcDbCircle
 10
101.1499988749
 20
362.5406089388
 30
0.0
 40
32.0
100
AcDbArc
 50
0.0
 51
75.8920325034
  0
ARC
  5
CE
330
75
100
AcDbEntity
  8
410278040_ESCUTC
  6
Continuous
 62
     7
100
AcDbCircle
 10
101.1499988749
 20
362.5406089388
 30
0.0
 40
32.0
100
AcDbArc
 50
104.107981804
 51
259.5704395296
  0
ARC
  5
CF
330
75
100
AcDbEntity
  8
410278040_ESCUTC
  6
Continuous
 62
     7
100
AcDbCircle
 10
101.1499988749
 20
362.5406089388
 30
0.0
 40
32.0
100
AcDbArc
 50
280.4295463231
 51
0.0
  0
ENDBLK
  5
D1
330
75
100
AcDbEntity
  8
0
100
AcDbBlockEnd
  0
BLOCK
  5
139
330
D2
100
AcDbEntity
  8
0
100
AcDbBlockBegin
  2
SE1
 70
     0
 10
0.0
 20
0.0
 30
0.0
  3
SE1
  1

  0
LINE
  5
D5
330
D2
100
AcDbEntity
  8
410290038_SLEEVE
  6
Continuous
 62
     7
100
AcDbLine
 10
322.3550068348
 20
394.2906089388
 30
0.0
 11
322.3550068348
 21
330.7906089388
 31
0.0
  0
LINE
  5
D6
330
D2
100
AcDbEntity
  8
410290038_SLEEVE
  6
Continuous
 62
     7
100
AcDbLine
 10
322.3550068348
 20
394.2906089388
 30
0.0
 11
287.1980410081
 21
394.2906089388
 31
0.0
  0
LINE
  5
D7
330
D2
100
AcDbEntity
  8
410290038_SLEEVE
  6
Continuous
 62
     7
100
AcDbLine
 10
287.1980546301
 20
330.7906089388
 30
0.0
 11
322.3550068348
 21
330.7906089388
 31
0.0
  0
LINE
  5
D8
330
D2
100
AcDbEntity
  8
410317038_HANDLE
  6
Continuous
 62
     7
100
AcDbLine
 10
363.2550068348
 20
349.749384902
 30
0.0
 11
363.2550068348
 21
375.3318329757
 31
0.0
  0
LINE
  5
D9
330
D2
100
AcDbEntity
  8
410317038_HANDLE
  6
Continuous
 62
     7
100
AcDbLine
 10
323.4420964422
 20
330.9941304174
 30
0.0
 11
323.4420964422
 21
394.0870874602
 31
0.0
  0
ARC
  5
DA
330
D2
100
AcDbEntity
  8
410317038_HANDLE
  6
Continuous
 62
     7
100
AcDbCircle
 10
334.8736720017
 20
424.1855592204
 30
0.0
 40
31.18782258193578
100
AcDbArc
 50
253.7553958731
 51
284.2450911461
  0
LINE
  5
DB
330
D2
100
AcDbEntity
  8
410317038_HANDLE
  6
Continuous
 62
     7
100
AcDbLine
 10
322.9550068348
 20
333.3406089388
 30
0.0
 11
323.4420964422
 21
333.3406089388
 31
0.0
  0
LINE
  5
DC
330
D2
100
AcDbEntity
  8
410317038_HANDLE
  6
Continuous
 62
     7
100
AcDbLine
 10
323.4420964422
 20
391.7406089388
 30
0.0
 11
322.9550068348
 21
391.7406089388
 31
0.0
  0
LINE
  5
DD
330
D2
100
AcDbEntity
  8
410317038_HANDLE
  6
Continuous
 62
     7
100
AcDbLine
 10
323.6455869235
 20
330.7941608784
 30
0.0
 11
347.2349979084
 21
331.2059155787
 31
0.0
  0
LINE
  5
DE
330
D2
100
AcDbEntity
  8
410317038_HANDLE
  6
Continuous
 62
     7
100
AcDbLine
 10
326.1498422342
 20
394.2433450602
 30
0.0
 11
323.6455869235
 21
394.2870569993
 31
0.0
  0
LINE
  5
DF
330
D2
100
AcDbEntity
  8
410317038_HANDLE
  6
Continuous
 62
     7
100
AcDbLine
 10
347.2349979084
 20
393.8753022989
 30
0.0
 11
342.544733425
 21
393.95717117
 31
0.0
  0
ARC
  5
E0
330
D2
100
AcDbEntity
  8
410317038_HANDLE
  6
Continuous
 62
     7
100
AcDbCircle
 10
368.9969445292
 20
330.2227821811
 30
0.0
 40
19.9999999999998
100
AcDbArc
 50
107.7271688632
 51
172.2076593763
  0
ARC
  5
E1
330
D2
100
AcDbEntity
  8
410317038_HANDLE
  6
Continuous
 62
     7
100
AcDbCircle
 10
368.9969445292
 20
394.8584356966
 30
0.0
 40
19.99999999999999
100
AcDbArc
 50
187.7923406237
 51
252.2728311368
  0
ARC
  5
E2
330
D2
100
AcDbEntity
  8
410317038_HANDLE
  6
Continuous
 62
     7
100
AcDbCircle
 10
347.2000930955
 20
391.8756069086
 30
0.0
 40
2.000000000000197
100
AcDbArc
 50
7.7923406236
 51
89.0
  0
ARC
  5
E3
330
D2
100
AcDbEntity
  8
410317038_HANDLE
  6
Continuous
 62
     7
100
AcDbCircle
 10
347.2000930955
 20
333.2056109691
 30
0.0
 40
2.0
100
AcDbArc
 50
271.0
 51
352.2076593764
  0
ARC
  5
E4
330
D2
100
AcDbEntity
  8
410317038_HANDLE
  6
Continuous
 62
     7
100
AcDbCircle
 10
362.7550068348
 20
375.3318329757
 30
0.0
 40
0.5000000000000004
100
AcDbArc
 50
0.0
 51
72.2728311368
  0
ARC
  5
E5
330
D2
100
AcDbEntity
  8
410317038_HANDLE
  6
Continuous
 62
     7
100
AcDbCircle
 10
362.7550068348
 20
349.749384902
 30
0.0
 40
0.5000000000000018
100
AcDbArc
 50
287.7271688632
 51
0.0
  0
ARC
  5
E6
330
D2
100
AcDbEntity
  8
410317038_HANDLE
  6
Continuous
 62
     7
100
AcDbCircle
 10
323.6420964422
 20
394.0870874602
 30
0.0
 40
0.1999999999999992
100
AcDbArc
 50
89.0
 51
180.0
  0
ARC
  5
E7
330
D2
100
AcDbEntity
  8
410317038_HANDLE
  6
Continuous
 62
     7
100
AcDbCircle
 10
323.6420964422
 20
330.9941304174
 30
0.0
 40
0.1999999999999988
100
AcDbArc
 50
180.0
 51
271.0
  0
ARC
  5
E8
330
D2
100
AcDbEntity
  8
410250038_BUTTON
  6
Continuous
 62
     7
100
AcDbCircle
 10
334.3450068348
 20
358.701247017
 30
0.0
 40
39.99999999999999
100
AcDbArc
 50
79.7745231662
 51
100.2254768338
  0
LINE
  5
E9
330
D2
100
AcDbEntity
  8
410250038_BUTTON
  6
Continuous
 62
     7
100
AcDbLine
 10
326.5450068348
 20
397.2294185282
 30
0.0
 11
326.5450068348
 21
394.1351728717
 31
0.0
  0
LINE
  5
EA
330
D2
100
AcDbEntity
  8
410250038_BUTTON
  6
Continuous
 62
     7
100
AcDbLine
 10
342.1450068348
 20
393.8602402059
 30
0.0
 11
342.1450068348
 21
397.2294185282
 31
0.0
  0
ARC
  5
EB
330
D2
100
AcDbEntity
  8
410250038_BUTTON
  6
Continuous
 62
     7
100
AcDbCircle
 10
341.2950068348
 20
397.2294185282
 30
0.0
 40
0.8500000000000035
100
AcDbArc
 50
0.0
 51
79.7745231662
  0
ARC
  5
EC
330
D2
100
AcDbEntity
  8
410250038_BUTTON
  6
Continuous
 62
     7
100
AcDbCircle
 10
327.3950068348
 20
397.2294185282
 30
0.0
 40
0.8499999999999986
100
AcDbArc
 50
100.2254768338
 51
180.0
  0
SPLINE
  5
EE
330
D2
100
AcDbEntity
  8
410310038_RING_K
  6
Continuous
 62
     7
100
AcDbSpline
210
0.0
220
0.0
230
1.0
 70
     8
 71
     3
 72
    10
 73
     6
 74
     0
 42
0.0000000014409689
 43
0.0000000001
 40
0.0
 40
0.0
 40
0.0
 40
0.0
 40
0.2097938720897723
 40
0.5275645304711997
 40
1.0
 40
1.0
 40
1.0
 40
1.0
 10
363.9266336771195
 20
349.6026381590176
 30
0.0
 10
364.4313425853697
 20
349.7755905729422
 30
0.0
 10
365.5032567809595
 20
350.1390786138408
 30
0.0
 10
367.8263785192801
 20
350.7635341992524
 30
0.0
 10
369.4669276011133
 20
351.0613812907696
 30
0.0
 10
370.6502608460001
 20
351.2691538867937
 30
0.0
  0
SPLINE
  5
EF
330
D2
100
AcDbEntity
  8
410310038_RING_K
  6
Continuous
 62
     7
100
AcDbSpline
210
0.0
220
0.0
230
1.0
 70
     8
 71
     3
 72
    10
 73
     6
 74
     0
 42
0.0000000014423799
 43
0.0000000001
 40
0.0
 40
0.0
 40
0.0
 40
0.0
 40
0.2917655393123828
 40
0.6104268598598133
 40
1.0
 40
1.0
 40
1.0
 40
1.0
 10
370.655212488092
 20
373.8085524035395
 30
0.0
 10
369.924134602374
 20
373.931030406769
 30
0.0
 10
368.6425474855043
 20
374.1520312761969
 30
0.0
 10
366.3054206492306
 20
374.7018618617938
 30
0.0
 10
364.8803793889389
 20
375.1717956001514
 30
0.0
 10
363.9416893576903
 20
375.4856156899452
 30
0.0
  0
ARC
  5
F0
330
D2
100
AcDbEntity
  8
410310038_RING_K
  6
Continuous
 62
     7
100
AcDbCircle
 10
375.4330216523
 20
359.6009480754
 30
0.0
 40
9.499999999999986
100
AcDbArc
 50
241.8850039707
 51
254.2095579456
  0
ARC
  5
F1
330
D2
100
AcDbEntity
  8
410310038_RING_K
  6
Continuous
 62
     7
100
AcDbCircle
 10
375.4330216523
 20
365.4802698023
 30
0.0
 40
9.49999999999999
100
AcDbArc
 50
105.7904420544
 51
118.1149960293
  0
ARC
  5
F2
330
D2
100
AcDbEntity
  8
410310038_RING_K
  6
Continuous
 62
     7
100
AcDbCircle
 10
372.9839440972
 20
350.9405774638
 30
0.0
 40
0.4999999999999897
100
AcDbArc
 50
254.2095579456
 51
309.8055710923
  0
ARC
  5
F3
330
D2
100
AcDbEntity
  8
410310038_RING_K
  6
Continuous
 62
     7
100
AcDbCircle
 10
372.9839440972
 20
374.1406404138
 30
0.0
 40
0.5000000000000157
100
AcDbArc
 50
50.1944289077
 51
105.7904420544
  0
LINE
  5
F4
330
D2
100
AcDbEntity
  8
410310038_RING_K
  6
Continuous
 62
     7
100
AcDbLine
 10
373.3040362971
 20
350.556466824
 30
0.0
 11
373.8250990347
 21
350.990685772
 31
0.0
  0
LINE
  5
F5
330
D2
100
AcDbEntity
  8
410310038_RING_K
  6
Continuous
 62
     7
100
AcDbLine
 10
373.8250990347
 20
374.0905321056
 30
0.0
 11
373.3040362971
 21
374.5247510536
 31
0.0
  0
ARC
  5
F6
330
D2
100
AcDbEntity
  8
410310038_RING_K
  6
Continuous
 62
     7
100
AcDbCircle
 10
370.72059421
 20
350.7809124971
 30
0.0
 40
0.499999999999997
100
AcDbArc
 50
61.8850039707
 51
98.9249464668
  0
ARC
  5
F7
330
D2
100
AcDbEntity
  8
410310038_RING_K
  6
Continuous
 62
     7
100
AcDbCircle
 10
370.72059421
 20
374.3003053805
 30
0.0
 40
0.5000000000000151
100
AcDbArc
 50
261.0750535332
 51
298.1149960293
  0
ARC
  5
F8
330
D2
100
AcDbEntity
  8
410310038_RING_K
  6
Continuous
 62
     7
100
AcDbCircle
 10
363.7550068348
 20
350.0863685016
 30
0.0
 40
0.5000000000000004
100
AcDbArc
 50
180.0
 51
288.8443742512
  0
ARC
  5
F9
330
D2
100
AcDbEntity
  8
410310038_RING_K
  6
Continuous
 62
     7
100
AcDbCircle
 10
363.7550068348
 20
374.9948493761
 30
0.0
 40
0.4999999999999963
100
AcDbArc
 50
71.1556257488
 51
180.0
  0
ARC
  5
FA
330
D2
100
AcDbEntity
  8
410310038_RING_K
  6
Continuous
 62
     7
100
AcDbCircle
 10
373.5050068349
 20
373.7064214658
 30
0.0
 40
0.5000000000000004
100
AcDbArc
 50
0.0
 51
50.1944289077
  0
ARC
  5
FB
330
D2
100
AcDbEntity
  8
410310038_RING_K
  6
Continuous
 62
     7
100
AcDbCircle
 10
373.5050068349
 20
351.3747964118
 30
0.0
 40
0.5000000000000222
100
AcDbArc
 50
309.8055710923
 51
0.0
  0
LINE
  5
FC
330
D2
100
AcDbEntity
  8
410005038_HANDLE
  6
Continuous
 62
     7
100
AcDbLine
 10
380.8667942824
 20
349.3906089388
 30
0.0
 11
376.9810915083
 21
349.3906089388
 31
0.0
  0
LINE
  5
FD
330
D2
100
AcDbEntity
  8
410005038_HANDLE
  6
Continuous
 62
     7
100
AcDbLine
 10
380.8667942824
 20
349.3906089388
 30
0.0
 11
388.005006309
 21
349.4090370453
 31
0.0
  0
LINE
  5
FE
330
D2
100
AcDbEntity
  8
410005038_HANDLE
  6
Continuous
 62
     7
100
AcDbLine
 10
392.1050068349
 20
372.8184455027
 30
0.0
 11
392.1050068349
 21
352.2627723749
 31
0.0
  0
LINE
  5
FF
330
D2
100
AcDbEntity
  8
410005038_HANDLE
  6
Continuous
 62
     7
100
AcDbLine
 10
374.0050068349
 20
351.3332836524
 30
0.0
 11
374.0050068349
 21
373.7479342253
 31
0.0
  0
ARC
  5
100
330
D2
100
AcDbEntity
  8
410005038_HANDLE
  6
Continuous
 62
     7
100
AcDbCircle
 10
382.4710824009
 20
362.5406089388
 30
0.0
 40
14.25
100
AcDbArc
 50
234.5950951231
 51
247.3399612862
  0
ARC
  5
101
330
D2
100
AcDbEntity
  8
410005038_HANDLE
  6
Continuous
 62
     7
100
AcDbCircle
 10
382.4710824009
 20
362.5406089388
 30
0.0
 40
14.25
100
AcDbArc
 50
48.372472413
 51
125.4049048769
  0
ARC
  5
102
330
D2
100
AcDbEntity
  8
410005038_HANDLE
  6
Continuous
 62
     7
100
AcDbCircle
 10
382.4710824009
 20
362.5406089388
 30
0.0
 40
14.25000000000001
100
AcDbArc
 50
292.803834895
 51
311.627527587
  0
ARC
  5
103
330
D2
100
AcDbEntity
  8
410005038_HANDLE
  6
Continuous
 62
     7
100
AcDbCircle
 10
391.6050068349
 20
372.8184455027
 30
0.0
 40
0.5000000000000004
100
AcDbArc
 50
0.0
 51
48.372472413
  0
ARC
  5
104
330
D2
100
AcDbEntity
  8
410005038_HANDLE
  6
Continuous
 62
     7
100
AcDbCircle
 10
391.6050068349
 20
352.2627723749
 30
0.0
 40
0.4999999999999992
100
AcDbArc
 50
311.627527587
 51
0.0
  0
ARC
  5
105
330
D2
100
AcDbEntity
  8
410005038_HANDLE
  6
Continuous
 62
     7
100
AcDbCircle
 10
374.5050068349
 20
351.3332836524
 30
0.0
 40
0.5000000000000004
100
AcDbArc
 50
180.0
 51
234.5950951231
  0
ARC
  5
106
330
D2
100
AcDbEntity
  8
410005038_HANDLE
  6
Continuous
 62
     7
100
AcDbCircle
 10
374.5050068349
 20
373.7479342253
 30
0.0
 40
0.4999999999999993
100
AcDbArc
 50
125.4049048769
 51
180.0
  0
LINE
  5
107
330
D2
100
AcDbEntity
  8
410307038_LEVER_
  6
Continuous
 62
     7
100
AcDbLine
 10
376.6085620958
 20
341.1906089388
 30
0.0
 11
388.4014515739
 21
341.1906089388
 31
0.0
  0
ARC
  5
108
330
D2
100
AcDbEntity
  8
410307038_LEVER_
  6
Continuous
 62
     7
100
AcDbCircle
 10
276.7230424422
 20
329.5940795926
 30
0.0
 40
100.0
100
AcDbArc
 50
346.0429344828
 51
6.3391368539
  0
ARC
  5
109
330
D2
100
AcDbEntity
  8
410307038_LEVER_
  6
Continuous
 62
     7
100
AcDbCircle
 10
488.2869712275
 20
329.5940795926
 30
0.0
 40
100.0
100
AcDbArc
 50
173.6608631461
 51
193.9570655172
  0
ARC
  5
10A
330
D2
100
AcDbEntity
  8
410307038_LEVER_
  6
Continuous
 62
     7
100
AcDbCircle
 10
382.5050068349
 20
303.3038530962
 30
0.0
 40
8.999999999999998
100
AcDbArc
 50
166.0429344828
 51
270.0
  0
ARC
  5
10B
330
D2
100
AcDbEntity
  8
410307038_LEVER_
  6
Continuous
 62
     7
100
AcDbCircle
 10
382.5050068349
 20
303.3038530962
 30
0.0
 40
8.999999999999995
100
AcDbArc
 50
270.0
 51
13.9570655172
  0
ARC
  5
10C
330
D2
100
AcDbEntity
  8
410307038_LEVER_
  6
Continuous
 62
     7
100
AcDbCircle
 10
388.4014515739
 20
340.6906089388
 30
0.0
 40
0.500000000000007
100
AcDbArc
 50
353.6608631461
 51
90.0
  0
ARC
  5
10D
330
D2
100
AcDbEntity
  8
410307038_LEVER_
  6
Continuous
 62
     7
100
AcDbCircle
 10
376.6085620958
 20
340.6906089388
 30
0.0
 40
0.4999999999999935
100
AcDbArc
 50
90.0
 51
186.3391368539
  0
LINE
  5
10E
330
D2
100
AcDbEntity
  8
410307038_LEVER_
  6
Continuous
 62
     7
100
AcDbLine
 10
387.8550068349
 20
341.1906089388
 30
0.0
 11
387.8550068349
 21
349.4086495411
 31
0.0
  0
LINE
  5
10F
330
D2
100
AcDbEntity
  8
410307038_LEVER_
  6
Continuous
 62
     7
100
AcDbLine
 10
377.1550068349
 20
349.3906089388
 30
0.0
 11
377.1550068349
 21
341.1906089388
 31
0.0
  0
LINE
  5
110
330
D2
100
AcDbEntity
  8
410006038_DECORA
  6
Continuous
 62
     7
100
AcDbLine
 10
397.0050068349
 20
353.1837189713
 30
0.0
 11
397.0050068349
 21
371.8974989063
 31
0.0
  0
ARC
  5
111
330
D2
100
AcDbEntity
  8
410006038_DECORA
  6
Continuous
 62
     7
100
AcDbCircle
 10
392.6050068349
 20
352.496072338
 30
0.0
 40
0.5000000000000004
100
AcDbArc
 50
180.0
 51
263.2851563915
  0
ARC
  5
112
330
D2
100
AcDbEntity
  8
410006038_DECORA
  6
Continuous
 62
     7
100
AcDbCircle
 10
392.6050068349
 20
372.5851455397
 30
0.0
 40
0.5000000000000002
100
AcDbArc
 50
96.7148436085
 51
180.0
  0
ARC
  5
113
330
D2
100
AcDbEntity
  8
410006038_DECORA
  6
Continuous
 62
     7
100
AcDbCircle
 10
391.4824976719
 20
342.9619242597
 30
0.0
 40
9.10000033333337
100
AcDbArc
 50
63.7226300101
 51
83.2851563915
  0
ARC
  5
114
330
D2
100
AcDbEntity
  8
410006038_DECORA
  6
Continuous
 62
     7
100
AcDbCircle
 10
391.4824976719
 20
382.119293618
 30
0.0
 40
9.100000333333359
100
AcDbArc
 50
276.7148436085
 51
296.2773699899
  0
ARC
  5
115
330
D2
100
AcDbEntity
  8
410006038_DECORA
  6
Continuous
 62
     7
100
AcDbCircle
 10
395.8211251315
 20
351.7492058815
 30
0.0
 40
0.7000000000000013
100
AcDbArc
 50
243.7226300103
 51
341.1008225568
  0
ARC
  5
116
330
D2
100
AcDbEntity
  8
410006038_DECORA
  6
Continuous
 62
     7
100
AcDbCircle
 10
395.8211251315
 20
373.3320119962
 30
0.0
 40
0.7000000000000045
100
AcDbArc
 50
18.8991774432
 51
116.2773699897
  0
ARC
  5
117
330
D2
100
AcDbEntity
  8
410006038_DECORA
  6
Continuous
 62
     7
100
AcDbCircle
 10
364.316327832
 20
362.5352036155
 30
0.0
 40
34.00000000000158
100
AcDbArc
 50
341.1008225568
 51
344.0353836123
  0
ARC
  5
118
330
D2
100
AcDbEntity
  8
410006038_DECORA
  6
Continuous
 62
     7
100
AcDbCircle
 10
364.316327832
 20
362.5460142622
 30
0.0
 40
34.00000000000158
100
AcDbArc
 50
15.9646163877
 51
18.8991774432
  0
LINE
  5
11A
330
D2
100
AcDbEntity
  8
410228031_BEARIN
  6
Continuous
 62
     7
100
AcDbLine
 10
322.9550068348
 20
330.9906089388
 30
0.0
 11
322.9550068348
 21
394.0906089388
 31
0.0
  0
LINE
  5
11B
330
D2
100
AcDbEntity
  8
410228031_BEARIN
  6
Continuous
 62
     7
100
AcDbLine
 10
322.3550068348
 20
330.9906089388
 30
0.0
 11
322.9550068348
 21
330.9906089388
 31
0.0
  0
LINE
  5
11C
330
D2
100
AcDbEntity
  8
410228031_BEARIN
  6
Continuous
 62
     7
100
AcDbLine
 10
322.9550068348
 20
394.0906089388
 30
0.0
 11
322.3550068348
 21
394.0906089388
 31
0.0
  0
LINE
  5
11E
330
D2
100
AcDbEntity
  8
12080006_MP_HE_P
  6
Continuous
 62
     7
100
AcDbLine
 10
397.0050068349
 20
353.5906089388
 30
0.0
 11
397.1461124001
 21
353.5906089388
 31
0.0
  0
LINE
  5
11F
330
D2
100
AcDbEntity
  8
12080006_MP_HE_P
  6
Continuous
 62
     7
100
AcDbLine
 10
397.1461124001
 20
371.4906089388
 30
0.0
 11
397.0050068349
 21
371.4906089388
 31
0.0
  0
ARC
  5
120
330
D2
100
AcDbEntity
  8
12080006_MP_HE_P
  6
Continuous
 62
     7
100
AcDbCircle
 10
380.0050068349
 20
362.5406089388
 30
0.0
 40
19.5
100
AcDbArc
 50
333.2228950132
 51
26.7771049868
  0
ARC
  5
121
330
D2
100
AcDbEntity
  8
12080006_MP_HE_P
  6
Continuous
 62
     7
100
AcDbCircle
 10
397.1461124001
 20
353.8906089388
 30
0.0
 40
0.2999999999999999
100
AcDbArc
 50
270.0
 51
333.2228950132
  0
ARC
  5
122
330
D2
100
AcDbEntity
  8
12080006_MP_HE_P
  6
Continuous
 62
     7
100
AcDbCircle
 10
397.1461124001
 20
371.1906089388
 30
0.0
 40
0.2999999999999987
100
AcDbArc
 50
26.7771049868
 51
90.0
  0
LINE
  5
123
330
D2
100
AcDbEntity
  8
410278040_ESCUTC
  6
Continuous
 62
     7
100
AcDbLine
 10
274.855006253
 20
362.5406089395
 30
0.0
 11
274.855006253
 21
290.3406089315
 31
0.0
  0
LINE
  5
124
330
D2
100
AcDbEntity
  8
410278040_ESCUTC
  6
Continuous
 62
     7
100
AcDbLine
 10
274.855006253
 20
434.7406089461
 30
0.0
 11
274.855006253
 21
362.5406089395
 31
0.0
  0
SPLINE
  5
125
330
D2
100
AcDbEntity
  8
410278040_ESCUTC
  6
Continuous
 62
     7
100
AcDbSpline
210
0.0
220
0.0
230
1.0
 70
     8
 71
     3
 72
    38
 73
    34
 74
     0
 42
0.0000000001444718
 43
0.0000000001
 40
0.0
 40
0.0
 40
0.0
 40
0.0
 40
0.2500000000000019
 40
0.2500000000000019
 40
0.3125000000000023
 40
0.3125000000000023
 40
0.3437500000000027
 40
0.3437500000000027
 40
0.3593750000000028
 40
0.3593750000000028
 40
0.3750000000000029
 40
0.3750000000000029
 40
0.4062500000000031
 40
0.4062500000000031
 40
0.4218750000000031
 40
0.4218750000000031
 40
0.4375000000000031
 40
0.4375000000000031
 40
0.5000000000000031
 40
0.5000000000000031
 40
0.6250000000000033
 40
0.6250000000000033
 40
0.6406250000000033
 40
0.6406250000000033
 40
0.6484375000000031
 40
0.6484375000000031
 40
0.656250000000003
 40
0.656250000000003
 40
0.6875000000000027
 40
0.6875000000000027
 40
0.7500000000000021
 40
0.7500000000000021
 40
1.0
 40
1.0
 40
1.0
 40
1.0
 10
280.1580400572289
 20
362.540608936187
 30
0.0
 10
280.1580400457677
 20
373.8530469517033
 30
0.0
 10
280.0788971544868
 20
384.9275632618488
 30
0.0
 10
279.8868882346359
 20
398.4806524770747
 30
0.0
 10
279.8437574543653
 20
401.1778905818395
 30
0.0
 10
279.7720336514769
 20
405.1968622244008
 30
0.0
 10
279.7470156142339
 20
406.5286405785597
 30
0.0
 10
279.7078436474135
 20
408.5144964588612
 30
0.0
 10
279.6945095391497
 20
409.1746032935073
 30
0.0
 10
279.6673101553221
 20
410.4901869521471
 30
0.0
 10
279.6502294201156
 20
411.1586472173705
 30
0.0
 10
279.6237826074667
 20
413.0534609791373
 30
0.0
 10
279.6475601101909
 20
414.1232715654899
 30
0.0
 10
279.738129135998
 20
415.128672257573
 30
0.0
 10
279.7777183327024
 20
415.3722818472683
 30
0.0
 10
279.8715381725353
 20
415.6426701016283
 30
0.0
 10
279.9177625565846
 20
415.7767185393113
 30
0.0
 10
280.1406622646986
 20
416.5023986323843
 30
0.0
 10
280.2979682189203
 20
417.1961804129548
 30
0.0
 10
280.7045180921183
 20
419.6060269091936
 30
0.0
 10
280.8887727746346
 20
421.6463443662932
 30
0.0
 10
280.9948201253853
 20
424.4436529050145
 30
0.0
 10
281.005523088499
 20
424.7576548400506
 30
0.0
 10
281.0183110566176
 20
425.2520530085677
 30
0.0
 10
281.0222141399643
 20
425.4186151046685
 30
0.0
 10
281.0349770202996
 20
425.6908088091169
 30
0.0
 10
281.044056849337
 20
425.7939702166598
 30
0.0
 10
281.0944750387599
 20
426.2415950280326
 30
0.0
 10
281.1355153560194
 20
426.5559647927329
 30
0.0
 10
281.2495734844579
 20
427.4945023310179
 30
0.0
 10
281.31839745228
 20
428.0606197794094
 30
0.0
 10
281.624169329543
 20
430.5749658854377
 30
0.0
 10
281.7462998747646
 20
431.5833994311256
 30
0.0
 10
281.7462475765324
 20
431.5840929944498
 30
0.0
  0
SPLINE
  5
126
330
D2
100
AcDbEntity
  8
410278040_ESCUTC
  6
Continuous
 62
     7
100
AcDbSpline
210
0.0
220
0.0
230
1.0
 70
     8
 71
     3
 72
    36
 73
    32
 74
     0
 42
0.0000000001444694
 43
0.0000000001
 40
0.0
 40
0.0
 40
0.0
 40
0.0
 40
0.2500000000000002
 40
0.2500000000000002
 40
0.3125000000000002
 40
0.3125000000000002
 40
0.3437500000000002
 40
0.3437500000000002
 40
0.3593750000000001
 40
0.3593750000000001
 40
0.3750000000000001
 40
0.3750000000000001
 40
0.4999999999999998
 40
0.4999999999999998
 40
0.5624999999999998
 40
0.5624999999999998
 40
0.5781249999999999
 40
0.5781249999999999
 40
0.5937500000000001
 40
0.5937500000000001
 40
0.6249999999999999
 40
0.6249999999999999
 40
0.6406249999999998
 40
0.6406249999999998
 40
0.6562499999999997
 40
0.6562499999999997
 40
0.6874999999999996
 40
0.6874999999999996
 40
0.7499999999999996
 40
0.7499999999999996
 40
1.0
 40
1.0
 40
1.0
 40
1.0
 10
281.7462475762314
 20
293.4971248831282
 30
0.0
 10
281.7463018466802
 20
293.4977891894764
 30
0.0
 10
281.6272036083737
 20
294.4814328375494
 30
0.0
 10
281.3312898587143
 20
296.9145589501043
 30
0.0
 10
281.2647236480603
 20
297.4621354662705
 30
0.0
 10
281.1536652239024
 20
298.3758812410569
 30
0.0
 10
281.1145631415972
 20
298.6931310433262
 30
0.0
 10
281.0535847043371
 20
299.1987047080822
 30
0.0
 10
281.032644052309
 20
299.3721485311687
 30
0.0
 10
281.0129597007671
 20
299.9765868122342
 30
0.0
 10
281.0055237141229
 20
300.3135230740887
 30
0.0
 10
280.9091191527757
 20
303.1013363658713
 30
0.0
 10
280.7360959145766
 20
305.1781473096877
 30
0.0
 10
280.3464438059811
 20
307.6402813009674
 30
0.0
 10
280.1954231308966
 20
308.3515977178422
 30
0.0
 10
279.9803318737099
 20
309.1039283634859
 30
0.0
 10
279.9359969087462
 20
309.247524306664
 30
0.0
 10
279.8446664216797
 20
309.5209297024665
 30
0.0
 10
279.7958815475824
 20
309.6289746527216
 30
0.0
 10
279.6804152160941
 20
310.3566927034671
 30
0.0
 10
279.636476266214
 20
311.2793254905854
 30
0.0
 10
279.6351466499112
 20
313.0324185874609
 30
0.0
 10
279.648319165676
 20
313.695477200372
 30
0.0
 10
279.6765317813238
 20
315.0323605033398
 30
0.0
 10
279.6903564610696
 20
315.7028841692562
 30
0.0
 10
279.7309810297728
 20
317.720695058624
 30
0.0
 10
279.7569316309023
 20
319.0742204349854
 30
0.0
 10
279.8313428543375
 20
323.1597643812926
 30
0.0
 10
279.8762632942913
 20
325.9124117581384
 30
0.0
 10
280.0758665457141
 20
339.7243520739953
 30
0.0
 10
280.1580400689211
 20
351.0112653740537
 30
0.0
 10
280.1580400572289
 20
362.540608936187
 30
0.0
  0
ARC
  5
127
330
D2
100
AcDbEntity
  8
410278040_ESCUTC
  6
Continuous
 62
     7
100
AcDbCircle
 10
283.7401138864
 20
293.3406089096
 30
0.0
 40
2.000000028218742
100
AcDbArc
 50
92.0580747475
 51
175.5115582975
  0
LINE
  5
128
330
D2
100
AcDbEntity
  8
410278040_ESCUTC
  6
Continuous
 62
     7
100
AcDbLine
 10
279.186607222
 20
290.3406089315
 30
0.0
 11
274.855006253
 21
290.3406089315
 31
0.0
  0
SPLINE
  5
129
330
D2
100
AcDbEntity
  8
410278040_ESCUTC
  6
Continuous
 62
     7
100
AcDbSpline
210
0.0
220
0.0
230
1.0
 70
     8
 71
     3
 72
    14
 73
    10
 74
     0
 42
0.0000000002145032
 43
0.0000000001
 40
0.615262723849494
 40
0.615262723849494
 40
0.615262723849494
 40
0.615262723849494
 40
0.6249999999999978
 40
0.6249999999999978
 40
0.6406249999999979
 40
0.6406249999999979
 40
0.656249999999998
 40
0.656249999999998
 40
0.6703619842426366
 40
0.6703619842426366
 40
0.6703619842426366
 40
0.6703619842426366
 10
280.9027980221007
 20
300.24717723379
 30
0.0
 10
280.9104214117541
 20
300.0513212532324
 30
0.0
 10
280.9174942594697
 20
299.8525764953335
 30
0.0
 10
280.9344799114403
 20
299.3273388935619
 30
0.0
 10
280.9401358843451
 20
298.9548911018257
 30
0.0
 10
280.9677601889645
 20
298.4312701914644
 30
0.0
 10
280.9904289936728
 20
298.2880406928523
 30
0.0
 10
281.028831291458
 20
297.9747582361028
 30
0.0
 10
281.0466673871142
 20
297.8289524552836
 30
0.0
 10
281.0641223041436
 20
297.6860821741027
 30
0.0
  0
LINE
  5
12A
330
D2
100
AcDbEntity
  8
410278040_ESCUTC
  6
Continuous
 62
     7
100
AcDbLine
 10
279.1866072223
 20
434.7406089461
 30
0.0
 11
274.855006253
 21
434.7406089461
 31
0.0
  0
ARC
  5
12B
330
D2
100
AcDbEntity
  8
410278040_ESCUTC
  6
Continuous
 62
     7
100
AcDbCircle
 10
279.186607223
 20
432.2406089505
 30
0.0
 40
2.499999999289742
100
AcDbArc
 50
4.5437619734
 51
90.0000000161
  0
ARC
  5
12C
330
D2
100
AcDbEntity
  8
410278040_ESCUTC
  6
Continuous
 62
     7
100
AcDbCircle
 10
279.1866072054
 20
292.8406089431
 30
0.0
 40
2.500000011593895
100
AcDbArc
 50
270.0000003801
 51
355.4562376951
  0
ARC
  5
12D
330
D2
100
AcDbEntity
  8
410278040_ESCUTC
  6
Continuous
 62
     7
100
AcDbCircle
 10
283.7401138657
 20
431.7406089462
 30
0.0
 40
2.000000005518552
100
AcDbArc
 50
184.4884411283
 51
267.9419235136
  0
SPLINE
  5
12E
330
D2
100
AcDbEntity
  8
410278040_ESCUTC
  6
Continuous
 62
     7
100
AcDbSpline
210
0.0
220
0.0
230
1.0
 70
     8
 71
     3
 72
     8
 73
     4
 74
     0
 42
0.0000000137667732
 43
0.0000000001
 40
0.9986233226781969
 40
0.9986233226781969
 40
0.9986233226781969
 40
0.9986233226781969
 40
1.0
 40
1.0
 40
1.0
 40
1.0
 10
286.0717738138253
 20
297.654558707009
 30
0.0
 10
286.0717803843984
 20
297.6544987505034
 30
0.0
 10
286.0717835270685
 20
297.6544670138505
 30
0.0
 10
286.0717832416994
 20
297.654463499518
 30
0.0
  0
SPLINE
  5
12F
330
D2
100
AcDbEntity
  8
410278040_ESCUTC
  6
Continuous
 62
     7
100
AcDbSpline
210
0.0
220
0.0
230
1.0
 70
     8
 71
     3
 72
     8
 73
     4
 74
     0
 42
0.0000000149190269
 43
0.0000000001
 40
0.0
 40
0.0
 40
0.0
 40
0.0
 40
0.0014919026946263
 40
0.0014919026946263
 40
0.0014919026946263
 40
0.0014919026946263
 10
286.0717830638197
 20
427.4267543575702
 30
0.0
 10
286.0717833574445
 20
427.426750414252
 30
0.0
 10
286.0717796117756
 20
427.4267132173418
 30
0.0
 10
286.0717718269523
 20
427.4266427696923
 30
0.0
  0
ARC
  5
130
330
D2
100
AcDbEntity
  8
410278040_ESCUTC
  6
Continuous
 62
     7
100
AcDbCircle
 10
283.5785076782
 20
427.2435117138
 30
0.0
 40
2.500000003052833
100
AcDbArc
 50
4.2033815337
 51
87.9419236155
  0
ARC
  5
131
330
D2
100
AcDbEntity
  8
410278040_ESCUTC
  6
Continuous
 62
     7
100
AcDbCircle
 10
283.5785078916
 20
297.8377061355
 30
0.0
 40
2.499999967001632
100
AcDbArc
 50
272.0580733674
 51
355.7966185826
  0
ARC
  5
132
330
D2
100
AcDbEntity
  8
410278040_ESCUTC
  6
Continuous
 62
     7
100
AcDbCircle
 10
-9968.7497947239
 20
362.5405832111
 30
0.0
 40
10255.99742801355
100
AcDbArc
 50
359.7300476185
 51
0.2699526711
  0
ARC
  5
133
330
D2
100
AcDbEntity
  8
410278040_ESCUTC
  6
Continuous
 62
     7
100
AcDbCircle
 10
-9907.6289854853
 20
362.5405833275
 30
0.0
 40
10194.83255478599
100
AcDbArc
 50
359.7303946568
 51
359.7303973085
  0
LINE
  5
134
330
D2
100
AcDbEntity
  8
410278040_ESCUTC
  6
Continuous
 62
     7
100
AcDbLine
 10
281.7285065016
 20
431.5828724251
 30
0.0
 11
281.669556447
 21
432.4380286844
 31
0.0
  0
LINE
  5
135
330
D2
100
AcDbEntity
  8
410278040_ESCUTC
  6
Continuous
 62
     7
100
AcDbLine
 10
281.6695569348
 20
292.6431962735
 30
0.0
 11
281.728507011
 21
293.498352846
 31
0.0
  0
LINE
  5
136
330
D2
100
AcDbEntity
  8
410278040_ESCUTC
  6
Continuous
 62
     7
100
AcDbLine
 10
287.0911963249
 20
410.8292637635
 30
0.0
 11
286.0625101457
 21
427.4261773783
 31
0.0
  0
LINE
  5
137
330
D2
100
AcDbEntity
  8
410278040_ESCUTC
  6
Continuous
 62
     7
100
AcDbLine
 10
286.0625106737
 20
297.655046155
 30
0.0
 11
287.0896651274
 21
314.2272448846
 31
0.0
  0
ARC
  5
138
330
D2
100
AcDbEntity
  8
410278040_ESCUTC
  6
Continuous
 62
     7
100
AcDbCircle
 10
295.9657058444
 20
300.273620604
 30
0.0
 40
15.05773821201798
100
AcDbArc
 50
179.0879636521
 51
188.0110847185
  0
ENDBLK
  5
13A
330
D2
100
AcDbEntity
  8
0
100
AcDbBlockEnd
  0
BLOCK
  5
197
330
13B
100
AcDbEntity
  8
0
100
AcDbBlockBegin
  2
SE2
 70
     0
 10
0.0
 20
0.0
 30
0.0
  3
SE2
  1

  0
LINE
  5
13D
330
13B
100
AcDbEntity
  8
410290038_SLEEVE
  6
Continuous
 62
     7
100
AcDbLine
 10
69.399995
 20
183.5
 30
0.0
 11
132.899995
 21
183.5
 31
0.0
  0
LINE
  5
13E
330
13B
100
AcDbEntity
  8
410290038_SLEEVE
  6
Continuous
 62
     7
100
AcDbLine
 10
132.899995
 20
183.5
 30
0.0
 11
132.899995
 21
218.6730722906
 31
0.0
  0
LINE
  5
13F
330
13B
100
AcDbEntity
  8
410290038_SLEEVE
  6
Continuous
 62
     7
100
AcDbLine
 10
69.399995
 20
218.6731173723
 30
0.0
 11
69.399995
 21
183.5
 31
0.0
  0
LINE
  5
140
330
13B
100
AcDbEntity
  8
410317038_HANDLE
  6
Continuous
 62
     7
100
AcDbLine
 10
88.3587709631
 20
142.6
 30
0.0
 11
113.9412190369
 21
142.6
 31
0.0
  0
LINE
  5
141
330
13B
100
AcDbEntity
  8
410317038_HANDLE
  6
Continuous
 62
     7
100
AcDbLine
 10
132.6964735214
 20
182.4129103926
 30
0.0
 11
69.6035164786
 21
182.4129103926
 31
0.0
  0
CIRCLE
  5
142
330
13B
100
AcDbEntity
  8
410317038_HANDLE
  6
Continuous
 62
     7
100
AcDbCircle
 10
101.149995
 20
171.51
 30
0.0
 40
8.00000000000001
  0
LINE
  5
143
330
13B
100
AcDbEntity
  8
410317038_HANDLE
  6
Continuous
 62
     7
100
AcDbLine
 10
71.949995
 20
182.9
 30
0.0
 11
71.949995
 21
182.4129103926
 31
0.0
  0
LINE
  5
144
330
13B
100
AcDbEntity
  8
410317038_HANDLE
  6
Continuous
 62
     7
100
AcDbLine
 10
130.349995
 20
182.4129103926
 30
0.0
 11
130.349995
 21
182.9
 31
0.0
  0
LINE
  5
145
330
13B
100
AcDbEntity
  8
410317038_HANDLE
  6
Continuous
 62
     7
100
AcDbLine
 10
69.4035469396
 20
182.2094199113
 30
0.0
 11
69.8153016399
 21
158.6200089265
 31
0.0
  0
LINE
  5
146
330
13B
100
AcDbEntity
  8
410317038_HANDLE
  6
Continuous
 62
     7
100
AcDbLine
 10
132.4846883601
 20
158.6200089265
 30
0.0
 11
132.8964430604
 21
182.2094199113
 31
0.0
  0
ARC
  5
147
330
13B
100
AcDbEntity
  8
410317038_HANDLE
  6
Continuous
 62
     7
100
AcDbCircle
 10
68.8321682422
 20
136.8580623057
 30
0.0
 40
19.9999999999998
100
AcDbArc
 50
17.7271688632
 51
82.2076593763
  0
ARC
  5
148
330
13B
100
AcDbEntity
  8
410317038_HANDLE
  6
Continuous
 62
     7
100
AcDbCircle
 10
133.4678217578
 20
136.8580623057
 30
0.0
 40
20.0
100
AcDbArc
 50
97.7923406237
 51
162.2728311368
  0
ARC
  5
149
330
13B
100
AcDbEntity
  8
410317038_HANDLE
  6
Continuous
 62
     7
100
AcDbCircle
 10
130.4849929698
 20
158.6549137394
 30
0.0
 40
2.000000000000183
100
AcDbArc
 50
277.7923406236
 51
359.0
  0
ARC
  5
14A
330
13B
100
AcDbEntity
  8
410317038_HANDLE
  6
Continuous
 62
     7
100
AcDbCircle
 10
71.8149970302
 20
158.6549137394
 30
0.0
 40
2.0
100
AcDbArc
 50
181.0
 51
262.2076593764
  0
ARC
  5
14B
330
13B
100
AcDbEntity
  8
410317038_HANDLE
  6
Continuous
 62
     7
100
AcDbCircle
 10
113.9412190369
 20
143.1
 30
0.0
 40
0.5000000000000004
100
AcDbArc
 50
270.0
 51
342.2728311368
  0
ARC
  5
14C
330
13B
100
AcDbEntity
  8
410317038_HANDLE
  6
Continuous
 62
     7
100
AcDbCircle
 10
88.3587709631
 20
143.1
 30
0.0
 40
0.4999999999999975
100
AcDbArc
 50
197.7271688632
 51
270.0
  0
ARC
  5
14D
330
13B
100
AcDbEntity
  8
410317038_HANDLE
  6
Continuous
 62
     7
100
AcDbCircle
 10
132.6964735214
 20
182.2129103926
 30
0.0
 40
0.1999999999999992
100
AcDbArc
 50
359.0
 51
90.0
  0
ARC
  5
14E
330
13B
100
AcDbEntity
  8
410317038_HANDLE
  6
Continuous
 62
     7
100
AcDbCircle
 10
69.6035164786
 20
182.2129103926
 30
0.0
 40
0.1999999999999988
100
AcDbArc
 50
90.0
 51
181.0
  0
SPLINE
  5
14F
330
13B
100
AcDbEntity
  8
410310038_RING_K
  6
Continuous
 62
     7
100
AcDbSpline
210
0.0
220
0.0
230
1.0
 70
     8
 71
     3
 72
     8
 73
     4
 74
     0
 42
0.0000000014411616
 43
0.0000000001
 40
0.0
 40
0.0
 40
0.0
 40
0.0
 40
1.0
 40
1.0
 40
1.0
 40
1.0
 10
88.19827856021156
 20
141.9061045258826
 30
0.0
 10
89.00427638072892
 20
139.6085818574973
 30
0.0
 10
89.5649085217844
 20
137.3720314171285
 30
0.0
 10
89.88017498337798
 20
135.1964532047761
 30
0.0
  0
SPLINE
  5
150
330
13B
100
AcDbEntity
  8
410310038_RING_K
  6
Continuous
 62
     7
100
AcDbSpline
210
0.0
220
0.0
230
1.0
 70
     8
 71
     3
 72
     8
 73
     4
 74
     0
 42
0.0000000014101317
 43
0.0000000001
 40
0.0158691824085694
 40
0.0158691824085694
 40
0.0158691824085694
 40
0.0158691824085694
 40
1.0
 40
1.0
 40
1.0
 40
1.0
 10
112.4131289562454
 20
135.1807881705026
 30
0.0
 10
112.8990365313139
 20
138.0069063741891
 30
0.0
 10
113.4615317694489
 20
140.2570593659804
 30
0.0
 10
114.1006146706505
 20
141.9312471458762
 30
0.0
  0
ARC
  5
151
330
13B
100
AcDbEntity
  8
410310038_RING_K
  6
Continuous
 62
     7
100
AcDbCircle
 10
98.2103341365
 20
130.4219851826
 30
0.0
 40
9.499999999999986
100
AcDbArc
 50
151.8850039707
 51
164.2095579456
  0
ARC
  5
152
330
13B
100
AcDbEntity
  8
410310038_RING_K
  6
Continuous
 62
     7
100
AcDbCircle
 10
104.0896558635
 20
130.4219851826
 30
0.0
 40
9.49999999999999
100
AcDbArc
 50
15.7904420544
 51
28.1149960293
  0
ARC
  5
153
330
13B
100
AcDbEntity
  8
410310038_RING_K
  6
Continuous
 62
     7
100
AcDbCircle
 10
89.549963525
 20
132.8710627376
 30
0.0
 40
0.4999999999999897
100
AcDbArc
 50
164.2095579456
 51
219.8055710923
  0
ARC
  5
154
330
13B
100
AcDbEntity
  8
410310038_RING_K
  6
Continuous
 62
     7
100
AcDbCircle
 10
112.750026475
 20
132.8710627376
 30
0.0
 40
0.5000000000000157
100
AcDbArc
 50
320.1944289077
 51
15.7904420544
  0
LINE
  5
155
330
13B
100
AcDbEntity
  8
410310038_RING_K
  6
Continuous
 62
     7
100
AcDbLine
 10
89.1658528852
 20
132.5509705378
 30
0.0
 11
89.6000718332
 21
132.0299078002
 31
0.0
  0
LINE
  5
156
330
13B
100
AcDbEntity
  8
410310038_RING_K
  6
Continuous
 62
     7
100
AcDbLine
 10
112.6999181668
 20
132.0299078002
 30
0.0
 11
113.1341371148
 21
132.5509705378
 31
0.0
  0
ARC
  5
157
330
13B
100
AcDbEntity
  8
410310038_RING_K
  6
Continuous
 62
     7
100
AcDbCircle
 10
89.3902985583
 20
135.1344126248
 30
0.0
 40
0.499999999999997
100
AcDbArc
 50
331.8850039707
 51
8.9249464668
  0
ARC
  5
158
330
13B
100
AcDbEntity
  8
410310038_RING_K
  6
Continuous
 62
     7
100
AcDbCircle
 10
112.9096914417
 20
135.1344126248
 30
0.0
 40
0.5000000000000151
100
AcDbArc
 50
171.0750535332
 51
208.1149960293
  0
ARC
  5
159
330
13B
100
AcDbEntity
  8
410310038_RING_K
  6
Continuous
 62
     7
100
AcDbCircle
 10
88.6957545628
 20
142.1
 30
0.0
 40
0.5000000000000004
100
AcDbArc
 50
90.0
 51
198.8443742512
  0
ARC
  5
15A
330
13B
100
AcDbEntity
  8
410310038_RING_K
  6
Continuous
 62
     7
100
AcDbCircle
 10
113.6042354372
 20
142.1
 30
0.0
 40
0.4999999999999963
100
AcDbArc
 50
341.1556257488
 51
90.0
  0
ARC
  5
15B
330
13B
100
AcDbEntity
  8
410310038_RING_K
  6
Continuous
 62
     7
100
AcDbCircle
 10
112.315807527
 20
132.35
 30
0.0
 40
0.5000000000000004
100
AcDbArc
 50
270.0
 51
320.1944289077
  0
ARC
  5
15C
330
13B
100
AcDbEntity
  8
410310038_RING_K
  6
Continuous
 62
     7
100
AcDbCircle
 10
89.984182473
 20
132.35
 30
0.0
 40
0.5000000000000222
100
AcDbArc
 50
219.8055710923
 51
270.0
  0
LINE
  5
15D
330
13B
100
AcDbEntity
  8
410005038_HANDLE
  6
Continuous
 62
     7
100
AcDbLine
 10
90.8721584361
 20
113.75
 30
0.0
 11
111.4278315639
 21
113.75
 31
0.0
  0
LINE
  5
15E
330
13B
100
AcDbEntity
  8
410005038_HANDLE
  6
Continuous
 62
     7
100
AcDbLine
 10
89.9426697135
 20
131.85
 30
0.0
 11
112.3573202865
 21
131.85
 31
0.0
  0
ARC
  5
15F
330
13B
100
AcDbEntity
  8
410005038_HANDLE
  6
Continuous
 62
     7
100
AcDbCircle
 10
101.149995
 20
123.383924434
 30
0.0
 40
14.25
100
AcDbArc
 50
144.5950951231
 51
180.0
  0
ARC
  5
160
330
13B
100
AcDbEntity
  8
410005038_HANDLE
  6
Continuous
 62
     7
100
AcDbCircle
 10
101.149995
 20
123.383924434
 30
0.0
 40
14.25
100
AcDbArc
 50
318.372472413
 51
35.4049048769
  0
ARC
  5
161
330
13B
100
AcDbEntity
  8
410005038_HANDLE
  6
Continuous
 62
     7
100
AcDbCircle
 10
101.149995
 20
123.383924434
 30
0.0
 40
14.25
100
AcDbArc
 50
180.0
 51
221.627527587
  0
ARC
  5
162
330
13B
100
AcDbEntity
  8
410005038_HANDLE
  6
Continuous
 62
     7
100
AcDbCircle
 10
111.4278315639
 20
114.25
 30
0.0
 40
0.5000000000000004
100
AcDbArc
 50
270.0
 51
318.372472413
  0
ARC
  5
163
330
13B
100
AcDbEntity
  8
410005038_HANDLE
  6
Continuous
 62
     7
100
AcDbCircle
 10
90.8721584361
 20
114.25
 30
0.0
 40
0.4999999999999992
100
AcDbArc
 50
221.627527587
 51
270.0
  0
ARC
  5
164
330
13B
100
AcDbEntity
  8
410005038_HANDLE
  6
Continuous
 62
     7
100
AcDbCircle
 10
89.9426697135
 20
131.35
 30
0.0
 40
0.5000000000000004
100
AcDbArc
 50
90.0
 51
144.5950951231
  0
ARC
  5
165
330
13B
100
AcDbEntity
  8
410005038_HANDLE
  6
Continuous
 62
     7
100
AcDbCircle
 10
112.3573202865
 20
131.35
 30
0.0
 40
0.4999999999999993
100
AcDbArc
 50
35.4049048769
 51
90.0
  0
LINE
  5
166
330
13B
100
AcDbEntity
  8
410006038_DECORA
  6
Continuous
 62
     7
100
AcDbLine
 10
110.5068849675
 20
108.85
 30
0.0
 11
91.7931050325
 21
108.85
 31
0.0
  0
ARC
  5
167
330
13B
100
AcDbEntity
  8
410006038_DECORA
  6
Continuous
 62
     7
100
AcDbCircle
 10
91.1054583992
 20
113.25
 30
0.0
 40
0.5000000000000004
100
AcDbArc
 50
90.0
 51
173.2851563915
  0
ARC
  5
168
330
13B
100
AcDbEntity
  8
410006038_DECORA
  6
Continuous
 62
     7
100
AcDbCircle
 10
111.1945316008
 20
113.25
 30
0.0
 40
0.5000000000000002
100
AcDbArc
 50
6.7148436085
 51
90.0
  0
ARC
  5
169
330
13B
100
AcDbEntity
  8
410006038_DECORA
  6
Continuous
 62
     7
100
AcDbCircle
 10
81.5713103209
 20
114.3725091629
 30
0.0
 40
9.100000333333371
100
AcDbArc
 50
333.7226300101
 51
353.2851563915
  0
ARC
  5
16A
330
13B
100
AcDbEntity
  8
410006038_DECORA
  6
Continuous
 62
     7
100
AcDbCircle
 10
120.7286796791
 20
114.3725091629
 30
0.0
 40
9.100000333333362
100
AcDbArc
 50
186.7148436085
 51
206.2773699899
  0
ARC
  5
16B
330
13B
100
AcDbEntity
  8
410006038_DECORA
  6
Continuous
 62
     7
100
AcDbCircle
 10
90.3585919426
 20
110.0338817033
 30
0.0
 40
0.7000000000000013
100
AcDbArc
 50
153.7226300103
 51
251.1008225568
  0
ARC
  5
16C
330
13B
100
AcDbEntity
  8
410006038_DECORA
  6
Continuous
 62
     7
100
AcDbCircle
 10
111.9413980574
 20
110.0338817033
 30
0.0
 40
0.7000000000000045
100
AcDbArc
 50
288.8991774432
 51
26.2773699897
  0
ARC
  5
16D
330
13B
100
AcDbEntity
  8
410006038_DECORA
  6
Continuous
 62
     7
100
AcDbCircle
 10
101.1445896767
 20
141.5386790028
 30
0.0
 40
34.00000000000158
100
AcDbArc
 50
251.1008225568
 51
254.0353836123
  0
ARC
  5
16E
330
13B
100
AcDbEntity
  8
410006038_DECORA
  6
Continuous
 62
     7
100
AcDbCircle
 10
101.1554003233
 20
141.5386790028
 30
0.0
 40
34.00000000000158
100
AcDbArc
 50
285.9646163877
 51
288.8991774432
  0
LINE
  5
16F
330
13B
100
AcDbEntity
  8
410228031_BEARIN
  6
Continuous
 62
     7
100
AcDbLine
 10
132.699995
 20
182.9
 30
0.0
 11
130.5771698095
 21
182.9
 31
0.0
  0
LINE
  5
170
330
13B
100
AcDbEntity
  8
410228031_BEARIN
  6
Continuous
 62
     7
100
AcDbLine
 10
130.003144661
 20
182.9
 30
0.0
 11
69.599995
 21
182.9
 31
0.0
  0
LINE
  5
171
330
13B
100
AcDbEntity
  8
410228031_BEARIN
  6
Continuous
 62
     7
100
AcDbLine
 10
130.003144661
 20
182.9
 30
0.0
 11
130.003144661
 21
183.5
 31
0.0
  0
LINE
  5
172
330
13B
100
AcDbEntity
  8
410228031_BEARIN
  6
Continuous
 62
     7
100
AcDbLine
 10
130.5771698095
 20
182.9
 30
0.0
 11
130.003144661
 21
182.9
 31
0.0
  0
LINE
  5
173
330
13B
100
AcDbEntity
  8
410228031_BEARIN
  6
Continuous
 62
     7
100
AcDbLine
 10
130.5771698095
 20
183.5
 30
0.0
 11
130.5771698095
 21
182.9
 31
0.0
  0
LINE
  5
174
330
13B
100
AcDbEntity
  8
410228031_BEARIN
  6
Continuous
 62
     7
100
AcDbLine
 10
69.599995
 20
183.5
 30
0.0
 11
69.599995
 21
182.9
 31
0.0
  0
LINE
  5
175
330
13B
100
AcDbEntity
  8
410228031_BEARIN
  6
Continuous
 62
     7
100
AcDbLine
 10
132.699995
 20
182.9
 30
0.0
 11
132.699995
 21
183.5
 31
0.0
  0
LINE
  5
176
330
13B
100
AcDbEntity
  8
12080006_MP_HE_P
  6
Continuous
 62
     7
100
AcDbLine
 10
92.199995
 20
108.85
 30
0.0
 11
92.199995
 21
108.7088944347
 31
0.0
  0
LINE
  5
177
330
13B
100
AcDbEntity
  8
12080006_MP_HE_P
  6
Continuous
 62
     7
100
AcDbLine
 10
110.099995
 20
108.7088944347
 30
0.0
 11
110.099995
 21
108.85
 31
0.0
  0
ARC
  5
178
330
13B
100
AcDbEntity
  8
12080006_MP_HE_P
  6
Continuous
 62
     7
100
AcDbCircle
 10
101.149995
 20
125.85
 30
0.0
 40
19.49999999999999
100
AcDbArc
 50
243.2228950132
 51
270.0
  0
ARC
  5
179
330
13B
100
AcDbEntity
  8
12080006_MP_HE_P
  6
Continuous
 62
     7
100
AcDbCircle
 10
101.149995
 20
125.85
 30
0.0
 40
19.5
100
AcDbArc
 50
270.0
 51
296.7771049868
  0
ARC
  5
17A
330
13B
100
AcDbEntity
  8
12080006_MP_HE_P
  6
Continuous
 62
     7
100
AcDbCircle
 10
92.499995
 20
108.7088944347
 30
0.0
 40
0.2999999999999999
100
AcDbArc
 50
180.0
 51
243.2228950132
  0
ARC
  5
17B
330
13B
100
AcDbEntity
  8
12080006_MP_HE_P
  6
Continuous
 62
     7
100
AcDbCircle
 10
109.799995
 20
108.7088944347
 30
0.0
 40
0.2999999999999987
100
AcDbArc
 50
296.7771049868
 51
0.0
  0
LINE
  5
17C
330
13B
100
AcDbEntity
  8
410278040_ESCUTC
  6
Continuous
 62
     7
100
AcDbLine
 10
195.9499938749
 20
231.0000005819
 30
0.0
 11
101.149998875
 21
231.0000005819
 31
0.0
  0
LINE
  5
17D
330
13B
100
AcDbEntity
  8
410278040_ESCUTC
  6
Continuous
 62
     7
100
AcDbLine
 10
101.149998875
 20
231.0000005819
 30
0.0
 11
6.3500038749
 21
231.0000005819
 31
0.0
  0
SPLINE
  5
17E
330
13B
100
AcDbEntity
  8
410278040_ESCUTC
  6
Continuous
 62
     7
100
AcDbSpline
210
0.0
220
0.0
230
1.0
 70
     8
 71
     3
 72
     8
 73
     4
 74
     0
 42
0.0000000214380652
 43
0.0000000001
 40
0.0
 40
0.0
 40
0.0
 40
0.0
 40
0.0021438065199386
 40
0.0021438065199386
 40
0.0021438065199386
 40
0.0021438065199386
 10
9.53684618661836
 20
225.6969667776374
 30
0.0
 10
9.536846186591383
 20
225.6969667777357
 30
0.0
 10
9.536953501398242
 20
225.6969725975663
 30
0.0
 10
9.53716810840019
 20
225.6969842341789
 30
0.0
  0
SPLINE
  5
17F
330
13B
100
AcDbEntity
  8
410278040_ESCUTC
  6
Continuous
 62
     7
100
AcDbSpline
210
0.0
220
0.0
230
1.0
 70
     8
 71
     3
 72
    18
 73
    14
 74
     0
 42
0.0000000003726255
 43
0.0000000001
 40
0.0021438065199386
 40
0.0021438065199386
 40
0.0021438065199386
 40
0.0021438065199386
 40
0.2500000000000031
 40
0.2500000000000031
 40
0.3125000000000039
 40
0.3125000000000039
 40
0.3437500000000044
 40
0.3437500000000044
 40
0.3593750000000046
 40
0.3593750000000046
 40
0.3750000000000048
 40
0.3750000000000048
 40
0.3804995538023029
 40
0.3804995538023029
 40
0.3804995538023029
 40
0.3804995538023029
 10
9.53716810840019
 20
225.6969842341789
 30
0.0
 10
9.561979897197787
 20
225.6983296011605
 30
0.0
 10
11.02094805847868
 20
225.7774268962972
 30
0.0
 10
14.59980141017014
 20
225.9681186002304
 30
0.0
 10
15.41136405292533
 20
226.011249380501
 30
0.0
 10
16.76640628529133
 20
226.0829731833894
 30
0.0
 10
17.23988751433476
 20
226.1079912206325
 30
0.0
 10
17.98279273460954
 20
226.1471631874529
 30
0.0
 10
18.23592541641937
 20
226.1604972957166
 30
0.0
 10
18.75282484455684
 20
226.1876966795442
 30
0.0
 10
18.98699356260078
 20
226.2047774147507
 30
0.0
 10
19.41678361051026
 20
226.216695859907
 30
0.0
 10
19.54122566161298
 20
226.2185162327207
 30
0.0
 10
19.67708903151413
 20
226.2190803369729
 30
0.0
  0
SPLINE
  5
180
330
13B
100
AcDbEntity
  8
410278040_ESCUTC
  6
Continuous
 62
     7
100
AcDbSpline
210
0.0
220
0.0
230
1.0
 70
     8
 71
     3
 72
    16
 73
    12
 74
     0
 42
0.0000000000791424
 43
0.0000000001
 40
0.3804995538023029
 40
0.3804995538023029
 40
0.3804995538023029
 40
0.3804995538023029
 40
0.4062500000000051
 40
0.4062500000000051
 40
0.4218750000000051
 40
0.4218750000000051
 40
0.4375000000000052
 40
0.4375000000000052
 40
0.5000000000000056
 40
0.5000000000000056
 40
0.6107323041832821
 40
0.6107323041832821
 40
0.6107323041832821
 40
0.6107323041832821
 10
19.67708903151413
 20
226.2190803369729
 30
0.0
 10
20.31323925799543
 20
226.2217216305611
 30
0.0
 10
21.19978748771358
 20
226.1968208210968
 30
0.0
 10
22.84032380752571
 20
226.1168776988683
 30
0.0
 10
23.51829852939295
 20
226.077288502164
 30
0.0
 10
24.91374741610673
 20
225.983468662331
 30
0.0
 10
25.61177995175635
 20
225.9372442782817
 30
0.0
 10
29.08955924559756
 20
225.7143445701677
 30
0.0
 10
31.85046860661811
 20
225.557038615946
 30
0.0
 10
39.40825604613603
 20
225.1814249023486
 30
0.0
 10
44.1283485513157
 20
225.009426873392
 30
0.0
 10
48.73469947897625
 20
224.9077606648065
 30
0.0
  0
SPLINE
  5
181
330
13B
100
AcDbEntity
  8
410278040_ESCUTC
  6
Continuous
 62
     7
100
AcDbSpline
210
0.0
220
0.0
230
1.0
 70
     8
 71
     3
 72
    18
 73
    14
 74
     0
 42
0.0000000000766198
 43
0.0000000001
 40
0.6107323041832821
 40
0.6107323041832821
 40
0.6107323041832821
 40
0.6107323041832821
 40
0.6250000000000064
 40
0.6250000000000064
 40
0.6406250000000066
 40
0.6406250000000066
 40
0.6484375000000064
 40
0.6484375000000064
 40
0.6562500000000062
 40
0.6562500000000062
 40
0.6875000000000057
 40
0.6875000000000057
 40
0.728239779043937
 40
0.728239779043937
 40
0.728239779043937
 40
0.728239779043937
 10
48.73469947897625
 20
224.9077606648065
 30
0.0
 10
49.32822107455479
 20
224.8946611221787
 30
0.0
 10
49.9198543385515
 20
224.8827292246679
 30
0.0
 10
51.15543484678513
 20
224.860186709481
 30
0.0
 10
51.80025051278267
 20
224.8494837463673
 30
0.0
 10
52.75980470725131
 20
224.8366957782488
 30
0.0
 10
53.07908180224589
 20
224.8327926949021
 30
0.0
 10
53.73772057586996
 20
224.8200298145667
 30
0.0
 10
54.07789591463079
 20
224.8109499855294
 30
0.0
 10
55.80126403970929
 20
224.7605317961064
 30
0.0
 10
57.19446224310414
 20
224.7194914788469
 30
0.0
 10
60.40531830954715
 20
224.6319072712261
 30
0.0
 10
62.23292731837267
 20
224.5854079351289
 30
0.0
 10
64.06659445191235
 20
224.5421000576873
 30
0.0
  0
SPLINE
  5
182
330
13B
100
AcDbEntity
  8
410278040_ESCUTC
  6
Continuous
 62
     7
100
AcDbSpline
210
0.0
220
0.0
230
1.0
 70
     8
 71
     3
 72
    10
 73
     6
 74
     0
 42
0.0000000000732758
 43
0.0000000001
 40
0.728239779043937
 40
0.728239779043937
 40
0.728239779043937
 40
0.728239779043937
 40
0.7500000000000046
 40
0.7500000000000046
 40
1.0
 40
1.0
 40
1.0
 40
1.0
 10
64.06659445191235
 20
224.5421000576873
 30
0.0
 10
65.04600580175487
 20
224.5189681457235
 30
0.0
 10
66.0271454847993
 20
224.4967467306903
 30
0.0
 10
78.29348927868837
 20
224.2308375053234
 30
0.0
 10
89.6735078616732
 20
224.1087069601017
 30
0.0
 10
101.1498233461212
 20
224.1087592583339
 30
0.0
  0
SPLINE
  5
183
330
13B
100
AcDbEntity
  8
410278040_ESCUTC
  6
Continuous
 62
     7
100
AcDbSpline
210
0.0
220
0.0
230
1.0
 70
     8
 71
     3
 72
    28
 73
    24
 74
     0
 42
0.0000000000770941
 43
0.0000000001
 40
0.0409604203067225
 40
0.0409604203067225
 40
0.0409604203067225
 40
0.0409604203067225
 40
0.2500000000000004
 40
0.2500000000000004
 40
0.3125000000000005
 40
0.3125000000000005
 40
0.3437500000000006
 40
0.3437500000000006
 40
0.3593750000000005
 40
0.3593750000000005
 40
0.3750000000000006
 40
0.3750000000000006
 40
0.5000000000000007
 40
0.5000000000000007
 40
0.562500000000001
 40
0.562500000000001
 40
0.578125000000001
 40
0.578125000000001
 40
0.5937500000000011
 40
0.5937500000000011
 40
0.6250000000000012
 40
0.6250000000000012
 40
0.6262830934159606
 40
0.6262830934159606
 40
0.6262830934159606
 40
0.6262830934159606
 10
106.7101789268529
 20
224.1183215244528
 30
0.0
 10
116.1524761724274
 20
224.1508892457586
 30
0.0
 10
125.5096040129957
 20
224.2665896241545
 30
0.0
 10
137.5556419375413
 20
224.5237169488351
 30
0.0
 10
140.3206880737335
 20
224.590283154299
 30
0.0
 10
144.4567703963595
 20
224.7013415699411
 30
0.0
 10
145.8338812392808
 20
224.7404436492515
 30
0.0
 10
147.8958736623811
 20
224.8014220819682
 30
0.0
 10
148.5872093021069
 20
224.8223627329208
 30
0.0
 10
149.8622704634864
 20
224.8420470825688
 30
0.0
 10
150.4854942178768
 20
224.8494830676461
 30
0.0
 10
156.1949552874943
 20
224.9458876167812
 30
0.0
 10
161.4479022447959
 20
225.1189108423789
 30
0.0
 10
169.5462396241772
 20
225.5085629287879
 30
0.0
 10
172.2734726503605
 20
225.6595835959251
 30
0.0
 10
175.7172725893134
 20
225.87467484229
 30
0.0
 10
176.4077436155345
 20
225.9190098050447
 30
0.0
 10
177.7923881673022
 20
226.0103402875978
 30
0.0
 10
178.4925736180761
 20
226.0591251596825
 30
0.0
 10
180.4815829997839
 20
226.1745914873448
 30
0.0
 10
181.6823881928408
 20
226.2185304369784
 30
0.0
 10
182.527071528943
 20
226.2194532450353
 30
0.0
 10
182.5595811561307
 20
226.2193978245137
 30
0.0
 10
182.591342453913
 20
226.2192576108891
 30
0.0
  0
SPLINE
  5
184
330
13B
100
AcDbEntity
  8
410278040_ESCUTC
  6
Continuous
 62
     7
100
AcDbSpline
210
0.0
220
0.0
230
1.0
 70
     8
 71
     3
 72
    16
 73
    12
 74
     0
 42
0.0000000003669064
 43
0.0000000001
 40
0.6262830934159606
 40
0.6262830934159606
 40
0.6262830934159606
 40
0.6262830934159606
 40
0.6406250000000011
 40
0.6406250000000011
 40
0.656250000000001
 40
0.656250000000001
 40
0.6875000000000009
 40
0.6875000000000009
 40
0.7500000000000007
 40
0.7500000000000007
 40
1.0
 40
1.0
 40
1.0
 40
1.0
 10
182.591342453913
 20
226.2192576108891
 30
0.0
 10
182.9463575760516
 20
226.2176903589019
 30
0.0
 10
183.2078773427706
 20
226.2055291609133
 30
0.0
 10
183.7225051320678
 20
226.1784749289585
 30
0.0
 10
183.9851888378517
 20
226.1646502504343
 30
0.0
 10
184.7563141239955
 20
226.124025685603
 30
0.0
 10
185.2478345922729
 20
226.098075087331
 30
0.0
 10
186.6546724813077
 20
226.0236638732689
 30
0.0
 10
187.5003982867608
 20
225.9787434406174
 30
0.0
 10
191.2482509524086
 20
225.7791402301243
 30
0.0
 10
192.763151561145
 20
225.696966754407
 30
0.0
 10
192.7631515622928
 20
225.6969668147049
 30
0.0
  0
SPLINE
  5
185
330
13B
100
AcDbEntity
  8
410278040_ESCUTC
  6
Continuous
 62
     7
100
AcDbSpline
210
0.0
220
0.0
230
1.0
 70
     8
 71
     3
 72
    14
 73
    10
 74
     0
 42
0.0000000034121265
 43
0.0000000001
 40
0.0
 40
0.0
 40
0.0
 40
0.0
 40
0.25
 40
0.25
 40
0.5
 40
0.5
 40
0.75
 40
0.75
 40
1.0
 40
1.0
 40
1.0
 40
1.0
 10
192.7631515622928
 20
225.6969668147049
 30
0.0
 10
192.5213249846714
 20
225.6742758614222
 30
0.0
 10
192.283747626779
 20
225.6070579536568
 30
0.0
 10
191.8480114779111
 20
225.3923164798106
 30
0.0
 10
191.6499798383448
 20
225.2448555770665
 30
0.0
 10
191.319362775324
 20
224.8889451253243
 30
0.0
 10
191.1868738286608
 20
224.6805994339373
 30
0.0
 10
191.0047782259811
 20
224.230242815795
 30
0.0
 10
190.9552247069663
 20
223.9883633068226
 30
0.0
 10
190.9503901065331
 20
223.7455226190382
 30
0.0
  0
LINE
  5
186
330
13B
100
AcDbEntity
  8
410278040_ESCUTC
  6
Continuous
 62
     7
100
AcDbLine
 10
6.3500038749
 20
228.2728304556
 30
0.0
 11
6.3500038749
 21
231.0000005819
 31
0.0
  0
SPLINE
  5
187
330
13B
100
AcDbEntity
  8
410278040_ESCUTC
  6
Continuous
 62
     7
100
AcDbSpline
210
0.0
220
0.0
230
1.0
 70
     8
 71
     3
 72
    10
 73
     6
 74
     0
 42
0.0000000000721664
 43
0.0000000001
 40
0.001259453715287
 40
0.001259453715287
 40
0.001259453715287
 40
0.001259453715287
 40
0.1250000000000004
 40
0.1250000000000004
 40
0.1784178322886124
 40
0.1784178322886124
 40
0.1784178322886124
 40
0.1784178322886124
 10
100.9745441248412
 20
224.1762655089067
 30
0.0
 10
95.23344320474446
 20
224.176861104469
 30
0.0
 10
89.5112419074412
 20
224.2080191677364
 30
0.0
 10
81.3453583251859
 20
224.2964257739377
 30
0.0
 10
78.88317472351835
 20
224.3288730280651
 30
0.0
 10
76.42703201135441
 20
224.3669932415681
 30
0.0
  0
SPLINE
  5
188
330
13B
100
AcDbEntity
  8
410278040_ESCUTC
  6
Continuous
 62
     7
100
AcDbSpline
210
0.0
220
0.0
230
1.0
 70
     8
 71
     3
 72
    16
 73
    12
 74
     0
 42
0.0000000000758237
 43
0.0000000001
 40
0.495822265593623
 40
0.495822265593623
 40
0.495822265593623
 40
0.495822265593623
 40
0.5000000000000013
 40
0.5000000000000013
 40
0.5625000000000016
 40
0.5625000000000016
 40
0.5781250000000014
 40
0.5781250000000014
 40
0.5937500000000014
 40
0.5937500000000014
 40
0.598165131428297
 40
0.598165131428297
 40
0.598165131428297
 40
0.598165131428297
 10
34.42554385696211
 20
225.4862379824163
 30
0.0
 10
34.24191886145437
 20
225.4953026185924
 30
0.0
 10
34.05814697727658
 20
225.5044657289073
 30
0.0
 10
31.12275885203115
 20
225.6522802802243
 30
0.0
 10
28.34487248117629
 20
225.812623338753
 30
0.0
 10
24.84051986865285
 20
226.0400841130541
 30
0.0
 10
24.12864438796598
 20
226.0893301602798
 30
0.0
 10
22.74594162663168
 20
226.1792110970049
 30
0.0
 10
22.08733582459586
 20
226.2165458530812
 30
0.0
 10
21.28889737283915
 20
226.254274717234
 30
0.0
 10
21.11754830577514
 20
226.2618605829761
 30
0.0
 10
20.9511193755292
 20
226.2687158219734
 30
0.0
  0
SPLINE
  5
189
330
13B
100
AcDbEntity
  8
410278040_ESCUTC
  6
Continuous
 62
     7
100
AcDbSpline
210
0.0
220
0.0
230
1.0
 70
     8
 71
     3
 72
    26
 73
    22
 74
     0
 42
0.0000000000757156
 43
0.0000000001
 40
0.3926301757916196
 40
0.3926301757916196
 40
0.3926301757916196
 40
0.3926301757916196
 40
0.4062499999999971
 40
0.4062499999999971
 40
0.4218749999999971
 40
0.4218749999999971
 40
0.4374999999999972
 40
0.4374999999999972
 40
0.4999999999999973
 40
0.4999999999999973
 40
0.6249999999999973
 40
0.6249999999999973
 40
0.6406249999999974
 40
0.6406249999999974
 40
0.6562499999999976
 40
0.6562499999999976
 40
0.6874999999999977
 40
0.6874999999999977
 40
0.7499999999999981
 40
0.7499999999999981
 40
0.9881952344704045
 40
0.9881952344704045
 40
0.9881952344704045
 40
0.9881952344704045
 10
181.3778129762632
 20
226.2696916213239
 30
0.0
 10
180.856078431826
 20
226.248413326875
 30
0.0
 10
180.2905817709681
 20
226.2202388736381
 30
0.0
 10
179.0228407992692
 20
226.1464975230839
 30
0.0
 10
178.312443675719
 20
226.0970724197678
 30
0.0
 10
176.9030330045852
 20
226.003563556325
 30
0.0
 10
176.2000501799002
 20
225.9581818800701
 30
0.0
 10
172.6936931003083
 20
225.7381160528545
 30
0.0
 10
169.9215044094526
 20
225.5842707985472
 30
0.0
 10
161.7106615328175
 20
225.1893207131294
 30
0.0
 10
156.3936047640355
 20
225.0147063889527
 30
0.0
 10
150.4980569940477
 20
224.920526869018
 30
0.0
 10
149.8514354599853
 20
224.9148708974117
 30
0.0
 10
148.5198886580797
 20
224.8872465956292
 30
0.0
 10
147.8335901352903
 20
224.8645777925106
 30
0.0
 10
145.7857547840067
 20
224.8040434909335
 30
0.0
 10
144.4180520950701
 20
224.7655904160384
 30
0.0
 10
140.307113131711
 20
224.655715091912
 30
0.0
 10
137.5559686912284
 20
224.5897351264238
 30
0.0
 10
124.2694110771626
 20
224.3070825113195
 30
0.0
 10
113.594142066653
 20
224.187771033822
 30
0.0
 10
102.7615723007438
 20
224.1770501558554
 30
0.0
  0
LINE
  5
18A
330
13B
100
AcDbEntity
  8
410278040_ESCUTC
  6
Continuous
 62
     7
100
AcDbLine
 10
195.9499938749
 20
228.2728304931
 30
0.0
 11
195.9499938749
 21
231.0000005819
 31
0.0
  0
ARC
  5
18B
330
13B
100
AcDbEntity
  8
410278040_ESCUTC
  6
Continuous
 62
     7
100
AcDbCircle
 10
193.4499938749
 20
228.2728304931
 30
0.0
 40
2.500000000000002
100
AcDbArc
 50
275.4141238415
 51
360.0
  0
ARC
  5
18C
330
13B
100
AcDbEntity
  8
410278040_ESCUTC
  6
Continuous
 62
     7
100
AcDbCircle
 10
8.8500038749
 20
228.2728304556
 30
0.0
 40
2.499999999999996
100
AcDbArc
 50
180.0
 51
264.5858761818
  0
SPLINE
  5
18D
330
13B
100
AcDbEntity
  8
410278040_ESCUTC
  6
Continuous
 62
     7
100
AcDbSpline
210
0.0
220
0.0
230
1.0
 70
     8
 71
     3
 72
    14
 73
    10
 74
     0
 42
0.0000000034121265
 43
0.0000000001
 40
0.0
 40
0.0
 40
0.0
 40
0.0
 40
0.25
 40
0.25
 40
0.5
 40
0.5
 40
0.75
 40
0.75
 40
1.0
 40
1.0
 40
1.0
 40
1.0
 10
11.34960764316936
 20
223.7455225827056
 30
0.0
 10
11.34477304263763
 20
223.9883632704881
 30
0.0
 10
11.29521952352479
 20
224.2302427794404
 30
0.0
 10
11.11312392066253
 20
224.6805993975089
 30
0.0
 10
10.98063497391479
 20
224.8889450888422
 30
0.0
 10
10.6500179107497
 20
225.2448555404504
 30
0.0
 10
10.45198627112351
 20
225.3923164431143
 30
0.0
 10
10.01625012216861
 20
225.6070579167838
 30
0.0
 10
9.778672764248943
 20
225.6742758244529
 30
0.0
 10
9.53684618661836
 20
225.6969667776374
 30
0.0
  0
ARC
  5
18E
330
13B
100
AcDbEntity
  8
410278040_ESCUTC
  6
Continuous
 62
     7
100
AcDbCircle
 10
188.4508853961
 20
223.7952840765
 30
0.0
 40
2.500000000000001
100
AcDbArc
 50
275.1009610637
 51
358.8594760826
  0
SPLINE
  5
18F
330
13B
100
AcDbEntity
  8
410278040_ESCUTC
  6
Continuous
 62
     7
100
AcDbSpline
210
0.0
220
0.0
230
1.0
 70
     8
 71
     3
 72
    14
 73
    10
 74
     0
 42
0.0000000027211518
 43
0.0000000001
 40
0.0
 40
0.0
 40
0.0
 40
0.0
 40
0.2499999999999999
 40
0.2499999999999999
 40
0.4999999999999998
 40
0.4999999999999998
 40
0.7499999999999999
 40
0.7499999999999999
 40
1.0
 40
1.0
 40
1.0
 40
1.0
 10
13.62683484413436
 20
221.3051851056271
 30
0.0
 10
13.3234864549166
 20
221.3322633568083
 30
0.0
 10
13.02523011164843
 20
221.4153740579179
 30
0.0
 10
12.47795576838395
 20
221.6827776871315
 30
0.0
 10
12.22909945568573
 20
221.8669916132307
 30
0.0
 10
11.81353426581654
 20
222.312322367481
 30
0.0
 10
11.64694816365516
 20
222.5733076266534
 30
0.0
 10
11.41798204510561
 20
223.137744004174
 30
0.0
 10
11.35566967470442
 20
223.4410283648548
 30
0.0
 10
11.34960764316936
 20
223.7455225827056
 30
0.0
  0
SPLINE
  5
190
330
13B
100
AcDbEntity
  8
410278040_ESCUTC
  6
Continuous
 62
     7
100
AcDbSpline
210
0.0
220
0.0
230
1.0
 70
     8
 71
     3
 72
    38
 73
    34
 74
     0
 42
0.0000000000511712
 43
0.0000000001
 40
0.0016605734312975
 40
0.0016605734312975
 40
0.0016605734312975
 40
0.0016605734312975
 40
0.03125
 40
0.03125
 40
0.0625
 40
0.0625
 40
0.09375
 40
0.09375
 40
0.1250000000000001
 40
0.1250000000000001
 40
0.1562500000000001
 40
0.1562500000000001
 40
0.1875000000000001
 40
0.1875000000000001
 40
0.2187500000000001
 40
0.2187500000000001
 40
0.2500000000000001
 40
0.2500000000000001
 40
0.2812500000000001
 40
0.2812500000000001
 40
0.3125000000000001
 40
0.3125000000000001
 40
0.3437500000000001
 40
0.3437500000000001
 40
0.3750000000000001
 40
0.3750000000000001
 40
0.4062500000000001
 40
0.4062500000000001
 40
0.4375000000000001
 40
0.4375000000000001
 40
0.4687500000000001
 40
0.4687500000000001
 40
0.4998756049745966
 40
0.4998756049745966
 40
0.4998756049745966
 40
0.4998756049745966
 10
52.47036307124744
 20
218.607405018178
 30
0.0
 10
52.5029834365314
 20
218.6075609815585
 30
0.0
 10
52.82575995681026
 20
218.6091019529682
 30
0.0
 10
54.05148436639134
 20
218.6147945355946
 30
0.0
 10
54.98048422940469
 20
218.6190614758501
 30
0.0
 10
57.43708649325431
 20
218.6297715329192
 30
0.0
 10
58.97295921850458
 20
218.6362379248252
 30
0.0
 10
62.5166822899055
 20
218.650064337522
 30
0.0
 10
64.53670927030711
 20
218.657483410985
 30
0.0
 10
69.08960030982519
 20
218.6724978099749
 30
0.0
 10
71.55776604727808
 20
218.6798681482426
 30
0.0
 10
76.8304896785271
 20
218.6934447597733
 30
0.0
 10
79.67148370616134
 20
218.6997227836878
 30
0.0
 10
85.55873706630716
 20
218.7100980898279
 30
0.0
 10
88.5848760609231
 20
218.7141859977602
 30
0.0
 10
94.79978333764163
 20
218.7197576294836
 30
0.0
 10
98.01292425150703
 20
218.721217004667
 30
0.0
 10
104.3414711530566
 20
218.7212006918297
 30
0.0
 10
107.4856300562568
 20
218.7197711567256
 30
0.0
 10
113.7329495804787
 20
218.714169476438
 30
0.0
 10
116.8038558700473
 20
218.7099990040278
 30
0.0
 10
122.6471629942057
 20
218.6996783617107
 30
0.0
 10
125.4588152889974
 20
218.6934774512789
 30
0.0
 10
130.7937369457364
 20
218.6797300851532
 30
0.0
 10
133.2476932062411
 20
218.6723764461133
 30
0.0
 10
137.7419741030909
 20
218.657551774741
 30
0.0
 10
139.8012013796856
 20
218.6499986217782
 30
0.0
 10
143.3567856188168
 20
218.6361174448171
 30
0.0
 10
144.8592020359904
 20
218.6297869803039
 30
0.0
 10
147.3137363126294
 20
218.6190871523887
 30
0.0
 10
148.2625067027009
 20
218.614730264043
 30
0.0
 10
149.5162224239686
 20
218.6089061195649
 30
0.0
 10
149.8323437745852
 20
218.6073921802127
 30
0.0
 10
149.8323818591882
 20
218.6073918929155
 30
0.0
  0
LINE
  5
191
330
13B
100
AcDbEntity
  8
410278040_ESCUTC
  6
Continuous
 62
     7
100
AcDbLine
 10
192.7627780096
 20
225.7009855147
 30
0.0
 11
193.6856258076
 21
225.7866987804
 31
0.0
  0
LINE
  5
192
330
13B
100
AcDbEntity
  8
410278040_ESCUTC
  6
Continuous
 62
     7
100
AcDbLine
 10
8.6142354023
 20
225.7852115397
 30
0.0
 11
9.5369684664
 21
225.6982627576
 31
0.0
  0
ARC
  5
193
330
13B
100
AcDbEntity
  8
410278040_ESCUTC
  6
Continuous
 62
     7
100
AcDbCircle
 10
116.2177443018
 20
1002.8319831702
 30
0.0
 40
784.8653347441266
100
AcDbArc
 50
272.4519398361
 51
275.2967701805
  0
ARC
  5
194
330
13B
100
AcDbEntity
  8
410278040_ESCUTC
  6
Continuous
 62
     7
100
AcDbCircle
 10
86.0478474878
 20
1002.4101541724
 30
0.0
 40
784.442130863154
100
AcDbArc
 50
264.7028879283
 51
267.5468458281
  0
ARC
  5
195
330
13B
100
AcDbEntity
  8
410278040_ESCUTC
  6
Continuous
 62
     7
100
AcDbCircle
 10
158.1012133958
 20
-210.1956725403
 30
0.0
 40
435.1784323191131
100
AcDbArc
 50
90.8384311048
 51
91.9902103073
  0
ARC
  5
196
330
13B
100
AcDbEntity
  8
410278040_ESCUTC
  6
Continuous
 62
     7
100
AcDbCircle
 10
52.5422098858
 20
219.5198782571
 30
0.0
 40
0.9132217654276507
100
AcDbArc
 50
270.5958068968
 51
272.1652751039
  0
ENDBLK
  5
198
330
13B
100
AcDbEntity
  8
0
100
AcDbBlockEnd
  0
ENDSEC
  0
SECTION
  2
ENTITIES
  0
INSERT
  5
5F
330
1F
100
AcDbEntity
  8
Default
100
AcDbBlockReference
  2
SEANNOT_GROUP
 10
0.0
 20
0.0
 30
0.0
  0
INSERT
  5
66
330
1F
100
AcDbEntity
  8
Default
100
AcDbBlockReference
  2
SEANNOT_GROUP1
 10
0.0
 20
0.0
 30
0.0
  0
INSERT
  5
6C
330
1F
100
AcDbEntity
  8
Default
100
AcDbBlockReference
  2
SEANNOT_GROUP2
 10
0.0
 20
0.0
 30
0.0
  0
INSERT
  5
76
330
1F
100
AcDbEntity
  8
Default
100
AcDbBlockReference
  2
SE
 10
0.0
 20
0.0
 30
0.0
  0
INSERT
  5
D3
330
1F
100
AcDbEntity
  8
Default
100
AcDbBlockReference
  2
SE1
 10
0.0
 20
0.0
 30
0.0
  0
INSERT
  5
13C
330
1F
100
AcDbEntity
  8
Default
100
AcDbBlockReference
  2
SE2
 10
0.0
 20
0.0
 30
0.0
  0
TEXT
  5
19A
330
1F
100
AcDbEntity
  8
Default
  6
Continuous
 62
     7
100
AcDbText
 10
5.9362635081
 20
53.4225120485
 30
0.0
 40
10.0
  1
Grohe AG^J
  7
SEACAD_seiso_ttf
 11
5.9362635081
 21
63.4225120485
 31
0.0
100
AcDbText
 73
     3
  0
TEXT
  5
19B
330
1F
100
AcDbEntity
  8
Default
  6
Continuous
 62
     7
100
AcDbText
 10
5.9362635081
 20
37.0588756849
 30
0.0
 40
10.0
  1
 
  7
SEACAD_seiso_ttf
 11
5.9362635081
 21
47.0588756849
 31
0.0
100
AcDbText
 73
     3
  0
TEXT
  5
19C
330
1F
100
AcDbEntity
  8
Default
  6
Continuous
 62
     7
100
AcDbText
 10
5.9362635081
 20
20.6952393213
 30
0.0
 40
10.0
  1
ecn: 
  7
SEACAD_seiso_ttf
 11
5.9362635081
 21
30.6952393213
 31
0.0
100
AcDbText
 73
     3
  0
TEXT
  5
19D
330
1F
100
AcDbEntity
  8
Default
  6
Continuous
 62
     7
100
AcDbText
 10
5.9362635081
 20
4.3316029576
 30
0.0
 40
10.0
  1
unit: mm
  7
SEACAD_seiso_ttf
 11
5.9362635081
 21
14.3316029576
 31
0.0
100
AcDbText
 73
     3
  0
LINE
  5
19E
330
1F
100
AcDbEntity
  8
Default
  6
Continuous
 62
     7
100
AcDbLine
 10
0.0
 20
0.0
 30
0.0
 11
100.0
 21
0.0
 31
0.0
  0
LINE
  5
19F
330
1F
100
AcDbEntity
  8
Default
  6
Continuous
 62
     7
100
AcDbLine
 10
0.0
 20
0.0
 30
0.0
 11
0.0
 21
100.0
 31
0.0
  0
TEXT
  5
1A0
330
1F
100
AcDbEntity
  8
Default
  6
Continuous
 62
     7
100
AcDbText
 10
24.3923665681
 20
-18.2375342018
 30
0.0
 40
10.0
  1
100 mm
  7
SEACAD_seiso_ttf
 11
24.3923665681
 21
-8.2375342018
 31
0.0
100
AcDbText
 73
     3
  0
TEXT
  5
1A1
330
1F
100
AcDbEntity
  8
Default
  6
Continuous
 62
     7
100
AcDbText
 10
-7.6150308803
 20
24.6231930421
 30
0.0
 40
10.0
  1
100 mm
 50
90.0
  7
SEACAD_seiso_ttf
 11
-17.6150308803
 21
24.6231930421
 31
0.0
100
AcDbText
 73
     3
  0
TEXT
  5
1A2
330
1F
100
AcDbEntity
  8
Default
  6
Continuous
 62
     7
100
AcDbText
 10
28.4878128572
 20
20.0907663715
 30
0.0
 40
10.0
  1
219326
  7
SEACAD_seiso_ttf
 11
28.4878128572
 21
30.0907663715
 31
0.0
100
AcDbText
 73
     3
  0
TEXT
  5
1A3
330
1F
100
AcDbEntity
  8
Default
  6
Continuous
 62
     7
100
AcDbText
 10
5.9012241913
 20
36.7242780188
 30
0.0
 40
10.0
  1
19839000
  7
SEACAD_seiso_ttf
 11
5.9012241913
 21
46.7242780188
 31
0.0
100
AcDbText
 73
     3
  0
ENDSEC
  0
SECTION
  2
OBJECTS
  0
DICTIONARY
  5
C
330
0
100
AcDbDictionary
281
     1
  3
ACAD_GROUP
350
D
  3
ACAD_LAYOUT
350
1A
  3
ACAD_MLEADERSTYLE
350
1A7
  3
ACAD_MLINESTYLE
350
17
  3
ACAD_PLOTSETTINGS
350
19
  3
ACAD_PLOTSTYLENAME
350
E
  3
ACAD_SCALELIST
350
3B
  3
ACAD_TABLESTYLE
350
1A6
  3
ACAD_VISUALSTYLE
350
2A
  3
AcDbVariableDictionary
350
1A4
  0
DICTIONARY
  5
D
102
{ACAD_REACTORS
330
C
102
}
330
C
100
AcDbDictionary
281
     1
  0
DICTIONARY
  5
1A
102
{ACAD_REACTORS
330
C
102
}
330
C
100
AcDbDictionary
281
     1
  3
Layout1
350
1E
  3
Model
350
22
  0
DICTIONARY
  5
1A7
102
{ACAD_REACTORS
330
C
102
}
330
C
100
AcDbDictionary
281
     1
  0
DICTIONARY
  5
17
102
{ACAD_REACTORS
330
C
102
}
330
C
100
AcDbDictionary
281
     1
  3
Standard
350
18
  0
DICTIONARY
  5
19
102
{ACAD_REACTORS
330
C
102
}
330
C
100
AcDbDictionary
281
     1
  0
ACDBDICTIONARYWDFLT
  5
E
102
{ACAD_REACTORS
330
C
102
}
330
C
100
AcDbDictionary
281
     1
  3
Normal
350
F
100
AcDbDictionaryWithDefault
340
F
  0
DICTIONARY
  5
3B
102
{ACAD_REACTORS
330
C
102
}
330
C
100
AcDbDictionary
281
     1
  3
A0
350
3C
  3
A1
350
3D
  3
A2
350
3E
  3
A3
350
3F
  3
A4
350
40
  3
A5
350
41
  3
A6
350
42
  3
A7
350
43
  3
A8
350
44
  3
A9
350
45
  3
B0
350
46
  3
B1
350
47
  3
B2
350
48
  3
B3
350
49
  3
B4
350
4A
  3
B5
350
4B
  3
B6
350
4C
  3
B7
350
4D
  3
B8
350
4E
  3
B9
350
4F
  3
C0
350
50
  3
C1
350
51
  3
C2
350
52
  3
C3
350
53
  3
C4
350
54
  3
C5
350
55
  3
C6
350
56
  3
C7
350
57
  3
C8
350
58
  3
C9
350
59
  3
D0
350
5A
  3
D1
350
5B
  3
D2
350
5C
  0
DICTIONARY
  5
1A6
102
{ACAD_REACTORS
330
C
102
}
330
C
100
AcDbDictionary
281
     1
  0
DICTIONARY
  5
2A
102
{ACAD_REACTORS
330
C
102
}
330
C
100
AcDbDictionary
281
     1
  3
2dWireframe
350
2F
  3
3D Hidden
350
31
  3
3dWireframe
350
30
  3
Basic
350
32
  3
Brighten
350
36
  3
ColorChange
350
3A
  3
Conceptual
350
34
  3
Dim
350
35
  3
Facepattern
350
39
  3
Flat
350
2B
  3
FlatWithEdges
350
2C
  3
Gouraud
350
2D
  3
GouraudWithEdges
350
2E
  3
Linepattern
350
38
  3
Realistic
350
33
  3
Thicken
350
37
  0
DICTIONARY
  5
1A4
102
{ACAD_REACTORS
330
C
102
}
330
C
100
AcDbDictionary
281
     1
  3
CANNOSCALE
350
1A5
  3
PSOLHEIGHT
350
1A9
  3
PSOLWIDTH
350
1A8
  0
LAYOUT
  5
1E
102
{ACAD_REACTORS
330
1A
102
}
330
1A
100
AcDbPlotSettings
  1

  2
none_device
  4

  6

 40
0.0
 41
0.0
 42
0.0
 43
0.0
 44
0.0
 45
0.0
 46
0.0
 47
0.0
 48
0.0
 49
0.0
140
0.0
141
0.0
142
1.0
143
1.0
 70
   688
 72
     0
 73
     0
 74
     5
  7

 75
    16
147
1.0
148
0.0
149
0.0
100
AcDbLayout
  1
Layout1
 70
     1
 71
     1
 10
0.0
 20
0.0
 11
1682.0
 21
2378.0
 12
0.0
 22
0.0
 32
0.0
 14
0.0
 24
0.0
 34
0.0
 15
1682.0
 25
2378.0
 35
0.0
146
0.0
 13
0.0
 23
0.0
 33
0.0
 16
1.0
 26
0.0
 36
0.0
 17
0.0
 27
1.0
 37
0.0
 76
     0
330
1B
  0
LAYOUT
  5
22
102
{ACAD_REACTORS
330
1A
102
}
330
1A
100
AcDbPlotSettings
  1

  2
none_device
  4

  6

 40
0.0
 41
0.0
 42
0.0
 43
0.0
 44
0.0
 45
0.0
 46
0.0
 47
0.0
 48
0.0
 49
0.0
140
0.0
141
0.0
142
1.0
143
1.0
 70
  1712
 72
     0
 73
     0
 74
     0
  7

 75
     0
147
1.0
148
0.0
149
0.0
100
AcDbLayout
  1
Model
 70
     1
 71
     0
 10
0.0
 20
0.0
 11
1682.0
 21
2378.0
 12
0.0
 22
0.0
 32
0.0
 14
0.0
 24
0.0
 34
0.0
 15
1682.0
 25
2378.0
 35
0.0
146
0.0
 13
0.0
 23
0.0
 33
0.0
 16
1.0
 26
0.0
 36
0.0
 17
0.0
 27
1.0
 37
0.0
 76
     0
330
1F
331
29
  0
MLINESTYLE
  5
18
102
{ACAD_REACTORS
330
17
102
}
330
17
100
AcDbMlineStyle
  2
Standard
 70
     0
  3

 62
   256
 51
90.0
 52
90.0
 71
     2
 49
0.5
 62
   256
  6
BYLAYER
 49
-0.5
 62
   256
  6
BYLAYER
  0
ACDBPLACEHOLDER
  5
F
102
{ACAD_REACTORS
330
E
102
}
330
E
  0
SCALE
  5
3C
102
{ACAD_REACTORS
330
3B
102
}
330
3B
100
AcDbScale
 70
     0
300
1:1
140
1.0
141
1.0
290
     1
  0
SCALE
  5
3D
102
{ACAD_REACTORS
330
3B
102
}
330
3B
100
AcDbScale
 70
     0
300
1:2
140
1.0
141
2.0
290
     0
  0
SCALE
  5
3E
102
{ACAD_REACTORS
330
3B
102
}
330
3B
100
AcDbScale
 70
     0
300
1:4
140
1.0
141
4.0
290
     0
  0
SCALE
  5
3F
102
{ACAD_REACTORS
330
3B
102
}
330
3B
100
AcDbScale
 70
     0
300
1:5
140
1.0
141
5.0
290
     0
  0
SCALE
  5
40
102
{ACAD_REACTORS
330
3B
102
}
330
3B
100
AcDbScale
 70
     0
300
1:8
140
1.0
141
8.0
290
     0
  0
SCALE
  5
41
102
{ACAD_REACTORS
330
3B
102
}
330
3B
100
AcDbScale
 70
     0
300
1:10
140
1.0
141
10.0
290
     0
  0
SCALE
  5
42
102
{ACAD_REACTORS
330
3B
102
}
330
3B
100
AcDbScale
 70
     0
300
1:16
140
1.0
141
16.0
290
     0
  0
SCALE
  5
43
102
{ACAD_REACTORS
330
3B
102
}
330
3B
100
AcDbScale
 70
     0
300
1:20
140
1.0
141
20.0
290
     0
  0
SCALE
  5
44
102
{ACAD_REACTORS
330
3B
102
}
330
3B
100
AcDbScale
 70
     0
300
1:30
140
1.0
141
30.0
290
     0
  0
SCALE
  5
45
102
{ACAD_REACTORS
330
3B
102
}
330
3B
100
AcDbScale
 70
     0
300
1:40
140
1.0
141
40.0
290
     0
  0
SCALE
  5
46
102
{ACAD_REACTORS
330
3B
102
}
330
3B
100
AcDbScale
 70
     0
300
1:50
140
1.0
141
50.0
290
     0
  0
SCALE
  5
47
102
{ACAD_REACTORS
330
3B
102
}
330
3B
100
AcDbScale
 70
     0
300
1:100
140
1.0
141
100.0
290
     0
  0
SCALE
  5
48
102
{ACAD_REACTORS
330
3B
102
}
330
3B
100
AcDbScale
 70
     0
300
2:1
140
2.0
141
1.0
290
     0
  0
SCALE
  5
49
102
{ACAD_REACTORS
330
3B
102
}
330
3B
100
AcDbScale
 70
     0
300
4:1
140
4.0
141
1.0
290
     0
  0
SCALE
  5
4A
102
{ACAD_REACTORS
330
3B
102
}
330
3B
100
AcDbScale
 70
     0
300
8:1
140
8.0
141
1.0
290
     0
  0
SCALE
  5
4B
102
{ACAD_REACTORS
330
3B
102
}
330
3B
100
AcDbScale
 70
     0
300
10:1
140
10.0
141
1.0
290
     0
  0
SCALE
  5
4C
102
{ACAD_REACTORS
330
3B
102
}
330
3B
100
AcDbScale
 70
     0
300
100:1
140
100.0
141
1.0
290
     0
  0
SCALE
  5
4D
102
{ACAD_REACTORS
330
3B
102
}
330
3B
100
AcDbScale
 70
     0
300
1/128" = 1'-0"
140
0.0078125
141
12.0
290
     0
  0
SCALE
  5
4E
102
{ACAD_REACTORS
330
3B
102
}
330
3B
100
AcDbScale
 70
     0
300
1/64" = 1'-0"
140
0.015625
141
12.0
290
     0
  0
SCALE
  5
4F
102
{ACAD_REACTORS
330
3B
102
}
330
3B
100
AcDbScale
 70
     0
300
1/32" = 1'-0"
140
0.03125
141
12.0
290
     0
  0
SCALE
  5
50
102
{ACAD_REACTORS
330
3B
102
}
330
3B
100
AcDbScale
 70
     0
300
1/16" = 1'-0"
140
0.0625
141
12.0
290
     0
  0
SCALE
  5
51
102
{ACAD_REACTORS
330
3B
102
}
330
3B
100
AcDbScale
 70
     0
300
3/32" = 1'-0"
140
0.09375
141
12.0
290
     0
  0
SCALE
  5
52
102
{ACAD_REACTORS
330
3B
102
}
330
3B
100
AcDbScale
 70
     0
300
1/8" = 1'-0"
140
0.125
141
12.0
290
     0
  0
SCALE
  5
53
102
{ACAD_REACTORS
330
3B
102
}
330
3B
100
AcDbScale
 70
     0
300
3/16" = 1'-0"
140
0.1875
141
12.0
290
     0
  0
SCALE
  5
54
102
{ACAD_REACTORS
330
3B
102
}
330
3B
100
AcDbScale
 70
     0
300
1/4" = 1'-0"
140
0.25
141
12.0
290
     0
  0
SCALE
  5
55
102
{ACAD_REACTORS
330
3B
102
}
330
3B
100
AcDbScale
 70
     0
300
3/8" = 1'-0"
140
0.375
141
12.0
290
     0
  0
SCALE
  5
56
102
{ACAD_REACTORS
330
3B
102
}
330
3B
100
AcDbScale
 70
     0
300
1/2" = 1'-0"
140
0.5
141
12.0
290
     0
  0
SCALE
  5
57
102
{ACAD_REACTORS
330
3B
102
}
330
3B
100
AcDbScale
 70
     0
300
3/4" = 1'-0"
140
0.75
141
12.0
290
     0
  0
SCALE
  5
58
102
{ACAD_REACTORS
330
3B
102
}
330
3B
100
AcDbScale
 70
     0
300
1" = 1'-0"
140
1.0
141
12.0
290
     0
  0
SCALE
  5
59
102
{ACAD_REACTORS
330
3B
102
}
330
3B
100
AcDbScale
 70
     0
300
1-1/2" = 1'-0"
140
1.5
141
12.0
290
     0
  0
SCALE
  5
5A
102
{ACAD_REACTORS
330
3B
102
}
330
3B
100
AcDbScale
 70
     0
300
3" = 1'-0"
140
3.0
141
12.0
290
     0
  0
SCALE
  5
5B
102
{ACAD_REACTORS
330
3B
102
}
330
3B
100
AcDbScale
 70
     0
300
6" = 1'-0"
140
6.0
141
12.0
290
     0
  0
SCALE
  5
5C
102
{ACAD_REACTORS
330
3B
102
}
330
3B
100
AcDbScale
 70
     0
300
1'-0" = 1'-0"
140
12.0
141
12.0
290
     0
  0
VISUALSTYLE
  5
2F
102
{ACAD_REACTORS
330
2A
102
}
330
2A
100
AcDbVisualStyle
  2
2dWireframe
 70
     4
 71
     0
 72
     2
 73
     0
 90
        0
 40
-0.6
 41
-30.0
 62
     5
 63
     7
 74
     1
 91
        4
 64
     7
 65
   257
 75
     1
175
     1
 42
1.0
 92
        0
 66
   257
 43
1.0
 76
     1
 77
     6
 78
     2
 67
     7
 79
     5
170
     0
171
     0
290
     0
174
     0
 93
        1
 44
0.0
173
     0
291
     0
 45
0.0
1001
ACAD
1000
AcDbSavedByObjectVersion
1070
     0
  0
VISUALSTYLE
  5
31
102
{ACAD_REACTORS
330
2A
102
}
330
2A
100
AcDbVisualStyle
  2
3D Hidden
 70
     6
 71
     1
 72
     2
 73
     2
 90
        0
 40
-0.6
 41
-30.0
 62
     5
 63
     7
 74
     2
 91
        2
 64
     7
 65
   257
 75
     2
175
     1
 42
40.0
 92
        0
 66
   257
 43
1.0
 76
     1
 77
     6
 78
     2
 67
     7
 79
     3
170
     0
171
     0
290
     0
174
     0
 93
        1
 44
0.0
173
     0
291
     0
 45
0.0
1001
ACAD
1000
AcDbSavedByObjectVersion
1070
     0
  0
VISUALSTYLE
  5
30
102
{ACAD_REACTORS
330
2A
102
}
330
2A
100
AcDbVisualStyle
  2
3dWireframe
 70
     5
 71
     0
 72
     2
 73
     0
 90
        0
 40
-0.6
 41
-30.0
 62
     5
 63
     7
 74
     1
 91
        4
 64
     7
 65
   257
 75
     1
175
     1
 42
1.0
 92
        0
 66
   257
 43
1.0
 76
     1
 77
     6
 78
     2
 67
     7
 79
     5
170
     0
171
     0
290
     0
174
     0
 93
        1
 44
0.0
173
     0
291
     0
 45
0.0
1001
ACAD
1000
AcDbSavedByObjectVersion
1070
     0
  0
VISUALSTYLE
  5
32
102
{ACAD_REACTORS
330
2A
102
}
330
2A
100
AcDbVisualStyle
  2
Basic
 70
     7
 71
     1
 72
     0
 73
     1
 90
        0
 40
-0.6
 41
-30.0
 62
     5
 63
     7
 74
     0
 91
        4
 64
     7
 65
   257
 75
     1
175
     1
 42
1.0
 92
        8
 66
     7
 43
1.0
 76
     1
 77
     6
 78
     2
 67
     7
 79
     5
170
     0
171
     0
290
     0
174
     0
 93
        1
 44
0.0
173
     0
291
     1
 45
0.0
1001
ACAD
1000
AcDbSavedByObjectVersion
1070
     0
  0
VISUALSTYLE
  5
36
102
{ACAD_REACTORS
330
2A
102
}
330
2A
100
AcDbVisualStyle
  2
Brighten
 70
    12
 71
     2
 72
     2
 73
     0
 90
        0
 40
-0.6
 41
-30.0
 62
     5
 63
     7
 74
     1
 91
        4
 64
     7
 65
   257
 75
     1
175
     1
 42
1.0
 92
        8
 66
     7
 43
1.0
 76
     1
 77
     6
 78
     2
 67
     7
 79
     5
170
     0
171
     0
290
     0
174
     0
 93
        1
 44
50.0
173
     0
291
     1
 45
0.0
1001
ACAD
1000
AcDbSavedByObjectVersion
1070
     0
  0
VISUALSTYLE
  5
3A
102
{ACAD_REACTORS
330
2A
102
}
330
2A
100
AcDbVisualStyle
  2
ColorChange
 70
    16
 71
     2
 72
     2
 73
     3
 90
        0
 40
-0.6
 41
-30.0
 62
     5
 63
     8
 74
     1
 91
        4
 64
     7
 65
   257
 75
     1
175
     1
 42
1.0
 92
        8
 66
     8
 43
1.0
 76
     1
 77
     6
 78
     2
 67
     7
 79
     5
170
     0
171
     0
290
     0
174
     0
 93
        1
 44
0.0
173
     0
291
     1
 45
0.0
1001
ACAD
1000
AcDbSavedByObjectVersion
1070
     0
  0
VISUALSTYLE
  5
34
102
{ACAD_REACTORS
330
2A
102
}
330
2A
100
AcDbVisualStyle
  2
Conceptual
 70
     9
 71
     3
 72
     2
 73
     0
 90
        0
 40
-0.6
 41
-30.0
 62
     5
 63
     7
 74
     2
 91
        2
 64
     7
 65
   257
 75
     1
175
     1
 42
40.0
 92
        8
 66
     7
 43
1.0
 76
     1
 77
     6
 78
     2
 67
     7
 79
     3
170
     0
171
     0
290
     0
174
     0
 93
        1
 44
0.0
173
     0
291
     0
 45
0.0
1001
ACAD
1000
AcDbSavedByObjectVersion
1070
     0
  0
VISUALSTYLE
  5
35
102
{ACAD_REACTORS
330
2A
102
}
330
2A
100
AcDbVisualStyle
  2
Dim
 70
    11
 71
     2
 72
     2
 73
     0
 90
        0
 40
-0.6
 41
-30.0
 62
     5
 63
     7
 74
     1
 91
        4
 64
     7
 65
   257
 75
     1
175
     1
 42
1.0
 92
        8
 66
     7
 43
1.0
 76
     1
 77
     6
 78
     2
 67
     7
 79
     5
170
     0
171
     0
290
     0
174
     0
 93
        1
 44
-50.0
173
     0
291
     1
 45
0.0
1001
ACAD
1000
AcDbSavedByObjectVersion
1070
     0
  0
VISUALSTYLE
  5
39
102
{ACAD_REACTORS
330
2A
102
}
330
2A
100
AcDbVisualStyle
  2
Facepattern
 70
    15
 71
     2
 72
     2
 73
     0
 90
        0
 40
-0.6
 41
-30.0
 62
     5
 63
     7
 74
     1
 91
        4
 64
     7
 65
   257
 75
     1
175
     1
 42
1.0
 92
        8
 66
     7
 43
1.0
 76
     1
 77
     6
 78
     2
 67
     7
 79
     5
170
     0
171
     0
290
     0
174
     0
 93
        1
 44
0.0
173
     0
291
     1
 45
0.0
1001
ACAD
1000
AcDbSavedByObjectVersion
1070
     0
  0
VISUALSTYLE
  5
2B
102
{ACAD_REACTORS
330
2A
102
}
330
2A
100
AcDbVisualStyle
  2
Flat
 70
     0
 71
     2
 72
     1
 73
     1
 90
        2
 40
-0.6
 41
30.0
 62
     5
 63
     7
 74
     0
 91
        4
 64
     7
 65
   257
 75
     1
175
     1
 42
1.0
 92
        8
 66
     7
 43
1.0
 76
     1
 77
     6
 78
     2
 67
     7
 79
     5
170
     0
171
     0
290
     0
174
     0
 93
       13
 44
0.0
173
     0
291
     1
 45
0.0
1001
ACAD
1000
AcDbSavedByObjectVersion
1070
     0
  0
VISUALSTYLE
  5
2C
102
{ACAD_REACTORS
330
2A
102
}
330
2A
100
AcDbVisualStyle
  2
FlatWithEdges
 70
     1
 71
     2
 72
     1
 73
     1
 90
        2
 40
-0.6
 41
30.0
 62
     5
 63
     7
 74
     1
 91
        4
 64
     7
 65
   257
 75
     1
175
     1
 42
1.0
 92
        0
 66
   257
 43
1.0
 76
     1
 77
     6
 78
     2
 67
     7
 79
     5
170
     0
171
     0
290
     0
174
     0
 93
       13
 44
0.0
173
     0
291
     1
 45
0.0
1001
ACAD
1000
AcDbSavedByObjectVersion
1070
     0
  0
VISUALSTYLE
  5
2D
102
{ACAD_REACTORS
330
2A
102
}
330
2A
100
AcDbVisualStyle
  2
Gouraud
 70
     2
 71
     2
 72
     2
 73
     1
 90
        2
 40
-0.6
 41
30.0
 62
     5
 63
     7
 74
     0
 91
        4
 64
     7
 65
   257
 75
     1
175
     1
 42
1.0
 92
        0
 66
     7
 43
1.0
 76
     1
 77
     6
 78
     2
 67
     7
 79
     5
170
     0
171
     0
290
     0
174
     0
 93
       13
 44
0.0
173
     0
291
     1
 45
0.0
1001
ACAD
1000
AcDbSavedByObjectVersion
1070
     0
  0
VISUALSTYLE
  5
2E
102
{ACAD_REACTORS
330
2A
102
}
330
2A
100
AcDbVisualStyle
  2
GouraudWithEdges
 70
     3
 71
     2
 72
     2
 73
     1
 90
        2
 40
-0.6
 41
30.0
 62
     5
 63
     7
 74
     1
 91
        4
 64
     7
 65
   257
 75
     1
175
     1
 42
1.0
 92
        0
 66
   257
 43
1.0
 76
     1
 77
     6
 78
     2
 67
     7
 79
     5
170
     0
171
     0
290
     0
174
     0
 93
       13
 44
0.0
173
     0
291
     1
 45
0.0
1001
ACAD
1000
AcDbSavedByObjectVersion
1070
     0
  0
VISUALSTYLE
  5
38
102
{ACAD_REACTORS
330
2A
102
}
330
2A
100
AcDbVisualStyle
  2
Linepattern
 70
    14
 71
     2
 72
     2
 73
     0
 90
        0
 40
-0.6
 41
-30.0
 62
     5
 63
     7
 74
     1
 91
        4
 64
     7
 65
   257
 75
     7
175
     7
 42
1.0
 92
        8
 66
     7
 43
1.0
 76
     1
 77
     6
 78
     2
 67
     7
 79
     5
170
     0
171
     0
290
     0
174
     0
 93
        1
 44
0.0
173
     0
291
     1
 45
0.0
1001
ACAD
1000
AcDbSavedByObjectVersion
1070
     0
  0
VISUALSTYLE
  5
33
102
{ACAD_REACTORS
330
2A
102
}
330
2A
100
AcDbVisualStyle
  2
Realistic
 70
     8
 71
     2
 72
     2
 73
     0
 90
        0
 40
-0.6
 41
-30.0
 62
     5
 63
     7
 74
     1
 91
        0
 64
     7
 65
   257
 75
     1
175
     1
 42
1.0
 92
        8
 66
     8
 43
1.0
 76
     1
 77
     6
 78
     2
 67
     7
 79
     5
170
     0
171
     0
290
     0
174
     0
 93
       13
 44
0.0
173
     0
291
     0
 45
0.0
1001
ACAD
1000
AcDbSavedByObjectVersion
1070
     0
  0
VISUALSTYLE
  5
37
102
{ACAD_REACTORS
330
2A
102
}
330
2A
100
AcDbVisualStyle
  2
Thicken
 70
    13
 71
     2
 72
     2
 73
     0
 90
        0
 40
-0.6
 41
-30.0
 62
     5
 63
     7
 74
     1
 91
        4
 64
     7
 65
   257
 75
     1
175
     1
 42
1.0
 92
       12
 66
     7
 43
1.0
 76
     1
 77
     6
 78
     2
 67
     7
 79
     5
170
     0
171
     0
290
     0
174
     0
 93
        1
 44
0.0
173
     0
291
     1
 45
0.0
1001
ACAD
1000
AcDbSavedByObjectVersion
1070
     0
  0
DICTIONARYVAR
  5
1A5
102
{ACAD_REACTORS
330
1A4
102
}
330
1A4
100
DictionaryVariables
280
     0
  1
1:1
  0
DICTIONARYVAR
  5
1A9
102
{ACAD_REACTORS
330
1A4
102
}
330
1A4
100
DictionaryVariables
280
     0
  1
80.000000
  0
DICTIONARYVAR
  5
1A8
102
{ACAD_REACTORS
330
1A4
102
}
330
1A4
100
DictionaryVariables
280
     0
  1
5.000000
  0
ENDSEC
  0
EOF
