  0
SECTION
  2
HEADER
  9
$ACADVER
  1
AC1015
  9
$ACADMAINTVER
 70
     6
  9
$DWGCODEPAGE
  3
ANSI_1252
  9
$INSBASE
 10
0.0
 20
0.0
 30
0.0
  9
$EXTMIN
 10
0.0
 20
0.0
 30
0.0
  9
$EXTMAX
 10
1682.0
 20
2378.0
 30
0.0
  9
$LIMMIN
 10
0.0
 20
0.0
  9
$LIMMAX
 10
1682.0
 20
2378.0
  9
$ORTHOMODE
 70
     0
  9
$REGENMODE
 70
     1
  9
$FILLMODE
 70
     1
  9
$QTEXTMODE
 70
     0
  9
$MIRRTEXT
 70
     1
  9
$LTSCALE
 40
1.0
  9
$ATTMODE
 70
     1
  9
$TEXTSIZE
 40
2.5
  9
$TRACEWID
 40
1.0
  9
$TEXTSTYLE
  7
Standard
  9
$CLAYER
  8
0
  9
$CELTYPE
  6
ByLayer
  9
$CECOLOR
 62
   256
  9
$CELTSCALE
 40
1.0
  9
$DISPSILH
 70
     0
  9
$DIMSCALE
 40
1.0
  9
$DIMASZ
 40
2.5
  9
$DIMEXO
 40
0.625
  9
$DIMDLI
 40
3.75
  9
$DIMRND
 40
0.0
  9
$DIMDLE
 40
0.0
  9
$DIMEXE
 40
1.25
  9
$DIMTP
 40
0.0
  9
$DIMTM
 40
0.0
  9
$DIMTXT
 40
2.5
  9
$DIMCEN
 40
2.5
  9
$DIMTSZ
 40
0.0
  9
$DIMTOL
 70
     0
  9
$DIMLIM
 70
     0
  9
$DIMTIH
 70
     0
  9
$DIMTOH
 70
     0
  9
$DIMSE1
 70
     0
  9
$DIMSE2
 70
     0
  9
$DIMTAD
 70
     1
  9
$DIMZIN
 70
     8
  9
$DIMBLK
  1

  9
$DIMASO
 70
     1
  9
$DIMSHO
 70
     1
  9
$DIMPOST
  1

  9
$DIMAPOST
  1

  9
$DIMALT
 70
     0
  9
$DIMALTD
 70
     3
  9
$DIMALTF
 40
0.0393700787
  9
$DIMLFAC
 40
1.0
  9
$DIMTOFL
 70
     1
  9
$DIMTVP
 40
0.0
  9
$DIMTIX
 70
     0
  9
$DIMSOXD
 70
     0
  9
$DIMSAH
 70
     0
  9
$DIMBLK1
  1

  9
$DIMBLK2
  1

  9
$DIMSTYLE
  2
ISO-25
  9
$DIMCLRD
 70
     0
  9
$DIMCLRE
 70
     0
  9
$DIMCLRT
 70
     0
  9
$DIMTFAC
 40
1.0
  9
$DIMGAP
 40
0.625
  9
$DIMJUST
 70
     0
  9
$DIMSD1
 70
     0
  9
$DIMSD2
 70
     0
  9
$DIMTOLJ
 70
     0
  9
$DIMTZIN
 70
     8
  9
$DIMALTZ
 70
     0
  9
$DIMALTTZ
 70
     0
  9
$DIMUPT
 70
     0
  9
$DIMDEC
 70
     2
  9
$DIMTDEC
 70
     2
  9
$DIMALTU
 70
     2
  9
$DIMALTTD
 70
     3
  9
$DIMTXSTY
  7
Standard
  9
$DIMAUNIT
 70
     0
  9
$DIMADEC
 70
     0
  9
$DIMALTRND
 40
0.0
  9
$DIMAZIN
 70
     0
  9
$DIMDSEP
 70
    44
  9
$DIMATFIT
 70
     3
  9
$DIMFRAC
 70
     0
  9
$DIMLDRBLK
  1

  9
$DIMLUNIT
 70
     2
  9
$DIMLWD
 70
    -2
  9
$DIMLWE
 70
    -2
  9
$DIMTMOVE
 70
     0
  9
$LUNITS
 70
     2
  9
$LUPREC
 70
     4
  9
$SKETCHINC
 40
1.0
  9
$FILLETRAD
 40
10.0
  9
$AUNITS
 70
     0
  9
$AUPREC
 70
     0
  9
$MENU
  1
.
  9
$ELEVATION
 40
0.0
  9
$PELEVATION
 40
0.0
  9
$THICKNESS
 40
0.0
  9
$LIMCHECK
 70
     0
  9
$CHAMFERA
 40
10.0
  9
$CHAMFERB
 40
10.0
  9
$CHAMFERC
 40
20.0
  9
$CHAMFERD
 40
0.0
  9
$SKPOLY
 70
     0
  9
$TDCREATE
 40
2455747.675769595
  9
$TDUCREATE
 40
2455747.592436261
  9
$TDUPDATE
 40
2455747.675769607
  9
$TDUUPDATE
 40
2455747.592436273
  9
$TDINDWG
 40
0.0000000116
  9
$TDUSRTIMER
 40
0.0000000116
  9
$USRTIMER
 70
     1
  9
$ANGBASE
 50
0.0
  9
$ANGDIR
 70
     0
  9
$PDMODE
 70
     0
  9
$PDSIZE
 40
0.0
  9
$PLINEWID
 40
0.0
  9
$SPLFRAME
 70
     0
  9
$SPLINETYPE
 70
     6
  9
$SPLINESEGS
 70
     8
  9
$HANDSEED
  5
1EE
  9
$SURFTAB1
 70
     6
  9
$SURFTAB2
 70
     6
  9
$SURFTYPE
 70
     6
  9
$SURFU
 70
     6
  9
$SURFV
 70
     6
  9
$UCSBASE
  2

  9
$UCSNAME
  2

  9
$UCSORG
 10
0.0
 20
0.0
 30
0.0
  9
$UCSXDIR
 10
1.0
 20
0.0
 30
0.0
  9
$UCSYDIR
 10
0.0
 20
1.0
 30
0.0
  9
$UCSORTHOREF
  2

  9
$UCSORTHOVIEW
 70
     0
  9
$UCSORGTOP
 10
0.0
 20
0.0
 30
0.0
  9
$UCSORGBOTTOM
 10
0.0
 20
0.0
 30
0.0
  9
$UCSORGLEFT
 10
0.0
 20
0.0
 30
0.0
  9
$UCSORGRIGHT
 10
0.0
 20
0.0
 30
0.0
  9
$UCSORGFRONT
 10
0.0
 20
0.0
 30
0.0
  9
$UCSORGBACK
 10
0.0
 20
0.0
 30
0.0
  9
$PUCSBASE
  2

  9
$PUCSNAME
  2

  9
$PUCSORG
 10
0.0
 20
0.0
 30
0.0
  9
$PUCSXDIR
 10
1.0
 20
0.0
 30
0.0
  9
$PUCSYDIR
 10
0.0
 20
1.0
 30
0.0
  9
$PUCSORTHOREF
  2

  9
$PUCSORTHOVIEW
 70
     0
  9
$PUCSORGTOP
 10
0.0
 20
0.0
 30
0.0
  9
$PUCSORGBOTTOM
 10
0.0
 20
0.0
 30
0.0
  9
$PUCSORGLEFT
 10
0.0
 20
0.0
 30
0.0
  9
$PUCSORGRIGHT
 10
0.0
 20
0.0
 30
0.0
  9
$PUCSORGFRONT
 10
0.0
 20
0.0
 30
0.0
  9
$PUCSORGBACK
 10
0.0
 20
0.0
 30
0.0
  9
$USERI1
 70
     0
  9
$USERI2
 70
     0
  9
$USERI3
 70
     0
  9
$USERI4
 70
     0
  9
$USERI5
 70
     0
  9
$USERR1
 40
0.0
  9
$USERR2
 40
0.0
  9
$USERR3
 40
0.0
  9
$USERR4
 40
0.0
  9
$USERR5
 40
0.0
  9
$WORLDVIEW
 70
     1
  9
$SHADEDGE
 70
     3
  9
$SHADEDIF
 70
    70
  9
$TILEMODE
 70
     1
  9
$MAXACTVP
 70
    64
  9
$PINSBASE
 10
0.0
 20
0.0
 30
0.0
  9
$PLIMCHECK
 70
     0
  9
$PEXTMIN
 10
0.0
 20
0.0
 30
0.0
  9
$PEXTMAX
 10
1682.0
 20
2378.0
 30
0.0
  9
$PLIMMIN
 10
0.0
 20
0.0
  9
$PLIMMAX
 10
1682.0
 20
2378.0
  9
$UNITMODE
 70
     0
  9
$VISRETAIN
 70
     1
  9
$PLINEGEN
 70
     0
  9
$PSLTSCALE
 70
     1
  9
$TREEDEPTH
 70
  3020
  9
$CMLSTYLE
  2
Standard
  9
$CMLJUST
 70
     0
  9
$CMLSCALE
 40
20.0
  9
$PROXYGRAPHICS
 70
     1
  9
$MEASUREMENT
 70
     1
  9
$CELWEIGHT
370
    -1
  9
$ENDCAPS
280
     0
  9
$JOINSTYLE
280
     0
  9
$LWDISPLAY
290
     0
  9
$INSUNITS
 70
     4
  9
$HYPERLINKBASE
  1

  9
$STYLESHEET
  1

  9
$XEDIT
290
     1
  9
$CEPSNTYPE
380
     0
  9
$PSTYLEMODE
290
     1
  9
$FINGERPRINTGUID
  2
{5E346E74-8281-438F-B9EE-D868D29CA01F}
  9
$VERSIONGUID
  2
{FAEB1C32-E019-11D5-929B-00C0DF256EC4}
  9
$EXTNAMES
290
     1
  9
$PSVPSCALE
 40
0.0
  9
$OLESTARTUP
290
     0
  0
ENDSEC
  0
SECTION
  2
CLASSES
  0
CLASS
  1
ACDBDICTIONARYWDFLT
  2
AcDbDictionaryWithDefault
  3
ObjectDBX Classes
 90
        0
280
     0
281
     0
  0
CLASS
  1
VISUALSTYLE
  2
AcDbVisualStyle
  3
ObjectDBX Classes
 90
     4095
280
     0
281
     0
  0
CLASS
  1
SCALE
  2
AcDbScale
  3
ObjectDBX Classes
 90
     1153
280
     0
281
     0
  0
CLASS
  1
DICTIONARYVAR
  2
AcDbDictionaryVar
  3
ObjectDBX Classes
 90
        0
280
     0
281
     0
  0
CLASS
  1
ACDBPLACEHOLDER
  2
AcDbPlaceHolder
  3
ObjectDBX Classes
 90
        0
280
     0
281
     0
  0
CLASS
  1
LAYOUT
  2
AcDbLayout
  3
ObjectDBX Classes
 90
        0
280
     0
281
     0
  0
ENDSEC
  0
SECTION
  2
TABLES
  0
TABLE
  2
VPORT
  5
8
330
0
100
AcDbSymbolTable
 70
     1
  0
VPORT
  5
29
330
8
100
AcDbSymbolTableRecord
100
AcDbViewportTableRecord
  2
*Active
 70
     0
 10
0.0
 20
0.0
 11
1.0
 21
1.0
 12
344.1869158879
 22
148.5
 13
0.0
 23
0.0
 14
10.0
 24
10.0
 15
10.0
 25
10.0
 16
0.0
 26
0.0
 36
1.0
 17
0.0
 27
0.0
 37
0.0
 40
297.0
 41
1.9729729729
 42
50.0
 43
0.0
 44
0.0
 50
0.0
 51
0.0
 71
     0
 72
   100
 73
     1
 74
     3
 75
     0
 76
     0
 77
     0
 78
     0
281
     0
 65
     1
110
0.0
120
0.0
130
0.0
111
1.0
121
0.0
131
0.0
112
0.0
122
1.0
132
0.0
 79
     0
146
0.0
  0
ENDTAB
  0
TABLE
  2
LTYPE
  5
5
330
0
100
AcDbSymbolTable
 70
     2
  0
LTYPE
  5
14
330
5
100
AcDbSymbolTableRecord
100
AcDbLinetypeTableRecord
  2
ByBlock
 70
     0
  3

 72
    65
 73
     0
 40
0.0
  0
LTYPE
  5
15
330
5
100
AcDbSymbolTableRecord
100
AcDbLinetypeTableRecord
  2
ByLayer
 70
     0
  3

 72
    65
 73
     0
 40
0.0
  0
LTYPE
  5
16
330
5
100
AcDbSymbolTableRecord
100
AcDbLinetypeTableRecord
  2
Continuous
 70
     0
  3
Solid line
 72
    65
 73
     0
 40
0.0
  0
LTYPE
  5
BD
330
5
100
AcDbSymbolTableRecord
100
AcDbLinetypeTableRecord
  2
CENTER2
 70
     0
  3
Center (.5x) ___ _ ___ _ ___ _ ___ _ ___ _ ___
 72
    65
 73
     4
 40
28.575
 49
19.05
 74
     4
 75
     0
340
0
 46
0.0
 50
0.0
 44
0.0
 45
0.0
 49
-3.175
 74
     4
 75
     0
340
0
 46
0.0
 50
0.0
 44
0.0
 45
0.0
 49
3.175
 74
     4
 75
     0
340
0
 46
0.0
 50
0.0
 44
0.0
 45
0.0
 49
-3.175
 74
     4
 75
     0
340
0
 46
0.0
 50
0.0
 44
0.0
 45
0.0
  0
ENDTAB
  0
TABLE
  2
LAYER
  5
2
330
0
100
AcDbSymbolTable
 70
    18
  0
LAYER
  5
10
330
2
100
AcDbSymbolTableRecord
100
AcDbLayerTableRecord
  2
0
 70
     0
 62
     7
  6
Continuous
370
    -3
390
F
  0
LAYER
  5
5D
330
2
100
AcDbSymbolTableRecord
100
AcDbLayerTableRecord
  2
Default
 70
     0
 62
     7
  6
Continuous
370
    -3
390
F
  0
LAYER
  5
60
330
2
100
AcDbSymbolTableRecord
100
AcDbLayerTableRecord
  2
410308038_LEVER_
 70
     0
 62
     7
  6
Continuous
370
    -3
390
F
  0
LAYER
  5
65
330
2
100
AcDbSymbolTableRecord
100
AcDbLayerTableRecord
  2
410317038_HANDLE
 70
     0
 62
     7
  6
Continuous
370
    -3
390
F
  0
LAYER
  5
67
330
2
100
AcDbSymbolTableRecord
100
AcDbLayerTableRecord
  2
410250038_BUTTON
 70
     0
 62
     7
  6
Continuous
370
    -3
390
F
  0
LAYER
  5
6D
330
2
100
AcDbSymbolTableRecord
100
AcDbLayerTableRecord
  2
410005038_HANDLE
 70
     0
 62
     7
  6
Continuous
370
    -3
390
F
  0
LAYER
  5
70
330
2
100
AcDbSymbolTableRecord
100
AcDbLayerTableRecord
  2
410307038_LEVER_
 70
     0
 62
     7
  6
Continuous
370
    -3
390
F
  0
LAYER
  5
7A
330
2
100
AcDbSymbolTableRecord
100
AcDbLayerTableRecord
  2
410006038_DECORA
 70
     0
 62
     7
  6
Continuous
370
    -3
390
F
  0
LAYER
  5
7C
330
2
100
AcDbSymbolTableRecord
100
AcDbLayerTableRecord
  2
02080010_M4X55_S
 70
     0
 62
     7
  6
Continuous
370
    -3
390
F
  0
LAYER
  5
A6
330
2
100
AcDbSymbolTableRecord
100
AcDbLayerTableRecord
  2
410372040_ESCUTC
 70
     0
 62
     7
  6
Continuous
370
    -3
390
F
  0
LAYER
  5
BC
330
2
100
AcDbSymbolTableRecord
100
AcDbLayerTableRecord
  2
DV1_Standard
 70
     0
 62
     7
  6
Continuous
370
    -3
390
F
  0
LAYER
  5
C8
330
2
100
AcDbSymbolTableRecord
100
AcDbLayerTableRecord
  2
410064038_SLEEVE
 70
     0
 62
     7
  6
Continuous
370
    -3
390
F
  0
LAYER
  5
CB
330
2
100
AcDbSymbolTableRecord
100
AcDbLayerTableRecord
  2
410306038_DIVERT
 70
     0
 62
     7
  6
Continuous
370
    -3
390
F
  0
LAYER
  5
F5
330
2
100
AcDbSymbolTableRecord
100
AcDbLayerTableRecord
  2
410228031_BEARIN
 70
     0
 62
     7
  6
Continuous
370
    -3
390
F
  0
LAYER
  5
FE
330
2
100
AcDbSymbolTableRecord
100
AcDbLayerTableRecord
  2
410310038_RING_K
 70
     0
 62
     7
  6
Continuous
370
    -3
390
F
  0
LAYER
  5
12A
330
2
100
AcDbSymbolTableRecord
100
AcDbLayerTableRecord
  2
12080006_MP_HE_P
 70
     0
 62
     7
  6
Continuous
370
    -3
390
F
  0
LAYER
  5
14A
330
2
100
AcDbSymbolTableRecord
100
AcDbLayerTableRecord
  2
DV2_Standard
 70
     0
 62
     7
  6
Continuous
370
    -3
390
F
  0
LAYER
  5
1D7
330
2
100
AcDbSymbolTableRecord
100
AcDbLayerTableRecord
  2
DV3_Standard
 70
     0
 62
     7
  6
Continuous
370
    -3
390
F
  0
ENDTAB
  0
TABLE
  2
STYLE
  5
3
330
0
100
AcDbSymbolTable
 70
     2
  0
STYLE
  5
11
330
3
100
AcDbSymbolTableRecord
100
AcDbTextStyleTableRecord
  2
Standard
 70
     0
 40
0.0
 41
1.0
 50
0.0
 71
     0
 42
2.5
  3
txt
  4

  0
STYLE
  5
1DD
330
3
100
AcDbSymbolTableRecord
100
AcDbTextStyleTableRecord
  2
SEACAD_seiso_ttf
 70
     0
 40
0.0
 41
1.0
 50
0.0
 71
     0
 42
0.2
  3
seiso.ttf
  4

  0
ENDTAB
  0
TABLE
  2
VIEW
  5
6
330
0
100
AcDbSymbolTable
 70
     0
  0
ENDTAB
  0
TABLE
  2
UCS
  5
7
330
0
100
AcDbSymbolTable
 70
     0
  0
ENDTAB
  0
TABLE
  2
APPID
  5
9
330
0
100
AcDbSymbolTable
 70
     1
  0
APPID
  5
12
330
9
100
AcDbSymbolTableRecord
100
AcDbRegAppTableRecord
  2
ACAD
 70
     0
  0
ENDTAB
  0
TABLE
  2
DIMSTYLE
  5
A
330
0
100
AcDbSymbolTable
 70
     1
100
AcDbDimStyleTable
  0
DIMSTYLE
105
27
330
A
100
AcDbSymbolTableRecord
100
AcDbDimStyleTableRecord
  2
ISO-25
 70
     0
 41
2.5
 42
0.625
 43
3.75
 44
1.25
 73
     0
 74
     0
 77
     1
 78
     8
140
2.5
141
2.5
143
0.0393700787
147
0.625
171
     3
172
     1
271
     2
272
     2
274
     3
278
    44
283
     0
284
     8
340
11
  0
ENDTAB
  0
TABLE
  2
BLOCK_RECORD
  5
1
330
0
100
AcDbSymbolTable
 70
     4
  0
BLOCK_RECORD
  5
1F
330
1
100
AcDbSymbolTableRecord
100
AcDbBlockTableRecord
  2
*Model_Space
340
22
  0
BLOCK_RECORD
  5
1B
330
1
100
AcDbSymbolTableRecord
100
AcDbBlockTableRecord
  2
*Paper_Space
340
1E
  0
BLOCK_RECORD
  5
5E
330
1
100
AcDbSymbolTableRecord
100
AcDbBlockTableRecord
  2
SE
340
0
102
{BLKREFS
331
5F
102
}
  0
BLOCK_RECORD
  5
C6
330
1
100
AcDbSymbolTableRecord
100
AcDbBlockTableRecord
  2
SE1
340
0
102
{BLKREFS
331
C7
102
}
  0
BLOCK_RECORD
  5
150
330
1
100
AcDbSymbolTableRecord
100
AcDbBlockTableRecord
  2
SE2
340
0
102
{BLKREFS
331
151
102
}
  0
ENDTAB
  0
ENDSEC
  0
SECTION
  2
BLOCKS
  0
BLOCK
  5
20
330
1F
100
AcDbEntity
  8
0
100
AcDbBlockBegin
  2
*Model_Space
 70
     0
 10
0.0
 20
0.0
 30
0.0
  3
*Model_Space
  1

  0
ENDBLK
  5
21
330
1F
100
AcDbEntity
  8
0
100
AcDbBlockEnd
  0
BLOCK
  5
1C
330
1B
100
AcDbEntity
 67
     1
  8
0
100
AcDbBlockBegin
  2
*Paper_Space
 70
     0
 10
0.0
 20
0.0
 30
0.0
  3
*Paper_Space
  1

  0
ENDBLK
  5
1D
330
1B
100
AcDbEntity
 67
     1
  8
0
100
AcDbBlockEnd
  0
BLOCK
  5
C4
330
5E
100
AcDbEntity
  8
0
100
AcDbBlockBegin
  2
SE
 70
     0
 10
0.0
 20
0.0
 30
0.0
  3
SE
  1

  0
ARC
  5
61
330
5E
100
AcDbEntity
  8
410308038_LEVER_
  6
Continuous
 62
     7
100
AcDbCircle
 10
101.7230151948
 20
296.1932271939
 30
0.0
 40
10.00000000000011
100
AcDbArc
 50
165.0939506482
 51
180.0
  0
ARC
  5
62
330
5E
100
AcDbEntity
  8
410308038_LEVER_
  6
Continuous
 62
     7
100
AcDbCircle
 10
101.7230151948
 20
296.1932271939
 30
0.0
 40
10.0
100
AcDbArc
 50
180.0
 51
14.9060493518
  0
SPLINE
  5
63
330
5E
100
AcDbEntity
  8
410308038_LEVER_
  6
Continuous
 62
     7
100
AcDbSpline
210
0.0
220
0.0
230
1.0
 70
     8
 71
     3
 72
    10
 73
     6
 74
     0
 42
0.00000000021383
 43
0.0000000001
 40
0.5656139194622569
 40
0.5656139194622569
 40
0.5656139194622569
 40
0.5656139194622569
 40
0.7022654831716417
 40
0.8512678262182928
 40
1.0
 40
1.0
 40
1.0
 40
1.0
 10
95.83084204299395
 20
318.7026900291246
 30
0.0
 10
95.59586563586093
 20
316.5902478577639
 30
0.0
 10
94.99584486683544
 20
312.1988191215077
 30
0.0
 10
93.7270604254641
 20
305.4102372806453
 30
0.0
 10
92.68595552196062
 20
301.2367800222103
 30
0.0
 10
92.05952593907766
 20
298.7655754216408
 30
0.0
  0
SPLINE
  5
64
330
5E
100
AcDbEntity
  8
410308038_LEVER_
  6
Continuous
 62
     7
100
AcDbSpline
210
0.0
220
0.0
230
1.0
 70
     8
 71
     3
 72
    11
 73
     7
 74
     0
 42
0.0000000002138611
 43
0.0000000001
 40
0.0
 40
0.0
 40
0.0
 40
0.0
 40
0.1419725236101627
 40
0.2842036118412369
 40
0.4264460916204152
 40
0.4330787932505307
 40
0.4330787932505307
 40
0.4330787932505307
 40
0.4330787932505307
 10
111.3865044504827
 20
298.7655754216408
 30
0.0
 10
110.7873200096077
 20
301.1240190084254
 30
0.0
 10
109.7907455699588
 20
305.1067560991108
 30
0.0
 10
108.5219062573731
 20
311.7660510030576
 30
0.0
 10
107.8938481239788
 20
316.2341831856405
 30
0.0
 10
107.6337713174058
 20
318.5367126044752
 30
0.0
 10
107.6223061444725
 20
318.6393275884905
 30
0.0
  0
ARC
  5
66
330
5E
100
AcDbEntity
  8
410317038_HANDLE
  6
Continuous
 62
     7
100
AcDbCircle
 10
101.7227230983
 20
386.024860555
 30
0.0
 40
30.23143959785017
100
AcDbArc
 50
74.160312902
 51
105.8363017166
  0
ARC
  5
68
330
5E
100
AcDbEntity
  8
410250038_BUTTON
  6
Continuous
 62
     7
100
AcDbCircle
 10
101.7230151948
 20
380.7976779435
 30
0.0
 40
39.99999999999999
100
AcDbArc
 50
79.7745231662
 51
100.2254768338
  0
LINE
  5
69
330
5E
100
AcDbEntity
  8
410250038_BUTTON
  6
Continuous
 62
     7
100
AcDbLine
 10
93.9230151948
 20
419.3258494547
 30
0.0
 11
93.9230151948
 21
415.1801810079
 31
0.0
  0
LINE
  5
6A
330
5E
100
AcDbEntity
  8
410250038_BUTTON
  6
Continuous
 62
     7
100
AcDbLine
 10
109.5230151948
 20
415.1800760762
 30
0.0
 11
109.5230151948
 21
419.3258494547
 31
0.0
  0
ARC
  5
6B
330
5E
100
AcDbEntity
  8
410250038_BUTTON
  6
Continuous
 62
     7
100
AcDbCircle
 10
108.6730151948
 20
419.3258494547
 30
0.0
 40
0.8499999999999992
100
AcDbArc
 50
0.0
 51
79.7745231662
  0
ARC
  5
6C
330
5E
100
AcDbEntity
  8
410250038_BUTTON
  6
Continuous
 62
     7
100
AcDbCircle
 10
94.7730151948
 20
419.3258494547
 30
0.0
 40
0.8499999999999979
100
AcDbArc
 50
100.2254768338
 51
180.0
  0
ARC
  5
6E
330
5E
100
AcDbEntity
  8
410005038_HANDLE
  6
Continuous
 62
     7
100
AcDbCircle
 10
101.7298188008
 20
-312.0388143825
 30
0.0
 40
683.5621545254658
100
AcDbArc
 50
89.539590332
 51
90.4610706023
  0
ARC
  5
6F
330
5E
100
AcDbEntity
  8
410005038_HANDLE
  6
Continuous
 62
     7
100
AcDbCircle
 10
101.7230151948
 20
384.6470398653
 30
0.0
 40
14.25
100
AcDbArc
 50
292.632651512
 51
247.3745483542
  0
LINE
  5
71
330
5E
100
AcDbEntity
  8
410307038_LEVER_
  6
Continuous
 62
     7
100
AcDbLine
 10
107.6194599338
 20
363.2970398653
 30
0.0
 11
95.8265704557
 21
363.2970398653
 31
0.0
  0
ARC
  5
72
330
5E
100
AcDbEntity
  8
410307038_LEVER_
  6
Continuous
 62
     7
100
AcDbCircle
 10
-4.0589491979
 20
351.7005105191
 30
0.0
 40
100.0
100
AcDbArc
 50
346.0429344828
 51
6.3391368539
  0
ARC
  5
73
330
5E
100
AcDbEntity
  8
410307038_LEVER_
  6
Continuous
 62
     7
100
AcDbCircle
 10
207.5049795874
 20
351.7005105191
 30
0.0
 40
100.0
100
AcDbArc
 50
173.6608631461
 51
193.9570655172
  0
ARC
  5
74
330
5E
100
AcDbEntity
  8
410307038_LEVER_
  6
Continuous
 62
     7
100
AcDbCircle
 10
101.7230151948
 20
325.4102840227
 30
0.0
 40
8.999999999999988
100
AcDbArc
 50
166.0429344828
 51
180.0
  0
ARC
  5
75
330
5E
100
AcDbEntity
  8
410307038_LEVER_
  6
Continuous
 62
     7
100
AcDbCircle
 10
101.7230151948
 20
325.4102840227
 30
0.0
 40
9.0
100
AcDbArc
 50
180.0
 51
13.9570655172
  0
ARC
  5
76
330
5E
100
AcDbEntity
  8
410307038_LEVER_
  6
Continuous
 62
     7
100
AcDbCircle
 10
107.6194599338
 20
362.7970398653
 30
0.0
 40
0.4999999999999974
100
AcDbArc
 50
353.6608631461
 51
90.0
  0
ARC
  5
77
330
5E
100
AcDbEntity
  8
410307038_LEVER_
  6
Continuous
 62
     7
100
AcDbCircle
 10
95.8265704557
 20
362.7970398653
 30
0.0
 40
0.4999999999999935
100
AcDbArc
 50
90.0
 51
186.3391368539
  0
LINE
  5
78
330
5E
100
AcDbEntity
  8
410307038_LEVER_
  6
Continuous
 62
     7
100
AcDbLine
 10
107.0730151948
 20
363.2970398653
 30
0.0
 11
107.0730151948
 21
371.5044216412
 31
0.0
  0
LINE
  5
79
330
5E
100
AcDbEntity
  8
410307038_LEVER_
  6
Continuous
 62
     7
100
AcDbLine
 10
96.3730151948
 20
371.504404036
 30
0.0
 11
96.3730151948
 21
363.2970398653
 31
0.0
  0
CIRCLE
  5
7B
330
5E
100
AcDbEntity
  8
410006038_DECORA
  6
Continuous
 62
     7
100
AcDbCircle
 10
101.7230151948
 20
384.6470398653
 30
0.0
 40
9.35688996751703
  0
ARC
  5
7D
330
5E
100
AcDbEntity
  8
02080010_M4X55_S
  6
Continuous
 62
     7
100
AcDbCircle
 10
60.7230151948
 20
384.6470398653
 30
0.0
 40
2.359581272915715
100
AcDbArc
 50
168.9029606255
 51
191.0970393745
  0
ARC
  5
7E
330
5E
100
AcDbEntity
  8
02080010_M4X55_S
  6
Continuous
 62
     7
100
AcDbCircle
 10
60.7230151948
 20
384.6470398653
 30
0.0
 40
2.359581272915712
100
AcDbArc
 50
348.9029606255
 51
11.0970393745
  0
ELLIPSE
  5
7F
330
5E
100
AcDbEntity
  8
02080010_M4X55_S
  6
Continuous
 62
     7
100
AcDbEllipse
 10
60.7230151948
 20
384.634807374
 30
0.0
 11
5.574124406136416
 21
-2.840152294120504E-13
 31
0.0
210
0.0
220
0.0
230
1.0
 40
0.0871557427
 41
-1.303747867343958
 42
-1.142419358107121
  0
ELLIPSE
  5
80
330
5E
100
AcDbEntity
  8
02080010_M4X55_S
  6
Continuous
 62
     7
100
AcDbEllipse
 10
60.9275728242
 20
384.1531940621
 30
0.0
 11
5.125916371062744
 21
2.123224080483673
 31
0.0
210
0.0
220
0.0
230
1.0
 40
0.0871557427
 41
-1.494819759408646
 42
-1.35740974181092
  0
ELLIPSE
  5
81
330
5E
100
AcDbEntity
  8
02080010_M4X55_S
  6
Continuous
 62
     7
100
AcDbEllipse
 10
61.216860998
 20
384.4424822359
 30
0.0
 11
-2.12322408048176
 21
-5.125916371058276
 31
0.0
210
0.0
220
0.0
230
0.9999999999999999
 40
0.0871557427
 41
1.35740974181117
 42
1.494819759408947
  0
ELLIPSE
  5
82
330
5E
100
AcDbEntity
  8
02080010_M4X55_S
  6
Continuous
 62
     7
100
AcDbEllipse
 10
60.7352476861
 20
384.6470398653
 30
0.0
 11
1.387778780781446E-12
 21
-5.574124406161243
 31
0.0
210
0.0
220
0.0
230
1.0
 40
0.0871557427
 41
1.142419358105953
 42
1.303747867342185
  0
ARC
  5
83
330
5E
100
AcDbEntity
  8
02080010_M4X55_S
  6
Continuous
 62
     7
100
AcDbCircle
 10
60.7230151948
 20
384.6470398653
 30
0.0
 40
2.359581272915711
100
AcDbArc
 50
258.9029606255
 51
281.0970393745
  0
ELLIPSE
  5
84
330
5E
100
AcDbEntity
  8
02080010_M4X55_S
  6
Continuous
 62
     7
100
AcDbEllipse
 10
60.7107827034
 20
384.6470398653
 30
0.0
 11
-1.387778780781446E-12
 21
-5.574124406155613
 31
0.0
210
0.0
220
0.0
230
1.0
 40
0.0871557427
 41
-1.303747867342596
 42
-1.142419358106231
  0
ELLIPSE
  5
85
330
5E
100
AcDbEntity
  8
02080010_M4X55_S
  6
Continuous
 62
     7
100
AcDbEllipse
 10
60.2291693915
 20
384.4424822359
 30
0.0
 11
2.123224080482718
 21
-5.125916371060528
 31
0.0
210
0.0
220
0.0
230
1.0
 40
0.0871557427
 41
-1.494819759408667
 42
-1.357409741810911
  0
ELLIPSE
  5
86
330
5E
100
AcDbEntity
  8
02080010_M4X55_S
  6
Continuous
 62
     7
100
AcDbEllipse
 10
60.5184575653
 20
384.1531940621
 30
0.0
 11
-5.125916370957731
 21
2.123224080443124
 31
0.0
210
0.0
220
0.0
230
0.9999999999999998
 40
0.0871557427
 41
1.357409741812299
 42
1.494819759412843
  0
ELLIPSE
  5
87
330
5E
100
AcDbEntity
  8
02080010_M4X55_S
  6
Continuous
 62
     7
100
AcDbEllipse
 10
60.7230151948
 20
384.634807374
 30
0.0
 11
-5.574124406126514
 21
1.242732858893619E-13
 31
0.0
210
0.0
220
0.0
230
1.0
 40
0.0871557427
 41
1.142419358107184
 42
1.303747867344369
  0
ELLIPSE
  5
88
330
5E
100
AcDbEntity
  8
02080010_M4X55_S
  6
Continuous
 62
     7
100
AcDbEllipse
 10
60.7230151948
 20
384.6592723567
 30
0.0
 11
-5.574124406145839
 21
7.480757820924748E-13
 31
0.0
210
0.0
220
0.0
230
1.0
 40
0.0871557427
 41
-1.30374786734308
 42
-1.142419358106396
  0
ELLIPSE
  5
89
330
5E
100
AcDbEntity
  8
02080010_M4X55_S
  6
Continuous
 62
     7
100
AcDbEllipse
 10
60.5184575654
 20
385.1408856686
 30
0.0
 11
-5.125916371061918
 21
-2.123224080483077
 31
0.0
210
0.0
220
0.0
230
1.0
 40
0.0871557427
 41
-1.494819759408538
 42
-1.357409741810933
  0
ELLIPSE
  5
8A
330
5E
100
AcDbEntity
  8
02080010_M4X55_S
  6
Continuous
 62
     7
100
AcDbEllipse
 10
60.2291693915
 20
384.8515974948
 30
0.0
 11
2.12322408045755
 21
5.125916370995546
 31
0.0
210
0.0
220
0.0
230
1.0
 40
0.0871557427
 41
1.357409741811844
 42
1.494819759411281
  0
ELLIPSE
  5
8B
330
5E
100
AcDbEntity
  8
02080010_M4X55_S
  6
Continuous
 62
     7
100
AcDbEllipse
 10
60.7107827034
 20
384.6470398653
 30
0.0
 11
0.0
 21
2.357257433289349
 31
0.0
210
0.0
220
0.0
230
1.0
 40
1.0
 41
0.1885875889196826
 42
0.3084064732206089
  0
ARC
  5
8C
330
5E
100
AcDbEntity
  8
02080010_M4X55_S
  6
Continuous
 62
     7
100
AcDbCircle
 10
60.7230151948
 20
384.6470398653
 30
0.0
 40
2.359581272915714
100
AcDbArc
 50
78.9029606255
 51
101.0970393745
  0
ELLIPSE
  5
8D
330
5E
100
AcDbEntity
  8
02080010_M4X55_S
  6
Continuous
 62
     7
100
AcDbEllipse
 10
60.7352476861
 20
384.6470398653
 30
0.0
 11
0.0
 21
1.543768918896972
 31
0.0
210
0.0
220
0.0
230
1.0
 40
1.0
 41
-0.3084064732193537
 42
-0.1885875889199435
  0
ELLIPSE
  5
8E
330
5E
100
AcDbEntity
  8
02080010_M4X55_S
  6
Continuous
 62
     7
100
AcDbEllipse
 10
61.216860998
 20
384.8515974948
 30
0.0
 11
-2.123224080462665
 21
5.125916371008562
 31
0.0
210
0.0
220
0.0
230
1.0
 40
0.0871557427
 41
-1.494819759410845
 42
-1.357409741811762
  0
ELLIPSE
  5
8F
330
5E
100
AcDbEntity
  8
02080010_M4X55_S
  6
Continuous
 62
     7
100
AcDbEllipse
 10
60.9275728242
 20
385.1408856686
 30
0.0
 11
5.125916371065374
 21
-2.123224080484582
 31
0.0
210
0.0
220
0.0
230
1.0
 40
0.0871557427
 41
1.357409741811069
 42
1.494819759408627
  0
ELLIPSE
  5
90
330
5E
100
AcDbEntity
  8
02080010_M4X55_S
  6
Continuous
 62
     7
100
AcDbEllipse
 10
60.7230151947
 20
384.6592723567
 30
0.0
 11
5.57412440618392
 21
2.754510486889516E-12
 31
0.0
210
0.0
220
0.0
230
1.0
 40
0.0871557427
 41
1.142419358105172
 42
1.30374786734078
  0
CIRCLE
  5
91
330
5E
100
AcDbEntity
  8
02080010_M4X55_S
  6
Continuous
 62
     7
100
AcDbCircle
 10
142.7230151948
 20
384.6470398653
 30
0.0
 40
3.75
  0
ARC
  5
92
330
5E
100
AcDbEntity
  8
02080010_M4X55_S
  6
Continuous
 62
     7
100
AcDbCircle
 10
142.7230151948
 20
384.6470398653
 30
0.0
 40
2.359581272915714
100
AcDbArc
 50
168.9029606255
 51
191.0970393745
  0
ARC
  5
93
330
5E
100
AcDbEntity
  8
02080010_M4X55_S
  6
Continuous
 62
     7
100
AcDbCircle
 10
142.7230151948
 20
384.6470398653
 30
0.0
 40
2.359581272915711
100
AcDbArc
 50
348.9029606255
 51
11.0970393745
  0
ELLIPSE
  5
94
330
5E
100
AcDbEntity
  8
02080010_M4X55_S
  6
Continuous
 62
     7
100
AcDbEllipse
 10
142.7230151948
 20
384.634807374
 30
0.0
 11
5.574124406171492
 21
-2.115507137414978E-12
 31
0.0
210
0.0
220
0.0
230
1.0
 40
0.0871557427
 41
-1.303747867341407
 42
-1.142419358105435
  0
ELLIPSE
  5
95
330
5E
100
AcDbEntity
  8
02080010_M4X55_S
  6
Continuous
 62
     7
100
AcDbEllipse
 10
142.9275728242
 20
384.1531940621
 30
0.0
 11
5.125916370957266
 21
2.123224080442925
 31
0.0
210
0.0
220
0.0
230
1.0
 40
0.0871557427
 41
-1.494819759413049
 42
-1.357409741812537
  0
ELLIPSE
  5
96
330
5E
100
AcDbEntity
  8
02080010_M4X55_S
  6
Continuous
 62
     7
100
AcDbEllipse
 10
143.216860998
 20
384.4424822359
 30
0.0
 11
-2.123224080475661
 21
-5.125916371042233
 31
0.0
210
0.0
220
0.0
230
1.0
 40
0.0871557427
 41
1.357409741811064
 42
1.494819759409364
  0
ELLIPSE
  5
97
330
5E
100
AcDbEntity
  8
02080010_M4X55_S
  6
Continuous
 62
     7
100
AcDbEllipse
 10
142.7352476861
 20
384.6470398653
 30
0.0
 11
1.679212324745549E-12
 21
-5.574124406164172
 31
0.0
210
0.0
220
0.0
230
1.0
 40
0.0871557427
 41
1.142419358106099
 42
1.303747867342186
  0
ARC
  5
98
330
5E
100
AcDbEntity
  8
02080010_M4X55_S
  6
Continuous
 62
     7
100
AcDbCircle
 10
142.7230151948
 20
384.6470398653
 30
0.0
 40
2.359581272915712
100
AcDbArc
 50
258.9029606255
 51
281.0970393745
  0
ELLIPSE
  5
99
330
5E
100
AcDbEntity
  8
02080010_M4X55_S
  6
Continuous
 62
     7
100
AcDbEllipse
 10
142.7107827034
 20
384.6470398653
 30
0.0
 11
-9.020562075079398E-13
 21
-5.574124406153275
 31
0.0
210
0.0
220
0.0
230
1.0
 40
0.0871557427
 41
-1.30374786734271
 42
-1.142419358106272
  0
ELLIPSE
  5
9A
330
5E
100
AcDbEntity
  8
02080010_M4X55_S
  6
Continuous
 62
     7
100
AcDbEllipse
 10
142.2291693915
 20
384.4424822359
 30
0.0
 11
2.123224080485993
 21
-5.125916371069305
 31
0.0
210
0.0
220
0.0
230
1.0
 40
0.0871557427
 41
-1.494819759408214
 42
-1.357409741810568
  0
ELLIPSE
  5
9B
330
5E
100
AcDbEntity
  8
02080010_M4X55_S
  6
Continuous
 62
     7
100
AcDbEllipse
 10
142.5184575653
 20
384.1531940621
 30
0.0
 11
-5.125916370952444
 21
2.123224080440719
 31
0.0
210
0.0
220
0.0
230
1.0
 40
0.0871557427
 41
1.357409741812242
 42
1.494819759412873
  0
ELLIPSE
  5
9C
330
5E
100
AcDbEntity
  8
02080010_M4X55_S
  6
Continuous
 62
     7
100
AcDbEllipse
 10
142.7230151948
 20
384.634807374
 30
0.0
 11
-5.5741244061858
 21
-2.886674731715500E-12
 31
0.0
210
0.0
220
0.0
230
1.0
 40
0.0871557427
 41
1.142419358105116
 42
1.30374786734067
  0
ELLIPSE
  5
9D
330
5E
100
AcDbEntity
  8
02080010_M4X55_S
  6
Continuous
 62
     7
100
AcDbEllipse
 10
142.7230151948
 20
384.6592723567
 30
0.0
 11
-5.574124406167662
 21
1.898869990825218E-12
 31
0.0
210
0.0
220
0.0
230
1.0
 40
0.0871557427
 41
-1.303747867341762
 42
-1.142419358105725
  0
ELLIPSE
  5
9E
330
5E
100
AcDbEntity
  8
02080010_M4X55_S
  6
Continuous
 62
     7
100
AcDbEllipse
 10
142.5184575653
 20
385.1408856686
 30
0.0
 11
-5.125916370987853
 21
-2.123224080454611
 31
0.0
210
0.0
220
0.0
230
0.9999999999999999
 40
0.0871557427
 41
-1.494819759411532
 42
-1.357409741811789
  0
ELLIPSE
  5
9F
330
5E
100
AcDbEntity
  8
02080010_M4X55_S
  6
Continuous
 62
     7
100
AcDbEllipse
 10
142.2291693915
 20
384.8515974947
 30
0.0
 11
2.123224080479443
 21
5.125916371052319
 31
0.0
210
0.0
220
0.0
230
1.0
 40
0.0871557427
 41
1.357409741811024
 42
1.494819759409049
  0
ELLIPSE
  5
A0
330
5E
100
AcDbEntity
  8
02080010_M4X55_S
  6
Continuous
 62
     7
100
AcDbEllipse
 10
142.7107827034
 20
384.6470398653
 30
0.0
 11
0.0
 21
2.357257433290354
 31
0.0
210
0.0
220
0.0
230
1.0
 40
1.0
 41
0.1885875889197302
 42
0.3084064732205472
  0
ARC
  5
A1
330
5E
100
AcDbEntity
  8
02080010_M4X55_S
  6
Continuous
 62
     7
100
AcDbCircle
 10
142.7230151948
 20
384.6470398653
 30
0.0
 40
2.359581272915714
100
AcDbArc
 50
78.9029606255
 51
101.0970393745
  0
ELLIPSE
  5
A2
330
5E
100
AcDbEntity
  8
02080010_M4X55_S
  6
Continuous
 62
     7
100
AcDbEllipse
 10
142.7352476861
 20
384.6470398653
 30
0.0
 11
0.0
 21
1.543768918874679
 31
0.0
210
0.0
220
0.0
230
1.0
 40
1.0
 41
-0.3084064732204856
 42
-0.1885875889195388
  0
ELLIPSE
  5
A3
330
5E
100
AcDbEntity
  8
02080010_M4X55_S
  6
Continuous
 62
     7
100
AcDbEllipse
 10
143.216860998
 20
384.8515974948
 30
0.0
 11
-2.123224080461554
 21
5.125916371006034
 31
0.0
210
0.0
220
0.0
230
1.0
 40
0.0871557427
 41
-1.49481975941101
 42
-1.357409741811815
  0
ELLIPSE
  5
A4
330
5E
100
AcDbEntity
  8
02080010_M4X55_S
  6
Continuous
 62
     7
100
AcDbEllipse
 10
142.9275728242
 20
385.1408856686
 30
0.0
 11
5.125916370956455
 21
-2.12322408044242
 31
0.0
210
0.0
220
0.0
230
1.0
 40
0.0871557427
 41
1.357409741812308
 42
1.494819759412826
  0
ELLIPSE
  5
A5
330
5E
100
AcDbEntity
  8
02080010_M4X55_S
  6
Continuous
 62
     7
100
AcDbEllipse
 10
142.7230151948
 20
384.6592723567
 30
0.0
 11
5.574124406168258
 21
1.871060205100965E-12
 31
0.0
210
0.0
220
0.0
230
1.0
 40
0.0871557427
 41
1.142419358105797
 42
1.30374786734185
  0
SPLINE
  5
A7
330
5E
100
AcDbEntity
  8
410372040_ESCUTC
  6
Continuous
 62
     7
100
AcDbSpline
210
0.0
220
0.0
230
1.0
 70
     8
 71
     3
 72
    20
 73
    16
 74
     0
 42
0.000000000162968
 43
0.0000000001
 40
0.0
 40
0.0
 40
0.0
 40
0.0
 40
0.0624999999999998
 40
0.0624999999999998
 40
0.1249999999999997
 40
0.1249999999999997
 40
0.1562499999999996
 40
0.1562499999999996
 40
0.1874999999999995
 40
0.1874999999999995
 40
0.2499999999999994
 40
0.2499999999999994
 40
0.4999999999999996
 40
0.4999999999999996
 40
1.0
 40
1.0
 40
1.0
 40
1.0
 10
179.3295301526879
 20
440.6899442930467
 30
0.0
 10
180.5833152456322
 20
440.4542761027943
 30
0.0
 10
181.8064765305496
 20
439.9677107998841
 30
0.0
 10
183.9448816711925
 20
438.5980878422002
 30
0.0
 10
184.8889519569438
 20
437.6999029696987
 30
0.0
 10
185.9953352832027
 20
436.1470239914481
 30
0.0
 10
186.312535484674
 20
435.5983366369027
 30
0.0
 10
186.8426733030037
 20
434.4381931243086
 30
0.0
 10
187.0677149143128
 20
433.8339399672646
 30
0.0
 10
187.7726400506861
 20
432.0433843396565
 30
0.0
 10
188.2250545338849
 20
430.8434267413142
 30
0.0
 10
190.3995862469152
 20
424.8124176111693
 30
0.0
 10
191.8592390706912
 20
419.880700881836
 30
0.0
 10
195.3464620669043
 20
405.0058039717229
 30
0.0
 10
196.5230101947272
 20
394.9154478889431
 30
0.0
 10
196.5230101947803
 20
384.6470398646359
 30
0.0
  0
SPLINE
  5
A8
330
5E
100
AcDbEntity
  8
410372040_ESCUTC
  6
Continuous
 62
     7
100
AcDbSpline
210
0.0
220
0.0
230
1.0
 70
     8
 71
     3
 72
    28
 73
    24
 74
     0
 42
0.0000000001250032
 43
0.0000000001
 40
0.0
 40
0.0
 40
0.0
 40
0.0
 40
0.4999999999999999
 40
0.4999999999999999
 40
0.5625
 40
0.5625
 40
0.5937500000000001
 40
0.5937500000000001
 40
0.6250000000000002
 40
0.6250000000000002
 40
0.6562500000000003
 40
0.6562500000000003
 40
0.6875000000000004
 40
0.6875000000000004
 40
0.7500000000000003
 40
0.7500000000000003
 40
0.8750000000000004
 40
0.8750000000000004
 40
0.9375000000000004
 40
0.9375000000000004
 40
0.9687500000000002
 40
0.9687500000000002
 40
1.0
 40
1.0
 40
1.0
 40
1.0
 10
101.723015194626
 20
456.8470398726314
 30
0.0
 10
115.0836442694503
 20
456.8462564883752
 30
0.0
 10
128.2080648641005
 20
455.5076854127469
 30
0.0
 10
142.7183619814157
 20
452.559454993139
 30
0.0
 10
144.3270411757723
 20
452.2116212802429
 30
0.0
 10
146.734633069933
 20
451.6591309615569
 30
0.0
 10
147.5364659987254
 20
451.4710607942877
 30
0.0
 10
149.1380046201916
 20
451.0827476314401
 30
0.0
 10
149.9399661973715
 20
450.8951686868102
 30
0.0
 10
151.4969323617847
 20
450.249569298358
 30
0.0
 10
152.2566022386604
 20
449.8188162294691
 30
0.0
 10
153.7948266606044
 20
449.0662591189054
 30
0.0
 10
154.5653359871343
 20
448.6981523170941
 30
0.0
 10
156.8829800104504
 20
447.6294315023521
 30
0.0
 10
158.43411612439
 20
446.9625437837417
 30
0.0
 10
163.1227396383186
 20
445.0784893783663
 30
0.0
 10
166.2972272370255
 20
443.9800829584883
 30
0.0
 10
171.1319009655454
 20
442.5683056060856
 30
0.0
 10
172.7555899815193
 20
442.13693716906
 30
0.0
 10
175.2094376968991
 20
441.5490986576303
 30
0.0
 10
176.030799570763
 20
441.3629598460749
 30
0.0
 10
177.6772074338982
 20
441.011140789296
 30
0.0
 10
178.523071385075
 20
440.8415306209955
 30
0.0
 10
179.3295301526879
 20
440.6899442930467
 30
0.0
  0
SPLINE
  5
A9
330
5E
100
AcDbEntity
  8
410372040_ESCUTC
  6
Continuous
 62
     7
100
AcDbSpline
210
0.0
220
0.0
230
1.0
 70
     8
 71
     3
 72
    24
 73
    20
 74
     0
 42
0.0000000001250433
 43
0.0000000001
 40
0.0
 40
0.0
 40
0.0
 40
0.0
 40
0.2500000000000008
 40
0.2500000000000008
 40
0.3125000000000011
 40
0.3125000000000011
 40
0.3437500000000011
 40
0.3437500000000011
 40
0.375000000000001
 40
0.375000000000001
 40
0.406250000000001
 40
0.406250000000001
 40
0.437500000000001
 40
0.437500000000001
 40
0.500000000000001
 40
0.500000000000001
 40
0.7500000000000004
 40
0.7500000000000004
 40
1.0
 40
1.0
 40
1.0
 40
1.0
 10
24.11650023687244
 20
440.6899442930467
 30
0.0
 10
30.61377281584471
 20
441.9112065961954
 30
0.0
 10
36.9799654368637
 20
443.7574984023151
 30
0.0
 10
44.69843852684381
 20
446.8316136227045
 30
0.0
 10
46.23092165976856
 20
447.4844847551803
 30
0.0
 10
48.51156141635006
 20
448.5251280836564
 30
0.0
 10
49.26855464213228
 20
448.8829241771221
 30
0.0
 10
50.77767104613776
 20
449.615093701099
 30
0.0
 10
51.52191414545786
 20
450.015740344182
 30
0.0
 10
53.03629039242411
 20
450.7311980758109
 30
0.0
 10
53.83160416296387
 20
450.9615000101592
 30
0.0
 10
55.4402666189789
 20
451.3605029960355
 30
0.0
 10
56.24756990830714
 20
451.5500622347028
 30
0.0
 10
58.67146552679925
 20
452.1124418234061
 30
0.0
 10
60.29354829339432
 20
452.4671036030131
 30
0.0
 10
68.43458899387309
 20
454.1395875436114
 30
0.0
 10
75.06807756147664
 20
455.1549912100112
 30
0.0
 10
88.35791805455038
 20
456.5056290352321
 30
0.0
 10
95.02776919638104
 20
456.8466473050152
 30
0.0
 10
101.723015194626
 20
456.8470398726314
 30
0.0
  0
SPLINE
  5
AA
330
5E
100
AcDbEntity
  8
410372040_ESCUTC
  6
Continuous
 62
     7
100
AcDbSpline
210
0.0
220
0.0
230
1.0
 70
     8
 71
     3
 72
    20
 73
    16
 74
     0
 42
0.0000000001629674
 43
0.0000000001
 40
0.0
 40
0.0
 40
0.0
 40
0.0
 40
0.5000000000000007
 40
0.5000000000000007
 40
0.7500000000000012
 40
0.7500000000000012
 40
0.8125000000000014
 40
0.8125000000000014
 40
0.8437500000000013
 40
0.8437500000000013
 40
0.8750000000000013
 40
0.8750000000000013
 40
0.9375000000000007
 40
0.9375000000000007
 40
1.0
 40
1.0
 40
1.0
 40
1.0
 10
6.923020194780041
 20
384.6470398660061
 30
0.0
 10
6.923020194833248
 20
394.9390979962462
 30
0.0
 10
8.104860238692794
 20
405.0296155780699
 30
0.0
 10
11.5854088368474
 20
419.8741841515352
 30
0.0
 10
13.03581267850812
 20
424.7808878591182
 30
0.0
 10
15.21607038002895
 20
430.8303280185831
 30
0.0
 10
15.6696121089711
 20
432.0335918360556
 30
0.0
 10
16.37615645719617
 20
433.8285528604741
 30
0.0
 10
16.60171989998705
 20
434.4341895613343
 30
0.0
 10
17.13286392031998
 20
435.5973747848351
 30
0.0
 10
17.45078320087748
 20
436.1473302988969
 30
0.0
 10
18.55980317744713
 20
437.7033612812554
 30
0.0
 10
19.50043259750385
 20
438.5988847218333
 30
0.0
 10
21.65425005382081
 20
439.9758598124183
 30
0.0
 10
22.87163264826034
 20
440.4559522848764
 30
0.0
 10
24.11650023687244
 20
440.6899442930467
 30
0.0
  0
SPLINE
  5
AB
330
5E
100
AcDbEntity
  8
410372040_ESCUTC
  6
Continuous
 62
     7
100
AcDbSpline
210
0.0
220
0.0
230
1.0
 70
     8
 71
     3
 72
    20
 73
    16
 74
     0
 42
0.000000000162968
 43
0.0000000001
 40
0.0
 40
0.0
 40
0.0
 40
0.0
 40
0.0625
 40
0.0625
 40
0.1249999999999999
 40
0.1249999999999999
 40
0.1562499999999998
 40
0.1562499999999998
 40
0.1874999999999998
 40
0.1874999999999998
 40
0.2499999999999996
 40
0.2499999999999996
 40
0.4999999999999998
 40
0.4999999999999998
 40
1.0
 40
1.0
 40
1.0
 40
1.0
 10
24.1165002368724
 20
328.6041354375953
 30
0.0
 10
22.86271514433701
 20
328.8398036277708
 30
0.0
 10
21.639553860118
 20
329.3263689303394
 30
0.0
 10
19.50114872050746
 20
330.6959918867806
 30
0.0
 10
18.55707843433072
 20
331.5941767593334
 30
0.0
 10
17.45069510866415
 20
333.1470557355582
 30
0.0
 10
17.13349490707991
 20
333.6957430896506
 30
0.0
 10
16.60335708821971
 20
334.8558866019818
 30
0.0
 10
16.37831547687486
 20
335.4601397592995
 30
0.0
 10
15.67339034028778
 20
337.2506953872822
 30
0.0
 10
15.22097585694378
 20
338.4506529859041
 30
0.0
 10
13.0464441431847
 20
344.4816621175985
 30
0.0
 10
11.58679131940568
 20
349.4133788468912
 30
0.0
 10
8.099568323106334
 20
364.2882757562495
 30
0.0
 10
6.923020194833082
 20
374.3786318397269
 30
0.0
 10
6.923020194780041
 20
384.6470398660061
 30
0.0
  0
SPLINE
  5
AC
330
5E
100
AcDbEntity
  8
410372040_ESCUTC
  6
Continuous
 62
     7
100
AcDbSpline
210
0.0
220
0.0
230
1.0
 70
     8
 71
     3
 72
    28
 73
    24
 74
     0
 42
0.0000000001250434
 43
0.0000000001
 40
0.0841366306298438
 40
0.0841366306298438
 40
0.0841366306298438
 40
0.0841366306298438
 40
0.4999999999999964
 40
0.4999999999999964
 40
0.5624999999999962
 40
0.5624999999999962
 40
0.5937499999999963
 40
0.5937499999999963
 40
0.6249999999999964
 40
0.6249999999999964
 40
0.6562499999999966
 40
0.6562499999999966
 40
0.6874999999999967
 40
0.6874999999999967
 40
0.7499999999999973
 40
0.7499999999999973
 40
0.8749999999999987
 40
0.8749999999999987
 40
0.9374999999999993
 40
0.9374999999999993
 40
0.9687499999999997
 40
0.9687499999999997
 40
1.0
 40
1.0
 40
1.0
 40
1.0
 10
94.99832383783314
 20
312.5608118299812
 30
0.0
 10
83.9518181246397
 20
312.9346178683494
 30
0.0
 10
73.06756995509971
 20
314.2273795156674
 30
0.0
 10
60.72766840921866
 20
316.7346247372754
 30
0.0
 10
59.11898921486711
 20
317.082458450161
 30
0.0
 10
56.71139732070689
 20
317.6349487688325
 30
0.0
 10
55.90956439191338
 20
317.8230189361014
 30
0.0
 10
54.30802577044264
 20
318.2113320989328
 30
0.0
 10
53.5060641932576
 20
318.3989110434956
 30
0.0
 10
51.94909802885471
 20
319.0445104317294
 30
0.0
 10
51.18942815200427
 20
319.4752635006241
 30
0.0
 10
49.6512037300941
 20
320.2278206111882
 30
0.0
 10
48.88069440357877
 20
320.595927413004
 30
0.0
 10
46.56305038029703
 20
321.6646482277669
 30
0.0
 10
45.01191426637009
 20
322.3315359463953
 30
0.0
 10
40.32329075246096
 20
324.2155903518312
 30
0.0
 10
37.14880315367763
 20
325.3139967717859
 30
0.0
 10
32.31412942488416
 20
326.7257741243195
 30
0.0
 10
30.69044040879249
 20
327.1571425613914
 30
0.0
 10
28.23659269319181
 20
327.7449810728897
 30
0.0
 10
27.41523081924495
 20
327.9311198844684
 30
0.0
 10
25.76882295590112
 20
328.2829389412979
 30
0.0
 10
24.92295900461838
 20
328.4525491096214
 30
0.0
 10
24.1165002368724
 20
328.6041354375953
 30
0.0
  0
SPLINE
  5
AD
330
5E
100
AcDbEntity
  8
410372040_ESCUTC
  6
Continuous
 62
     7
100
AcDbSpline
210
0.0
220
0.0
230
1.0
 70
     8
 71
     3
 72
    24
 73
    20
 74
     0
 42
0.0000000001250944
 43
0.0000000001
 40
0.0
 40
0.0
 40
0.0
 40
0.0
 40
0.2500000000000012
 40
0.2500000000000012
 40
0.3125000000000012
 40
0.3125000000000012
 40
0.3437500000000012
 40
0.3437500000000012
 40
0.3750000000000011
 40
0.3750000000000011
 40
0.406250000000001
 40
0.406250000000001
 40
0.4375000000000009
 40
0.4375000000000009
 40
0.5000000000000008
 40
0.5000000000000008
 40
0.7500000000000003
 40
0.7500000000000003
 40
0.9160344652827797
 40
0.9160344652827797
 40
0.9160344652827797
 40
0.9160344652827797
 10
179.3295301526878
 20
328.6041354375952
 30
0.0
 10
172.8322575724532
 20
327.3828731342093
 30
0.0
 10
166.4660649509934
 20
325.5365813277862
 30
0.0
 10
158.7475918608317
 20
322.4624661071524
 30
0.0
 10
157.215108727894
 20
321.8095949746344
 30
0.0
 10
154.9344689713282
 20
320.7689516461076
 30
0.0
 10
154.1774757455571
 20
320.4111555526272
 30
0.0
 10
152.6683593415829
 20
319.6789860286356
 30
0.0
 10
151.9241162423056
 20
319.2783393854489
 30
0.0
 10
150.4097399953267
 20
318.5628816541384
 30
0.0
 10
149.6144262247583
 20
318.3325797200065
 30
0.0
 10
148.0057637687154
 20
317.9335767341639
 30
0.0
 10
147.1984604793762
 20
317.7440174954954
 30
0.0
 10
144.7745648608602
 20
317.1816379068117
 30
0.0
 10
143.1524820942603
 20
316.8269761272206
 30
0.0
 10
135.0114413938184
 20
315.1544921867134
 30
0.0
 10
128.3779528264485
 20
314.1390885204177
 30
0.0
 10
117.3198894604119
 20
313.0152647497256
 30
0.0
 10
112.895749844016
 20
312.7142129177648
 30
0.0
 10
108.4604778191776
 20
312.5624669579685
 30
0.0
  0
SPLINE
  5
AE
330
5E
100
AcDbEntity
  8
410372040_ESCUTC
  6
Continuous
 62
     7
100
AcDbSpline
210
0.0
220
0.0
230
1.0
 70
     8
 71
     3
 72
    20
 73
    16
 74
     0
 42
0.0000000001629674
 43
0.0000000001
 40
0.0
 40
0.0
 40
0.0
 40
0.0
 40
0.5000000000000006
 40
0.5000000000000006
 40
0.7500000000000007
 40
0.7500000000000007
 40
0.8125000000000004
 40
0.8125000000000004
 40
0.8437500000000001
 40
0.8437500000000001
 40
0.8749999999999999
 40
0.8749999999999999
 40
0.9374999999999999
 40
0.9374999999999999
 40
1.0
 40
1.0
 40
1.0
 40
1.0
 10
196.5230101947803
 20
384.6470398646359
 30
0.0
 10
196.523010194727
 20
374.3549817349966
 30
0.0
 10
195.3411701509957
 20
364.2644641534935
 30
0.0
 10
191.8606215530305
 20
349.4198955802743
 30
0.0
 10
190.4102177114116
 20
344.5131918726715
 30
0.0
 10
188.2299600099981
 20
338.4637517133165
 30
0.0
 10
187.7764182810785
 20
337.2604878958668
 30
0.0
 10
187.0698739328892
 20
335.4655268714836
 30
0.0
 10
186.8443104900919
 20
334.8598901706656
 30
0.0
 10
186.3131664699179
 20
333.6967049470691
 30
0.0
 10
185.9952471894119
 20
333.1467494329057
 30
0.0
 10
184.8862272128382
 20
331.5907184501287
 30
0.0
 10
183.9455977928744
 20
330.695195009458
 30
0.0
 10
181.7917803363252
 20
329.3182199184718
 30
0.0
 10
180.574397741406
 20
328.8381274457855
 30
0.0
 10
179.3295301526878
 20
328.6041354375952
 30
0.0
  0
SPLINE
  5
AF
330
5E
100
AcDbEntity
  8
410372040_ESCUTC
  6
Continuous
 62
     7
100
AcDbSpline
210
0.0
220
0.0
230
1.0
 70
     8
 71
     3
 72
    44
 73
    40
 74
     0
 42
0.0000000000749196
 43
0.0000000001
 40
0.0
 40
0.0
 40
0.0
 40
0.0
 40
0.1249999999999993
 40
0.1249999999999993
 40
0.2499999999999987
 40
0.2499999999999987
 40
0.3124999999999983
 40
0.3124999999999983
 40
0.343749999999998
 40
0.343749999999998
 40
0.351562499999998
 40
0.351562499999998
 40
0.3593749999999981
 40
0.3593749999999981
 40
0.374999999999998
 40
0.374999999999998
 40
0.4999999999999973
 40
0.4999999999999973
 40
0.5624999999999972
 40
0.5624999999999972
 40
0.5781249999999973
 40
0.5781249999999973
 40
0.5937499999999974
 40
0.5937499999999974
 40
0.6249999999999974
 40
0.6249999999999974
 40
0.6328124999999976
 40
0.6328124999999976
 40
0.6406249999999976
 40
0.6406249999999976
 40
0.6562499999999978
 40
0.6562499999999978
 40
0.6874999999999981
 40
0.6874999999999981
 40
0.7499999999999986
 40
0.7499999999999986
 40
0.8749999999999992
 40
0.8749999999999992
 40
1.0
 40
1.0
 40
1.0
 40
1.0
 10
101.7227815752774
 20
451.8483299869763
 30
0.0
 10
107.3126022338577
 20
451.8480022477033
 30
0.0
 10
112.8857499572785
 20
451.6037280854068
 30
0.0
 10
123.9991803532298
 20
450.636165249709
 30
0.0
 10
129.5476905297045
 20
449.9110155651329
 30
0.0
 10
137.7953996241087
 20
448.4645908047665
 30
0.0
 10
140.5334546929031
 20
447.9226509993108
 30
0.0
 10
144.6237274052739
 20
447.0198434315907
 30
0.0
 10
145.9861539535997
 20
446.7058230318876
 30
0.0
 10
147.6797516167797
 20
446.2916778043389
 30
0.0
 10
148.0198144965281
 20
446.2122042753631
 30
0.0
 10
148.6850335939975
 20
446.0161776038176
 30
0.0
 10
148.9996424971552
 20
445.873372442565
 30
0.0
 10
149.9266484226491
 20
445.403129304707
 30
0.0
 10
150.5445713055512
 20
445.0894803480053
 30
0.0
 10
156.146265106558
 20
442.3675811882079
 30
0.0
 10
161.2897958065425
 20
440.3341254114874
 30
0.0
 10
169.1944081980436
 20
437.8959395602213
 30
0.0
 10
171.8618773373956
 20
437.1839876070435
 30
0.0
 10
175.2220608734046
 20
436.4238585930458
 30
0.0
 10
175.8955692824594
 20
436.2782834453969
 30
0.0
 10
177.2455421576887
 20
436.0000881423043
 30
0.0
 10
177.9276883770594
 20
435.8916536506002
 30
0.0
 10
179.94156635863
 20
435.4283049480935
 30
0.0
 10
181.1464379460703
 20
434.5392126658167
 30
0.0
 10
182.0055820785998
 20
433.0214189232905
 30
0.0
 10
182.1342401335336
 20
432.6973976648807
 30
0.0
 10
182.3939625959308
 20
432.0532027773573
 30
0.0
 10
182.522510617682
 20
431.7305720708675
 30
0.0
 10
182.9042144221434
 20
430.7610798939559
 30
0.0
 10
183.1534724671609
 20
430.1125049581156
 30
0.0
 10
183.8851628977619
 20
428.1612029869215
 30
0.0
 10
184.3513340036027
 20
426.8534111228113
 30
0.0
 10
185.6851861806487
 20
422.9093293461909
 30
0.0
 10
186.4882749370169
 20
420.2523552743505
 30
0.0
 10
188.6382707241394
 20
412.1984033474667
 30
0.0
 10
189.7156182912439
 20
406.7597035998249
 30
0.0
 10
191.1591773380531
 20
395.7642966887028
 30
0.0
 10
191.5234064265631
 20
390.2062003266772
 30
0.0
 10
191.52340642647
 20
384.6470398653602
 30
0.0
  0
SPLINE
  5
B0
330
5E
100
AcDbEntity
  8
410372040_ESCUTC
  6
Continuous
 62
     7
100
AcDbSpline
210
0.0
220
0.0
230
1.0
 70
     8
 71
     3
 72
    30
 73
    26
 74
     0
 42
0.0000000000751278
 43
0.0000000001
 40
0.0
 40
0.0
 40
0.0
 40
0.0
 40
0.2499999999999897
 40
0.2499999999999897
 40
0.3124999999999872
 40
0.3124999999999872
 40
0.3437499999999859
 40
0.3437499999999859
 40
0.3593749999999852
 40
0.3593749999999852
 40
0.3671874999999849
 40
0.3671874999999849
 40
0.3749999999999846
 40
0.3749999999999846
 40
0.4062499999999842
 40
0.4062499999999842
 40
0.4140624999999842
 40
0.4140624999999842
 40
0.4218749999999841
 40
0.4218749999999841
 40
0.4374999999999843
 40
0.4374999999999843
 40
0.4999999999999857
 40
0.4999999999999857
 40
0.5960391107577472
 40
0.5960391107577472
 40
0.5960391107577472
 40
0.5960391107577472
 10
191.52340642647
 20
384.6470398653602
 30
0.0
 10
191.5234064188613
 20
373.5825344627398
 30
0.0
 10
190.0778002938425
 20
362.5380430472268
 30
0.0
 10
186.5342255011446
 20
349.2018097403996
 30
0.0
 10
185.7397744749337
 20
346.5600761478021
 30
0.0
 10
184.4194209503048
 20
342.6357650076715
 30
0.0
 10
183.9578401068994
 20
341.3340478424457
 30
0.0
 10
183.233112041917
 20
339.3910999221342
 30
0.0
 10
182.9861914045751
 20
338.7451970616434
 30
0.0
 10
182.6081202130868
 20
337.7798116293143
 30
0.0
 10
182.4807996870233
 20
337.4585540359976
 30
0.0
 10
182.2235660303106
 20
336.8171135341333
 30
0.0
 10
182.1040331872218
 20
336.4926587416381
 30
0.0
 10
181.3246542055648
 20
334.94518800821
 30
0.0
 10
180.1625819944959
 20
333.9891564243497
 30
0.0
 10
178.4934898202976
 20
333.5215730719092
 30
0.0
 10
178.150991239647
 20
333.4687789543503
 30
0.0
 10
177.4715229930297
 20
333.3371069201237
 30
0.0
 10
177.1321272677233
 20
333.2696254433174
 30
0.0
 10
176.1149526229239
 20
333.0622570889551
 30
0.0
 10
175.4380599093561
 20
332.9174177306998
 30
0.0
 10
172.0625583969237
 20
332.1610184513254
 30
0.0
 10
169.3899232638088
 20
331.4530469272646
 30
0.0
 10
162.6807265682359
 20
329.3968221279233
 30
0.0
 10
158.6855326094921
 20
327.9081122775539
 30
0.0
 10
154.7712619102722
 20
326.1787073817293
 30
0.0
  0
SPLINE
  5
B1
330
5E
100
AcDbEntity
  8
410372040_ESCUTC
  6
Continuous
 62
     7
100
AcDbSpline
210
0.0
220
0.0
230
1.0
 70
     8
 71
     3
 72
    18
 73
    14
 74
     0
 42
0.0000000000746771
 43
0.0000000001
 40
0.5960391107577472
 40
0.5960391107577472
 40
0.5960391107577472
 40
0.5960391107577472
 40
0.6249999999999882
 40
0.6249999999999882
 40
0.6406249999999886
 40
0.6406249999999886
 40
0.6484374999999887
 40
0.6484374999999887
 40
0.6562499999999888
 40
0.6562499999999888
 40
0.6874999999999898
 40
0.6874999999999898
 40
0.7078177602843172
 40
0.7078177602843172
 40
0.7078177602843172
 40
0.7078177602843172
 10
154.7712619102722
 20
326.1787073817293
 30
0.0
 10
153.5909015415659
 20
325.6572000161593
 30
0.0
 10
152.4178998693789
 20
325.1138052253468
 30
0.0
 10
150.6238686150672
 20
324.2436430321789
 30
0.0
 10
149.9981859531329
 20
323.9296143239768
 30
0.0
 10
149.062051012177
 20
323.451364999714
 30
0.0
 10
148.7469414932308
 20
323.3010557317103
 30
0.0
 10
148.0843454379962
 20
323.0968020727498
 30
0.0
 10
147.7449872960009
 20
323.0186581020888
 30
0.0
 10
146.0561159224399
 20
322.6042845780742
 30
0.0
 10
144.6986908420475
 20
322.2913869296266
 30
0.0
 10
142.4520348546419
 20
321.7945332378446
 30
0.0
 10
141.5643171040854
 20
321.6048158808862
 30
0.0
 10
140.6745978439702
 20
321.4212656834223
 30
0.0
  0
SPLINE
  5
B2
330
5E
100
AcDbEntity
  8
410372040_ESCUTC
  6
Continuous
 62
     7
100
AcDbSpline
210
0.0
220
0.0
230
1.0
 70
     8
 71
     3
 72
    10
 73
     6
 74
     0
 42
0.0000000000744543
 43
0.0000000001
 40
0.7078177602843172
 40
0.7078177602843172
 40
0.7078177602843172
 40
0.7078177602843172
 40
0.7499999999999917
 40
0.7499999999999917
 40
0.9550360028918365
 40
0.9550360028918365
 40
0.9550360028918365
 40
0.9550360028918365
 10
140.6745978439702
 20
321.4212656834223
 30
0.0
 10
138.8274281468858
 20
321.0401922618968
 30
0.0
 10
136.9716313410008
 20
320.6857011545649
 30
0.0
 10
126.0726185585508
 20
318.7704000407857
 30
0.0
 10
116.9365872514828
 20
317.8284559059834
 30
0.0
 10
107.7629999839887
 20
317.5406443976361
 30
0.0
  0
SPLINE
  5
B3
330
5E
100
AcDbEntity
  8
410372040_ESCUTC
  6
Continuous
 62
     7
100
AcDbSpline
210
0.0
220
0.0
230
1.0
 70
     8
 71
     3
 72
    44
 73
    40
 74
     0
 42
0.0000000000749369
 43
0.0000000001
 40
0.0452041111612148
 40
0.0452041111612148
 40
0.0452041111612148
 40
0.0452041111612148
 40
0.1250000000000013
 40
0.1250000000000013
 40
0.2500000000000027
 40
0.2500000000000027
 40
0.3125000000000033
 40
0.3125000000000033
 40
0.3437500000000036
 40
0.3437500000000036
 40
0.3515625000000038
 40
0.3515625000000038
 40
0.3593750000000039
 40
0.3593750000000039
 40
0.3750000000000042
 40
0.3750000000000042
 40
0.5000000000000066
 40
0.5000000000000066
 40
0.5625000000000078
 40
0.5625000000000078
 40
0.5781250000000081
 40
0.5781250000000081
 40
0.5937500000000083
 40
0.5937500000000083
 40
0.6250000000000085
 40
0.6250000000000085
 40
0.6328125000000085
 40
0.6328125000000085
 40
0.6406250000000085
 40
0.6406250000000085
 40
0.6562500000000081
 40
0.6562500000000081
 40
0.6875000000000074
 40
0.6875000000000074
 40
0.7500000000000059
 40
0.7500000000000059
 40
0.875000000000003
 40
0.875000000000003
 40
1.0
 40
1.0
 40
1.0
 40
1.0
 10
95.66511002430931
 20
317.5416129146025
 30
0.0
 10
92.10443821728033
 20
317.6540887424944
 30
0.0
 10
88.55052546027329
 20
317.865321149438
 30
0.0
 10
79.44660651461405
 20
318.657943120137
 30
0.0
 10
73.89810930544114
 20
319.3830980822119
 30
0.0
 10
65.65042005917682
 20
320.8295291328453
 30
0.0
 10
62.91237155893897
 20
321.3714707616529
 30
0.0
 10
58.82210863769939
 20
322.2742807062132
 30
0.0
 10
57.45968487672045
 20
322.58830046827
 30
0.0
 10
55.76609232605127
 20
323.0024482858841
 30
0.0
 10
55.42602916145335
 20
323.081919079954
 30
0.0
 10
54.76081971639471
 20
323.2779657131449
 30
0.0
 10
54.44621913758872
 20
323.4207895468767
 30
0.0
 10
53.51921861474147
 20
323.8910399795053
 30
0.0
 10
52.90129403579201
 20
324.2046806141773
 30
0.0
 10
47.29960949873908
 20
326.9265659584356
 30
0.0
 10
42.15608647144634
 20
328.9600077902527
 30
0.0
 10
34.25148807006342
 20
331.3981776487655
 30
0.0
 10
31.58402400312823
 20
332.11012465354
 30
0.0
 10
28.22384694892113
 20
332.8702480337203
 30
0.0
 10
27.55033984237328
 20
333.0158220818216
 30
0.0
 10
26.20036958408377
 20
333.2940152386621
 30
0.0
 10
25.51822195584062
 20
333.4024370939192
 30
0.0
 10
23.5043595248836
 20
333.8658320601211
 30
0.0
 10
22.2995122645434
 20
334.7549463301091
 30
0.0
 10
21.44040050818258
 20
336.2727608596861
 30
0.0
 10
21.31174953385072
 20
336.5967822929252
 30
0.0
 10
21.05202818288342
 20
337.2409759871913
 30
0.0
 10
20.9234807110948
 20
337.5636060947126
 30
0.0
 10
20.54177853933999
 20
338.5330964677302
 30
0.0
 10
20.29252155448523
 20
339.1816702067245
 30
0.0
 10
19.56083429496124
 20
341.1329683985658
 30
0.0
 10
19.09466520581106
 20
342.4407577119604
 30
0.0
 10
17.76081879290366
 20
346.3848317449605
 30
0.0
 10
16.95773349863707
 20
349.0418005326112
 30
0.0
 10
14.80774698307723
 20
357.0957362502904
 30
0.0
 10
13.73040420446041
 20
362.5344240985166
 30
0.0
 10
12.2868514490896
 20
373.5298074376238
 30
0.0
 10
11.92262396379143
 20
379.0878915994221
 30
0.0
 10
11.92262396310632
 20
384.6470398651132
 30
0.0
  0
SPLINE
  5
B4
330
5E
100
AcDbEntity
  8
410372040_ESCUTC
  6
Continuous
 62
     7
100
AcDbSpline
210
0.0
220
0.0
230
1.0
 70
     8
 71
     3
 72
    30
 73
    26
 74
     0
 42
0.0000000000751278
 43
0.0000000001
 40
0.0
 40
0.0
 40
0.0
 40
0.0
 40
0.2500000000000064
 40
0.2500000000000064
 40
0.312500000000008
 40
0.312500000000008
 40
0.3437500000000089
 40
0.3437500000000089
 40
0.3593750000000094
 40
0.3593750000000094
 40
0.3671875000000097
 40
0.3671875000000097
 40
0.37500000000001
 40
0.37500000000001
 40
0.4062500000000107
 40
0.4062500000000107
 40
0.4140625000000108
 40
0.4140625000000108
 40
0.4218750000000109
 40
0.4218750000000109
 40
0.4375000000000108
 40
0.4375000000000108
 40
0.5000000000000102
 40
0.5000000000000102
 40
0.5961767433268202
 40
0.5961767433268202
 40
0.5961767433268202
 40
0.5961767433268202
 10
11.92262396310632
 20
384.6470398651132
 30
0.0
 10
11.9226239691661
 20
395.7115211312636
 30
0.0
 10
13.36822371580698
 20
406.7559883522337
 30
0.0
 10
16.91178328934112
 20
420.0921947950433
 30
0.0
 10
17.70623090243743
 20
422.7339231247801
 30
0.0
 10
19.02657873703498
 20
426.6582265404041
 30
0.0
 10
19.48815758855702
 20
427.9599411591352
 30
0.0
 10
20.21288251947006
 20
429.9028853032337
 30
0.0
 10
20.45980211485086
 20
430.548786983205
 30
0.0
 10
20.83787170090616
 20
431.5141706332873
 30
0.0
 10
20.9651916862313
 20
431.8354276348422
 30
0.0
 10
21.22242425023348
 20
432.4768669578423
 30
0.0
 10
21.34195556860289
 20
432.8013215636171
 30
0.0
 10
22.12129788881717
 20
434.3488033134955
 30
0.0
 10
23.28334452177967
 20
435.3048603192797
 30
0.0
 10
24.9524245301144
 20
435.7724826259719
 30
0.0
 10
25.294921968991
 20
435.8252784679833
 30
0.0
 10
25.97438888902354
 20
435.9569494535294
 30
0.0
 10
26.31378395240307
 20
436.0244303993556
 30
0.0
 10
27.33095661557627
 20
436.2317971405765
 30
0.0
 10
28.00784802339039
 20
436.3766353981156
 30
0.0
 10
31.3833432318506
 20
437.1330290858094
 30
0.0
 10
34.05597343331754
 20
437.8409957235462
 30
0.0
 10
40.77098239207015
 20
439.8989919735036
 30
0.0
 10
44.77179626268368
 20
441.3901739664832
 30
0.0
 10
48.69143770319936
 20
443.1227380799342
 30
0.0
  0
SPLINE
  5
B5
330
5E
100
AcDbEntity
  8
410372040_ESCUTC
  6
Continuous
 62
     7
100
AcDbSpline
210
0.0
220
0.0
230
1.0
 70
     8
 71
     3
 72
    18
 73
    14
 74
     0
 42
0.0000000000746771
 43
0.0000000001
 40
0.5961767433268202
 40
0.5961767433268202
 40
0.5961767433268202
 40
0.5961767433268202
 40
0.6250000000000095
 40
0.6250000000000095
 40
0.6406250000000093
 40
0.6406250000000093
 40
0.6484375000000093
 40
0.6484375000000093
 40
0.6562500000000093
 40
0.6562500000000093
 40
0.6875000000000084
 40
0.6875000000000084
 40
0.7078187997688415
 40
0.7078187997688415
 40
0.7078187997688415
 40
0.7078187997688415
 10
48.69143770319936
 20
443.1227380799342
 30
0.0
 10
49.86611702170109
 20
443.6419710921714
 30
0.0
 10
51.03350588724793
 20
444.1828836942808
 30
0.0
 10
52.82199609543972
 20
445.0503552719139
 30
0.0
 10
53.44767968767662
 20
445.3643764502039
 30
0.0
 10
54.38381052212702
 20
445.8426308587774
 30
0.0
 10
54.69891407855839
 20
445.9929554972477
 30
0.0
 10
55.36149979338683
 20
446.1972351815314
 30
0.0
 10
55.70085836004036
 20
446.2753755064296
 30
0.0
 10
57.38972480561412
 20
446.689751796209
 30
0.0
 10
58.74714693544097
 20
447.0026487031766
 30
0.0
 10
60.9938425211232
 20
447.4995136261662
 30
0.0
 10
61.88160355560863
 20
447.689240885371
 30
0.0
 10
62.77136628728436
 20
447.8728003793753
 30
0.0
  0
SPLINE
  5
B6
330
5E
100
AcDbEntity
  8
410372040_ESCUTC
  6
Continuous
 62
     7
100
AcDbSpline
210
0.0
220
0.0
230
1.0
 70
     8
 71
     3
 72
    10
 73
     6
 74
     0
 42
0.0000000000744149
 43
0.0000000001
 40
0.7078187997688415
 40
0.7078187997688415
 40
0.7078187997688415
 40
0.7078187997688415
 40
0.7500000000000068
 40
0.7500000000000068
 40
1.0
 40
1.0
 40
1.0
 40
1.0
 10
62.77136628728436
 20
447.8728003793753
 30
0.0
 10
64.61848621415187
 20
448.2538642147896
 30
0.0
 10
66.47423275062256
 20
448.6083471553683
 30
0.0
 10
79.35547976863779
 20
450.872004692125
 30
0.0
 10
90.52085225221506
 20
451.8476459114077
 30
0.0
 10
101.7227815752774
 20
451.8483299869763
 30
0.0
  0
CIRCLE
  5
B7
330
5E
100
AcDbEntity
  8
410372040_ESCUTC
  6
Continuous
 62
     7
100
AcDbCircle
 10
60.7230151948
 20
384.6470398653
 30
0.0
 40
3.75710678118655
  0
ARC
  5
B8
330
5E
100
AcDbEntity
  8
410372040_ESCUTC
  6
Continuous
 62
     7
100
AcDbCircle
 10
101.7230151948
 20
384.6470398653
 30
0.0
 40
32.0
100
AcDbArc
 50
0.0
 51
75.8920253497
  0
ARC
  5
B9
330
5E
100
AcDbEntity
  8
410372040_ESCUTC
  6
Continuous
 62
     7
100
AcDbCircle
 10
101.7230151948
 20
384.6470398653
 30
0.0
 40
32.0
100
AcDbArc
 50
104.1079746503
 51
259.5704466033
  0
ARC
  5
BA
330
5E
100
AcDbEntity
  8
410372040_ESCUTC
  6
Continuous
 62
     7
100
AcDbCircle
 10
101.7230151948
 20
384.6470398653
 30
0.0
 40
32.0
100
AcDbArc
 50
280.4295533967
 51
0.0
  0
ARC
  5
BB
330
5E
100
AcDbEntity
  8
410372040_ESCUTC
  6
Continuous
 62
     7
100
AcDbCircle
 10
127.5907248004
 20
385.0779806313
 30
0.0
 40
70.10804989266872
100
AcDbArc
 50
277.3260355365
 51
289.6566660183
  0
LINE
  5
BE
330
5E
100
AcDbEntity
  8
DV1_Standard
  6
CENTER2
 62
     7
100
AcDbLine
 10
121.7230147477
 20
384.6470398653
 30
0.0
 11
81.7230156418
 21
384.6470398653
 31
0.0
  0
LINE
  5
BF
330
5E
100
AcDbEntity
  8
DV1_Standard
  6
CENTER2
 62
     7
100
AcDbLine
 10
101.7230151948
 20
404.6470394183
 30
0.0
 11
101.7230151948
 21
364.6470403124
 31
0.0
  0
LINE
  5
C0
330
5E
100
AcDbEntity
  8
DV1_Standard
  6
CENTER2
 62
     7
100
AcDbLine
 10
126.723014636
 20
384.6470398653
 30
0.0
 11
114.5799051623
 21
384.6470398653
 31
0.0
  0
LINE
  5
C1
330
5E
100
AcDbEntity
  8
DV1_Standard
  6
CENTER2
 62
     7
100
AcDbLine
 10
101.7230151948
 20
409.6470393065
 30
0.0
 11
101.7230151948
 21
397.5039298328
 31
0.0
  0
LINE
  5
C2
330
5E
100
AcDbEntity
  8
DV1_Standard
  6
CENTER2
 62
     7
100
AcDbLine
 10
76.7230157536
 20
384.6470398653
 30
0.0
 11
88.8661252273
 21
384.6470398653
 31
0.0
  0
LINE
  5
C3
330
5E
100
AcDbEntity
  8
DV1_Standard
  6
CENTER2
 62
     7
100
AcDbLine
 10
101.7230151948
 20
359.6470404241
 30
0.0
 11
101.7230151948
 21
371.7901498978
 31
0.0
  0
ENDBLK
  5
C5
330
5E
100
AcDbEntity
  8
0
100
AcDbBlockEnd
  0
BLOCK
  5
14E
330
C6
100
AcDbEntity
  8
0
100
AcDbBlockBegin
  2
SE1
 70
     0
 10
0.0
 20
0.0
 30
0.0
  3
SE1
  1

  0
LINE
  5
C9
330
C6
100
AcDbEntity
  8
410064038_SLEEVE
  6
Continuous
 62
     7
100
AcDbLine
 10
309.795272636
 20
416.3970398653
 30
0.0
 11
293.1382847627
 21
416.3970398653
 31
0.0
  0
LINE
  5
CA
330
C6
100
AcDbEntity
  8
410064038_SLEEVE
  6
Continuous
 62
     7
100
AcDbLine
 10
293.1382457998
 20
352.8970398653
 30
0.0
 11
309.795272636
 21
352.8970398653
 31
0.0
  0
ARC
  5
CC
330
C6
100
AcDbEntity
  8
410306038_DIVERT
  6
Continuous
 62
     7
100
AcDbCircle
 10
319.3235262557
 20
321.9391500421
 30
0.0
 40
31.47282213703745
100
AcDbArc
 50
79.989509121
 51
99.0104896454
  0
LINE
  5
CD
330
C6
100
AcDbEntity
  8
410306038_DIVERT
  6
Continuous
 62
     7
100
AcDbLine
 10
310.8952723024
 20
353.5497790909
 30
0.0
 11
310.8952723024
 21
415.7443006398
 31
0.0
  0
LINE
  5
CE
330
C6
100
AcDbEntity
  8
410306038_DIVERT
  6
Continuous
 62
     7
100
AcDbLine
 10
328.8952723024
 20
415.8926573922
 30
0.0
 11
328.8952723024
 21
353.4014223384
 31
0.0
  0
LINE
  5
CF
330
C6
100
AcDbEntity
  8
410306038_DIVERT
  6
Continuous
 62
     7
100
AcDbLine
 10
328.3909090347
 20
416.3926383538
 30
0.0
 11
311.3909090347
 21
416.2442816013
 31
0.0
  0
LINE
  5
D0
330
C6
100
AcDbEntity
  8
410306038_DIVERT
  6
Continuous
 62
     7
100
AcDbLine
 10
324.781064045
 20
352.9329440168
 30
0.0
 11
328.3909090347
 21
352.9014413769
 31
0.0
  0
LINE
  5
D1
330
C6
100
AcDbEntity
  8
410306038_DIVERT
  6
Continuous
 62
     7
100
AcDbLine
 10
311.3909090347
 20
353.0497981293
 30
0.0
 11
314.3961288823
 21
353.023571973
 31
0.0
  0
LINE
  5
D2
330
C6
100
AcDbEntity
  8
410306038_DIVERT
  6
Continuous
 62
     7
100
AcDbLine
 10
310.6970176095
 20
414.6453097228
 30
0.0
 11
310.395272636
 21
414.6426764343
 31
0.0
  0
LINE
  5
D3
330
C6
100
AcDbEntity
  8
410306038_DIVERT
  6
Continuous
 62
     7
100
AcDbLine
 10
310.395272636
 20
354.6514032963
 30
0.0
 11
310.6970176095
 21
354.6487700078
 31
0.0
  0
ARC
  5
D4
330
C6
100
AcDbEntity
  8
410306038_DIVERT
  6
Continuous
 62
     7
100
AcDbCircle
 10
310.6952723024
 20
414.8453021074
 30
0.0
 40
0.1999999999999988
100
AcDbArc
 50
270.5
 51
0.0
  0
ARC
  5
D5
330
C6
100
AcDbEntity
  8
410306038_DIVERT
  6
Continuous
 62
     7
100
AcDbCircle
 10
310.6952723024
 20
354.4487776232
 30
0.0
 40
0.2000000000000034
100
AcDbArc
 50
0.0
 51
89.5
  0
ARC
  5
D6
330
C6
100
AcDbEntity
  8
410306038_DIVERT
  6
Continuous
 62
     7
100
AcDbCircle
 10
311.3952723024
 20
415.7443006398
 30
0.0
 40
0.4999999999999981
100
AcDbArc
 50
90.5
 51
180.0
  0
ARC
  5
D7
330
C6
100
AcDbEntity
  8
410306038_DIVERT
  6
Continuous
 62
     7
100
AcDbCircle
 10
311.3952723024
 20
353.5497790909
 30
0.0
 40
0.5000000000000004
100
AcDbArc
 50
180.0
 51
269.5
  0
ARC
  5
D8
330
C6
100
AcDbEntity
  8
410306038_DIVERT
  6
Continuous
 62
     7
100
AcDbCircle
 10
328.3952723024
 20
415.8926573922
 30
0.0
 40
0.5000000000000004
100
AcDbArc
 50
0.0
 51
90.5
  0
ARC
  5
D9
330
C6
100
AcDbEntity
  8
410306038_DIVERT
  6
Continuous
 62
     7
100
AcDbCircle
 10
328.3952723024
 20
353.4014223384
 30
0.0
 40
0.5000000000000038
100
AcDbArc
 50
269.5
 51
0.0
  0
LINE
  5
DA
330
C6
100
AcDbEntity
  8
410308038_LEVER_
  6
Continuous
 62
     7
100
AcDbLine
 10
314.2550488225
 20
345.6470398653
 30
0.0
 11
324.9354977585
 21
345.6470398653
 31
0.0
  0
ARC
  5
DB
330
C6
100
AcDbEntity
  8
410308038_LEVER_
  6
Continuous
 62
     7
100
AcDbCircle
 10
319.5952732905
 20
296.1932271939
 30
0.0
 40
10.0000000000001
100
AcDbArc
 50
165.0939506482
 51
270.0
  0
ARC
  5
DC
330
C6
100
AcDbEntity
  8
410308038_LEVER_
  6
Continuous
 62
     7
100
AcDbCircle
 10
319.5952732905
 20
296.1932271939
 30
0.0
 40
9.999999999999995
100
AcDbArc
 50
270.0
 51
14.9060493518
  0
SPLINE
  5
DD
330
C6
100
AcDbEntity
  8
410308038_LEVER_
  6
Continuous
 62
     7
100
AcDbSpline
210
0.0
220
0.0
230
1.0
 70
     8
 71
     3
 72
    14
 73
    10
 74
     0
 42
0.0000000002138255
 43
0.0000000001
 40
0.0
 40
0.0
 40
0.0
 40
0.0
 40
0.1285432121484271
 40
0.2696528521246991
 40
0.4112639307877147
 40
0.5532613041675419
 40
0.7022568853970033
 40
0.8512635312318556
 40
1.0
 40
1.0
 40
1.0
 40
1.0
 10
313.7432489241529
 20
345.0883381799107
 30
0.0
 10
313.9668182892074
 20
342.8964602705267
 30
0.0
 10
314.3481844915725
 20
339.0143010691419
 30
0.0
 10
314.527424610901
 20
332.4720762975707
 30
0.0
 10
314.3560938084858
 20
325.8922884451082
 30
0.0
 10
313.8127531250412
 20
319.1508503146617
 30
0.0
 10
312.9041456933396
 20
312.3916641428489
 30
0.0
 10
311.5993185066843
 20
305.4102372626232
 30
0.0
 10
310.5582136176816
 20
301.2367800222103
 30
0.0
 10
309.9317840347987
 20
298.7655754216408
 30
0.0
  0
SPLINE
  5
DE
330
C6
100
AcDbEntity
  8
410308038_LEVER_
  6
Continuous
 62
     7
100
AcDbSpline
210
0.0
220
0.0
230
1.0
 70
     8
 71
     3
 72
    14
 73
    10
 74
     0
 42
0.0000000002138349
 43
0.0000000001
 40
0.0
 40
0.0
 40
0.0
 40
0.0
 40
0.1419756596608552
 40
0.2842098896540915
 40
0.4264555114470615
 40
0.5685027633638371
 40
0.7169175075616553
 40
0.8647919698952987
 40
1.0
 40
1.0
 40
1.0
 40
1.0
 10
329.2587625462037
 20
298.7655754216408
 30
0.0
 10
328.6595781053288
 20
301.1240190084254
 30
0.0
 10
327.6630036757929
 20
305.1067560871501
 30
0.0
 10
326.3941643176281
 20
311.7660510450035
 30
0.0
 10
325.4739579233027
 20
318.3125858465991
 30
0.0
 10
324.8796329766155
 20
325.0509639355261
 30
0.0
 10
324.658343336024
 20
331.8400645344842
 30
0.0
 10
324.8177799893307
 20
338.7048640060744
 30
0.0
 10
325.2144255599365
 20
342.7805163014182
 30
0.0
 10
325.4478886969316
 20
345.0861012486437
 30
0.0
  0
ARC
  5
DF
330
C6
100
AcDbEntity
  8
410308038_LEVER_
  6
Continuous
 62
     7
100
AcDbCircle
 10
314.2550488225
 20
345.1470398653
 30
0.0
 40
0.5000000000000004
100
AcDbArc
 50
90.0
 51
186.4363484234
  0
ARC
  5
E0
330
C6
100
AcDbEntity
  8
410308038_LEVER_
  6
Continuous
 62
     7
100
AcDbCircle
 10
324.9354977585
 20
345.1470398653
 30
0.0
 40
0.5
100
AcDbArc
 50
353.5636515766
 51
90.0
  0
LINE
  5
E1
330
C6
100
AcDbEntity
  8
410308038_LEVER_
  6
Continuous
 62
     7
100
AcDbLine
 10
324.5952732905
 20
345.8470398653
 30
0.0
 11
324.5952732905
 21
352.9667446503
 31
0.0
  0
LINE
  5
E2
330
C6
100
AcDbEntity
  8
410308038_LEVER_
  6
Continuous
 62
     7
100
AcDbLine
 10
314.5952732905
 20
353.0542784441
 30
0.0
 11
314.5952732905
 21
345.8470398653
 31
0.0
  0
ARC
  5
E3
330
C6
100
AcDbEntity
  8
410308038_LEVER_
  6
Continuous
 62
     7
100
AcDbCircle
 10
314.3952732905
 20
345.8470398653
 30
0.0
 40
0.1999999999999988
100
AcDbArc
 50
270.0
 51
0.0
  0
ARC
  5
E4
330
C6
100
AcDbEntity
  8
410308038_LEVER_
  6
Continuous
 62
     7
100
AcDbCircle
 10
324.7952732905
 20
345.8470398653
 30
0.0
 40
0.1999999999999988
100
AcDbArc
 50
180.0
 51
270.0
  0
LINE
  5
E5
330
C6
100
AcDbEntity
  8
410317038_HANDLE
  6
Continuous
 62
     7
100
AcDbLine
 10
369.195272636
 20
397.4382639022
 30
0.0
 11
369.195272636
 21
371.8558158285
 31
0.0
  0
LINE
  5
E6
330
C6
100
AcDbEntity
  8
410317038_HANDLE
  6
Continuous
 62
     7
100
AcDbLine
 10
329.3823622434
 20
353.1005613439
 30
0.0
 11
329.3823622434
 21
416.1935183867
 31
0.0
  0
ARC
  5
E7
330
C6
100
AcDbEntity
  8
410317038_HANDLE
  6
Continuous
 62
     7
100
AcDbCircle
 10
340.8139378029
 20
446.2919901469
 30
0.0
 40
31.18782258193577
100
AcDbArc
 50
253.7553958731
 51
284.2450911461
  0
LINE
  5
E8
330
C6
100
AcDbEntity
  8
410317038_HANDLE
  6
Continuous
 62
     7
100
AcDbLine
 10
328.8952723024
 20
355.4470398653
 30
0.0
 11
329.3823622434
 21
355.4470398653
 31
0.0
  0
LINE
  5
E9
330
C6
100
AcDbEntity
  8
410317038_HANDLE
  6
Continuous
 62
     7
100
AcDbLine
 10
329.3823622434
 20
413.8470398653
 30
0.0
 11
328.8952723024
 21
413.8470398653
 31
0.0
  0
LINE
  5
EA
330
C6
100
AcDbEntity
  8
410317038_HANDLE
  6
Continuous
 62
     7
100
AcDbLine
 10
329.5858527247
 20
352.9005918049
 30
0.0
 11
353.1752637095
 21
353.3123465052
 31
0.0
  0
LINE
  5
EB
330
C6
100
AcDbEntity
  8
410317038_HANDLE
  6
Continuous
 62
     7
100
AcDbLine
 10
332.0901080353
 20
416.3497759867
 30
0.0
 11
329.5858527247
 21
416.3934879258
 31
0.0
  0
LINE
  5
EC
330
C6
100
AcDbEntity
  8
410317038_HANDLE
  6
Continuous
 62
     7
100
AcDbLine
 10
353.1752637095
 20
415.9817332254
 30
0.0
 11
348.4849992262
 21
416.0636020965
 31
0.0
  0
ARC
  5
ED
330
C6
100
AcDbEntity
  8
410317038_HANDLE
  6
Continuous
 62
     7
100
AcDbCircle
 10
374.9372103303
 20
352.3292131076
 30
0.0
 40
19.99999999999981
100
AcDbArc
 50
107.7271688632
 51
172.2076593763
  0
ARC
  5
EE
330
C6
100
AcDbEntity
  8
410317038_HANDLE
  6
Continuous
 62
     7
100
AcDbCircle
 10
374.9372103303
 20
416.9648666231
 30
0.0
 40
20.0
100
AcDbArc
 50
187.7923406237
 51
252.2728311368
  0
ARC
  5
EF
330
C6
100
AcDbEntity
  8
410317038_HANDLE
  6
Continuous
 62
     7
100
AcDbCircle
 10
353.1403588966
 20
413.9820378351
 30
0.0
 40
2.000000000000183
100
AcDbArc
 50
7.7923406236
 51
89.0
  0
ARC
  5
F0
330
C6
100
AcDbEntity
  8
410317038_HANDLE
  6
Continuous
 62
     7
100
AcDbCircle
 10
353.1403588966
 20
355.3120418956
 30
0.0
 40
1.999999999999994
100
AcDbArc
 50
271.0
 51
352.2076593764
  0
ARC
  5
F1
330
C6
100
AcDbEntity
  8
410317038_HANDLE
  6
Continuous
 62
     7
100
AcDbCircle
 10
368.695272636
 20
397.4382639022
 30
0.0
 40
0.5000000000000004
100
AcDbArc
 50
0.0
 51
72.2728311368
  0
ARC
  5
F2
330
C6
100
AcDbEntity
  8
410317038_HANDLE
  6
Continuous
 62
     7
100
AcDbCircle
 10
368.695272636
 20
371.8558158285
 30
0.0
 40
0.4999999999999975
100
AcDbArc
 50
287.7271688632
 51
0.0
  0
ARC
  5
F3
330
C6
100
AcDbEntity
  8
410317038_HANDLE
  6
Continuous
 62
     7
100
AcDbCircle
 10
329.5823622434
 20
416.1935183867
 30
0.0
 40
0.1999999999999992
100
AcDbArc
 50
89.0
 51
180.0
  0
ARC
  5
F4
330
C6
100
AcDbEntity
  8
410317038_HANDLE
  6
Continuous
 62
     7
100
AcDbCircle
 10
329.5823622434
 20
353.1005613439
 30
0.0
 40
0.1999999999999988
100
AcDbArc
 50
180.0
 51
271.0
  0
LINE
  5
F6
330
C6
100
AcDbEntity
  8
410228031_BEARIN
  6
Continuous
 62
     7
100
AcDbLine
 10
310.395272636
 20
353.0970398653
 30
0.0
 11
310.395272636
 21
416.1970398653
 31
0.0
  0
LINE
  5
F7
330
C6
100
AcDbEntity
  8
410228031_BEARIN
  6
Continuous
 62
     7
100
AcDbLine
 10
309.795272636
 20
353.0970398653
 30
0.0
 11
310.395272636
 21
353.0970398653
 31
0.0
  0
LINE
  5
F8
330
C6
100
AcDbEntity
  8
410228031_BEARIN
  6
Continuous
 62
     7
100
AcDbLine
 10
310.395272636
 20
416.1970398653
 30
0.0
 11
309.795272636
 21
416.1970398653
 31
0.0
  0
ARC
  5
F9
330
C6
100
AcDbEntity
  8
410250038_BUTTON
  6
Continuous
 62
     7
100
AcDbCircle
 10
340.285272636
 20
380.7976779435
 30
0.0
 40
39.99999999999998
100
AcDbArc
 50
79.7745231662
 51
100.2254768338
  0
LINE
  5
FA
330
C6
100
AcDbEntity
  8
410250038_BUTTON
  6
Continuous
 62
     7
100
AcDbLine
 10
332.485272636
 20
419.3258494547
 30
0.0
 11
332.485272636
 21
416.2416037982
 31
0.0
  0
LINE
  5
FB
330
C6
100
AcDbEntity
  8
410250038_BUTTON
  6
Continuous
 62
     7
100
AcDbLine
 10
348.085272636
 20
415.9666711324
 30
0.0
 11
348.085272636
 21
419.3258494547
 31
0.0
  0
ARC
  5
FC
330
C6
100
AcDbEntity
  8
410250038_BUTTON
  6
Continuous
 62
     7
100
AcDbCircle
 10
347.235272636
 20
419.3258494547
 30
0.0
 40
0.8500000000000035
100
AcDbArc
 50
0.0
 51
79.7745231662
  0
ARC
  5
FD
330
C6
100
AcDbEntity
  8
410250038_BUTTON
  6
Continuous
 62
     7
100
AcDbCircle
 10
333.335272636
 20
419.3258494547
 30
0.0
 40
0.8499999999999973
100
AcDbArc
 50
100.2254768338
 51
180.0
  0
SPLINE
  5
FF
330
C6
100
AcDbEntity
  8
410310038_RING_K
  6
Continuous
 62
     7
100
AcDbSpline
210
0.0
220
0.0
230
1.0
 70
     8
 71
     3
 72
     8
 73
     4
 74
     0
 42
0.0000000014391634
 43
0.0000000001
 40
0.0
 40
0.0
 40
0.0
 40
0.0
 40
1.0
 40
1.0
 40
1.0
 40
1.0
 10
369.8661135777316
 20
371.688404107477
 30
0.0
 10
372.1789766020331
 20
372.4991330695212
 30
0.0
 10
374.4184851503336
 20
373.0611397094653
 30
0.0
 10
376.584639222633
 20
373.3744240273093
 30
0.0
  0
SPLINE
  5
100
330
C6
100
AcDbEntity
  8
410310038_RING_K
  6
Continuous
 62
     7
100
AcDbSpline
210
0.0
220
0.0
230
1.0
 70
     8
 71
     3
 72
     8
 73
     4
 74
     0
 42
0.0000000014405003
 43
0.0000000001
 40
0.0
 40
0.0
 40
0.0
 40
0.0
 40
1.0
 40
1.0
 40
1.0
 40
1.0
 10
376.5963686535586
 20
395.9192355872393
 30
0.0
 10
373.809927110723
 20
396.3911112926957
 30
0.0
 10
371.5714024727749
 20
396.9488360596245
 30
0.0
 10
369.880794739714
 20
397.5924098880256
 30
0.0
  0
ARC
  5
101
330
C6
100
AcDbEntity
  8
410310038_RING_K
  6
Continuous
 62
     7
100
AcDbCircle
 10
381.3732874534
 20
381.7073790019
 30
0.0
 40
9.499999999999986
100
AcDbArc
 50
241.8850039707
 51
254.2095579456
  0
ARC
  5
102
330
C6
100
AcDbEntity
  8
410310038_RING_K
  6
Continuous
 62
     7
100
AcDbCircle
 10
381.3732874534
 20
387.5867007288
 30
0.0
 40
9.49999999999999
100
AcDbArc
 50
105.7904420544
 51
118.1149960293
  0
ARC
  5
103
330
C6
100
AcDbEntity
  8
410310038_RING_K
  6
Continuous
 62
     7
100
AcDbCircle
 10
378.9242098984
 20
373.0470083903
 30
0.0
 40
0.4999999999999897
100
AcDbArc
 50
254.2095579456
 51
309.8055710923
  0
ARC
  5
104
330
C6
100
AcDbEntity
  8
410310038_RING_K
  6
Continuous
 62
     7
100
AcDbCircle
 10
378.9242098984
 20
396.2470713403
 30
0.0
 40
0.5000000000000157
100
AcDbArc
 50
50.1944289077
 51
105.7904420544
  0
LINE
  5
105
330
C6
100
AcDbEntity
  8
410310038_RING_K
  6
Continuous
 62
     7
100
AcDbLine
 10
379.2443020982
 20
372.6628977505
 30
0.0
 11
379.7653648358
 21
373.0971166985
 31
0.0
  0
LINE
  5
106
330
C6
100
AcDbEntity
  8
410310038_RING_K
  6
Continuous
 62
     7
100
AcDbLine
 10
379.7653648358
 20
396.1969630321
 30
0.0
 11
379.2443020982
 21
396.6311819801
 31
0.0
  0
ARC
  5
107
330
C6
100
AcDbEntity
  8
410310038_RING_K
  6
Continuous
 62
     7
100
AcDbCircle
 10
376.6608600112
 20
372.8873434236
 30
0.0
 40
0.499999999999997
100
AcDbArc
 50
61.8850039707
 51
98.9249464668
  0
ARC
  5
108
330
C6
100
AcDbEntity
  8
410310038_RING_K
  6
Continuous
 62
     7
100
AcDbCircle
 10
376.6608600112
 20
396.406736307
 30
0.0
 40
0.5000000000000151
100
AcDbArc
 50
261.0750535332
 51
298.1149960293
  0
ARC
  5
109
330
C6
100
AcDbEntity
  8
410310038_RING_K
  6
Continuous
 62
     7
100
AcDbCircle
 10
369.695272636
 20
372.1927994281
 30
0.0
 40
0.5000000000000004
100
AcDbArc
 50
180.0
 51
288.8443742512
  0
ARC
  5
10A
330
C6
100
AcDbEntity
  8
410310038_RING_K
  6
Continuous
 62
     7
100
AcDbCircle
 10
369.695272636
 20
397.1012803026
 30
0.0
 40
0.4999999999999963
100
AcDbArc
 50
71.1556257488
 51
180.0
  0
ARC
  5
10B
330
C6
100
AcDbEntity
  8
410310038_RING_K
  6
Continuous
 62
     7
100
AcDbCircle
 10
379.445272636
 20
395.8128523923
 30
0.0
 40
0.5000000000000004
100
AcDbArc
 50
0.0
 51
50.1944289077
  0
ARC
  5
10C
330
C6
100
AcDbEntity
  8
410310038_RING_K
  6
Continuous
 62
     7
100
AcDbCircle
 10
379.445272636
 20
373.4812273383
 30
0.0
 40
0.5000000000000222
100
AcDbArc
 50
309.8055710923
 51
0.0
  0
LINE
  5
10D
330
C6
100
AcDbEntity
  8
410005038_HANDLE
  6
Continuous
 62
     7
100
AcDbLine
 10
382.9213573095
 20
371.4970398653
 30
0.0
 11
386.8070600836
 21
371.4970398653
 31
0.0
  0
LINE
  5
10E
330
C6
100
AcDbEntity
  8
410005038_HANDLE
  6
Continuous
 62
     7
100
AcDbLine
 10
386.8070600836
 20
371.4970398653
 30
0.0
 11
393.9452721102
 21
371.5154679718
 31
0.0
  0
LINE
  5
10F
330
C6
100
AcDbEntity
  8
410005038_HANDLE
  6
Continuous
 62
     7
100
AcDbLine
 10
398.045272636
 20
394.9248764292
 30
0.0
 11
398.045272636
 21
374.3692033014
 31
0.0
  0
LINE
  5
110
330
C6
100
AcDbEntity
  8
410005038_HANDLE
  6
Continuous
 62
     7
100
AcDbLine
 10
379.945272636
 20
373.4397145789
 30
0.0
 11
379.945272636
 21
395.8543651518
 31
0.0
  0
ARC
  5
111
330
C6
100
AcDbEntity
  8
410005038_HANDLE
  6
Continuous
 62
     7
100
AcDbCircle
 10
388.411348202
 20
384.6470398653
 30
0.0
 40
14.24999999999999
100
AcDbArc
 50
48.372472413
 51
125.4049048769
  0
ARC
  5
112
330
C6
100
AcDbEntity
  8
410005038_HANDLE
  6
Continuous
 62
     7
100
AcDbCircle
 10
388.411348202
 20
384.6470398653
 30
0.0
 40
14.25
100
AcDbArc
 50
292.8053028575
 51
311.627527587
  0
ARC
  5
113
330
C6
100
AcDbEntity
  8
410005038_HANDLE
  6
Continuous
 62
     7
100
AcDbCircle
 10
388.411348202
 20
384.6470398653
 30
0.0
 40
14.25
100
AcDbArc
 50
234.5950951231
 51
247.3399612862
  0
ARC
  5
114
330
C6
100
AcDbEntity
  8
410005038_HANDLE
  6
Continuous
 62
     7
100
AcDbCircle
 10
397.545272636
 20
394.9248764292
 30
0.0
 40
0.5000000000000004
100
AcDbArc
 50
0.0
 51
48.372472413
  0
ARC
  5
115
330
C6
100
AcDbEntity
  8
410005038_HANDLE
  6
Continuous
 62
     7
100
AcDbCircle
 10
397.545272636
 20
374.3692033014
 30
0.0
 40
0.5000000000000083
100
AcDbArc
 50
311.627527587
 51
0.0
  0
ARC
  5
116
330
C6
100
AcDbEntity
  8
410005038_HANDLE
  6
Continuous
 62
     7
100
AcDbCircle
 10
380.445272636
 20
373.4397145789
 30
0.0
 40
0.5000000000000004
100
AcDbArc
 50
180.0
 51
234.5950951231
  0
ARC
  5
117
330
C6
100
AcDbEntity
  8
410005038_HANDLE
  6
Continuous
 62
     7
100
AcDbCircle
 10
380.445272636
 20
395.8543651518
 30
0.0
 40
0.4999999999999993
100
AcDbArc
 50
125.4049048769
 51
180.0
  0
LINE
  5
118
330
C6
100
AcDbEntity
  8
410307038_LEVER_
  6
Continuous
 62
     7
100
AcDbLine
 10
382.548827897
 20
363.2970398653
 30
0.0
 11
394.3417173751
 21
363.2970398653
 31
0.0
  0
ARC
  5
119
330
C6
100
AcDbEntity
  8
410307038_LEVER_
  6
Continuous
 62
     7
100
AcDbCircle
 10
282.6633082434
 20
351.7005105191
 30
0.0
 40
100.0
100
AcDbArc
 50
346.0429344828
 51
6.3391368539
  0
ARC
  5
11A
330
C6
100
AcDbEntity
  8
410307038_LEVER_
  6
Continuous
 62
     7
100
AcDbCircle
 10
494.2272370287
 20
351.7005105191
 30
0.0
 40
100.0
100
AcDbArc
 50
173.6608631461
 51
193.9570655172
  0
ARC
  5
11B
330
C6
100
AcDbEntity
  8
410307038_LEVER_
  6
Continuous
 62
     7
100
AcDbCircle
 10
388.445272636
 20
325.4102840227
 30
0.0
 40
8.999999999999998
100
AcDbArc
 50
166.0429344828
 51
180.0
  0
ARC
  5
11C
330
C6
100
AcDbEntity
  8
410307038_LEVER_
  6
Continuous
 62
     7
100
AcDbCircle
 10
388.445272636
 20
325.4102840227
 30
0.0
 40
9.000000000000007
100
AcDbArc
 50
180.0
 51
13.9570655172
  0
ARC
  5
11D
330
C6
100
AcDbEntity
  8
410307038_LEVER_
  6
Continuous
 62
     7
100
AcDbCircle
 10
394.3417173751
 20
362.7970398653
 30
0.0
 40
0.500000000000007
100
AcDbArc
 50
353.6608631461
 51
90.0
  0
ARC
  5
11E
330
C6
100
AcDbEntity
  8
410307038_LEVER_
  6
Continuous
 62
     7
100
AcDbCircle
 10
382.548827897
 20
362.7970398653
 30
0.0
 40
0.4999999999999935
100
AcDbArc
 50
90.0
 51
186.3391368539
  0
LINE
  5
11F
330
C6
100
AcDbEntity
  8
410307038_LEVER_
  6
Continuous
 62
     7
100
AcDbLine
 10
393.795272636
 20
363.2970398653
 30
0.0
 11
393.795272636
 21
371.5150804676
 31
0.0
  0
LINE
  5
120
330
C6
100
AcDbEntity
  8
410307038_LEVER_
  6
Continuous
 62
     7
100
AcDbLine
 10
383.095272636
 20
371.4970398653
 30
0.0
 11
383.095272636
 21
363.2970398653
 31
0.0
  0
LINE
  5
121
330
C6
100
AcDbEntity
  8
410006038_DECORA
  6
Continuous
 62
     7
100
AcDbLine
 10
402.945272636
 20
375.2901498978
 30
0.0
 11
402.945272636
 21
394.0039298328
 31
0.0
  0
ARC
  5
122
330
C6
100
AcDbEntity
  8
410006038_DECORA
  6
Continuous
 62
     7
100
AcDbCircle
 10
398.545272636
 20
374.6025032645
 30
0.0
 40
0.5000000000000004
100
AcDbArc
 50
180.0
 51
263.2851563915
  0
ARC
  5
123
330
C6
100
AcDbEntity
  8
410006038_DECORA
  6
Continuous
 62
     7
100
AcDbCircle
 10
398.545272636
 20
394.6915764662
 30
0.0
 40
0.5000000000000002
100
AcDbArc
 50
96.7148436085
 51
180.0
  0
ARC
  5
124
330
C6
100
AcDbEntity
  8
410006038_DECORA
  6
Continuous
 62
     7
100
AcDbCircle
 10
397.4227634731
 20
365.0683551862
 30
0.0
 40
9.100000333333368
100
AcDbArc
 50
63.7226300101
 51
83.2851563915
  0
ARC
  5
125
330
C6
100
AcDbEntity
  8
410006038_DECORA
  6
Continuous
 62
     7
100
AcDbCircle
 10
397.4227634731
 20
404.2257245445
 30
0.0
 40
9.100000333333362
100
AcDbArc
 50
276.7148436085
 51
296.2773699899
  0
ARC
  5
126
330
C6
100
AcDbEntity
  8
410006038_DECORA
  6
Continuous
 62
     7
100
AcDbCircle
 10
401.7613909327
 20
373.8556368079
 30
0.0
 40
0.7000000000000013
100
AcDbArc
 50
243.7226300103
 51
341.1008225568
  0
ARC
  5
127
330
C6
100
AcDbEntity
  8
410006038_DECORA
  6
Continuous
 62
     7
100
AcDbCircle
 10
401.7613909327
 20
395.4384429227
 30
0.0
 40
0.7000000000000045
100
AcDbArc
 50
18.8991774432
 51
116.2773699897
  0
ARC
  5
128
330
C6
100
AcDbEntity
  8
410006038_DECORA
  6
Continuous
 62
     7
100
AcDbCircle
 10
370.2565936332
 20
384.641634542
 30
0.0
 40
34.00000000000158
100
AcDbArc
 50
341.1008225568
 51
344.0353836123
  0
ARC
  5
129
330
C6
100
AcDbEntity
  8
410006038_DECORA
  6
Continuous
 62
     7
100
AcDbCircle
 10
370.2565936332
 20
384.6524451887
 30
0.0
 40
34.00000000000158
100
AcDbArc
 50
15.9646163877
 51
18.8991774432
  0
LINE
  5
12B
330
C6
100
AcDbEntity
  8
12080006_MP_HE_P
  6
Continuous
 62
     7
100
AcDbLine
 10
402.945272636
 20
375.6970398653
 30
0.0
 11
403.0863782013
 21
375.6970398653
 31
0.0
  0
LINE
  5
12C
330
C6
100
AcDbEntity
  8
12080006_MP_HE_P
  6
Continuous
 62
     7
100
AcDbLine
 10
403.0863782013
 20
393.5970398653
 30
0.0
 11
402.945272636
 21
393.5970398653
 31
0.0
  0
ARC
  5
12D
330
C6
100
AcDbEntity
  8
12080006_MP_HE_P
  6
Continuous
 62
     7
100
AcDbCircle
 10
385.945272636
 20
384.6470398653
 30
0.0
 40
19.5
100
AcDbArc
 50
333.2228950132
 51
0.0
  0
ARC
  5
12E
330
C6
100
AcDbEntity
  8
12080006_MP_HE_P
  6
Continuous
 62
     7
100
AcDbCircle
 10
385.945272636
 20
384.6470398653
 30
0.0
 40
19.5
100
AcDbArc
 50
0.0
 51
26.7771049868
  0
ARC
  5
12F
330
C6
100
AcDbEntity
  8
12080006_MP_HE_P
  6
Continuous
 62
     7
100
AcDbCircle
 10
403.0863782013
 20
375.9970398653
 30
0.0
 40
0.2999999999999999
100
AcDbArc
 50
270.0
 51
333.2228950132
  0
ARC
  5
130
330
C6
100
AcDbEntity
  8
12080006_MP_HE_P
  6
Continuous
 62
     7
100
AcDbCircle
 10
403.0863782013
 20
393.2970398653
 30
0.0
 40
0.2999999999999987
100
AcDbArc
 50
26.7771049868
 51
90.0
  0
LINE
  5
131
330
C6
100
AcDbEntity
  8
410372040_ESCUTC
  6
Continuous
 62
     7
100
AcDbLine
 10
280.7952720541
 20
384.647039866
 30
0.0
 11
280.7952720541
 21
312.447039858
 31
0.0
  0
LINE
  5
132
330
C6
100
AcDbEntity
  8
410372040_ESCUTC
  6
Continuous
 62
     7
100
AcDbLine
 10
280.7952720541
 20
456.8470398726
 30
0.0
 11
280.7952720541
 21
384.647039866
 31
0.0
  0
SPLINE
  5
133
330
C6
100
AcDbEntity
  8
410372040_ESCUTC
  6
Continuous
 62
     7
100
AcDbSpline
210
0.0
220
0.0
230
1.0
 70
     8
 71
     3
 72
    36
 73
    32
 74
     0
 42
0.0000000001444694
 43
0.0000000001
 40
0.0
 40
0.0
 40
0.0
 40
0.0
 40
0.2500000000000004
 40
0.2500000000000004
 40
0.3125000000000005
 40
0.3125000000000005
 40
0.3437500000000006
 40
0.3437500000000006
 40
0.3593750000000005
 40
0.3593750000000005
 40
0.3750000000000006
 40
0.3750000000000006
 40
0.5000000000000007
 40
0.5000000000000007
 40
0.562500000000001
 40
0.562500000000001
 40
0.578125000000001
 40
0.578125000000001
 40
0.5937500000000011
 40
0.5937500000000011
 40
0.6250000000000012
 40
0.6250000000000012
 40
0.6406250000000011
 40
0.6406250000000011
 40
0.656250000000001
 40
0.656250000000001
 40
0.6875000000000009
 40
0.6875000000000009
 40
0.7500000000000007
 40
0.7500000000000007
 40
1.0
 40
1.0
 40
1.0
 40
1.0
 10
287.6865133776773
 20
315.6035558096932
 30
0.0
 10
287.6865676435706
 20
315.6042201160395
 30
0.0
 10
287.5674694138359
 20
316.5878637614867
 30
0.0
 10
287.2715556871761
 20
319.0209898677139
 30
0.0
 10
287.2049894817122
 20
319.568566382463
 30
0.0
 10
287.0939310660701
 20
320.4823121548862
 30
0.0
 10
287.0548289867597
 20
320.7995619567329
 30
0.0
 10
286.993850554043
 20
321.3051356195035
 30
0.0
 10
286.9729099030904
 20
321.4785794367307
 30
0.0
 10
286.9532255534424
 20
322.0830177090394
 30
0.0
 10
286.9457895683651
 20
322.4199539739162
 30
0.0
 10
286.8493850192299
 20
325.2077672657246
 30
0.0
 10
286.6763617936323
 20
327.2845782112015
 30
0.0
 10
286.2867097072233
 20
329.7467122053187
 30
0.0
 10
286.1356890400861
 20
330.4580286232349
 30
0.0
 10
285.9205977937212
 20
331.2103592703171
 30
0.0
 10
285.8762628309665
 20
331.3539552137892
 30
0.0
 10
285.7849323484133
 20
331.6273606101984
 30
0.0
 10
285.7361474763288
 20
331.7354055561597
 30
0.0
 10
285.6206811486663
 20
332.4631235850961
 30
0.0
 10
285.5767421990328
 20
333.3857563605704
 30
0.0
 10
285.5754125797706
 20
335.1388494477284
 30
0.0
 10
285.5885850937082
 20
335.8019080562431
 30
0.0
 10
285.6167977070527
 20
337.1387913607827
 30
0.0
 10
285.6306223855769
 20
337.8093150274887
 30
0.0
 10
285.6712469504082
 20
339.8271259192359
 30
0.0
 10
285.6971975486802
 20
341.1806512971975
 30
0.0
 10
285.7716087627423
 20
345.2661952483444
 30
0.0
 10
285.8165291953938
 20
348.0188426290938
 30
0.0
 10
286.0161324058869
 20
361.8307829636544
 30
0.0
 10
286.0983058816043
 20
373.1176962787524
 30
0.0
 10
286.0983058213063
 20
384.647039855595
 30
0.0
  0
SPLINE
  5
134
330
C6
100
AcDbEntity
  8
410372040_ESCUTC
  6
Continuous
 62
     7
100
AcDbSpline
210
0.0
220
0.0
230
1.0
 70
     8
 71
     3
 72
     8
 73
     4
 74
     0
 42
0.0000000000740208
 43
0.0000000001
 40
0.0
 40
0.0
 40
0.0
 40
0.0
 40
0.0572278187629803
 40
0.0572278187629803
 40
0.0572278187629803
 40
0.0572278187629803
 10
286.0983058213063
 20
384.647039855595
 30
0.0
 10
286.0983058077657
 20
387.2365844659188
 30
0.0
 10
286.0941586780008
 20
389.8136618903811
 30
0.0
 10
286.0859205525636
 20
392.3783426210221
 30
0.0
  0
SPLINE
  5
135
330
C6
100
AcDbEntity
  8
410372040_ESCUTC
  6
Continuous
 62
     7
100
AcDbSpline
210
0.0
220
0.0
230
1.0
 70
     8
 71
     3
 72
    38
 73
    34
 74
     0
 42
0.0000000001533308
 43
0.0000000001
 40
0.0572278187629803
 40
0.0572278187629803
 40
0.0572278187629803
 40
0.0572278187629803
 40
0.2499999999999999
 40
0.2499999999999999
 40
0.3124999999999999
 40
0.3124999999999999
 40
0.3437499999999998
 40
0.3437499999999998
 40
0.3593749999999998
 40
0.3593749999999998
 40
0.3749999999999998
 40
0.3749999999999998
 40
0.4062499999999999
 40
0.4062499999999999
 40
0.4218749999999999
 40
0.4218749999999999
 40
0.4374999999999998
 40
0.4374999999999998
 40
0.4999999999999998
 40
0.4999999999999998
 40
0.6249999999999999
 40
0.6249999999999999
 40
0.640625
 40
0.640625
 40
0.6484374999999999
 40
0.6484374999999999
 40
0.6562499999999998
 40
0.6562499999999998
 40
0.6874999999999998
 40
0.6874999999999998
 40
0.7499999999999999
 40
0.7499999999999999
 40
1.0
 40
1.0
 40
1.0
 40
1.0
 10
286.0859205525636
 20
392.3783426210221
 30
0.0
 10
286.0581703876235
 20
401.0174819296487
 30
0.0
 10
285.9840004128636
 20
409.5159581294186
 30
0.0
 10
285.8271538669709
 20
420.5870833983951
 30
0.0
 10
285.7840230799218
 20
423.2843215032182
 30
0.0
 10
285.7122992684438
 20
427.3032931458148
 30
0.0
 10
285.6872812286069
 20
428.6350714999904
 30
0.0
 10
285.6481092583141
 20
430.6209273803245
 30
0.0
 10
285.6347751489624
 20
431.2810342149825
 30
0.0
 10
285.6075757631011
 20
432.5966178736475
 30
0.0
 10
285.5904950267712
 20
433.2650781388867
 30
0.0
 10
285.5640482124081
 20
435.1598919005895
 30
0.0
 10
285.5878257166576
 20
436.2297024868096
 30
0.0
 10
285.6783947480171
 20
437.2351031787937
 30
0.0
 10
285.7179839471244
 20
437.4787127684685
 30
0.0
 10
285.8118037924808
 20
437.749101022793
 30
0.0
 10
285.8580281792581
 20
437.8831494606575
 30
0.0
 10
286.0809279007437
 20
438.60882955413
 30
0.0
 10
286.238233864946
 20
439.3026113349767
 30
0.0
 10
286.6447837662813
 20
441.7124578319154
 30
0.0
 10
286.829038465186
 20
443.7527752893064
 30
0.0
 10
286.9350858325504
 20
446.5500838283479
 30
0.0
 10
286.9457887974946
 20
446.864085763391
 30
0.0
 10
286.9585767682885
 20
447.358483931971
 30
0.0
 10
286.9624798525148
 20
447.5250460281688
 30
0.0
 10
286.9752427347223
 20
447.7972397328946
 30
0.0
 10
286.9843225647567
 20
447.9004011406145
 30
0.0
 10
287.0347407593135
 20
448.3480259523222
 30
0.0
 10
287.0757810806704
 20
448.662395717039
 30
0.0
 10
287.1898392209658
 20
449.6009332557068
 30
0.0
 10
287.2586631962723
 20
450.167050704351
 30
0.0
 10
287.5644351080238
 20
452.681396811438
 30
0.0
 10
287.6865656709954
 20
453.6898303576915
 30
0.0
 10
287.6865133773765
 20
453.6905239210148
 30
0.0
  0
ARC
  5
136
330
C6
100
AcDbEntity
  8
410372040_ESCUTC
  6
Continuous
 62
     7
100
AcDbCircle
 10
289.6803796876
 20
453.8470398945
 30
0.0
 40
2.000000028218739
100
AcDbArc
 50
184.4884417025
 51
267.9419252525
  0
LINE
  5
137
330
C6
100
AcDbEntity
  8
410372040_ESCUTC
  6
Continuous
 62
     7
100
AcDbLine
 10
285.1268730231
 20
456.8470398726
 30
0.0
 11
280.7952720541
 21
456.8470398726
 31
0.0
  0
SPLINE
  5
138
330
C6
100
AcDbEntity
  8
410372040_ESCUTC
  6
Continuous
 62
     7
100
AcDbSpline
210
0.0
220
0.0
230
1.0
 70
     8
 71
     3
 72
     8
 73
     4
 74
     0
 42
0.0000000151113004
 43
0.0000000001
 40
0.0
 40
0.0
 40
0.0
 40
0.0
 40
0.001511130038708
 40
0.001511130038708
 40
0.001511130038708
 40
0.001511130038708
 10
287.6190158147236
 20
454.5450911488164
 30
0.0
 10
287.6190161388296
 20
454.5450869309772
 30
0.0
 10
287.6190119050452
 20
454.5450449229577
 30
0.0
 10
287.6190031133175
 20
454.5449651336041
 30
0.0
  0
LINE
  5
139
330
C6
100
AcDbEntity
  8
410372040_ESCUTC
  6
Continuous
 62
     7
100
AcDbLine
 10
285.1268730234
 20
312.447039858
 30
0.0
 11
280.7952720541
 21
312.447039858
 31
0.0
  0
ARC
  5
13A
330
C6
100
AcDbEntity
  8
410372040_ESCUTC
  6
Continuous
 62
     7
100
AcDbCircle
 10
285.1268730241
 20
314.9470398536
 30
0.0
 40
2.499999999289747
100
AcDbArc
 50
269.9999999839
 51
355.4562380266
  0
ARC
  5
13B
330
C6
100
AcDbEntity
  8
410372040_ESCUTC
  6
Continuous
 62
     7
100
AcDbCircle
 10
285.1268730065
 20
454.347039861
 30
0.0
 40
2.500000011593895
100
AcDbArc
 50
4.5437623049
 51
89.9999996199
  0
ARC
  5
13C
330
C6
100
AcDbEntity
  8
410372040_ESCUTC
  6
Continuous
 62
     7
100
AcDbCircle
 10
289.6803796668
 20
315.4470398579
 30
0.0
 40
2.000000005518554
100
AcDbArc
 50
92.0580764864
 51
175.5115588717
  0
SPLINE
  5
13D
330
C6
100
AcDbEntity
  8
410372040_ESCUTC
  6
Continuous
 62
     7
100
AcDbSpline
210
0.0
220
0.0
230
1.0
 70
     8
 71
     3
 72
     8
 73
     4
 74
     0
 42
0.0000000124339008
 43
0.0000000001
 40
0.0
 40
0.0
 40
0.0
 40
0.0
 40
0.0012433900789282
 40
0.0012433900789282
 40
0.0012433900789282
 40
0.0012433900789282
 10
292.0120488649646
 20
319.7608944465728
 30
0.0
 10
292.012049109679
 20
319.7608977330356
 30
0.0
 10
292.0120465487065
 20
319.7609241173913
 30
0.0
 10
292.0120411821274
 20
319.7609735979885
 30
0.0
  0
ARC
  5
13E
330
C6
100
AcDbEntity
  8
410372040_ESCUTC
  6
Continuous
 62
     7
100
AcDbCircle
 10
289.5187734793
 20
319.9441370903
 30
0.0
 40
2.500000003052798
100
AcDbArc
 50
272.0580763845
 51
355.7966184663
  0
ARC
  5
13F
330
C6
100
AcDbEntity
  8
410372040_ESCUTC
  6
Continuous
 62
     7
100
AcDbCircle
 10
289.5187736928
 20
449.3499426686
 30
0.0
 40
2.49999996700158
100
AcDbArc
 50
4.2033814174
 51
87.9419266326
  0
ARC
  5
140
330
C6
100
AcDbEntity
  8
410372040_ESCUTC
  6
Continuous
 62
     7
100
AcDbCircle
 10
-9962.8095289224
 20
384.647065593
 30
0.0
 40
10255.99742801315
100
AcDbArc
 50
359.7300473289
 51
0.2699503359
  0
SPLINE
  5
141
330
C6
100
AcDbEntity
  8
410372040_ESCUTC
  6
Continuous
 62
     7
100
AcDbSpline
210
0.0
220
0.0
230
1.0
 70
     8
 71
     3
 72
    40
 73
    36
 74
     0
 42
0.0000000019958431
 43
0.0000000001
 40
0.0
 40
0.0
 40
0.0
 40
0.0
 40
0.015666011385299
 40
0.0312239401040503
 40
0.046824886324775
 40
0.0625362805006148
 40
0.0781220395594066
 40
0.0936865339523587
 40
0.1093754070629218
 40
0.1250165903049034
 40
0.1405720572609299
 40
0.1561916537387822
 40
0.1718954281917581
 40
0.1874691754278172
 40
0.2030420468563698
 40
0.2187447390811595
 40
0.2343657010211938
 40
0.2499200927888596
 40
0.2655568736495281
 40
0.281248562841398
 40
0.2968136673184681
 40
0.3123945908617893
 40
0.328103946957897
 40
0.3437099958068318
 40
0.3592652145177855
 40
0.3749193611967063
 40
0.3905960581861979
 40
0.4061555144755045
 40
0.4217472831893825
 40
0.4374594354567032
 40
0.4530523750020053
 40
0.4686120505772148
 40
0.4842886651763836
 40
0.4999434910261724
 40
0.5000042657734185
 40
0.5000042657734185
 40
0.5000042657734185
 40
0.5000042657734185
 10
292.4663662605021
 20
326.2688977660989
 30
0.0
 10
292.4663662605383
 20
326.2688977652633
 30
0.0
 10
292.4666279110305
 20
326.272932721651
 30
0.0
 10
292.467798445965
 20
326.2909841201719
 30
0.0
 10
292.4697359154421
 20
326.3208640162799
 30
0.0
 10
292.4724254919583
 20
326.3623455280046
 30
0.0
 10
292.4758362815812
 20
326.4149545927365
 30
0.0
 10
292.4799316978559
 20
326.4781297767293
 30
0.0
 10
292.4846813492736
 20
326.551405609064
 30
0.0
 10
292.4900341479861
 20
326.6339975907915
 30
0.0
 10
292.49592754085
 20
326.7249442383855
 30
0.0
 10
292.5023207621562
 20
326.8236201753787
 30
0.0
 10
292.5091488903538
 20
326.9290270865634
 30
0.0
 10
292.5163351037929
 20
327.0399823696277
 30
0.0
 10
292.5238157587136
 20
327.1555061527201
 30
0.0
 10
292.5315283392417
 20
327.2746355025313
 30
0.0
 10
292.5393878234386
 20
327.3960590046526
 30
0.0
 10
292.5473102813488
 20
327.5184809315887
 30
0.0
 10
292.5552434913554
 20
327.6410947185274
 30
0.0
 10
292.5631011158439
 20
327.7625657519413
 30
0.0
 10
292.5707967045749
 20
327.8815564243788
 30
0.0
 10
292.5782699593955
 20
327.9971325282263
 30
0.0
 10
292.585451815181
 20
328.1082237115374
 30
0.0
 10
292.5922622287209
 20
328.2135889323843
 30
0.0
 10
292.5986343619358
 20
328.3121906740584
 30
0.0
 10
292.6045235697819
 20
328.4033345381129
 30
0.0
 10
292.6098617413935
 20
328.4859627103043
 30
0.0
 10
292.6145919591967
 20
328.5591903329876
 30
0.0
 10
292.6186806907498
 20
328.6224946465103
 30
0.0
 10
292.6220840076573
 20
328.6751922155515
 30
0.0
 10
292.6247637530676
 20
328.7166892403835
 30
0.0
 10
292.6266984289967
 20
328.746650378805
 30
0.0
 10
292.6278708702538
 20
328.7648080130955
 30
0.0
 10
292.6281345030369
 20
328.7688909895311
 30
0.0
 10
292.6281349407435
 20
328.7688977699223
 30
0.0
 10
292.6281349404691
 20
328.7688977656769
 30
0.0
  0
LINE
  5
142
330
C6
100
AcDbEntity
  8
410372040_ESCUTC
  6
Continuous
 62
     7
100
AcDbLine
 10
287.6687723018
 20
453.6893033609
 30
0.0
 11
287.6098222474
 21
454.544459618
 31
0.0
  0
LINE
  5
143
330
C6
100
AcDbEntity
  8
410372040_ESCUTC
  6
Continuous
 62
     7
100
AcDbLine
 10
287.6098227356
 20
314.7496271902
 30
0.0
 11
287.6687728119
 21
315.6047837647
 31
0.0
  0
LINE
  5
144
330
C6
100
AcDbEntity
  8
410372040_ESCUTC
  6
Continuous
 62
     7
100
AcDbLine
 10
287.6178386311
 20
454.5411272048
 30
0.0
 11
287.612811649
 21
454.589095511
 31
0.0
  0
LINE
  5
145
330
C6
100
AcDbEntity
  8
410372040_ESCUTC
  6
Continuous
 62
     7
100
AcDbLine
 10
292.0073868028
 20
319.7214578485
 30
0.0
 11
292.0114436493
 21
319.764696411
 31
0.0
  0
LINE
  5
146
330
C6
100
AcDbEntity
  8
410372040_ESCUTC
  6
Continuous
 62
     7
100
AcDbLine
 10
292.3121456514
 20
444.5412136175
 30
0.0
 11
292.0027757099
 21
449.5326149907
 31
0.0
  0
LINE
  5
147
330
C6
100
AcDbEntity
  8
410372040_ESCUTC
  6
Continuous
 62
     7
100
AcDbLine
 10
293.0299309285
 20
432.9604039196
 30
0.0
 11
292.6816683678
 21
438.5793021739
 31
0.0
  0
LINE
  5
148
330
C6
100
AcDbEntity
  8
410372040_ESCUTC
  6
Continuous
 62
     7
100
AcDbLine
 10
292.5613121689
 20
328.7729441326
 30
0.0
 11
293.0314621261
 21
336.3583850406
 31
0.0
  0
LINE
  5
149
330
C6
100
AcDbEntity
  8
410372040_ESCUTC
  6
Continuous
 62
     7
100
AcDbLine
 10
292.0027759965
 20
319.7614722273
 30
0.0
 11
292.4063401339
 21
326.2726116413
 31
0.0
  0
LINE
  5
14B
330
C6
100
AcDbEntity
  8
DV2_Standard
  6
Continuous
 62
     7
100
AcDbLine
 10
292.3121456514
 20
444.5412136175
 30
0.0
 11
292.6816683678
 21
438.5793021739
 31
0.0
  0
LINE
  5
14C
330
C6
100
AcDbEntity
  8
DV2_Standard
  6
CENTER2
 62
     7
100
AcDbLine
 10
300.7952716071
 20
384.647039866
 30
0.0
 11
260.7952725011
 21
384.647039866
 31
0.0
  0
LINE
  5
14D
330
C6
100
AcDbEntity
  8
DV2_Standard
  6
CENTER2
 62
     7
100
AcDbLine
 10
280.7952720541
 20
404.647039419
 30
0.0
 11
280.7952720541
 21
364.647040313
 31
0.0
  0
ENDBLK
  5
14F
330
C6
100
AcDbEntity
  8
0
100
AcDbBlockEnd
  0
BLOCK
  5
1DB
330
150
100
AcDbEntity
  8
0
100
AcDbBlockBegin
  2
SE2
 70
     0
 10
0.0
 20
0.0
 30
0.0
  3
SE2
  1

  0
LINE
  5
152
330
150
100
AcDbEntity
  8
410064038_SLEEVE
  6
Continuous
 62
     7
100
AcDbLine
 10
133.4730151948
 20
202.0
 30
0.0
 11
133.4730151948
 21
218.6730886664
 31
0.0
  0
LINE
  5
153
330
150
100
AcDbEntity
  8
410064038_SLEEVE
  6
Continuous
 62
     7
100
AcDbLine
 10
69.9730151948
 20
218.6730722788
 30
0.0
 11
69.9730151948
 21
202.0
 31
0.0
  0
LINE
  5
154
330
150
100
AcDbEntity
  8
410306038_DIVERT
  6
Continuous
 62
     7
100
AcDbLine
 10
132.8202759692
 20
200.9000003336
 30
0.0
 11
70.6257544203
 21
200.9000003336
 31
0.0
  0
LINE
  5
155
330
150
100
AcDbEntity
  8
410306038_DIVERT
  6
Continuous
 62
     7
100
AcDbLine
 10
70.4773976679
 20
182.9000003336
 30
0.0
 11
132.9686327217
 21
182.9000003336
 31
0.0
  0
LINE
  5
156
330
150
100
AcDbEntity
  8
410306038_DIVERT
  6
Continuous
 62
     7
100
AcDbLine
 10
133.4686136832
 20
183.4043636013
 30
0.0
 11
133.3202569308
 21
200.4043636013
 31
0.0
  0
LINE
  5
157
330
150
100
AcDbEntity
  8
410306038_DIVERT
  6
Continuous
 62
     7
100
AcDbLine
 10
70.1257734588
 20
200.4043636013
 30
0.0
 11
69.9774167063
 21
183.4043636013
 31
0.0
  0
LINE
  5
158
330
150
100
AcDbEntity
  8
410306038_DIVERT
  6
Continuous
 62
     7
100
AcDbLine
 10
131.7212850523
 20
201.0982550265
 30
0.0
 11
131.7186517638
 21
201.4
 31
0.0
  0
LINE
  5
159
330
150
100
AcDbEntity
  8
410306038_DIVERT
  6
Continuous
 62
     7
100
AcDbLine
 10
71.7273786258
 20
201.4
 30
0.0
 11
71.7247453373
 21
201.0982550265
 31
0.0
  0
ARC
  5
15A
330
150
100
AcDbEntity
  8
410306038_DIVERT
  6
Continuous
 62
     7
100
AcDbCircle
 10
131.9212774369
 20
201.1000003336
 30
0.0
 40
0.1999999999999988
100
AcDbArc
 50
180.5
 51
270.0
  0
ARC
  5
15B
330
150
100
AcDbEntity
  8
410306038_DIVERT
  6
Continuous
 62
     7
100
AcDbCircle
 10
71.5247529527
 20
201.1000003336
 30
0.0
 40
0.2000000000000034
100
AcDbArc
 50
270.0
 51
359.5
  0
ARC
  5
15C
330
150
100
AcDbEntity
  8
410306038_DIVERT
  6
Continuous
 62
     7
100
AcDbCircle
 10
132.8202759692
 20
200.4000003336
 30
0.0
 40
0.4999999999999981
100
AcDbArc
 50
0.5
 51
90.0
  0
ARC
  5
15D
330
150
100
AcDbEntity
  8
410306038_DIVERT
  6
Continuous
 62
     7
100
AcDbCircle
 10
70.6257544203
 20
200.4000003336
 30
0.0
 40
0.5000000000000004
100
AcDbArc
 50
90.0
 51
179.5
  0
ARC
  5
15E
330
150
100
AcDbEntity
  8
410306038_DIVERT
  6
Continuous
 62
     7
100
AcDbCircle
 10
132.9686327217
 20
183.4000003336
 30
0.0
 40
0.5000000000000004
100
AcDbArc
 50
270.0
 51
0.5
  0
ARC
  5
15F
330
150
100
AcDbEntity
  8
410306038_DIVERT
  6
Continuous
 62
     7
100
AcDbCircle
 10
70.4773976679
 20
183.4000003336
 30
0.0
 40
0.5000000000000038
100
AcDbArc
 50
179.5
 51
270.0
  0
LINE
  5
160
330
150
100
AcDbEntity
  8
410317038_HANDLE
  6
Continuous
 62
     7
100
AcDbLine
 10
88.9317911579
 20
142.6
 30
0.0
 11
114.5142392316
 21
142.6
 31
0.0
  0
LINE
  5
161
330
150
100
AcDbEntity
  8
410317038_HANDLE
  6
Continuous
 62
     7
100
AcDbLine
 10
133.2694937162
 20
182.4129103926
 30
0.0
 11
70.1765366734
 21
182.4129103926
 31
0.0
  0
CIRCLE
  5
162
330
150
100
AcDbEntity
  8
410317038_HANDLE
  6
Continuous
 62
     7
100
AcDbCircle
 10
101.7230151948
 20
171.51
 30
0.0
 40
8.000000000000009
  0
LINE
  5
163
330
150
100
AcDbEntity
  8
410317038_HANDLE
  6
Continuous
 62
     7
100
AcDbLine
 10
72.5230151948
 20
182.9000003336
 30
0.0
 11
72.5230151948
 21
182.4129103926
 31
0.0
  0
LINE
  5
164
330
150
100
AcDbEntity
  8
410317038_HANDLE
  6
Continuous
 62
     7
100
AcDbLine
 10
130.9230151948
 20
182.4129103926
 30
0.0
 11
130.9230151948
 21
182.9000003336
 31
0.0
  0
LINE
  5
165
330
150
100
AcDbEntity
  8
410317038_HANDLE
  6
Continuous
 62
     7
100
AcDbLine
 10
69.9765671343
 20
182.2094199113
 30
0.0
 11
70.3883218347
 21
158.6200089265
 31
0.0
  0
LINE
  5
166
330
150
100
AcDbEntity
  8
410317038_HANDLE
  6
Continuous
 62
     7
100
AcDbLine
 10
133.0577085549
 20
158.6200089265
 30
0.0
 11
133.4694632552
 21
182.2094199113
 31
0.0
  0
ARC
  5
167
330
150
100
AcDbEntity
  8
410317038_HANDLE
  6
Continuous
 62
     7
100
AcDbCircle
 10
69.405188437
 20
136.8580623057
 30
0.0
 40
19.99999999999981
100
AcDbArc
 50
17.7271688632
 51
82.2076593763
  0
ARC
  5
168
330
150
100
AcDbEntity
  8
410317038_HANDLE
  6
Continuous
 62
     7
100
AcDbCircle
 10
134.0408419525
 20
136.8580623057
 30
0.0
 40
20.0
100
AcDbArc
 50
97.7923406237
 51
162.2728311368
  0
ARC
  5
169
330
150
100
AcDbEntity
  8
410317038_HANDLE
  6
Continuous
 62
     7
100
AcDbCircle
 10
131.0580131645
 20
158.6549137394
 30
0.0
 40
2.000000000000197
100
AcDbArc
 50
277.7923406236
 51
359.0
  0
ARC
  5
16A
330
150
100
AcDbEntity
  8
410317038_HANDLE
  6
Continuous
 62
     7
100
AcDbCircle
 10
72.388017225
 20
158.6549137394
 30
0.0
 40
2.0
100
AcDbArc
 50
181.0
 51
262.2076593764
  0
ARC
  5
16B
330
150
100
AcDbEntity
  8
410317038_HANDLE
  6
Continuous
 62
     7
100
AcDbCircle
 10
114.5142392316
 20
143.1
 30
0.0
 40
0.5000000000000004
100
AcDbArc
 50
270.0
 51
342.2728311368
  0
ARC
  5
16C
330
150
100
AcDbEntity
  8
410317038_HANDLE
  6
Continuous
 62
     7
100
AcDbCircle
 10
88.9317911579
 20
143.1
 30
0.0
 40
0.5000000000000018
100
AcDbArc
 50
197.7271688632
 51
270.0
  0
ARC
  5
16D
330
150
100
AcDbEntity
  8
410317038_HANDLE
  6
Continuous
 62
     7
100
AcDbCircle
 10
133.2694937162
 20
182.2129103926
 30
0.0
 40
0.1999999999999992
100
AcDbArc
 50
359.0
 51
90.0
  0
ARC
  5
16E
330
150
100
AcDbEntity
  8
410317038_HANDLE
  6
Continuous
 62
     7
100
AcDbCircle
 10
70.1765366734
 20
182.2129103926
 30
0.0
 40
0.1999999999999988
100
AcDbArc
 50
90.0
 51
181.0
  0
LINE
  5
16F
330
150
100
AcDbEntity
  8
410228031_BEARIN
  6
Continuous
 62
     7
100
AcDbLine
 10
70.1730151948
 20
201.4
 30
0.0
 11
133.2730151948
 21
201.4
 31
0.0
  0
LINE
  5
170
330
150
100
AcDbEntity
  8
410228031_BEARIN
  6
Continuous
 62
     7
100
AcDbLine
 10
70.1730151948
 20
202.0
 30
0.0
 11
70.1730151948
 21
201.4
 31
0.0
  0
LINE
  5
171
330
150
100
AcDbEntity
  8
410228031_BEARIN
  6
Continuous
 62
     7
100
AcDbLine
 10
133.2730151948
 20
201.4
 30
0.0
 11
133.2730151948
 21
202.0
 31
0.0
  0
SPLINE
  5
172
330
150
100
AcDbEntity
  8
410310038_RING_K
  6
Continuous
 62
     7
100
AcDbSpline
210
0.0
220
0.0
230
1.0
 70
     8
 71
     3
 72
     8
 73
     4
 74
     0
 42
0.000000001440906
 43
0.0000000001
 40
0.0
 40
0.0
 40
0.0
 40
0.0
 40
1.0
 40
1.0
 40
1.0
 40
1.0
 10
88.77110298638235
 20
141.9067568089003
 30
0.0
 10
89.57725048805015
 20
139.6088040395325
 30
0.0
 10
90.1379831864888
 20
137.3718571263928
 30
0.0
 10
90.4533010816983
 20
135.195916069481
 30
0.0
  0
SPLINE
  5
173
330
150
100
AcDbEntity
  8
410310038_RING_K
  6
Continuous
 62
     7
100
AcDbSpline
210
0.0
220
0.0
230
1.0
 70
     8
 71
     3
 72
     8
 73
     4
 74
     0
 42
0.0000000014135477
 43
0.0000000001
 40
0.0158698827404772
 40
0.0158698827404772
 40
0.0158698827404772
 40
0.0158698827404772
 40
1.0
 40
1.0
 40
1.0
 40
1.0
 10
112.9861646194281
 20
135.1807860675589
 30
0.0
 10
113.4723388425916
 20
138.0066509771763
 30
0.0
 10
114.0331523906127
 20
140.2514492219215
 30
0.0
 10
114.6686052634913
 20
141.9151808017947
 30
0.0
  0
ARC
  5
174
330
150
100
AcDbEntity
  8
410310038_RING_K
  6
Continuous
 62
     7
100
AcDbCircle
 10
98.7833543313
 20
130.4219851826
 30
0.0
 40
9.49999999999998
100
AcDbArc
 50
151.8850039707
 51
164.2095579456
  0
ARC
  5
175
330
150
100
AcDbEntity
  8
410310038_RING_K
  6
Continuous
 62
     7
100
AcDbCircle
 10
104.6626760582
 20
130.4219851826
 30
0.0
 40
9.499999999999991
100
AcDbArc
 50
15.7904420544
 51
28.1149960293
  0
ARC
  5
176
330
150
100
AcDbEntity
  8
410310038_RING_K
  6
Continuous
 62
     7
100
AcDbCircle
 10
90.1229837198
 20
132.8710627376
 30
0.0
 40
0.4999999999999897
100
AcDbArc
 50
164.2095579456
 51
219.8055710923
  0
ARC
  5
177
330
150
100
AcDbEntity
  8
410310038_RING_K
  6
Continuous
 62
     7
100
AcDbCircle
 10
113.3230466698
 20
132.8710627376
 30
0.0
 40
0.5000000000000143
100
AcDbArc
 50
320.1944289077
 51
15.7904420544
  0
LINE
  5
178
330
150
100
AcDbEntity
  8
410310038_RING_K
  6
Continuous
 62
     7
100
AcDbLine
 10
89.73887308
 20
132.5509705378
 30
0.0
 11
90.173092028
 21
132.0299078002
 31
0.0
  0
LINE
  5
179
330
150
100
AcDbEntity
  8
410310038_RING_K
  6
Continuous
 62
     7
100
AcDbLine
 10
113.2729383616
 20
132.0299078002
 30
0.0
 11
113.7071573096
 21
132.5509705378
 31
0.0
  0
ARC
  5
17A
330
150
100
AcDbEntity
  8
410310038_RING_K
  6
Continuous
 62
     7
100
AcDbCircle
 10
89.9633187531
 20
135.1344126248
 30
0.0
 40
0.499999999999997
100
AcDbArc
 50
331.8850039707
 51
8.9249464668
  0
ARC
  5
17B
330
150
100
AcDbEntity
  8
410310038_RING_K
  6
Continuous
 62
     7
100
AcDbCircle
 10
113.4827116365
 20
135.1344126248
 30
0.0
 40
0.5000000000000151
100
AcDbArc
 50
171.0750535332
 51
208.1149960293
  0
ARC
  5
17C
330
150
100
AcDbEntity
  8
410310038_RING_K
  6
Continuous
 62
     7
100
AcDbCircle
 10
89.2687747575
 20
142.1
 30
0.0
 40
0.5000000000000004
100
AcDbArc
 50
90.0
 51
198.8443742512
  0
ARC
  5
17D
330
150
100
AcDbEntity
  8
410310038_RING_K
  6
Continuous
 62
     7
100
AcDbCircle
 10
114.177255632
 20
142.1
 30
0.0
 40
0.4999999999999947
100
AcDbArc
 50
341.1556257488
 51
90.0
  0
ARC
  5
17E
330
150
100
AcDbEntity
  8
410310038_RING_K
  6
Continuous
 62
     7
100
AcDbCircle
 10
112.8888277218
 20
132.35
 30
0.0
 40
0.5000000000000004
100
AcDbArc
 50
270.0
 51
320.1944289077
  0
ARC
  5
17F
330
150
100
AcDbEntity
  8
410310038_RING_K
  6
Continuous
 62
     7
100
AcDbCircle
 10
90.5572026678
 20
132.35
 30
0.0
 40
0.5000000000000236
100
AcDbArc
 50
219.8055710923
 51
270.0
  0
LINE
  5
180
330
150
100
AcDbEntity
  8
410005038_HANDLE
  6
Continuous
 62
     7
100
AcDbLine
 10
91.4451786309
 20
113.75
 30
0.0
 11
112.0008517587
 21
113.75
 31
0.0
  0
LINE
  5
181
330
150
100
AcDbEntity
  8
410005038_HANDLE
  6
Continuous
 62
     7
100
AcDbLine
 10
112.9303404813
 20
131.85
 30
0.0
 11
90.5156899083
 21
131.85
 31
0.0
  0
ARC
  5
182
330
150
100
AcDbEntity
  8
410005038_HANDLE
  6
Continuous
 62
     7
100
AcDbCircle
 10
101.7230151948
 20
123.383924434
 30
0.0
 40
14.25
100
AcDbArc
 50
144.5950951231
 51
221.627527587
  0
ARC
  5
183
330
150
100
AcDbEntity
  8
410005038_HANDLE
  6
Continuous
 62
     7
100
AcDbCircle
 10
101.7230151948
 20
123.383924434
 30
0.0
 40
14.24999999999999
100
AcDbArc
 50
318.372472413
 51
35.4049048769
  0
ARC
  5
184
330
150
100
AcDbEntity
  8
410005038_HANDLE
  6
Continuous
 62
     7
100
AcDbCircle
 10
112.0008517587
 20
114.25
 30
0.0
 40
0.5000000000000004
100
AcDbArc
 50
270.0
 51
318.372472413
  0
ARC
  5
185
330
150
100
AcDbEntity
  8
410005038_HANDLE
  6
Continuous
 62
     7
100
AcDbCircle
 10
91.4451786309
 20
114.25
 30
0.0
 40
0.5000000000000083
100
AcDbArc
 50
221.627527587
 51
270.0
  0
ARC
  5
186
330
150
100
AcDbEntity
  8
410005038_HANDLE
  6
Continuous
 62
     7
100
AcDbCircle
 10
90.5156899083
 20
131.35
 30
0.0
 40
0.5000000000000004
100
AcDbArc
 50
90.0
 51
144.5950951231
  0
ARC
  5
187
330
150
100
AcDbEntity
  8
410005038_HANDLE
  6
Continuous
 62
     7
100
AcDbCircle
 10
112.9303404813
 20
131.35
 30
0.0
 40
0.5000000000000008
100
AcDbArc
 50
35.4049048769
 51
90.0
  0
LINE
  5
188
330
150
100
AcDbEntity
  8
410006038_DECORA
  6
Continuous
 62
     7
100
AcDbLine
 10
111.0799051623
 20
108.85
 30
0.0
 11
92.3661252273
 21
108.85
 31
0.0
  0
ARC
  5
189
330
150
100
AcDbEntity
  8
410006038_DECORA
  6
Continuous
 62
     7
100
AcDbCircle
 10
91.6784785939
 20
113.25
 30
0.0
 40
0.5000000000000004
100
AcDbArc
 50
90.0
 51
173.2851563915
  0
ARC
  5
18A
330
150
100
AcDbEntity
  8
410006038_DECORA
  6
Continuous
 62
     7
100
AcDbCircle
 10
111.7675517956
 20
113.25
 30
0.0
 40
0.5000000000000002
100
AcDbArc
 50
6.7148436085
 51
90.0
  0
ARC
  5
18B
330
150
100
AcDbEntity
  8
410006038_DECORA
  6
Continuous
 62
     7
100
AcDbCircle
 10
82.1443305156
 20
114.3725091629
 30
0.0
 40
9.100000333333368
100
AcDbArc
 50
333.7226300101
 51
353.2851563915
  0
ARC
  5
18C
330
150
100
AcDbEntity
  8
410006038_DECORA
  6
Continuous
 62
     7
100
AcDbCircle
 10
121.3016998739
 20
114.3725091629
 30
0.0
 40
9.100000333333359
100
AcDbArc
 50
186.7148436085
 51
206.2773699899
  0
ARC
  5
18D
330
150
100
AcDbEntity
  8
410006038_DECORA
  6
Continuous
 62
     7
100
AcDbCircle
 10
90.9316121374
 20
110.0338817033
 30
0.0
 40
0.6999999999999997
100
AcDbArc
 50
153.7226300103
 51
251.1008225568
  0
ARC
  5
18E
330
150
100
AcDbEntity
  8
410006038_DECORA
  6
Continuous
 62
     7
100
AcDbCircle
 10
112.5144182522
 20
110.0338817033
 30
0.0
 40
0.7000000000000041
100
AcDbArc
 50
288.8991774432
 51
26.2773699897
  0
ARC
  5
18F
330
150
100
AcDbEntity
  8
410006038_DECORA
  6
Continuous
 62
     7
100
AcDbCircle
 10
101.7176098714
 20
141.5386790028
 30
0.0
 40
34.00000000000158
100
AcDbArc
 50
251.1008225568
 51
254.0353836123
  0
ARC
  5
190
330
150
100
AcDbEntity
  8
410006038_DECORA
  6
Continuous
 62
     7
100
AcDbCircle
 10
101.7284205181
 20
141.5386790028
 30
0.0
 40
34.00000000000158
100
AcDbArc
 50
285.9646163877
 51
288.8991774432
  0
LINE
  5
191
330
150
100
AcDbEntity
  8
12080006_MP_HE_P
  6
Continuous
 62
     7
100
AcDbLine
 10
92.7730151948
 20
108.85
 30
0.0
 11
92.7730151948
 21
108.7088944347
 31
0.0
  0
LINE
  5
192
330
150
100
AcDbEntity
  8
12080006_MP_HE_P
  6
Continuous
 62
     7
100
AcDbLine
 10
110.6730151948
 20
108.7088944347
 30
0.0
 11
110.6730151948
 21
108.85
 31
0.0
  0
ARC
  5
193
330
150
100
AcDbEntity
  8
12080006_MP_HE_P
  6
Continuous
 62
     7
100
AcDbCircle
 10
101.7230151948
 20
125.85
 30
0.0
 40
19.49999999999999
100
AcDbArc
 50
243.2228950132
 51
296.7771049868
  0
ARC
  5
194
330
150
100
AcDbEntity
  8
12080006_MP_HE_P
  6
Continuous
 62
     7
100
AcDbCircle
 10
93.0730151948
 20
108.7088944347
 30
0.0
 40
0.2999999999999999
100
AcDbArc
 50
180.0
 51
243.2228950132
  0
ARC
  5
195
330
150
100
AcDbEntity
  8
12080006_MP_HE_P
  6
Continuous
 62
     7
100
AcDbCircle
 10
110.3730151948
 20
108.7088944347
 30
0.0
 40
0.3000000000000103
100
AcDbArc
 50
296.7771049868
 51
0.0
  0
LINE
  5
196
330
150
100
AcDbEntity
  8
410372040_ESCUTC
  6
Continuous
 62
     7
100
AcDbLine
 10
101.7230151946
 20
231.0000005819
 30
0.0
 11
6.9230201948
 21
231.0000005819
 31
0.0
  0
LINE
  5
197
330
150
100
AcDbEntity
  8
410372040_ESCUTC
  6
Continuous
 62
     7
100
AcDbLine
 10
196.5230101948
 20
231.0000005819
 30
0.0
 11
101.7230151946
 21
231.0000005819
 31
0.0
  0
SPLINE
  5
198
330
150
100
AcDbEntity
  8
410372040_ESCUTC
  6
Continuous
 62
     7
100
AcDbSpline
210
0.0
220
0.0
230
1.0
 70
     8
 71
     3
 72
     8
 73
     4
 74
     0
 42
0.0000000177856791
 43
0.0000000001
 40
0.0
 40
0.0
 40
0.0
 40
0.0
 40
0.001778567910141
 40
0.001778567910141
 40
0.001778567910141
 40
0.001778567910141
 10
10.10986250734662
 20
225.6969668147044
 30
0.0
 10
10.10986250733944
 20
225.6969668151253
 30
0.0
 10
10.10993637076503
 20
225.6969708211936
 30
0.0
 10
10.11008408469609
 20
225.6969788312247
 30
0.0
  0
SPLINE
  5
199
330
150
100
AcDbEntity
  8
410372040_ESCUTC
  6
Continuous
 62
     7
100
AcDbSpline
210
0.0
220
0.0
230
1.0
 70
     8
 71
     3
 72
    18
 73
    14
 74
     0
 42
0.0000000003729816
 43
0.0000000001
 40
0.001778567910141
 40
0.001778567910141
 40
0.001778567910141
 40
0.001778567910141
 40
0.2500000000000009
 40
0.2500000000000009
 40
0.3125000000000011
 40
0.3125000000000011
 40
0.3437500000000012
 40
0.3437500000000012
 40
0.3593750000000013
 40
0.3593750000000013
 40
0.3750000000000013
 40
0.3750000000000013
 40
0.3804995537767499
 40
0.3804995537767499
 40
0.3804995537767499
 40
0.3804995537767499
 10
10.11008408469609
 20
225.6969788312247
 30
0.0
 10
10.13069941419657
 20
225.6980967314081
 30
0.0
 10
11.58975265736004
 20
225.7772026138914
 30
0.0
 10
15.17281773783698
 20
225.9681187690398
 30
0.0
 10
15.98438038100432
 20
226.011249556089
 30
0.0
 10
17.33942261390364
 20
226.082973367567
 30
0.0
 10
17.81290384311464
 20
226.1079914074039
 30
0.0
 10
18.55580906362533
 20
226.1471633776968
 30
0.0
 10
18.80894174551124
 20
226.1604974870484
 30
0.0
 10
19.32584117379504
 20
226.1876968729097
 30
0.0
 10
19.56000989188704
 20
226.2047776092396
 30
0.0
 10
19.98979993953498
 20
226.216696055154
 30
0.0
 10
20.11424199006205
 20
226.2185164280837
 30
0.0
 10
20.25010535928028
 20
226.2190805323835
 30
0.0
  0
SPLINE
  5
19A
330
150
100
AcDbEntity
  8
410372040_ESCUTC
  6
Continuous
 62
     7
100
AcDbSpline
210
0.0
220
0.0
230
1.0
 70
     8
 71
     3
 72
    16
 73
    12
 74
     0
 42
0.0000000000791425
 43
0.0000000001
 40
0.3804995537767499
 40
0.3804995537767499
 40
0.3804995537767499
 40
0.3804995537767499
 40
0.4062500000000016
 40
0.4062500000000016
 40
0.4218750000000016
 40
0.4218750000000016
 40
0.4375000000000016
 40
0.4375000000000016
 40
0.5000000000000018
 40
0.5000000000000018
 40
0.6107444516524739
 40
0.6107444516524739
 40
0.6107444516524739
 40
0.6107444516524739
 10
20.25010535928028
 20
226.2190805323835
 30
0.0
 10
20.88625558615051
 20
226.2217218262093
 30
0.0
 10
21.77280381672912
 20
226.1968210151725
 30
0.0
 10
23.41334013752001
 20
226.1168778879937
 30
0.0
 10
24.09131485935989
 20
226.0772886888864
 30
0.0
 10
25.48676374572506
 20
225.98346884353
 30
0.0
 10
26.18479628115889
 20
225.9372444567528
 30
0.0
 10
29.66257557407645
 20
225.7143447352671
 30
0.0
 10
32.42348493448659
 20
225.5570387710648
 30
0.0
 10
39.98180234283838
 20
225.1813986925251
 30
0.0
 10
44.70240047537884
 20
225.0093892517852
 30
0.0
 10
49.30923176682589
 20
224.9077273095657
 30
0.0
  0
SPLINE
  5
19B
330
150
100
AcDbEntity
  8
410372040_ESCUTC
  6
Continuous
 62
     7
100
AcDbSpline
210
0.0
220
0.0
230
1.0
 70
     8
 71
     3
 72
    18
 73
    14
 74
     0
 42
0.0000000000766323
 43
0.0000000001
 40
0.6107444516524739
 40
0.6107444516524739
 40
0.6107444516524739
 40
0.6107444516524739
 40
0.6250000000000024
 40
0.6250000000000024
 40
0.6406250000000026
 40
0.6406250000000026
 40
0.6484375000000024
 40
0.6484375000000024
 40
0.6562500000000023
 40
0.6562500000000023
 40
0.6875000000000021
 40
0.6875000000000021
 40
0.7276763070722436
 40
0.7276763070722436
 40
0.7276763070722436
 40
0.7276763070722436
 10
49.30923176682589
 20
224.9077273095657
 30
0.0
 10
49.90224482729251
 20
224.8946409046869
 30
0.0
 10
50.49337276515964
 20
224.8827201615949
 30
0.0
 10
51.7284511714524
 20
224.8601868034604
 30
0.0
 10
52.37326683738498
 20
224.8494838385162
 30
0.0
 10
53.33282103174493
 20
224.8366958677223
 30
0.0
 10
53.65209812667903
 20
224.832792783496
 30
0.0
 10
54.31073690015139
 20
224.8200299012885
 30
0.0
 10
54.65091223882192
 20
224.8109500712542
 30
0.0
 10
56.37428036362926
 20
224.7605318766973
 30
0.0
 10
57.76747856690007
 20
224.7194915553403
 30
0.0
 10
60.95320290705109
 20
224.6325928699769
 30
0.0
 10
62.75539033187727
 20
224.5866948489355
 30
0.0
 10
64.56352990142203
 20
224.5438989208008
 30
0.0
  0
SPLINE
  5
19C
330
150
100
AcDbEntity
  8
410372040_ESCUTC
  6
Continuous
 62
     7
100
AcDbSpline
210
0.0
220
0.0
230
1.0
 70
     8
 71
     3
 72
    10
 73
     6
 74
     0
 42
0.0000000000732774
 43
0.0000000001
 40
0.7276763070722436
 40
0.7276763070722436
 40
0.7276763070722436
 40
0.7276763070722436
 40
0.7500000000000018
 40
0.7500000000000018
 40
1.0
 40
1.0
 40
1.0
 40
1.0
 10
64.56352990142203
 20
224.5438989208008
 30
0.0
 10
65.56821040748414
 20
224.5201196531713
 30
0.0
 10
66.57472857511267
 20
224.4972981238326
 30
0.0
 10
78.86650560035386
 20
224.2308375279871
 30
0.0
 10
90.24652418260726
 20
224.1087069650154
 30
0.0
 10
101.7228396668436
 20
224.1087592586344
 30
0.0
  0
SPLINE
  5
19D
330
150
100
AcDbEntity
  8
410372040_ESCUTC
  6
Continuous
 62
     7
100
AcDbSpline
210
0.0
220
0.0
230
1.0
 70
     8
 71
     3
 72
     8
 73
     4
 74
     0
 42
0.0000000000736649
 43
0.0000000001
 40
0.0
 40
0.0
 40
0.0
 40
0.0
 40
0.0409603544640383
 40
0.0409603544640383
 40
0.0409603544640383
 40
0.0409603544640383
 10
101.7228396668436
 20
224.1087592586344
 30
0.0
 10
103.5795658978689
 20
224.1087503668871
 30
0.0
 10
105.4330111379183
 20
224.1119400063009
 30
0.0
 10
107.2831863310532
 20
224.1183214927826
 30
0.0
  0
SPLINE
  5
19E
330
150
100
AcDbEntity
  8
410372040_ESCUTC
  6
Continuous
 62
     7
100
AcDbSpline
210
0.0
220
0.0
230
1.0
 70
     8
 71
     3
 72
    28
 73
    24
 74
     0
 42
0.0000000000770941
 43
0.0000000001
 40
0.0409603544640383
 40
0.0409603544640383
 40
0.0409603544640383
 40
0.0409603544640383
 40
0.2500000000000002
 40
0.2500000000000002
 40
0.3125000000000002
 40
0.3125000000000002
 40
0.3437500000000002
 40
0.3437500000000002
 40
0.3593750000000001
 40
0.3593750000000001
 40
0.3750000000000001
 40
0.3750000000000001
 40
0.4999999999999998
 40
0.4999999999999998
 40
0.5624999999999998
 40
0.5624999999999998
 40
0.5781249999999999
 40
0.5781249999999999
 40
0.5937500000000001
 40
0.5937500000000001
 40
0.6249999999999999
 40
0.6249999999999999
 40
0.626283092478034
 40
0.626283092478034
 40
0.626283092478034
 40
0.626283092478034
 10
107.2831863310532
 20
224.1183214927826
 30
0.0
 10
116.7254866141701
 20
224.1508891716903
 30
0.0
 10
126.0826174377348
 20
224.266589569138
 30
0.0
 10
138.1286582948257
 20
224.5237169761515
 30
0.0
 10
140.8937044336607
 20
224.5902831868055
 30
0.0
 10
145.0297867601998
 20
224.7013416109635
 30
0.0
 10
146.4068976044657
 20
224.7404436932686
 30
0.0
 10
148.4688900294144
 20
224.8014221305288
 30
0.0
 10
149.1602256675323
 20
224.8223627825568
 30
0.0
 10
150.4352868262326
 20
224.8420471340987
 30
0.0
 10
151.0585105823291
 20
224.8494831207429
 30
0.0
 10
156.7679716560829
 20
224.9458876820901
 30
0.0
 10
162.0209186181505
 20
225.1189109202892
 30
0.0
 10
170.1192560023153
 20
225.5085630288847
 30
0.0
 10
172.8464890300155
 20
225.6595837039692
 30
0.0
 10
176.2902889707618
 20
225.8746749611559
 30
0.0
 10
176.9807599973394
 20
225.9190099261197
 30
0.0
 10
178.3654045497881
 20
226.0103404131862
 30
0.0
 10
179.0655899995759
 20
226.0591252872834
 30
0.0
 10
181.0545993766078
 20
226.1745916187717
 30
0.0
 10
182.2554045574579
 20
226.2185305686518
 30
0.0
 10
183.1000878560418
 20
226.2194533746281
 30
0.0
 10
183.1325974595312
 20
226.2193979541276
 30
0.0
 10
183.164358734669
 20
226.2192577406379
 30
0.0
  0
SPLINE
  5
19F
330
150
100
AcDbEntity
  8
410372040_ESCUTC
  6
Continuous
 62
     7
100
AcDbSpline
210
0.0
220
0.0
230
1.0
 70
     8
 71
     3
 72
    16
 73
    12
 74
     0
 42
0.0000000003669064
 43
0.0000000001
 40
0.626283092478034
 40
0.626283092478034
 40
0.626283092478034
 40
0.626283092478034
 40
0.6406249999999998
 40
0.6406249999999998
 40
0.6562499999999997
 40
0.6562499999999997
 40
0.6874999999999996
 40
0.6874999999999996
 40
0.7499999999999996
 40
0.7499999999999996
 40
1.0
 40
1.0
 40
1.0
 40
1.0
 10
183.164358734669
 20
226.2192577406379
 30
0.0
 10
183.5193738864249
 20
226.217690488911
 30
0.0
 10
183.7808936655027
 20
226.2055292885523
 30
0.0
 10
184.2955214696255
 20
226.178475053542
 30
0.0
 10
184.5582051747614
 20
226.1646503737962
 30
0.0
 10
185.3293304590206
 20
226.1240258050931
 30
0.0
 10
185.8208509261208
 20
226.0980752039636
 30
0.0
 10
187.2276888118539
 20
226.0236639805284
 30
0.0
 10
188.0734146152204
 20
225.9787435405745
 30
0.0
 10
191.8212672724243
 20
225.7791402891517
 30
0.0
 10
193.3361678796947
 20
225.6969667659448
 30
0.0
 10
193.336167883021
 20
225.696966777637
 30
0.0
  0
SPLINE
  5
1A0
330
150
100
AcDbEntity
  8
410372040_ESCUTC
  6
Continuous
 62
     7
100
AcDbSpline
210
0.0
220
0.0
230
1.0
 70
     8
 71
     3
 72
    14
 73
    10
 74
     0
 42
0.0000000034121265
 43
0.0000000001
 40
0.0
 40
0.0
 40
0.0
 40
0.0
 40
0.25
 40
0.25
 40
0.5
 40
0.5
 40
0.75
 40
0.75
 40
1.0
 40
1.0
 40
1.0
 40
1.0
 10
10.10986250734662
 20
225.6969668147044
 30
0.0
 10
10.35168908496797
 20
225.6742758614218
 30
0.0
 10
10.58926644286039
 20
225.6070579536564
 30
0.0
 10
11.02500259172823
 20
225.3923164798102
 30
0.0
 10
11.22303423129457
 20
225.244855577066
 30
0.0
 10
11.55365129431533
 20
224.8889451253239
 30
0.0
 10
11.68614024097858
 20
224.6805994339368
 30
0.0
 10
11.8682358436583
 20
224.2302428157946
 30
0.0
 10
11.91778936267306
 20
223.9883633068222
 30
0.0
 10
11.92262396310631
 20
223.7455226190378
 30
0.0
  0
LINE
  5
1A1
330
150
100
AcDbEntity
  8
410372040_ESCUTC
  6
Continuous
 62
     7
100
AcDbLine
 10
196.5230101948
 20
228.2728304556
 30
0.0
 11
196.5230101948
 21
231.0000005819
 31
0.0
  0
LINE
  5
1A2
330
150
100
AcDbEntity
  8
410372040_ESCUTC
  6
Continuous
 62
     7
100
AcDbLine
 10
6.9230201948
 20
228.2728304931
 30
0.0
 11
6.9230201948
 21
231.0000005819
 31
0.0
  0
ARC
  5
1A3
330
150
100
AcDbEntity
  8
410372040_ESCUTC
  6
Continuous
 62
     7
100
AcDbCircle
 10
9.4230201948
 20
228.2728304931
 30
0.0
 40
2.500000000000002
100
AcDbArc
 50
180.0
 51
264.5858761585
  0
ARC
  5
1A4
330
150
100
AcDbEntity
  8
410372040_ESCUTC
  6
Continuous
 62
     7
100
AcDbCircle
 10
194.0230101948
 20
228.2728304556
 30
0.0
 40
2.499999999999998
100
AcDbArc
 50
275.4141238182
 51
0.0
  0
SPLINE
  5
1A5
330
150
100
AcDbEntity
  8
410372040_ESCUTC
  6
Continuous
 62
     7
100
AcDbSpline
210
0.0
220
0.0
230
1.0
 70
     8
 71
     3
 72
    14
 73
    10
 74
     0
 42
0.0000000034121265
 43
0.0000000001
 40
0.0
 40
0.0
 40
0.0
 40
0.0
 40
0.25
 40
0.25
 40
0.5
 40
0.5
 40
0.75
 40
0.75
 40
1.0
 40
1.0
 40
1.0
 40
1.0
 10
191.52340642647
 20
223.7455225827052
 30
0.0
 10
191.5282410270017
 20
223.9883632704876
 30
0.0
 10
191.5777945461146
 20
224.2302427794399
 30
0.0
 10
191.7598901489768
 20
224.6805993975084
 30
0.0
 10
191.8923790957246
 20
224.8889450888418
 30
0.0
 10
192.2229961588897
 20
225.2448555404499
 30
0.0
 10
192.4210277985159
 20
225.3923164431138
 30
0.0
 10
192.8567639474708
 20
225.6070579167833
 30
0.0
 10
193.0943413053904
 20
225.6742758244524
 30
0.0
 10
193.336167883021
 20
225.696966777637
 30
0.0
  0
ARC
  5
1A6
330
150
100
AcDbEntity
  8
410372040_ESCUTC
  6
Continuous
 62
     7
100
AcDbCircle
 10
14.4221286735
 20
223.7952840765
 30
0.0
 40
2.499999999999999
100
AcDbArc
 50
181.1405239174
 51
264.8990389363
  0
SPLINE
  5
1A7
330
150
100
AcDbEntity
  8
410372040_ESCUTC
  6
Continuous
 62
     7
100
AcDbSpline
210
0.0
220
0.0
230
1.0
 70
     8
 71
     3
 72
    14
 73
    10
 74
     0
 42
0.0000000027211518
 43
0.0000000001
 40
0.0
 40
0.0
 40
0.0
 40
0.0
 40
0.2499999999999998
 40
0.2499999999999998
 40
0.4999999999999996
 40
0.4999999999999996
 40
0.7499999999999998
 40
0.7499999999999998
 40
1.0
 40
1.0
 40
1.0
 40
1.0
 10
189.246179225505
 20
221.3051851056266
 30
0.0
 10
189.5495276147229
 20
221.3322633568079
 30
0.0
 10
189.847783957991
 20
221.4153740579174
 30
0.0
 10
190.3950583012555
 20
221.6827776871311
 30
0.0
 10
190.6439146139537
 20
221.8669916132302
 30
0.0
 10
191.0594798038228
 20
222.3123223674806
 30
0.0
 10
191.2260659059842
 20
222.573307626653
 30
0.0
 10
191.4550320245337
 20
223.1377440041735
 30
0.0
 10
191.517344394935
 20
223.4410283648544
 30
0.0
 10
191.52340642647
 20
223.7455225827052
 30
0.0
  0
SPLINE
  5
1A8
330
150
100
AcDbEntity
  8
410372040_ESCUTC
  6
Continuous
 62
     7
100
AcDbSpline
210
0.0
220
0.0
230
1.0
 70
     8
 71
     3
 72
     8
 73
     4
 74
     0
 42
0.0000000007914116
 43
0.0000000001
 40
0.0
 40
0.0
 40
0.0
 40
0.0
 40
0.0127739529010513
 40
0.0127739529010513
 40
0.0127739529010513
 40
0.0127739529010513
 10
150.4053984933245
 20
218.6073918740575
 30
0.0
 10
150.4053984752006
 20
218.6073918796851
 30
0.0
 10
150.351146169925
 20
218.6076516561891
 30
0.0
 10
150.2439931142275
 20
218.6081585415105
 30
0.0
  0
SPLINE
  5
1A9
330
150
100
AcDbEntity
  8
410372040_ESCUTC
  6
Continuous
 62
     7
100
AcDbSpline
210
0.0
220
0.0
230
1.0
 70
     8
 71
     3
 72
    42
 73
    38
 74
     0
 42
0.0000000000513155
 43
0.0000000001
 40
0.4998756049745989
 40
0.4998756049745989
 40
0.4998756049745989
 40
0.4998756049745989
 40
0.5000000000000001
 40
0.5000000000000001
 40
0.5312500000000001
 40
0.5312500000000001
 40
0.5625000000000001
 40
0.5625000000000001
 40
0.5937500000000001
 40
0.5937500000000001
 40
0.6250000000000001
 40
0.6250000000000001
 40
0.6562500000000001
 40
0.6562500000000001
 40
0.6875000000000001
 40
0.6875000000000001
 40
0.7187500000000001
 40
0.7187500000000001
 40
0.7500000000000001
 40
0.7500000000000001
 40
0.7812500000000001
 40
0.7812500000000001
 40
0.8125000000000001
 40
0.8125000000000001
 40
0.8437500000000001
 40
0.8437500000000001
 40
0.8750000000000001
 40
0.8750000000000001
 40
0.9062500000000001
 40
0.9062500000000001
 40
0.9218750000000001
 40
0.9218750000000001
 40
0.9375000000000001
 40
0.9375000000000001
 40
0.9687500000000001
 40
0.9687500000000001
 40
0.9995082094826939
 40
0.9995082094826939
 40
0.9995082094826939
 40
0.9995082094826939
 10
53.04063221045106
 20
218.607391892915
 30
0.0
 10
53.04063205824405
 20
218.6073918917668
 30
0.0
 10
53.04063695464826
 20
218.6073919147953
 30
0.0
 10
53.04314535121348
 20
218.6074038226328
 30
0.0
 10
53.35575463616016
 20
218.6089015233871
 30
0.0
 10
54.61438151682115
 20
218.6147481763129
 30
0.0
 10
55.55705569686913
 20
218.6190765538163
 30
0.0
 10
57.9997752098956
 20
218.629726906337
 30
0.0
 10
59.51809438278838
 20
218.6361268430147
 30
0.0
 10
63.09241676797793
 20
218.6500771222861
 30
0.0
 10
65.11392221710773
 20
218.6574919828667
 30
0.0
 10
69.61200930041241
 20
218.6723359215858
 30
0.0
 10
72.11827373900498
 20
218.679834697178
 30
0.0
 10
77.40746464659797
 20
218.6934558745711
 30
0.0
 10
80.19952945479247
 20
218.699629599667
 30
0.0
 10
86.08003223673391
 20
218.7100202426356
 30
0.0
 10
89.1617039548068
 20
218.7141880176676
 30
0.0
 10
95.3610141778047
 20
218.7197480025197
 30
0.0
 10
98.5104379330241
 20
218.7212051885291
 30
0.0
 10
104.9127769254108
 20
218.7212120875118
 30
0.0
 10
108.0664377397706
 20
218.7197589450623
 30
0.0
 10
114.264389044031
 20
218.714211484886
 30
0.0
 10
117.3424399992443
 20
218.7100559022853
 30
0.0
 10
123.228495573611
 20
218.6996671443232
 30
0.0
 10
126.0205351318088
 20
218.6934970194245
 30
0.0
 10
131.3057481280452
 20
218.6798963449252
 30
0.0
 10
133.8144943180478
 20
218.6723963197217
 30
0.0
 10
138.316878981272
 20
218.6575459137227
 30
0.0
 10
140.3373761453649
 20
218.6501369822749
 30
0.0
 10
143.0146655918719
 20
218.6396927316702
 30
0.0
 10
143.8493894845145
 20
218.6363154488666
 30
0.0
 10
145.3623900041433
 20
218.6300348529347
 30
0.0
 10
146.0457033984658
 20
218.6271124754679
 30
0.0
 10
147.8798751437438
 20
218.6191173977408
 30
0.0
 10
148.819102864692
 20
218.6148058422212
 30
0.0
 10
150.077560111051
 20
218.6089610083988
 30
0.0
 10
150.3953157502544
 20
218.6074401419365
 30
0.0
 10
150.4051623370392
 20
218.6073930044437
 30
0.0
  0
ARC
  5
1AA
330
150
100
AcDbEntity
  8
410372040_ESCUTC
  6
Continuous
 62
     7
100
AcDbCircle
 10
48.5697660184
 20
363.2984585806
 30
0.0
 40
144.2142874336294
100
AcDbArc
 50
266.4925072771
 51
266.6097535613
  0
LINE
  5
1AB
330
150
100
AcDbEntity
  8
410372040_ESCUTC
  6
Continuous
 62
     7
100
AcDbLine
 10
38.9616658069
 20
219.4077457011
 30
0.0
 11
38.6761838236
 21
219.4259488998
 31
0.0
  0
ARC
  5
1AC
330
150
100
AcDbEntity
  8
410372040_ESCUTC
  6
Continuous
 62
     7
100
AcDbCircle
 10
88.5226236633
 20
998.7691396412
 30
0.0
 40
780.9355176734241
100
AcDbArc
 50
266.2879352411
 51
266.3049629536
  0
ARC
  5
1AD
330
150
100
AcDbEntity
  8
410372040_ESCUTC
  6
Continuous
 62
     7
100
AcDbCircle
 10
88.5226236633
 20
998.7691396412
 30
0.0
 40
780.9355176734241
100
AcDbArc
 50
266.1035030062
 51
266.2646860005
  0
LINE
  5
1AE
330
150
100
AcDbEntity
  8
410372040_ESCUTC
  6
Continuous
 62
     7
100
AcDbLine
 10
49.056467766
 20
218.8134892602
 30
0.0
 11
49.0773010993
 21
218.8123242407
 31
0.0
  0
LINE
  5
1AF
330
150
100
AcDbEntity
  8
410372040_ESCUTC
  6
Continuous
 62
     7
100
AcDbLine
 10
48.0286899882
 20
218.8691882213
 30
0.0
 11
48.4829669797
 21
218.8446635641
 31
0.0
  0
LINE
  5
1B0
330
150
100
AcDbEntity
  8
410372040_ESCUTC
  6
Continuous
 62
     7
100
AcDbLine
 10
47.8721659162
 20
218.8780250971
 30
0.0
 11
47.3967455438
 21
218.9039988167
 31
0.0
  0
LINE
  5
1B1
330
150
100
AcDbEntity
  8
410372040_ESCUTC
  6
Continuous
 62
     7
100
AcDbLine
 10
47.3967455438
 20
218.9039988167
 30
0.0
 11
46.6745233215
 21
218.9442810883
 31
0.0
  0
LINE
  5
1B2
330
150
100
AcDbEntity
  8
410372040_ESCUTC
  6
Continuous
 62
     7
100
AcDbLine
 10
46.6745233215
 20
218.9442810883
 30
0.0
 11
46.6467455438
 21
218.9458872281
 31
0.0
  0
LINE
  5
1B3
330
150
100
AcDbEntity
  8
410372040_ESCUTC
  6
Continuous
 62
     7
100
AcDbLine
 10
46.6467455438
 20
218.9458872281
 30
0.0
 11
47.2856344327
 21
218.910207659
 31
0.0
  0
LINE
  5
1B4
330
150
100
AcDbEntity
  8
410372040_ESCUTC
  6
Continuous
 62
     7
100
AcDbLine
 10
47.2856344327
 20
218.910207659
 30
0.0
 11
46.8891659763
 21
218.933401015
 31
0.0
  0
LINE
  5
1B5
330
150
100
AcDbEntity
  8
410372040_ESCUTC
  6
Continuous
 62
     7
100
AcDbLine
 10
176.3317517229
 20
220.2436154353
 30
0.0
 11
177.2606817395
 21
220.3136922447
 31
0.0
  0
SPLINE
  5
1B6
330
150
100
AcDbEntity
  8
410372040_ESCUTC
  6
Continuous
 62
     7
100
AcDbSpline
210
0.0
220
0.0
230
1.0
 70
     8
 71
     3
 72
     8
 73
     4
 74
     0
 42
0.0000000011737689
 43
0.0000000001
 40
0.0
 40
0.0
 40
0.0
 40
0.0
 40
0.2929542242270526
 40
0.2929542242270526
 40
0.2929542242270526
 40
0.2929542242270526
 10
179.4131778064416
 20
220.4781145445759
 30
0.0
 10
178.5837638707168
 20
220.4128925326743
 30
0.0
 10
177.754349934992
 20
220.3476705207726
 30
0.0
 10
176.9248721893793
 20
220.2843155039947
 30
0.0
  0
LINE
  5
1B7
330
150
100
AcDbEntity
  8
410372040_ESCUTC
  6
Continuous
 62
     7
100
AcDbLine
 10
178.8298444731
 20
220.4320670585
 30
0.0
 11
179.4131776741
 21
220.4781145341
 31
0.0
  0
SPLINE
  5
1B8
330
150
100
AcDbEntity
  8
410372040_ESCUTC
  6
Continuous
 62
     7
100
AcDbSpline
210
0.0
220
0.0
230
1.0
 70
     8
 71
     3
 72
     8
 73
     4
 74
     0
 42
0.0000000009366531
 43
0.0000000001
 40
0.1533382087906353
 40
0.1533382087906353
 40
0.1533382087906353
 40
0.1533382087906353
 40
0.1804473395477432
 40
0.1804473395477432
 40
0.1804473395477432
 40
0.1804473395477432
 10
158.671678491976
 20
219.0526753663616
 30
0.0
 10
158.5729389729487
 20
219.0469357499143
 30
0.0
 10
158.4762240076883
 20
219.0413295116671
 30
0.0
 10
158.3827379919054
 20
219.0359266470203
 30
0.0
  0
SPLINE
  5
1B9
330
150
100
AcDbEntity
  8
410372040_ESCUTC
  6
Continuous
 62
     7
100
AcDbSpline
210
0.0
220
0.0
230
1.0
 70
     8
 71
     3
 72
     8
 73
     4
 74
     0
 42
0.0000000005117296
 43
0.0000000001
 40
0.0660411814562349
 40
0.0660411814562349
 40
0.0660411814562349
 40
0.0660411814562349
 40
0.0940730603647961
 40
0.0940730603647961
 40
0.0940730603647961
 40
0.0940730603647961
 10
162.5691949776598
 20
219.2867960443576
 30
0.0
 10
162.7520846000241
 20
219.2981437704144
 30
0.0
 10
162.9343595096826
 20
219.3095036145132
 30
0.0
 10
163.115921021539
 20
219.320870997896
 30
0.0
  0
SPLINE
  5
1BA
330
150
100
AcDbEntity
  8
410372040_ESCUTC
  6
Continuous
 62
     7
100
AcDbSpline
210
0.0
220
0.0
230
1.0
 70
     8
 71
     3
 72
     8
 73
     4
 74
     0
 42
0.0000000007055668
 43
0.0000000001
 40
0.9796025399121151
 40
0.9796025399121151
 40
0.9796025399121151
 40
0.9796025399121151
 40
0.9873473678097016
 40
0.9873473678097016
 40
0.9873473678097016
 40
0.9873473678097016
 10
160.7012861680613
 20
219.1727300392242
 30
0.0
 10
160.6647051052139
 20
219.1705270336239
 30
0.0
 10
160.628190429414
 20
219.1683297874912
 30
0.0
 10
160.5917169333243
 20
219.1661361139536
 30
0.0
  0
ARC
  5
1BB
330
150
100
AcDbEntity
  8
410372040_ESCUTC
  6
Continuous
 62
     7
100
AcDbCircle
 10
108.8572514721
 20
1073.8996397014
 30
0.0
 40
856.2982025986116
100
AcDbArc
 50
273.5209948963
 51
273.6031583716
  0
SPLINE
  5
1BC
330
150
100
AcDbEntity
  8
410372040_ESCUTC
  6
Continuous
 62
     7
100
AcDbSpline
210
0.0
220
0.0
230
1.0
 70
     8
 71
     3
 72
    14
 73
    10
 74
     0
 42
0.0000000010877114
 43
0.0000000001
 40
0.4955802829719394
 40
0.4955802829719394
 40
0.4955802829719394
 40
0.4955802829719394
 40
0.501300621352848
 40
0.5635715661627676
 40
0.5947386568426886
 40
0.6259384215893606
 40
0.7508140638741594
 40
0.8773589842311408
 40
0.9469267542435057
 40
0.9469267542435057
 40
0.9469267542435057
 40
0.9469267542435057
 10
165.9951892639538
 20
219.5059380176676
 30
0.0
 10
165.9784077807394
 20
219.5048300505149
 30
0.0
 10
165.7788093408922
 20
219.4916584952846
 30
0.0
 10
165.4854787280681
 20
219.47241511462
 30
0.0
 10
165.1135279976387
 20
219.4482061918823
 30
0.0
 10
164.5513874804586
 20
219.4118084648161
 30
0.0
 10
163.6898866030384
 20
219.3567672094366
 30
0.0
 10
162.6918269222719
 20
219.2941988645058
 30
0.0
 10
162.0737483737704
 20
219.2562089965251
 30
0.0
 10
161.8540431671631
 20
219.2427456279566
 30
0.0
  0
ARC
  5
1BD
330
150
100
AcDbEntity
  8
410372040_ESCUTC
  6
Continuous
 62
     7
100
AcDbCircle
 10
128.3601774398
 20
835.1091623452
 30
0.0
 40
616.7376188232619
100
AcDbArc
 50
274.0818252852
 51
274.2625324616
  0
ARC
  5
1BE
330
150
100
AcDbEntity
  8
410372040_ESCUTC
  6
Continuous
 62
     7
100
AcDbCircle
 10
132.5174444816
 20
778.282315418
 30
0.0
 40
559.7586399358985
100
AcDbArc
 50
273.9845006457
 51
274.1445795943
  0
ARC
  5
1BF
330
150
100
AcDbEntity
  8
410372040_ESCUTC
  6
Continuous
 62
     7
100
AcDbCircle
 10
130.7681248043
 20
803.1622372543
 30
0.0
 40
584.6999786428846
100
AcDbArc
 50
273.9860949529
 51
274.0554069508
  0
ARC
  5
1C0
330
150
100
AcDbEntity
  8
410372040_ESCUTC
  6
Continuous
 62
     7
100
AcDbCircle
 10
130.7681248043
 20
803.1622372543
 30
0.0
 40
584.6999786428846
100
AcDbArc
 50
274.1136165401
 51
274.2911528501
  0
LINE
  5
1C1
330
150
100
AcDbEntity
  8
410372040_ESCUTC
  6
Continuous
 62
     7
100
AcDbLine
 10
193.3357612708
 20
225.7013485157
 30
0.0
 11
194.2586241059
 21
225.786897034
 31
0.0
  0
LINE
  5
1C2
330
150
100
AcDbEntity
  8
410372040_ESCUTC
  6
Continuous
 62
     7
100
AcDbLine
 10
9.1873863367
 20
225.7866758108
 30
0.0
 11
10.1102324715
 21
225.7009434667
 31
0.0
  0
LINE
  5
1C3
330
150
100
AcDbEntity
  8
410372040_ESCUTC
  6
Continuous
 62
     7
100
AcDbLine
 10
10.1161231957
 20
225.69558605
 30
0.0
 11
10.1530496243
 21
225.6913206075
 31
0.0
  0
LINE
  5
1C4
330
150
100
AcDbEntity
  8
410372040_ESCUTC
  6
Continuous
 62
     7
100
AcDbLine
 10
40.0466397266
 20
219.3452799561
 30
0.0
 11
40.7343225943
 21
219.3043882816
 31
0.0
  0
LINE
  5
1C5
330
150
100
AcDbEntity
  8
410372040_ESCUTC
  6
Continuous
 62
     7
100
AcDbLine
 10
37.5027730134
 20
219.5056579983
 30
0.0
 11
38.18367071
 21
219.4589252906
 31
0.0
  0
LINE
  5
1C6
330
150
100
AcDbEntity
  8
410372040_ESCUTC
  6
Continuous
 62
     7
100
AcDbLine
 10
46.8892805428
 20
218.9354481348
 30
0.0
 11
47.6548523244
 21
218.8926032528
 31
0.0
  0
LINE
  5
1C7
330
150
100
AcDbEntity
  8
410372040_ESCUTC
  6
Continuous
 62
     7
100
AcDbLine
 10
176.5517478807
 20
220.2574662373
 30
0.0
 11
176.9247292894
 21
220.2861283193
 31
0.0
  0
LINE
  5
1C8
330
150
100
AcDbEntity
  8
410372040_ESCUTC
  6
Continuous
 62
     7
100
AcDbLine
 10
162.6760273438
 20
219.2985667206
 30
0.0
 11
165.9938084041
 21
219.5135757633
 31
0.0
  0
LINE
  5
1C9
330
150
100
AcDbEntity
  8
410372040_ESCUTC
  6
Continuous
 62
     7
100
AcDbLine
 10
160.6005558959
 20
219.1702612644
 30
0.0
 11
161.4459050633
 21
219.2204108038
 31
0.0
  0
LINE
  5
1CA
330
150
100
AcDbEntity
  8
410372040_ESCUTC
  6
Continuous
 62
     7
100
AcDbLine
 10
158.400831486
 20
219.0397646953
 30
0.0
 11
158.6791127315
 21
219.0562734669
 31
0.0
  0
LINE
  5
1CB
330
150
100
AcDbEntity
  8
410372040_ESCUTC
  6
Continuous
 62
     7
100
AcDbLine
 10
177.8442060881
 20
220.4353148763
 30
0.0
 11
189.245178466
 21
221.3180990436
 31
0.0
  0
LINE
  5
1CC
330
150
100
AcDbEntity
  8
410372040_ESCUTC
  6
Continuous
 62
     7
100
AcDbLine
 10
174.1881111386
 20
220.1522212393
 30
0.0
 11
177.2547982196
 21
220.3896766696
 31
0.0
  0
ARC
  5
1CD
330
150
100
AcDbEntity
  8
410372040_ESCUTC
  6
Continuous
 62
     7
100
AcDbCircle
 10
151.3808870111
 20
445.7130215504
 30
0.0
 40
226.6737305066502
100
AcDbArc
 50
272.9667594152
 51
273.2782617438
  0
ARC
  5
1CE
330
150
100
AcDbEntity
  8
410372040_ESCUTC
  6
Continuous
 62
     7
100
AcDbCircle
 10
151.3808870111
 20
445.7130215504
 30
0.0
 40
226.6737305066502
100
AcDbArc
 50
273.6129186449
 51
275.2848948955
  0
LINE
  5
1CF
330
150
100
AcDbEntity
  8
410372040_ESCUTC
  6
Continuous
 62
     7
100
AcDbLine
 10
158.3840701452
 20
219.0989989837
 30
0.0
 11
160.7131734181
 21
219.219228231
 31
0.0
  0
LINE
  5
1D0
330
150
100
AcDbEntity
  8
410372040_ESCUTC
  6
Continuous
 62
     7
100
AcDbLine
 10
150.4012886565
 20
218.6869245941
 30
0.0
 11
158.1810490293
 21
219.0885189521
 31
0.0
  0
LINE
  5
1D1
330
150
100
AcDbEntity
  8
410372040_ESCUTC
  6
Continuous
 62
     7
100
AcDbLine
 10
48.4869693723
 20
218.9221986571
 30
0.0
 11
53.0776614632
 21
218.685225284
 31
0.0
  0
LINE
  5
1D2
330
150
100
AcDbEntity
  8
410372040_ESCUTC
  6
Continuous
 62
     7
100
AcDbLine
 10
40.4437994086
 20
219.3373903273
 30
0.0
 11
47.8760740052
 21
218.9537333217
 31
0.0
  0
LINE
  5
1D3
330
150
100
AcDbEntity
  8
410372040_ESCUTC
  6
Continuous
 62
     7
100
AcDbLine
 10
39.0225018559
 20
219.4107582789
 30
0.0
 11
39.7550981033
 21
219.3729413658
 31
0.0
  0
ARC
  5
1D4
330
150
100
AcDbEntity
  8
410372040_ESCUTC
  6
Continuous
 62
     7
100
AcDbCircle
 10
39.4184367481
 20
235.4085943513
 30
0.0
 40
15.99718887190043
100
AcDbArc
 50
264.6757491958
 51
267.3410765132
  0
LINE
  5
1D5
330
150
100
AcDbEntity
  8
410372040_ESCUTC
  6
Continuous
 62
     7
100
AcDbLine
 10
14.2008526813
 20
221.3180990203
 30
0.0
 11
35.4577443552
 21
219.6721650689
 31
0.0
  0
ARC
  5
1D6
330
150
100
AcDbEntity
  8
410372040_ESCUTC
  6
Continuous
 62
     7
100
AcDbCircle
 10
167.8837826588
 20
275.541322478
 30
0.0
 40
55.77564974392433
100
AcDbArc
 50
273.8426908191
 51
274.3414538718
  0
LINE
  5
1D8
330
150
100
AcDbEntity
  8
DV3_Standard
  6
Continuous
 62
     7
100
AcDbLine
 10
6.9230201948
 20
231.0000005819
 30
0.0
 11
196.5230101948
 21
231.0000005819
 31
0.0
  0
LINE
  5
1D9
330
150
100
AcDbEntity
  8
DV3_Standard
  6
CENTER2
 62
     7
100
AcDbLine
 10
121.7230147477
 20
231.0000005819
 30
0.0
 11
81.7230156418
 21
231.0000005819
 31
0.0
  0
LINE
  5
1DA
330
150
100
AcDbEntity
  8
DV3_Standard
  6
CENTER2
 62
     7
100
AcDbLine
 10
101.7230151948
 20
251.0000001349
 30
0.0
 11
101.7230151948
 21
211.0000010289
 31
0.0
  0
ENDBLK
  5
1DC
330
150
100
AcDbEntity
  8
0
100
AcDbBlockEnd
  0
ENDSEC
  0
SECTION
  2
ENTITIES
  0
INSERT
  5
5F
330
1F
100
AcDbEntity
  8
Default
100
AcDbBlockReference
  2
SE
 10
0.0
 20
0.0
 30
0.0
  0
INSERT
  5
C7
330
1F
100
AcDbEntity
  8
Default
100
AcDbBlockReference
  2
SE1
 10
0.0
 20
0.0
 30
0.0
  0
INSERT
  5
151
330
1F
100
AcDbEntity
  8
Default
100
AcDbBlockReference
  2
SE2
 10
0.0
 20
0.0
 30
0.0
  0
TEXT
  5
1DE
330
1F
100
AcDbEntity
  8
Default
  6
Continuous
 62
     7
100
AcDbText
 10
5.9362635081
 20
53.4225120485
 30
0.0
 40
10.0
  1
Grohe AG^J
  7
SEACAD_seiso_ttf
 11
5.9362635081
 21
63.4225120485
 31
0.0
100
AcDbText
 73
     3
  0
TEXT
  5
1DF
330
1F
100
AcDbEntity
  8
Default
  6
Continuous
 62
     7
100
AcDbText
 10
5.9362635081
 20
37.0588756849
 30
0.0
 40
10.0
  1
 
  7
SEACAD_seiso_ttf
 11
5.9362635081
 21
47.0588756849
 31
0.0
100
AcDbText
 73
     3
  0
TEXT
  5
1E0
330
1F
100
AcDbEntity
  8
Default
  6
Continuous
 62
     7
100
AcDbText
 10
5.9362635081
 20
20.6952393213
 30
0.0
 40
10.0
  1
ecn: 
  7
SEACAD_seiso_ttf
 11
5.9362635081
 21
30.6952393213
 31
0.0
100
AcDbText
 73
     3
  0
TEXT
  5
1E1
330
1F
100
AcDbEntity
  8
Default
  6
Continuous
 62
     7
100
AcDbText
 10
5.9362635081
 20
4.3316029576
 30
0.0
 40
10.0
  1
unit: mm
  7
SEACAD_seiso_ttf
 11
5.9362635081
 21
14.3316029576
 31
0.0
100
AcDbText
 73
     3
  0
LINE
  5
1E2
330
1F
100
AcDbEntity
  8
Default
  6
Continuous
 62
     7
100
AcDbLine
 10
0.0
 20
0.0
 30
0.0
 11
100.0
 21
0.0
 31
0.0
  0
LINE
  5
1E3
330
1F
100
AcDbEntity
  8
Default
  6
Continuous
 62
     7
100
AcDbLine
 10
0.0
 20
0.0
 30
0.0
 11
0.0
 21
100.0
 31
0.0
  0
TEXT
  5
1E4
330
1F
100
AcDbEntity
  8
Default
  6
Continuous
 62
     7
100
AcDbText
 10
24.3923665681
 20
-18.2375342018
 30
0.0
 40
10.0
  1
100 mm
  7
SEACAD_seiso_ttf
 11
24.3923665681
 21
-8.2375342018
 31
0.0
100
AcDbText
 73
     3
  0
TEXT
  5
1E5
330
1F
100
AcDbEntity
  8
Default
  6
Continuous
 62
     7
100
AcDbText
 10
-7.6150308803
 20
24.6231930421
 30
0.0
 40
10.0
  1
100 mm
 50
90.0
  7
SEACAD_seiso_ttf
 11
-17.6150308803
 21
24.6231930421
 31
0.0
100
AcDbText
 73
     3
  0
TEXT
  5
1E6
330
1F
100
AcDbEntity
  8
Default
  6
Continuous
 62
     7
100
AcDbText
 10
28.4878128572
 20
20.0907663715
 30
0.0
 40
10.0
  1
219326
  7
SEACAD_seiso_ttf
 11
28.4878128572
 21
30.0907663715
 31
0.0
100
AcDbText
 73
     3
  0
TEXT
  5
1E7
330
1F
100
AcDbEntity
  8
Default
  6
Continuous
 62
     7
100
AcDbText
 10
5.9012241913
 20
36.7242780188
 30
0.0
 40
10.0
  1
19822000
  7
SEACAD_seiso_ttf
 11
5.9012241913
 21
46.7242780188
 31
0.0
100
AcDbText
 73
     3
  0
ENDSEC
  0
SECTION
  2
OBJECTS
  0
DICTIONARY
  5
C
330
0
100
AcDbDictionary
281
     1
  3
ACAD_GROUP
350
D
  3
ACAD_LAYOUT
350
1A
  3
ACAD_MLEADERSTYLE
350
1EB
  3
ACAD_MLINESTYLE
350
17
  3
ACAD_PLOTSETTINGS
350
19
  3
ACAD_PLOTSTYLENAME
350
E
  3
ACAD_SCALELIST
350
3B
  3
ACAD_TABLESTYLE
350
1EA
  3
ACAD_VISUALSTYLE
350
2A
  3
AcDbVariableDictionary
350
1E8
  0
DICTIONARY
  5
D
102
{ACAD_REACTORS
330
C
102
}
330
C
100
AcDbDictionary
281
     1
  0
DICTIONARY
  5
1A
102
{ACAD_REACTORS
330
C
102
}
330
C
100
AcDbDictionary
281
     1
  3
Layout1
350
1E
  3
Model
350
22
  0
DICTIONARY
  5
1EB
102
{ACAD_REACTORS
330
C
102
}
330
C
100
AcDbDictionary
281
     1
  0
DICTIONARY
  5
17
102
{ACAD_REACTORS
330
C
102
}
330
C
100
AcDbDictionary
281
     1
  3
Standard
350
18
  0
DICTIONARY
  5
19
102
{ACAD_REACTORS
330
C
102
}
330
C
100
AcDbDictionary
281
     1
  0
ACDBDICTIONARYWDFLT
  5
E
102
{ACAD_REACTORS
330
C
102
}
330
C
100
AcDbDictionary
281
     1
  3
Normal
350
F
100
AcDbDictionaryWithDefault
340
F
  0
DICTIONARY
  5
3B
102
{ACAD_REACTORS
330
C
102
}
330
C
100
AcDbDictionary
281
     1
  3
A0
350
3C
  3
A1
350
3D
  3
A2
350
3E
  3
A3
350
3F
  3
A4
350
40
  3
A5
350
41
  3
A6
350
42
  3
A7
350
43
  3
A8
350
44
  3
A9
350
45
  3
B0
350
46
  3
B1
350
47
  3
B2
350
48
  3
B3
350
49
  3
B4
350
4A
  3
B5
350
4B
  3
B6
350
4C
  3
B7
350
4D
  3
B8
350
4E
  3
B9
350
4F
  3
C0
350
50
  3
C1
350
51
  3
C2
350
52
  3
C3
350
53
  3
C4
350
54
  3
C5
350
55
  3
C6
350
56
  3
C7
350
57
  3
C8
350
58
  3
C9
350
59
  3
D0
350
5A
  3
D1
350
5B
  3
D2
350
5C
  0
DICTIONARY
  5
1EA
102
{ACAD_REACTORS
330
C
102
}
330
C
100
AcDbDictionary
281
     1
  0
DICTIONARY
  5
2A
102
{ACAD_REACTORS
330
C
102
}
330
C
100
AcDbDictionary
281
     1
  3
2dWireframe
350
2F
  3
3D Hidden
350
31
  3
3dWireframe
350
30
  3
Basic
350
32
  3
Brighten
350
36
  3
ColorChange
350
3A
  3
Conceptual
350
34
  3
Dim
350
35
  3
Facepattern
350
39
  3
Flat
350
2B
  3
FlatWithEdges
350
2C
  3
Gouraud
350
2D
  3
GouraudWithEdges
350
2E
  3
Linepattern
350
38
  3
Realistic
350
33
  3
Thicken
350
37
  0
DICTIONARY
  5
1E8
102
{ACAD_REACTORS
330
C
102
}
330
C
100
AcDbDictionary
281
     1
  3
CANNOSCALE
350
1E9
  3
PSOLHEIGHT
350
1ED
  3
PSOLWIDTH
350
1EC
  0
LAYOUT
  5
1E
102
{ACAD_REACTORS
330
1A
102
}
330
1A
100
AcDbPlotSettings
  1

  2
none_device
  4

  6

 40
0.0
 41
0.0
 42
0.0
 43
0.0
 44
0.0
 45
0.0
 46
0.0
 47
0.0
 48
0.0
 49
0.0
140
0.0
141
0.0
142
1.0
143
1.0
 70
   688
 72
     0
 73
     0
 74
     5
  7

 75
    16
147
1.0
148
0.0
149
0.0
100
AcDbLayout
  1
Layout1
 70
     1
 71
     1
 10
0.0
 20
0.0
 11
1682.0
 21
2378.0
 12
0.0
 22
0.0
 32
0.0
 14
0.0
 24
0.0
 34
0.0
 15
1682.0
 25
2378.0
 35
0.0
146
0.0
 13
0.0
 23
0.0
 33
0.0
 16
1.0
 26
0.0
 36
0.0
 17
0.0
 27
1.0
 37
0.0
 76
     0
330
1B
  0
LAYOUT
  5
22
102
{ACAD_REACTORS
330
1A
102
}
330
1A
100
AcDbPlotSettings
  1

  2
none_device
  4

  6

 40
0.0
 41
0.0
 42
0.0
 43
0.0
 44
0.0
 45
0.0
 46
0.0
 47
0.0
 48
0.0
 49
0.0
140
0.0
141
0.0
142
1.0
143
1.0
 70
  1712
 72
     0
 73
     0
 74
     0
  7

 75
     0
147
1.0
148
0.0
149
0.0
100
AcDbLayout
  1
Model
 70
     1
 71
     0
 10
0.0
 20
0.0
 11
1682.0
 21
2378.0
 12
0.0
 22
0.0
 32
0.0
 14
0.0
 24
0.0
 34
0.0
 15
1682.0
 25
2378.0
 35
0.0
146
0.0
 13
0.0
 23
0.0
 33
0.0
 16
1.0
 26
0.0
 36
0.0
 17
0.0
 27
1.0
 37
0.0
 76
     0
330
1F
331
29
  0
MLINESTYLE
  5
18
102
{ACAD_REACTORS
330
17
102
}
330
17
100
AcDbMlineStyle
  2
Standard
 70
     0
  3

 62
   256
 51
90.0
 52
90.0
 71
     2
 49
0.5
 62
   256
  6
BYLAYER
 49
-0.5
 62
   256
  6
BYLAYER
  0
ACDBPLACEHOLDER
  5
F
102
{ACAD_REACTORS
330
E
102
}
330
E
  0
SCALE
  5
3C
102
{ACAD_REACTORS
330
3B
102
}
330
3B
100
AcDbScale
 70
     0
300
1:1
140
1.0
141
1.0
290
     1
  0
SCALE
  5
3D
102
{ACAD_REACTORS
330
3B
102
}
330
3B
100
AcDbScale
 70
     0
300
1:2
140
1.0
141
2.0
290
     0
  0
SCALE
  5
3E
102
{ACAD_REACTORS
330
3B
102
}
330
3B
100
AcDbScale
 70
     0
300
1:4
140
1.0
141
4.0
290
     0
  0
SCALE
  5
3F
102
{ACAD_REACTORS
330
3B
102
}
330
3B
100
AcDbScale
 70
     0
300
1:5
140
1.0
141
5.0
290
     0
  0
SCALE
  5
40
102
{ACAD_REACTORS
330
3B
102
}
330
3B
100
AcDbScale
 70
     0
300
1:8
140
1.0
141
8.0
290
     0
  0
SCALE
  5
41
102
{ACAD_REACTORS
330
3B
102
}
330
3B
100
AcDbScale
 70
     0
300
1:10
140
1.0
141
10.0
290
     0
  0
SCALE
  5
42
102
{ACAD_REACTORS
330
3B
102
}
330
3B
100
AcDbScale
 70
     0
300
1:16
140
1.0
141
16.0
290
     0
  0
SCALE
  5
43
102
{ACAD_REACTORS
330
3B
102
}
330
3B
100
AcDbScale
 70
     0
300
1:20
140
1.0
141
20.0
290
     0
  0
SCALE
  5
44
102
{ACAD_REACTORS
330
3B
102
}
330
3B
100
AcDbScale
 70
     0
300
1:30
140
1.0
141
30.0
290
     0
  0
SCALE
  5
45
102
{ACAD_REACTORS
330
3B
102
}
330
3B
100
AcDbScale
 70
     0
300
1:40
140
1.0
141
40.0
290
     0
  0
SCALE
  5
46
102
{ACAD_REACTORS
330
3B
102
}
330
3B
100
AcDbScale
 70
     0
300
1:50
140
1.0
141
50.0
290
     0
  0
SCALE
  5
47
102
{ACAD_REACTORS
330
3B
102
}
330
3B
100
AcDbScale
 70
     0
300
1:100
140
1.0
141
100.0
290
     0
  0
SCALE
  5
48
102
{ACAD_REACTORS
330
3B
102
}
330
3B
100
AcDbScale
 70
     0
300
2:1
140
2.0
141
1.0
290
     0
  0
SCALE
  5
49
102
{ACAD_REACTORS
330
3B
102
}
330
3B
100
AcDbScale
 70
     0
300
4:1
140
4.0
141
1.0
290
     0
  0
SCALE
  5
4A
102
{ACAD_REACTORS
330
3B
102
}
330
3B
100
AcDbScale
 70
     0
300
8:1
140
8.0
141
1.0
290
     0
  0
SCALE
  5
4B
102
{ACAD_REACTORS
330
3B
102
}
330
3B
100
AcDbScale
 70
     0
300
10:1
140
10.0
141
1.0
290
     0
  0
SCALE
  5
4C
102
{ACAD_REACTORS
330
3B
102
}
330
3B
100
AcDbScale
 70
     0
300
100:1
140
100.0
141
1.0
290
     0
  0
SCALE
  5
4D
102
{ACAD_REACTORS
330
3B
102
}
330
3B
100
AcDbScale
 70
     0
300
1/128" = 1'-0"
140
0.0078125
141
12.0
290
     0
  0
SCALE
  5
4E
102
{ACAD_REACTORS
330
3B
102
}
330
3B
100
AcDbScale
 70
     0
300
1/64" = 1'-0"
140
0.015625
141
12.0
290
     0
  0
SCALE
  5
4F
102
{ACAD_REACTORS
330
3B
102
}
330
3B
100
AcDbScale
 70
     0
300
1/32" = 1'-0"
140
0.03125
141
12.0
290
     0
  0
SCALE
  5
50
102
{ACAD_REACTORS
330
3B
102
}
330
3B
100
AcDbScale
 70
     0
300
1/16" = 1'-0"
140
0.0625
141
12.0
290
     0
  0
SCALE
  5
51
102
{ACAD_REACTORS
330
3B
102
}
330
3B
100
AcDbScale
 70
     0
300
3/32" = 1'-0"
140
0.09375
141
12.0
290
     0
  0
SCALE
  5
52
102
{ACAD_REACTORS
330
3B
102
}
330
3B
100
AcDbScale
 70
     0
300
1/8" = 1'-0"
140
0.125
141
12.0
290
     0
  0
SCALE
  5
53
102
{ACAD_REACTORS
330
3B
102
}
330
3B
100
AcDbScale
 70
     0
300
3/16" = 1'-0"
140
0.1875
141
12.0
290
     0
  0
SCALE
  5
54
102
{ACAD_REACTORS
330
3B
102
}
330
3B
100
AcDbScale
 70
     0
300
1/4" = 1'-0"
140
0.25
141
12.0
290
     0
  0
SCALE
  5
55
102
{ACAD_REACTORS
330
3B
102
}
330
3B
100
AcDbScale
 70
     0
300
3/8" = 1'-0"
140
0.375
141
12.0
290
     0
  0
SCALE
  5
56
102
{ACAD_REACTORS
330
3B
102
}
330
3B
100
AcDbScale
 70
     0
300
1/2" = 1'-0"
140
0.5
141
12.0
290
     0
  0
SCALE
  5
57
102
{ACAD_REACTORS
330
3B
102
}
330
3B
100
AcDbScale
 70
     0
300
3/4" = 1'-0"
140
0.75
141
12.0
290
     0
  0
SCALE
  5
58
102
{ACAD_REACTORS
330
3B
102
}
330
3B
100
AcDbScale
 70
     0
300
1" = 1'-0"
140
1.0
141
12.0
290
     0
  0
SCALE
  5
59
102
{ACAD_REACTORS
330
3B
102
}
330
3B
100
AcDbScale
 70
     0
300
1-1/2" = 1'-0"
140
1.5
141
12.0
290
     0
  0
SCALE
  5
5A
102
{ACAD_REACTORS
330
3B
102
}
330
3B
100
AcDbScale
 70
     0
300
3" = 1'-0"
140
3.0
141
12.0
290
     0
  0
SCALE
  5
5B
102
{ACAD_REACTORS
330
3B
102
}
330
3B
100
AcDbScale
 70
     0
300
6" = 1'-0"
140
6.0
141
12.0
290
     0
  0
SCALE
  5
5C
102
{ACAD_REACTORS
330
3B
102
}
330
3B
100
AcDbScale
 70
     0
300
1'-0" = 1'-0"
140
12.0
141
12.0
290
     0
  0
VISUALSTYLE
  5
2F
102
{ACAD_REACTORS
330
2A
102
}
330
2A
100
AcDbVisualStyle
  2
2dWireframe
 70
     4
 71
     0
 72
     2
 73
     0
 90
        0
 40
-0.6
 41
-30.0
 62
     5
 63
     7
 74
     1
 91
        4
 64
     7
 65
   257
 75
     1
175
     1
 42
1.0
 92
        0
 66
   257
 43
1.0
 76
     1
 77
     6
 78
     2
 67
     7
 79
     5
170
     0
171
     0
290
     0
174
     0
 93
        1
 44
0.0
173
     0
291
     0
 45
0.0
1001
ACAD
1000
AcDbSavedByObjectVersion
1070
     0
  0
VISUALSTYLE
  5
31
102
{ACAD_REACTORS
330
2A
102
}
330
2A
100
AcDbVisualStyle
  2
3D Hidden
 70
     6
 71
     1
 72
     2
 73
     2
 90
        0
 40
-0.6
 41
-30.0
 62
     5
 63
     7
 74
     2
 91
        2
 64
     7
 65
   257
 75
     2
175
     1
 42
40.0
 92
        0
 66
   257
 43
1.0
 76
     1
 77
     6
 78
     2
 67
     7
 79
     3
170
     0
171
     0
290
     0
174
     0
 93
        1
 44
0.0
173
     0
291
     0
 45
0.0
1001
ACAD
1000
AcDbSavedByObjectVersion
1070
     0
  0
VISUALSTYLE
  5
30
102
{ACAD_REACTORS
330
2A
102
}
330
2A
100
AcDbVisualStyle
  2
3dWireframe
 70
     5
 71
     0
 72
     2
 73
     0
 90
        0
 40
-0.6
 41
-30.0
 62
     5
 63
     7
 74
     1
 91
        4
 64
     7
 65
   257
 75
     1
175
     1
 42
1.0
 92
        0
 66
   257
 43
1.0
 76
     1
 77
     6
 78
     2
 67
     7
 79
     5
170
     0
171
     0
290
     0
174
     0
 93
        1
 44
0.0
173
     0
291
     0
 45
0.0
1001
ACAD
1000
AcDbSavedByObjectVersion
1070
     0
  0
VISUALSTYLE
  5
32
102
{ACAD_REACTORS
330
2A
102
}
330
2A
100
AcDbVisualStyle
  2
Basic
 70
     7
 71
     1
 72
     0
 73
     1
 90
        0
 40
-0.6
 41
-30.0
 62
     5
 63
     7
 74
     0
 91
        4
 64
     7
 65
   257
 75
     1
175
     1
 42
1.0
 92
        8
 66
     7
 43
1.0
 76
     1
 77
     6
 78
     2
 67
     7
 79
     5
170
     0
171
     0
290
     0
174
     0
 93
        1
 44
0.0
173
     0
291
     1
 45
0.0
1001
ACAD
1000
AcDbSavedByObjectVersion
1070
     0
  0
VISUALSTYLE
  5
36
102
{ACAD_REACTORS
330
2A
102
}
330
2A
100
AcDbVisualStyle
  2
Brighten
 70
    12
 71
     2
 72
     2
 73
     0
 90
        0
 40
-0.6
 41
-30.0
 62
     5
 63
     7
 74
     1
 91
        4
 64
     7
 65
   257
 75
     1
175
     1
 42
1.0
 92
        8
 66
     7
 43
1.0
 76
     1
 77
     6
 78
     2
 67
     7
 79
     5
170
     0
171
     0
290
     0
174
     0
 93
        1
 44
50.0
173
     0
291
     1
 45
0.0
1001
ACAD
1000
AcDbSavedByObjectVersion
1070
     0
  0
VISUALSTYLE
  5
3A
102
{ACAD_REACTORS
330
2A
102
}
330
2A
100
AcDbVisualStyle
  2
ColorChange
 70
    16
 71
     2
 72
     2
 73
     3
 90
        0
 40
-0.6
 41
-30.0
 62
     5
 63
     8
 74
     1
 91
        4
 64
     7
 65
   257
 75
     1
175
     1
 42
1.0
 92
        8
 66
     8
 43
1.0
 76
     1
 77
     6
 78
     2
 67
     7
 79
     5
170
     0
171
     0
290
     0
174
     0
 93
        1
 44
0.0
173
     0
291
     1
 45
0.0
1001
ACAD
1000
AcDbSavedByObjectVersion
1070
     0
  0
VISUALSTYLE
  5
34
102
{ACAD_REACTORS
330
2A
102
}
330
2A
100
AcDbVisualStyle
  2
Conceptual
 70
     9
 71
     3
 72
     2
 73
     0
 90
        0
 40
-0.6
 41
-30.0
 62
     5
 63
     7
 74
     2
 91
        2
 64
     7
 65
   257
 75
     1
175
     1
 42
40.0
 92
        8
 66
     7
 43
1.0
 76
     1
 77
     6
 78
     2
 67
     7
 79
     3
170
     0
171
     0
290
     0
174
     0
 93
        1
 44
0.0
173
     0
291
     0
 45
0.0
1001
ACAD
1000
AcDbSavedByObjectVersion
1070
     0
  0
VISUALSTYLE
  5
35
102
{ACAD_REACTORS
330
2A
102
}
330
2A
100
AcDbVisualStyle
  2
Dim
 70
    11
 71
     2
 72
     2
 73
     0
 90
        0
 40
-0.6
 41
-30.0
 62
     5
 63
     7
 74
     1
 91
        4
 64
     7
 65
   257
 75
     1
175
     1
 42
1.0
 92
        8
 66
     7
 43
1.0
 76
     1
 77
     6
 78
     2
 67
     7
 79
     5
170
     0
171
     0
290
     0
174
     0
 93
        1
 44
-50.0
173
     0
291
     1
 45
0.0
1001
ACAD
1000
AcDbSavedByObjectVersion
1070
     0
  0
VISUALSTYLE
  5
39
102
{ACAD_REACTORS
330
2A
102
}
330
2A
100
AcDbVisualStyle
  2
Facepattern
 70
    15
 71
     2
 72
     2
 73
     0
 90
        0
 40
-0.6
 41
-30.0
 62
     5
 63
     7
 74
     1
 91
        4
 64
     7
 65
   257
 75
     1
175
     1
 42
1.0
 92
        8
 66
     7
 43
1.0
 76
     1
 77
     6
 78
     2
 67
     7
 79
     5
170
     0
171
     0
290
     0
174
     0
 93
        1
 44
0.0
173
     0
291
     1
 45
0.0
1001
ACAD
1000
AcDbSavedByObjectVersion
1070
     0
  0
VISUALSTYLE
  5
2B
102
{ACAD_REACTORS
330
2A
102
}
330
2A
100
AcDbVisualStyle
  2
Flat
 70
     0
 71
     2
 72
     1
 73
     1
 90
        2
 40
-0.6
 41
30.0
 62
     5
 63
     7
 74
     0
 91
        4
 64
     7
 65
   257
 75
     1
175
     1
 42
1.0
 92
        8
 66
     7
 43
1.0
 76
     1
 77
     6
 78
     2
 67
     7
 79
     5
170
     0
171
     0
290
     0
174
     0
 93
       13
 44
0.0
173
     0
291
     1
 45
0.0
1001
ACAD
1000
AcDbSavedByObjectVersion
1070
     0
  0
VISUALSTYLE
  5
2C
102
{ACAD_REACTORS
330
2A
102
}
330
2A
100
AcDbVisualStyle
  2
FlatWithEdges
 70
     1
 71
     2
 72
     1
 73
     1
 90
        2
 40
-0.6
 41
30.0
 62
     5
 63
     7
 74
     1
 91
        4
 64
     7
 65
   257
 75
     1
175
     1
 42
1.0
 92
        0
 66
   257
 43
1.0
 76
     1
 77
     6
 78
     2
 67
     7
 79
     5
170
     0
171
     0
290
     0
174
     0
 93
       13
 44
0.0
173
     0
291
     1
 45
0.0
1001
ACAD
1000
AcDbSavedByObjectVersion
1070
     0
  0
VISUALSTYLE
  5
2D
102
{ACAD_REACTORS
330
2A
102
}
330
2A
100
AcDbVisualStyle
  2
Gouraud
 70
     2
 71
     2
 72
     2
 73
     1
 90
        2
 40
-0.6
 41
30.0
 62
     5
 63
     7
 74
     0
 91
        4
 64
     7
 65
   257
 75
     1
175
     1
 42
1.0
 92
        0
 66
     7
 43
1.0
 76
     1
 77
     6
 78
     2
 67
     7
 79
     5
170
     0
171
     0
290
     0
174
     0
 93
       13
 44
0.0
173
     0
291
     1
 45
0.0
1001
ACAD
1000
AcDbSavedByObjectVersion
1070
     0
  0
VISUALSTYLE
  5
2E
102
{ACAD_REACTORS
330
2A
102
}
330
2A
100
AcDbVisualStyle
  2
GouraudWithEdges
 70
     3
 71
     2
 72
     2
 73
     1
 90
        2
 40
-0.6
 41
30.0
 62
     5
 63
     7
 74
     1
 91
        4
 64
     7
 65
   257
 75
     1
175
     1
 42
1.0
 92
        0
 66
   257
 43
1.0
 76
     1
 77
     6
 78
     2
 67
     7
 79
     5
170
     0
171
     0
290
     0
174
     0
 93
       13
 44
0.0
173
     0
291
     1
 45
0.0
1001
ACAD
1000
AcDbSavedByObjectVersion
1070
     0
  0
VISUALSTYLE
  5
38
102
{ACAD_REACTORS
330
2A
102
}
330
2A
100
AcDbVisualStyle
  2
Linepattern
 70
    14
 71
     2
 72
     2
 73
     0
 90
        0
 40
-0.6
 41
-30.0
 62
     5
 63
     7
 74
     1
 91
        4
 64
     7
 65
   257
 75
     7
175
     7
 42
1.0
 92
        8
 66
     7
 43
1.0
 76
     1
 77
     6
 78
     2
 67
     7
 79
     5
170
     0
171
     0
290
     0
174
     0
 93
        1
 44
0.0
173
     0
291
     1
 45
0.0
1001
ACAD
1000
AcDbSavedByObjectVersion
1070
     0
  0
VISUALSTYLE
  5
33
102
{ACAD_REACTORS
330
2A
102
}
330
2A
100
AcDbVisualStyle
  2
Realistic
 70
     8
 71
     2
 72
     2
 73
     0
 90
        0
 40
-0.6
 41
-30.0
 62
     5
 63
     7
 74
     1
 91
        0
 64
     7
 65
   257
 75
     1
175
     1
 42
1.0
 92
        8
 66
     8
 43
1.0
 76
     1
 77
     6
 78
     2
 67
     7
 79
     5
170
     0
171
     0
290
     0
174
     0
 93
       13
 44
0.0
173
     0
291
     0
 45
0.0
1001
ACAD
1000
AcDbSavedByObjectVersion
1070
     0
  0
VISUALSTYLE
  5
37
102
{ACAD_REACTORS
330
2A
102
}
330
2A
100
AcDbVisualStyle
  2
Thicken
 70
    13
 71
     2
 72
     2
 73
     0
 90
        0
 40
-0.6
 41
-30.0
 62
     5
 63
     7
 74
     1
 91
        4
 64
     7
 65
   257
 75
     1
175
     1
 42
1.0
 92
       12
 66
     7
 43
1.0
 76
     1
 77
     6
 78
     2
 67
     7
 79
     5
170
     0
171
     0
290
     0
174
     0
 93
        1
 44
0.0
173
     0
291
     1
 45
0.0
1001
ACAD
1000
AcDbSavedByObjectVersion
1070
     0
  0
DICTIONARYVAR
  5
1E9
102
{ACAD_REACTORS
330
1E8
102
}
330
1E8
100
DictionaryVariables
280
     0
  1
1:1
  0
DICTIONARYVAR
  5
1ED
102
{ACAD_REACTORS
330
1E8
102
}
330
1E8
100
DictionaryVariables
280
     0
  1
80.000000
  0
DICTIONARYVAR
  5
1EC
102
{ACAD_REACTORS
330
1E8
102
}
330
1E8
100
DictionaryVariables
280
     0
  1
5.000000
  0
ENDSEC
  0
EOF
