  0
SECTION
  2
HEADER
  9
$ACADVER
  1
AC1015
  9
$ACADMAINTVER
 70
     6
  9
$DWGCODEPAGE
  3
ANSI_1252
  9
$INSBASE
 10
0.0
 20
0.0
 30
0.0
  9
$EXTMIN
 10
0.0
 20
0.0
 30
0.0
  9
$EXTMAX
 10
1682.0
 20
2378.0
 30
0.0
  9
$LIMMIN
 10
0.0
 20
0.0
  9
$LIMMAX
 10
1682.0
 20
2378.0
  9
$ORTHOMODE
 70
     0
  9
$REGENMODE
 70
     1
  9
$FILLMODE
 70
     1
  9
$QTEXTMODE
 70
     0
  9
$MIRRTEXT
 70
     1
  9
$LTSCALE
 40
1.0
  9
$ATTMODE
 70
     1
  9
$TEXTSIZE
 40
2.5
  9
$TRACEWID
 40
1.0
  9
$TEXTSTYLE
  7
Standard
  9
$CLAYER
  8
0
  9
$CELTYPE
  6
ByLayer
  9
$CECOLOR
 62
   256
  9
$CELTSCALE
 40
1.0
  9
$DISPSILH
 70
     0
  9
$DIMSCALE
 40
1.0
  9
$DIMASZ
 40
2.5
  9
$DIMEXO
 40
0.625
  9
$DIMDLI
 40
3.75
  9
$DIMRND
 40
0.0
  9
$DIMDLE
 40
0.0
  9
$DIMEXE
 40
1.25
  9
$DIMTP
 40
0.0
  9
$DIMTM
 40
0.0
  9
$DIMTXT
 40
2.5
  9
$DIMCEN
 40
2.5
  9
$DIMTSZ
 40
0.0
  9
$DIMTOL
 70
     0
  9
$DIMLIM
 70
     0
  9
$DIMTIH
 70
     0
  9
$DIMTOH
 70
     0
  9
$DIMSE1
 70
     0
  9
$DIMSE2
 70
     0
  9
$DIMTAD
 70
     1
  9
$DIMZIN
 70
     8
  9
$DIMBLK
  1

  9
$DIMASO
 70
     1
  9
$DIMSHO
 70
     1
  9
$DIMPOST
  1

  9
$DIMAPOST
  1

  9
$DIMALT
 70
     0
  9
$DIMALTD
 70
     3
  9
$DIMALTF
 40
0.0393700787
  9
$DIMLFAC
 40
1.0
  9
$DIMTOFL
 70
     1
  9
$DIMTVP
 40
0.0
  9
$DIMTIX
 70
     0
  9
$DIMSOXD
 70
     0
  9
$DIMSAH
 70
     0
  9
$DIMBLK1
  1

  9
$DIMBLK2
  1

  9
$DIMSTYLE
  2
ISO-25
  9
$DIMCLRD
 70
     0
  9
$DIMCLRE
 70
     0
  9
$DIMCLRT
 70
     0
  9
$DIMTFAC
 40
1.0
  9
$DIMGAP
 40
0.625
  9
$DIMJUST
 70
     0
  9
$DIMSD1
 70
     0
  9
$DIMSD2
 70
     0
  9
$DIMTOLJ
 70
     0
  9
$DIMTZIN
 70
     8
  9
$DIMALTZ
 70
     0
  9
$DIMALTTZ
 70
     0
  9
$DIMUPT
 70
     0
  9
$DIMDEC
 70
     2
  9
$DIMTDEC
 70
     2
  9
$DIMALTU
 70
     2
  9
$DIMALTTD
 70
     3
  9
$DIMTXSTY
  7
Standard
  9
$DIMAUNIT
 70
     0
  9
$DIMADEC
 70
     0
  9
$DIMALTRND
 40
0.0
  9
$DIMAZIN
 70
     0
  9
$DIMDSEP
 70
    44
  9
$DIMATFIT
 70
     3
  9
$DIMFRAC
 70
     0
  9
$DIMLDRBLK
  1

  9
$DIMLUNIT
 70
     2
  9
$DIMLWD
 70
    -2
  9
$DIMLWE
 70
    -2
  9
$DIMTMOVE
 70
     0
  9
$LUNITS
 70
     2
  9
$LUPREC
 70
     4
  9
$SKETCHINC
 40
1.0
  9
$FILLETRAD
 40
10.0
  9
$AUNITS
 70
     0
  9
$AUPREC
 70
     0
  9
$MENU
  1
.
  9
$ELEVATION
 40
0.0
  9
$PELEVATION
 40
0.0
  9
$THICKNESS
 40
0.0
  9
$LIMCHECK
 70
     0
  9
$CHAMFERA
 40
10.0
  9
$CHAMFERB
 40
10.0
  9
$CHAMFERC
 40
20.0
  9
$CHAMFERD
 40
0.0
  9
$SKPOLY
 70
     0
  9
$TDCREATE
 40
2455695.503840822
  9
$TDUCREATE
 40
2455695.420507488
  9
$TDUPDATE
 40
2455695.503840833
  9
$TDUUPDATE
 40
2455695.4205075
  9
$TDINDWG
 40
0.0000000116
  9
$TDUSRTIMER
 40
0.0000000116
  9
$USRTIMER
 70
     1
  9
$ANGBASE
 50
0.0
  9
$ANGDIR
 70
     0
  9
$PDMODE
 70
     0
  9
$PDSIZE
 40
0.0
  9
$PLINEWID
 40
0.0
  9
$SPLFRAME
 70
     0
  9
$SPLINETYPE
 70
     6
  9
$SPLINESEGS
 70
     8
  9
$HANDSEED
  5
145
  9
$SURFTAB1
 70
     6
  9
$SURFTAB2
 70
     6
  9
$SURFTYPE
 70
     6
  9
$SURFU
 70
     6
  9
$SURFV
 70
     6
  9
$UCSBASE
  2

  9
$UCSNAME
  2

  9
$UCSORG
 10
0.0
 20
0.0
 30
0.0
  9
$UCSXDIR
 10
1.0
 20
0.0
 30
0.0
  9
$UCSYDIR
 10
0.0
 20
1.0
 30
0.0
  9
$UCSORTHOREF
  2

  9
$UCSORTHOVIEW
 70
     0
  9
$UCSORGTOP
 10
0.0
 20
0.0
 30
0.0
  9
$UCSORGBOTTOM
 10
0.0
 20
0.0
 30
0.0
  9
$UCSORGLEFT
 10
0.0
 20
0.0
 30
0.0
  9
$UCSORGRIGHT
 10
0.0
 20
0.0
 30
0.0
  9
$UCSORGFRONT
 10
0.0
 20
0.0
 30
0.0
  9
$UCSORGBACK
 10
0.0
 20
0.0
 30
0.0
  9
$PUCSBASE
  2

  9
$PUCSNAME
  2

  9
$PUCSORG
 10
0.0
 20
0.0
 30
0.0
  9
$PUCSXDIR
 10
1.0
 20
0.0
 30
0.0
  9
$PUCSYDIR
 10
0.0
 20
1.0
 30
0.0
  9
$PUCSORTHOREF
  2

  9
$PUCSORTHOVIEW
 70
     0
  9
$PUCSORGTOP
 10
0.0
 20
0.0
 30
0.0
  9
$PUCSORGBOTTOM
 10
0.0
 20
0.0
 30
0.0
  9
$PUCSORGLEFT
 10
0.0
 20
0.0
 30
0.0
  9
$PUCSORGRIGHT
 10
0.0
 20
0.0
 30
0.0
  9
$PUCSORGFRONT
 10
0.0
 20
0.0
 30
0.0
  9
$PUCSORGBACK
 10
0.0
 20
0.0
 30
0.0
  9
$USERI1
 70
     0
  9
$USERI2
 70
     0
  9
$USERI3
 70
     0
  9
$USERI4
 70
     0
  9
$USERI5
 70
     0
  9
$USERR1
 40
0.0
  9
$USERR2
 40
0.0
  9
$USERR3
 40
0.0
  9
$USERR4
 40
0.0
  9
$USERR5
 40
0.0
  9
$WORLDVIEW
 70
     1
  9
$SHADEDGE
 70
     3
  9
$SHADEDIF
 70
    70
  9
$TILEMODE
 70
     1
  9
$MAXACTVP
 70
    64
  9
$PINSBASE
 10
0.0
 20
0.0
 30
0.0
  9
$PLIMCHECK
 70
     0
  9
$PEXTMIN
 10
0.0
 20
0.0
 30
0.0
  9
$PEXTMAX
 10
1682.0
 20
2378.0
 30
0.0
  9
$PLIMMIN
 10
0.0
 20
0.0
  9
$PLIMMAX
 10
1682.0
 20
2378.0
  9
$UNITMODE
 70
     0
  9
$VISRETAIN
 70
     1
  9
$PLINEGEN
 70
     0
  9
$PSLTSCALE
 70
     1
  9
$TREEDEPTH
 70
  3020
  9
$CMLSTYLE
  2
Standard
  9
$CMLJUST
 70
     0
  9
$CMLSCALE
 40
20.0
  9
$PROXYGRAPHICS
 70
     1
  9
$MEASUREMENT
 70
     1
  9
$CELWEIGHT
370
    -1
  9
$ENDCAPS
280
     0
  9
$JOINSTYLE
280
     0
  9
$LWDISPLAY
290
     0
  9
$INSUNITS
 70
     4
  9
$HYPERLINKBASE
  1

  9
$STYLESHEET
  1

  9
$XEDIT
290
     1
  9
$CEPSNTYPE
380
     0
  9
$PSTYLEMODE
290
     1
  9
$FINGERPRINTGUID
  2
{488CFA8F-803A-4CC0-A444-61FF9A709A1B}
  9
$VERSIONGUID
  2
{FAEB1C32-E019-11D5-929B-00C0DF256EC4}
  9
$EXTNAMES
290
     1
  9
$PSVPSCALE
 40
0.0
  9
$OLESTARTUP
290
     0
  0
ENDSEC
  0
SECTION
  2
CLASSES
  0
CLASS
  1
ACDBDICTIONARYWDFLT
  2
AcDbDictionaryWithDefault
  3
ObjectDBX Classes
 90
        0
280
     0
281
     0
  0
CLASS
  1
VISUALSTYLE
  2
AcDbVisualStyle
  3
ObjectDBX Classes
 90
     4095
280
     0
281
     0
  0
CLASS
  1
SCALE
  2
AcDbScale
  3
ObjectDBX Classes
 90
     1153
280
     0
281
     0
  0
CLASS
  1
DICTIONARYVAR
  2
AcDbDictionaryVar
  3
ObjectDBX Classes
 90
        0
280
     0
281
     0
  0
CLASS
  1
ACDBPLACEHOLDER
  2
AcDbPlaceHolder
  3
ObjectDBX Classes
 90
        0
280
     0
281
     0
  0
CLASS
  1
LAYOUT
  2
AcDbLayout
  3
ObjectDBX Classes
 90
        0
280
     0
281
     0
  0
ENDSEC
  0
SECTION
  2
TABLES
  0
TABLE
  2
VPORT
  5
8
330
0
100
AcDbSymbolTable
 70
     1
  0
VPORT
  5
29
330
8
100
AcDbSymbolTableRecord
100
AcDbViewportTableRecord
  2
*Active
 70
     0
 10
0.0
 20
0.0
 11
1.0
 21
1.0
 12
344.1869158879
 22
148.5
 13
0.0
 23
0.0
 14
10.0
 24
10.0
 15
10.0
 25
10.0
 16
0.0
 26
0.0
 36
1.0
 17
0.0
 27
0.0
 37
0.0
 40
297.0
 41
1.9729729729
 42
50.0
 43
0.0
 44
0.0
 50
0.0
 51
0.0
 71
     0
 72
   100
 73
     1
 74
     3
 75
     0
 76
     0
 77
     0
 78
     0
281
     0
 65
     1
110
0.0
120
0.0
130
0.0
111
1.0
121
0.0
131
0.0
112
0.0
122
1.0
132
0.0
 79
     0
146
0.0
  0
ENDTAB
  0
TABLE
  2
LTYPE
  5
5
330
0
100
AcDbSymbolTable
 70
     2
  0
LTYPE
  5
14
330
5
100
AcDbSymbolTableRecord
100
AcDbLinetypeTableRecord
  2
ByBlock
 70
     0
  3

 72
    65
 73
     0
 40
0.0
  0
LTYPE
  5
15
330
5
100
AcDbSymbolTableRecord
100
AcDbLinetypeTableRecord
  2
ByLayer
 70
     0
  3

 72
    65
 73
     0
 40
0.0
  0
LTYPE
  5
16
330
5
100
AcDbSymbolTableRecord
100
AcDbLinetypeTableRecord
  2
Continuous
 70
     0
  3
Solid line
 72
    65
 73
     0
 40
0.0
  0
LTYPE
  5
60
330
5
100
AcDbSymbolTableRecord
100
AcDbLinetypeTableRecord
  2
CENTER2
 70
     0
  3
Center (.5x) ___ _ ___ _ ___ _ ___ _ ___ _ ___
 72
    65
 73
     4
 40
28.575
 49
19.05
 74
     4
 75
     0
340
0
 46
0.0
 50
0.0
 44
0.0
 45
0.0
 49
-3.175
 74
     4
 75
     0
340
0
 46
0.0
 50
0.0
 44
0.0
 45
0.0
 49
3.175
 74
     4
 75
     0
340
0
 46
0.0
 50
0.0
 44
0.0
 45
0.0
 49
-3.175
 74
     4
 75
     0
340
0
 46
0.0
 50
0.0
 44
0.0
 45
0.0
  0
ENDTAB
  0
TABLE
  2
LAYER
  5
2
330
0
100
AcDbSymbolTable
 70
    11
  0
LAYER
  5
10
330
2
100
AcDbSymbolTableRecord
100
AcDbLayerTableRecord
  2
0
 70
     0
 62
     7
  6
Continuous
370
    -3
390
F
  0
LAYER
  5
5D
330
2
100
AcDbSymbolTableRecord
100
AcDbLayerTableRecord
  2
Default
 70
     0
 62
     7
  6
Continuous
370
    -3
390
F
  0
LAYER
  5
77
330
2
100
AcDbSymbolTableRecord
100
AcDbLayerTableRecord
  2
$DDT_AUDIT_GENERATED_(77)
 70
     0
 62
     7
  6
Continuous
370
    -3
390
F
  0
LAYER
  5
94
330
2
100
AcDbSymbolTableRecord
100
AcDbLayerTableRecord
  2
$DDT_AUDIT_GENERATED_(94)
 70
     0
 62
     7
  6
Continuous
370
    -3
390
F
  0
LAYER
  5
96
330
2
100
AcDbSymbolTableRecord
100
AcDbLayerTableRecord
  2
$DDT_AUDIT_GENERATED_(96)
 70
     0
 62
     7
  6
Continuous
370
    -3
390
F
  0
LAYER
  5
BD
330
2
100
AcDbSymbolTableRecord
100
AcDbLayerTableRecord
  2
$DDT_AUDIT_GENERATED_(BD)
 70
     0
 62
     7
  6
Continuous
370
    -3
390
F
  0
LAYER
  5
C0
330
2
100
AcDbSymbolTableRecord
100
AcDbLayerTableRecord
  2
$DDT_AUDIT_GENERATED_(C0)
 70
     0
 62
     7
  6
Continuous
370
    -3
390
F
  0
LAYER
  5
C6
330
2
100
AcDbSymbolTableRecord
100
AcDbLayerTableRecord
  2
$DDT_AUDIT_GENERATED_(C6)
 70
     0
 62
     7
  6
Continuous
370
    -3
390
F
  0
LAYER
  5
CA
330
2
100
AcDbSymbolTableRecord
100
AcDbLayerTableRecord
  2
$DDT_AUDIT_GENERATED_(CA)
 70
     0
 62
     7
  6
Continuous
370
    -3
390
F
  0
LAYER
  5
12D
330
2
100
AcDbSymbolTableRecord
100
AcDbLayerTableRecord
  2
$DDT_AUDIT_GENERATED_(12D)
 70
     0
 62
     7
  6
Continuous
370
    -3
390
F
  0
LAYER
  5
130
330
2
100
AcDbSymbolTableRecord
100
AcDbLayerTableRecord
  2
$DDT_AUDIT_GENERATED_(130)
 70
     0
 62
     7
  6
Continuous
370
    -3
390
F
  0
ENDTAB
  0
TABLE
  2
STYLE
  5
3
330
0
100
AcDbSymbolTable
 70
     2
  0
STYLE
  5
11
330
3
100
AcDbSymbolTableRecord
100
AcDbTextStyleTableRecord
  2
Standard
 70
     0
 40
0.0
 41
1.0
 50
0.0
 71
     0
 42
2.5
  3
txt
  4

  0
STYLE
  5
134
330
3
100
AcDbSymbolTableRecord
100
AcDbTextStyleTableRecord
  2
SEACAD_seiso_ttf
 70
     0
 40
0.0
 41
1.0
 50
0.0
 71
     0
 42
0.2
  3
seiso.ttf
  4

  0
ENDTAB
  0
TABLE
  2
VIEW
  5
6
330
0
100
AcDbSymbolTable
 70
     0
  0
ENDTAB
  0
TABLE
  2
UCS
  5
7
330
0
100
AcDbSymbolTable
 70
     0
  0
ENDTAB
  0
TABLE
  2
APPID
  5
9
330
0
100
AcDbSymbolTable
 70
     1
  0
APPID
  5
12
330
9
100
AcDbSymbolTableRecord
100
AcDbRegAppTableRecord
  2
ACAD
 70
     0
  0
ENDTAB
  0
TABLE
  2
DIMSTYLE
  5
A
330
0
100
AcDbSymbolTable
 70
     1
100
AcDbDimStyleTable
  0
DIMSTYLE
105
27
330
A
100
AcDbSymbolTableRecord
100
AcDbDimStyleTableRecord
  2
ISO-25
 70
     0
 41
2.5
 42
0.625
 43
3.75
 44
1.25
 73
     0
 74
     0
 77
     1
 78
     8
140
2.5
141
2.5
143
0.0393700787
147
0.625
171
     3
172
     1
271
     2
272
     2
274
     3
278
    44
283
     0
284
     8
340
11
  0
ENDTAB
  0
TABLE
  2
BLOCK_RECORD
  5
1
330
0
100
AcDbSymbolTable
 70
     7
  0
BLOCK_RECORD
  5
1F
330
1
100
AcDbSymbolTableRecord
100
AcDbBlockTableRecord
  2
*Model_Space
340
22
  0
BLOCK_RECORD
  5
1B
330
1
100
AcDbSymbolTableRecord
100
AcDbBlockTableRecord
  2
*Paper_Space
340
1E
  0
BLOCK_RECORD
  5
5E
330
1
100
AcDbSymbolTableRecord
100
AcDbBlockTableRecord
  2
SEANNOT_GROUP
340
0
102
{BLKREFS
331
5F
102
}
  0
BLOCK_RECORD
  5
65
330
1
100
AcDbSymbolTableRecord
100
AcDbBlockTableRecord
  2
SEANNOT_GROUP1
340
0
102
{BLKREFS
331
66
102
}
  0
BLOCK_RECORD
  5
6B
330
1
100
AcDbSymbolTableRecord
100
AcDbBlockTableRecord
  2
SEANNOT_GROUP2
340
0
102
{BLKREFS
331
6C
102
}
  0
BLOCK_RECORD
  5
75
330
1
100
AcDbSymbolTableRecord
100
AcDbBlockTableRecord
  2
SE
340
0
102
{BLKREFS
331
76
102
}
  0
BLOCK_RECORD
  5
D0
330
1
100
AcDbSymbolTableRecord
100
AcDbBlockTableRecord
  2
SE1
340
0
102
{BLKREFS
331
D1
102
}
  0
BLOCK_RECORD
  5
102
330
1
100
AcDbSymbolTableRecord
100
AcDbBlockTableRecord
  2
SE2
340
0
102
{BLKREFS
331
103
102
}
  0
ENDTAB
  0
ENDSEC
  0
SECTION
  2
BLOCKS
  0
BLOCK
  5
20
330
1F
100
AcDbEntity
  8
0
100
AcDbBlockBegin
  2
*Model_Space
 70
     0
 10
0.0
 20
0.0
 30
0.0
  3
*Model_Space
  1

  0
ENDBLK
  5
21
330
1F
100
AcDbEntity
  8
0
100
AcDbBlockEnd
  0
BLOCK
  5
1C
330
1B
100
AcDbEntity
 67
     1
  8
0
100
AcDbBlockBegin
  2
*Paper_Space
 70
     0
 10
0.0
 20
0.0
 30
0.0
  3
*Paper_Space
  1

  0
ENDBLK
  5
1D
330
1B
100
AcDbEntity
 67
     1
  8
0
100
AcDbBlockEnd
  0
BLOCK
  5
63
330
5E
100
AcDbEntity
  8
0
100
AcDbBlockBegin
  2
SEANNOT_GROUP
 70
     0
 10
0.0
 20
0.0
 30
0.0
  3
SEANNOT_GROUP
  1

  0
LINE
  5
61
330
5E
100
AcDbEntity
  8
Default
  6
CENTER2
 62
     7
100
AcDbLine
 10
153.3305528145
 20
441.0194922689
 30
0.0
 11
113.3305537086
 21
441.0194922689
 31
0.0
  0
LINE
  5
62
330
5E
100
AcDbEntity
  8
Default
  6
CENTER2
 62
     7
100
AcDbLine
 10
133.3305532616
 20
461.0194918218
 30
0.0
 11
133.3305532616
 21
421.0194927159
 31
0.0
  0
ENDBLK
  5
64
330
5E
100
AcDbEntity
  8
0
100
AcDbBlockEnd
  0
BLOCK
  5
69
330
65
100
AcDbEntity
  8
0
100
AcDbBlockBegin
  2
SEANNOT_GROUP1
 70
     0
 10
0.0
 20
0.0
 30
0.0
  3
SEANNOT_GROUP1
  1

  0
LINE
  5
67
330
65
100
AcDbEntity
  8
Default
  6
CENTER2
 62
     7
100
AcDbLine
 10
277.406931637
 20
441.0194922689
 30
0.0
 11
237.4069325311
 21
441.0194922689
 31
0.0
  0
LINE
  5
68
330
65
100
AcDbEntity
  8
Default
  6
CENTER2
 62
     7
100
AcDbLine
 10
257.406932084
 20
461.0194918218
 30
0.0
 11
257.406932084
 21
421.0194927159
 31
0.0
  0
ENDBLK
  5
6A
330
65
100
AcDbEntity
  8
0
100
AcDbBlockEnd
  0
BLOCK
  5
73
330
6B
100
AcDbEntity
  8
0
100
AcDbBlockBegin
  2
SEANNOT_GROUP2
 70
     0
 10
0.0
 20
0.0
 30
0.0
  3
SEANNOT_GROUP2
  1

  0
LINE
  5
6D
330
6B
100
AcDbEntity
  8
Default
  6
CENTER2
 62
     7
100
AcDbLine
 10
153.3396021373
 20
336.4483822227
 30
0.0
 11
113.3396030314
 21
336.4483822227
 31
0.0
  0
LINE
  5
6E
330
6B
100
AcDbEntity
  8
Default
  6
CENTER2
 62
     7
100
AcDbLine
 10
133.3396025844
 20
356.4483817757
 30
0.0
 11
133.3396025844
 21
316.4483826697
 31
0.0
  0
LINE
  5
6F
330
6B
100
AcDbEntity
  8
Default
  6
CENTER2
 62
     7
100
AcDbLine
 10
158.3396020256
 20
336.4483822227
 30
0.0
 11
162.373863355
 21
336.4483822227
 31
0.0
  0
LINE
  5
70
330
6B
100
AcDbEntity
  8
Default
  6
CENTER2
 62
     7
100
AcDbLine
 10
133.3396025844
 20
361.4483816639
 30
0.0
 11
133.3396025844
 21
365.4826429934
 31
0.0
  0
LINE
  5
71
330
6B
100
AcDbEntity
  8
Default
  6
CENTER2
 62
     7
100
AcDbLine
 10
108.3396031432
 20
336.4483822227
 30
0.0
 11
104.3053418137
 21
336.4483822227
 31
0.0
  0
LINE
  5
72
330
6B
100
AcDbEntity
  8
Default
  6
CENTER2
 62
     7
100
AcDbLine
 10
133.3396025844
 20
311.4483827815
 30
0.0
 11
133.3396025844
 21
307.4141214521
 31
0.0
  0
ENDBLK
  5
74
330
6B
100
AcDbEntity
  8
0
100
AcDbBlockEnd
  0
BLOCK
  5
CE
330
75
100
AcDbEntity
  8
0
100
AcDbBlockBegin
  2
SE
 70
     0
 10
0.0
 20
0.0
 30
0.0
  3
SE
  1

  0
LINE
  5
78
330
75
100
AcDbEntity
  8
$DDT_AUDIT_GENERATED_(77)
  6
Continuous
 62
     7
100
AcDbLine
 10
282.906932084
 20
441.0194922689
 30
0.0
 11
231.906932084
 21
441.0194922689
 31
0.0
  0
ARC
  5
79
330
75
100
AcDbEntity
  8
$DDT_AUDIT_GENERATED_(77)
  6
Continuous
 62
     7
100
AcDbCircle
 10
288.3953589273
 20
612.948899343
 30
0.0
 40
5.510117039170527
100
AcDbArc
 50
185.085474984
 51
264.9145236226
  0
ARC
  5
7A
330
75
100
AcDbEntity
  8
$DDT_AUDIT_GENERATED_(77)
  6
Continuous
 62
     7
100
AcDbCircle
 10
288.3953586825
 20
572.9720459641
 30
0.0
 40
5.510116791927491
100
AcDbArc
 50
95.0854744196
 51
174.9145251821
  0
ARC
  5
7B
330
75
100
AcDbEntity
  8
$DDT_AUDIT_GENERATED_(77)
  6
Continuous
 62
     7
100
AcDbCircle
 10
318.2935652612
 20
590.025877248
 30
0.0
 40
35.03302058150071
100
AcDbArc
 50
150.1545702288
 51
150.8999427399
  0
LINE
  5
7C
330
75
100
AcDbEntity
  8
$DDT_AUDIT_GENERATED_(77)
  6
Continuous
 62
     7
100
AcDbLine
 10
282.796565373
 20
619.827831317
 30
0.0
 11
282.906932084
 21
619.827831317
 31
0.0
  0
LINE
  5
7D
330
75
100
AcDbEntity
  8
$DDT_AUDIT_GENERATED_(77)
  6
Continuous
 62
     7
100
AcDbLine
 10
232.4068564349
 20
620.327831317
 30
0.0
 11
282.406932084
 21
620.327831317
 31
0.0
  0
ARC
  5
7E
330
75
100
AcDbEntity
  8
$DDT_AUDIT_GENERATED_(77)
  6
Continuous
 62
     7
100
AcDbCircle
 10
232.4556707503
 20
619.7790576872
 30
0.0
 40
0.5509404089070467
100
AcDbArc
 50
95.0831751374
 51
174.9210727076
  0
SPLINE
  5
7F
330
75
100
AcDbEntity
  8
$DDT_AUDIT_GENERATED_(77)
  6
Continuous
 62
     7
100
AcDbSpline
210
0.0
220
0.0
230
1.0
 70
    12
 71
     3
 72
     8
 73
     4
 74
     0
 42
0.0000000118318276
 43
0.0000000001
 40
0.0
 40
0.0
 40
0.0
 40
0.0
 40
1.0
 40
1.0
 40
1.0
 40
1.0
 10
282.9069320840309
 20
619.8278313169936
 30
0.0
 41
1.0
 10
282.9069320840309
 20
620.063533577418
 30
0.0
 41
1.0
 10
282.6426343444372
 20
620.327831317033
 30
0.0
 41
1.0
 10
282.4069320840309
 20
620.327831317022
 30
0.0
 41
1.0
  0
SPLINE
  5
80
330
75
100
AcDbEntity
  8
$DDT_AUDIT_GENERATED_(77)
  6
Continuous
 62
     7
100
AcDbSpline
210
0.0
220
0.0
230
1.0
 70
     8
 71
     3
 72
    10
 73
     6
 74
     0
 42
0.0000000157563103
 43
0.0000000001
 40
0.4984996400754688
 40
0.4984996400754688
 40
0.4984996400754688
 40
0.4984996400754688
 40
0.4999999999999987
 40
0.4999999999999987
 40
0.5001983487457777
 40
0.5001983487457777
 40
0.5001983487457777
 40
0.5001983487457777
 10
467.6561380857426
 20
578.4612017608566
 30
0.0
 10
467.6566068889257
 20
578.4607736402594
 30
0.0
 10
467.6568682864421
 20
578.4605338138939
 30
0.0
 10
467.6569286642924
 20
578.4604763064251
 30
0.0
 10
467.6569319773819
 20
578.4604730093658
 30
0.0
 10
467.6569315563942
 20
578.4604731269161
 30
0.0
  0
ARC
  5
81
330
75
100
AcDbEntity
  8
$DDT_AUDIT_GENERATED_(77)
  6
Continuous
 62
     7
100
AcDbCircle
 10
206.5773879236
 20
558.0194922695
 30
0.0
 40
25.50658360838074
100
AcDbArc
 50
353.2454254676
 51
6.7545750007
  0
LINE
  5
82
330
75
100
AcDbEntity
  8
$DDT_AUDIT_GENERATED_(77)
  6
Continuous
 62
     7
100
AcDbLine
 10
467.6388707898
 20
578.4604725408
 30
0.0
 11
476.7985481515
 21
578.4604725408
 31
0.0
  0
LINE
  5
83
330
75
100
AcDbEntity
  8
$DDT_AUDIT_GENERATED_(77)
  6
Continuous
 62
     7
100
AcDbLine
 10
287.9069562405
 20
578.4604725408
 30
0.0
 11
443.1569321124
 21
578.4604725408
 31
0.0
  0
LINE
  5
84
330
75
100
AcDbEntity
  8
$DDT_AUDIT_GENERATED_(77)
  6
Continuous
 62
     7
100
AcDbLine
 10
482.0037676717
 20
607.4604725408
 30
0.0
 11
287.9069061849
 21
607.4604725408
 31
0.0
  0
ARC
  5
85
330
75
100
AcDbEntity
  8
$DDT_AUDIT_GENERATED_(77)
  6
Continuous
 62
     7
100
AcDbCircle
 10
288.3722401997
 20
573.1006486711
 30
0.0
 40
5.809371262163192
100
AcDbArc
 50
96.5273140373
 51
172.5845186449
  0
ARC
  5
86
330
75
100
AcDbEntity
  8
$DDT_AUDIT_GENERATED_(77)
  6
Continuous
 62
     7
100
AcDbCircle
 10
288.3719447252
 20
612.8199664385
 30
0.0
 40
5.809924321935641
100
AcDbArc
 50
187.4215949014
 51
263.4721535438
  0
ARC
  5
87
330
75
100
AcDbEntity
  8
$DDT_AUDIT_GENERATED_(77)
  6
Continuous
 62
     7
100
AcDbCircle
 10
388.695148979
 20
609.4260565054
 30
0.0
 40
94.32669590938474
100
AcDbArc
 50
341.4439301039
 51
358.3001413847
  0
ARC
  5
88
330
75
100
AcDbEntity
  8
$DDT_AUDIT_GENERATED_(77)
  6
Continuous
 62
     7
100
AcDbCircle
 10
476.7268129368
 20
579.9590216398
 30
0.0
 40
1.50026710972245
100
AcDbArc
 50
272.7406125291
 51
338.4026388045
  0
LINE
  5
89
330
75
100
AcDbEntity
  8
$DDT_AUDIT_GENERATED_(77)
  6
Continuous
 62
     7
100
AcDbLine
 10
282.906932084
 20
612.4604725179
 30
0.0
 11
282.906932084
 21
619.830831317
 31
0.0
  0
LINE
  5
8A
330
75
100
AcDbEntity
  8
$DDT_AUDIT_GENERATED_(77)
  6
Continuous
 62
     7
100
AcDbLine
 10
282.906932084
 20
441.0194922689
 30
0.0
 11
282.906932084
 21
573.4604725543
 31
0.0
  0
LINE
  5
8B
330
75
100
AcDbEntity
  8
$DDT_AUDIT_GENERATED_(77)
  6
Continuous
 62
     7
100
AcDbLine
 10
231.906932084
 20
555.0571061442
 30
0.0
 11
231.906932084
 21
441.0194922688
 31
0.0
  0
LINE
  5
8C
330
75
100
AcDbEntity
  8
$DDT_AUDIT_GENERATED_(77)
  6
Continuous
 62
     7
100
AcDbLine
 10
231.906932084
 20
619.830831317
 30
0.0
 11
231.906932084
 21
561.0194922688
 31
0.0
  0
LINE
  5
8D
330
75
100
AcDbEntity
  8
$DDT_AUDIT_GENERATED_(77)
  6
Continuous
 62
     7
100
AcDbLine
 10
282.7500927643
 20
620.1232318385
 30
0.0
 11
282.7451224128
 21
620.1664175992
 31
0.0
  0
ARC
  5
8E
330
75
100
AcDbEntity
  8
$DDT_AUDIT_GENERATED_(77)
  6
Continuous
 62
     7
100
AcDbCircle
 10
481.8939823902
 20
606.3816357711
 30
0.0
 40
1.084159306494866
100
AcDbArc
 50
4.1881654975
 51
84.3230637925
  0
LINE
  5
8F
330
75
100
AcDbEntity
  8
$DDT_AUDIT_GENERATED_(77)
  6
Continuous
 62
     7
100
AcDbLine
 10
232.0685659954
 20
620.1663185754
 30
0.0
 11
232.0297377216
 21
619.827831317
 31
0.0
  0
LINE
  5
90
330
75
100
AcDbEntity
  8
$DDT_AUDIT_GENERATED_(77)
  6
Continuous
 62
     7
100
AcDbLine
 10
282.7840258339
 20
619.827831317
 30
0.0
 11
282.744827777
 21
620.1667117976
 31
0.0
  0
SPLINE
  5
91
330
75
100
AcDbEntity
  8
$DDT_AUDIT_GENERATED_(77)
  6
Continuous
 62
     7
100
AcDbSpline
210
0.0
220
0.0
230
1.0
 70
     8
 71
     3
 72
    36
 73
    32
 74
     0
 42
0.000000000350949
 43
0.0000000001
 40
0.0165735243668735
 40
0.0165735243668735
 40
0.0165735243668735
 40
0.0165735243668735
 40
0.0273316696786308
 40
0.0499934244331905
 40
0.0822039266796901
 40
0.1172152741244758
 40
0.1536580670079836
 40
0.191037262855287
 40
0.2288474225891068
 40
0.2666102450091362
 40
0.3105331214047968
 40
0.3549960698498012
 40
0.3929590413179562
 40
0.4281917323335842
 40
0.46120179809539
 40
0.4879817878882728
 40
0.5125047145429318
 40
0.5384329062312917
 40
0.5655131667967354
 40
0.5936467201617921
 40
0.6228086858147275
 40
0.6543987957929417
 40
0.6923326178783746
 40
0.7338072762722735
 40
0.7790783492402127
 40
0.823281353273379
 40
0.8658961631795388
 40
0.9023269183267449
 40
0.9407665925151432
 40
0.9774732120988012
 40
1.0
 40
1.0
 40
1.0
 40
1.0
 10
443.5220658512384
 20
578.6206698730141
 30
0.0
 10
443.5219038500329
 20
578.620526871812
 30
0.0
 10
443.5400403740423
 20
578.6374349418528
 30
0.0
 10
443.626010614697
 20
578.7144821777288
 30
0.0
 10
443.842238795685
 20
578.9044240418476
 30
0.0
 10
444.2149169574232
 20
579.2266908292853
 30
0.0
 10
444.7313862789439
 20
579.6662982675088
 30
0.0
 10
445.3792973028999
 20
580.2112468178718
 30
0.0
 10
446.1578337258778
 20
580.8487763001195
 30
0.0
 10
447.065753681096
 20
581.6089503620075
 30
0.0
 10
448.1076496769473
 20
582.4596361778855
 30
0.0
 10
449.2611620501243
 20
583.3187771442125
 30
0.0
 10
450.4416269441269
 20
584.0784513155295
 30
0.0
 10
451.5984818952393
 20
584.6984906662412
 30
0.0
 10
452.711412466466
 20
585.160954179433
 30
0.0
 10
453.7470197844642
 20
585.494318292107
 30
0.0
 10
454.7451641703849
 20
585.6548541203376
 30
0.0
 10
455.765097934581
 20
585.6647570856195
 30
0.0
 10
456.819667177542
 20
585.5277568967357
 30
0.0
 10
457.8761108766092
 20
585.2422106546703
 30
0.0
 10
458.9140510468887
 20
584.7962736501877
 30
0.0
 10
459.9996258517738
 20
584.2245614414761
 30
0.0
 10
461.1339879931697
 20
583.5117371549061
 30
0.0
 10
462.3141425513508
 20
582.6760726550073
 30
0.0
 10
463.4603601633126
 20
581.8158111639059
 30
0.0
 10
464.5037939856226
 20
580.9903387329184
 30
0.0
 10
465.3631706773665
 20
580.282786307381
 30
0.0
 10
466.0670550289491
 20
579.6856894167872
 30
0.0
 10
466.6107132113696
 20
579.21401553095
 30
0.0
 10
466.9765480318782
 20
578.891645255417
 30
0.0
 10
467.1099662267002
 20
578.774738166521
 30
0.0
 10
467.1679914198612
 20
578.7238115025398
 30
0.0
  0
SPLINE
  5
92
330
75
100
AcDbEntity
  8
$DDT_AUDIT_GENERATED_(77)
  6
Continuous
 62
     7
100
AcDbSpline
210
0.0
220
0.0
230
1.0
 70
     8
 71
     3
 72
    15
 73
    11
 74
     0
 42
0.0000000179723854
 43
0.0000000001
 40
0.0
 40
0.0
 40
0.0
 40
0.0
 40
0.3197844251289839
 40
0.6301089135217168
 40
0.8016985671552327
 40
0.8377936716349527
 40
0.8629005581836535
 40
0.8897324712553393
 40
0.9423524495505052
 40
1.0
 40
1.0
 40
1.0
 40
1.0
 10
467.1679914198612
 20
578.7238115025398
 30
0.0
 10
467.203834909756
 20
578.6926189232744
 30
0.0
 10
467.2613839177788
 20
578.6423203162225
 30
0.0
 10
467.3118229516738
 20
578.6004709441972
 30
0.0
 10
467.3258644491304
 20
578.5876634038331
 30
0.0
 10
467.3597680785047
 20
578.5627621048462
 30
0.0
 10
467.3873587253148
 20
578.544548466
 30
0.0
 10
467.4408782152485
 20
578.5150112574147
 30
0.0
 10
467.5316898899484
 20
578.4800643220603
 30
0.0
 10
467.6023196717595
 20
578.4774597739569
 30
0.0
 10
467.6459815676987
 20
578.4762127339245
 30
0.0
  0
SPLINE
  5
93
330
75
100
AcDbEntity
  8
$DDT_AUDIT_GENERATED_(77)
  6
Continuous
 62
     7
100
AcDbSpline
210
0.0
220
0.0
230
1.0
 70
     8
 71
     3
 72
    16
 73
    12
 74
     0
 42
0.0000000010914722
 43
0.0000000001
 40
0.0
 40
0.0
 40
0.0
 40
0.0
 40
0.0011284801838428
 40
0.0025813226979742
 40
0.0036103934144103
 40
0.0047694683694391
 40
0.0067002997318646
 40
0.0113221705438959
 40
0.0252041561048826
 40
0.0556968985658396
 40
0.0671764768390529
 40
0.0671764768390529
 40
0.0671764768390529
 40
0.0671764768390529
 10
443.3319694563641
 20
578.5038154887693
 30
0.0
 10
443.3478518545977
 20
578.5089583280118
 30
0.0
 10
443.3786271304231
 20
578.5189073711539
 30
0.0
 10
443.4180114689505
 20
578.5405164802241
 30
0.0
 10
443.4445409504419
 20
578.5569002365831
 30
0.0
 10
443.4629222604075
 20
578.5696015443424
 30
0.0
 10
443.4809875714744
 20
578.583063955917
 30
0.0
 10
443.5025129145948
 20
578.6004313512127
 30
0.0
 10
443.5491637069691
 20
578.6395545861956
 30
0.0
 10
443.6617688188606
 20
578.7371443912805
 30
0.0
 10
443.7823557844579
 20
578.8430444992006
 30
0.0
 10
443.8179687061686
 20
578.8743465830663
 30
0.0
  0
LINE
  5
95
330
75
100
AcDbEntity
  8
$DDT_AUDIT_GENERATED_(94)
  6
Continuous
 62
     7
100
AcDbLine
 10
231.95690986
 20
555.4467730197
 30
0.0
 11
231.95690986
 21
560.5821295496
 31
0.0
  0
ELLIPSE
  5
97
330
75
100
AcDbEntity
  8
$DDT_AUDIT_GENERATED_(96)
  6
Continuous
 62
     7
100
AcDbEllipse
 10
281.8971208041
 20
658.9186209765
 30
0.0
 11
0.4079999881742152
 21
-3.045093066589288E-7
 31
0.0
210
0.0
220
0.0
230
1.0
 40
0.9842932026
 41
0.0174404049426082
 42
0.8767624368564858
  0
SPLINE
  5
98
330
75
100
AcDbEntity
  8
$DDT_AUDIT_GENERATED_(96)
  6
Continuous
 62
     7
100
AcDbSpline
210
0.0
220
0.0
230
1.0
 70
     8
 71
     3
 72
     9
 73
     5
 74
     0
 42
0.0000000027456289
 43
0.0000000001
 40
0.0
 40
0.0
 40
0.0
 40
0.0
 40
0.0157014314077876
 40
0.0313329111443217
 40
0.0313329111443217
 40
0.0313329111443217
 40
0.0313329111443217
 10
280.3124688468296
 20
660.528908340369
 30
0.0
 10
280.3070308272572
 20
660.5280168259319
 30
0.0
 10
280.296179015111
 20
660.5262377688516
 30
0.0
 10
280.2378504623316
 20
660.5167249953728
 30
0.0
 10
280.1998396895587
 20
660.5105269608326
 30
0.0
  0
ARC
  5
99
330
75
100
AcDbEntity
  8
$DDT_AUDIT_GENERATED_(96)
  6
Continuous
 62
     7
100
AcDbCircle
 10
-1879.9095538268
 20
13612.9674249709
 30
0.0
 40
13132.93262785677
100
AcDbArc
 50
279.4736347789
 51
279.4755033223
  0
LINE
  5
9A
330
75
100
AcDbEntity
  8
$DDT_AUDIT_GENERATED_(96)
  6
Continuous
 62
     7
100
AcDbLine
 10
282.1580954184
 20
659.2273130221
 30
0.0
 11
280.753046482
 21
660.3781485135
 31
0.0
  0
LINE
  5
9B
330
75
100
AcDbEntity
  8
$DDT_AUDIT_GENERATED_(96)
  6
Continuous
 62
     7
100
AcDbLine
 10
234.0222703854
 20
652.7734824813
 30
0.0
 11
232.5013847168
 21
651.0370299026
 31
0.0
  0
LINE
  5
9C
330
75
100
AcDbEntity
  8
$DDT_AUDIT_GENERATED_(96)
  6
Continuous
 62
     7
100
AcDbLine
 10
232.5013899356
 20
651.0370332828
 30
0.0
 11
232.501424013
 21
651.0370414004
 31
0.0
  0
ELLIPSE
  5
9D
330
75
100
AcDbEntity
  8
$DDT_AUDIT_GENERATED_(96)
  6
Continuous
 62
     7
100
AcDbEllipse
 10
234.5249999861
 20
652.3475259004
 30
0.0
 11
-0.6631666339274866
 21
0.01410561763814933
 31
0.0
210
0.0
220
0.0
230
1.0
 40
0.9835910716
 41
5.040192163187299
 42
5.593426108404654
  0
ELLIPSE
  5
9E
330
75
100
AcDbEntity
  8
$DDT_AUDIT_GENERATED_(96)
  6
Continuous
 62
     7
100
AcDbEllipse
 10
280.328962725
 20
659.8765239392
 30
0.0
 11
0.662999994071059
 21
-4.554416566104891E-7
 31
0.0
210
0.0
220
0.0
230
1.0
 40
0.9842931822
 41
0.8767623777590939
 42
1.595677214232248
  0
LINE
  5
9F
330
75
100
AcDbEntity
  8
$DDT_AUDIT_GENERATED_(96)
  6
Continuous
 62
     7
100
AcDbLine
 10
232.4025456844
 20
650.7818159663
 30
0.0
 11
232.3697085326
 21
648.9286783454
 31
0.0
  0
LINE
  5
A0
330
75
100
AcDbEntity
  8
$DDT_AUDIT_GENERATED_(96)
  6
Continuous
 62
     7
100
AcDbLine
 10
349.8841882838
 20
658.742364633
 30
0.0
 11
349.8841882838
 21
663.6164103969
 31
0.0
  0
LINE
  5
A1
330
75
100
AcDbEntity
  8
$DDT_AUDIT_GENERATED_(96)
  6
Continuous
 62
     7
100
AcDbLine
 10
349.8841882838
 20
658.742364633
 30
0.0
 11
349.8841882838
 21
653.8683188692
 31
0.0
  0
LINE
  5
A2
330
75
100
AcDbEntity
  8
$DDT_AUDIT_GENERATED_(96)
  6
Continuous
 62
     7
100
AcDbLine
 10
282.4034363504
 20
653.3737653019
 30
0.0
 11
282.3050587488
 21
658.9256242373
 31
0.0
  0
ARC
  5
A3
330
75
100
AcDbEntity
  8
$DDT_AUDIT_GENERATED_(96)
  6
Continuous
 62
     7
100
AcDbCircle
 10
310.9790810478
 20
647.364979902
 30
0.0
 40
29.20056458105593
100
AcDbArc
 50
168.1250507885
 51
180.7852375237
  0
ARC
  5
A4
330
75
100
AcDbEntity
  8
$DDT_AUDIT_GENERATED_(96)
  6
Continuous
 62
     7
100
AcDbCircle
 10
283.1033264802
 20
653.3861671863
 30
0.0
 40
0.7000000003150161
100
AcDbArc
 50
181.015161156
 51
280.0000030413
  0
ARC
  5
A5
330
75
100
AcDbEntity
  8
$DDT_AUDIT_GENERATED_(96)
  6
Continuous
 62
     7
100
AcDbCircle
 10
283.3257461596
 20
640.8340957005
 30
0.0
 40
0.6999999989775845
100
AcDbArc
 50
100.0000030413
 51
181.0151611559
  0
LINE
  5
A6
330
75
100
AcDbEntity
  8
$DDT_AUDIT_GENERATED_(96)
  6
Continuous
 62
     7
100
AcDbLine
 10
232.2471048689
 20
642.0096415465
 30
0.0
 11
232.2169918759
 21
640.3102395842
 31
0.0
  0
LINE
  5
A7
330
75
100
AcDbEntity
  8
$DDT_AUDIT_GENERATED_(96)
  6
Continuous
 62
     7
100
AcDbLine
 10
282.940068395
 20
623.0893777677
 30
0.0
 11
282.6258560305
 21
640.8216938161
 31
0.0
  0
LINE
  5
A8
330
75
100
AcDbEntity
  8
$DDT_AUDIT_GENERATED_(96)
  6
Continuous
 62
     7
100
AcDbLine
 10
259.6755773136
 20
623.037786276
 30
0.0
 11
232.3109766315
 21
640.1370865694
 31
0.0
  0
LINE
  5
A9
330
75
100
AcDbEntity
  8
$DDT_AUDIT_GENERATED_(96)
  6
Continuous
 62
     7
100
AcDbLine
 10
282.7400997866
 20
622.8858343721
 30
0.0
 11
260.2054965778
 21
622.8858343721
 31
0.0
  0
ARC
  5
AA
330
75
100
AcDbEntity
  8
$DDT_AUDIT_GENERATED_(96)
  6
Continuous
 62
     7
100
AcDbCircle
 10
260.2052942049
 20
623.8851286139
 30
0.0
 40
0.9992942622370534
100
AcDbArc
 50
237.9883966967
 51
270.0116033034
  0
ARC
  5
AB
330
75
100
AcDbEntity
  8
$DDT_AUDIT_GENERATED_(96)
  6
Continuous
 62
     7
100
AcDbCircle
 10
282.7400997866
 20
623.0858343721
 30
0.0
 40
0.199999999999891
100
AcDbArc
 50
270.0000000001
 51
1.0151611559
  0
ARC
  5
AC
330
75
100
AcDbEntity
  8
$DDT_AUDIT_GENERATED_(96)
  6
Continuous
 62
     7
100
AcDbCircle
 10
232.4169604844
 20
640.3066961887
 30
0.0
 40
0.2000000000000005
100
AcDbArc
 50
178.9848388441
 51
238.0
  0
LINE
  5
AD
330
75
100
AcDbEntity
  8
$DDT_AUDIT_GENERATED_(96)
  6
Continuous
 62
     7
100
AcDbLine
 10
232.2471048689
 20
642.0096415465
 30
0.0
 11
232.2525598628
 21
642.3174896356
 31
0.0
  0
ARC
  5
AE
330
75
100
AcDbEntity
  8
$DDT_AUDIT_GENERATED_(96)
  6
Continuous
 62
     7
100
AcDbCircle
 10
207.2972133026
 20
646.1164251262
 30
0.0
 40
25.2297202764585
100
AcDbArc
 50
6.3524645558
 51
6.3998245879
  0
ARC
  5
AF
330
75
100
AcDbEntity
  8
$DDT_AUDIT_GENERATED_(96)
  6
Continuous
 62
     7
100
AcDbCircle
 10
207.2971542591
 20
646.1164261724
 30
0.0
 40
25.22977883534199
100
AcDbArc
 50
351.5698704073
 51
6.3998072808
  0
ARC
  5
B0
330
75
100
AcDbEntity
  8
$DDT_AUDIT_GENERATED_(96)
  6
Continuous
 62
     7
100
AcDbCircle
 10
232.6833091622
 20
650.8106243141
 30
0.0
 40
0.2765871653960875
100
AcDbArc
 50
139.493694453
 51
153.2985953893
  0
ARC
  5
B1
330
75
100
AcDbEntity
  8
$DDT_AUDIT_GENERATED_(96)
  6
Continuous
 62
     7
100
AcDbCircle
 10
284.4044887863
 20
491.996898356
 30
0.0
 40
168.5781649505079
100
AcDbArc
 50
91.3908778588
 51
107.2813538593
  0
LINE
  5
B2
330
75
100
AcDbEntity
  8
$DDT_AUDIT_GENERATED_(96)
  6
Continuous
 62
     7
100
AcDbLine
 10
281.7320003219
 20
659.1100184689
 30
0.0
 11
280.2227024667
 21
660.3674316449
 31
0.0
  0
ARC
  5
B3
330
75
100
AcDbEntity
  8
$DDT_AUDIT_GENERATED_(96)
  6
Continuous
 62
     7
100
AcDbCircle
 10
280.299962138
 20
659.8527198476
 30
0.0
 40
0.671783585860295
100
AcDbArc
 50
50.8280001764
 51
91.3404480725
  0
LINE
  5
B4
330
75
100
AcDbEntity
  8
$DDT_AUDIT_GENERATED_(96)
  6
Continuous
 62
     7
100
AcDbLine
 10
232.7478845194
 20
650.8448632523
 30
0.0
 11
232.5595330853
 21
640.0703452101
 31
0.0
  0
LINE
  5
B5
330
75
100
AcDbEntity
  8
$DDT_AUDIT_GENERATED_(96)
  6
Continuous
 62
     7
100
AcDbLine
 10
232.4291323839
 20
650.8074819766
 30
0.0
 11
232.43301237
 21
650.7867378891
 31
0.0
  0
ARC
  5
B6
330
75
100
AcDbEntity
  8
$DDT_AUDIT_GENERATED_(96)
  6
Continuous
 62
     7
100
AcDbCircle
 10
232.5827770704
 20
650.8628484485
 30
0.0
 40
0.1633160613415207
100
AcDbArc
 50
153.818454809
 51
199.8168282111
  0
ARC
  5
B7
330
75
100
AcDbEntity
  8
$DDT_AUDIT_GENERATED_(96)
  6
Continuous
 62
     7
100
AcDbCircle
 10
281.8749898385
 20
658.9126124442
 30
0.0
 40
0.3996401083204936
100
AcDbArc
 50
1.1424618662
 51
50.7821757375
  0
ARC
  5
B8
330
75
100
AcDbEntity
  8
$DDT_AUDIT_GENERATED_(96)
  6
Continuous
 62
     7
100
AcDbCircle
 10
234.6338315558
 20
652.3578266433
 30
0.0
 40
0.6604334404477314
100
AcDbArc
 50
112.2780236879
 51
138.8678977082
  0
LINE
  5
B9
330
75
100
AcDbEntity
  8
$DDT_AUDIT_GENERATED_(96)
  6
Continuous
 62
     7
100
AcDbLine
 10
283.2041955471
 20
641.5234616675
 30
0.0
 11
349.3167258214
 21
653.1808881661
 31
0.0
  0
LINE
  5
BA
330
75
100
AcDbEntity
  8
$DDT_AUDIT_GENERATED_(96)
  6
Continuous
 62
     7
100
AcDbLine
 10
349.0516507463
 20
664.3038411
 30
0.0
 11
283.2248704186
 21
652.6968000424
 31
0.0
  0
ARC
  5
BB
330
75
100
AcDbEntity
  8
$DDT_AUDIT_GENERATED_(96)
  6
Continuous
 62
     7
100
AcDbCircle
 10
349.1841882422
 20
663.6164116732
 30
0.0
 40
0.6999998858724001
100
AcDbArc
 50
0.0
 51
100.8874138721
  0
ARC
  5
BC
330
75
100
AcDbEntity
  8
$DDT_AUDIT_GENERATED_(96)
  6
Continuous
 62
     7
100
AcDbCircle
 10
349.1841883254
 20
653.8683175929
 30
0.0
 40
0.6999999584126027
100
AcDbArc
 50
280.8874138721
 51
0.0
  0
LINE
  5
BE
330
75
100
AcDbEntity
  8
$DDT_AUDIT_GENERATED_(BD)
  6
Continuous
 62
     7
100
AcDbLine
 10
232.2464889331
 20
642.3179674282
 30
0.0
 11
232.5260040138
 21
645.8695432704
 31
0.0
  0
LINE
  5
BF
330
75
100
AcDbEntity
  8
$DDT_AUDIT_GENERATED_(BD)
  6
Continuous
 62
     7
100
AcDbLine
 10
232.2464889331
 20
642.3179674282
 30
0.0
 11
232.2525598628
 21
642.3174896357
 31
0.0
  0
LINE
  5
C1
330
75
100
AcDbEntity
  8
$DDT_AUDIT_GENERATED_(C0)
  6
Continuous
 62
     7
100
AcDbLine
 10
444.831932084
 20
568.9604716962
 30
0.0
 11
465.981932084
 21
568.9604716962
 31
0.0
  0
LINE
  5
C2
330
75
100
AcDbEntity
  8
$DDT_AUDIT_GENERATED_(C0)
  6
Continuous
 62
     7
100
AcDbLine
 10
466.981932084
 20
569.9604716962
 30
0.0
 11
466.981932084
 21
578.887104497
 31
0.0
  0
LINE
  5
C3
330
75
100
AcDbEntity
  8
$DDT_AUDIT_GENERATED_(C0)
  6
Continuous
 62
     7
100
AcDbLine
 10
443.831932084
 20
578.8946405905
 30
0.0
 11
443.831932084
 21
569.9604716962
 31
0.0
  0
ARC
  5
C4
330
75
100
AcDbEntity
  8
$DDT_AUDIT_GENERATED_(C0)
  6
Continuous
 62
     7
100
AcDbCircle
 10
465.981932084
 20
569.9604716962
 30
0.0
 40
1.000000000000001
100
AcDbArc
 50
270.0
 51
0.0
  0
ARC
  5
C5
330
75
100
AcDbEntity
  8
$DDT_AUDIT_GENERATED_(C0)
  6
Continuous
 62
     7
100
AcDbCircle
 10
444.831932084
 20
569.9604716962
 30
0.0
 40
1.000000000000001
100
AcDbArc
 50
180.0
 51
270.0
  0
LINE
  5
C7
330
75
100
AcDbEntity
  8
$DDT_AUDIT_GENERATED_(C6)
  6
Continuous
 62
     7
100
AcDbLine
 10
446.406932084
 20
568.7104716962
 30
0.0
 11
464.406932084
 21
568.7104716962
 31
0.0
  0
LINE
  5
C8
330
75
100
AcDbEntity
  8
$DDT_AUDIT_GENERATED_(C6)
  6
Continuous
 62
     7
100
AcDbLine
 10
446.406932084
 20
568.9604716962
 30
0.0
 11
446.406932084
 21
568.7104716962
 31
0.0
  0
LINE
  5
C9
330
75
100
AcDbEntity
  8
$DDT_AUDIT_GENERATED_(C6)
  6
Continuous
 62
     7
100
AcDbLine
 10
464.406932084
 20
568.7104716962
 30
0.0
 11
464.406932084
 21
568.9604716962
 31
0.0
  0
LINE
  5
CB
330
75
100
AcDbEntity
  8
$DDT_AUDIT_GENERATED_(CA)
  6
Continuous
 62
     7
100
AcDbLine
 10
243.1706610806
 20
633.2992019448
 30
0.0
 11
242.406932084
 21
633.2992019448
 31
0.0
  0
ARC
  5
CC
330
75
100
AcDbEntity
  8
$DDT_AUDIT_GENERATED_(CA)
  6
Continuous
 62
     7
100
AcDbCircle
 10
257.406932084
 20
613.927831317
 30
0.0
 40
24.49999999999999
100
AcDbArc
 50
15.1427314405
 51
21.5363817208
  0
ARC
  5
CD
330
75
100
AcDbEntity
  8
$DDT_AUDIT_GENERATED_(CA)
  6
Continuous
 62
     7
100
AcDbCircle
 10
257.406932084
 20
613.927831317
 30
0.0
 40
24.49999999999999
100
AcDbArc
 50
127.7520013062
 51
164.8572685595
  0
ENDBLK
  5
CF
330
75
100
AcDbEntity
  8
0
100
AcDbBlockEnd
  0
BLOCK
  5
100
330
D0
100
AcDbEntity
  8
0
100
AcDbBlockBegin
  2
SE1
 70
     0
 10
0.0
 20
0.0
 30
0.0
  3
SE1
  1

  0
LINE
  5
D2
330
D0
100
AcDbEntity
  8
$DDT_AUDIT_GENERATED_(77)
  6
Continuous
 62
     7
100
AcDbLine
 10
107.8305532616
 20
441.0194922689
 30
0.0
 11
158.8305532616
 21
441.0194922689
 31
0.0
  0
ARC
  5
D3
330
D0
100
AcDbEntity
  8
$DDT_AUDIT_GENERATED_(77)
  6
Continuous
 62
     7
100
AcDbCircle
 10
133.3313699132
 20
592.9604725408
 30
0.0
 40
14.5
100
AcDbArc
 50
180.0
 51
0.0
  0
LINE
  5
D4
330
D0
100
AcDbEntity
  8
$DDT_AUDIT_GENERATED_(77)
  6
Continuous
 62
     7
100
AcDbLine
 10
133.3305532616
 20
620.327831317
 30
0.0
 11
158.3305706133
 21
620.327831317
 31
0.0
  0
LINE
  5
D5
330
D0
100
AcDbEntity
  8
$DDT_AUDIT_GENERATED_(77)
  6
Continuous
 62
     7
100
AcDbLine
 10
133.3305532616
 20
620.327831317
 30
0.0
 11
108.3305135226
 21
620.327831317
 31
0.0
  0
ARC
  5
D6
330
D0
100
AcDbEntity
  8
$DDT_AUDIT_GENERATED_(77)
  6
Continuous
 62
     7
100
AcDbCircle
 10
133.3313700409
 20
592.9604725781
 30
0.0
 40
14.49999987227282
100
AcDbArc
 50
0.0
 51
179.9895090572
  0
LINE
  5
D7
330
D0
100
AcDbEntity
  8
$DDT_AUDIT_GENERATED_(77)
  6
Continuous
 62
     7
100
AcDbLine
 10
158.8305532616
 20
441.0194922689
 30
0.0
 11
158.8305532616
 21
619.830831317
 31
0.0
  0
LINE
  5
D8
330
D0
100
AcDbEntity
  8
$DDT_AUDIT_GENERATED_(77)
  6
Continuous
 62
     7
100
AcDbLine
 10
107.8305532616
 20
619.830831317
 30
0.0
 11
107.8305532616
 21
441.0194922688
 31
0.0
  0
ARC
  5
D9
330
D0
100
AcDbEntity
  8
$DDT_AUDIT_GENERATED_(77)
  6
Continuous
 62
     7
100
AcDbCircle
 10
158.2771112455
 20
619.7743271324
 30
0.0
 40
0.5560840183640473
100
AcDbArc
 50
5.5213126011
 51
84.478827353
  0
ARC
  5
DA
330
D0
100
AcDbEntity
  8
$DDT_AUDIT_GENERATED_(77)
  6
Continuous
 62
     7
100
AcDbCircle
 10
108.3839982056
 20
619.7743271671
 30
0.0
 40
0.5560839865859741
100
AcDbArc
 50
95.5211758862
 51
174.4786906696
  0
SPLINE
  5
DB
330
D0
100
AcDbEntity
  8
$DDT_AUDIT_GENERATED_(96)
  6
Continuous
 62
     7
100
AcDbSpline
210
0.0
220
0.0
230
1.0
 70
     8
 71
     3
 72
     8
 73
     4
 74
     0
 42
0.0000000005491875
 43
0.0000000001
 40
0.5535652596533832
 40
0.5535652596533832
 40
0.5535652596533832
 40
0.5535652596533832
 40
0.5543338349101947
 40
0.5543338349101947
 40
0.5543338349101947
 40
0.5543338349101947
 10
108.846396753392
 20
655.78864620683
 30
0.0
 10
108.8497202353397
 20
655.7918961983755
 30
0.0
 10
108.853067231727
 20
655.7951456573484
 30
0.0
 10
108.8564377311404
 20
655.7983945727402
 30
0.0
  0
SPLINE
  5
DC
330
D0
100
AcDbEntity
  8
$DDT_AUDIT_GENERATED_(96)
  6
Continuous
 62
     7
100
AcDbSpline
210
0.0
220
0.0
230
1.0
 70
     8
 71
     3
 72
     8
 73
     4
 74
     0
 42
0.0000000005923378
 43
0.0000000001
 40
0.446157937214298
 40
0.446157937214298
 40
0.446157937214298
 40
0.446157937214298
 40
0.4466415254290133
 40
0.4466415254290133
 40
0.4466415254290133
 40
0.4466415254290133
 10
110.317776317238
 20
657.2148200502144
 30
0.0
 10
110.3158079780373
 20
657.2129319637849
 30
0.0
 10
110.3138483910944
 20
657.2110436407622
 30
0.0
 10
110.311897557857
 20
657.2091550834022
 30
0.0
  0
SPLINE
  5
DD
330
D0
100
AcDbEntity
  8
$DDT_AUDIT_GENERATED_(96)
  6
Continuous
 62
     7
100
AcDbSpline
210
0.0
220
0.0
230
1.0
 70
     8
 71
     3
 72
     8
 73
     4
 74
     0
 42
0.0000000005916223
 43
0.0000000001
 40
0.5534365455141902
 40
0.5534365455141902
 40
0.5534365455141902
 40
0.5534365455141902
 40
0.5541557870054606
 40
0.5541557870054606
 40
0.5541557870054606
 40
0.5541557870054606
 10
156.3491597095959
 20
657.2091876179385
 30
0.0
 10
156.3462580825286
 20
657.2119969360386
 30
0.0
 10
156.3433370836412
 20
657.2148057350868
 30
0.0
 10
156.3403967173278
 20
657.2176140075227
 30
0.0
  0
ARC
  5
DE
330
D0
100
AcDbEntity
  8
$DDT_AUDIT_GENERATED_(96)
  6
Continuous
 62
     7
100
AcDbCircle
 10
133.3302262129
 20
658.6853048061
 30
0.0
 40
5.500295976022224
100
AcDbArc
 50
331.4953793769
 51
0.5943945413
  0
ARC
  5
DF
330
D0
100
AcDbEntity
  8
$DDT_AUDIT_GENERATED_(96)
  6
Continuous
 62
     7
100
AcDbCircle
 10
133.3302262129
 20
658.6853048061
 30
0.0
 40
5.500295976022224
100
AcDbArc
 50
179.4056054587
 51
207.5273492285
  0
ARC
  5
E0
330
D0
100
AcDbEntity
  8
$DDT_AUDIT_GENERATED_(96)
  6
Continuous
 62
     7
100
AcDbCircle
 10
133.3302262129
 20
658.7994244599
 30
0.0
 40
5.500295976022225
100
AcDbArc
 50
151.4953793769
 51
180.5943945413
  0
ARC
  5
E1
330
D0
100
AcDbEntity
  8
$DDT_AUDIT_GENERATED_(96)
  6
Continuous
 62
     7
100
AcDbCircle
 10
133.3302262129
 20
658.7994244599
 30
0.0
 40
5.500295976022225
100
AcDbArc
 50
359.4056054587
 51
27.5273492285
  0
LINE
  5
E2
330
D0
100
AcDbEntity
  8
$DDT_AUDIT_GENERATED_(96)
  6
Continuous
 62
     7
100
AcDbLine
 10
138.8302262129
 20
658.7423046512
 30
0.0
 11
138.8302262129
 21
646.9772257647
 31
0.0
  0
LINE
  5
E3
330
D0
100
AcDbEntity
  8
$DDT_AUDIT_GENERATED_(96)
  6
Continuous
 62
     7
100
AcDbLine
 10
127.8302262129
 20
646.9771972978
 30
0.0
 11
127.8302262129
 21
658.742364633
 31
0.0
  0
SPLINE
  5
E4
330
D0
100
AcDbEntity
  8
$DDT_AUDIT_GENERATED_(96)
  6
Continuous
 62
     7
100
AcDbSpline
210
0.0
220
0.0
230
1.0
 70
     8
 71
     3
 72
     8
 73
     4
 74
     0
 42
0.0000000004076349
 43
0.0000000001
 40
0.0
 40
0.0
 40
0.0
 40
0.0
 40
0.0602148899560806
 40
0.0602148899560806
 40
0.0602148899560806
 40
0.0602148899560806
 10
158.7317332494736
 20
623.210920574523
 30
0.0
 10
158.7969024970267
 20
623.7007011497204
 30
0.0
 10
158.8248674858521
 20
624.1920110766939
 30
0.0
 10
158.8159672579714
 20
624.6829052044509
 30
0.0
  0
LINE
  5
E5
330
D0
100
AcDbEntity
  8
$DDT_AUDIT_GENERATED_(96)
  6
Continuous
 62
     7
100
AcDbLine
 10
133.3305549279
 20
622.8858343721
 30
0.0
 11
108.1695458316
 21
622.8858343721
 31
0.0
  0
LINE
  5
E6
330
D0
100
AcDbEntity
  8
$DDT_AUDIT_GENERATED_(96)
  6
Continuous
 62
     7
100
AcDbLine
 10
158.4915606916
 20
622.8858343721
 30
0.0
 11
133.3305549279
 21
622.8858343721
 31
0.0
  0
SPLINE
  5
E7
330
D0
100
AcDbEntity
  8
$DDT_AUDIT_GENERATED_(96)
  6
Continuous
 62
     7
100
AcDbSpline
210
0.0
220
0.0
230
1.0
 70
     8
 71
     3
 72
     8
 73
     4
 74
     0
 42
0.0000000004101714
 43
0.0000000001
 40
0.9392031560673835
 40
0.9392031560673835
 40
0.9392031560673835
 40
0.9392031560673835
 40
1.0
 40
1.0
 40
1.0
 40
1.0
 10
107.842310926764
 20
624.6878727817267
 30
0.0
 10
107.8344981892169
 20
624.1974665074566
 30
0.0
 10
107.8636128342453
 20
623.7051442623463
 30
0.0
 10
107.9293732736938
 20
623.210920574523
 30
0.0
  0
ARC
  5
E8
330
D0
100
AcDbEntity
  8
$DDT_AUDIT_GENERATED_(96)
  6
Continuous
 62
     7
100
AcDbCircle
 10
156.8965354955
 20
654.7467443308
 30
0.0
 40
1.39161066327772
100
AcDbArc
 50
3.8480155436
 51
49.095172535
  0
LINE
  5
E9
330
D0
100
AcDbEntity
  8
$DDT_AUDIT_GENERATED_(96)
  6
Continuous
 62
     7
100
AcDbLine
 10
110.3130436441
 20
657.2102740925
 30
0.0
 11
108.8587312686
 21
655.8037568915
 31
0.0
  0
SPLINE
  5
EA
330
D0
100
AcDbEntity
  8
$DDT_AUDIT_GENERATED_(96)
  6
Continuous
 62
     7
100
AcDbSpline
210
0.0
220
0.0
230
1.0
 70
     8
 71
     3
 72
    29
 73
    25
 74
     0
 42
0.0000000004481505
 43
0.0000000001
 40
0.1616450631020196
 40
0.1616450631020196
 40
0.1616450631020196
 40
0.1616450631020196
 40
0.1869307958666689
 40
0.2199492266125817
 40
0.2474806903704713
 40
0.2720610241867392
 40
0.2969141096231453
 40
0.3645561474692925
 40
0.4337162114938923
 40
0.5029794039296946
 40
0.5550537212098658
 40
0.6077054290547134
 40
0.6609918420787535
 40
0.7141186184839615
 40
0.7336068986590706
 40
0.7529032464096131
 40
0.7720079109943178
 40
0.7909210596040585
 40
0.8104588991614626
 40
0.8338089516129424
 40
0.8666526926669716
 40
0.9052816466323689
 40
0.9497222435417046
 40
0.9654340164885322
 40
0.9654340164885322
 40
0.9654340164885322
 40
0.9654340164885322
 10
128.09968081609
 20
660.4217851918359
 30
0.0
 10
127.8317846755095
 20
660.4115680179564
 30
0.0
 10
127.2170088262335
 20
660.3862022819479
 30
0.0
 10
126.3218123257404
 20
660.3427258033767
 30
0.0
 10
125.4464493528675
 20
660.2933553788926
 30
0.0
 10
124.6657328830985
 20
660.2438741779425
 30
0.0
 10
123.4952003748436
 20
660.1617032798436
 30
0.0
 10
121.925422096323
 20
660.0307490424224
 30
0.0
 10
120.0326247626234
 20
659.8331015778251
 30
0.0
 10
118.3997833238826
 20
659.6234899092705
 30
0.0
 10
117.0142915132479
 20
659.4121880444861
 30
0.0
 10
115.8445463596798
 20
659.2053734034178
 30
0.0
 10
114.7632110394556
 20
658.9833785371937
 30
0.0
 10
113.9879875344129
 20
658.7975045783113
 30
0.0
 10
113.463788107149
 20
658.657001247743
 30
0.0
 10
113.1478028920167
 20
658.5669331579495
 30
0.0
 10
112.8489958646636
 20
658.4762400653294
 30
0.0
 10
112.5632124364233
 20
658.3837470080798
 30
0.0
 10
112.27138699302
 20
658.2826941259356
 30
0.0
 10
111.9265316022095
 20
658.1528979667124
 30
0.0
 10
111.5246874127686
 20
657.9833736675813
 30
0.0
 10
111.0886693814283
 20
657.7677825471216
 30
0.0
 10
110.7635029797702
 20
657.5712658361133
 30
0.0
 10
110.6070525834447
 20
657.4551414786783
 30
0.0
 10
110.5675823799011
 20
657.424418443
 30
0.0
  0
SPLINE
  5
EB
330
D0
100
AcDbEntity
  8
$DDT_AUDIT_GENERATED_(96)
  6
Continuous
 62
     7
100
AcDbSpline
210
0.0
220
0.0
230
1.0
 70
     8
 71
     3
 72
     8
 73
     4
 74
     0
 42
0.0000000009886563
 43
0.0000000001
 40
0.9950293772710277
 40
0.9950293772710277
 40
0.9950293772710277
 40
0.9950293772710277
 40
1.0
 40
1.0
 40
1.0
 40
1.0
 10
110.3497544928325
 20
657.2424069568629
 30
0.0
 10
110.3373124700295
 20
657.2315101274063
 30
0.0
 10
110.3247384096421
 20
657.2204547578934
 30
0.0
 10
110.3119866933378
 20
657.20922080044
 30
0.0
  0
LINE
  5
EC
330
D0
100
AcDbEntity
  8
$DDT_AUDIT_GENERATED_(96)
  6
Continuous
 62
     7
100
AcDbLine
 10
108.3761112958
 20
654.8387381497
 30
0.0
 11
107.8446937567
 21
624.6880424081
 31
0.0
  0
ARC
  5
ED
330
D0
100
AcDbEntity
  8
$DDT_AUDIT_GENERATED_(96)
  6
Continuous
 62
     7
100
AcDbCircle
 10
109.742017681
 20
654.7528859782
 30
0.0
 40
1.368696966042016
100
AcDbArc
 50
133.7335815508
 51
176.3437924802
  0
LINE
  5
EE
330
D0
100
AcDbEntity
  8
$DDT_AUDIT_GENERATED_(96)
  6
Continuous
 62
     7
100
AcDbLine
 10
108.8533681838
 20
655.7985423797
 30
0.0
 11
108.843276991
 21
655.7851633425
 31
0.0
  0
LINE
  5
EF
330
D0
100
AcDbEntity
  8
$DDT_AUDIT_GENERATED_(96)
  6
Continuous
 62
     7
100
AcDbLine
 10
157.8055055988
 20
655.8007313653
 30
0.0
 11
156.3467552024
 21
657.2115401604
 31
0.0
  0
SPLINE
  5
F0
330
D0
100
AcDbEntity
  8
$DDT_AUDIT_GENERATED_(96)
  6
Continuous
 62
     7
100
AcDbSpline
210
0.0
220
0.0
230
1.0
 70
     8
 71
     3
 72
     8
 73
     4
 74
     0
 42
0.0000000009626565
 43
0.0000000001
 40
0.0
 40
0.0
 40
0.0
 40
0.0
 40
0.0037609057321054
 40
0.0037609057321054
 40
0.0037609057321054
 40
0.0037609057321054
 10
156.3492554524093
 20
657.2090818902591
 30
0.0
 10
156.3394202656789
 20
657.2178821707467
 30
0.0
 10
156.3297164139681
 20
657.226552033601
 30
0.0
 10
156.3201160492337
 20
657.2351049941601
 30
0.0
  0
SPLINE
  5
F1
330
D0
100
AcDbEntity
  8
$DDT_AUDIT_GENERATED_(96)
  6
Continuous
 62
     7
100
AcDbSpline
210
0.0
220
0.0
230
1.0
 70
     8
 71
     3
 72
    30
 73
    26
 74
     0
 42
0.0000000004507639
 43
0.0000000001
 40
0.0268770255123971
 40
0.0268770255123971
 40
0.0268770255123971
 40
0.0268770255123971
 40
0.0410074082608538
 40
0.0765904331858257
 40
0.1067723531360326
 40
0.1315770012920717
 40
0.1510449823937464
 40
0.1684643318567718
 40
0.1862562107846615
 40
0.2044206440920114
 40
0.2342574825630735
 40
0.2650481953216392
 40
0.2967934801350501
 40
0.329507702142623
 40
0.3655061271854881
 40
0.3993206460052132
 40
0.4366030907263483
 40
0.4773538579739198
 40
0.5215715920871573
 40
0.5692532099090895
 40
0.6203972074948336
 40
0.6750029028812546
 40
0.7330717689468709
 40
0.7946064893122957
 40
0.8383224537625428
 40
0.8383224537625428
 40
0.8383224537625428
 40
0.8383224537625428
 10
156.148354685537
 20
657.382704461485
 30
0.0
 10
156.1131113536379
 20
657.4113585151565
 30
0.0
 10
155.9857573137634
 20
657.5104887928852
 30
0.0
 10
155.7326985330026
 20
657.674562071615
 30
0.0
 10
155.4147186354435
 20
657.8481532045024
 30
0.0
 10
155.1269610977388
 20
657.9855602167769
 30
0.0
 10
154.8793416772351
 20
658.0927838398002
 30
0.0
 10
154.6512816547355
 20
658.18434304016
 30
0.0
 10
154.4149228692673
 20
658.2730573957006
 30
0.0
 10
154.1083702711865
 20
658.3806942061207
 30
0.0
 10
153.7163723225204
 20
658.5071741179446
 30
0.0
 10
153.2208532522265
 20
658.6516340351967
 30
0.0
 10
152.6722307992427
 20
658.7964313841946
 30
0.0
 10
152.0534991588236
 20
658.9444092505582
 30
0.0
 10
151.3793956532506
 20
659.090123258374
 30
0.0
 10
150.6313515525621
 20
659.2364636430613
 30
0.0
 10
149.8049669377869
 20
659.382732289596
 30
0.0
 10
148.8496843858342
 20
659.5342482961986
 30
0.0
 10
147.7550825251342
 20
659.6882849387495
 30
0.0
 10
146.5115589826379
 20
659.8417039502672
 30
0.0
 10
145.1104819071807
 20
659.99084636527
 30
0.0
 10
143.5458777197963
 20
660.1315111572744
 30
0.0
 10
141.8140948283981
 20
660.2588405310959
 30
0.0
 10
140.1350105963793
 20
660.3548339424875
 30
0.0
 10
139.0265247193767
 20
660.4032834573462
 30
0.0
 10
138.5638702629201
 20
660.4210070477283
 30
0.0
  0
LINE
  5
F2
330
D0
100
AcDbEntity
  8
$DDT_AUDIT_GENERATED_(96)
  6
Continuous
 62
     7
100
AcDbLine
 10
158.816502526
 20
624.6830219619
 30
0.0
 11
158.2849736892
 21
654.8400270658
 31
0.0
  0
SPLINE
  5
F3
330
D0
100
AcDbEntity
  8
$DDT_AUDIT_GENERATED_(96)
  6
Continuous
 62
     7
100
AcDbSpline
210
0.0
220
0.0
230
1.0
 70
     8
 71
     3
 72
    31
 73
    27
 74
     0
 42
0.0000000008387862
 43
0.0000000001
 40
0.0
 40
0.0
 40
0.0
 40
0.0
 40
0.0021743367312166
 40
0.0476275702238464
 40
0.0933577749573415
 40
0.1391088176758125
 40
0.1843231283593797
 40
0.2295614004316723
 40
0.2751248771652424
 40
0.3202976973569318
 40
0.3651549497415325
 40
0.4103903496853669
 40
0.455552589245946
 40
0.5001962077042607
 40
0.5451010046948369
 40
0.5903271334467418
 40
0.6351612740082614
 40
0.6798296718808176
 40
0.7250527124029984
 40
0.770270975051375
 40
0.8151064140031847
 40
0.8603169703728731
 40
0.9059039325742975
 40
0.9511971427668419
 40
0.9963859982342866
 40
1.0
 40
1.0
 40
1.0
 40
1.0
 10
138.1963299429671
 20
661.3374861666987
 30
0.0
 10
138.1923519728682
 20
661.3461014390107
 30
0.0
 10
138.1171965773112
 20
661.50873080856
 30
0.0
 10
137.9122912534645
 20
661.8347458559722
 30
0.0
 10
137.598774827556
 20
662.272261890523
 30
0.0
 10
137.2363506331492
 20
662.679161207169
 30
0.0
 10
136.8388621068484
 20
663.0458562775867
 30
0.0
 10
136.4078383821489
 20
663.3721398156906
 30
0.0
 10
135.9475073959223
 20
663.6550699307202
 30
0.0
 10
135.4624823310977
 20
663.8898817137691
 30
0.0
 10
134.9579698310359
 20
664.0752879239054
 30
0.0
 10
134.4379216634996
 20
664.2110504127952
 30
0.0
 10
133.9077780263763
 20
664.2945700290862
 30
0.0
 10
133.3732847549393
 20
664.3244355865049
 30
0.0
 10
132.8381950074526
 20
664.3024164753693
 30
0.0
 10
132.3069821988809
 20
664.2282479715157
 30
0.0
 10
131.7868361633601
 20
664.1012578883752
 30
0.0
 10
131.2816650241135
 20
663.9240763749473
 30
0.0
 10
130.7944713347129
 20
663.6984424679446
 30
0.0
 10
130.3313331011344
 20
663.4255209337938
 30
0.0
 10
129.8974986719325
 20
663.1079799526763
 30
0.0
 10
129.4955486928648
 20
662.7496339931247
 30
0.0
 10
129.126659270674
 20
662.3519692373383
 30
0.0
 10
128.8067671711873
 20
661.9230123158171
 30
0.0
 10
128.595475761542
 20
661.5980219789234
 30
0.0
 10
128.5153862885737
 20
661.4330953673447
 30
0.0
 10
128.5085046132298
 20
661.4189034765827
 30
0.0
  0
SPLINE
  5
F4
330
D0
100
AcDbEntity
  8
$DDT_AUDIT_GENERATED_(96)
  6
Continuous
 62
     7
100
AcDbSpline
210
0.0
220
0.0
230
1.0
 70
     8
 71
     3
 72
    12
 73
     8
 74
     0
 42
0.0000000259044941
 43
0.0000000001
 40
0.0
 40
0.0
 40
0.0
 40
0.0
 40
0.1334248182879184
 40
0.3944251199313433
 40
0.5914197655238914
 40
0.7451927746848012
 40
0.8222553728630769
 40
0.8222553728630769
 40
0.8222553728630769
 40
0.8222553728630769
 10
107.9330396650784
 20
623.1718571785789
 30
0.0
 10
107.9349886733324
 20
623.1541421747717
 30
0.0
 10
107.9404039325249
 20
623.1090545857357
 30
0.0
 10
107.9544690000717
 20
623.0550153977465
 30
0.0
 10
107.9836377516613
 20
622.9868061872081
 30
0.0
 10
108.0295638052427
 20
622.9355688875054
 30
0.0
 10
108.0645616770362
 20
622.9130967525472
 30
0.0
 10
108.0768632733647
 20
622.9069277895131
 30
0.0
  0
SPLINE
  5
F5
330
D0
100
AcDbEntity
  8
$DDT_AUDIT_GENERATED_(96)
  6
Continuous
 62
     7
100
AcDbSpline
210
0.0
220
0.0
230
1.0
 70
     8
 71
     3
 72
    13
 73
     9
 74
     0
 42
0.0000000249467823
 43
0.0000000001
 40
0.1502222097118925
 40
0.1502222097118925
 40
0.1502222097118925
 40
0.1502222097118925
 40
0.1767040605733365
 40
0.3020794675078448
 40
0.4222307472851077
 40
0.555871637510104
 40
0.7627239302708292
 40
1.0
 40
1.0
 40
1.0
 40
1.0
 10
158.5748980614223
 20
622.9026029879395
 30
0.0
 10
158.5795095134552
 20
622.9047897927625
 30
0.0
 10
158.6054217389992
 20
622.9181064562403
 30
0.0
 10
158.6442793014734
 20
622.9467216459279
 30
0.0
 10
158.6799426092298
 20
622.9950472569226
 30
0.0
 10
158.7033423959371
 20
623.0466558595609
 30
0.0
 10
158.7195012787814
 20
623.1039990280166
 30
0.0
 10
158.7261876365698
 20
623.1539401383684
 30
0.0
 10
158.7298096157176
 20
623.1851835808912
 30
0.0
  0
LINE
  5
F6
330
D0
100
AcDbEntity
  8
$DDT_AUDIT_GENERATED_(C0)
  6
Continuous
 62
     7
100
AcDbLine
 10
122.7555532616
 20
568.9604716962
 30
0.0
 11
143.9055532616
 21
568.9604716962
 31
0.0
  0
LINE
  5
F7
330
D0
100
AcDbEntity
  8
$DDT_AUDIT_GENERATED_(C0)
  6
Continuous
 62
     7
100
AcDbLine
 10
144.9055532616
 20
569.9604716962
 30
0.0
 11
144.9055532616
 21
584.2414012739
 31
0.0
  0
LINE
  5
F8
330
D0
100
AcDbEntity
  8
$DDT_AUDIT_GENERATED_(C0)
  6
Continuous
 62
     7
100
AcDbLine
 10
121.7555532616
 20
584.2311666668
 30
0.0
 11
121.7555532616
 21
569.9604716962
 31
0.0
  0
ARC
  5
F9
330
D0
100
AcDbEntity
  8
$DDT_AUDIT_GENERATED_(C0)
  6
Continuous
 62
     7
100
AcDbCircle
 10
143.9055532616
 20
569.9604716962
 30
0.0
 40
1.000000000000001
100
AcDbArc
 50
270.0
 51
0.0
  0
ARC
  5
FA
330
D0
100
AcDbEntity
  8
$DDT_AUDIT_GENERATED_(C0)
  6
Continuous
 62
     7
100
AcDbCircle
 10
122.7555532616
 20
569.9604716962
 30
0.0
 40
1.000000000000001
100
AcDbArc
 50
180.0
 51
270.0
  0
LINE
  5
FB
330
D0
100
AcDbEntity
  8
$DDT_AUDIT_GENERATED_(C6)
  6
Continuous
 62
     7
100
AcDbLine
 10
142.3305532616
 20
568.7104716962
 30
0.0
 11
124.3305532616
 21
568.7104716962
 31
0.0
  0
LINE
  5
FC
330
D0
100
AcDbEntity
  8
$DDT_AUDIT_GENERATED_(C6)
  6
Continuous
 62
     7
100
AcDbLine
 10
124.3305532616
 20
568.9604716962
 30
0.0
 11
124.3305532616
 21
568.7104716962
 31
0.0
  0
LINE
  5
FD
330
D0
100
AcDbEntity
  8
$DDT_AUDIT_GENERATED_(C6)
  6
Continuous
 62
     7
100
AcDbLine
 10
142.3305532616
 20
568.7104716962
 30
0.0
 11
142.3305532616
 21
568.9604716962
 31
0.0
  0
ARC
  5
FE
330
D0
100
AcDbEntity
  8
$DDT_AUDIT_GENERATED_(CA)
  6
Continuous
 62
     7
100
AcDbCircle
 10
133.3305532616
 20
613.927831317
 30
0.0
 40
24.5
100
AcDbArc
 50
158.5290927818
 51
164.8572685595
  0
ARC
  5
FF
330
D0
100
AcDbEntity
  8
$DDT_AUDIT_GENERATED_(CA)
  6
Continuous
 62
     7
100
AcDbCircle
 10
133.3305532616
 20
613.927831317
 30
0.0
 40
24.5
100
AcDbArc
 50
15.1427314405
 51
21.4559182617
  0
ENDBLK
  5
101
330
D0
100
AcDbEntity
  8
0
100
AcDbBlockEnd
  0
BLOCK
  5
132
330
102
100
AcDbEntity
  8
0
100
AcDbBlockBegin
  2
SE2
 70
     0
 10
0.0
 20
0.0
 30
0.0
  3
SE2
  1

  0
SPLINE
  5
104
330
102
100
AcDbEntity
  8
$DDT_AUDIT_GENERATED_(77)
  6
Continuous
 62
     7
100
AcDbSpline
210
0.0
220
0.0
230
1.0
 70
    12
 71
     3
 72
     8
 73
     4
 74
     0
 42
0.000000001048945
 43
0.0000000001
 40
0.0
 40
0.0
 40
0.0
 40
0.0
 40
1.0
 40
1.0
 40
1.0
 40
1.0
 10
151.6456669351233
 20
318.7387052829216
 30
0.0
 41
1.0
 10
149.5412351610314
 20
316.5663915549295
 30
0.0
 41
1.0
 10
147.8313699132186
 20
313.5303799172236
 30
0.0
 41
1.0
 10
147.8313699132186
 20
310.5058832604245
 30
0.0
 41
1.0
  0
ARC
  5
105
330
102
100
AcDbEntity
  8
$DDT_AUDIT_GENERATED_(77)
  6
Continuous
 62
     7
100
AcDbCircle
 10
146.5791449206
 20
114.5956515623
 30
0.0
 40
1.255470783220231
100
AcDbArc
 50
335.6672510832
 51
351.6325126359
  0
SPLINE
  5
106
330
102
100
AcDbEntity
  8
$DDT_AUDIT_GENERATED_(77)
  6
Continuous
 62
     7
100
AcDbSpline
210
0.0
220
0.0
230
1.0
 70
     8
 71
     3
 72
    16
 73
    12
 74
     0
 42
0.0000000001242728
 43
0.0000000001
 40
0.0
 40
0.0
 40
0.0
 40
0.0
 40
0.0563698805232472
 40
0.1180171114602793
 40
0.1822733084408214
 40
0.2458800172306976
 40
0.3095689021116776
 40
0.3740717950856854
 40
0.4361016991626091
 40
0.4999999999999938
 40
0.5046071544980262
 40
0.5046071544980262
 40
0.5046071544980262
 40
0.5046071544980262
 10
133.3305617756895
 20
361.9815342624746
 30
0.0
 10
131.8252977202441
 20
361.9816003263553
 30
0.0
 10
128.6738084328448
 20
361.7017097684129
 30
0.0
 10
123.9659238741706
 20
360.3790615145626
 30
0.0
 10
119.4348824455082
 20
358.0677448211552
 30
0.0
 10
115.4136535606925
 20
354.8652134597332
 30
0.0
 10
112.1042684834848
 20
350.9226383446487
 30
0.0
 10
109.6701869892002
 20
346.4344573677631
 30
0.0
 10
108.1691831138332
 20
341.5505127007281
 30
0.0
 10
107.8181421027038
 20
338.0647988324195
 30
0.0
 10
107.8313818770751
 20
336.2354606795797
 30
0.0
 10
107.8331642218517
 20
336.1124461180974
 30
0.0
  0
SPLINE
  5
107
330
102
100
AcDbEntity
  8
$DDT_AUDIT_GENERATED_(77)
  6
Continuous
 62
     7
100
AcDbSpline
210
0.0
220
0.0
230
1.0
 70
     8
 71
     3
 72
     9
 73
     5
 74
     0
 42
0.0000000001247803
 43
0.0000000001
 40
0.5314838843780101
 40
0.5314838843780101
 40
0.5314838843780101
 40
0.5314838843780101
 40
0.5563698805232434
 40
0.5734131967553158
 40
0.5734131967553158
 40
0.5734131967553158
 40
0.5734131967553158
 10
107.9551855679081
 20
333.9634177205319
 30
0.0
 10
108.020807774332
 20
333.3021137419401
 30
0.0
 10
108.1748795839942
 20
332.1922313957678
 30
0.0
 10
108.4017264301463
 20
331.095385727226
 30
0.0
 10
108.5057851455116
 20
330.6523256231876
 30
0.0
  0
SPLINE
  5
108
330
102
100
AcDbEntity
  8
$DDT_AUDIT_GENERATED_(77)
  6
Continuous
 62
     7
100
AcDbSpline
210
0.0
220
0.0
230
1.0
 70
     8
 71
     3
 72
    16
 73
    12
 74
     0
 42
0.0000000001242847
 43
0.0000000001
 40
0.4664288298034704
 40
0.4664288298034704
 40
0.4664288298034704
 40
0.4664288298034704
 40
0.5
 40
0.556369880523247
 40
0.6180171114602805
 40
0.6822733084408227
 40
0.7458800172306987
 40
0.8095689021116725
 40
0.8740717950856816
 40
0.9361016991626102
 40
1.0
 40
1.0
 40
1.0
 40
1.0
 10
158.6887884102508
 20
333.7970552828172
 30
0.0
 10
158.7831559075319
 20
334.6885483705219
 30
0.0
 10
158.9102574167691
 20
337.0902751625352
 30
0.0
 10
158.5507738975643
 20
341.1382347635351
 30
0.0
 10
157.2281338539184
 20
345.8461429949908
 30
0.0
 10
154.916786742512
 20
350.3771471316061
 30
0.0
 10
151.7142801710083
 20
354.3983990466036
 30
0.0
 10
147.7716913232818
 20
357.7077947845739
 30
0.0
 10
143.283511213127
 20
360.1418248617891
 30
0.0
 10
138.3995758232807
 20
361.6428718802146
 30
0.0
 10
135.0368779597537
 20
361.9815416902467
 30
0.0
 10
133.3305617756895
 20
361.9815342624746
 30
0.0
  0
SPLINE
  5
109
330
102
100
AcDbEntity
  8
$DDT_AUDIT_GENERATED_(77)
  6
Continuous
 62
     7
100
AcDbSpline
210
0.0
220
0.0
230
1.0
 70
     8
 71
     3
 72
     8
 73
     4
 74
     0
 42
0.0000000011821008
 43
0.0000000001
 40
0.9683901900286445
 40
0.9683901900286445
 40
0.9683901900286445
 40
0.9683901900286445
 40
1.0
 40
1.0
 40
1.0
 40
1.0
 10
147.7586862670501
 20
114.2503764722437
 30
0.0
 10
147.7998367887672
 20
114.3352376379649
 30
0.0
 10
147.8156033509929
 20
114.420335161188
 30
0.0
 10
147.8313699132186
 20
114.5054326316517
 30
0.0
  0
LINE
  5
10A
330
102
100
AcDbEntity
  8
$DDT_AUDIT_GENERATED_(77)
  6
Continuous
 62
     7
100
AcDbLine
 10
118.8313699132
 20
310.5084334465
 30
0.0
 11
118.8313699132
 21
114.5061159539
 31
0.0
  0
LINE
  5
10B
330
102
100
AcDbEntity
  8
$DDT_AUDIT_GENERATED_(77)
  6
Continuous
 62
     7
100
AcDbLine
 10
147.8313699132
 20
114.5054328007
 30
0.0
 11
147.8313699132
 21
310.5084334465
 31
0.0
  0
LINE
  5
10C
330
102
100
AcDbEntity
  8
$DDT_AUDIT_GENERATED_(77)
  6
Continuous
 62
     7
100
AcDbLine
 10
119.8860375506
 20
314.8136509502
 30
0.0
 11
119.846307467
 21
314.8386236944
 31
0.0
  0
ARC
  5
10D
330
102
100
AcDbEntity
  8
$DDT_AUDIT_GENERATED_(77)
  6
Continuous
 62
     7
100
AcDbCircle
 10
131.4112217888
 20
334.313705919
 30
0.0
 40
22.60565877945417
100
AcDbArc
 50
226.7986179947
 51
229.9373204312
  0
LINE
  5
10E
330
102
100
AcDbEntity
  8
$DDT_AUDIT_GENERATED_(77)
  6
Continuous
 62
     7
100
AcDbLine
 10
116.9277619094
 20
316.9571638225
 30
0.0
 11
116.9043984211
 21
316.9768121767
 31
0.0
  0
ARC
  5
10F
330
102
100
AcDbEntity
  8
$DDT_AUDIT_GENERATED_(77)
  6
Continuous
 62
     7
100
AcDbCircle
 10
106.5027344067
 20
309.7830218523
 30
0.0
 40
12.3497419026361
100
AcDbArc
 50
3.350337475
 51
45.4050278736
  0
ARC
  5
110
330
102
100
AcDbEntity
  8
$DDT_AUDIT_GENERATED_(77)
  6
Continuous
 62
     7
100
AcDbCircle
 10
119.9561918
 20
114.4646183921
 30
0.0
 40
1.120452373650451
100
AcDbArc
 50
179.3851160809
 51
182.7341526239
  0
ARC
  5
111
330
102
100
AcDbEntity
  8
$DDT_AUDIT_GENERATED_(77)
  6
Continuous
 62
     7
100
AcDbCircle
 10
146.7079574006
 20
114.4638264779
 30
0.0
 40
1.119035230863472
100
AcDbArc
 50
357.3078794712
 51
0.483799359
  0
SPLINE
  5
112
330
102
100
AcDbEntity
  8
$DDT_AUDIT_GENERATED_(77)
  6
Continuous
 62
     7
100
AcDbSpline
210
0.0
220
0.0
230
1.0
 70
     8
 71
     3
 72
    48
 73
    44
 74
     0
 42
0.0000000003227301
 43
0.0000000001
 40
0.0
 40
0.0
 40
0.0
 40
0.0
 40
0.0225108640713505
 40
0.0417908941632836
 40
0.0578300728405486
 40
0.0734753111091185
 40
0.0841300728083366
 40
0.0905391750899147
 40
0.0969686012095287
 40
0.1086667348949909
 40
0.1223144077608121
 40
0.1467034126868662
 40
0.1755624308173248
 40
0.2083479074556338
 40
0.2414121612340881
 40
0.2740869935319803
 40
0.3063773700756359
 40
0.3382911481951072
 40
0.3698337295353092
 40
0.4010120195835291
 40
0.431834001482636
 40
0.4624074650816686
 40
0.4932780495120969
 40
0.5245272328487279
 40
0.5561598935750794
 40
0.58817987335797
 40
0.6205914313678992
 40
0.6533994121181977
 40
0.6866080016583568
 40
0.7202217281189379
 40
0.7536078124249701
 40
0.7856651214287177
 40
0.8163835827420947
 40
0.8457700997785665
 40
0.8738312992750179
 40
0.8918068427501856
 40
0.9091961567472097
 40
0.927021806654104
 40
0.9422852795135891
 40
0.9595056165086323
 40
0.9721444582839397
 40
0.9856743768883601
 40
1.0
 40
1.0
 40
1.0
 40
1.0
 10
118.8534109311288
 20
114.3163048836906
 30
0.0
 10
118.8823939706168
 20
114.1720112010242
 30
0.0
 10
118.9312302687824
 20
113.9472649403389
 30
0.0
 10
119.1082453674398
 20
113.6197314503793
 30
0.0
 10
119.3113287385133
 20
113.3541603418656
 30
0.0
 10
119.5140849564747
 20
113.1502626656482
 30
0.0
 10
119.6895719782782
 20
113.0056258025072
 30
0.0
 10
119.8054212809574
 20
112.9205763144207
 30
0.0
 10
119.9232878985789
 20
112.8403093662716
 30
0.0
 10
120.0808587711989
 20
112.7433104641626
 30
0.0
 10
120.3415567336744
 20
112.6024049653833
 30
0.0
 10
120.7291341042281
 20
112.4270575418384
 30
0.0
 10
121.3032739742481
 20
112.2188648468138
 30
0.0
 10
122.0344619839328
 20
112.0080022627076
 30
0.0
 10
122.9113413523929
 20
111.8035296784104
 30
0.0
 10
123.8901131729363
 20
111.6175102217799
 30
0.0
 10
124.9520538610419
 20
111.4522176052945
 30
0.0
 10
126.0847804012477
 20
111.3087675321038
 30
0.0
 10
127.2746837525198
 20
111.1879119427541
 30
0.0
 10
128.5091239772858
 20
111.0904881773594
 30
0.0
 10
129.7761664393165
 20
111.0164844719584
 30
0.0
 10
131.0723035410197
 20
110.9655567672617
 30
0.0
 10
132.3962421472287
 20
110.9374847586831
 30
0.0
 10
133.7445506679122
 20
110.9328463079262
 30
0.0
 10
135.1053848647622
 20
110.9526395812607
 30
0.0
 10
136.4648059477854
 20
110.9975145162416
 30
0.0
 10
137.808097250191
 20
111.0679709527623
 30
0.0
 10
139.1199498032773
 20
111.164209137747
 30
0.0
 10
140.3847823035842
 20
111.2861279474008
 30
0.0
 10
141.5789339869097
 20
111.43176131446
 30
0.0
 10
142.6704818150416
 20
111.5970892468283
 30
0.0
 10
143.638603167632
 20
111.7778699775047
 30
0.0
 10
144.4751097795858
 20
111.9683727582414
 30
0.0
 10
145.1864158648393
 20
112.166089684864
 30
0.0
 10
145.7182336393413
 20
112.3469884867293
 30
0.0
 10
146.1151240008194
 20
112.5088208919092
 30
0.0
 10
146.4061113819659
 20
112.6458720389512
 30
0.0
 10
146.6768031823606
 20
112.7963096219611
 30
0.0
 10
146.9976550003743
 20
113.0231630235398
 30
0.0
 10
147.2748515471224
 20
113.2839602448262
 30
0.0
 10
147.5053857326983
 20
113.5816615467193
 30
0.0
 10
147.6828824052535
 20
113.9007287161199
 30
0.0
 10
147.7326850508948
 20
114.1175624604161
 30
0.0
 10
147.7616115167313
 20
114.2503968038418
 30
0.0
  0
SPLINE
  5
113
330
102
100
AcDbEntity
  8
$DDT_AUDIT_GENERATED_(77)
  6
Continuous
 62
     7
100
AcDbSpline
210
0.0
220
0.0
230
1.0
 70
     8
 71
     3
 72
     8
 73
     4
 74
     0
 42
0.0000000066610172
 43
0.0000000001
 40
0.5383188445566773
 40
0.5383188445566773
 40
0.5383188445566773
 40
0.5383188445566773
 40
0.5591408366685914
 40
0.5591408366685914
 40
0.5591408366685914
 40
0.5591408366685914
 10
121.315932252208
 20
314.0032150495321
 30
0.0
 10
121.3186194053425
 20
313.992910205112
 30
0.0
 10
121.3212263167753
 20
313.9828159640009
 30
0.0
 10
121.3237512758798
 20
313.9729493189216
 30
0.0
  0
LINE
  5
114
330
102
100
AcDbEntity
  8
$DDT_AUDIT_GENERATED_(94)
  6
Continuous
 62
     7
100
AcDbLine
 10
135.9305532616
 20
361.9315179055
 30
0.0
 11
130.7305532616
 21
361.9315179055
 31
0.0
  0
ARC
  5
115
330
102
100
AcDbEntity
  8
$DDT_AUDIT_GENERATED_(94)
  6
Continuous
 62
     7
100
AcDbCircle
 10
130.7305532616
 20
361.6315179055
 30
0.0
 40
0.3000000000000017
100
AcDbArc
 50
90.0
 51
144.2574676568
  0
ARC
  5
116
330
102
100
AcDbEntity
  8
$DDT_AUDIT_GENERATED_(94)
  6
Continuous
 62
     7
100
AcDbCircle
 10
135.9305532616
 20
361.6315179055
 30
0.0
 40
0.2999999999999999
100
AcDbArc
 50
35.8667871564
 51
90.0
  0
LINE
  5
117
330
102
100
AcDbEntity
  8
$DDT_AUDIT_GENERATED_(96)
  6
Continuous
 62
     7
100
AcDbLine
 10
138.1302262129
 20
244.0042394816
 30
0.0
 11
128.5302262129
 21
244.0042394816
 31
0.0
  0
LINE
  5
118
330
102
100
AcDbEntity
  8
$DDT_AUDIT_GENERATED_(96)
  6
Continuous
 62
     7
100
AcDbLine
 10
138.8302262129
 20
244.7042394816
 30
0.0
 11
138.8302262129
 21
311.4276367691
 31
0.0
  0
ARC
  5
119
330
102
100
AcDbEntity
  8
$DDT_AUDIT_GENERATED_(96)
  6
Continuous
 62
     7
100
AcDbCircle
 10
138.1302262129
 20
244.7042394816
 30
0.0
 40
0.7000000000000001
100
AcDbArc
 50
270.0
 51
0.0
  0
ARC
  5
11A
330
102
100
AcDbEntity
  8
$DDT_AUDIT_GENERATED_(96)
  6
Continuous
 62
     7
100
AcDbCircle
 10
128.5302262129
 20
244.7042394816
 30
0.0
 40
0.7000000000000062
100
AcDbArc
 50
180.0
 51
270.0
  0
LINE
  5
11B
330
102
100
AcDbEntity
  8
$DDT_AUDIT_GENERATED_(96)
  6
Continuous
 62
     7
100
AcDbLine
 10
127.8302262129
 20
311.4277982129
 30
0.0
 11
127.8302262129
 21
244.7042394816
 31
0.0
  0
ARC
  5
11C
330
102
100
AcDbEntity
  8
$DDT_AUDIT_GENERATED_(96)
  6
Continuous
 62
     7
100
AcDbCircle
 10
133.5333396516
 20
331.7763929864
 30
0.0
 40
20.51482353459898
100
AcDbArc
 50
286.0737720351
 51
286.1789370369
  0
ARC
  5
11D
330
102
100
AcDbEntity
  8
$DDT_AUDIT_GENERATED_(96)
  6
Continuous
 62
     7
100
AcDbCircle
 10
133.5076939236
 20
342.7306962311
 30
0.0
 40
31.24620694203038
100
AcDbArc
 50
258.8458799944
 51
269.67517764
  0
ARC
  5
11E
330
102
100
AcDbEntity
  8
$DDT_AUDIT_GENERATED_(96)
  6
Continuous
 62
     7
100
AcDbCircle
 10
133.1093846353
 20
331.6458417882
 30
0.0
 40
20.38446991274415
100
AcDbArc
 50
253.7927465864
 51
253.8833623727
  0
ELLIPSE
  5
11F
330
102
100
AcDbEntity
  8
$DDT_AUDIT_GENERATED_(96)
  6
Continuous
 62
     7
100
AcDbEllipse
 10
127.1302262129
 20
311.4277982129
 30
0.0
 11
0.6999999999998076
 21
-2.945556175944821E-11
 31
0.0
210
0.0
220
0.0
230
1.0
 40
0.9998335235
 41
0.0000000000420052
 42
0.805607833761056
  0
ELLIPSE
  5
120
330
102
100
AcDbEntity
  8
$DDT_AUDIT_GENERATED_(96)
  6
Continuous
 62
     7
100
AcDbEllipse
 10
139.5302262129
 20
311.4276367691
 30
0.0
 11
0.6999999999999923
 21
-1.603227150233968E-11
 31
0.0
210
0.0
220
0.0
230
1.0
 40
0.9998335256
 41
2.337923079883555
 42
3.141592653589793
  0
ARC
  5
121
330
102
100
AcDbEntity
  8
$DDT_AUDIT_GENERATED_(96)
  6
Continuous
 62
     7
100
AcDbCircle
 10
133.3305225001
 20
336.4624236116
 30
0.0
 40
25.51406424112357
100
AcDbArc
 50
282.5181994258
 51
353.6962019406
  0
ARC
  5
122
330
102
100
AcDbEntity
  8
$DDT_AUDIT_GENERATED_(96)
  6
Continuous
 62
     7
100
AcDbCircle
 10
143.02039859
 20
335.3953692843
 30
0.0
 40
15.76561382900203
100
AcDbArc
 50
353.684035465
 51
355.2442012777
  0
ARC
  5
123
330
102
100
AcDbEntity
  8
$DDT_AUDIT_GENERATED_(96)
  6
Continuous
 62
     7
100
AcDbCircle
 10
133.3310038224
 20
336.1843660586
 30
0.0
 40
25.48706983490131
100
AcDbArc
 50
355.2825489565
 51
82.8181550801
  0
ARC
  5
124
330
102
100
AcDbEntity
  8
$DDT_AUDIT_GENERATED_(96)
  6
Continuous
 62
     7
100
AcDbCircle
 10
133.3310038224
 20
336.1843660586
 30
0.0
 40
25.48706983490131
100
AcDbArc
 50
85.6356401691
 51
90.001007345
  0
ARC
  5
125
330
102
100
AcDbEntity
  8
$DDT_AUDIT_GENERATED_(96)
  6
Continuous
 62
     7
100
AcDbCircle
 10
133.3301028978
 20
336.1843658772
 30
0.0
 40
25.4870700163675
100
AcDbArc
 50
89.9989820364
 51
94.7108905473
  0
ARC
  5
126
330
102
100
AcDbEntity
  8
$DDT_AUDIT_GENERATED_(96)
  6
Continuous
 62
     7
100
AcDbCircle
 10
133.3301028978
 20
336.1843658772
 30
0.0
 40
25.4870700163675
100
AcDbArc
 50
97.3402547441
 51
184.7174506007
  0
ARC
  5
127
330
102
100
AcDbEntity
  8
$DDT_AUDIT_GENERATED_(96)
  6
Continuous
 62
     7
100
AcDbCircle
 10
123.6398249899
 20
335.3952837084
 30
0.0
 40
15.76472683055083
100
AcDbArc
 50
184.7557548284
 51
186.3160084289
  0
ARC
  5
128
330
102
100
AcDbEntity
  8
$DDT_AUDIT_GENERATED_(96)
  6
Continuous
 62
     7
100
AcDbCircle
 10
133.3305872695
 20
336.4624272363
 30
0.0
 40
25.51406786589984
100
AcDbArc
 50
186.3038053496
 51
257.4746444455
  0
SPLINE
  5
129
330
102
100
AcDbEntity
  8
$DDT_AUDIT_GENERATED_(96)
  6
Continuous
 62
     7
100
AcDbSpline
210
0.0
220
0.0
230
1.0
 70
     8
 71
     3
 72
    12
 73
     8
 74
     0
 42
0.0000000015310852
 43
0.0000000001
 40
0.0
 40
0.0
 40
0.0
 40
0.0
 40
0.25
 40
0.25
 40
0.5
 40
0.5
 40
0.5006201305875698
 40
0.5006201305875698
 40
0.5006201305875698
 40
0.5006201305875698
 10
133.3305454185792
 20
361.5187192328441
 30
0.0
 10
134.1908603316582
 20
361.518719195993
 30
0.0
 10
135.0297919555154
 20
361.4745801778471
 30
0.0
 10
136.2245061251889
 20
361.3861278953869
 30
0.0
 10
136.5788082995419
 20
361.3504316112495
 30
0.0
 10
136.5805507963671
 20
361.3654767410469
 30
0.0
 10
136.5805529356219
 20
361.3655142802916
 30
0.0
 10
136.5805529041387
 20
361.3655521305693
 30
0.0
  0
SPLINE
  5
12A
330
102
100
AcDbEntity
  8
$DDT_AUDIT_GENERATED_(96)
  6
Continuous
 62
     7
100
AcDbSpline
210
0.0
220
0.0
230
1.0
 70
     8
 71
     3
 72
    12
 73
     8
 74
     0
 42
0.0000000015317782
 43
0.0000000001
 40
0.4992113966949779
 40
0.4992113966949779
 40
0.4992113966949779
 40
0.4992113966949779
 40
0.5
 40
0.5
 40
0.75
 40
0.75
 40
1.0
 40
1.0
 40
1.0
 40
1.0
 10
130.0805537861877
 20
361.3655553139582
 30
0.0
 10
130.0805535463036
 20
361.3655070417293
 30
0.0
 10
130.0805568183083
 20
361.3654592724234
 30
0.0
 10
130.082715250906
 20
361.3504283039694
 30
0.0
 10
130.4329657060599
 20
361.3858611220943
 30
0.0
 10
131.6352624013363
 20
361.4748701344087
 30
0.0
 10
132.4787775837533
 20
361.5187192451478
 30
0.0
 10
133.3305454185792
 20
361.5187192328441
 30
0.0
  0
ELLIPSE
  5
12B
330
102
100
AcDbEntity
  8
$DDT_AUDIT_GENERATED_(BD)
  6
Continuous
 62
     7
100
AcDbEllipse
 10
133.3305532616
 20
361.3791008617
 30
0.0
 11
-3.349999999999998
 21
-2.051283388571815E-16
 31
0.0
210
0.0
220
0.0
230
1.0
 40
0.0784590957
 41
0.0
 42
0.2072360012957841
  0
ELLIPSE
  5
12C
330
102
100
AcDbEntity
  8
$DDT_AUDIT_GENERATED_(BD)
  6
Continuous
 62
     7
100
AcDbEllipse
 10
133.3305532616
 20
361.3791008617
 30
0.0
 11
-3.349999999999998
 21
-2.051283388571815E-16
 31
0.0
210
0.0
220
0.0
230
1.0
 40
0.0784590957
 41
3.141592653589793
 42
6.283185307179586
  0
ARC
  5
12E
330
102
100
AcDbEntity
  8
$DDT_AUDIT_GENERATED_(12D)
  6
Continuous
 62
     7
100
AcDbCircle
 10
133.3305532616
 20
336.4814956814
 30
0.0
 40
27.0
100
AcDbArc
 50
304.6083075126
 51
0.0
  0
ARC
  5
12F
330
102
100
AcDbEntity
  8
$DDT_AUDIT_GENERATED_(12D)
  6
Continuous
 62
     7
100
AcDbCircle
 10
133.3305532616
 20
336.4814956814
 30
0.0
 40
27.0
100
AcDbArc
 50
0.0
 51
235.4082578486
  0
ARC
  5
131
330
102
100
AcDbEntity
  8
$DDT_AUDIT_GENERATED_(130)
  6
Continuous
 62
     7
100
AcDbCircle
 10
133.3305532616
 20
357.4814956814
 30
0.0
 40
7.000000000003179
100
AcDbArc
 50
54.3827209998
 51
125.6172790002
  0
ENDBLK
  5
133
330
102
100
AcDbEntity
  8
0
100
AcDbBlockEnd
  0
ENDSEC
  0
SECTION
  2
ENTITIES
  0
INSERT
  5
5F
330
1F
100
AcDbEntity
  8
Default
100
AcDbBlockReference
  2
SEANNOT_GROUP
 10
0.0
 20
0.0
 30
0.0
  0
INSERT
  5
66
330
1F
100
AcDbEntity
  8
Default
100
AcDbBlockReference
  2
SEANNOT_GROUP1
 10
0.0
 20
0.0
 30
0.0
  0
INSERT
  5
6C
330
1F
100
AcDbEntity
  8
Default
100
AcDbBlockReference
  2
SEANNOT_GROUP2
 10
0.0
 20
0.0
 30
0.0
  0
INSERT
  5
76
330
1F
100
AcDbEntity
  8
Default
100
AcDbBlockReference
  2
SE
 10
0.0
 20
0.0
 30
0.0
  0
INSERT
  5
D1
330
1F
100
AcDbEntity
  8
Default
100
AcDbBlockReference
  2
SE1
 10
0.0
 20
0.0
 30
0.0
  0
INSERT
  5
103
330
1F
100
AcDbEntity
  8
Default
100
AcDbBlockReference
  2
SE2
 10
0.0
 20
0.0
 30
0.0
  0
TEXT
  5
135
330
1F
100
AcDbEntity
  8
Default
  6
Continuous
 62
     7
100
AcDbText
 10
5.9362635081
 20
53.4225120485
 30
0.0
 40
10.0
  1
Grohe AG^J
  7
SEACAD_seiso_ttf
 11
5.9362635081
 21
63.4225120485
 31
0.0
100
AcDbText
 73
     3
  0
TEXT
  5
136
330
1F
100
AcDbEntity
  8
Default
  6
Continuous
 62
     7
100
AcDbText
 10
5.9362635081
 20
37.0588756849
 30
0.0
 40
10.0
  1
 
  7
SEACAD_seiso_ttf
 11
5.9362635081
 21
47.0588756849
 31
0.0
100
AcDbText
 73
     3
  0
TEXT
  5
137
330
1F
100
AcDbEntity
  8
Default
  6
Continuous
 62
     7
100
AcDbText
 10
5.9362635081
 20
20.6952393213
 30
0.0
 40
10.0
  1
ecn: 
  7
SEACAD_seiso_ttf
 11
5.9362635081
 21
30.6952393213
 31
0.0
100
AcDbText
 73
     3
  0
TEXT
  5
138
330
1F
100
AcDbEntity
  8
Default
  6
Continuous
 62
     7
100
AcDbText
 10
5.9362635081
 20
4.3316029576
 30
0.0
 40
10.0
  1
unit: mm
  7
SEACAD_seiso_ttf
 11
5.9362635081
 21
14.3316029576
 31
0.0
100
AcDbText
 73
     3
  0
LINE
  5
139
330
1F
100
AcDbEntity
  8
Default
  6
Continuous
 62
     7
100
AcDbLine
 10
0.0
 20
0.0
 30
0.0
 11
100.0
 21
0.0
 31
0.0
  0
LINE
  5
13A
330
1F
100
AcDbEntity
  8
Default
  6
Continuous
 62
     7
100
AcDbLine
 10
0.0
 20
0.0
 30
0.0
 11
0.0
 21
100.0
 31
0.0
  0
TEXT
  5
13B
330
1F
100
AcDbEntity
  8
Default
  6
Continuous
 62
     7
100
AcDbText
 10
24.3923665681
 20
-18.2375342018
 30
0.0
 40
10.0
  1
100 mm
  7
SEACAD_seiso_ttf
 11
24.3923665681
 21
-8.2375342018
 31
0.0
100
AcDbText
 73
     3
  0
TEXT
  5
13C
330
1F
100
AcDbEntity
  8
Default
  6
Continuous
 62
     7
100
AcDbText
 10
-7.6150308803
 20
24.6231930421
 30
0.0
 40
10.0
  1
100 mm
 50
90.0
  7
SEACAD_seiso_ttf
 11
-17.6150308803
 21
24.6231930421
 31
0.0
100
AcDbText
 73
     3
  0
TEXT
  5
13D
330
1F
100
AcDbEntity
  8
Default
  6
Continuous
 62
     7
100
AcDbText
 10
28.4878128572
 20
20.0907663715
 30
0.0
 40
10.0
  1
221019
  7
SEACAD_seiso_ttf
 11
28.4878128572
 21
30.0907663715
 31
0.0
100
AcDbText
 73
     3
  0
TEXT
  5
13E
330
1F
100
AcDbEntity
  8
Default
  6
Continuous
 62
     7
100
AcDbText
 10
5.9012241913
 20
36.7242780188
 30
0.0
 40
10.0
  1
31210001
  7
SEACAD_seiso_ttf
 11
5.9012241913
 21
46.7242780188
 31
0.0
100
AcDbText
 73
     3
  0
ENDSEC
  0
SECTION
  2
OBJECTS
  0
DICTIONARY
  5
C
330
0
100
AcDbDictionary
281
     1
  3
ACAD_GROUP
350
D
  3
ACAD_LAYOUT
350
1A
  3
ACAD_MLEADERSTYLE
350
142
  3
ACAD_MLINESTYLE
350
17
  3
ACAD_PLOTSETTINGS
350
19
  3
ACAD_PLOTSTYLENAME
350
E
  3
ACAD_SCALELIST
350
3B
  3
ACAD_TABLESTYLE
350
141
  3
ACAD_VISUALSTYLE
350
2A
  3
AcDbVariableDictionary
350
13F
  0
DICTIONARY
  5
D
102
{ACAD_REACTORS
330
C
102
}
330
C
100
AcDbDictionary
281
     1
  0
DICTIONARY
  5
1A
102
{ACAD_REACTORS
330
C
102
}
330
C
100
AcDbDictionary
281
     1
  3
Layout1
350
1E
  3
Model
350
22
  0
DICTIONARY
  5
142
102
{ACAD_REACTORS
330
C
102
}
330
C
100
AcDbDictionary
281
     1
  0
DICTIONARY
  5
17
102
{ACAD_REACTORS
330
C
102
}
330
C
100
AcDbDictionary
281
     1
  3
Standard
350
18
  0
DICTIONARY
  5
19
102
{ACAD_REACTORS
330
C
102
}
330
C
100
AcDbDictionary
281
     1
  0
ACDBDICTIONARYWDFLT
  5
E
102
{ACAD_REACTORS
330
C
102
}
330
C
100
AcDbDictionary
281
     1
  3
Normal
350
F
100
AcDbDictionaryWithDefault
340
F
  0
DICTIONARY
  5
3B
102
{ACAD_REACTORS
330
C
102
}
330
C
100
AcDbDictionary
281
     1
  3
A0
350
3C
  3
A1
350
3D
  3
A2
350
3E
  3
A3
350
3F
  3
A4
350
40
  3
A5
350
41
  3
A6
350
42
  3
A7
350
43
  3
A8
350
44
  3
A9
350
45
  3
B0
350
46
  3
B1
350
47
  3
B2
350
48
  3
B3
350
49
  3
B4
350
4A
  3
B5
350
4B
  3
B6
350
4C
  3
B7
350
4D
  3
B8
350
4E
  3
B9
350
4F
  3
C0
350
50
  3
C1
350
51
  3
C2
350
52
  3
C3
350
53
  3
C4
350
54
  3
C5
350
55
  3
C6
350
56
  3
C7
350
57
  3
C8
350
58
  3
C9
350
59
  3
D0
350
5A
  3
D1
350
5B
  3
D2
350
5C
  0
DICTIONARY
  5
141
102
{ACAD_REACTORS
330
C
102
}
330
C
100
AcDbDictionary
281
     1
  0
DICTIONARY
  5
2A
102
{ACAD_REACTORS
330
C
102
}
330
C
100
AcDbDictionary
281
     1
  3
2dWireframe
350
2F
  3
3D Hidden
350
31
  3
3dWireframe
350
30
  3
Basic
350
32
  3
Brighten
350
36
  3
ColorChange
350
3A
  3
Conceptual
350
34
  3
Dim
350
35
  3
Facepattern
350
39
  3
Flat
350
2B
  3
FlatWithEdges
350
2C
  3
Gouraud
350
2D
  3
GouraudWithEdges
350
2E
  3
Linepattern
350
38
  3
Realistic
350
33
  3
Thicken
350
37
  0
DICTIONARY
  5
13F
102
{ACAD_REACTORS
330
C
102
}
330
C
100
AcDbDictionary
281
     1
  3
CANNOSCALE
350
140
  3
PSOLHEIGHT
350
144
  3
PSOLWIDTH
350
143
  0
LAYOUT
  5
1E
102
{ACAD_REACTORS
330
1A
102
}
330
1A
100
AcDbPlotSettings
  1

  2
none_device
  4

  6

 40
0.0
 41
0.0
 42
0.0
 43
0.0
 44
0.0
 45
0.0
 46
0.0
 47
0.0
 48
0.0
 49
0.0
140
0.0
141
0.0
142
1.0
143
1.0
 70
   688
 72
     0
 73
     0
 74
     5
  7

 75
    16
147
1.0
148
0.0
149
0.0
100
AcDbLayout
  1
Layout1
 70
     1
 71
     1
 10
0.0
 20
0.0
 11
1682.0
 21
2378.0
 12
0.0
 22
0.0
 32
0.0
 14
0.0
 24
0.0
 34
0.0
 15
1682.0
 25
2378.0
 35
0.0
146
0.0
 13
0.0
 23
0.0
 33
0.0
 16
1.0
 26
0.0
 36
0.0
 17
0.0
 27
1.0
 37
0.0
 76
     0
330
1B
  0
LAYOUT
  5
22
102
{ACAD_REACTORS
330
1A
102
}
330
1A
100
AcDbPlotSettings
  1

  2
none_device
  4

  6

 40
0.0
 41
0.0
 42
0.0
 43
0.0
 44
0.0
 45
0.0
 46
0.0
 47
0.0
 48
0.0
 49
0.0
140
0.0
141
0.0
142
1.0
143
1.0
 70
  1712
 72
     0
 73
     0
 74
     0
  7

 75
     0
147
1.0
148
0.0
149
0.0
100
AcDbLayout
  1
Model
 70
     1
 71
     0
 10
0.0
 20
0.0
 11
1682.0
 21
2378.0
 12
0.0
 22
0.0
 32
0.0
 14
0.0
 24
0.0
 34
0.0
 15
1682.0
 25
2378.0
 35
0.0
146
0.0
 13
0.0
 23
0.0
 33
0.0
 16
1.0
 26
0.0
 36
0.0
 17
0.0
 27
1.0
 37
0.0
 76
     0
330
1F
331
29
  0
MLINESTYLE
  5
18
102
{ACAD_REACTORS
330
17
102
}
330
17
100
AcDbMlineStyle
  2
Standard
 70
     0
  3

 62
   256
 51
90.0
 52
90.0
 71
     2
 49
0.5
 62
   256
  6
BYLAYER
 49
-0.5
 62
   256
  6
BYLAYER
  0
ACDBPLACEHOLDER
  5
F
102
{ACAD_REACTORS
330
E
102
}
330
E
  0
SCALE
  5
3C
102
{ACAD_REACTORS
330
3B
102
}
330
3B
100
AcDbScale
 70
     0
300
1:1
140
1.0
141
1.0
290
     1
  0
SCALE
  5
3D
102
{ACAD_REACTORS
330
3B
102
}
330
3B
100
AcDbScale
 70
     0
300
1:2
140
1.0
141
2.0
290
     0
  0
SCALE
  5
3E
102
{ACAD_REACTORS
330
3B
102
}
330
3B
100
AcDbScale
 70
     0
300
1:4
140
1.0
141
4.0
290
     0
  0
SCALE
  5
3F
102
{ACAD_REACTORS
330
3B
102
}
330
3B
100
AcDbScale
 70
     0
300
1:5
140
1.0
141
5.0
290
     0
  0
SCALE
  5
40
102
{ACAD_REACTORS
330
3B
102
}
330
3B
100
AcDbScale
 70
     0
300
1:8
140
1.0
141
8.0
290
     0
  0
SCALE
  5
41
102
{ACAD_REACTORS
330
3B
102
}
330
3B
100
AcDbScale
 70
     0
300
1:10
140
1.0
141
10.0
290
     0
  0
SCALE
  5
42
102
{ACAD_REACTORS
330
3B
102
}
330
3B
100
AcDbScale
 70
     0
300
1:16
140
1.0
141
16.0
290
     0
  0
SCALE
  5
43
102
{ACAD_REACTORS
330
3B
102
}
330
3B
100
AcDbScale
 70
     0
300
1:20
140
1.0
141
20.0
290
     0
  0
SCALE
  5
44
102
{ACAD_REACTORS
330
3B
102
}
330
3B
100
AcDbScale
 70
     0
300
1:30
140
1.0
141
30.0
290
     0
  0
SCALE
  5
45
102
{ACAD_REACTORS
330
3B
102
}
330
3B
100
AcDbScale
 70
     0
300
1:40
140
1.0
141
40.0
290
     0
  0
SCALE
  5
46
102
{ACAD_REACTORS
330
3B
102
}
330
3B
100
AcDbScale
 70
     0
300
1:50
140
1.0
141
50.0
290
     0
  0
SCALE
  5
47
102
{ACAD_REACTORS
330
3B
102
}
330
3B
100
AcDbScale
 70
     0
300
1:100
140
1.0
141
100.0
290
     0
  0
SCALE
  5
48
102
{ACAD_REACTORS
330
3B
102
}
330
3B
100
AcDbScale
 70
     0
300
2:1
140
2.0
141
1.0
290
     0
  0
SCALE
  5
49
102
{ACAD_REACTORS
330
3B
102
}
330
3B
100
AcDbScale
 70
     0
300
4:1
140
4.0
141
1.0
290
     0
  0
SCALE
  5
4A
102
{ACAD_REACTORS
330
3B
102
}
330
3B
100
AcDbScale
 70
     0
300
8:1
140
8.0
141
1.0
290
     0
  0
SCALE
  5
4B
102
{ACAD_REACTORS
330
3B
102
}
330
3B
100
AcDbScale
 70
     0
300
10:1
140
10.0
141
1.0
290
     0
  0
SCALE
  5
4C
102
{ACAD_REACTORS
330
3B
102
}
330
3B
100
AcDbScale
 70
     0
300
100:1
140
100.0
141
1.0
290
     0
  0
SCALE
  5
4D
102
{ACAD_REACTORS
330
3B
102
}
330
3B
100
AcDbScale
 70
     0
300
1/128" = 1'-0"
140
0.0078125
141
12.0
290
     0
  0
SCALE
  5
4E
102
{ACAD_REACTORS
330
3B
102
}
330
3B
100
AcDbScale
 70
     0
300
1/64" = 1'-0"
140
0.015625
141
12.0
290
     0
  0
SCALE
  5
4F
102
{ACAD_REACTORS
330
3B
102
}
330
3B
100
AcDbScale
 70
     0
300
1/32" = 1'-0"
140
0.03125
141
12.0
290
     0
  0
SCALE
  5
50
102
{ACAD_REACTORS
330
3B
102
}
330
3B
100
AcDbScale
 70
     0
300
1/16" = 1'-0"
140
0.0625
141
12.0
290
     0
  0
SCALE
  5
51
102
{ACAD_REACTORS
330
3B
102
}
330
3B
100
AcDbScale
 70
     0
300
3/32" = 1'-0"
140
0.09375
141
12.0
290
     0
  0
SCALE
  5
52
102
{ACAD_REACTORS
330
3B
102
}
330
3B
100
AcDbScale
 70
     0
300
1/8" = 1'-0"
140
0.125
141
12.0
290
     0
  0
SCALE
  5
53
102
{ACAD_REACTORS
330
3B
102
}
330
3B
100
AcDbScale
 70
     0
300
3/16" = 1'-0"
140
0.1875
141
12.0
290
     0
  0
SCALE
  5
54
102
{ACAD_REACTORS
330
3B
102
}
330
3B
100
AcDbScale
 70
     0
300
1/4" = 1'-0"
140
0.25
141
12.0
290
     0
  0
SCALE
  5
55
102
{ACAD_REACTORS
330
3B
102
}
330
3B
100
AcDbScale
 70
     0
300
3/8" = 1'-0"
140
0.375
141
12.0
290
     0
  0
SCALE
  5
56
102
{ACAD_REACTORS
330
3B
102
}
330
3B
100
AcDbScale
 70
     0
300
1/2" = 1'-0"
140
0.5
141
12.0
290
     0
  0
SCALE
  5
57
102
{ACAD_REACTORS
330
3B
102
}
330
3B
100
AcDbScale
 70
     0
300
3/4" = 1'-0"
140
0.75
141
12.0
290
     0
  0
SCALE
  5
58
102
{ACAD_REACTORS
330
3B
102
}
330
3B
100
AcDbScale
 70
     0
300
1" = 1'-0"
140
1.0
141
12.0
290
     0
  0
SCALE
  5
59
102
{ACAD_REACTORS
330
3B
102
}
330
3B
100
AcDbScale
 70
     0
300
1-1/2" = 1'-0"
140
1.5
141
12.0
290
     0
  0
SCALE
  5
5A
102
{ACAD_REACTORS
330
3B
102
}
330
3B
100
AcDbScale
 70
     0
300
3" = 1'-0"
140
3.0
141
12.0
290
     0
  0
SCALE
  5
5B
102
{ACAD_REACTORS
330
3B
102
}
330
3B
100
AcDbScale
 70
     0
300
6" = 1'-0"
140
6.0
141
12.0
290
     0
  0
SCALE
  5
5C
102
{ACAD_REACTORS
330
3B
102
}
330
3B
100
AcDbScale
 70
     0
300
1'-0" = 1'-0"
140
12.0
141
12.0
290
     0
  0
VISUALSTYLE
  5
2F
102
{ACAD_REACTORS
330
2A
102
}
330
2A
100
AcDbVisualStyle
  2
2dWireframe
 70
     4
 71
     0
 72
     2
 73
     0
 90
        0
 40
-0.6
 41
-30.0
 62
     5
 63
     7
 74
     1
 91
        4
 64
     7
 65
   257
 75
     1
175
     1
 42
1.0
 92
        0
 66
   257
 43
1.0
 76
     1
 77
     6
 78
     2
 67
     7
 79
     5
170
     0
171
     0
290
     0
174
     0
 93
        1
 44
0.0
173
     0
291
     0
 45
0.0
1001
ACAD
1000
AcDbSavedByObjectVersion
1070
     0
  0
VISUALSTYLE
  5
31
102
{ACAD_REACTORS
330
2A
102
}
330
2A
100
AcDbVisualStyle
  2
3D Hidden
 70
     6
 71
     1
 72
     2
 73
     2
 90
        0
 40
-0.6
 41
-30.0
 62
     5
 63
     7
 74
     2
 91
        2
 64
     7
 65
   257
 75
     2
175
     1
 42
40.0
 92
        0
 66
   257
 43
1.0
 76
     1
 77
     6
 78
     2
 67
     7
 79
     3
170
     0
171
     0
290
     0
174
     0
 93
        1
 44
0.0
173
     0
291
     0
 45
0.0
1001
ACAD
1000
AcDbSavedByObjectVersion
1070
     0
  0
VISUALSTYLE
  5
30
102
{ACAD_REACTORS
330
2A
102
}
330
2A
100
AcDbVisualStyle
  2
3dWireframe
 70
     5
 71
     0
 72
     2
 73
     0
 90
        0
 40
-0.6
 41
-30.0
 62
     5
 63
     7
 74
     1
 91
        4
 64
     7
 65
   257
 75
     1
175
     1
 42
1.0
 92
        0
 66
   257
 43
1.0
 76
     1
 77
     6
 78
     2
 67
     7
 79
     5
170
     0
171
     0
290
     0
174
     0
 93
        1
 44
0.0
173
     0
291
     0
 45
0.0
1001
ACAD
1000
AcDbSavedByObjectVersion
1070
     0
  0
VISUALSTYLE
  5
32
102
{ACAD_REACTORS
330
2A
102
}
330
2A
100
AcDbVisualStyle
  2
Basic
 70
     7
 71
     1
 72
     0
 73
     1
 90
        0
 40
-0.6
 41
-30.0
 62
     5
 63
     7
 74
     0
 91
        4
 64
     7
 65
   257
 75
     1
175
     1
 42
1.0
 92
        8
 66
     7
 43
1.0
 76
     1
 77
     6
 78
     2
 67
     7
 79
     5
170
     0
171
     0
290
     0
174
     0
 93
        1
 44
0.0
173
     0
291
     1
 45
0.0
1001
ACAD
1000
AcDbSavedByObjectVersion
1070
     0
  0
VISUALSTYLE
  5
36
102
{ACAD_REACTORS
330
2A
102
}
330
2A
100
AcDbVisualStyle
  2
Brighten
 70
    12
 71
     2
 72
     2
 73
     0
 90
        0
 40
-0.6
 41
-30.0
 62
     5
 63
     7
 74
     1
 91
        4
 64
     7
 65
   257
 75
     1
175
     1
 42
1.0
 92
        8
 66
     7
 43
1.0
 76
     1
 77
     6
 78
     2
 67
     7
 79
     5
170
     0
171
     0
290
     0
174
     0
 93
        1
 44
50.0
173
     0
291
     1
 45
0.0
1001
ACAD
1000
AcDbSavedByObjectVersion
1070
     0
  0
VISUALSTYLE
  5
3A
102
{ACAD_REACTORS
330
2A
102
}
330
2A
100
AcDbVisualStyle
  2
ColorChange
 70
    16
 71
     2
 72
     2
 73
     3
 90
        0
 40
-0.6
 41
-30.0
 62
     5
 63
     8
 74
     1
 91
        4
 64
     7
 65
   257
 75
     1
175
     1
 42
1.0
 92
        8
 66
     8
 43
1.0
 76
     1
 77
     6
 78
     2
 67
     7
 79
     5
170
     0
171
     0
290
     0
174
     0
 93
        1
 44
0.0
173
     0
291
     1
 45
0.0
1001
ACAD
1000
AcDbSavedByObjectVersion
1070
     0
  0
VISUALSTYLE
  5
34
102
{ACAD_REACTORS
330
2A
102
}
330
2A
100
AcDbVisualStyle
  2
Conceptual
 70
     9
 71
     3
 72
     2
 73
     0
 90
        0
 40
-0.6
 41
-30.0
 62
     5
 63
     7
 74
     2
 91
        2
 64
     7
 65
   257
 75
     1
175
     1
 42
40.0
 92
        8
 66
     7
 43
1.0
 76
     1
 77
     6
 78
     2
 67
     7
 79
     3
170
     0
171
     0
290
     0
174
     0
 93
        1
 44
0.0
173
     0
291
     0
 45
0.0
1001
ACAD
1000
AcDbSavedByObjectVersion
1070
     0
  0
VISUALSTYLE
  5
35
102
{ACAD_REACTORS
330
2A
102
}
330
2A
100
AcDbVisualStyle
  2
Dim
 70
    11
 71
     2
 72
     2
 73
     0
 90
        0
 40
-0.6
 41
-30.0
 62
     5
 63
     7
 74
     1
 91
        4
 64
     7
 65
   257
 75
     1
175
     1
 42
1.0
 92
        8
 66
     7
 43
1.0
 76
     1
 77
     6
 78
     2
 67
     7
 79
     5
170
     0
171
     0
290
     0
174
     0
 93
        1
 44
-50.0
173
     0
291
     1
 45
0.0
1001
ACAD
1000
AcDbSavedByObjectVersion
1070
     0
  0
VISUALSTYLE
  5
39
102
{ACAD_REACTORS
330
2A
102
}
330
2A
100
AcDbVisualStyle
  2
Facepattern
 70
    15
 71
     2
 72
     2
 73
     0
 90
        0
 40
-0.6
 41
-30.0
 62
     5
 63
     7
 74
     1
 91
        4
 64
     7
 65
   257
 75
     1
175
     1
 42
1.0
 92
        8
 66
     7
 43
1.0
 76
     1
 77
     6
 78
     2
 67
     7
 79
     5
170
     0
171
     0
290
     0
174
     0
 93
        1
 44
0.0
173
     0
291
     1
 45
0.0
1001
ACAD
1000
AcDbSavedByObjectVersion
1070
     0
  0
VISUALSTYLE
  5
2B
102
{ACAD_REACTORS
330
2A
102
}
330
2A
100
AcDbVisualStyle
  2
Flat
 70
     0
 71
     2
 72
     1
 73
     1
 90
        2
 40
-0.6
 41
30.0
 62
     5
 63
     7
 74
     0
 91
        4
 64
     7
 65
   257
 75
     1
175
     1
 42
1.0
 92
        8
 66
     7
 43
1.0
 76
     1
 77
     6
 78
     2
 67
     7
 79
     5
170
     0
171
     0
290
     0
174
     0
 93
       13
 44
0.0
173
     0
291
     1
 45
0.0
1001
ACAD
1000
AcDbSavedByObjectVersion
1070
     0
  0
VISUALSTYLE
  5
2C
102
{ACAD_REACTORS
330
2A
102
}
330
2A
100
AcDbVisualStyle
  2
FlatWithEdges
 70
     1
 71
     2
 72
     1
 73
     1
 90
        2
 40
-0.6
 41
30.0
 62
     5
 63
     7
 74
     1
 91
        4
 64
     7
 65
   257
 75
     1
175
     1
 42
1.0
 92
        0
 66
   257
 43
1.0
 76
     1
 77
     6
 78
     2
 67
     7
 79
     5
170
     0
171
     0
290
     0
174
     0
 93
       13
 44
0.0
173
     0
291
     1
 45
0.0
1001
ACAD
1000
AcDbSavedByObjectVersion
1070
     0
  0
VISUALSTYLE
  5
2D
102
{ACAD_REACTORS
330
2A
102
}
330
2A
100
AcDbVisualStyle
  2
Gouraud
 70
     2
 71
     2
 72
     2
 73
     1
 90
        2
 40
-0.6
 41
30.0
 62
     5
 63
     7
 74
     0
 91
        4
 64
     7
 65
   257
 75
     1
175
     1
 42
1.0
 92
        0
 66
     7
 43
1.0
 76
     1
 77
     6
 78
     2
 67
     7
 79
     5
170
     0
171
     0
290
     0
174
     0
 93
       13
 44
0.0
173
     0
291
     1
 45
0.0
1001
ACAD
1000
AcDbSavedByObjectVersion
1070
     0
  0
VISUALSTYLE
  5
2E
102
{ACAD_REACTORS
330
2A
102
}
330
2A
100
AcDbVisualStyle
  2
GouraudWithEdges
 70
     3
 71
     2
 72
     2
 73
     1
 90
        2
 40
-0.6
 41
30.0
 62
     5
 63
     7
 74
     1
 91
        4
 64
     7
 65
   257
 75
     1
175
     1
 42
1.0
 92
        0
 66
   257
 43
1.0
 76
     1
 77
     6
 78
     2
 67
     7
 79
     5
170
     0
171
     0
290
     0
174
     0
 93
       13
 44
0.0
173
     0
291
     1
 45
0.0
1001
ACAD
1000
AcDbSavedByObjectVersion
1070
     0
  0
VISUALSTYLE
  5
38
102
{ACAD_REACTORS
330
2A
102
}
330
2A
100
AcDbVisualStyle
  2
Linepattern
 70
    14
 71
     2
 72
     2
 73
     0
 90
        0
 40
-0.6
 41
-30.0
 62
     5
 63
     7
 74
     1
 91
        4
 64
     7
 65
   257
 75
     7
175
     7
 42
1.0
 92
        8
 66
     7
 43
1.0
 76
     1
 77
     6
 78
     2
 67
     7
 79
     5
170
     0
171
     0
290
     0
174
     0
 93
        1
 44
0.0
173
     0
291
     1
 45
0.0
1001
ACAD
1000
AcDbSavedByObjectVersion
1070
     0
  0
VISUALSTYLE
  5
33
102
{ACAD_REACTORS
330
2A
102
}
330
2A
100
AcDbVisualStyle
  2
Realistic
 70
     8
 71
     2
 72
     2
 73
     0
 90
        0
 40
-0.6
 41
-30.0
 62
     5
 63
     7
 74
     1
 91
        0
 64
     7
 65
   257
 75
     1
175
     1
 42
1.0
 92
        8
 66
     8
 43
1.0
 76
     1
 77
     6
 78
     2
 67
     7
 79
     5
170
     0
171
     0
290
     0
174
     0
 93
       13
 44
0.0
173
     0
291
     0
 45
0.0
1001
ACAD
1000
AcDbSavedByObjectVersion
1070
     0
  0
VISUALSTYLE
  5
37
102
{ACAD_REACTORS
330
2A
102
}
330
2A
100
AcDbVisualStyle
  2
Thicken
 70
    13
 71
     2
 72
     2
 73
     0
 90
        0
 40
-0.6
 41
-30.0
 62
     5
 63
     7
 74
     1
 91
        4
 64
     7
 65
   257
 75
     1
175
     1
 42
1.0
 92
       12
 66
     7
 43
1.0
 76
     1
 77
     6
 78
     2
 67
     7
 79
     5
170
     0
171
     0
290
     0
174
     0
 93
        1
 44
0.0
173
     0
291
     1
 45
0.0
1001
ACAD
1000
AcDbSavedByObjectVersion
1070
     0
  0
DICTIONARYVAR
  5
140
102
{ACAD_REACTORS
330
13F
102
}
330
13F
100
DictionaryVariables
280
     0
  1
1:1
  0
DICTIONARYVAR
  5
144
102
{ACAD_REACTORS
330
13F
102
}
330
13F
100
DictionaryVariables
280
     0
  1
80.000000
  0
DICTIONARYVAR
  5
143
102
{ACAD_REACTORS
330
13F
102
}
330
13F
100
DictionaryVariables
280
     0
  1
5.000000
  0
ENDSEC
  0
EOF
