  0
SECTION
  2
HEADER
  9
$ACADVER
  1
AC1015
  9
$ACADMAINTVER
 70
     6
  9
$DWGCODEPAGE
  3
ANSI_1252
  9
$INSBASE
 10
0.0
 20
0.0
 30
0.0
  9
$EXTMIN
 10
0.0
 20
0.0
 30
0.0
  9
$EXTMAX
 10
1682.0
 20
2378.0
 30
0.0
  9
$LIMMIN
 10
0.0
 20
0.0
  9
$LIMMAX
 10
1682.0
 20
2378.0
  9
$ORTHOMODE
 70
     0
  9
$REGENMODE
 70
     1
  9
$FILLMODE
 70
     1
  9
$QTEXTMODE
 70
     0
  9
$MIRRTEXT
 70
     1
  9
$LTSCALE
 40
1.0
  9
$ATTMODE
 70
     1
  9
$TEXTSIZE
 40
2.5
  9
$TRACEWID
 40
1.0
  9
$TEXTSTYLE
  7
Standard
  9
$CLAYER
  8
0
  9
$CELTYPE
  6
ByLayer
  9
$CECOLOR
 62
   256
  9
$CELTSCALE
 40
1.0
  9
$DISPSILH
 70
     0
  9
$DIMSCALE
 40
1.0
  9
$DIMASZ
 40
2.5
  9
$DIMEXO
 40
0.625
  9
$DIMDLI
 40
3.75
  9
$DIMRND
 40
0.0
  9
$DIMDLE
 40
0.0
  9
$DIMEXE
 40
1.25
  9
$DIMTP
 40
0.0
  9
$DIMTM
 40
0.0
  9
$DIMTXT
 40
2.5
  9
$DIMCEN
 40
2.5
  9
$DIMTSZ
 40
0.0
  9
$DIMTOL
 70
     0
  9
$DIMLIM
 70
     0
  9
$DIMTIH
 70
     0
  9
$DIMTOH
 70
     0
  9
$DIMSE1
 70
     0
  9
$DIMSE2
 70
     0
  9
$DIMTAD
 70
     1
  9
$DIMZIN
 70
     8
  9
$DIMBLK
  1

  9
$DIMASO
 70
     1
  9
$DIMSHO
 70
     1
  9
$DIMPOST
  1

  9
$DIMAPOST
  1

  9
$DIMALT
 70
     0
  9
$DIMALTD
 70
     3
  9
$DIMALTF
 40
0.0393700787
  9
$DIMLFAC
 40
1.0
  9
$DIMTOFL
 70
     1
  9
$DIMTVP
 40
0.0
  9
$DIMTIX
 70
     0
  9
$DIMSOXD
 70
     0
  9
$DIMSAH
 70
     0
  9
$DIMBLK1
  1

  9
$DIMBLK2
  1

  9
$DIMSTYLE
  2
ISO-25
  9
$DIMCLRD
 70
     0
  9
$DIMCLRE
 70
     0
  9
$DIMCLRT
 70
     0
  9
$DIMTFAC
 40
1.0
  9
$DIMGAP
 40
0.625
  9
$DIMJUST
 70
     0
  9
$DIMSD1
 70
     0
  9
$DIMSD2
 70
     0
  9
$DIMTOLJ
 70
     0
  9
$DIMTZIN
 70
     8
  9
$DIMALTZ
 70
     0
  9
$DIMALTTZ
 70
     0
  9
$DIMUPT
 70
     0
  9
$DIMDEC
 70
     2
  9
$DIMTDEC
 70
     2
  9
$DIMALTU
 70
     2
  9
$DIMALTTD
 70
     3
  9
$DIMTXSTY
  7
Standard
  9
$DIMAUNIT
 70
     0
  9
$DIMADEC
 70
     0
  9
$DIMALTRND
 40
0.0
  9
$DIMAZIN
 70
     0
  9
$DIMDSEP
 70
    44
  9
$DIMATFIT
 70
     3
  9
$DIMFRAC
 70
     0
  9
$DIMLDRBLK
  1

  9
$DIMLUNIT
 70
     2
  9
$DIMLWD
 70
    -2
  9
$DIMLWE
 70
    -2
  9
$DIMTMOVE
 70
     0
  9
$LUNITS
 70
     2
  9
$LUPREC
 70
     4
  9
$SKETCHINC
 40
1.0
  9
$FILLETRAD
 40
10.0
  9
$AUNITS
 70
     0
  9
$AUPREC
 70
     0
  9
$MENU
  1
.
  9
$ELEVATION
 40
0.0
  9
$PELEVATION
 40
0.0
  9
$THICKNESS
 40
0.0
  9
$LIMCHECK
 70
     0
  9
$CHAMFERA
 40
10.0
  9
$CHAMFERB
 40
10.0
  9
$CHAMFERC
 40
20.0
  9
$CHAMFERD
 40
0.0
  9
$SKPOLY
 70
     0
  9
$TDCREATE
 40
2455695.480174109
  9
$TDUCREATE
 40
2455695.396840775
  9
$TDUPDATE
 40
2455695.480174121
  9
$TDUUPDATE
 40
2455695.396840787
  9
$TDINDWG
 40
0.0000000116
  9
$TDUSRTIMER
 40
0.0000000116
  9
$USRTIMER
 70
     1
  9
$ANGBASE
 50
0.0
  9
$ANGDIR
 70
     0
  9
$PDMODE
 70
     0
  9
$PDSIZE
 40
0.0
  9
$PLINEWID
 40
0.0
  9
$SPLFRAME
 70
     0
  9
$SPLINETYPE
 70
     6
  9
$SPLINESEGS
 70
     8
  9
$HANDSEED
  5
16E
  9
$SURFTAB1
 70
     6
  9
$SURFTAB2
 70
     6
  9
$SURFTYPE
 70
     6
  9
$SURFU
 70
     6
  9
$SURFV
 70
     6
  9
$UCSBASE
  2

  9
$UCSNAME
  2

  9
$UCSORG
 10
0.0
 20
0.0
 30
0.0
  9
$UCSXDIR
 10
1.0
 20
0.0
 30
0.0
  9
$UCSYDIR
 10
0.0
 20
1.0
 30
0.0
  9
$UCSORTHOREF
  2

  9
$UCSORTHOVIEW
 70
     0
  9
$UCSORGTOP
 10
0.0
 20
0.0
 30
0.0
  9
$UCSORGBOTTOM
 10
0.0
 20
0.0
 30
0.0
  9
$UCSORGLEFT
 10
0.0
 20
0.0
 30
0.0
  9
$UCSORGRIGHT
 10
0.0
 20
0.0
 30
0.0
  9
$UCSORGFRONT
 10
0.0
 20
0.0
 30
0.0
  9
$UCSORGBACK
 10
0.0
 20
0.0
 30
0.0
  9
$PUCSBASE
  2

  9
$PUCSNAME
  2

  9
$PUCSORG
 10
0.0
 20
0.0
 30
0.0
  9
$PUCSXDIR
 10
1.0
 20
0.0
 30
0.0
  9
$PUCSYDIR
 10
0.0
 20
1.0
 30
0.0
  9
$PUCSORTHOREF
  2

  9
$PUCSORTHOVIEW
 70
     0
  9
$PUCSORGTOP
 10
0.0
 20
0.0
 30
0.0
  9
$PUCSORGBOTTOM
 10
0.0
 20
0.0
 30
0.0
  9
$PUCSORGLEFT
 10
0.0
 20
0.0
 30
0.0
  9
$PUCSORGRIGHT
 10
0.0
 20
0.0
 30
0.0
  9
$PUCSORGFRONT
 10
0.0
 20
0.0
 30
0.0
  9
$PUCSORGBACK
 10
0.0
 20
0.0
 30
0.0
  9
$USERI1
 70
     0
  9
$USERI2
 70
     0
  9
$USERI3
 70
     0
  9
$USERI4
 70
     0
  9
$USERI5
 70
     0
  9
$USERR1
 40
0.0
  9
$USERR2
 40
0.0
  9
$USERR3
 40
0.0
  9
$USERR4
 40
0.0
  9
$USERR5
 40
0.0
  9
$WORLDVIEW
 70
     1
  9
$SHADEDGE
 70
     3
  9
$SHADEDIF
 70
    70
  9
$TILEMODE
 70
     1
  9
$MAXACTVP
 70
    64
  9
$PINSBASE
 10
0.0
 20
0.0
 30
0.0
  9
$PLIMCHECK
 70
     0
  9
$PEXTMIN
 10
0.0
 20
0.0
 30
0.0
  9
$PEXTMAX
 10
1682.0
 20
2378.0
 30
0.0
  9
$PLIMMIN
 10
0.0
 20
0.0
  9
$PLIMMAX
 10
1682.0
 20
2378.0
  9
$UNITMODE
 70
     0
  9
$VISRETAIN
 70
     1
  9
$PLINEGEN
 70
     0
  9
$PSLTSCALE
 70
     1
  9
$TREEDEPTH
 70
  3020
  9
$CMLSTYLE
  2
Standard
  9
$CMLJUST
 70
     0
  9
$CMLSCALE
 40
20.0
  9
$PROXYGRAPHICS
 70
     1
  9
$MEASUREMENT
 70
     1
  9
$CELWEIGHT
370
    -1
  9
$ENDCAPS
280
     0
  9
$JOINSTYLE
280
     0
  9
$LWDISPLAY
290
     0
  9
$INSUNITS
 70
     4
  9
$HYPERLINKBASE
  1

  9
$STYLESHEET
  1

  9
$XEDIT
290
     1
  9
$CEPSNTYPE
380
     0
  9
$PSTYLEMODE
290
     1
  9
$FINGERPRINTGUID
  2
{9D82916D-87F7-4A7F-AA53-121829D759EB}
  9
$VERSIONGUID
  2
{FAEB1C32-E019-11D5-929B-00C0DF256EC4}
  9
$EXTNAMES
290
     1
  9
$PSVPSCALE
 40
0.0
  9
$OLESTARTUP
290
     0
  0
ENDSEC
  0
SECTION
  2
CLASSES
  0
CLASS
  1
ACDBDICTIONARYWDFLT
  2
AcDbDictionaryWithDefault
  3
ObjectDBX Classes
 90
        0
280
     0
281
     0
  0
CLASS
  1
VISUALSTYLE
  2
AcDbVisualStyle
  3
ObjectDBX Classes
 90
     4095
280
     0
281
     0
  0
CLASS
  1
SCALE
  2
AcDbScale
  3
ObjectDBX Classes
 90
     1153
280
     0
281
     0
  0
CLASS
  1
DICTIONARYVAR
  2
AcDbDictionaryVar
  3
ObjectDBX Classes
 90
        0
280
     0
281
     0
  0
CLASS
  1
ACDBPLACEHOLDER
  2
AcDbPlaceHolder
  3
ObjectDBX Classes
 90
        0
280
     0
281
     0
  0
CLASS
  1
LAYOUT
  2
AcDbLayout
  3
ObjectDBX Classes
 90
        0
280
     0
281
     0
  0
ENDSEC
  0
SECTION
  2
TABLES
  0
TABLE
  2
VPORT
  5
8
330
0
100
AcDbSymbolTable
 70
     1
  0
VPORT
  5
29
330
8
100
AcDbSymbolTableRecord
100
AcDbViewportTableRecord
  2
*Active
 70
     0
 10
0.0
 20
0.0
 11
1.0
 21
1.0
 12
344.1869158879
 22
148.5
 13
0.0
 23
0.0
 14
10.0
 24
10.0
 15
10.0
 25
10.0
 16
0.0
 26
0.0
 36
1.0
 17
0.0
 27
0.0
 37
0.0
 40
297.0
 41
1.9729729729
 42
50.0
 43
0.0
 44
0.0
 50
0.0
 51
0.0
 71
     0
 72
   100
 73
     1
 74
     3
 75
     0
 76
     0
 77
     0
 78
     0
281
     0
 65
     1
110
0.0
120
0.0
130
0.0
111
1.0
121
0.0
131
0.0
112
0.0
122
1.0
132
0.0
 79
     0
146
0.0
  0
ENDTAB
  0
TABLE
  2
LTYPE
  5
5
330
0
100
AcDbSymbolTable
 70
     2
  0
LTYPE
  5
14
330
5
100
AcDbSymbolTableRecord
100
AcDbLinetypeTableRecord
  2
ByBlock
 70
     0
  3

 72
    65
 73
     0
 40
0.0
  0
LTYPE
  5
15
330
5
100
AcDbSymbolTableRecord
100
AcDbLinetypeTableRecord
  2
ByLayer
 70
     0
  3

 72
    65
 73
     0
 40
0.0
  0
LTYPE
  5
16
330
5
100
AcDbSymbolTableRecord
100
AcDbLinetypeTableRecord
  2
Continuous
 70
     0
  3
Solid line
 72
    65
 73
     0
 40
0.0
  0
LTYPE
  5
60
330
5
100
AcDbSymbolTableRecord
100
AcDbLinetypeTableRecord
  2
CENTER2
 70
     0
  3
Center (.5x) ___ _ ___ _ ___ _ ___ _ ___ _ ___
 72
    65
 73
     4
 40
28.575
 49
19.05
 74
     4
 75
     0
340
0
 46
0.0
 50
0.0
 44
0.0
 45
0.0
 49
-3.175
 74
     4
 75
     0
340
0
 46
0.0
 50
0.0
 44
0.0
 45
0.0
 49
3.175
 74
     4
 75
     0
340
0
 46
0.0
 50
0.0
 44
0.0
 45
0.0
 49
-3.175
 74
     4
 75
     0
340
0
 46
0.0
 50
0.0
 44
0.0
 45
0.0
  0
ENDTAB
  0
TABLE
  2
LAYER
  5
2
330
0
100
AcDbSymbolTable
 70
    12
  0
LAYER
  5
10
330
2
100
AcDbSymbolTableRecord
100
AcDbLayerTableRecord
  2
0
 70
     0
 62
     7
  6
Continuous
370
    -3
390
F
  0
LAYER
  5
5D
330
2
100
AcDbSymbolTableRecord
100
AcDbLayerTableRecord
  2
Default
 70
     0
 62
     7
  6
Continuous
370
    -3
390
F
  0
LAYER
  5
77
330
2
100
AcDbSymbolTableRecord
100
AcDbLayerTableRecord
  2
$DDT_AUDIT_GENERATED_(77)
 70
     0
 62
     7
  6
Continuous
370
    -3
390
F
  0
LAYER
  5
98
330
2
100
AcDbSymbolTableRecord
100
AcDbLayerTableRecord
  2
$DDT_AUDIT_GENERATED_(98)
 70
     0
 62
     7
  6
Continuous
370
    -3
390
F
  0
LAYER
  5
9A
330
2
100
AcDbSymbolTableRecord
100
AcDbLayerTableRecord
  2
$DDT_AUDIT_GENERATED_(9A)
 70
     0
 62
     7
  6
Continuous
370
    -3
390
F
  0
LAYER
  5
A4
330
2
100
AcDbSymbolTableRecord
100
AcDbLayerTableRecord
  2
$DDT_AUDIT_GENERATED_(A4)
 70
     0
 62
     7
  6
Continuous
370
    -3
390
F
  0
LAYER
  5
A7
330
2
100
AcDbSymbolTableRecord
100
AcDbLayerTableRecord
  2
$DDT_AUDIT_GENERATED_(A7)
 70
     0
 62
     7
  6
Continuous
370
    -3
390
F
  0
LAYER
  5
A9
330
2
100
AcDbSymbolTableRecord
100
AcDbLayerTableRecord
  2
$DDT_AUDIT_GENERATED_(A9)
 70
     0
 62
     7
  6
Continuous
370
    -3
390
F
  0
LAYER
  5
DC
330
2
100
AcDbSymbolTableRecord
100
AcDbLayerTableRecord
  2
$DDT_AUDIT_GENERATED_(DC)
 70
     0
 62
     7
  6
Continuous
370
    -3
390
F
  0
LAYER
  5
DF
330
2
100
AcDbSymbolTableRecord
100
AcDbLayerTableRecord
  2
$DDT_AUDIT_GENERATED_(DF)
 70
     0
 62
     7
  6
Continuous
370
    -3
390
F
  0
LAYER
  5
E7
330
2
100
AcDbSymbolTableRecord
100
AcDbLayerTableRecord
  2
$DDT_AUDIT_GENERATED_(E7)
 70
     0
 62
     7
  6
Continuous
370
    -3
390
F
  0
LAYER
  5
11C
330
2
100
AcDbSymbolTableRecord
100
AcDbLayerTableRecord
  2
$DDT_AUDIT_GENERATED_(11C)
 70
     0
 62
     7
  6
Continuous
370
    -3
390
F
  0
ENDTAB
  0
TABLE
  2
STYLE
  5
3
330
0
100
AcDbSymbolTable
 70
     2
  0
STYLE
  5
11
330
3
100
AcDbSymbolTableRecord
100
AcDbTextStyleTableRecord
  2
Standard
 70
     0
 40
0.0
 41
1.0
 50
0.0
 71
     0
 42
2.5
  3
txt
  4

  0
STYLE
  5
15D
330
3
100
AcDbSymbolTableRecord
100
AcDbTextStyleTableRecord
  2
SEACAD_seiso_ttf
 70
     0
 40
0.0
 41
1.0
 50
0.0
 71
     0
 42
0.2
  3
seiso.ttf
  4

  0
ENDTAB
  0
TABLE
  2
VIEW
  5
6
330
0
100
AcDbSymbolTable
 70
     0
  0
ENDTAB
  0
TABLE
  2
UCS
  5
7
330
0
100
AcDbSymbolTable
 70
     0
  0
ENDTAB
  0
TABLE
  2
APPID
  5
9
330
0
100
AcDbSymbolTable
 70
     1
  0
APPID
  5
12
330
9
100
AcDbSymbolTableRecord
100
AcDbRegAppTableRecord
  2
ACAD
 70
     0
  0
ENDTAB
  0
TABLE
  2
DIMSTYLE
  5
A
330
0
100
AcDbSymbolTable
 70
     1
100
AcDbDimStyleTable
  0
DIMSTYLE
105
27
330
A
100
AcDbSymbolTableRecord
100
AcDbDimStyleTableRecord
  2
ISO-25
 70
     0
 41
2.5
 42
0.625
 43
3.75
 44
1.25
 73
     0
 74
     0
 77
     1
 78
     8
140
2.5
141
2.5
143
0.0393700787
147
0.625
171
     3
172
     1
271
     2
272
     2
274
     3
278
    44
283
     0
284
     8
340
11
  0
ENDTAB
  0
TABLE
  2
BLOCK_RECORD
  5
1
330
0
100
AcDbSymbolTable
 70
     7
  0
BLOCK_RECORD
  5
1F
330
1
100
AcDbSymbolTableRecord
100
AcDbBlockTableRecord
  2
*Model_Space
340
22
  0
BLOCK_RECORD
  5
1B
330
1
100
AcDbSymbolTableRecord
100
AcDbBlockTableRecord
  2
*Paper_Space
340
1E
  0
BLOCK_RECORD
  5
5E
330
1
100
AcDbSymbolTableRecord
100
AcDbBlockTableRecord
  2
SEANNOT_GROUP
340
0
102
{BLKREFS
331
5F
102
}
  0
BLOCK_RECORD
  5
65
330
1
100
AcDbSymbolTableRecord
100
AcDbBlockTableRecord
  2
SEANNOT_GROUP1
340
0
102
{BLKREFS
331
66
102
}
  0
BLOCK_RECORD
  5
6B
330
1
100
AcDbSymbolTableRecord
100
AcDbBlockTableRecord
  2
SEANNOT_GROUP2
340
0
102
{BLKREFS
331
6C
102
}
  0
BLOCK_RECORD
  5
75
330
1
100
AcDbSymbolTableRecord
100
AcDbBlockTableRecord
  2
SE
340
0
102
{BLKREFS
331
76
102
}
  0
BLOCK_RECORD
  5
B1
330
1
100
AcDbSymbolTableRecord
100
AcDbBlockTableRecord
  2
SE1
340
0
102
{BLKREFS
331
B2
102
}
  0
BLOCK_RECORD
  5
121
330
1
100
AcDbSymbolTableRecord
100
AcDbBlockTableRecord
  2
SE2
340
0
102
{BLKREFS
331
122
102
}
  0
ENDTAB
  0
ENDSEC
  0
SECTION
  2
BLOCKS
  0
BLOCK
  5
20
330
1F
100
AcDbEntity
  8
0
100
AcDbBlockBegin
  2
*Model_Space
 70
     0
 10
0.0
 20
0.0
 30
0.0
  3
*Model_Space
  1

  0
ENDBLK
  5
21
330
1F
100
AcDbEntity
  8
0
100
AcDbBlockEnd
  0
BLOCK
  5
1C
330
1B
100
AcDbEntity
 67
     1
  8
0
100
AcDbBlockBegin
  2
*Paper_Space
 70
     0
 10
0.0
 20
0.0
 30
0.0
  3
*Paper_Space
  1

  0
ENDBLK
  5
1D
330
1B
100
AcDbEntity
 67
     1
  8
0
100
AcDbBlockEnd
  0
BLOCK
  5
63
330
5E
100
AcDbEntity
  8
0
100
AcDbBlockBegin
  2
SEANNOT_GROUP
 70
     0
 10
0.0
 20
0.0
 30
0.0
  3
SEANNOT_GROUP
  1

  0
LINE
  5
61
330
5E
100
AcDbEntity
  8
Default
  6
CENTER2
 62
     7
100
AcDbLine
 10
78.6216240625
 20
420.0187660491
 30
0.0
 11
38.6216249566
 21
420.0187660491
 31
0.0
  0
LINE
  5
62
330
5E
100
AcDbEntity
  8
Default
  6
CENTER2
 62
     7
100
AcDbLine
 10
58.6216245096
 20
440.0187656021
 30
0.0
 11
58.6216245096
 21
400.0187664962
 31
0.0
  0
ENDBLK
  5
64
330
5E
100
AcDbEntity
  8
0
100
AcDbBlockEnd
  0
BLOCK
  5
69
330
65
100
AcDbEntity
  8
0
100
AcDbBlockBegin
  2
SEANNOT_GROUP1
 70
     0
 10
0.0
 20
0.0
 30
0.0
  3
SEANNOT_GROUP1
  1

  0
LINE
  5
67
330
65
100
AcDbEntity
  8
Default
  6
CENTER2
 62
     7
100
AcDbLine
 10
205.2756818154
 20
420.0187660491
 30
0.0
 11
165.2756827095
 21
420.0187660491
 31
0.0
  0
LINE
  5
68
330
65
100
AcDbEntity
  8
Default
  6
CENTER2
 62
     7
100
AcDbLine
 10
185.2756822625
 20
440.0187656021
 30
0.0
 11
185.2756822625
 21
400.0187664962
 31
0.0
  0
ENDBLK
  5
6A
330
65
100
AcDbEntity
  8
0
100
AcDbBlockEnd
  0
BLOCK
  5
73
330
6B
100
AcDbEntity
  8
0
100
AcDbBlockBegin
  2
SEANNOT_GROUP2
 70
     0
 10
0.0
 20
0.0
 30
0.0
  3
SEANNOT_GROUP2
  1

  0
LINE
  5
6D
330
6B
100
AcDbEntity
  8
Default
  6
CENTER2
 62
     7
100
AcDbLine
 10
78.6211736988
 20
335.3990211982
 30
0.0
 11
38.6211745928
 21
335.3990211982
 31
0.0
  0
LINE
  5
6E
330
6B
100
AcDbEntity
  8
Default
  6
CENTER2
 62
     7
100
AcDbLine
 10
58.6211741458
 20
355.3990207512
 30
0.0
 11
58.6211741458
 21
315.3990216453
 31
0.0
  0
LINE
  5
6F
330
6B
100
AcDbEntity
  8
Default
  6
CENTER2
 62
     7
100
AcDbLine
 10
83.621173587
 20
335.3990211982
 30
0.0
 11
87.6082441622
 21
335.3990211982
 31
0.0
  0
LINE
  5
70
330
6B
100
AcDbEntity
  8
Default
  6
CENTER2
 62
     7
100
AcDbLine
 10
58.6211741458
 20
360.3990206394
 30
0.0
 11
58.6211741458
 21
364.3860912146
 31
0.0
  0
LINE
  5
71
330
6B
100
AcDbEntity
  8
Default
  6
CENTER2
 62
     7
100
AcDbLine
 10
33.6211747046
 20
335.3990211982
 30
0.0
 11
29.6341041294
 21
335.3990211982
 31
0.0
  0
LINE
  5
72
330
6B
100
AcDbEntity
  8
Default
  6
CENTER2
 62
     7
100
AcDbLine
 10
58.6211741458
 20
310.399021757
 30
0.0
 11
58.6211741458
 21
306.4119511819
 31
0.0
  0
ENDBLK
  5
74
330
6B
100
AcDbEntity
  8
0
100
AcDbBlockEnd
  0
BLOCK
  5
AF
330
75
100
AcDbEntity
  8
0
100
AcDbBlockBegin
  2
SE
 70
     0
 10
0.0
 20
0.0
 30
0.0
  3
SE
  1

  0
SPLINE
  5
78
330
75
100
AcDbEntity
  8
$DDT_AUDIT_GENERATED_(77)
  6
Continuous
 62
     7
100
AcDbSpline
210
0.0
220
0.0
230
1.0
 70
    12
 71
     3
 72
    15
 73
    11
 74
     0
 42
0.0000000002099705
 43
0.0000000001
 40
0.0702362451421391
 40
0.0702362451421391
 40
0.0702362451421391
 40
0.0702362451421391
 40
0.1212753013627831
 40
0.1829446442476575
 40
0.2451755770965969
 40
0.3075482497447625
 40
0.3695028753203439
 40
0.431720487915807
 40
0.4940197130511719
 40
0.4990949199244583
 40
0.4990949199244583
 40
0.4990949199244583
 40
0.4990949199244583
 10
64.11991276539476
 20
637.2981181738995
 30
0.0
 41
1.0
 10
65.42912497689076
 20
637.2492414205277
 30
0.0
 41
1.0
 10
68.2660989551666
 20
637.1028298411359
 30
0.0
 41
1.0
 10
72.35482356784598
 20
636.7507451133677
 30
0.0
 41
1.0
 10
76.17565467015878
 20
636.2455762475591
 30
0.0
 41
1.0
 10
79.32340709355785
 20
635.6295158360032
 30
0.0
 41
1.0
 10
81.6805317069551
 20
634.9282432317952
 30
0.0
 41
1.0
 10
83.16620673168929
 20
634.1690444109307
 30
0.0
 41
1.0
 10
83.55686920410501
 20
633.6206027644755
 30
0.0
 41
1.0
 10
83.57570823734132
 20
633.3352960857494
 30
0.0
 41
1.0
 10
83.57608291359765
 20
633.3138060127326
 30
0.0
 41
1.0
  0
SPLINE
  5
79
330
75
100
AcDbEntity
  8
$DDT_AUDIT_GENERATED_(77)
  6
Continuous
 62
     7
100
AcDbSpline
210
0.0
220
0.0
230
1.0
 70
     8
 71
     3
 72
     8
 73
     4
 74
     0
 42
0.0000000005491875
 43
0.0000000001
 40
0.5535652596533832
 40
0.5535652596533832
 40
0.5535652596533832
 40
0.5535652596533832
 40
0.5543338349101947
 40
0.5543338349101947
 40
0.5543338349101947
 40
0.5543338349101947
 10
34.13746800141448
 20
634.2624753941307
 30
0.0
 10
34.14079148336226
 20
634.2657253856763
 30
0.0
 10
34.14413847974954
 20
634.268974844649
 30
0.0
 10
34.14750897916289
 20
634.272223760041
 30
0.0
  0
SPLINE
  5
7A
330
75
100
AcDbEntity
  8
$DDT_AUDIT_GENERATED_(77)
  6
Continuous
 62
     7
100
AcDbSpline
210
0.0
220
0.0
230
1.0
 70
     8
 71
     3
 72
     8
 73
     4
 74
     0
 42
0.0000000005923378
 43
0.0000000001
 40
0.446157937214298
 40
0.446157937214298
 40
0.446157937214298
 40
0.446157937214298
 40
0.4466415254290132
 40
0.4466415254290132
 40
0.4466415254290132
 40
0.4466415254290132
 10
35.60884756526055
 20
635.688649237515
 30
0.0
 10
35.60687922605986
 20
635.6867611510854
 30
0.0
 10
35.60491963911692
 20
635.6848728280629
 30
0.0
 10
35.60296880587948
 20
635.6829842707028
 30
0.0
  0
SPLINE
  5
7B
330
75
100
AcDbEntity
  8
$DDT_AUDIT_GENERATED_(77)
  6
Continuous
 62
     7
100
AcDbSpline
210
0.0
220
0.0
230
1.0
 70
    12
 71
     3
 72
    15
 73
    11
 74
     0
 42
0.000000000210015
 43
0.0000000001
 40
0.500803598963826
 40
0.500803598963826
 40
0.500803598963826
 40
0.500803598963826
 40
0.5079288628988569
 40
0.5702741454226689
 40
0.6324026445815569
 40
0.6944488642058785
 40
0.7567465519393306
 40
0.8190452027784549
 40
0.8807148923454429
 40
0.9297867029288591
 40
0.9297867029288591
 40
0.9297867029288591
 40
0.9297867029288591
 10
33.667153334723
 20
633.3125224037302
 30
0.0
 41
1.0
 10
33.66761937873135
 20
633.3426930428427
 30
0.0
 41
1.0
 10
33.69222528164693
 20
633.6368848701237
 30
0.0
 41
1.0
 10
34.10989544692804
 20
634.1934561168316
 30
0.0
 41
1.0
 10
35.62423384045249
 20
634.9514514957176
 30
0.0
 41
1.0
 10
38.00666560240129
 20
635.6501730332087
 30
0.0
 41
1.0
 10
41.17907368864809
 20
636.2634305815657
 30
0.0
 41
1.0
 10
45.01890906949868
 20
636.7647341424066
 30
0.0
 41
1.0
 10
49.07673208087709
 20
637.1088600972416
 30
0.0
 41
1.0
 10
51.86633548067568
 20
637.2512046834489
 30
0.0
 41
1.0
 10
53.12510743264092
 20
637.2981813959867
 30
0.0
 41
1.0
  0
SPLINE
  5
7C
330
75
100
AcDbEntity
  8
$DDT_AUDIT_GENERATED_(77)
  6
Continuous
 62
     7
100
AcDbSpline
210
0.0
220
0.0
230
1.0
 70
     8
 71
     3
 72
     8
 73
     4
 74
     0
 42
0.0000000005916223
 43
0.0000000001
 40
0.5534365455141901
 40
0.5534365455141901
 40
0.5534365455141901
 40
0.5534365455141901
 40
0.5541557870054605
 40
0.5541557870054605
 40
0.5541557870054605
 40
0.5541557870054605
 10
81.64023095761844
 20
635.6830168052392
 30
0.0
 10
81.63732933055117
 20
635.6858261233393
 30
0.0
 10
81.63440833166376
 20
635.6886349223876
 30
0.0
 10
81.63146796535034
 20
635.6914431948235
 30
0.0
  0
ARC
  5
7D
330
75
100
AcDbEntity
  8
$DDT_AUDIT_GENERATED_(77)
  6
Continuous
 62
     7
100
AcDbCircle
 10
58.6212974609
 20
637.1591339934
 30
0.0
 40
5.500295976022224
100
AcDbArc
 50
331.4953793769
 51
0.5943945413
  0
ARC
  5
7E
330
75
100
AcDbEntity
  8
$DDT_AUDIT_GENERATED_(77)
  6
Continuous
 62
     7
100
AcDbCircle
 10
58.6212974609
 20
637.1591339934
 30
0.0
 40
5.500295976022224
100
AcDbArc
 50
207.5273492285
 51
331.4953793769
  0
ARC
  5
7F
330
75
100
AcDbEntity
  8
$DDT_AUDIT_GENERATED_(77)
  6
Continuous
 62
     7
100
AcDbCircle
 10
58.6212974609
 20
637.1591339934
 30
0.0
 40
5.500295976022224
100
AcDbArc
 50
179.4056054587
 51
207.5273492285
  0
ARC
  5
80
330
75
100
AcDbEntity
  8
$DDT_AUDIT_GENERATED_(77)
  6
Continuous
 62
     7
100
AcDbCircle
 10
58.6212974609
 20
637.2732536472
 30
0.0
 40
5.500295976022224
100
AcDbArc
 50
151.4953793769
 51
180.5943945413
  0
ARC
  5
81
330
75
100
AcDbEntity
  8
$DDT_AUDIT_GENERATED_(77)
  6
Continuous
 62
     7
100
AcDbCircle
 10
58.6212974609
 20
637.2732536472
 30
0.0
 40
5.500295976022224
100
AcDbArc
 50
359.4056054587
 51
27.5273492285
  0
LINE
  5
82
330
75
100
AcDbEntity
  8
$DDT_AUDIT_GENERATED_(77)
  6
Continuous
 62
     7
100
AcDbLine
 10
64.1212974609
 20
637.2161338385
 30
0.0
 11
64.1212974609
 21
625.451054952
 31
0.0
  0
LINE
  5
83
330
75
100
AcDbEntity
  8
$DDT_AUDIT_GENERATED_(77)
  6
Continuous
 62
     7
100
AcDbLine
 10
53.1212974609
 20
625.4510264851
 30
0.0
 11
53.1212974609
 21
637.2161938203
 31
0.0
  0
ARC
  5
84
330
75
100
AcDbEntity
  8
$DDT_AUDIT_GENERATED_(77)
  6
Continuous
 62
     7
100
AcDbCircle
 10
58.5615665069
 20
625.4372457
 30
0.0
 40
5.440286500059291
100
AcDbArc
 50
179.8548639547
 51
270.6321402764
  0
ARC
  5
85
330
75
100
AcDbEntity
  8
$DDT_AUDIT_GENERATED_(77)
  6
Continuous
 62
     7
100
AcDbCircle
 10
58.6897339888
 20
625.428473213
 30
0.0
 40
5.43161041370679
100
AcDbArc
 50
269.281133313
 51
0.2382059767
  0
SPLINE
  5
86
330
75
100
AcDbEntity
  8
$DDT_AUDIT_GENERATED_(77)
  6
Continuous
 62
     7
100
AcDbSpline
210
0.0
220
0.0
230
1.0
 70
     8
 71
     3
 72
     8
 73
     4
 74
     0
 42
0.0000000004076349
 43
0.0000000001
 40
0.0
 40
0.0
 40
0.0
 40
0.0
 40
0.0602148899560806
 40
0.0602148899560806
 40
0.0602148899560806
 40
0.0602148899560806
 10
84.02280449749617
 20
601.6847497618236
 30
0.0
 10
84.08797374504921
 20
602.1745303370212
 30
0.0
 10
84.11593873387459
 20
602.6658402639946
 30
0.0
 10
84.10703850599391
 20
603.1567343917517
 30
0.0
  0
LINE
  5
87
330
75
100
AcDbEntity
  8
$DDT_AUDIT_GENERATED_(77)
  6
Continuous
 62
     7
100
AcDbLine
 10
58.6216261759
 20
601.3596635594
 30
0.0
 11
33.4606170796
 21
601.3596635594
 31
0.0
  0
LINE
  5
88
330
75
100
AcDbEntity
  8
$DDT_AUDIT_GENERATED_(77)
  6
Continuous
 62
     7
100
AcDbLine
 10
83.7826319396
 20
601.3596635594
 30
0.0
 11
58.6216261759
 21
601.3596635594
 31
0.0
  0
SPLINE
  5
89
330
75
100
AcDbEntity
  8
$DDT_AUDIT_GENERATED_(77)
  6
Continuous
 62
     7
100
AcDbSpline
210
0.0
220
0.0
230
1.0
 70
     8
 71
     3
 72
     8
 73
     4
 74
     0
 42
0.0000000004101714
 43
0.0000000001
 40
0.9392031560673834
 40
0.9392031560673834
 40
0.9392031560673834
 40
0.9392031560673834
 40
1.0
 40
1.0
 40
1.0
 40
1.0
 10
33.13338217478649
 20
603.1617019690271
 30
0.0
 10
33.12556943723939
 20
602.6712956947573
 30
0.0
 10
33.15468408226778
 20
602.178973449647
 30
0.0
 10
33.2204445217163
 20
601.6847497618236
 30
0.0
  0
ARC
  5
8A
330
75
100
AcDbEntity
  8
$DDT_AUDIT_GENERATED_(77)
  6
Continuous
 62
     7
100
AcDbCircle
 10
82.1876067435
 20
633.2205735181
 30
0.0
 40
1.391610663278174
100
AcDbArc
 50
3.8480155437
 51
49.095172535
  0
LINE
  5
8B
330
75
100
AcDbEntity
  8
$DDT_AUDIT_GENERATED_(77)
  6
Continuous
 62
     7
100
AcDbLine
 10
35.6041148921
 20
635.6841032798
 30
0.0
 11
34.1498025166
 21
634.2775860788
 31
0.0
  0
SPLINE
  5
8C
330
75
100
AcDbEntity
  8
$DDT_AUDIT_GENERATED_(77)
  6
Continuous
 62
     7
100
AcDbSpline
210
0.0
220
0.0
230
1.0
 70
     8
 71
     3
 72
    29
 73
    25
 74
     0
 42
0.0000000004481505
 43
0.0000000001
 40
0.1616450631020192
 40
0.1616450631020192
 40
0.1616450631020192
 40
0.1616450631020192
 40
0.1869307958666689
 40
0.2199492266125816
 40
0.2474806903704712
 40
0.2720610241867391
 40
0.2969141096231452
 40
0.3645561474692925
 40
0.4337162114938922
 40
0.5029794039296944
 40
0.5550537212098656
 40
0.607705429054713
 40
0.660991842078753
 40
0.7141186184839612
 40
0.7336068986590701
 40
0.7529032464096128
 40
0.7720079109943174
 40
0.7909210596040581
 40
0.8104588991614622
 40
0.8338089516129423
 40
0.8666526926669713
 40
0.9052816466323685
 40
0.9497222435417044
 40
0.9654340164885234
 40
0.9654340164885234
 40
0.9654340164885234
 40
0.9654340164885234
 10
53.39075206411252
 20
638.8956143791362
 30
0.0
 10
53.12285592353209
 20
638.8853972052568
 30
0.0
 10
52.50808007425605
 20
638.8600314692486
 30
0.0
 10
51.61288357376294
 20
638.8165549906773
 30
0.0
 10
50.73752060089003
 20
638.7671845661934
 30
0.0
 10
49.95680413112098
 20
638.7177033652431
 30
0.0
 10
48.78627162286614
 20
638.6355324671449
 30
0.0
 10
47.21649334434559
 20
638.5045782297229
 30
0.0
 10
45.32369601064598
 20
638.3069307651259
 30
0.0
 10
43.69085457190507
 20
638.0973190965716
 30
0.0
 10
42.30536276127047
 20
637.8860172317862
 30
0.0
 10
41.13561760770232
 20
637.6792025907188
 30
0.0
 10
40.05428228747808
 20
637.4572077244944
 30
0.0
 10
39.2790587824354
 20
637.2713337656121
 30
0.0
 10
38.75485935517146
 20
637.1308304350437
 30
0.0
 10
38.43887414003925
 20
637.0407623452501
 30
0.0
 10
38.14006711268613
 20
636.9500692526299
 30
0.0
 10
37.85428368444589
 20
636.8575761953805
 30
0.0
 10
37.5624582410425
 20
636.7565233132361
 30
0.0
 10
37.21760285023198
 20
636.626727154013
 30
0.0
 10
36.81575866079108
 20
636.4572028548821
 30
0.0
 10
36.37974062945084
 20
636.241611734422
 30
0.0
 10
36.05457422779279
 20
636.045095023414
 30
0.0
 10
35.89812383146731
 20
635.9289706659793
 30
0.0
 10
35.85865362792368
 20
635.8982476303008
 30
0.0
  0
SPLINE
  5
8D
330
75
100
AcDbEntity
  8
$DDT_AUDIT_GENERATED_(77)
  6
Continuous
 62
     7
100
AcDbSpline
210
0.0
220
0.0
230
1.0
 70
     8
 71
     3
 72
     8
 73
     4
 74
     0
 42
0.0000000009886563
 43
0.0000000001
 40
0.9950293772710896
 40
0.9950293772710896
 40
0.9950293772710896
 40
0.9950293772710896
 40
1.0
 40
1.0
 40
1.0
 40
1.0
 10
35.64082574085453
 20
635.7162361441633
 30
0.0
 10
35.62838371805176
 20
635.7053393147069
 30
0.0
 10
35.61580965766444
 20
635.6942839451941
 30
0.0
 10
35.60305794136029
 20
635.6830499877407
 30
0.0
  0
LINE
  5
8E
330
75
100
AcDbEntity
  8
$DDT_AUDIT_GENERATED_(77)
  6
Continuous
 62
     7
100
AcDbLine
 10
33.6671825439
 20
633.312567337
 30
0.0
 11
33.1357650047
 21
603.1618715954
 31
0.0
  0
ARC
  5
8F
330
75
100
AcDbEntity
  8
$DDT_AUDIT_GENERATED_(77)
  6
Continuous
 62
     7
100
AcDbCircle
 10
35.0330889291
 20
633.2267151655
 30
0.0
 40
1.368696966041873
100
AcDbArc
 50
133.7335815508
 51
176.3437924802
  0
LINE
  5
90
330
75
100
AcDbEntity
  8
$DDT_AUDIT_GENERATED_(77)
  6
Continuous
 62
     7
100
AcDbLine
 10
34.1444394318
 20
634.272371567
 30
0.0
 11
34.134348239
 21
634.2589925298
 31
0.0
  0
LINE
  5
91
330
75
100
AcDbEntity
  8
$DDT_AUDIT_GENERATED_(77)
  6
Continuous
 62
     7
100
AcDbLine
 10
83.0965768468
 20
634.2745605526
 30
0.0
 11
81.6378264504
 21
635.6853693477
 31
0.0
  0
SPLINE
  5
92
330
75
100
AcDbEntity
  8
$DDT_AUDIT_GENERATED_(77)
  6
Continuous
 62
     7
100
AcDbSpline
210
0.0
220
0.0
230
1.0
 70
     8
 71
     3
 72
     8
 73
     4
 74
     0
 42
0.0000000009626565
 43
0.0000000001
 40
0.0
 40
0.0
 40
0.0
 40
0.0
 40
0.0037609057321247
 40
0.0037609057321247
 40
0.0037609057321247
 40
0.0037609057321247
 10
81.64032670043184
 20
635.6829110775598
 30
0.0
 10
81.63049151370139
 20
635.6917113580475
 30
0.0
 10
81.62078766199049
 20
635.7003812209019
 30
0.0
 10
81.6111872972561
 20
635.708934181461
 30
0.0
  0
SPLINE
  5
93
330
75
100
AcDbEntity
  8
$DDT_AUDIT_GENERATED_(77)
  6
Continuous
 62
     7
100
AcDbSpline
210
0.0
220
0.0
230
1.0
 70
     8
 71
     3
 72
    30
 73
    26
 74
     0
 42
0.0000000004507639
 43
0.0000000001
 40
0.0268770255123684
 40
0.0268770255123684
 40
0.0268770255123684
 40
0.0268770255123684
 40
0.0410074082608536
 40
0.0765904331858256
 40
0.1067723531360325
 40
0.1315770012920716
 40
0.1510449823937463
 40
0.1684643318567717
 40
0.1862562107846613
 40
0.2044206440920112
 40
0.2342574825630734
 40
0.265048195321639
 40
0.29679348013505
 40
0.3295077021426229
 40
0.3655061271854879
 40
0.3993206460052129
 40
0.4366030907263481
 40
0.4773538579739197
 40
0.5215715920871572
 40
0.5692532099090893
 40
0.6203972074948337
 40
0.6750029028812548
 40
0.7330717689468708
 40
0.7946064893122956
 40
0.8383224537625421
 40
0.8383224537625421
 40
0.8383224537625421
 40
0.8383224537625421
 10
81.43942593355976
 20
635.8565336487856
 30
0.0
 10
81.40418260166058
 20
635.8851877024572
 30
0.0
 10
81.27682856178606
 20
635.9843179801859
 30
0.0
 10
81.02376978102512
 20
636.1483912589157
 30
0.0
 10
80.70578988346601
 20
636.3219823918032
 30
0.0
 10
80.41803234576133
 20
636.4593894040777
 30
0.0
 10
80.17041292525762
 20
636.5666130271004
 30
0.0
 10
79.94235290275805
 20
636.658172227461
 30
0.0
 10
79.7059941172898
 20
636.7468865830009
 30
0.0
 10
79.39944151920908
 20
636.8545233934216
 30
0.0
 10
79.00744357054289
 20
636.9810033052454
 30
0.0
 10
78.51192450024898
 20
637.1254632224968
 30
0.0
 10
77.96330204726522
 20
637.2702605714953
 30
0.0
 10
77.34457040684615
 20
637.4182384378593
 30
0.0
 10
76.6704669012732
 20
637.5639524456744
 30
0.0
 10
75.92242280058456
 20
637.7102928303618
 30
0.0
 10
75.09603818580949
 20
637.8565614768971
 30
0.0
 10
74.14075563385667
 20
638.0080774834989
 30
0.0
 10
73.04615377315669
 20
638.1621141260503
 30
0.0
 10
71.80263023066045
 20
638.315533137568
 30
0.0
 10
70.40155315520319
 20
638.4646755525706
 30
0.0
 10
68.83694896781884
 20
638.6053403445749
 30
0.0
 10
67.10516607642066
 20
638.7326697183967
 30
0.0
 10
65.42608184440185
 20
638.8286631297882
 30
0.0
 10
64.31759596739919
 20
638.877112644647
 30
0.0
 10
63.85494151094264
 20
638.8948362350288
 30
0.0
  0
LINE
  5
94
330
75
100
AcDbEntity
  8
$DDT_AUDIT_GENERATED_(77)
  6
Continuous
 62
     7
100
AcDbLine
 10
84.107573774
 20
603.1568511492
 30
0.0
 11
83.5760449372
 21
633.3138562531
 31
0.0
  0
SPLINE
  5
95
330
75
100
AcDbEntity
  8
$DDT_AUDIT_GENERATED_(77)
  6
Continuous
 62
     7
100
AcDbSpline
210
0.0
220
0.0
230
1.0
 70
     8
 71
     3
 72
    31
 73
    27
 74
     0
 42
0.0000000008387862
 43
0.0000000001
 40
0.0
 40
0.0
 40
0.0
 40
0.0
 40
0.0021743367312169
 40
0.0476275702238604
 40
0.0933577749573477
 40
0.1391088176758154
 40
0.1843231283593734
 40
0.2295614004316587
 40
0.2751248771652353
 40
0.3202976973569293
 40
0.3651549497415637
 40
0.4103903496853913
 40
0.45555258924599
 40
0.5001962077042758
 40
0.5451010046948471
 40
0.5903271334467598
 40
0.6351612740082797
 40
0.6798296718808121
 40
0.7250527124030102
 40
0.770270975051389
 40
0.8151064140032016
 40
0.8603169703728974
 40
0.9059039325743405
 40
0.9511971427668907
 40
0.9963859982343437
 40
1.0
 40
1.0
 40
1.0
 40
1.0
 10
63.48740119098959
 20
639.8113153539992
 30
0.0
 10
63.48342322089071
 20
639.8199306263115
 30
0.0
 10
63.40826782533358
 20
639.9825599958601
 30
0.0
 10
63.20336250148695
 20
640.3085750432732
 30
0.0
 10
62.88984607557838
 20
640.7460910778238
 30
0.0
 10
62.52742188117172
 20
641.1529903944698
 30
0.0
 10
62.12993335487096
 20
641.5196854648875
 30
0.0
 10
61.69890963017151
 20
641.8459690029914
 30
0.0
 10
61.23857864394489
 20
642.128899118021
 30
0.0
 10
60.75355357912011
 20
642.36371090107
 30
0.0
 10
60.24904107905815
 20
642.5491171112061
 30
0.0
 10
59.72899291152173
 20
642.6848796000961
 30
0.0
 10
59.19884927439846
 20
642.7683992163869
 30
0.0
 10
58.66435600296155
 20
642.7982647738057
 30
0.0
 10
58.12926625547492
 20
642.7762456626697
 30
0.0
 10
57.59805344690327
 20
642.7020771588168
 30
0.0
 10
57.07790741138243
 20
642.5750870756759
 30
0.0
 10
56.57273627213592
 20
642.397905562248
 30
0.0
 10
56.08554258273531
 20
642.1722716552456
 30
0.0
 10
55.62240434915679
 20
641.8993501210944
 30
0.0
 10
55.18856991995487
 20
641.5818091399767
 30
0.0
 10
54.78661994088713
 20
641.2234631804256
 30
0.0
 10
54.41773051869624
 20
640.8257984246384
 30
0.0
 10
54.09783841920944
 20
640.3968415031176
 30
0.0
 10
53.88654700956432
 20
640.0718511662235
 30
0.0
 10
53.80645753659611
 20
639.9069245546451
 30
0.0
 10
53.79957586125231
 20
639.8927326638835
 30
0.0
  0
SPLINE
  5
96
330
75
100
AcDbEntity
  8
$DDT_AUDIT_GENERATED_(77)
  6
Continuous
 62
     7
100
AcDbSpline
210
0.0
220
0.0
230
1.0
 70
     8
 71
     3
 72
    12
 73
     8
 74
     0
 42
0.0000000259044941
 43
0.0000000001
 40
0.0
 40
0.0
 40
0.0
 40
0.0
 40
0.1334248182879193
 40
0.3944251199313459
 40
0.5914197655238953
 40
0.745192774684806
 40
0.8222553728629874
 40
0.8222553728629874
 40
0.8222553728629874
 40
0.8222553728629874
 10
33.22411091310087
 20
601.6456863658796
 30
0.0
 10
33.22605992135488
 20
601.6279713620722
 30
0.0
 10
33.23147518054739
 20
601.5828837730363
 30
0.0
 10
33.24554024809423
 20
601.5288445850475
 30
0.0
 10
33.27470899968381
 20
601.4606353745088
 30
0.0
 10
33.32063505326521
 20
601.4093980748058
 30
0.0
 10
33.35563292505874
 20
601.3869259398479
 30
0.0
 10
33.36793452138716
 20
601.3807569768138
 30
0.0
  0
SPLINE
  5
97
330
75
100
AcDbEntity
  8
$DDT_AUDIT_GENERATED_(77)
  6
Continuous
 62
     7
100
AcDbSpline
210
0.0
220
0.0
230
1.0
 70
     8
 71
     3
 72
    13
 73
     9
 74
     0
 42
0.0000000249467823
 43
0.0000000001
 40
0.150222209711867
 40
0.150222209711867
 40
0.150222209711867
 40
0.150222209711867
 40
0.1767040605733365
 40
0.3020794675078444
 40
0.4222307472851078
 40
0.555871637510104
 40
0.7627239302708292
 40
1.0
 40
1.0
 40
1.0
 40
1.0
 10
83.86596930944486
 20
601.3764321752402
 30
0.0
 10
83.87058076147767
 20
601.3786189800632
 30
0.0
 10
83.89649298702177
 20
601.391935643541
 30
0.0
 10
83.93535054949588
 20
601.4205508332284
 30
0.0
 10
83.97101385725233
 20
601.4688764442233
 30
0.0
 10
83.99441364395962
 20
601.5204850468616
 30
0.0
 10
84.01057252680394
 20
601.5778282153174
 30
0.0
 10
84.01725888459234
 20
601.6277693256691
 30
0.0
 10
84.02088086374015
 20
601.659012768192
 30
0.0
  0
ARC
  5
99
330
75
100
AcDbEntity
  8
$DDT_AUDIT_GENERATED_(98)
  6
Continuous
 62
     7
100
AcDbCircle
 10
67.8518738005
 20
533.3941442359
 30
0.0
 40
28.85021512826139
100
AcDbArc
 50
144.2011252998
 51
144.3182451403
  0
SPLINE
  5
9B
330
75
100
AcDbEntity
  8
$DDT_AUDIT_GENERATED_(9A)
  6
Continuous
 62
     7
100
AcDbSpline
210
0.0
220
0.0
230
1.0
 70
     8
 71
     3
 72
     8
 73
     4
 74
     0
 42
0.0000000002328883
 43
0.0000000001
 40
0.3902360389550924
 40
0.3902360389550924
 40
0.3902360389550924
 40
0.3902360389550924
 40
0.4011172083758676
 40
0.4011172083758676
 40
0.4011172083758676
 40
0.4011172083758676
 10
44.51996785391915
 20
549.9422651985983
 30
0.0
 10
44.48377190757281
 20
550.0937362223959
 30
0.0
 10
44.45002644115068
 20
550.245792172537
 30
0.0
 10
44.41873909303423
 20
550.3983528360561
 30
0.0
  0
SPLINE
  5
9C
330
75
100
AcDbEntity
  8
$DDT_AUDIT_GENERATED_(9A)
  6
Continuous
 62
     7
100
AcDbSpline
210
0.0
220
0.0
230
1.0
 70
     8
 71
     3
 72
     8
 73
     4
 74
     0
 42
0.0000000002328945
 43
0.0000000001
 40
0.4703711228082251
 40
0.4703711228082251
 40
0.4703711228082251
 40
0.4703711228082251
 40
0.4767018376860976
 40
0.4767018376860976
 40
0.4767018376860976
 40
0.4767018376860976
 10
44.12203535687717
 20
553.3519541073944
 30
0.0
 10
44.12221674875189
 20
553.4425620257583
 30
0.0
 10
44.12324666142391
 20
553.5331679783742
 30
0.0
 10
44.12512659918782
 20
553.6237561681871
 30
0.0
  0
SPLINE
  5
9D
330
75
100
AcDbEntity
  8
$DDT_AUDIT_GENERATED_(9A)
  6
Continuous
 62
     7
100
AcDbSpline
210
0.0
220
0.0
230
1.0
 70
     8
 71
     3
 72
     8
 73
     4
 74
     0
 42
0.0000000002328428
 43
0.0000000001
 40
0.9750984576635183
 40
0.9750984576635183
 40
0.9750984576635183
 40
0.9750984576635183
 40
1.0
 40
1.0
 40
1.0
 40
1.0
 10
57.55336777655605
 20
567.7774225381949
 30
0.0
 10
57.90878956466381
 20
567.8038262490319
 30
0.0
 10
58.26518268866588
 20
567.8171190355525
 30
0.0
 10
58.62159790995585
 20
567.817123319474
 30
0.0
  0
LINE
  5
9E
330
75
100
AcDbEntity
  8
$DDT_AUDIT_GENERATED_(9A)
  6
Continuous
 62
     7
100
AcDbLine
 10
33.1216245096
 20
420.0187660491
 30
0.0
 11
84.1216245096
 21
420.0187660491
 31
0.0
  0
LINE
  5
9F
330
75
100
AcDbEntity
  8
$DDT_AUDIT_GENERATED_(9A)
  6
Continuous
 62
     7
100
AcDbLine
 10
33.6216245096
 20
598.3171050973
 30
0.0
 11
83.6216245096
 21
598.3171050973
 31
0.0
  0
LINE
  5
A0
330
75
100
AcDbEntity
  8
$DDT_AUDIT_GENERATED_(9A)
  6
Continuous
 62
     7
100
AcDbLine
 10
84.1216245096
 20
420.0187660491
 30
0.0
 11
84.1216245096
 21
597.8171050973
 31
0.0
  0
LINE
  5
A1
330
75
100
AcDbEntity
  8
$DDT_AUDIT_GENERATED_(9A)
  6
Continuous
 62
     7
100
AcDbLine
 10
33.1216245096
 20
597.8171050973
 30
0.0
 11
33.1216245096
 21
420.0187660491
 31
0.0
  0
ARC
  5
A2
330
75
100
AcDbEntity
  8
$DDT_AUDIT_GENERATED_(9A)
  6
Continuous
 62
     7
100
AcDbCircle
 10
33.6216245096
 20
597.8171050973
 30
0.0
 40
0.5000000000000004
100
AcDbArc
 50
90.0
 51
180.0
  0
ARC
  5
A3
330
75
100
AcDbEntity
  8
$DDT_AUDIT_GENERATED_(9A)
  6
Continuous
 62
     7
100
AcDbCircle
 10
83.6216245096
 20
597.8171050973
 30
0.0
 40
0.5000000000000004
100
AcDbArc
 50
0.0
 51
90.0
  0
ARC
  5
A5
330
75
100
AcDbEntity
  8
$DDT_AUDIT_GENERATED_(A4)
  6
Continuous
 62
     7
100
AcDbCircle
 10
58.6216245096
 20
591.9171050973
 30
0.0
 40
24.5
100
AcDbArc
 50
157.3171390404
 51
164.8572685595
  0
ARC
  5
A6
330
75
100
AcDbEntity
  8
$DDT_AUDIT_GENERATED_(A4)
  6
Continuous
 62
     7
100
AcDbCircle
 10
58.6216245096
 20
591.9171050973
 30
0.0
 40
24.5
100
AcDbArc
 50
15.1427314405
 51
22.6815250427
  0
CIRCLE
  5
A8
330
75
100
AcDbEntity
  8
$DDT_AUDIT_GENERATED_(A7)
  6
Continuous
 62
     7
100
AcDbCircle
 10
58.6216245096
 20
553.3171050973
 30
0.0
 40
14.50000000000003
  0
LINE
  5
AA
330
75
100
AcDbEntity
  8
$DDT_AUDIT_GENERATED_(A9)
  6
Continuous
 62
     7
100
AcDbLine
 10
48.0466245096
 20
531.5671142084
 30
0.0
 11
69.1966245096
 21
531.5671142084
 31
0.0
  0
LINE
  5
AB
330
75
100
AcDbEntity
  8
$DDT_AUDIT_GENERATED_(A9)
  6
Continuous
 62
     7
100
AcDbLine
 10
70.1966245096
 20
532.5671142084
 30
0.0
 11
70.1966245096
 21
544.6236112766
 31
0.0
  0
LINE
  5
AC
330
75
100
AcDbEntity
  8
$DDT_AUDIT_GENERATED_(A9)
  6
Continuous
 62
     7
100
AcDbLine
 10
47.0466245096
 20
544.5978369707
 30
0.0
 11
47.0466245096
 21
532.5671142084
 31
0.0
  0
ARC
  5
AD
330
75
100
AcDbEntity
  8
$DDT_AUDIT_GENERATED_(A9)
  6
Continuous
 62
     7
100
AcDbCircle
 10
69.1966245096
 20
532.5671142084
 30
0.0
 40
1.000000000000001
100
AcDbArc
 50
270.0
 51
0.0
  0
ARC
  5
AE
330
75
100
AcDbEntity
  8
$DDT_AUDIT_GENERATED_(A9)
  6
Continuous
 62
     7
100
AcDbCircle
 10
48.0466245096
 20
532.5671142084
 30
0.0
 40
1.000000000000001
100
AcDbArc
 50
180.0
 51
270.0
  0
ENDBLK
  5
B0
330
75
100
AcDbEntity
  8
0
100
AcDbBlockEnd
  0
BLOCK
  5
11F
330
B1
100
AcDbEntity
  8
0
100
AcDbBlockBegin
  2
SE1
 70
     0
 10
0.0
 20
0.0
 30
0.0
  3
SE1
  1

  0
ELLIPSE
  5
B3
330
B1
100
AcDbEntity
  8
$DDT_AUDIT_GENERATED_(77)
  6
Continuous
 62
     7
100
AcDbEllipse
 10
209.715563055
 20
637.3924501638
 30
0.0
 11
0.4079999881742014
 21
-3.045078911245724E-7
 31
0.0
210
0.0
220
0.0
230
1.0
 40
0.9842932026
 41
0.0174404049412458
 42
0.876762436853224
  0
SPLINE
  5
B4
330
B1
100
AcDbEntity
  8
$DDT_AUDIT_GENERATED_(77)
  6
Continuous
 62
     7
100
AcDbSpline
210
0.0
220
0.0
230
1.0
 70
     8
 71
     3
 72
     9
 73
     5
 74
     0
 42
0.0000000027456643
 43
0.0000000001
 40
0.0
 40
0.0
 40
0.0
 40
0.0
 40
0.0157014314077876
 40
0.0313325184309011
 40
0.0313325184309011
 40
0.0313325184309011
 40
0.0313325184309011
 10
208.1309110977343
 20
639.0027375276696
 30
0.0
 10
208.1254730781618
 20
639.0018460132326
 30
0.0
 10
208.1146214020277
 20
639.0000669784504
 30
0.0
 10
208.0562941753595
 20
638.9905544211302
 30
0.0
 10
208.0182848053079
 20
638.9843566152748
 30
0.0
  0
SPLINE
  5
B5
330
B1
100
AcDbEntity
  8
$DDT_AUDIT_GENERATED_(77)
  6
Continuous
 62
     7
100
AcDbSpline
210
0.0
220
0.0
230
1.0
 70
     8
 71
     3
 72
    34
 73
    30
 74
     0
 42
0.0000000002113394
 43
0.0000000001
 40
0.0
 40
0.0
 40
0.0
 40
0.0
 40
0.0156960728591194
 40
0.0313833631380045
 40
0.0626300512654207
 40
0.0938807759401517
 40
0.1252632969745395
 40
0.1875632019009283
 40
0.2498154791402045
 40
0.3120512954528896
 40
0.3743418542363775
 40
0.4056995966761481
 40
0.4369420107740716
 40
0.4994406972242162
 40
0.5307963750440517
 40
0.5620683017404935
 40
0.593343803424203
 40
0.6247103092594528
 40
0.6869654714248817
 40
0.7492050229526712
 40
0.7806794758457977
 40
0.812163880724871
 40
0.8433928318618368
 40
0.8746233159691358
 40
0.9060210880603512
 40
0.9373118944175045
 40
0.9685993831917815
 40
0.984300384797001
 40
0.9843453967535889
 40
0.9843453967535889
 40
0.9843453967535889
 40
0.9843453967535889
 10
162.1430618646718
 20
631.4434484584887
 30
0.0
 10
162.1485128572195
 20
631.4443468280786
 30
0.0
 10
162.1594102473783
 20
631.446148031474
 30
0.0
 10
162.276030600603
 20
631.465460393504
 30
0.0
 10
162.555240519699
 20
631.5117366877982
 30
0.0
 10
163.1146626430318
 20
631.6043353369126
 30
0.0
 10
164.1426627226422
 20
631.7737114649568
 30
0.0
 10
165.9407800856646
 20
632.0677446465552
 30
0.0
 10
168.8262197413415
 20
632.5419444607886
 30
0.0
 10
172.3239328964771
 20
633.117087756569
 30
0.0
 10
175.6438427945811
 20
633.6643521574567
 30
0.0
 10
178.4613969925886
 20
634.1271572388525
 30
0.0
 10
181.3658063712156
 20
634.6037906047367
 30
0.0
 10
184.3618164170673
 20
635.0958695888578
 30
0.0
 10
187.3507916254846
 20
635.5873756091703
 30
0.0
 10
189.5743669963086
 20
635.953331758264
 30
0.0
 10
191.7568156423549
 20
636.3126221518725
 30
0.0
 10
194.5768054514294
 20
636.776466936279
 30
0.0
 10
197.9006585926447
 20
637.3212916389434
 30
0.0
 10
200.828926155374
 20
637.8023495040039
 30
0.0
 10
202.8671604843278
 20
638.1374561954574
 30
0.0
 10
204.2301662540916
 20
638.361748110704
 30
0.0
 10
205.4065264275812
 20
638.5554774184184
 30
0.0
 10
206.3835310597538
 20
638.7168964671084
 30
0.0
 10
207.1576410746297
 20
638.8438270173493
 30
0.0
 10
207.7176922566888
 20
638.935352461032
 30
0.0
 10
207.9976525208983
 20
638.980994764324
 30
0.0
 10
208.0853884904316
 20
638.9953012598893
 30
0.0
 10
208.1027679930535
 20
638.9981374296517
 30
0.0
 10
208.1028175768209
 20
638.9981455212821
 30
0.0
  0
ARC
  5
B6
330
B1
100
AcDbEntity
  8
$DDT_AUDIT_GENERATED_(77)
  6
Continuous
 62
     7
100
AcDbCircle
 10
-1952.0911115761
 20
13591.4412541595
 30
0.0
 40
13132.93262785813
100
AcDbArc
 50
279.4736347789
 51
279.4755033223
  0
LINE
  5
B7
330
B1
100
AcDbEntity
  8
$DDT_AUDIT_GENERATED_(77)
  6
Continuous
 62
     7
100
AcDbLine
 10
209.9765376693
 20
637.7011422094
 30
0.0
 11
208.5714887329
 21
638.8519777008
 31
0.0
  0
LINE
  5
B8
330
B1
100
AcDbEntity
  8
$DDT_AUDIT_GENERATED_(77)
  6
Continuous
 62
     7
100
AcDbLine
 10
161.8407126363
 20
631.2473116686
 30
0.0
 11
160.3198269677
 21
629.5108590899
 31
0.0
  0
LINE
  5
B9
330
B1
100
AcDbEntity
  8
$DDT_AUDIT_GENERATED_(77)
  6
Continuous
 62
     7
100
AcDbLine
 10
160.3198321865
 20
629.5108624701
 30
0.0
 11
160.3198662639
 21
629.5108705877
 31
0.0
  0
ELLIPSE
  5
BA
330
B1
100
AcDbEntity
  8
$DDT_AUDIT_GENERATED_(77)
  6
Continuous
 62
     7
100
AcDbEllipse
 10
162.343442237
 20
630.8213550877
 30
0.0
 11
-0.6631666339274866
 21
0.01410561763814933
 31
0.0
210
0.0
220
0.0
230
1.0
 40
0.9835910716
 41
5.040192163187258
 42
5.593426108404525
  0
ELLIPSE
  5
BB
330
B1
100
AcDbEntity
  8
$DDT_AUDIT_GENERATED_(77)
  6
Continuous
 62
     7
100
AcDbEllipse
 10
208.1474049759
 20
638.3503531265
 30
0.0
 11
0.662999994071059
 21
-4.554416566104891E-7
 31
0.0
210
0.0
220
0.0
230
1.0
 40
0.9842931822
 41
0.8767623777591497
 42
1.595677214232291
  0
SPLINE
  5
BC
330
B1
100
AcDbEntity
  8
$DDT_AUDIT_GENERATED_(77)
  6
Continuous
 62
     7
100
AcDbSpline
210
0.0
220
0.0
230
1.0
 70
    12
 71
     3
 72
    23
 73
    19
 74
     0
 42
0.0000000001948016
 43
0.0000000001
 40
0.0
 40
0.0
 40
0.0
 40
0.0
 40
0.0633942640808933
 40
0.1267906502975467
 40
0.1901117087563234
 40
0.2548185500529221
 40
0.3193860483751738
 40
0.3824199689038904
 40
0.4452669703914912
 40
0.5079288628988569
 40
0.5702741454226689
 40
0.6324026445815569
 40
0.6944488642058785
 40
0.7567465519393306
 40
0.8190452027784549
 40
0.8807148923454429
 40
0.9423111372501602
 40
0.9843693570075848
 40
0.9843693570075848
 40
0.9843693570075848
 40
0.9843693570075848
 10
160.2209515376029
 20
629.2556457985177
 30
0.0
 41
1.0
 10
160.2209140927609
 20
629.2556442776201
 30
0.0
 41
1.0
 10
160.5566799002654
 20
629.3097527535132
 30
0.0
 41
1.0
 10
162.0446474960399
 20
629.5496800741537
 30
0.0
 41
1.0
 10
164.4677582430411
 20
629.9407356360737
 30
0.0
 41
1.0
 10
167.7403590225381
 20
630.4696679674717
 30
0.0
 41
1.0
 10
171.7077593358133
 20
631.1120580119692
 30
0.0
 41
1.0
 10
176.1580022562175
 20
631.8341332669087
 30
0.0
 41
1.0
 10
180.902119287546
 20
632.6056624847456
 30
0.0
 41
1.0
 10
185.7869541517841
 20
633.4020040588126
 30
0.0
 41
1.0
 10
190.6299361334841
 20
634.1934561168316
 30
0.0
 41
1.0
 10
195.2569272809513
 20
634.9514514957176
 30
0.0
 41
1.0
 10
199.5122961339414
 20
635.6501730332087
 30
0.0
 41
1.0
 10
203.2392155643061
 20
636.2634305815657
 30
0.0
 41
1.0
 10
206.2803717909506
 20
636.7647341424066
 30
0.0
 41
1.0
 10
208.5157814540012
 20
637.1337675126301
 30
0.0
 41
1.0
 10
209.7222103458565
 20
637.3331208876835
 30
0.0
 41
1.0
 10
210.0382631790888
 20
637.3853626314017
 30
0.0
 41
1.0
 10
210.0929927393485
 20
637.3944098134756
 30
0.0
 41
1.0
  0
LINE
  5
BD
330
B1
100
AcDbEntity
  8
$DDT_AUDIT_GENERATED_(77)
  6
Continuous
 62
     7
100
AcDbLine
 10
160.2209879353
 20
629.2556451536
 30
0.0
 11
160.1881507835
 21
627.4025075327
 31
0.0
  0
LINE
  5
BE
330
B1
100
AcDbEntity
  8
$DDT_AUDIT_GENERATED_(77)
  6
Continuous
 62
     7
100
AcDbLine
 10
277.7026305348
 20
637.2161938203
 30
0.0
 11
277.7026305348
 21
642.0902395842
 31
0.0
  0
LINE
  5
BF
330
B1
100
AcDbEntity
  8
$DDT_AUDIT_GENERATED_(77)
  6
Continuous
 62
     7
100
AcDbLine
 10
277.7026305348
 20
637.2161938203
 30
0.0
 11
277.7026305348
 21
632.3421480565
 31
0.0
  0
LINE
  5
C0
330
B1
100
AcDbEntity
  8
$DDT_AUDIT_GENERATED_(77)
  6
Continuous
 62
     7
100
AcDbLine
 10
210.2218786013
 20
631.8475944892
 30
0.0
 11
210.1235009997
 21
637.3994534246
 31
0.0
  0
ARC
  5
C1
330
B1
100
AcDbEntity
  8
$DDT_AUDIT_GENERATED_(77)
  6
Continuous
 62
     7
100
AcDbCircle
 10
238.7975232987
 20
625.8388090893
 30
0.0
 40
29.20056458105608
100
AcDbArc
 50
168.1250507885
 51
180.7852375237
  0
ARC
  5
C2
330
B1
100
AcDbEntity
  8
$DDT_AUDIT_GENERATED_(77)
  6
Continuous
 62
     7
100
AcDbCircle
 10
235.9970552873
 20
625.9383088298
 30
0.0
 40
26.40208314015905
100
AcDbArc
 50
181.0844328333
 51
194.5722608342
  0
ARC
  5
C3
330
B1
100
AcDbEntity
  8
$DDT_AUDIT_GENERATED_(77)
  6
Continuous
 62
     7
100
AcDbCircle
 10
210.9217687311
 20
631.8599963736
 30
0.0
 40
0.7000000003150126
100
AcDbArc
 50
181.015161156
 51
280.0000030413
  0
ARC
  5
C4
330
B1
100
AcDbEntity
  8
$DDT_AUDIT_GENERATED_(77)
  6
Continuous
 62
     7
100
AcDbCircle
 10
211.1441884105
 20
619.3079248878
 30
0.0
 40
0.6999999989775899
100
AcDbArc
 50
100.0000030413
 51
181.0151611559
  0
LINE
  5
C5
330
B1
100
AcDbEntity
  8
$DDT_AUDIT_GENERATED_(77)
  6
Continuous
 62
     7
100
AcDbLine
 10
160.0655471198
 20
620.4834707338
 30
0.0
 11
160.0354341268
 21
618.7840687715
 31
0.0
  0
LINE
  5
C6
330
B1
100
AcDbEntity
  8
$DDT_AUDIT_GENERATED_(77)
  6
Continuous
 62
     7
100
AcDbLine
 10
210.7585106459
 20
601.563206955
 30
0.0
 11
210.4442982814
 21
619.2955230034
 31
0.0
  0
LINE
  5
C7
330
B1
100
AcDbEntity
  8
$DDT_AUDIT_GENERATED_(77)
  6
Continuous
 62
     7
100
AcDbLine
 10
187.4940195645
 20
601.5116154633
 30
0.0
 11
160.1294188824
 21
618.6109157567
 31
0.0
  0
LINE
  5
C8
330
B1
100
AcDbEntity
  8
$DDT_AUDIT_GENERATED_(77)
  6
Continuous
 62
     7
100
AcDbLine
 10
210.5585420375
 20
601.3596635594
 30
0.0
 11
188.0239388287
 21
601.3596635594
 31
0.0
  0
ARC
  5
C9
330
B1
100
AcDbEntity
  8
$DDT_AUDIT_GENERATED_(77)
  6
Continuous
 62
     7
100
AcDbCircle
 10
188.0237364558
 20
602.3589578012
 30
0.0
 40
0.9992942622370534
100
AcDbArc
 50
237.9883966967
 51
270.0116033034
  0
ARC
  5
CA
330
B1
100
AcDbEntity
  8
$DDT_AUDIT_GENERATED_(77)
  6
Continuous
 62
     7
100
AcDbCircle
 10
210.5585420375
 20
601.5596635594
 30
0.0
 40
0.1999999999999187
100
AcDbArc
 50
270.0000000001
 51
1.0151611559
  0
ARC
  5
CB
330
B1
100
AcDbEntity
  8
$DDT_AUDIT_GENERATED_(77)
  6
Continuous
 62
     7
100
AcDbCircle
 10
160.2354027353
 20
618.780525376
 30
0.0
 40
0.200000000000019
100
AcDbArc
 50
178.984838844
 51
238.0
  0
LINE
  5
CC
330
B1
100
AcDbEntity
  8
$DDT_AUDIT_GENERATED_(77)
  6
Continuous
 62
     7
100
AcDbLine
 10
160.0655471198
 20
620.4834707338
 30
0.0
 11
160.0710021137
 21
620.7913188229
 31
0.0
  0
ARC
  5
CD
330
B1
100
AcDbEntity
  8
$DDT_AUDIT_GENERATED_(77)
  6
Continuous
 62
     7
100
AcDbCircle
 10
135.1156555535
 20
624.5902543135
 30
0.0
 40
25.22972027645851
100
AcDbArc
 50
6.3524645558
 51
6.3998245879
  0
ARC
  5
CE
330
B1
100
AcDbEntity
  8
$DDT_AUDIT_GENERATED_(77)
  6
Continuous
 62
     7
100
AcDbCircle
 10
135.1155965101
 20
624.5902553598
 30
0.0
 40
25.22977883534199
100
AcDbArc
 50
351.5698704073
 51
6.3998072808
  0
ARC
  5
CF
330
B1
100
AcDbEntity
  8
$DDT_AUDIT_GENERATED_(77)
  6
Continuous
 62
     7
100
AcDbCircle
 10
160.5017514131
 20
629.2844535014
 30
0.0
 40
0.2765871653978778
100
AcDbArc
 50
139.493694453
 51
153.2985953891
  0
ARC
  5
D0
330
B1
100
AcDbEntity
  8
$DDT_AUDIT_GENERATED_(77)
  6
Continuous
 62
     7
100
AcDbCircle
 10
212.2229310372
 20
470.4707275433
 30
0.0
 40
168.5781649505014
100
AcDbArc
 50
91.3908778588
 51
107.2813538593
  0
LINE
  5
D1
330
B1
100
AcDbEntity
  8
$DDT_AUDIT_GENERATED_(77)
  6
Continuous
 62
     7
100
AcDbLine
 10
209.5504425728
 20
637.5838476562
 30
0.0
 11
208.0411447176
 21
638.8412608322
 31
0.0
  0
ARC
  5
D2
330
B1
100
AcDbEntity
  8
$DDT_AUDIT_GENERATED_(77)
  6
Continuous
 62
     7
100
AcDbCircle
 10
208.1184043889
 20
638.3265490349
 30
0.0
 40
0.6717835858588174
100
AcDbArc
 50
50.8280001763
 51
91.3404480726
  0
LINE
  5
D3
330
B1
100
AcDbEntity
  8
$DDT_AUDIT_GENERATED_(77)
  6
Continuous
 62
     7
100
AcDbLine
 10
160.5663267703
 20
629.3186924396
 30
0.0
 11
160.3779753362
 21
618.5441743974
 31
0.0
  0
LINE
  5
D4
330
B1
100
AcDbEntity
  8
$DDT_AUDIT_GENERATED_(77)
  6
Continuous
 62
     7
100
AcDbLine
 10
160.2475746349
 20
629.2813111639
 30
0.0
 11
160.2514546209
 21
629.2605670764
 31
0.0
  0
ARC
  5
D5
330
B1
100
AcDbEntity
  8
$DDT_AUDIT_GENERATED_(77)
  6
Continuous
 62
     7
100
AcDbCircle
 10
160.4012193213
 20
629.3366776358
 30
0.0
 40
0.1633160613415673
100
AcDbArc
 50
153.818454809
 51
199.816828211
  0
ARC
  5
D6
330
B1
100
AcDbEntity
  8
$DDT_AUDIT_GENERATED_(77)
  6
Continuous
 62
     7
100
AcDbCircle
 10
209.6934320894
 20
637.3864416315
 30
0.0
 40
0.3996401083205749
100
AcDbArc
 50
1.1424618663
 51
50.7821757375
  0
ARC
  5
D7
330
B1
100
AcDbEntity
  8
$DDT_AUDIT_GENERATED_(77)
  6
Continuous
 62
     7
100
AcDbCircle
 10
162.4522738067
 20
630.8316558306
 30
0.0
 40
0.6604334404474621
100
AcDbArc
 50
112.2780236879
 51
138.8678977083
  0
LINE
  5
D8
330
B1
100
AcDbEntity
  8
$DDT_AUDIT_GENERATED_(77)
  6
Continuous
 62
     7
100
AcDbLine
 10
211.022637798
 20
619.9972908548
 30
0.0
 11
277.1351680723
 21
631.6547173534
 31
0.0
  0
LINE
  5
D9
330
B1
100
AcDbEntity
  8
$DDT_AUDIT_GENERATED_(77)
  6
Continuous
 62
     7
100
AcDbLine
 10
276.8700929972
 20
642.7776702873
 30
0.0
 11
211.0433126695
 21
631.1706292297
 31
0.0
  0
ARC
  5
DA
330
B1
100
AcDbEntity
  8
$DDT_AUDIT_GENERATED_(77)
  6
Continuous
 62
     7
100
AcDbCircle
 10
277.0026304932
 20
642.0902408605
 30
0.0
 40
0.6999998858724001
100
AcDbArc
 50
0.0
 51
100.8874138721
  0
ARC
  5
DB
330
B1
100
AcDbEntity
  8
$DDT_AUDIT_GENERATED_(77)
  6
Continuous
 62
     7
100
AcDbCircle
 10
277.0026305763
 20
632.3421467802
 30
0.0
 40
0.6999999584126027
100
AcDbArc
 50
280.8874138721
 51
0.0
  0
LINE
  5
DD
330
B1
100
AcDbEntity
  8
$DDT_AUDIT_GENERATED_(DC)
  6
Continuous
 62
     7
100
AcDbLine
 10
160.064931184
 20
620.7917966155
 30
0.0
 11
160.4617609093
 21
625.8339963497
 31
0.0
  0
LINE
  5
DE
330
B1
100
AcDbEntity
  8
$DDT_AUDIT_GENERATED_(DC)
  6
Continuous
 62
     7
100
AcDbLine
 10
160.064931184
 20
620.7917966155
 30
0.0
 11
160.0710021138
 21
620.791318823
 31
0.0
  0
LINE
  5
E0
330
B1
100
AcDbEntity
  8
$DDT_AUDIT_GENERATED_(DF)
  6
Continuous
 62
     7
100
AcDbLine
 10
289.7902760358
 20
539.5243533776
 30
0.0
 11
289.7902760358
 21
539.3171050973
 31
0.0
  0
LINE
  5
E1
330
B1
100
AcDbEntity
  8
$DDT_AUDIT_GENERATED_(DF)
  6
Continuous
 62
     7
100
AcDbLine
 10
289.7902760358
 20
540.6168836425
 30
0.0
 11
289.7902760358
 21
539.5243533776
 31
0.0
  0
LINE
  5
E2
330
B1
100
AcDbEntity
  8
$DDT_AUDIT_GENERATED_(DF)
  6
Continuous
 62
     7
100
AcDbLine
 10
289.7902760358
 20
566.0703644846
 30
0.0
 11
289.7902760358
 21
540.6168836425
 31
0.0
  0
ARC
  5
E3
330
B1
100
AcDbEntity
  8
$DDT_AUDIT_GENERATED_(DF)
  6
Continuous
 62
     7
100
AcDbCircle
 10
287.6902760358
 20
553.3171050973
 30
0.0
 40
12.92499999996291
100
AcDbArc
 50
80.6493688947
 51
81.5126218102
  0
LINE
  5
E4
330
B1
100
AcDbEntity
  8
$DDT_AUDIT_GENERATED_(DF)
  6
Continuous
 62
     7
100
AcDbLine
 10
289.5978966272
 20
540.6168836425
 30
0.0
 11
289.7902760358
 21
540.6168836425
 31
0.0
  0
LINE
  5
E5
330
B1
100
AcDbEntity
  8
$DDT_AUDIT_GENERATED_(DF)
  6
Continuous
 62
     7
100
AcDbLine
 10
289.5917900639
 20
539.5243533776
 30
0.0
 11
289.7902760358
 21
539.5243533776
 31
0.0
  0
LINE
  5
E6
330
B1
100
AcDbEntity
  8
$DDT_AUDIT_GENERATED_(DF)
  6
Continuous
 62
     7
100
AcDbLine
 10
289.5281772897
 20
539.3171050973
 30
0.0
 11
289.7902760358
 21
539.3171050973
 31
0.0
  0
LINE
  5
E8
330
B1
100
AcDbEntity
  8
$DDT_AUDIT_GENERATED_(E7)
  6
Continuous
 62
     7
100
AcDbLine
 10
159.8256822625
 20
520.936189443
 30
0.0
 11
159.8256822625
 21
526.0711448393
 31
0.0
  0
LINE
  5
E9
330
B1
100
AcDbEntity
  8
$DDT_AUDIT_GENERATED_(9A)
  6
Continuous
 62
     7
100
AcDbLine
 10
289.5978966272
 20
539.5606524483
 30
0.0
 11
289.5978966272
 21
567.3171402866
 31
0.0
  0
ARC
  5
EA
330
B1
100
AcDbEntity
  8
$DDT_AUDIT_GENERATED_(9A)
  6
Continuous
 62
     7
100
AcDbCircle
 10
289.0978960804
 20
567.3171409967
 30
0.0
 40
0.5000005467827213
100
AcDbArc
 50
0.0
 51
89.9999373448
  0
SPLINE
  5
EB
330
B1
100
AcDbEntity
  8
$DDT_AUDIT_GENERATED_(9A)
  6
Continuous
 62
     7
100
AcDbSpline
210
0.0
220
0.0
230
1.0
 70
    12
 71
     3
 72
    35
 73
    31
 74
     0
 42
0.0000000001666149
 43
0.0000000001
 40
0.0
 40
0.0
 40
0.0
 40
0.0
 40
0.0211604533400663
 40
0.0400592477230436
 40
0.0758494791493459
 40
0.1076666842273407
 40
0.1305870703974494
 40
0.1616307377629365
 40
0.2074601031928464
 40
0.2534855653290373
 40
0.2979482237522824
 40
0.3308599497604788
 40
0.3532410840267793
 40
0.3820505392832013
 40
0.4120491677809523
 40
0.4361870858426998
 40
0.4498061233320849
 40
0.4986951151325364
 40
0.5565999934045593
 40
0.6204968968520278
 40
0.6563758764468978
 40
0.6911497038408705
 40
0.7304761043164594
 40
0.7691557834442627
 40
0.8119802778382311
 40
0.8315333317292286
 40
0.8649747306642424
 40
0.88633642745734
 40
0.9122828454277091
 40
0.9374886195535862
 40
0.9374886195535862
 40
0.9374886195535862
 40
0.9374886195535862
 10
210.7756822624613
 20
572.8171050972936
 30
0.0
 41
1.0
 10
210.7757219339647
 20
572.8171323602708
 30
0.0
 41
1.0
 10
210.7434767114501
 20
572.7774067141107
 30
0.0
 41
1.0
 10
210.5695206432594
 20
572.5577333125888
 30
0.0
 41
1.0
 10
210.2018546485976
 20
572.0814919407928
 30
0.0
 41
1.0
 10
209.6310794355228
 20
571.3009290176277
 30
0.0
 41
1.0
 10
208.9791541343567
 20
570.3565803902477
 30
0.0
 41
1.0
 10
208.1220419766095
 20
569.0328297403497
 30
0.0
 41
1.0
 10
206.9650075446078
 20
567.0295577578408
 30
0.0
 41
1.0
 10
205.6874446284219
 20
564.3428452162857
 30
0.0
 41
1.0
 10
204.6582055138768
 20
561.5151562667188
 30
0.0
 41
1.0
 10
203.9921010944237
 20
558.9785275737977
 30
0.0
 41
1.0
 10
203.5603013357754
 20
556.7121407670948
 30
0.0
 41
1.0
 10
203.2727505823626
 20
554.4312652838837
 30
0.0
 41
1.0
 10
203.1408196715847
 20
552.0326845776277
 30
0.0
 41
1.0
 10
203.1503155369458
 20
550.0571399911818
 30
0.0
 41
1.0
 10
203.2570557633193
 20
547.5375702858238
 30
0.0
 41
1.0
 10
203.6084534925785
 20
544.0796743187317
 30
0.0
 41
1.0
 10
204.4411968406583
 20
539.4168417983568
 30
0.0
 41
1.0
 10
205.4020581558343
 20
535.4232895594988
 30
0.0
 41
1.0
 10
206.2720001373503
 20
532.2638584051448
 30
0.0
 41
1.0
 10
206.9918405195824
 20
529.8373787900558
 30
0.0
 41
1.0
 10
207.7187405519576
 20
527.5313071490737
 30
0.0
 41
1.0
 10
208.4614145700076
 20
525.2899748219477
 30
0.0
 41
1.0
 10
209.0307215021439
 20
523.6402998997718
 30
0.0
 41
1.0
 10
209.5169383791726
 20
522.2625809867507
 30
0.0
 41
1.0
 10
209.8540408762051
 20
521.3241299113138
 30
0.0
 41
1.0
 10
210.166029500779
 20
520.4667283116888
 30
0.0
 41
1.0
 10
210.4001532355913
 20
519.8294840473746
 30
0.0
 41
1.0
 10
210.5265796868128
 20
519.487760612849
 30
0.0
 41
1.0
 10
210.5788616621041
 20
519.3467363178008
 30
0.0
 41
1.0
  0
SPLINE
  5
EC
330
B1
100
AcDbEntity
  8
$DDT_AUDIT_GENERATED_(9A)
  6
Continuous
 62
     7
100
AcDbSpline
210
0.0
220
0.0
230
1.0
 70
    12
 71
     3
 72
     9
 73
     5
 74
     0
 42
0.0000000011059778
 43
0.0000000001
 40
0.9374886195535862
 40
0.9374886195535862
 40
0.9374886195535862
 40
0.9374886195535862
 40
0.9559229387132187
 40
1.0
 40
1.0
 40
1.0
 40
1.0
 10
210.5788616621041
 20
519.3467363178008
 30
0.0
 41
1.0
 10
210.6170982428973
 20
519.2435977729899
 30
0.0
 41
1.0
 10
210.7285929087809
 20
518.9434830877588
 30
0.0
 41
1.0
 10
210.7757281381572
 20
518.8170193335155
 30
0.0
 41
1.0
 10
210.7756822624614
 20
518.8171050972932
 30
0.0
 41
1.0
  0
ARC
  5
ED
330
B1
100
AcDbEntity
  8
$DDT_AUDIT_GENERATED_(9A)
  6
Continuous
 62
     7
100
AcDbCircle
 10
230.7756822625
 20
518.8171050973
 30
0.0
 40
20.00000000000121
100
AcDbArc
 50
89.9999994738
 51
180.0
  0
ARC
  5
EE
330
B1
100
AcDbEntity
  8
$DDT_AUDIT_GENERATED_(9A)
  6
Continuous
 62
     7
100
AcDbCircle
 10
215.7756822625
 20
572.8171050973
 30
0.0
 40
4.999999999999869
100
AcDbArc
 50
180.0
 51
270.0000021047
  0
SPLINE
  5
EF
330
B1
100
AcDbEntity
  8
$DDT_AUDIT_GENERATED_(9A)
  6
Continuous
 62
     7
100
AcDbSpline
210
0.0
220
0.0
230
1.0
 70
     8
 71
     3
 72
    10
 73
     6
 74
     0
 42
0.0000000023755111
 43
0.0000000001
 40
0.0
 40
0.0
 40
0.0
 40
0.0
 40
0.0197064895023072
 40
0.0393624590315475
 40
0.0394513643316715
 40
0.0394513643316715
 40
0.0394513643316715
 40
0.0394513643316715
 10
215.7756824461349
 20
567.8171050972937
 30
0.0
 10
215.7726554246621
 20
567.809715295778
 30
0.0
 10
215.7666095087293
 20
567.7949546373975
 30
0.0
 10
215.7335608162785
 20
567.7154723362829
 30
0.0
 10
215.7120190460945
 20
567.6639897092699
 30
0.0
 10
215.7119219484665
 20
567.6637576609631
 30
0.0
  0
LINE
  5
F0
330
B1
100
AcDbEntity
  8
$DDT_AUDIT_GENERATED_(9A)
  6
Continuous
 62
     7
100
AcDbLine
 10
210.7756822625
 20
420.0187660491
 30
0.0
 11
159.7756822625
 21
420.0187660491
 31
0.0
  0
ARC
  5
F1
330
B1
100
AcDbEntity
  8
$DDT_AUDIT_GENERATED_(9A)
  6
Continuous
 62
     7
100
AcDbCircle
 10
134.4461381021
 20
523.5087660498
 30
0.0
 40
25.50658360833089
100
AcDbArc
 50
353.2454254676
 51
6.7545750008
  0
ARC
  5
F2
330
B1
100
AcDbEntity
  8
$DDT_AUDIT_GENERATED_(9A)
  6
Continuous
 62
     7
100
AcDbCircle
 10
264.5978966252
 20
524.5708800911
 30
0.0
 40
14.50921868736776
100
AcDbArc
 50
79.074371459
 51
100.925629414
  0
LINE
  5
F3
330
B1
100
AcDbEntity
  8
$DDT_AUDIT_GENERATED_(9A)
  6
Continuous
 62
     7
100
AcDbLine
 10
210.2756822625
 20
598.3171050973
 30
0.0
 11
160.2756822625
 21
598.3171050973
 31
0.0
  0
ARC
  5
F4
330
B1
100
AcDbEntity
  8
$DDT_AUDIT_GENERATED_(9A)
  6
Continuous
 62
     7
100
AcDbCircle
 10
289.093692095
 20
539.5563057608
 30
0.0
 40
0.5042232679782226
100
AcDbArc
 50
270.4777739473
 51
0.4939278825
  0
LINE
  5
F5
330
B1
100
AcDbEntity
  8
$DDT_AUDIT_GENERATED_(9A)
  6
Continuous
 62
     7
100
AcDbLine
 10
289.0978966272
 20
539.0521129837
 30
0.0
 11
284.0978966272
 21
539.0521129837
 31
0.0
  0
LINE
  5
F6
330
B1
100
AcDbEntity
  8
$DDT_AUDIT_GENERATED_(9A)
  6
Continuous
 62
     7
100
AcDbLine
 10
284.0978966272
 20
539.0521129837
 30
0.0
 11
284.0978966272
 21
538.8171050973
 31
0.0
  0
LINE
  5
F7
330
B1
100
AcDbEntity
  8
$DDT_AUDIT_GENERATED_(9A)
  6
Continuous
 62
     7
100
AcDbLine
 10
289.1029583937
 20
567.8171050973
 30
0.0
 11
215.7756822625
 21
567.8171050973
 31
0.0
  0
LINE
  5
F8
330
B1
100
AcDbEntity
  8
$DDT_AUDIT_GENERATED_(9A)
  6
Continuous
 62
     7
100
AcDbLine
 10
267.3122374973
 20
538.8171050973
 30
0.0
 11
284.0978966272
 21
538.8171050973
 31
0.0
  0
LINE
  5
F9
330
B1
100
AcDbEntity
  8
$DDT_AUDIT_GENERATED_(9A)
  6
Continuous
 62
     7
100
AcDbLine
 10
230.7756822625
 20
538.8171050973
 30
0.0
 11
261.8478966272
 21
538.8171050973
 31
0.0
  0
LINE
  5
FA
330
B1
100
AcDbEntity
  8
$DDT_AUDIT_GENERATED_(9A)
  6
Continuous
 62
     7
100
AcDbLine
 10
210.7756822625
 20
572.8171050973
 30
0.0
 11
210.7756822625
 21
597.8171050973
 31
0.0
  0
LINE
  5
FB
330
B1
100
AcDbEntity
  8
$DDT_AUDIT_GENERATED_(9A)
  6
Continuous
 62
     7
100
AcDbLine
 10
210.7756822625
 20
420.0187660491
 30
0.0
 11
210.7756822625
 21
518.8171050973
 31
0.0
  0
LINE
  5
FC
330
B1
100
AcDbEntity
  8
$DDT_AUDIT_GENERATED_(9A)
  6
Continuous
 62
     7
100
AcDbLine
 10
159.7756822625
 20
520.5463799245
 30
0.0
 11
159.7756822625
 21
420.0187660491
 31
0.0
  0
LINE
  5
FD
330
B1
100
AcDbEntity
  8
$DDT_AUDIT_GENERATED_(9A)
  6
Continuous
 62
     7
100
AcDbLine
 10
159.7756822625
 20
597.8171050973
 30
0.0
 11
159.7756822625
 21
526.5087660491
 31
0.0
  0
ARC
  5
FE
330
B1
100
AcDbEntity
  8
$DDT_AUDIT_GENERATED_(9A)
  6
Continuous
 62
     7
100
AcDbCircle
 10
204.3787910815
 20
521.3854712889
 30
0.0
 40
6.526674816326942
100
AcDbArc
 50
341.7977214759
 51
356.4153109498
  0
ARC
  5
FF
330
B1
100
AcDbEntity
  8
$DDT_AUDIT_GENERATED_(9A)
  6
Continuous
 62
     7
100
AcDbCircle
 10
229.0744615436
 20
542.020928897
 30
0.0
 40
3.271370741776942
100
AcDbArc
 50
271.1786681744
 51
293.1285266555
  0
ARC
  5
100
330
B1
100
AcDbEntity
  8
$DDT_AUDIT_GENERATED_(9A)
  6
Continuous
 62
     7
100
AcDbCircle
 10
215.7772091459
 20
572.775975113
 30
0.0
 40
5.112620418633809
100
AcDbArc
 50
181.0891632263
 51
269.2722611391
  0
ARC
  5
101
330
B1
100
AcDbEntity
  8
$DDT_AUDIT_GENERATED_(9A)
  6
Continuous
 62
     7
100
AcDbCircle
 10
202.8280108527
 20
521.7017310703
 30
0.0
 40
8.100711579314245
100
AcDbArc
 50
343.0993732783
 51
355.7300698918
  0
ARC
  5
102
330
B1
100
AcDbEntity
  8
$DDT_AUDIT_GENERATED_(9A)
  6
Continuous
 62
     7
100
AcDbCircle
 10
289.1236308812
 20
567.3311478788
 30
0.0
 40
0.4709594287805225
100
AcDbArc
 50
20.7059789577
 51
21.8038485148
  0
ARC
  5
103
330
B1
100
AcDbEntity
  8
$DDT_AUDIT_GENERATED_(9A)
  6
Continuous
 62
     7
100
AcDbCircle
 10
160.2756822625
 20
597.8171050973
 30
0.0
 40
0.5000000000000004
100
AcDbArc
 50
90.0
 51
180.0
  0
ARC
  5
104
330
B1
100
AcDbEntity
  8
$DDT_AUDIT_GENERATED_(9A)
  6
Continuous
 62
     7
100
AcDbCircle
 10
210.2756822625
 20
597.8171050973
 30
0.0
 40
0.5000000000000004
100
AcDbArc
 50
0.0
 51
90.0
  0
LINE
  5
105
330
B1
100
AcDbEntity
  8
$DDT_AUDIT_GENERATED_(A4)
  6
Continuous
 62
     7
100
AcDbLine
 10
171.8059445736
 20
611.2884757251
 30
0.0
 11
170.2756822625
 21
611.2884757251
 31
0.0
  0
ARC
  5
106
330
B1
100
AcDbEntity
  8
$DDT_AUDIT_GENERATED_(A4)
  6
Continuous
 62
     7
100
AcDbCircle
 10
185.2756822625
 20
591.9171050973
 30
0.0
 40
24.5
100
AcDbArc
 50
15.1427314405
 51
22.7116658417
  0
ARC
  5
107
330
B1
100
AcDbEntity
  8
$DDT_AUDIT_GENERATED_(A4)
  6
Continuous
 62
     7
100
AcDbCircle
 10
185.2756822625
 20
591.9171050973
 30
0.0
 40
24.50000000000001
100
AcDbArc
 50
127.7520013062
 51
164.8572685595
  0
SPLINE
  5
108
330
B1
100
AcDbEntity
  8
$DDT_AUDIT_GENERATED_(A7)
  6
Continuous
 62
     7
100
AcDbSpline
210
0.0
220
0.0
230
1.0
 70
     8
 71
     3
 72
    18
 73
    14
 74
     0
 42
0.0000000001921704
 43
0.0000000001
 40
0.0357327279894415
 40
0.0357327279894415
 40
0.0357327279894415
 40
0.0357327279894415
 40
0.0625000000000001
 40
0.0625000000000001
 40
0.0937500000000002
 40
0.0937500000000002
 40
0.1250000000000002
 40
0.1250000000000002
 40
0.1875000000000003
 40
0.1875000000000003
 40
0.2500000000000004
 40
0.2500000000000004
 40
0.2510722864232824
 40
0.2510722864232824
 40
0.2510722864232824
 40
0.2510722864232824
 10
411.5029952798571
 20
550.1769857054375
 30
0.0
 10
411.3659829280039
 20
549.4136610797771
 30
0.0
 10
411.2315663325444
 20
548.6644676298552
 30
0.0
 10
410.9490723588009
 20
547.0841948638969
 30
0.0
 10
410.8041919527507
 20
546.2756138162276
 30
0.0
 10
410.5299832772301
 20
544.7429036196911
 30
0.0
 10
410.3996655075009
 20
544.0137591712271
 30
0.0
 10
410.0479873579912
 20
542.0467501979641
 30
0.0
 10
409.8576417674048
 20
540.9800096183924
 30
0.0
 10
409.6000991529384
 20
539.5402197745207
 30
0.0
 10
409.5332701909766
 20
539.1570222951823
 30
0.0
 10
409.5314233331208
 20
539.1462512866467
 30
0.0
 10
409.531410701766
 20
539.1461785953109
 30
0.0
 10
409.5314166056963
 20
539.1462147681497
 30
0.0
  0
SPLINE
  5
109
330
B1
100
AcDbEntity
  8
$DDT_AUDIT_GENERATED_(A7)
  6
Continuous
 62
     7
100
AcDbSpline
210
0.0
220
0.0
230
1.0
 70
     8
 71
     3
 72
    16
 73
    12
 74
     0
 42
0.0000000001748848
 43
0.0000000001
 40
0.7508774055777817
 40
0.7508774055777817
 40
0.7508774055777817
 40
0.7508774055777817
 40
0.8125000000000001
 40
0.8125000000000001
 40
0.84375
 40
0.84375
 40
0.875
 40
0.875
 40
0.9375
 40
0.9375
 40
1.0
 40
1.0
 40
1.0
 40
1.0
 10
414.5692735829396
 20
567.313808014199
 30
0.0
 10
414.5696388293338
 20
567.3157655729899
 30
0.0
 10
414.5029784180521
 20
566.9604820023326
 30
0.0
 10
414.3150608653983
 20
565.909652334055
 30
0.0
 10
414.2372633335905
 20
565.4764884114564
 30
0.0
 10
414.0543731086212
 20
564.4550300611972
 30
0.0
 10
413.948024960654
 20
563.860203070037
 30
0.0
 10
413.5997185085308
 20
561.9120834238275
 30
0.0
 10
413.320565985392
 20
560.3474527838425
 30
0.0
 10
412.7181313320713
 20
556.9784596127993
 30
0.0
 10
412.3919533794697
 20
555.14084214972
 30
0.0
 10
412.0620445659898
 20
553.2952969022418
 30
0.0
  0
LINE
  5
10A
330
B1
100
AcDbEntity
  8
$DDT_AUDIT_GENERATED_(A7)
  6
Continuous
 62
     7
100
AcDbLine
 10
289.8902760358
 20
539.3171050973
 30
0.0
 11
289.8902760358
 21
567.3171050973
 31
0.0
  0
SPLINE
  5
10B
330
B1
100
AcDbEntity
  8
$DDT_AUDIT_GENERATED_(A7)
  6
Continuous
 62
     7
100
AcDbSpline
210
0.0
220
0.0
230
1.0
 70
     8
 71
     3
 72
    24
 73
    20
 74
     0
 42
0.0000000001872439
 43
0.0000000001
 40
0.5002955616461641
 40
0.5002955616461641
 40
0.5002955616461641
 40
0.5002955616461641
 40
0.5625
 40
0.5625
 40
0.6249999999999998
 40
0.6249999999999998
 40
0.6874999999999997
 40
0.6874999999999997
 40
0.7499999999999997
 40
0.7499999999999997
 40
0.7812499999999999
 40
0.7812499999999999
 40
0.8125000000000001
 40
0.8125000000000001
 40
0.875
 40
0.875
 40
0.9375
 40
0.9375
 40
1.0
 40
1.0
 40
1.0
 40
1.0
 10
398.8402751646551
 20
538.8171060062219
 30
0.0
 10
398.8402129010053
 20
538.8171877295739
 30
0.0
 10
398.5280568178961
 20
539.0731238725074
 30
0.0
 10
397.4038357583059
 20
539.9590960910292
 30
0.0
 10
396.6025736458261
 20
540.5803001274011
 30
0.0
 10
394.708662286593
 20
541.9249105410382
 30
0.0
 10
393.597228222591
 20
542.6679833521728
 30
0.0
 10
391.1037955382811
 20
543.9805297307256
 30
0.0
 10
389.6852510794083
 20
544.565905921522
 30
0.0
 10
387.3744270866122
 20
544.8505064709809
 30
0.0
 10
386.594379162587
 20
544.8398199070425
 30
0.0
 10
385.0700609076232
 20
544.616546012755
 30
0.0
 10
384.3281566549767
 20
544.4062569666547
 30
0.0
 10
382.2468674896281
 20
543.6220749108737
 30
0.0
 10
381.0086726415688
 20
542.9015915898897
 30
0.0
 10
378.8351327632504
 20
541.4999776439718
 30
0.0
 10
377.8835933616764
 20
540.7987076464742
 30
0.0
 10
376.3742624872797
 20
539.6503445600683
 30
0.0
 10
375.8048480472486
 20
539.1918936947668
 30
0.0
 10
375.5294585906215
 20
538.9699838426561
 30
0.0
  0
LINE
  5
10C
330
B1
100
AcDbEntity
  8
$DDT_AUDIT_GENERATED_(A7)
  6
Continuous
 62
     7
100
AcDbLine
 10
375.5294585906
 20
538.9699838427
 30
0.0
 11
371.3902760358
 21
538.9699838427
 31
0.0
  0
LINE
  5
10D
330
B1
100
AcDbEntity
  8
$DDT_AUDIT_GENERATED_(A7)
  6
Continuous
 62
     7
100
AcDbLine
 10
370.8902760358
 20
538.8171050973
 30
0.0
 11
370.8902760358
 21
538.9056542719
 31
0.0
  0
SPLINE
  5
10E
330
B1
100
AcDbEntity
  8
$DDT_AUDIT_GENERATED_(A7)
  6
Continuous
 62
     7
100
AcDbSpline
210
0.0
220
0.0
230
1.0
 70
     8
 71
     3
 72
    10
 73
     6
 74
     0
 42
0.0000000192665393
 43
0.0000000001
 40
0.0
 40
0.0
 40
0.0
 40
0.0
 40
0.5
 40
0.5
 40
1.0
 40
1.0
 40
1.0
 40
1.0
 10
371.3902760357678
 20
538.9699838426561
 30
0.0
 10
371.2576684591863
 20
538.9699838426561
 30
0.0
 10
371.1279806549058
 20
538.9617654558414
 30
0.0
 10
370.9440060548815
 20
538.9366565960967
 30
0.0
 10
370.8902760357678
 20
538.9202840280196
 30
0.0
 10
370.8902760357678
 20
538.9056542719441
 30
0.0
  0
ARC
  5
10F
330
B1
100
AcDbEntity
  8
$DDT_AUDIT_GENERATED_(A7)
  6
Continuous
 62
     7
100
AcDbCircle
 10
334.4333875216
 20
567.1106881934
 30
0.0
 40
80.13216872511894
100
AcDbArc
 50
339.6047832677
 51
0.1305222799
  0
ARC
  5
110
330
B1
100
AcDbEntity
  8
$DDT_AUDIT_GENERATED_(A7)
  6
Continuous
 62
     7
100
AcDbCircle
 10
409.0864096755
 20
539.275075038
 30
0.0
 40
0.4519158791882953
100
AcDbArc
 50
267.7185397732
 51
322.7447481199
  0
SPLINE
  5
111
330
B1
100
AcDbEntity
  8
$DDT_AUDIT_GENERATED_(A7)
  6
Continuous
 62
     7
100
AcDbSpline
210
0.0
220
0.0
230
1.0
 70
     8
 71
     3
 72
    12
 73
     8
 74
     0
 42
0.0000000162174062
 43
0.0000000001
 40
0.0
 40
0.0
 40
0.0
 40
0.0
 40
0.0613858162572988
 40
0.3415214960447743
 40
0.6276255444641249
 40
0.9267446923479549
 40
1.0
 40
1.0
 40
1.0
 40
1.0
 10
414.5315450451116
 20
567.4985542906678
 30
0.0
 10
414.5273927025469
 20
567.5115052760717
 30
0.0
 10
414.5071765084373
 20
567.5732001013982
 30
0.0
 10
414.4247100555662
 20
567.6805233777908
 30
0.0
 10
414.2830156147409
 20
567.7778374935159
 30
0.0
 10
414.1463699325162
 20
567.8220958375572
 30
0.0
 10
414.0760032259026
 20
567.8127039587971
 30
0.0
 10
414.0599277389317
 20
567.810453993764
 30
0.0
  0
ARC
  5
112
330
B1
100
AcDbEntity
  8
$DDT_AUDIT_GENERATED_(A7)
  6
Continuous
 62
     7
100
AcDbCircle
 10
290.3902760358
 20
539.3171050973
 30
0.0
 40
0.5000000000000004
100
AcDbArc
 50
180.0
 51
270.0
  0
ARC
  5
113
330
B1
100
AcDbEntity
  8
$DDT_AUDIT_GENERATED_(A7)
  6
Continuous
 62
     7
100
AcDbCircle
 10
290.3902760358
 20
567.3171050973
 30
0.0
 40
0.5000000000000004
100
AcDbArc
 50
90.0
 51
180.0
  0
LINE
  5
114
330
B1
100
AcDbEntity
  8
$DDT_AUDIT_GENERATED_(A7)
  6
Continuous
 62
     7
100
AcDbLine
 10
398.8108374696
 20
538.8171050973
 30
0.0
 11
409.0663880824
 21
538.8171050973
 31
0.0
  0
LINE
  5
115
330
B1
100
AcDbEntity
  8
$DDT_AUDIT_GENERATED_(A7)
  6
Continuous
 62
     7
100
AcDbLine
 10
290.3902760358
 20
538.8171050973
 30
0.0
 11
370.8902760358
 21
538.8171050973
 31
0.0
  0
LINE
  5
116
330
B1
100
AcDbEntity
  8
$DDT_AUDIT_GENERATED_(A7)
  6
Continuous
 62
     7
100
AcDbLine
 10
414.0628269416
 20
567.8171050973
 30
0.0
 11
290.3902760358
 21
567.8171050973
 31
0.0
  0
LINE
  5
117
330
B1
100
AcDbEntity
  8
$DDT_AUDIT_GENERATED_(A9)
  6
Continuous
 62
     7
100
AcDbLine
 10
397.6652760358
 20
531.5671142084
 30
0.0
 11
376.5152760358
 21
531.5671142084
 31
0.0
  0
LINE
  5
118
330
B1
100
AcDbEntity
  8
$DDT_AUDIT_GENERATED_(A9)
  6
Continuous
 62
     7
100
AcDbLine
 10
398.6652760358
 20
532.5671142084
 30
0.0
 11
398.6652760358
 21
538.9583722463
 31
0.0
  0
LINE
  5
119
330
B1
100
AcDbEntity
  8
$DDT_AUDIT_GENERATED_(A9)
  6
Continuous
 62
     7
100
AcDbLine
 10
375.5152760358
 20
538.9699838427
 30
0.0
 11
375.5152760358
 21
532.5671142084
 31
0.0
  0
ARC
  5
11A
330
B1
100
AcDbEntity
  8
$DDT_AUDIT_GENERATED_(A9)
  6
Continuous
 62
     7
100
AcDbCircle
 10
397.6652760358
 20
532.5671142084
 30
0.0
 40
1.000000000000001
100
AcDbArc
 50
270.0
 51
0.0
  0
ARC
  5
11B
330
B1
100
AcDbEntity
  8
$DDT_AUDIT_GENERATED_(A9)
  6
Continuous
 62
     7
100
AcDbCircle
 10
376.5152760358
 20
532.5671142084
 30
0.0
 40
1.000000000000001
100
AcDbArc
 50
180.0
 51
270.0
  0
LINE
  5
11D
330
B1
100
AcDbEntity
  8
$DDT_AUDIT_GENERATED_(11C)
  6
Continuous
 62
     7
100
AcDbLine
 10
289.8902760358
 20
566.0671142084
 30
0.0
 11
289.7902760358
 21
566.0671142084
 31
0.0
  0
LINE
  5
11E
330
B1
100
AcDbEntity
  8
$DDT_AUDIT_GENERATED_(11C)
  6
Continuous
 62
     7
100
AcDbLine
 10
289.7902760358
 20
540.5671142084
 30
0.0
 11
289.8902760358
 21
540.5671142084
 31
0.0
  0
ENDBLK
  5
120
330
B1
100
AcDbEntity
  8
0
100
AcDbBlockEnd
  0
BLOCK
  5
15B
330
121
100
AcDbEntity
  8
0
100
AcDbBlockBegin
  2
SE2
 70
     0
 10
0.0
 20
0.0
 30
0.0
  3
SE2
  1

  0
LINE
  5
123
330
121
100
AcDbEntity
  8
$DDT_AUDIT_GENERATED_(77)
  6
Continuous
 62
     7
100
AcDbLine
 10
63.4212974609
 20
243.2188948027
 30
0.0
 11
53.8212974609
 21
243.2188948027
 31
0.0
  0
LINE
  5
124
330
121
100
AcDbEntity
  8
$DDT_AUDIT_GENERATED_(77)
  6
Continuous
 62
     7
100
AcDbLine
 10
64.1212974609
 20
243.9188948027
 30
0.0
 11
64.1212974609
 21
310.6422920901
 31
0.0
  0
ARC
  5
125
330
121
100
AcDbEntity
  8
$DDT_AUDIT_GENERATED_(77)
  6
Continuous
 62
     7
100
AcDbCircle
 10
63.4212974609
 20
243.9188948027
 30
0.0
 40
0.7000000000000001
100
AcDbArc
 50
270.0
 51
0.0
  0
ARC
  5
126
330
121
100
AcDbEntity
  8
$DDT_AUDIT_GENERATED_(77)
  6
Continuous
 62
     7
100
AcDbCircle
 10
53.8212974609
 20
243.9188948027
 30
0.0
 40
0.7000000000000062
100
AcDbArc
 50
180.0
 51
270.0
  0
LINE
  5
127
330
121
100
AcDbEntity
  8
$DDT_AUDIT_GENERATED_(77)
  6
Continuous
 62
     7
100
AcDbLine
 10
53.1212974609
 20
310.6424535339
 30
0.0
 11
53.1212974609
 21
243.9188948027
 31
0.0
  0
ARC
  5
128
330
121
100
AcDbEntity
  8
$DDT_AUDIT_GENERATED_(77)
  6
Continuous
 62
     7
100
AcDbCircle
 10
58.8244108997
 20
330.9910483075
 30
0.0
 40
20.51482353459898
100
AcDbArc
 50
286.0737720351
 51
286.1789370369
  0
ARC
  5
129
330
121
100
AcDbEntity
  8
$DDT_AUDIT_GENERATED_(77)
  6
Continuous
 62
     7
100
AcDbCircle
 10
58.7987651716
 20
341.9453515521
 30
0.0
 40
31.24620694203038
100
AcDbArc
 50
258.8458799944
 51
269.67517764
  0
ARC
  5
12A
330
121
100
AcDbEntity
  8
$DDT_AUDIT_GENERATED_(77)
  6
Continuous
 62
     7
100
AcDbCircle
 10
58.4004558833
 20
330.8604971093
 30
0.0
 40
20.38446991274415
100
AcDbArc
 50
253.7927465864
 51
253.8833623727
  0
ELLIPSE
  5
12B
330
121
100
AcDbEntity
  8
$DDT_AUDIT_GENERATED_(77)
  6
Continuous
 62
     7
100
AcDbEllipse
 10
52.4212974609
 20
310.6424535339
 30
0.0
 11
0.7000000000001884
 21
-4.067232661775222E-11
 31
0.0
210
0.0
220
0.0
230
1.0
 40
0.9998335235
 41
0.0
 42
0.8056078337778108
  0
ELLIPSE
  5
12C
330
121
100
AcDbEntity
  8
$DDT_AUDIT_GENERATED_(77)
  6
Continuous
 62
     7
100
AcDbEllipse
 10
64.8212974609
 20
310.6422920901
 30
0.0
 11
0.7000000000002473
 21
-1.548761119352093E-11
 31
0.0
210
0.0
220
0.0
230
1.0
 40
0.9998335256
 41
2.337923079882454
 42
3.141592653589793
  0
ARC
  5
12D
330
121
100
AcDbEntity
  8
$DDT_AUDIT_GENERATED_(77)
  6
Continuous
 62
     7
100
AcDbCircle
 10
58.6215937481
 20
335.6770789326
 30
0.0
 40
25.5140642411236
100
AcDbArc
 50
282.5181994258
 51
353.6962019406
  0
ARC
  5
12E
330
121
100
AcDbEntity
  8
$DDT_AUDIT_GENERATED_(77)
  6
Continuous
 62
     7
100
AcDbCircle
 10
68.311469838
 20
334.6100246053
 30
0.0
 40
15.76561382900203
100
AcDbArc
 50
353.684035465
 51
355.2442012777
  0
ARC
  5
12F
330
121
100
AcDbEntity
  8
$DDT_AUDIT_GENERATED_(77)
  6
Continuous
 62
     7
100
AcDbCircle
 10
58.6220750705
 20
335.3990213796
 30
0.0
 40
25.48706983490131
100
AcDbArc
 50
355.2825489565
 51
82.8181550801
  0
ARC
  5
130
330
121
100
AcDbEntity
  8
$DDT_AUDIT_GENERATED_(77)
  6
Continuous
 62
     7
100
AcDbCircle
 10
58.6220750705
 20
335.3990213796
 30
0.0
 40
25.48706983490131
100
AcDbArc
 50
85.6356401691
 51
90.001007345
  0
ARC
  5
131
330
121
100
AcDbEntity
  8
$DDT_AUDIT_GENERATED_(77)
  6
Continuous
 62
     7
100
AcDbCircle
 10
58.6211741458
 20
335.3990211982
 30
0.0
 40
25.4870700163675
100
AcDbArc
 50
89.9989820364
 51
94.7108905473
  0
ARC
  5
132
330
121
100
AcDbEntity
  8
$DDT_AUDIT_GENERATED_(77)
  6
Continuous
 62
     7
100
AcDbCircle
 10
58.6211741458
 20
335.3990211982
 30
0.0
 40
25.4870700163675
100
AcDbArc
 50
97.3402547441
 51
184.7174506007
  0
ARC
  5
133
330
121
100
AcDbEntity
  8
$DDT_AUDIT_GENERATED_(77)
  6
Continuous
 62
     7
100
AcDbCircle
 10
48.9308962379
 20
334.6099390294
 30
0.0
 40
15.76472683055083
100
AcDbArc
 50
184.7557548284
 51
186.3160084289
  0
ARC
  5
134
330
121
100
AcDbEntity
  8
$DDT_AUDIT_GENERATED_(77)
  6
Continuous
 62
     7
100
AcDbCircle
 10
58.6216585175
 20
335.6770825574
 30
0.0
 40
25.51406786589985
100
AcDbArc
 50
186.3038053496
 51
257.4746444455
  0
SPLINE
  5
135
330
121
100
AcDbEntity
  8
$DDT_AUDIT_GENERATED_(77)
  6
Continuous
 62
     7
100
AcDbSpline
210
0.0
220
0.0
230
1.0
 70
     8
 71
     3
 72
    12
 73
     8
 74
     0
 42
0.0000000015310852
 43
0.0000000001
 40
0.0
 40
0.0
 40
0.0
 40
0.0
 40
0.25
 40
0.25
 40
0.5
 40
0.5
 40
0.5006201305875644
 40
0.5006201305875644
 40
0.5006201305875644
 40
0.5006201305875644
 10
58.6216166666017
 20
360.7333745538932
 30
0.0
 10
59.4819315796807
 20
360.7333745170421
 30
0.0
 10
60.32086320353793
 20
360.6892354988962
 30
0.0
 10
61.51557737321143
 20
360.6007832164361
 30
0.0
 10
61.8698795475644
 20
360.5650869322986
 30
0.0
 10
61.87162204438966
 20
360.580132062096
 30
0.0
 10
61.87162418364439
 20
360.5801696013406
 30
0.0
 10
61.87162415216125
 20
360.5802074516184
 30
0.0
  0
SPLINE
  5
136
330
121
100
AcDbEntity
  8
$DDT_AUDIT_GENERATED_(77)
  6
Continuous
 62
     7
100
AcDbSpline
210
0.0
220
0.0
230
1.0
 70
     8
 71
     3
 72
    12
 73
     8
 74
     0
 42
0.0000000015317782
 43
0.0000000001
 40
0.4992113966949781
 40
0.4992113966949781
 40
0.4992113966949781
 40
0.4992113966949781
 40
0.5
 40
0.5
 40
0.75
 40
0.75
 40
1.0
 40
1.0
 40
1.0
 40
1.0
 10
55.37162503421026
 20
360.5802106350073
 30
0.0
 10
55.37162479432612
 20
360.5801623627785
 30
0.0
 10
55.37162806633086
 20
360.5801145934725
 30
0.0
 10
55.37378649892855
 20
360.5650836250185
 30
0.0
 10
55.72403695408244
 20
360.6005164431434
 30
0.0
 10
56.92633364935888
 20
360.6895254554577
 30
0.0
 10
57.7698488317758
 20
360.7333745661969
 30
0.0
 10
58.6216166666017
 20
360.7333745538932
 30
0.0
  0
ELLIPSE
  5
137
330
121
100
AcDbEntity
  8
$DDT_AUDIT_GENERATED_(DC)
  6
Continuous
 62
     7
100
AcDbEllipse
 10
58.6216245096
 20
360.5937561827
 30
0.0
 11
3.350000000000001
 21
0.0
 31
0.0
210
0.0
220
0.0
230
1.0
 40
0.0784590957
 41
0.0
 42
3.348828654885632
  0
LINE
  5
138
330
121
100
AcDbEntity
  8
$DDT_AUDIT_GENERATED_(DF)
  6
Continuous
 62
     7
100
AcDbLine
 10
71.5466245096
 20
231.1312493016
 30
0.0
 11
60.7216245096
 21
231.1312493016
 31
0.0
  0
LINE
  5
139
330
121
100
AcDbEntity
  8
$DDT_AUDIT_GENERATED_(DF)
  6
Continuous
 62
     7
100
AcDbLine
 10
56.5216245096
 20
231.1312493016
 30
0.0
 11
45.6966245096
 21
231.1312493016
 31
0.0
  0
LINE
  5
13A
330
121
100
AcDbEntity
  8
$DDT_AUDIT_GENERATED_(DF)
  6
Continuous
 62
     7
100
AcDbLine
 10
60.529245101
 20
231.3236287102
 30
0.0
 11
60.7216245096
 21
231.1312493016
 31
0.0
  0
LINE
  5
13B
330
121
100
AcDbEntity
  8
$DDT_AUDIT_GENERATED_(DF)
  6
Continuous
 62
     7
100
AcDbLine
 10
56.5216245096
 20
231.1312493016
 30
0.0
 11
56.7140039182
 21
231.3236287102
 31
0.0
  0
LINE
  5
13C
330
121
100
AcDbEntity
  8
$DDT_AUDIT_GENERATED_(DF)
  6
Continuous
 62
     7
100
AcDbLine
 10
71.5466245096
 20
231.1312493016
 30
0.0
 11
71.5466245096
 21
231.3236287102
 31
0.0
  0
LINE
  5
13D
330
121
100
AcDbEntity
  8
$DDT_AUDIT_GENERATED_(DF)
  6
Continuous
 62
     7
100
AcDbLine
 10
45.6966245096
 20
231.3236287102
 30
0.0
 11
45.6966245096
 21
231.1312493016
 31
0.0
  0
LINE
  5
13E
330
121
100
AcDbEntity
  8
$DDT_AUDIT_GENERATED_(E7)
  6
Continuous
 62
     7
100
AcDbLine
 10
61.2216245096
 20
361.095843075
 30
0.0
 11
60.2177134795
 21
361.095843075
 31
0.0
  0
LINE
  5
13F
330
121
100
AcDbEntity
  8
$DDT_AUDIT_GENERATED_(E7)
  6
Continuous
 62
     7
100
AcDbLine
 10
57.0255355396
 20
361.095843075
 30
0.0
 11
56.0216245096
 21
361.095843075
 31
0.0
  0
ARC
  5
140
330
121
100
AcDbEntity
  8
$DDT_AUDIT_GENERATED_(E7)
  6
Continuous
 62
     7
100
AcDbCircle
 10
56.0216245096
 20
360.795843075
 30
0.0
 40
0.2999999999999982
100
AcDbArc
 50
90.0
 51
140.0932415527
  0
ARC
  5
141
330
121
100
AcDbEntity
  8
$DDT_AUDIT_GENERATED_(E7)
  6
Continuous
 62
     7
100
AcDbCircle
 10
61.2216245096
 20
360.795843075
 30
0.0
 40
0.2999999999999999
100
AcDbArc
 50
39.9067584473
 51
90.0
  0
LINE
  5
142
330
121
100
AcDbEntity
  8
$DDT_AUDIT_GENERATED_(9A)
  6
Continuous
 62
     7
100
AcDbLine
 10
58.6215731487
 20
231.3236287102
 30
0.0
 11
72.6216446528
 21
231.3236287102
 31
0.0
  0
LINE
  5
143
330
121
100
AcDbEntity
  8
$DDT_AUDIT_GENERATED_(9A)
  6
Continuous
 62
     7
100
AcDbLine
 10
44.6216105853
 20
231.3236287102
 30
0.0
 11
58.6215731487
 21
231.3236287102
 31
0.0
  0
ARC
  5
144
330
121
100
AcDbEntity
  8
$DDT_AUDIT_GENERATED_(9A)
  6
Continuous
 62
     7
100
AcDbCircle
 10
58.6216245096
 20
335.645843075
 30
0.0
 40
25.49999999999997
100
AcDbArc
 50
345.3201101095
 51
0.0
  0
ARC
  5
145
330
121
100
AcDbEntity
  8
$DDT_AUDIT_GENERATED_(9A)
  6
Continuous
 62
     7
100
AcDbCircle
 10
58.6216245096
 20
335.645843075
 30
0.0
 40
25.49999999999997
100
AcDbArc
 50
183.2885825682
 51
192.396536375
  0
ARC
  5
146
330
121
100
AcDbEntity
  8
$DDT_AUDIT_GENERATED_(9A)
  6
Continuous
 62
     7
100
AcDbCircle
 10
58.6216245096
 20
335.645843075
 30
0.0
 40
25.49999999999997
100
AcDbArc
 50
0.0
 51
179.8399545434
  0
LINE
  5
147
330
121
100
AcDbEntity
  8
$DDT_AUDIT_GENERATED_(9A)
  6
Continuous
 62
     7
100
AcDbLine
 10
73.1216245096
 20
231.8185669437
 30
0.0
 11
73.1216245096
 21
308.9046369955
 31
0.0
  0
LINE
  5
148
330
121
100
AcDbEntity
  8
$DDT_AUDIT_GENERATED_(9A)
  6
Continuous
 62
     7
100
AcDbLine
 10
44.1216245096
 20
308.9046378879
 30
0.0
 11
44.1216245096
 21
231.8185669437
 31
0.0
  0
ARC
  5
149
330
121
100
AcDbEntity
  8
$DDT_AUDIT_GENERATED_(9A)
  6
Continuous
 62
     7
100
AcDbCircle
 10
44.6220631273
 20
231.8240798057
 30
0.0
 40
0.5004754310978744
100
AcDbArc
 50
180.0516426354
 51
270.565027083
  0
ARC
  5
14A
330
121
100
AcDbEntity
  8
$DDT_AUDIT_GENERATED_(9A)
  6
Continuous
 62
     7
100
AcDbCircle
 10
85.7664654441
 20
308.8571614857
 30
0.0
 40
12.64493687793471
100
AcDbArc
 50
137.2720537603
 51
179.7808714623
  0
ARC
  5
14B
330
121
100
AcDbEntity
  8
$DDT_AUDIT_GENERATED_(9A)
  6
Continuous
 62
     7
100
AcDbCircle
 10
31.4334869841
 20
308.8474066417
 30
0.0
 40
12.68827371527608
100
AcDbArc
 50
0.2623837145
 51
42.2292520699
  0
ARC
  5
14C
330
121
100
AcDbEntity
  8
$DDT_AUDIT_GENERATED_(9A)
  6
Continuous
 62
     7
100
AcDbCircle
 10
72.6211884971
 20
231.8240777133
 30
0.0
 40
0.5004726517240923
100
AcDbArc
 50
269.4430029305
 51
359.9485966297
  0
SPLINE
  5
14D
330
121
100
AcDbEntity
  8
$DDT_AUDIT_GENERATED_(A7)
  6
Continuous
 62
     7
100
AcDbSpline
210
0.0
220
0.0
230
1.0
 70
     8
 71
     3
 72
     8
 73
     4
 74
     0
 42
0.0000000006419552
 43
0.0000000001
 40
0.498979420283544
 40
0.498979420283544
 40
0.498979420283544
 40
0.498979420283544
 40
0.4993060339069034
 40
0.4993060339069034
 40
0.4993060339069034
 40
0.4993060339069034
 10
73.12158795481749
 20
109.3507255048929
 30
0.0
 10
73.12160933910455
 20
109.3524215547037
 30
0.0
 10
73.12162054890057
 20
109.3541174314906
 30
0.0
 10
73.12162158003855
 20
109.3558131273361
 30
0.0
  0
SPLINE
  5
14E
330
121
100
AcDbEntity
  8
$DDT_AUDIT_GENERATED_(A7)
  6
Continuous
 62
     7
100
AcDbSpline
210
0.0
220
0.0
230
1.0
 70
     8
 71
     3
 72
     8
 73
     4
 74
     0
 42
0.0000000006346672
 43
0.0000000001
 40
0.999270203597759
 40
0.999270203597759
 40
0.999270203597759
 40
0.999270203597759
 40
1.0
 40
1.0
 40
1.0
 40
1.0
 10
44.12162641882755
 20
109.3558288737823
 30
0.0
 10
44.12162541122148
 20
109.3519964741765
 30
0.0
 10
44.12167599822993
 20
109.3481640639948
 30
0.0
 10
44.12177824422973
 20
109.344331688103
 30
0.0
  0
SPLINE
  5
14F
330
121
100
AcDbEntity
  8
$DDT_AUDIT_GENERATED_(A7)
  6
Continuous
 62
     7
100
AcDbSpline
210
0.0
220
0.0
230
1.0
 70
     8
 71
     3
 72
    22
 73
    18
 74
     0
 42
0.0000000001310782
 43
0.0000000001
 40
0.5929041592225048
 40
0.5929041592225048
 40
0.5929041592225048
 40
0.5929041592225048
 40
0.6249999999999998
 40
0.6249999999999998
 40
0.6874999999999999
 40
0.6874999999999999
 40
0.7187499999999999
 40
0.7187499999999999
 40
0.7499999999999999
 40
0.7499999999999999
 40
0.8124999999999999
 40
0.8124999999999999
 40
0.8437499999999999
 40
0.8437499999999999
 40
0.8749999999999999
 40
0.8749999999999999
 40
0.8972538571938442
 40
0.8972538571938442
 40
0.8972538571938442
 40
0.8972538571938442
 10
70.45022310285319
 20
107.505960430674
 30
0.0
 10
69.93694263805625
 20
107.3643491264556
 30
0.0
 10
69.34418609099454
 20
107.2316205834044
 30
0.0
 10
67.40059581455426
 20
106.8770777730527
 30
0.0
 10
65.83976906605639
 20
106.6853675414427
 30
0.0
 10
63.28570880639638
 20
106.4908882165377
 30
0.0
 10
62.38392356214628
 20
106.4406163097745
 30
0.0
 10
60.57011905078372
 20
106.3719185661144
 30
0.0
 10
59.64955858562664
 20
106.3534622198898
 30
0.0
 10
56.84569423136575
 20
106.3499999999999
 30
0.0
 10
54.99613887673121
 20
106.4167715849908
 30
0.0
 10
52.41162386798769
 20
106.6064644720142
 30
0.0
 10
51.59699860040096
 20
106.684262003822
 30
0.0
 10
50.05902346624949
 20
106.8671522287912
 30
0.0
 10
49.33114936850214
 20
106.9735003767584
 30
0.0
 10
48.21468624620701
 20
107.1722815892821
 30
0.0
 10
47.78269704339117
 20
107.2609127440641
 30
0.0
 10
47.38709849527834
 20
107.3543727173716
 30
0.0
  0
LINE
  5
150
330
121
100
AcDbEntity
  8
$DDT_AUDIT_GENERATED_(A7)
  6
Continuous
 62
     7
100
AcDbLine
 10
72.6216245096
 20
231.0312493016
 30
0.0
 11
44.6216245096
 21
231.0312493016
 31
0.0
  0
SPLINE
  5
151
330
121
100
AcDbEntity
  8
$DDT_AUDIT_GENERATED_(A7)
  6
Continuous
 62
     7
100
AcDbSpline
210
0.0
220
0.0
230
1.0
 70
     8
 71
     3
 72
    18
 73
    14
 74
     0
 42
0.0000000029635802
 43
0.0000000001
 40
0.0
 40
0.0
 40
0.0
 40
0.0
 40
0.0176849104860135
 40
0.1264494737532881
 40
0.2361877933382316
 40
0.3471287010108418
 40
0.4596694959861994
 40
0.5743102481701626
 40
0.67765076363631
 40
0.7695561154723273
 40
0.8512067295571466
 40
0.9266880403396168
 40
1.0
 40
1.0
 40
1.0
 40
1.0
 10
70.5304534378185
 20
107.5271153532757
 30
0.0
 10
70.56084710584966
 20
107.5351298188073
 30
0.0
 10
70.74714089652386
 20
107.5843395288886
 30
0.0
 10
71.08554978331996
 20
107.6909103085223
 30
0.0
 10
71.50629585701502
 20
107.838446141554
 30
0.0
 10
71.88675719102022
 20
107.9972045577095
 30
0.0
 10
72.22487241739692
 20
108.1671171950307
 30
0.0
 10
72.50973391955966
 20
108.3465335321743
 30
0.0
 10
72.7369563281108
 20
108.5339510392184
 30
0.0
 10
72.90700476091897
 20
108.7260205531915
 30
0.0
 10
73.02604248513326
 20
108.9238669404612
 30
0.0
 10
73.10326913362756
 20
109.1371187255813
 30
0.0
 10
73.11138762132794
 20
109.2712968347117
 30
0.0
 10
73.11526517977235
 20
109.350212238257
 30
0.0
  0
SPLINE
  5
152
330
121
100
AcDbEntity
  8
$DDT_AUDIT_GENERATED_(A7)
  6
Continuous
 62
     7
100
AcDbSpline
210
0.0
220
0.0
230
1.0
 70
     8
 71
     3
 72
    19
 73
    15
 74
     0
 42
0.0000000025123147
 43
0.0000000001
 40
0.0
 40
0.0
 40
0.0
 40
0.0
 40
0.0525673003649135
 40
0.121148048973403
 40
0.1930138370826197
 40
0.2720450900895289
 40
0.3613176349903898
 40
0.4604301803515073
 40
0.5638529362434103
 40
0.6656402428867139
 40
0.765107759959721
 40
0.8625797537389738
 40
0.9584027172005303
 40
1.0
 40
1.0
 40
1.0
 40
1.0
 10
44.13343605445873
 20
109.3043863641435
 30
0.0
 10
44.13826761738478
 20
109.2413031358167
 30
0.0
 10
44.14875849574288
 20
109.1190385197869
 30
0.0
 10
44.22460246466013
 20
108.9213525437768
 30
0.0
 10
44.34222098157349
 20
108.7286211687382
 30
0.0
 10
44.5058028888096
 20
108.543111638426
 30
0.0
 10
44.72111949987865
 20
108.3614037807538
 30
0.0
 10
44.996255739402
 20
108.1820728764865
 30
0.0
 10
45.32985479551402
 20
108.008863268704
 30
0.0
 10
45.71303107345249
 20
107.8455301153733
 30
0.0
 10
46.13829103434855
 20
107.6928156213138
 30
0.0
 10
46.59935603317253
 20
107.5515884423801
 30
0.0
 10
47.01518591329783
 20
107.4390219189835
 30
0.0
 10
47.26105088518631
 20
107.3827234638215
 30
0.0
 10
47.34869434206736
 20
107.362750122306
 30
0.0
  0
ARC
  5
153
330
121
100
AcDbEntity
  8
$DDT_AUDIT_GENERATED_(A7)
  6
Continuous
 62
     7
100
AcDbCircle
 10
44.6216245096
 20
230.5312493016
 30
0.0
 40
0.5000000000000004
100
AcDbArc
 50
90.0
 51
180.0
  0
ARC
  5
154
330
121
100
AcDbEntity
  8
$DDT_AUDIT_GENERATED_(A7)
  6
Continuous
 62
     7
100
AcDbCircle
 10
72.6216245096
 20
230.5312493016
 30
0.0
 40
0.5000000000000004
100
AcDbArc
 50
0.0
 51
90.0
  0
LINE
  5
155
330
121
100
AcDbEntity
  8
$DDT_AUDIT_GENERATED_(A7)
  6
Continuous
 62
     7
100
AcDbLine
 10
44.1216245096
 20
230.5312493016
 30
0.0
 11
44.1216245096
 21
109.3558503493
 31
0.0
  0
LINE
  5
156
330
121
100
AcDbEntity
  8
$DDT_AUDIT_GENERATED_(A7)
  6
Continuous
 62
     7
100
AcDbLine
 10
73.1216245096
 20
109.3558827612
 30
0.0
 11
73.1216245096
 21
230.5312493016
 31
0.0
  0
LINE
  5
157
330
121
100
AcDbEntity
  8
$DDT_AUDIT_GENERATED_(11C)
  6
Continuous
 62
     7
100
AcDbLine
 10
60.1216245096
 20
231.3236287102
 30
0.0
 11
60.1216245096
 21
231.0312493016
 31
0.0
  0
LINE
  5
158
330
121
100
AcDbEntity
  8
$DDT_AUDIT_GENERATED_(11C)
  6
Continuous
 62
     7
100
AcDbLine
 10
57.1216245096
 20
231.0312493016
 30
0.0
 11
57.1216245096
 21
231.3236287102
 31
0.0
  0
LINE
  5
159
330
121
100
AcDbEntity
  8
$DDT_AUDIT_GENERATED_(11C)
  6
Continuous
 62
     7
100
AcDbLine
 10
69.3216245096
 20
231.0312493016
 30
0.0
 11
69.3216245096
 21
231.1312493016
 31
0.0
  0
LINE
  5
15A
330
121
100
AcDbEntity
  8
$DDT_AUDIT_GENERATED_(11C)
  6
Continuous
 62
     7
100
AcDbLine
 10
47.9216245096
 20
231.1312493016
 30
0.0
 11
47.9216245096
 21
231.0312493016
 31
0.0
  0
ENDBLK
  5
15C
330
121
100
AcDbEntity
  8
0
100
AcDbBlockEnd
  0
ENDSEC
  0
SECTION
  2
ENTITIES
  0
INSERT
  5
5F
330
1F
100
AcDbEntity
  8
Default
100
AcDbBlockReference
  2
SEANNOT_GROUP
 10
0.0
 20
0.0
 30
0.0
  0
INSERT
  5
66
330
1F
100
AcDbEntity
  8
Default
100
AcDbBlockReference
  2
SEANNOT_GROUP1
 10
0.0
 20
0.0
 30
0.0
  0
INSERT
  5
6C
330
1F
100
AcDbEntity
  8
Default
100
AcDbBlockReference
  2
SEANNOT_GROUP2
 10
0.0
 20
0.0
 30
0.0
  0
INSERT
  5
76
330
1F
100
AcDbEntity
  8
Default
100
AcDbBlockReference
  2
SE
 10
0.0
 20
0.0
 30
0.0
  0
INSERT
  5
B2
330
1F
100
AcDbEntity
  8
Default
100
AcDbBlockReference
  2
SE1
 10
0.0
 20
0.0
 30
0.0
  0
INSERT
  5
122
330
1F
100
AcDbEntity
  8
Default
100
AcDbBlockReference
  2
SE2
 10
0.0
 20
0.0
 30
0.0
  0
TEXT
  5
15E
330
1F
100
AcDbEntity
  8
Default
  6
Continuous
 62
     7
100
AcDbText
 10
5.9362635081
 20
53.4225120485
 30
0.0
 40
10.0
  1
Grohe AG^J
  7
SEACAD_seiso_ttf
 11
5.9362635081
 21
63.4225120485
 31
0.0
100
AcDbText
 73
     3
  0
TEXT
  5
15F
330
1F
100
AcDbEntity
  8
Default
  6
Continuous
 62
     7
100
AcDbText
 10
5.9362635081
 20
37.0588756849
 30
0.0
 40
10.0
  1
 
  7
SEACAD_seiso_ttf
 11
5.9362635081
 21
47.0588756849
 31
0.0
100
AcDbText
 73
     3
  0
TEXT
  5
160
330
1F
100
AcDbEntity
  8
Default
  6
Continuous
 62
     7
100
AcDbText
 10
5.9362635081
 20
20.6952393213
 30
0.0
 40
10.0
  1
ecn: 
  7
SEACAD_seiso_ttf
 11
5.9362635081
 21
30.6952393213
 31
0.0
100
AcDbText
 73
     3
  0
TEXT
  5
161
330
1F
100
AcDbEntity
  8
Default
  6
Continuous
 62
     7
100
AcDbText
 10
5.9362635081
 20
4.3316029576
 30
0.0
 40
10.0
  1
unit: mm
  7
SEACAD_seiso_ttf
 11
5.9362635081
 21
14.3316029576
 31
0.0
100
AcDbText
 73
     3
  0
LINE
  5
162
330
1F
100
AcDbEntity
  8
Default
  6
Continuous
 62
     7
100
AcDbLine
 10
0.0
 20
0.0
 30
0.0
 11
100.0
 21
0.0
 31
0.0
  0
LINE
  5
163
330
1F
100
AcDbEntity
  8
Default
  6
Continuous
 62
     7
100
AcDbLine
 10
0.0
 20
0.0
 30
0.0
 11
0.0
 21
100.0
 31
0.0
  0
TEXT
  5
164
330
1F
100
AcDbEntity
  8
Default
  6
Continuous
 62
     7
100
AcDbText
 10
24.3923665681
 20
-18.2375342018
 30
0.0
 40
10.0
  1
100 mm
  7
SEACAD_seiso_ttf
 11
24.3923665681
 21
-8.2375342018
 31
0.0
100
AcDbText
 73
     3
  0
TEXT
  5
165
330
1F
100
AcDbEntity
  8
Default
  6
Continuous
 62
     7
100
AcDbText
 10
-7.6150308803
 20
24.6231930421
 30
0.0
 40
10.0
  1
100 mm
 50
90.0
  7
SEACAD_seiso_ttf
 11
-17.6150308803
 21
24.6231930421
 31
0.0
100
AcDbText
 73
     3
  0
TEXT
  5
166
330
1F
100
AcDbEntity
  8
Default
  6
Continuous
 62
     7
100
AcDbText
 10
28.4878128572
 20
20.0907663715
 30
0.0
 40
10.0
  1
221575
  7
SEACAD_seiso_ttf
 11
28.4878128572
 21
30.0907663715
 31
0.0
100
AcDbText
 73
     3
  0
TEXT
  5
167
330
1F
100
AcDbEntity
  8
Default
  6
Continuous
 62
     7
100
AcDbText
 10
5.9012241913
 20
36.7242780188
 30
0.0
 40
10.0
  1
31129001
  7
SEACAD_seiso_ttf
 11
5.9012241913
 21
46.7242780188
 31
0.0
100
AcDbText
 73
     3
  0
ENDSEC
  0
SECTION
  2
OBJECTS
  0
DICTIONARY
  5
C
330
0
100
AcDbDictionary
281
     1
  3
ACAD_GROUP
350
D
  3
ACAD_LAYOUT
350
1A
  3
ACAD_MLEADERSTYLE
350
16B
  3
ACAD_MLINESTYLE
350
17
  3
ACAD_PLOTSETTINGS
350
19
  3
ACAD_PLOTSTYLENAME
350
E
  3
ACAD_SCALELIST
350
3B
  3
ACAD_TABLESTYLE
350
16A
  3
ACAD_VISUALSTYLE
350
2A
  3
AcDbVariableDictionary
350
168
  0
DICTIONARY
  5
D
102
{ACAD_REACTORS
330
C
102
}
330
C
100
AcDbDictionary
281
     1
  0
DICTIONARY
  5
1A
102
{ACAD_REACTORS
330
C
102
}
330
C
100
AcDbDictionary
281
     1
  3
Layout1
350
1E
  3
Model
350
22
  0
DICTIONARY
  5
16B
102
{ACAD_REACTORS
330
C
102
}
330
C
100
AcDbDictionary
281
     1
  0
DICTIONARY
  5
17
102
{ACAD_REACTORS
330
C
102
}
330
C
100
AcDbDictionary
281
     1
  3
Standard
350
18
  0
DICTIONARY
  5
19
102
{ACAD_REACTORS
330
C
102
}
330
C
100
AcDbDictionary
281
     1
  0
ACDBDICTIONARYWDFLT
  5
E
102
{ACAD_REACTORS
330
C
102
}
330
C
100
AcDbDictionary
281
     1
  3
Normal
350
F
100
AcDbDictionaryWithDefault
340
F
  0
DICTIONARY
  5
3B
102
{ACAD_REACTORS
330
C
102
}
330
C
100
AcDbDictionary
281
     1
  3
A0
350
3C
  3
A1
350
3D
  3
A2
350
3E
  3
A3
350
3F
  3
A4
350
40
  3
A5
350
41
  3
A6
350
42
  3
A7
350
43
  3
A8
350
44
  3
A9
350
45
  3
B0
350
46
  3
B1
350
47
  3
B2
350
48
  3
B3
350
49
  3
B4
350
4A
  3
B5
350
4B
  3
B6
350
4C
  3
B7
350
4D
  3
B8
350
4E
  3
B9
350
4F
  3
C0
350
50
  3
C1
350
51
  3
C2
350
52
  3
C3
350
53
  3
C4
350
54
  3
C5
350
55
  3
C6
350
56
  3
C7
350
57
  3
C8
350
58
  3
C9
350
59
  3
D0
350
5A
  3
D1
350
5B
  3
D2
350
5C
  0
DICTIONARY
  5
16A
102
{ACAD_REACTORS
330
C
102
}
330
C
100
AcDbDictionary
281
     1
  0
DICTIONARY
  5
2A
102
{ACAD_REACTORS
330
C
102
}
330
C
100
AcDbDictionary
281
     1
  3
2dWireframe
350
2F
  3
3D Hidden
350
31
  3
3dWireframe
350
30
  3
Basic
350
32
  3
Brighten
350
36
  3
ColorChange
350
3A
  3
Conceptual
350
34
  3
Dim
350
35
  3
Facepattern
350
39
  3
Flat
350
2B
  3
FlatWithEdges
350
2C
  3
Gouraud
350
2D
  3
GouraudWithEdges
350
2E
  3
Linepattern
350
38
  3
Realistic
350
33
  3
Thicken
350
37
  0
DICTIONARY
  5
168
102
{ACAD_REACTORS
330
C
102
}
330
C
100
AcDbDictionary
281
     1
  3
CANNOSCALE
350
169
  3
PSOLHEIGHT
350
16D
  3
PSOLWIDTH
350
16C
  0
LAYOUT
  5
1E
102
{ACAD_REACTORS
330
1A
102
}
330
1A
100
AcDbPlotSettings
  1

  2
none_device
  4

  6

 40
0.0
 41
0.0
 42
0.0
 43
0.0
 44
0.0
 45
0.0
 46
0.0
 47
0.0
 48
0.0
 49
0.0
140
0.0
141
0.0
142
1.0
143
1.0
 70
   688
 72
     0
 73
     0
 74
     5
  7

 75
    16
147
1.0
148
0.0
149
0.0
100
AcDbLayout
  1
Layout1
 70
     1
 71
     1
 10
0.0
 20
0.0
 11
1682.0
 21
2378.0
 12
0.0
 22
0.0
 32
0.0
 14
0.0
 24
0.0
 34
0.0
 15
1682.0
 25
2378.0
 35
0.0
146
0.0
 13
0.0
 23
0.0
 33
0.0
 16
1.0
 26
0.0
 36
0.0
 17
0.0
 27
1.0
 37
0.0
 76
     0
330
1B
  0
LAYOUT
  5
22
102
{ACAD_REACTORS
330
1A
102
}
330
1A
100
AcDbPlotSettings
  1

  2
none_device
  4

  6

 40
0.0
 41
0.0
 42
0.0
 43
0.0
 44
0.0
 45
0.0
 46
0.0
 47
0.0
 48
0.0
 49
0.0
140
0.0
141
0.0
142
1.0
143
1.0
 70
  1712
 72
     0
 73
     0
 74
     0
  7

 75
     0
147
1.0
148
0.0
149
0.0
100
AcDbLayout
  1
Model
 70
     1
 71
     0
 10
0.0
 20
0.0
 11
1682.0
 21
2378.0
 12
0.0
 22
0.0
 32
0.0
 14
0.0
 24
0.0
 34
0.0
 15
1682.0
 25
2378.0
 35
0.0
146
0.0
 13
0.0
 23
0.0
 33
0.0
 16
1.0
 26
0.0
 36
0.0
 17
0.0
 27
1.0
 37
0.0
 76
     0
330
1F
331
29
  0
MLINESTYLE
  5
18
102
{ACAD_REACTORS
330
17
102
}
330
17
100
AcDbMlineStyle
  2
Standard
 70
     0
  3

 62
   256
 51
90.0
 52
90.0
 71
     2
 49
0.5
 62
   256
  6
BYLAYER
 49
-0.5
 62
   256
  6
BYLAYER
  0
ACDBPLACEHOLDER
  5
F
102
{ACAD_REACTORS
330
E
102
}
330
E
  0
SCALE
  5
3C
102
{ACAD_REACTORS
330
3B
102
}
330
3B
100
AcDbScale
 70
     0
300
1:1
140
1.0
141
1.0
290
     1
  0
SCALE
  5
3D
102
{ACAD_REACTORS
330
3B
102
}
330
3B
100
AcDbScale
 70
     0
300
1:2
140
1.0
141
2.0
290
     0
  0
SCALE
  5
3E
102
{ACAD_REACTORS
330
3B
102
}
330
3B
100
AcDbScale
 70
     0
300
1:4
140
1.0
141
4.0
290
     0
  0
SCALE
  5
3F
102
{ACAD_REACTORS
330
3B
102
}
330
3B
100
AcDbScale
 70
     0
300
1:5
140
1.0
141
5.0
290
     0
  0
SCALE
  5
40
102
{ACAD_REACTORS
330
3B
102
}
330
3B
100
AcDbScale
 70
     0
300
1:8
140
1.0
141
8.0
290
     0
  0
SCALE
  5
41
102
{ACAD_REACTORS
330
3B
102
}
330
3B
100
AcDbScale
 70
     0
300
1:10
140
1.0
141
10.0
290
     0
  0
SCALE
  5
42
102
{ACAD_REACTORS
330
3B
102
}
330
3B
100
AcDbScale
 70
     0
300
1:16
140
1.0
141
16.0
290
     0
  0
SCALE
  5
43
102
{ACAD_REACTORS
330
3B
102
}
330
3B
100
AcDbScale
 70
     0
300
1:20
140
1.0
141
20.0
290
     0
  0
SCALE
  5
44
102
{ACAD_REACTORS
330
3B
102
}
330
3B
100
AcDbScale
 70
     0
300
1:30
140
1.0
141
30.0
290
     0
  0
SCALE
  5
45
102
{ACAD_REACTORS
330
3B
102
}
330
3B
100
AcDbScale
 70
     0
300
1:40
140
1.0
141
40.0
290
     0
  0
SCALE
  5
46
102
{ACAD_REACTORS
330
3B
102
}
330
3B
100
AcDbScale
 70
     0
300
1:50
140
1.0
141
50.0
290
     0
  0
SCALE
  5
47
102
{ACAD_REACTORS
330
3B
102
}
330
3B
100
AcDbScale
 70
     0
300
1:100
140
1.0
141
100.0
290
     0
  0
SCALE
  5
48
102
{ACAD_REACTORS
330
3B
102
}
330
3B
100
AcDbScale
 70
     0
300
2:1
140
2.0
141
1.0
290
     0
  0
SCALE
  5
49
102
{ACAD_REACTORS
330
3B
102
}
330
3B
100
AcDbScale
 70
     0
300
4:1
140
4.0
141
1.0
290
     0
  0
SCALE
  5
4A
102
{ACAD_REACTORS
330
3B
102
}
330
3B
100
AcDbScale
 70
     0
300
8:1
140
8.0
141
1.0
290
     0
  0
SCALE
  5
4B
102
{ACAD_REACTORS
330
3B
102
}
330
3B
100
AcDbScale
 70
     0
300
10:1
140
10.0
141
1.0
290
     0
  0
SCALE
  5
4C
102
{ACAD_REACTORS
330
3B
102
}
330
3B
100
AcDbScale
 70
     0
300
100:1
140
100.0
141
1.0
290
     0
  0
SCALE
  5
4D
102
{ACAD_REACTORS
330
3B
102
}
330
3B
100
AcDbScale
 70
     0
300
1/128" = 1'-0"
140
0.0078125
141
12.0
290
     0
  0
SCALE
  5
4E
102
{ACAD_REACTORS
330
3B
102
}
330
3B
100
AcDbScale
 70
     0
300
1/64" = 1'-0"
140
0.015625
141
12.0
290
     0
  0
SCALE
  5
4F
102
{ACAD_REACTORS
330
3B
102
}
330
3B
100
AcDbScale
 70
     0
300
1/32" = 1'-0"
140
0.03125
141
12.0
290
     0
  0
SCALE
  5
50
102
{ACAD_REACTORS
330
3B
102
}
330
3B
100
AcDbScale
 70
     0
300
1/16" = 1'-0"
140
0.0625
141
12.0
290
     0
  0
SCALE
  5
51
102
{ACAD_REACTORS
330
3B
102
}
330
3B
100
AcDbScale
 70
     0
300
3/32" = 1'-0"
140
0.09375
141
12.0
290
     0
  0
SCALE
  5
52
102
{ACAD_REACTORS
330
3B
102
}
330
3B
100
AcDbScale
 70
     0
300
1/8" = 1'-0"
140
0.125
141
12.0
290
     0
  0
SCALE
  5
53
102
{ACAD_REACTORS
330
3B
102
}
330
3B
100
AcDbScale
 70
     0
300
3/16" = 1'-0"
140
0.1875
141
12.0
290
     0
  0
SCALE
  5
54
102
{ACAD_REACTORS
330
3B
102
}
330
3B
100
AcDbScale
 70
     0
300
1/4" = 1'-0"
140
0.25
141
12.0
290
     0
  0
SCALE
  5
55
102
{ACAD_REACTORS
330
3B
102
}
330
3B
100
AcDbScale
 70
     0
300
3/8" = 1'-0"
140
0.375
141
12.0
290
     0
  0
SCALE
  5
56
102
{ACAD_REACTORS
330
3B
102
}
330
3B
100
AcDbScale
 70
     0
300
1/2" = 1'-0"
140
0.5
141
12.0
290
     0
  0
SCALE
  5
57
102
{ACAD_REACTORS
330
3B
102
}
330
3B
100
AcDbScale
 70
     0
300
3/4" = 1'-0"
140
0.75
141
12.0
290
     0
  0
SCALE
  5
58
102
{ACAD_REACTORS
330
3B
102
}
330
3B
100
AcDbScale
 70
     0
300
1" = 1'-0"
140
1.0
141
12.0
290
     0
  0
SCALE
  5
59
102
{ACAD_REACTORS
330
3B
102
}
330
3B
100
AcDbScale
 70
     0
300
1-1/2" = 1'-0"
140
1.5
141
12.0
290
     0
  0
SCALE
  5
5A
102
{ACAD_REACTORS
330
3B
102
}
330
3B
100
AcDbScale
 70
     0
300
3" = 1'-0"
140
3.0
141
12.0
290
     0
  0
SCALE
  5
5B
102
{ACAD_REACTORS
330
3B
102
}
330
3B
100
AcDbScale
 70
     0
300
6" = 1'-0"
140
6.0
141
12.0
290
     0
  0
SCALE
  5
5C
102
{ACAD_REACTORS
330
3B
102
}
330
3B
100
AcDbScale
 70
     0
300
1'-0" = 1'-0"
140
12.0
141
12.0
290
     0
  0
VISUALSTYLE
  5
2F
102
{ACAD_REACTORS
330
2A
102
}
330
2A
100
AcDbVisualStyle
  2
2dWireframe
 70
     4
 71
     0
 72
     2
 73
     0
 90
        0
 40
-0.6
 41
-30.0
 62
     5
 63
     7
 74
     1
 91
        4
 64
     7
 65
   257
 75
     1
175
     1
 42
1.0
 92
        0
 66
   257
 43
1.0
 76
     1
 77
     6
 78
     2
 67
     7
 79
     5
170
     0
171
     0
290
     0
174
     0
 93
        1
 44
0.0
173
     0
291
     0
 45
0.0
1001
ACAD
1000
AcDbSavedByObjectVersion
1070
     0
  0
VISUALSTYLE
  5
31
102
{ACAD_REACTORS
330
2A
102
}
330
2A
100
AcDbVisualStyle
  2
3D Hidden
 70
     6
 71
     1
 72
     2
 73
     2
 90
        0
 40
-0.6
 41
-30.0
 62
     5
 63
     7
 74
     2
 91
        2
 64
     7
 65
   257
 75
     2
175
     1
 42
40.0
 92
        0
 66
   257
 43
1.0
 76
     1
 77
     6
 78
     2
 67
     7
 79
     3
170
     0
171
     0
290
     0
174
     0
 93
        1
 44
0.0
173
     0
291
     0
 45
0.0
1001
ACAD
1000
AcDbSavedByObjectVersion
1070
     0
  0
VISUALSTYLE
  5
30
102
{ACAD_REACTORS
330
2A
102
}
330
2A
100
AcDbVisualStyle
  2
3dWireframe
 70
     5
 71
     0
 72
     2
 73
     0
 90
        0
 40
-0.6
 41
-30.0
 62
     5
 63
     7
 74
     1
 91
        4
 64
     7
 65
   257
 75
     1
175
     1
 42
1.0
 92
        0
 66
   257
 43
1.0
 76
     1
 77
     6
 78
     2
 67
     7
 79
     5
170
     0
171
     0
290
     0
174
     0
 93
        1
 44
0.0
173
     0
291
     0
 45
0.0
1001
ACAD
1000
AcDbSavedByObjectVersion
1070
     0
  0
VISUALSTYLE
  5
32
102
{ACAD_REACTORS
330
2A
102
}
330
2A
100
AcDbVisualStyle
  2
Basic
 70
     7
 71
     1
 72
     0
 73
     1
 90
        0
 40
-0.6
 41
-30.0
 62
     5
 63
     7
 74
     0
 91
        4
 64
     7
 65
   257
 75
     1
175
     1
 42
1.0
 92
        8
 66
     7
 43
1.0
 76
     1
 77
     6
 78
     2
 67
     7
 79
     5
170
     0
171
     0
290
     0
174
     0
 93
        1
 44
0.0
173
     0
291
     1
 45
0.0
1001
ACAD
1000
AcDbSavedByObjectVersion
1070
     0
  0
VISUALSTYLE
  5
36
102
{ACAD_REACTORS
330
2A
102
}
330
2A
100
AcDbVisualStyle
  2
Brighten
 70
    12
 71
     2
 72
     2
 73
     0
 90
        0
 40
-0.6
 41
-30.0
 62
     5
 63
     7
 74
     1
 91
        4
 64
     7
 65
   257
 75
     1
175
     1
 42
1.0
 92
        8
 66
     7
 43
1.0
 76
     1
 77
     6
 78
     2
 67
     7
 79
     5
170
     0
171
     0
290
     0
174
     0
 93
        1
 44
50.0
173
     0
291
     1
 45
0.0
1001
ACAD
1000
AcDbSavedByObjectVersion
1070
     0
  0
VISUALSTYLE
  5
3A
102
{ACAD_REACTORS
330
2A
102
}
330
2A
100
AcDbVisualStyle
  2
ColorChange
 70
    16
 71
     2
 72
     2
 73
     3
 90
        0
 40
-0.6
 41
-30.0
 62
     5
 63
     8
 74
     1
 91
        4
 64
     7
 65
   257
 75
     1
175
     1
 42
1.0
 92
        8
 66
     8
 43
1.0
 76
     1
 77
     6
 78
     2
 67
     7
 79
     5
170
     0
171
     0
290
     0
174
     0
 93
        1
 44
0.0
173
     0
291
     1
 45
0.0
1001
ACAD
1000
AcDbSavedByObjectVersion
1070
     0
  0
VISUALSTYLE
  5
34
102
{ACAD_REACTORS
330
2A
102
}
330
2A
100
AcDbVisualStyle
  2
Conceptual
 70
     9
 71
     3
 72
     2
 73
     0
 90
        0
 40
-0.6
 41
-30.0
 62
     5
 63
     7
 74
     2
 91
        2
 64
     7
 65
   257
 75
     1
175
     1
 42
40.0
 92
        8
 66
     7
 43
1.0
 76
     1
 77
     6
 78
     2
 67
     7
 79
     3
170
     0
171
     0
290
     0
174
     0
 93
        1
 44
0.0
173
     0
291
     0
 45
0.0
1001
ACAD
1000
AcDbSavedByObjectVersion
1070
     0
  0
VISUALSTYLE
  5
35
102
{ACAD_REACTORS
330
2A
102
}
330
2A
100
AcDbVisualStyle
  2
Dim
 70
    11
 71
     2
 72
     2
 73
     0
 90
        0
 40
-0.6
 41
-30.0
 62
     5
 63
     7
 74
     1
 91
        4
 64
     7
 65
   257
 75
     1
175
     1
 42
1.0
 92
        8
 66
     7
 43
1.0
 76
     1
 77
     6
 78
     2
 67
     7
 79
     5
170
     0
171
     0
290
     0
174
     0
 93
        1
 44
-50.0
173
     0
291
     1
 45
0.0
1001
ACAD
1000
AcDbSavedByObjectVersion
1070
     0
  0
VISUALSTYLE
  5
39
102
{ACAD_REACTORS
330
2A
102
}
330
2A
100
AcDbVisualStyle
  2
Facepattern
 70
    15
 71
     2
 72
     2
 73
     0
 90
        0
 40
-0.6
 41
-30.0
 62
     5
 63
     7
 74
     1
 91
        4
 64
     7
 65
   257
 75
     1
175
     1
 42
1.0
 92
        8
 66
     7
 43
1.0
 76
     1
 77
     6
 78
     2
 67
     7
 79
     5
170
     0
171
     0
290
     0
174
     0
 93
        1
 44
0.0
173
     0
291
     1
 45
0.0
1001
ACAD
1000
AcDbSavedByObjectVersion
1070
     0
  0
VISUALSTYLE
  5
2B
102
{ACAD_REACTORS
330
2A
102
}
330
2A
100
AcDbVisualStyle
  2
Flat
 70
     0
 71
     2
 72
     1
 73
     1
 90
        2
 40
-0.6
 41
30.0
 62
     5
 63
     7
 74
     0
 91
        4
 64
     7
 65
   257
 75
     1
175
     1
 42
1.0
 92
        8
 66
     7
 43
1.0
 76
     1
 77
     6
 78
     2
 67
     7
 79
     5
170
     0
171
     0
290
     0
174
     0
 93
       13
 44
0.0
173
     0
291
     1
 45
0.0
1001
ACAD
1000
AcDbSavedByObjectVersion
1070
     0
  0
VISUALSTYLE
  5
2C
102
{ACAD_REACTORS
330
2A
102
}
330
2A
100
AcDbVisualStyle
  2
FlatWithEdges
 70
     1
 71
     2
 72
     1
 73
     1
 90
        2
 40
-0.6
 41
30.0
 62
     5
 63
     7
 74
     1
 91
        4
 64
     7
 65
   257
 75
     1
175
     1
 42
1.0
 92
        0
 66
   257
 43
1.0
 76
     1
 77
     6
 78
     2
 67
     7
 79
     5
170
     0
171
     0
290
     0
174
     0
 93
       13
 44
0.0
173
     0
291
     1
 45
0.0
1001
ACAD
1000
AcDbSavedByObjectVersion
1070
     0
  0
VISUALSTYLE
  5
2D
102
{ACAD_REACTORS
330
2A
102
}
330
2A
100
AcDbVisualStyle
  2
Gouraud
 70
     2
 71
     2
 72
     2
 73
     1
 90
        2
 40
-0.6
 41
30.0
 62
     5
 63
     7
 74
     0
 91
        4
 64
     7
 65
   257
 75
     1
175
     1
 42
1.0
 92
        0
 66
     7
 43
1.0
 76
     1
 77
     6
 78
     2
 67
     7
 79
     5
170
     0
171
     0
290
     0
174
     0
 93
       13
 44
0.0
173
     0
291
     1
 45
0.0
1001
ACAD
1000
AcDbSavedByObjectVersion
1070
     0
  0
VISUALSTYLE
  5
2E
102
{ACAD_REACTORS
330
2A
102
}
330
2A
100
AcDbVisualStyle
  2
GouraudWithEdges
 70
     3
 71
     2
 72
     2
 73
     1
 90
        2
 40
-0.6
 41
30.0
 62
     5
 63
     7
 74
     1
 91
        4
 64
     7
 65
   257
 75
     1
175
     1
 42
1.0
 92
        0
 66
   257
 43
1.0
 76
     1
 77
     6
 78
     2
 67
     7
 79
     5
170
     0
171
     0
290
     0
174
     0
 93
       13
 44
0.0
173
     0
291
     1
 45
0.0
1001
ACAD
1000
AcDbSavedByObjectVersion
1070
     0
  0
VISUALSTYLE
  5
38
102
{ACAD_REACTORS
330
2A
102
}
330
2A
100
AcDbVisualStyle
  2
Linepattern
 70
    14
 71
     2
 72
     2
 73
     0
 90
        0
 40
-0.6
 41
-30.0
 62
     5
 63
     7
 74
     1
 91
        4
 64
     7
 65
   257
 75
     7
175
     7
 42
1.0
 92
        8
 66
     7
 43
1.0
 76
     1
 77
     6
 78
     2
 67
     7
 79
     5
170
     0
171
     0
290
     0
174
     0
 93
        1
 44
0.0
173
     0
291
     1
 45
0.0
1001
ACAD
1000
AcDbSavedByObjectVersion
1070
     0
  0
VISUALSTYLE
  5
33
102
{ACAD_REACTORS
330
2A
102
}
330
2A
100
AcDbVisualStyle
  2
Realistic
 70
     8
 71
     2
 72
     2
 73
     0
 90
        0
 40
-0.6
 41
-30.0
 62
     5
 63
     7
 74
     1
 91
        0
 64
     7
 65
   257
 75
     1
175
     1
 42
1.0
 92
        8
 66
     8
 43
1.0
 76
     1
 77
     6
 78
     2
 67
     7
 79
     5
170
     0
171
     0
290
     0
174
     0
 93
       13
 44
0.0
173
     0
291
     0
 45
0.0
1001
ACAD
1000
AcDbSavedByObjectVersion
1070
     0
  0
VISUALSTYLE
  5
37
102
{ACAD_REACTORS
330
2A
102
}
330
2A
100
AcDbVisualStyle
  2
Thicken
 70
    13
 71
     2
 72
     2
 73
     0
 90
        0
 40
-0.6
 41
-30.0
 62
     5
 63
     7
 74
     1
 91
        4
 64
     7
 65
   257
 75
     1
175
     1
 42
1.0
 92
       12
 66
     7
 43
1.0
 76
     1
 77
     6
 78
     2
 67
     7
 79
     5
170
     0
171
     0
290
     0
174
     0
 93
        1
 44
0.0
173
     0
291
     1
 45
0.0
1001
ACAD
1000
AcDbSavedByObjectVersion
1070
     0
  0
DICTIONARYVAR
  5
169
102
{ACAD_REACTORS
330
168
102
}
330
168
100
DictionaryVariables
280
     0
  1
1:1
  0
DICTIONARYVAR
  5
16D
102
{ACAD_REACTORS
330
168
102
}
330
168
100
DictionaryVariables
280
     0
  1
80.000000
  0
DICTIONARYVAR
  5
16C
102
{ACAD_REACTORS
330
168
102
}
330
168
100
DictionaryVariables
280
     0
  1
5.000000
  0
ENDSEC
  0
EOF
