  0
SECTION
  2
HEADER
  9
$ACADVER
  1
AC1015
  9
$ACADMAINTVER
 70
     6
  9
$DWGCODEPAGE
  3
ANSI_1252
  9
$INSBASE
 10
0.0
 20
0.0
 30
0.0
  9
$EXTMIN
 10
0.0
 20
0.0
 30
0.0
  9
$EXTMAX
 10
1682.0
 20
2378.0
 30
0.0
  9
$LIMMIN
 10
0.0
 20
0.0
  9
$LIMMAX
 10
1682.0
 20
2378.0
  9
$ORTHOMODE
 70
     0
  9
$REGENMODE
 70
     1
  9
$FILLMODE
 70
     1
  9
$QTEXTMODE
 70
     0
  9
$MIRRTEXT
 70
     1
  9
$LTSCALE
 40
1.0
  9
$ATTMODE
 70
     1
  9
$TEXTSIZE
 40
2.5
  9
$TRACEWID
 40
1.0
  9
$TEXTSTYLE
  7
Standard
  9
$CLAYER
  8
0
  9
$CELTYPE
  6
ByLayer
  9
$CECOLOR
 62
   256
  9
$CELTSCALE
 40
1.0
  9
$DISPSILH
 70
     0
  9
$DIMSCALE
 40
1.0
  9
$DIMASZ
 40
2.5
  9
$DIMEXO
 40
0.625
  9
$DIMDLI
 40
3.75
  9
$DIMRND
 40
0.0
  9
$DIMDLE
 40
0.0
  9
$DIMEXE
 40
1.25
  9
$DIMTP
 40
0.0
  9
$DIMTM
 40
0.0
  9
$DIMTXT
 40
2.5
  9
$DIMCEN
 40
2.5
  9
$DIMTSZ
 40
0.0
  9
$DIMTOL
 70
     0
  9
$DIMLIM
 70
     0
  9
$DIMTIH
 70
     0
  9
$DIMTOH
 70
     0
  9
$DIMSE1
 70
     0
  9
$DIMSE2
 70
     0
  9
$DIMTAD
 70
     1
  9
$DIMZIN
 70
     8
  9
$DIMBLK
  1

  9
$DIMASO
 70
     1
  9
$DIMSHO
 70
     1
  9
$DIMPOST
  1

  9
$DIMAPOST
  1

  9
$DIMALT
 70
     0
  9
$DIMALTD
 70
     3
  9
$DIMALTF
 40
0.0393700787
  9
$DIMLFAC
 40
1.0
  9
$DIMTOFL
 70
     1
  9
$DIMTVP
 40
0.0
  9
$DIMTIX
 70
     0
  9
$DIMSOXD
 70
     0
  9
$DIMSAH
 70
     0
  9
$DIMBLK1
  1

  9
$DIMBLK2
  1

  9
$DIMSTYLE
  2
ISO-25
  9
$DIMCLRD
 70
     0
  9
$DIMCLRE
 70
     0
  9
$DIMCLRT
 70
     0
  9
$DIMTFAC
 40
1.0
  9
$DIMGAP
 40
0.625
  9
$DIMJUST
 70
     0
  9
$DIMSD1
 70
     0
  9
$DIMSD2
 70
     0
  9
$DIMTOLJ
 70
     0
  9
$DIMTZIN
 70
     8
  9
$DIMALTZ
 70
     0
  9
$DIMALTTZ
 70
     0
  9
$DIMUPT
 70
     0
  9
$DIMDEC
 70
     2
  9
$DIMTDEC
 70
     2
  9
$DIMALTU
 70
     2
  9
$DIMALTTD
 70
     3
  9
$DIMTXSTY
  7
Standard
  9
$DIMAUNIT
 70
     0
  9
$DIMADEC
 70
     0
  9
$DIMALTRND
 40
0.0
  9
$DIMAZIN
 70
     0
  9
$DIMDSEP
 70
    44
  9
$DIMATFIT
 70
     3
  9
$DIMFRAC
 70
     0
  9
$DIMLDRBLK
  1

  9
$DIMLUNIT
 70
     2
  9
$DIMLWD
 70
    -2
  9
$DIMLWE
 70
    -2
  9
$DIMTMOVE
 70
     0
  9
$LUNITS
 70
     2
  9
$LUPREC
 70
     4
  9
$SKETCHINC
 40
1.0
  9
$FILLETRAD
 40
10.0
  9
$AUNITS
 70
     0
  9
$AUPREC
 70
     0
  9
$MENU
  1
.
  9
$ELEVATION
 40
0.0
  9
$PELEVATION
 40
0.0
  9
$THICKNESS
 40
0.0
  9
$LIMCHECK
 70
     0
  9
$CHAMFERA
 40
10.0
  9
$CHAMFERB
 40
10.0
  9
$CHAMFERC
 40
20.0
  9
$CHAMFERD
 40
0.0
  9
$SKPOLY
 70
     0
  9
$TDCREATE
 40
2455679.333338056
  9
$TDUCREATE
 40
2455679.250004722
  9
$TDUPDATE
 40
2455679.333338067
  9
$TDUUPDATE
 40
2455679.250004734
  9
$TDINDWG
 40
0.0000000116
  9
$TDUSRTIMER
 40
0.0000000116
  9
$USRTIMER
 70
     1
  9
$ANGBASE
 50
0.0
  9
$ANGDIR
 70
     0
  9
$PDMODE
 70
     0
  9
$PDSIZE
 40
0.0
  9
$PLINEWID
 40
0.0
  9
$SPLFRAME
 70
     0
  9
$SPLINETYPE
 70
     6
  9
$SPLINESEGS
 70
     8
  9
$HANDSEED
  5
3E4
  9
$SURFTAB1
 70
     6
  9
$SURFTAB2
 70
     6
  9
$SURFTYPE
 70
     6
  9
$SURFU
 70
     6
  9
$SURFV
 70
     6
  9
$UCSBASE
  2

  9
$UCSNAME
  2

  9
$UCSORG
 10
0.0
 20
0.0
 30
0.0
  9
$UCSXDIR
 10
1.0
 20
0.0
 30
0.0
  9
$UCSYDIR
 10
0.0
 20
1.0
 30
0.0
  9
$UCSORTHOREF
  2

  9
$UCSORTHOVIEW
 70
     0
  9
$UCSORGTOP
 10
0.0
 20
0.0
 30
0.0
  9
$UCSORGBOTTOM
 10
0.0
 20
0.0
 30
0.0
  9
$UCSORGLEFT
 10
0.0
 20
0.0
 30
0.0
  9
$UCSORGRIGHT
 10
0.0
 20
0.0
 30
0.0
  9
$UCSORGFRONT
 10
0.0
 20
0.0
 30
0.0
  9
$UCSORGBACK
 10
0.0
 20
0.0
 30
0.0
  9
$PUCSBASE
  2

  9
$PUCSNAME
  2

  9
$PUCSORG
 10
0.0
 20
0.0
 30
0.0
  9
$PUCSXDIR
 10
1.0
 20
0.0
 30
0.0
  9
$PUCSYDIR
 10
0.0
 20
1.0
 30
0.0
  9
$PUCSORTHOREF
  2

  9
$PUCSORTHOVIEW
 70
     0
  9
$PUCSORGTOP
 10
0.0
 20
0.0
 30
0.0
  9
$PUCSORGBOTTOM
 10
0.0
 20
0.0
 30
0.0
  9
$PUCSORGLEFT
 10
0.0
 20
0.0
 30
0.0
  9
$PUCSORGRIGHT
 10
0.0
 20
0.0
 30
0.0
  9
$PUCSORGFRONT
 10
0.0
 20
0.0
 30
0.0
  9
$PUCSORGBACK
 10
0.0
 20
0.0
 30
0.0
  9
$USERI1
 70
     0
  9
$USERI2
 70
     0
  9
$USERI3
 70
     0
  9
$USERI4
 70
     0
  9
$USERI5
 70
     0
  9
$USERR1
 40
0.0
  9
$USERR2
 40
0.0
  9
$USERR3
 40
0.0
  9
$USERR4
 40
0.0
  9
$USERR5
 40
0.0
  9
$WORLDVIEW
 70
     1
  9
$SHADEDGE
 70
     3
  9
$SHADEDIF
 70
    70
  9
$TILEMODE
 70
     1
  9
$MAXACTVP
 70
    64
  9
$PINSBASE
 10
0.0
 20
0.0
 30
0.0
  9
$PLIMCHECK
 70
     0
  9
$PEXTMIN
 10
0.0
 20
0.0
 30
0.0
  9
$PEXTMAX
 10
1682.0
 20
2378.0
 30
0.0
  9
$PLIMMIN
 10
0.0
 20
0.0
  9
$PLIMMAX
 10
1682.0
 20
2378.0
  9
$UNITMODE
 70
     0
  9
$VISRETAIN
 70
     1
  9
$PLINEGEN
 70
     0
  9
$PSLTSCALE
 70
     1
  9
$TREEDEPTH
 70
  3020
  9
$CMLSTYLE
  2
Standard
  9
$CMLJUST
 70
     0
  9
$CMLSCALE
 40
20.0
  9
$PROXYGRAPHICS
 70
     1
  9
$MEASUREMENT
 70
     1
  9
$CELWEIGHT
370
    -1
  9
$ENDCAPS
280
     0
  9
$JOINSTYLE
280
     0
  9
$LWDISPLAY
290
     0
  9
$INSUNITS
 70
     4
  9
$HYPERLINKBASE
  1

  9
$STYLESHEET
  1

  9
$XEDIT
290
     1
  9
$CEPSNTYPE
380
     0
  9
$PSTYLEMODE
290
     1
  9
$FINGERPRINTGUID
  2
{16F35404-9B65-4AC0-BAC2-CA87B4C59413}
  9
$VERSIONGUID
  2
{FAEB1C32-E019-11D5-929B-00C0DF256EC4}
  9
$EXTNAMES
290
     1
  9
$PSVPSCALE
 40
0.0
  9
$OLESTARTUP
290
     0
  0
ENDSEC
  0
SECTION
  2
CLASSES
  0
CLASS
  1
ACDBDICTIONARYWDFLT
  2
AcDbDictionaryWithDefault
  3
ObjectDBX Classes
 90
        0
280
     0
281
     0
  0
CLASS
  1
VISUALSTYLE
  2
AcDbVisualStyle
  3
ObjectDBX Classes
 90
     4095
280
     0
281
     0
  0
CLASS
  1
SCALE
  2
AcDbScale
  3
ObjectDBX Classes
 90
     1153
280
     0
281
     0
  0
CLASS
  1
DICTIONARYVAR
  2
AcDbDictionaryVar
  3
ObjectDBX Classes
 90
        0
280
     0
281
     0
  0
CLASS
  1
ACDBPLACEHOLDER
  2
AcDbPlaceHolder
  3
ObjectDBX Classes
 90
        0
280
     0
281
     0
  0
CLASS
  1
LAYOUT
  2
AcDbLayout
  3
ObjectDBX Classes
 90
        0
280
     0
281
     0
  0
ENDSEC
  0
SECTION
  2
TABLES
  0
TABLE
  2
VPORT
  5
8
330
0
100
AcDbSymbolTable
 70
     1
  0
VPORT
  5
29
330
8
100
AcDbSymbolTableRecord
100
AcDbViewportTableRecord
  2
*Active
 70
     0
 10
0.0
 20
0.0
 11
1.0
 21
1.0
 12
344.1869158879
 22
148.5
 13
0.0
 23
0.0
 14
10.0
 24
10.0
 15
10.0
 25
10.0
 16
0.0
 26
0.0
 36
1.0
 17
0.0
 27
0.0
 37
0.0
 40
297.0
 41
1.9729729729
 42
50.0
 43
0.0
 44
0.0
 50
0.0
 51
0.0
 71
     0
 72
   100
 73
     1
 74
     3
 75
     0
 76
     0
 77
     0
 78
     0
281
     0
 65
     1
110
0.0
120
0.0
130
0.0
111
1.0
121
0.0
131
0.0
112
0.0
122
1.0
132
0.0
 79
     0
146
0.0
  0
ENDTAB
  0
TABLE
  2
LTYPE
  5
5
330
0
100
AcDbSymbolTable
 70
     2
  0
LTYPE
  5
14
330
5
100
AcDbSymbolTableRecord
100
AcDbLinetypeTableRecord
  2
ByBlock
 70
     0
  3

 72
    65
 73
     0
 40
0.0
  0
LTYPE
  5
15
330
5
100
AcDbSymbolTableRecord
100
AcDbLinetypeTableRecord
  2
ByLayer
 70
     0
  3

 72
    65
 73
     0
 40
0.0
  0
LTYPE
  5
16
330
5
100
AcDbSymbolTableRecord
100
AcDbLinetypeTableRecord
  2
Continuous
 70
     0
  3
Solid line
 72
    65
 73
     0
 40
0.0
  0
LTYPE
  5
60
330
5
100
AcDbSymbolTableRecord
100
AcDbLinetypeTableRecord
  2
CENTER2
 70
     0
  3
Center (.5x) ___ _ ___ _ ___ _ ___ _ ___ _ ___
 72
    65
 73
     4
 40
28.575
 49
19.05
 74
     4
 75
     0
340
0
 46
0.0
 50
0.0
 44
0.0
 45
0.0
 49
-3.175
 74
     4
 75
     0
340
0
 46
0.0
 50
0.0
 44
0.0
 45
0.0
 49
3.175
 74
     4
 75
     0
340
0
 46
0.0
 50
0.0
 44
0.0
 45
0.0
 49
-3.175
 74
     4
 75
     0
340
0
 46
0.0
 50
0.0
 44
0.0
 45
0.0
  0
ENDTAB
  0
TABLE
  2
LAYER
  5
2
330
0
100
AcDbSymbolTable
 70
     9
  0
LAYER
  5
10
330
2
100
AcDbSymbolTableRecord
100
AcDbLayerTableRecord
  2
0
 70
     0
 62
     7
  6
Continuous
370
    -3
390
F
  0
LAYER
  5
5D
330
2
100
AcDbSymbolTableRecord
100
AcDbLayerTableRecord
  2
Default
 70
     0
 62
     7
  6
Continuous
370
    -3
390
F
  0
LAYER
  5
77
330
2
100
AcDbSymbolTableRecord
100
AcDbLayerTableRecord
  2
$DDT_AUDIT_GENERATED_(77)
 70
     0
 62
     7
  6
Continuous
370
    -3
390
F
  0
LAYER
  5
7A
330
2
100
AcDbSymbolTableRecord
100
AcDbLayerTableRecord
  2
$DDT_AUDIT_GENERATED_(7A)
 70
     0
 62
     7
  6
Continuous
370
    -3
390
F
  0
LAYER
  5
88
330
2
100
AcDbSymbolTableRecord
100
AcDbLayerTableRecord
  2
$DDT_AUDIT_GENERATED_(88)
 70
     0
 62
     7
  6
Continuous
370
    -3
390
F
  0
LAYER
  5
31F
330
2
100
AcDbSymbolTableRecord
100
AcDbLayerTableRecord
  2
$DDT_AUDIT_GENERATED_(31F)
 70
     0
 62
     7
  6
Continuous
370
    -3
390
F
  0
LAYER
  5
331
330
2
100
AcDbSymbolTableRecord
100
AcDbLayerTableRecord
  2
$DDT_AUDIT_GENERATED_(331)
 70
     0
 62
     7
  6
Continuous
370
    -3
390
F
  0
LAYER
  5
335
330
2
100
AcDbSymbolTableRecord
100
AcDbLayerTableRecord
  2
$DDT_AUDIT_GENERATED_(335)
 70
     0
 62
     7
  6
Continuous
370
    -3
390
F
  0
LAYER
  5
37D
330
2
100
AcDbSymbolTableRecord
100
AcDbLayerTableRecord
  2
$DDT_AUDIT_GENERATED_(37D)
 70
     0
 62
     7
  6
Continuous
370
    -3
390
F
  0
ENDTAB
  0
TABLE
  2
STYLE
  5
3
330
0
100
AcDbSymbolTable
 70
     2
  0
STYLE
  5
11
330
3
100
AcDbSymbolTableRecord
100
AcDbTextStyleTableRecord
  2
Standard
 70
     0
 40
0.0
 41
1.0
 50
0.0
 71
     0
 42
2.5
  3
txt
  4

  0
STYLE
  5
3D3
330
3
100
AcDbSymbolTableRecord
100
AcDbTextStyleTableRecord
  2
SEACAD_seiso_ttf
 70
     0
 40
0.0
 41
1.0
 50
0.0
 71
     0
 42
0.2
  3
seiso.ttf
  4

  0
ENDTAB
  0
TABLE
  2
VIEW
  5
6
330
0
100
AcDbSymbolTable
 70
     0
  0
ENDTAB
  0
TABLE
  2
UCS
  5
7
330
0
100
AcDbSymbolTable
 70
     0
  0
ENDTAB
  0
TABLE
  2
APPID
  5
9
330
0
100
AcDbSymbolTable
 70
     1
  0
APPID
  5
12
330
9
100
AcDbSymbolTableRecord
100
AcDbRegAppTableRecord
  2
ACAD
 70
     0
  0
ENDTAB
  0
TABLE
  2
DIMSTYLE
  5
A
330
0
100
AcDbSymbolTable
 70
     1
100
AcDbDimStyleTable
  0
DIMSTYLE
105
27
330
A
100
AcDbSymbolTableRecord
100
AcDbDimStyleTableRecord
  2
ISO-25
 70
     0
 41
2.5
 42
0.625
 43
3.75
 44
1.25
 73
     0
 74
     0
 77
     1
 78
     8
140
2.5
141
2.5
143
0.0393700787
147
0.625
171
     3
172
     1
271
     2
272
     2
274
     3
278
    44
283
     0
284
     8
340
11
  0
ENDTAB
  0
TABLE
  2
BLOCK_RECORD
  5
1
330
0
100
AcDbSymbolTable
 70
     7
  0
BLOCK_RECORD
  5
1F
330
1
100
AcDbSymbolTableRecord
100
AcDbBlockTableRecord
  2
*Model_Space
340
22
  0
BLOCK_RECORD
  5
1B
330
1
100
AcDbSymbolTableRecord
100
AcDbBlockTableRecord
  2
*Paper_Space
340
1E
  0
BLOCK_RECORD
  5
5E
330
1
100
AcDbSymbolTableRecord
100
AcDbBlockTableRecord
  2
SEANNOT_GROUP
340
0
102
{BLKREFS
331
5F
102
}
  0
BLOCK_RECORD
  5
65
330
1
100
AcDbSymbolTableRecord
100
AcDbBlockTableRecord
  2
SEANNOT_GROUP1
340
0
102
{BLKREFS
331
66
102
}
  0
BLOCK_RECORD
  5
6B
330
1
100
AcDbSymbolTableRecord
100
AcDbBlockTableRecord
  2
SEANNOT_GROUP2
340
0
102
{BLKREFS
331
6C
102
}
  0
BLOCK_RECORD
  5
75
330
1
100
AcDbSymbolTableRecord
100
AcDbBlockTableRecord
  2
SE
340
0
102
{BLKREFS
331
76
102
}
  0
BLOCK_RECORD
  5
352
330
1
100
AcDbSymbolTableRecord
100
AcDbBlockTableRecord
  2
SE1
340
0
102
{BLKREFS
331
353
102
}
  0
BLOCK_RECORD
  5
39E
330
1
100
AcDbSymbolTableRecord
100
AcDbBlockTableRecord
  2
SE2
340
0
102
{BLKREFS
331
39F
102
}
  0
ENDTAB
  0
ENDSEC
  0
SECTION
  2
BLOCKS
  0
BLOCK
  5
20
330
1F
100
AcDbEntity
  8
0
100
AcDbBlockBegin
  2
*Model_Space
 70
     0
 10
0.0
 20
0.0
 30
0.0
  3
*Model_Space
  1

  0
ENDBLK
  5
21
330
1F
100
AcDbEntity
  8
0
100
AcDbBlockEnd
  0
BLOCK
  5
1C
330
1B
100
AcDbEntity
 67
     1
  8
0
100
AcDbBlockBegin
  2
*Paper_Space
 70
     0
 10
0.0
 20
0.0
 30
0.0
  3
*Paper_Space
  1

  0
ENDBLK
  5
1D
330
1B
100
AcDbEntity
 67
     1
  8
0
100
AcDbBlockEnd
  0
BLOCK
  5
63
330
5E
100
AcDbEntity
  8
0
100
AcDbBlockBegin
  2
SEANNOT_GROUP
 70
     0
 10
0.0
 20
0.0
 30
0.0
  3
SEANNOT_GROUP
  1

  0
LINE
  5
61
330
5E
100
AcDbEntity
  8
Default
  6
CENTER2
 62
     7
100
AcDbLine
 10
59.3459529178
 20
346.8577422522
 30
0.0
 11
19.3459538119
 21
346.8577422522
 31
0.0
  0
LINE
  5
62
330
5E
100
AcDbEntity
  8
Default
  6
CENTER2
 62
     7
100
AcDbLine
 10
39.3459533648
 20
366.8577418051
 30
0.0
 11
39.3459533648
 21
326.8577426992
 31
0.0
  0
ENDBLK
  5
64
330
5E
100
AcDbEntity
  8
0
100
AcDbBlockEnd
  0
BLOCK
  5
69
330
65
100
AcDbEntity
  8
0
100
AcDbBlockBegin
  2
SEANNOT_GROUP1
 70
     0
 10
0.0
 20
0.0
 30
0.0
  3
SEANNOT_GROUP1
  1

  0
LINE
  5
67
330
65
100
AcDbEntity
  8
Default
  6
CENTER2
 62
     7
100
AcDbLine
 10
185.3605109402
 20
346.8577422522
 30
0.0
 11
145.3605118343
 21
346.8577422522
 31
0.0
  0
LINE
  5
68
330
65
100
AcDbEntity
  8
Default
  6
CENTER2
 62
     7
100
AcDbLine
 10
165.3605113872
 20
366.8577418051
 30
0.0
 11
165.3605113872
 21
326.8577426992
 31
0.0
  0
ENDBLK
  5
6A
330
65
100
AcDbEntity
  8
0
100
AcDbBlockEnd
  0
BLOCK
  5
73
330
6B
100
AcDbEntity
  8
0
100
AcDbBlockBegin
  2
SEANNOT_GROUP2
 70
     0
 10
0.0
 20
0.0
 30
0.0
  3
SEANNOT_GROUP2
  1

  0
LINE
  5
6D
330
6B
100
AcDbEntity
  8
Default
  6
CENTER2
 62
     7
100
AcDbLine
 10
39.3459533648
 20
213.425362656
 30
0.0
 11
39.3459533648
 21
253.4253617619
 31
0.0
  0
LINE
  5
6E
330
6B
100
AcDbEntity
  8
Default
  6
CENTER2
 62
     7
100
AcDbLine
 10
59.3459529178
 20
233.425362209
 30
0.0
 11
19.3459538119
 21
233.425362209
 31
0.0
  0
LINE
  5
6F
330
6B
100
AcDbEntity
  8
Default
  6
CENTER2
 62
     7
100
AcDbLine
 10
39.3459533648
 20
208.4253627678
 30
0.0
 11
39.3459533648
 21
204.5396969118
 31
0.0
  0
LINE
  5
70
330
6B
100
AcDbEntity
  8
Default
  6
CENTER2
 62
     7
100
AcDbLine
 10
64.345952806
 20
233.425362209
 30
0.0
 11
67.8459533648
 21
233.425362209
 31
0.0
  0
LINE
  5
71
330
6B
100
AcDbEntity
  8
Default
  6
CENTER2
 62
     7
100
AcDbLine
 10
39.3459533648
 20
258.4253616502
 30
0.0
 11
39.3459533648
 21
262.3110275061
 31
0.0
  0
LINE
  5
72
330
6B
100
AcDbEntity
  8
Default
  6
CENTER2
 62
     7
100
AcDbLine
 10
14.3459539236
 20
233.425362209
 30
0.0
 11
10.8459533648
 21
233.425362209
 31
0.0
  0
ENDBLK
  5
74
330
6B
100
AcDbEntity
  8
0
100
AcDbBlockEnd
  0
BLOCK
  5
350
330
75
100
AcDbEntity
  8
0
100
AcDbBlockBegin
  2
SE
 70
     0
 10
0.0
 20
0.0
 30
0.0
  3
SE
  1

  0
SPLINE
  5
78
330
75
100
AcDbEntity
  8
$DDT_AUDIT_GENERATED_(77)
  6
Continuous
 62
     7
100
AcDbSpline
210
0.0
220
0.0
230
1.0
 70
     8
 71
     3
 72
    38
 73
    34
 74
     0
 42
0.0000000003275588
 43
0.0000000001
 40
0.23815305403158
 40
0.23815305403158
 40
0.23815305403158
 40
0.23815305403158
 40
0.2524073919042453
 40
0.2785711298518851
 40
0.3045928376492293
 40
0.3304941036958352
 40
0.3562984569442291
 40
0.3820261686193513
 40
0.4076934289683373
 40
0.4333128202572908
 40
0.4588940451647373
 40
0.4844445947102184
 40
0.5099702844569589
 40
0.5354756639443928
 40
0.5609643232368748
 40
0.5864391210819654
 40
0.6119023548817729
 40
0.63735588789626
 40
0.6628012450649421
 40
0.6882396857419002
 40
0.7136722593628976
 40
0.7390998484173665
 40
0.764523201915526
 40
0.789942961692536
 40
0.8153596832810359
 40
0.8407738526428231
 40
0.866185899730275
 40
0.8915962096150426
 40
0.9170051317506663
 40
0.9424129878105133
 40
0.9678200784506541
 40
0.9932266892805565
 40
1.0
 40
1.0
 40
1.0
 40
1.0
 10
16.40958667814181
 20
462.7172812865506
 30
0.0
 10
16.47020148651129
 20
462.6847515444883
 30
0.0
 10
16.64765291089266
 20
462.593215473062
 30
0.0
 10
16.96534325644075
 20
462.4457775100669
 30
0.0
 10
17.37798866782892
 20
462.276763947042
 30
0.0
 10
17.82727832979002
 20
462.1126441656637
 30
0.0
 10
18.31261468549951
 20
461.9532453309571
 30
0.0
 10
18.83336987945923
 20
461.7984988259525
 30
0.0
 10
19.38884336348316
 20
461.648417802896
 30
0.0
 10
19.97824898114175
 20
461.503074251878
 30
0.0
 10
20.60071402871055
 20
461.3625806562342
 30
0.0
 10
21.25528282942608
 20
461.2270763832074
 30
0.0
 10
21.94092174597389
 20
461.0967178279188
 30
0.0
 10
22.65652441413339
 20
460.9716712951186
 30
0.0
 10
23.40091675734057
 20
460.852107820628
 30
0.0
 10
24.17286166174742
 20
460.7381993567669
 30
0.0
 10
24.97106331634178
 20
460.630115919743
 30
0.0
 10
25.79417126744734
 20
460.5280234212065
 30
0.0
 10
26.64078424028297
 20
460.4320819921437
 30
0.0
 10
27.50945379797794
 20
460.3424446659147
 30
0.0
 10
28.39868781918988
 20
460.2592563277733
 30
0.0
 10
29.30695406887907
 20
460.1826528640897
 30
0.0
 10
30.23268300136285
 20
460.1127604694652
 30
0.0
 10
31.17427313473536
 20
460.0496950606766
 30
0.0
 10
32.13008663441059
 20
459.9935618394233
 30
0.0
 10
33.09848130559109
 20
459.9444547397792
 30
0.0
 10
34.07770665408079
 20
459.9024566675361
 30
0.0
 10
35.06630715153296
 20
459.867637088829
 30
0.0
 10
36.06163277185222
 20
459.8400597723869
 30
0.0
 10
37.06541271189699
 20
459.8197528719202
 30
0.0
 10
38.06297062085677
 20
459.8068197561036
 30
0.0
 10
38.84709277446167
 20
459.8024414419505
 30
0.0
 10
39.24741547450763
 20
459.8021629680578
 30
0.0
 10
39.34595336483967
 20
459.8021150880529
 30
0.0
  0
SPLINE
  5
79
330
75
100
AcDbEntity
  8
$DDT_AUDIT_GENERATED_(77)
  6
Continuous
 62
     7
100
AcDbSpline
210
0.0
220
0.0
230
1.0
 70
     8
 71
     3
 72
    38
 73
    34
 74
     0
 42
0.0000000003265382
 43
0.0000000001
 40
0.0
 40
0.0
 40
0.0
 40
0.0
 40
0.013327017849739
 40
0.0386529295199877
 40
0.0639803765015129
 40
0.089308288283965
 40
0.1146369450552311
 40
0.1399666398501428
 40
0.1652976839813554
 40
0.1906304133131786
 40
0.2159651954375883
 40
0.2413024380566716
 40
0.2666425989503899
 40
0.2919861980103809
 40
0.3173338319593174
 40
0.3426861925639931
 40
0.3680440894078272
 40
0.3934084786413929
 40
0.4187804996152358
 40
0.4441615219708865
 40
0.4695532066977313
 40
0.494957585957276
 40
0.5203771682683703
 40
0.5458150781035894
 40
0.5712752422360088
 40
0.5967626393541791
 40
0.622283634141623
 40
0.6478464204167586
 40
0.6734615942963875
 40
0.6991428509033507
 40
0.7249076997631523
 40
0.7507777942594319
 40
0.7594731976039041
 40
0.7594731976039041
 40
0.7594731976039041
 40
0.7594731976039041
 10
39.34595336483967
 20
459.8021150880529
 30
0.0
 10
39.54043829390708
 20
459.8023016116928
 30
0.0
 10
40.01958735447446
 20
459.8029300100827
 30
0.0
 10
40.88922440384898
 20
459.8095054870055
 30
0.0
 10
41.88712207948701
 20
459.8243112887035
 30
0.0
 10
42.88921076974858
 20
459.8465190742257
 30
0.0
 10
43.88280186086087
 20
459.8759754878661
 30
0.0
 10
44.86909025536913
 20
459.9126611856085
 30
0.0
 10
45.84557303970752
 20
459.9565055139187
 30
0.0
 10
46.81075994657254
 20
460.0074363104045
 30
0.0
 10
47.76291520365499
 20
460.0653668237684
 30
0.0
 10
48.70039875533966
 20
460.130199541322
 30
0.0
 10
49.62157889070539
 20
460.2018255503759
 30
0.0
 10
50.52485972014681
 20
460.2801251704661
 30
0.0
 10
51.40867787764645
 20
460.3649683318685
 30
0.0
 10
52.27150748393537
 20
460.4562151264482
 30
0.0
 10
53.1118629247422
 20
460.5537164406916
 30
0.0
 10
53.92830226468416
 20
460.6573147282922
 30
0.0
 10
54.71943056951538
 20
460.7668449532169
 30
0.0
 10
55.48390336993979
 20
460.88213576015
 30
0.0
 10
56.22043025496961
 20
461.0030109497873
 30
0.0
 10
56.92777866364604
 20
461.1292913715858
 30
0.0
 10
57.6047779402067
 20
461.2607973979294
 30
0.0
 10
58.25032373825857
 20
461.3973522218047
 30
0.0
 10
58.86338287078166
 20
461.5387863398154
 30
0.0
 10
59.44299870245422
 20
461.6849437676581
 30
0.0
 10
59.98829714178925
 20
461.8356908237336
 30
0.0
 10
60.4984931542792
 20
461.9909287654641
 30
0.0
 10
60.97289734611297
 20
462.1506122493553
 30
0.0
 10
61.41092123511251
 20
462.314776586535
 30
0.0
 10
61.81207757870958
 20
462.4835780153476
 30
0.0
 10
62.09485763563421
 20
462.6186186563581
 30
0.0
 10
62.24523061716197
 20
462.6973770722423
 30
0.0
 10
62.28232215445864
 20
462.7172824090026
 30
0.0
  0
CIRCLE
  5
7B
330
75
100
AcDbEntity
  8
$DDT_AUDIT_GENERATED_(7A)
  6
Continuous
 62
     7
100
AcDbCircle
 10
39.3459533648
 20
421.2738576728
 30
0.0
 40
14.49999999999997
  0
LINE
  5
7C
330
75
100
AcDbEntity
  8
$DDT_AUDIT_GENERATED_(7A)
  6
Continuous
 62
     7
100
AcDbLine
 10
14.3459533648
 20
346.8577422522
 30
0.0
 11
64.3459533648
 21
346.8577422522
 31
0.0
  0
ELLIPSE
  5
7D
330
75
100
AcDbEntity
  8
$DDT_AUDIT_GENERATED_(7A)
  6
Continuous
 62
     7
100
AcDbEllipse
 10
39.3459533648
 20
420.1324514525
 30
0.0
 11
12.25000000000001
 21
0.0
 31
0.0
210
0.0
220
0.0
230
1.0
 40
0.6427876097
 41
0.0
 42
3.413481710702616
  0
ELLIPSE
  5
7E
330
75
100
AcDbEntity
  8
$DDT_AUDIT_GENERATED_(7A)
  6
Continuous
 62
     7
100
AcDbEllipse
 10
39.3459533648
 20
420.1324514525
 30
0.0
 11
12.25000000000001
 21
0.0
 31
0.0
210
0.0
220
0.0
230
1.0
 40
0.6427876097
 41
6.011296250066765
 42
6.283185307179586
  0
ELLIPSE
  5
7F
330
75
100
AcDbEntity
  8
$DDT_AUDIT_GENERATED_(7A)
  6
Continuous
 62
     7
100
AcDbEllipse
 10
39.3459533648
 20
422.4305847819
 30
0.0
 11
-12.25
 21
0.0
 31
0.0
210
0.0
220
0.0
230
1.0
 40
0.6427876097
 41
0.1464519715696282
 42
0.2718890571128217
  0
ELLIPSE
  5
80
330
75
100
AcDbEntity
  8
$DDT_AUDIT_GENERATED_(7A)
  6
Continuous
 62
     7
100
AcDbEllipse
 10
39.3459533648
 20
422.4305847819
 30
0.0
 11
-12.25
 21
0.0
 31
0.0
210
0.0
220
0.0
230
1.0
 40
0.6427876097
 41
2.869703596476973
 42
2.995140682020165
  0
ELLIPSE
  5
81
330
75
100
AcDbEntity
  8
$DDT_AUDIT_GENERATED_(7A)
  6
Continuous
 62
     7
100
AcDbEllipse
 10
39.3459533648
 20
462.9109876331
 30
0.0
 11
-25.0
 21
0.0
 31
0.0
210
0.0
220
0.0
230
1.0
 40
0.1736481777
 41
6.20086975759278
 42
6.283185307179586
  0
ELLIPSE
  5
82
330
75
100
AcDbEntity
  8
$DDT_AUDIT_GENERATED_(7A)
  6
Continuous
 62
     7
100
AcDbEllipse
 10
39.3459533648
 20
462.9109876331
 30
0.0
 11
-25.0
 21
0.0
 31
0.0
210
0.0
220
0.0
230
1.0
 40
0.1736481777
 41
0.0
 42
3.2239082031766
  0
ELLIPSE
  5
83
330
75
100
AcDbEntity
  8
$DDT_AUDIT_GENERATED_(7A)
  6
Continuous
 62
     7
100
AcDbEllipse
 10
39.3459533648
 20
463.966951154
 30
0.0
 11
-24.5
 21
0.0
 31
0.0
210
0.0
220
0.0
230
1.0
 40
0.1736481777
 41
0.2147029160959225
 42
2.927073198026107
  0
LINE
  5
84
330
75
100
AcDbEntity
  8
$DDT_AUDIT_GENERATED_(7A)
  6
Continuous
 62
     7
100
AcDbLine
 10
14.3459533648
 20
462.9109876331
 30
0.0
 11
14.3459533648
 21
346.8577422522
 31
0.0
  0
LINE
  5
85
330
75
100
AcDbEntity
  8
$DDT_AUDIT_GENERATED_(7A)
  6
Continuous
 62
     7
100
AcDbLine
 10
64.3459533648
 20
346.8577422522
 30
0.0
 11
64.3459533648
 21
462.9109876331
 31
0.0
  0
LINE
  5
86
330
75
100
AcDbEntity
  8
$DDT_AUDIT_GENERATED_(7A)
  6
Continuous
 62
     7
100
AcDbLine
 10
64.2613030579
 20
463.2679328425
 30
0.0
 11
64.1683629894
 21
463.463550871
 31
0.0
  0
LINE
  5
87
330
75
100
AcDbEntity
  8
$DDT_AUDIT_GENERATED_(7A)
  6
Continuous
 62
     7
100
AcDbLine
 10
14.5224403994
 20
463.4612285855
 30
0.0
 11
14.4306036718
 21
463.2679328425
 31
0.0
  0
ELLIPSE
  5
89
330
75
100
AcDbEntity
  8
$DDT_AUDIT_GENERATED_(88)
  6
Continuous
 62
     7
100
AcDbEllipse
 10
39.3459533648
 20
414.9999536836
 30
0.0
 11
8.250000000000002
 21
0.0
 31
0.0
210
0.0
220
0.0
230
1.0
 40
0.6427876097
 41
0.0
 42
6.283185307179586
  0
ELLIPSE
  5
8A
330
75
100
AcDbEntity
  8
$DDT_AUDIT_GENERATED_(88)
  6
Continuous
 62
     7
100
AcDbEllipse
 10
39.3459533648
 20
414.9999536836
 30
0.0
 11
9.4
 21
0.0
 31
0.0
210
0.0
220
0.0
230
1.0
 40
0.6427876097
 41
0.0
 42
6.283185307179586
  0
LINE
  5
8B
330
75
100
AcDbEntity
  8
$DDT_AUDIT_GENERATED_(88)
  6
Continuous
 62
     7
100
AcDbLine
 10
48.5608739736
 20
417.5015396664
 30
0.0
 11
48.5608739736
 21
417.0931566635
 31
0.0
  0
LINE
  5
8C
330
75
100
AcDbEntity
  8
$DDT_AUDIT_GENERATED_(88)
  6
Continuous
 62
     7
100
AcDbLine
 10
48.6960718967
 20
417.257065341
 30
0.0
 11
48.5608739736
 21
417.0931566635
 31
0.0
  0
ELLIPSE
  5
8D
330
75
100
AcDbEntity
  8
$DDT_AUDIT_GENERATED_(88)
  6
Continuous
 62
     7
100
AcDbEllipse
 10
39.3459533648
 20
415.9000559043
 30
0.0
 11
-9.400000000001747
 21
2.914335439641036E-13
 31
0.0
210
0.0
220
0.0
230
1.0
 40
0.6427876097
 41
3.141592653589785
 42
3.34036010435576
  0
ELLIPSE
  5
8E
330
75
100
AcDbEntity
  8
$DDT_AUDIT_GENERATED_(88)
  6
Continuous
 62
     7
100
AcDbEllipse
 10
39.3459533648
 20
416.3788336813
 30
0.0
 11
-10.02499999999852
 21
1.387778780781446E-14
 31
0.0
210
0.0
220
0.0
230
1.0
 40
0.6427876097
 41
2.921902375620204
 42
3.039535877844771
  0
LINE
  5
8F
330
75
100
AcDbEntity
  8
$DDT_AUDIT_GENERATED_(88)
  6
Continuous
 62
     7
100
AcDbLine
 10
48.7390980182
 20
414.7907442772
 30
0.0
 11
49.1300024201
 21
414.9745216157
 31
0.0
  0
LINE
  5
90
330
75
100
AcDbEntity
  8
$DDT_AUDIT_GENERATED_(88)
  6
Continuous
 62
     7
100
AcDbLine
 10
29.5619043096
 20
414.9745216157
 30
0.0
 11
29.9698408476
 21
414.7827368958
 31
0.0
  0
ELLIPSE
  5
91
330
75
100
AcDbEntity
  8
$DDT_AUDIT_GENERATED_(88)
  6
Continuous
 62
     7
100
AcDbEllipse
 10
39.3459533648
 20
415.9000559043
 30
0.0
 11
9.400000000002473
 21
-3.053113317719180E-13
 31
0.0
210
0.0
220
0.0
230
1.0
 40
0.6427876097
 41
2.942825202823874
 42
3.141592653589793
  0
ELLIPSE
  5
92
330
75
100
AcDbEntity
  8
$DDT_AUDIT_GENERATED_(88)
  6
Continuous
 62
     7
100
AcDbEllipse
 10
39.3459533648
 20
416.3788336813
 30
0.0
 11
10.02499999999649
 21
2.359223927328458E-13
 31
0.0
210
0.0
220
0.0
230
1.0
 40
0.6427876097
 41
3.243649429334805
 42
3.361282931559398
  0
LINE
  5
93
330
75
100
AcDbEntity
  8
$DDT_AUDIT_GENERATED_(88)
  6
Continuous
 62
     7
100
AcDbLine
 10
30.131032756
 20
417.0931566635
 30
0.0
 11
29.9954541755
 21
417.2575268352
 31
0.0
  0
LINE
  5
94
330
75
100
AcDbEntity
  8
$DDT_AUDIT_GENERATED_(88)
  6
Continuous
 62
     7
100
AcDbLine
 10
30.131032756
 20
417.5015396664
 30
0.0
 11
30.131032756
 21
417.0931566635
 31
0.0
  0
LINE
  5
95
330
75
100
AcDbEntity
  8
$DDT_AUDIT_GENERATED_(88)
  6
Continuous
 62
     7
100
AcDbLine
 10
38.8459533648
 20
415.0615821004
 30
0.0
 11
38.8459533648
 21
415.70436971
 31
0.0
  0
LINE
  5
96
330
75
100
AcDbEntity
  8
$DDT_AUDIT_GENERATED_(88)
  6
Continuous
 62
     7
100
AcDbLine
 10
38.8459533648
 20
415.70436971
 30
0.0
 11
39.8459533648
 21
415.70436971
 31
0.0
  0
LINE
  5
97
330
75
100
AcDbEntity
  8
$DDT_AUDIT_GENERATED_(88)
  6
Continuous
 62
     7
100
AcDbLine
 10
38.8459533648
 20
415.832927232
 30
0.0
 11
38.8459533648
 21
416.4757148417
 31
0.0
  0
LINE
  5
98
330
75
100
AcDbEntity
  8
$DDT_AUDIT_GENERATED_(88)
  6
Continuous
 62
     7
100
AcDbLine
 10
38.8459533648
 20
416.4757148417
 30
0.0
 11
39.8459533648
 21
416.4757148417
 31
0.0
  0
LINE
  5
99
330
75
100
AcDbEntity
  8
$DDT_AUDIT_GENERATED_(88)
  6
Continuous
 62
     7
100
AcDbLine
 10
39.8459533648
 20
415.832927232
 30
0.0
 11
38.8459533648
 21
415.832927232
 31
0.0
  0
LINE
  5
9A
330
75
100
AcDbEntity
  8
$DDT_AUDIT_GENERATED_(88)
  6
Continuous
 62
     7
100
AcDbLine
 10
38.8459533648
 20
416.6042723636
 30
0.0
 11
38.8459533648
 21
417.2470599733
 31
0.0
  0
LINE
  5
9B
330
75
100
AcDbEntity
  8
$DDT_AUDIT_GENERATED_(88)
  6
Continuous
 62
     7
100
AcDbLine
 10
38.8459533648
 20
417.2470599733
 30
0.0
 11
39.8459533648
 21
417.2470599733
 31
0.0
  0
LINE
  5
9C
330
75
100
AcDbEntity
  8
$DDT_AUDIT_GENERATED_(88)
  6
Continuous
 62
     7
100
AcDbLine
 10
39.8459533648
 20
416.6042723636
 30
0.0
 11
38.8459533648
 21
416.6042723636
 31
0.0
  0
LINE
  5
9D
330
75
100
AcDbEntity
  8
$DDT_AUDIT_GENERATED_(88)
  6
Continuous
 62
     7
100
AcDbLine
 10
38.8459533648
 20
417.3756174952
 30
0.0
 11
38.8459533648
 21
418.0184051049
 31
0.0
  0
LINE
  5
9E
330
75
100
AcDbEntity
  8
$DDT_AUDIT_GENERATED_(88)
  6
Continuous
 62
     7
100
AcDbLine
 10
38.8459533648
 20
418.0184051049
 30
0.0
 11
39.8459533648
 21
418.0184051049
 31
0.0
  0
LINE
  5
9F
330
75
100
AcDbEntity
  8
$DDT_AUDIT_GENERATED_(88)
  6
Continuous
 62
     7
100
AcDbLine
 10
39.8459533648
 20
417.3756174952
 30
0.0
 11
38.8459533648
 21
417.3756174952
 31
0.0
  0
LINE
  5
A0
330
75
100
AcDbEntity
  8
$DDT_AUDIT_GENERATED_(88)
  6
Continuous
 62
     7
100
AcDbLine
 10
38.8459533648
 20
418.1469626268
 30
0.0
 11
38.8459533648
 21
418.7897502365
 31
0.0
  0
LINE
  5
A1
330
75
100
AcDbEntity
  8
$DDT_AUDIT_GENERATED_(88)
  6
Continuous
 62
     7
100
AcDbLine
 10
38.8459533648
 20
418.7897502365
 30
0.0
 11
39.8459533648
 21
418.7897502365
 31
0.0
  0
LINE
  5
A2
330
75
100
AcDbEntity
  8
$DDT_AUDIT_GENERATED_(88)
  6
Continuous
 62
     7
100
AcDbLine
 10
39.8459533648
 20
418.1469626268
 30
0.0
 11
38.8459533648
 21
418.1469626268
 31
0.0
  0
LINE
  5
A3
330
75
100
AcDbEntity
  8
$DDT_AUDIT_GENERATED_(88)
  6
Continuous
 62
     7
100
AcDbLine
 10
38.8459533648
 20
418.9183077585
 30
0.0
 11
38.8459533648
 21
419.5610953682
 31
0.0
  0
LINE
  5
A4
330
75
100
AcDbEntity
  8
$DDT_AUDIT_GENERATED_(88)
  6
Continuous
 62
     7
100
AcDbLine
 10
38.8459533648
 20
419.5610953682
 30
0.0
 11
39.8459533648
 21
419.5610953682
 31
0.0
  0
LINE
  5
A5
330
75
100
AcDbEntity
  8
$DDT_AUDIT_GENERATED_(88)
  6
Continuous
 62
     7
100
AcDbLine
 10
39.8459533648
 20
418.9183077585
 30
0.0
 11
38.8459533648
 21
418.9183077585
 31
0.0
  0
LINE
  5
A6
330
75
100
AcDbEntity
  8
$DDT_AUDIT_GENERATED_(88)
  6
Continuous
 62
     7
100
AcDbLine
 10
38.8459533648
 20
419.6896528901
 30
0.0
 11
38.8459533648
 21
420.2932032976
 31
0.0
  0
LINE
  5
A7
330
75
100
AcDbEntity
  8
$DDT_AUDIT_GENERATED_(88)
  6
Continuous
 62
     7
100
AcDbLine
 10
39.8459533648
 20
419.6896528901
 30
0.0
 11
38.8459533648
 21
419.6896528901
 31
0.0
  0
LINE
  5
A8
330
75
100
AcDbEntity
  8
$DDT_AUDIT_GENERATED_(88)
  6
Continuous
 62
     7
100
AcDbLine
 10
37.6459533648
 20
415.0615821004
 30
0.0
 11
37.6459533648
 21
415.70436971
 31
0.0
  0
LINE
  5
A9
330
75
100
AcDbEntity
  8
$DDT_AUDIT_GENERATED_(88)
  6
Continuous
 62
     7
100
AcDbLine
 10
37.6459533648
 20
415.70436971
 30
0.0
 11
38.6459533648
 21
415.70436971
 31
0.0
  0
LINE
  5
AA
330
75
100
AcDbEntity
  8
$DDT_AUDIT_GENERATED_(88)
  6
Continuous
 62
     7
100
AcDbLine
 10
38.6459533648
 20
415.70436971
 30
0.0
 11
38.6459533648
 21
415.0615821004
 31
0.0
  0
LINE
  5
AB
330
75
100
AcDbEntity
  8
$DDT_AUDIT_GENERATED_(88)
  6
Continuous
 62
     7
100
AcDbLine
 10
37.6459533648
 20
415.832927232
 30
0.0
 11
37.6459533648
 21
416.4757148417
 31
0.0
  0
LINE
  5
AC
330
75
100
AcDbEntity
  8
$DDT_AUDIT_GENERATED_(88)
  6
Continuous
 62
     7
100
AcDbLine
 10
37.6459533648
 20
416.4757148417
 30
0.0
 11
38.6459533648
 21
416.4757148417
 31
0.0
  0
LINE
  5
AD
330
75
100
AcDbEntity
  8
$DDT_AUDIT_GENERATED_(88)
  6
Continuous
 62
     7
100
AcDbLine
 10
38.6459533648
 20
416.4757148417
 30
0.0
 11
38.6459533648
 21
415.832927232
 31
0.0
  0
LINE
  5
AE
330
75
100
AcDbEntity
  8
$DDT_AUDIT_GENERATED_(88)
  6
Continuous
 62
     7
100
AcDbLine
 10
38.6459533648
 20
415.832927232
 30
0.0
 11
37.6459533648
 21
415.832927232
 31
0.0
  0
LINE
  5
AF
330
75
100
AcDbEntity
  8
$DDT_AUDIT_GENERATED_(88)
  6
Continuous
 62
     7
100
AcDbLine
 10
37.6459533648
 20
416.6042723636
 30
0.0
 11
37.6459533648
 21
417.2470599733
 31
0.0
  0
LINE
  5
B0
330
75
100
AcDbEntity
  8
$DDT_AUDIT_GENERATED_(88)
  6
Continuous
 62
     7
100
AcDbLine
 10
37.6459533648
 20
417.2470599733
 30
0.0
 11
38.6459533648
 21
417.2470599733
 31
0.0
  0
LINE
  5
B1
330
75
100
AcDbEntity
  8
$DDT_AUDIT_GENERATED_(88)
  6
Continuous
 62
     7
100
AcDbLine
 10
38.6459533648
 20
417.2470599733
 30
0.0
 11
38.6459533648
 21
416.6042723636
 31
0.0
  0
LINE
  5
B2
330
75
100
AcDbEntity
  8
$DDT_AUDIT_GENERATED_(88)
  6
Continuous
 62
     7
100
AcDbLine
 10
38.6459533648
 20
416.6042723636
 30
0.0
 11
37.6459533648
 21
416.6042723636
 31
0.0
  0
LINE
  5
B3
330
75
100
AcDbEntity
  8
$DDT_AUDIT_GENERATED_(88)
  6
Continuous
 62
     7
100
AcDbLine
 10
37.6459533648
 20
417.3756174952
 30
0.0
 11
37.6459533648
 21
418.0184051049
 31
0.0
  0
LINE
  5
B4
330
75
100
AcDbEntity
  8
$DDT_AUDIT_GENERATED_(88)
  6
Continuous
 62
     7
100
AcDbLine
 10
37.6459533648
 20
418.0184051049
 30
0.0
 11
38.6459533648
 21
418.0184051049
 31
0.0
  0
LINE
  5
B5
330
75
100
AcDbEntity
  8
$DDT_AUDIT_GENERATED_(88)
  6
Continuous
 62
     7
100
AcDbLine
 10
38.6459533648
 20
418.0184051049
 30
0.0
 11
38.6459533648
 21
417.3756174952
 31
0.0
  0
LINE
  5
B6
330
75
100
AcDbEntity
  8
$DDT_AUDIT_GENERATED_(88)
  6
Continuous
 62
     7
100
AcDbLine
 10
38.6459533648
 20
417.3756174952
 30
0.0
 11
37.6459533648
 21
417.3756174952
 31
0.0
  0
LINE
  5
B7
330
75
100
AcDbEntity
  8
$DDT_AUDIT_GENERATED_(88)
  6
Continuous
 62
     7
100
AcDbLine
 10
37.6459533648
 20
418.1469626268
 30
0.0
 11
37.6459533648
 21
418.7897502365
 31
0.0
  0
LINE
  5
B8
330
75
100
AcDbEntity
  8
$DDT_AUDIT_GENERATED_(88)
  6
Continuous
 62
     7
100
AcDbLine
 10
37.6459533648
 20
418.7897502365
 30
0.0
 11
38.6459533648
 21
418.7897502365
 31
0.0
  0
LINE
  5
B9
330
75
100
AcDbEntity
  8
$DDT_AUDIT_GENERATED_(88)
  6
Continuous
 62
     7
100
AcDbLine
 10
38.6459533648
 20
418.7897502365
 30
0.0
 11
38.6459533648
 21
418.1469626268
 31
0.0
  0
LINE
  5
BA
330
75
100
AcDbEntity
  8
$DDT_AUDIT_GENERATED_(88)
  6
Continuous
 62
     7
100
AcDbLine
 10
38.6459533648
 20
418.1469626268
 30
0.0
 11
37.6459533648
 21
418.1469626268
 31
0.0
  0
LINE
  5
BB
330
75
100
AcDbEntity
  8
$DDT_AUDIT_GENERATED_(88)
  6
Continuous
 62
     7
100
AcDbLine
 10
37.6459533648
 20
418.9183077585
 30
0.0
 11
37.6459533648
 21
419.5610953682
 31
0.0
  0
LINE
  5
BC
330
75
100
AcDbEntity
  8
$DDT_AUDIT_GENERATED_(88)
  6
Continuous
 62
     7
100
AcDbLine
 10
37.6459533648
 20
419.5610953682
 30
0.0
 11
38.6459533648
 21
419.5610953682
 31
0.0
  0
LINE
  5
BD
330
75
100
AcDbEntity
  8
$DDT_AUDIT_GENERATED_(88)
  6
Continuous
 62
     7
100
AcDbLine
 10
38.6459533648
 20
419.5610953682
 30
0.0
 11
38.6459533648
 21
418.9183077585
 31
0.0
  0
LINE
  5
BE
330
75
100
AcDbEntity
  8
$DDT_AUDIT_GENERATED_(88)
  6
Continuous
 62
     7
100
AcDbLine
 10
38.6459533648
 20
418.9183077585
 30
0.0
 11
37.6459533648
 21
418.9183077585
 31
0.0
  0
LINE
  5
BF
330
75
100
AcDbEntity
  8
$DDT_AUDIT_GENERATED_(88)
  6
Continuous
 62
     7
100
AcDbLine
 10
37.6459533648
 20
419.6896528901
 30
0.0
 11
37.6459533648
 21
420.1891450533
 31
0.0
  0
LINE
  5
C0
330
75
100
AcDbEntity
  8
$DDT_AUDIT_GENERATED_(88)
  6
Continuous
 62
     7
100
AcDbLine
 10
38.6459533648
 20
420.2838281387
 30
0.0
 11
38.6459533648
 21
419.6896528901
 31
0.0
  0
LINE
  5
C1
330
75
100
AcDbEntity
  8
$DDT_AUDIT_GENERATED_(88)
  6
Continuous
 62
     7
100
AcDbLine
 10
38.6459533648
 20
419.6896528901
 30
0.0
 11
37.6459533648
 21
419.6896528901
 31
0.0
  0
LINE
  5
C2
330
75
100
AcDbEntity
  8
$DDT_AUDIT_GENERATED_(88)
  6
Continuous
 62
     7
100
AcDbLine
 10
36.4459533648
 20
415.0615821004
 30
0.0
 11
36.4459533648
 21
415.70436971
 31
0.0
  0
LINE
  5
C3
330
75
100
AcDbEntity
  8
$DDT_AUDIT_GENERATED_(88)
  6
Continuous
 62
     7
100
AcDbLine
 10
36.4459533648
 20
415.70436971
 30
0.0
 11
37.4459533648
 21
415.70436971
 31
0.0
  0
LINE
  5
C4
330
75
100
AcDbEntity
  8
$DDT_AUDIT_GENERATED_(88)
  6
Continuous
 62
     7
100
AcDbLine
 10
37.4459533648
 20
415.70436971
 30
0.0
 11
37.4459533648
 21
415.0615821004
 31
0.0
  0
LINE
  5
C5
330
75
100
AcDbEntity
  8
$DDT_AUDIT_GENERATED_(88)
  6
Continuous
 62
     7
100
AcDbLine
 10
36.4459533648
 20
415.832927232
 30
0.0
 11
36.4459533648
 21
416.4757148417
 31
0.0
  0
LINE
  5
C6
330
75
100
AcDbEntity
  8
$DDT_AUDIT_GENERATED_(88)
  6
Continuous
 62
     7
100
AcDbLine
 10
36.4459533648
 20
416.4757148417
 30
0.0
 11
37.4459533648
 21
416.4757148417
 31
0.0
  0
LINE
  5
C7
330
75
100
AcDbEntity
  8
$DDT_AUDIT_GENERATED_(88)
  6
Continuous
 62
     7
100
AcDbLine
 10
37.4459533648
 20
416.4757148417
 30
0.0
 11
37.4459533648
 21
415.832927232
 31
0.0
  0
LINE
  5
C8
330
75
100
AcDbEntity
  8
$DDT_AUDIT_GENERATED_(88)
  6
Continuous
 62
     7
100
AcDbLine
 10
37.4459533648
 20
415.832927232
 30
0.0
 11
36.4459533648
 21
415.832927232
 31
0.0
  0
LINE
  5
C9
330
75
100
AcDbEntity
  8
$DDT_AUDIT_GENERATED_(88)
  6
Continuous
 62
     7
100
AcDbLine
 10
36.4459533648
 20
416.6042723636
 30
0.0
 11
36.4459533648
 21
417.2470599733
 31
0.0
  0
LINE
  5
CA
330
75
100
AcDbEntity
  8
$DDT_AUDIT_GENERATED_(88)
  6
Continuous
 62
     7
100
AcDbLine
 10
36.4459533648
 20
417.2470599733
 30
0.0
 11
37.4459533648
 21
417.2470599733
 31
0.0
  0
LINE
  5
CB
330
75
100
AcDbEntity
  8
$DDT_AUDIT_GENERATED_(88)
  6
Continuous
 62
     7
100
AcDbLine
 10
37.4459533648
 20
417.2470599733
 30
0.0
 11
37.4459533648
 21
416.6042723636
 31
0.0
  0
LINE
  5
CC
330
75
100
AcDbEntity
  8
$DDT_AUDIT_GENERATED_(88)
  6
Continuous
 62
     7
100
AcDbLine
 10
37.4459533648
 20
416.6042723636
 30
0.0
 11
36.4459533648
 21
416.6042723636
 31
0.0
  0
LINE
  5
CD
330
75
100
AcDbEntity
  8
$DDT_AUDIT_GENERATED_(88)
  6
Continuous
 62
     7
100
AcDbLine
 10
36.4459533648
 20
417.3756174952
 30
0.0
 11
36.4459533648
 21
418.0184051049
 31
0.0
  0
LINE
  5
CE
330
75
100
AcDbEntity
  8
$DDT_AUDIT_GENERATED_(88)
  6
Continuous
 62
     7
100
AcDbLine
 10
36.4459533648
 20
418.0184051049
 30
0.0
 11
37.4459533648
 21
418.0184051049
 31
0.0
  0
LINE
  5
CF
330
75
100
AcDbEntity
  8
$DDT_AUDIT_GENERATED_(88)
  6
Continuous
 62
     7
100
AcDbLine
 10
37.4459533648
 20
418.0184051049
 30
0.0
 11
37.4459533648
 21
417.3756174952
 31
0.0
  0
LINE
  5
D0
330
75
100
AcDbEntity
  8
$DDT_AUDIT_GENERATED_(88)
  6
Continuous
 62
     7
100
AcDbLine
 10
37.4459533648
 20
417.3756174952
 30
0.0
 11
36.4459533648
 21
417.3756174952
 31
0.0
  0
LINE
  5
D1
330
75
100
AcDbEntity
  8
$DDT_AUDIT_GENERATED_(88)
  6
Continuous
 62
     7
100
AcDbLine
 10
36.4459533648
 20
418.1469626268
 30
0.0
 11
36.4459533648
 21
418.7897502365
 31
0.0
  0
LINE
  5
D2
330
75
100
AcDbEntity
  8
$DDT_AUDIT_GENERATED_(88)
  6
Continuous
 62
     7
100
AcDbLine
 10
36.4459533648
 20
418.7897502365
 30
0.0
 11
37.4459533648
 21
418.7897502365
 31
0.0
  0
LINE
  5
D3
330
75
100
AcDbEntity
  8
$DDT_AUDIT_GENERATED_(88)
  6
Continuous
 62
     7
100
AcDbLine
 10
37.4459533648
 20
418.7897502365
 30
0.0
 11
37.4459533648
 21
418.1469626268
 31
0.0
  0
LINE
  5
D4
330
75
100
AcDbEntity
  8
$DDT_AUDIT_GENERATED_(88)
  6
Continuous
 62
     7
100
AcDbLine
 10
37.4459533648
 20
418.1469626268
 30
0.0
 11
36.4459533648
 21
418.1469626268
 31
0.0
  0
LINE
  5
D5
330
75
100
AcDbEntity
  8
$DDT_AUDIT_GENERATED_(88)
  6
Continuous
 62
     7
100
AcDbLine
 10
36.4459533648
 20
418.9183077585
 30
0.0
 11
36.4459533648
 21
419.5610953682
 31
0.0
  0
LINE
  5
D6
330
75
100
AcDbEntity
  8
$DDT_AUDIT_GENERATED_(88)
  6
Continuous
 62
     7
100
AcDbLine
 10
36.4459533648
 20
419.5610953682
 30
0.0
 11
37.4459533648
 21
419.5610953682
 31
0.0
  0
LINE
  5
D7
330
75
100
AcDbEntity
  8
$DDT_AUDIT_GENERATED_(88)
  6
Continuous
 62
     7
100
AcDbLine
 10
37.4459533648
 20
419.5610953682
 30
0.0
 11
37.4459533648
 21
418.9183077585
 31
0.0
  0
LINE
  5
D8
330
75
100
AcDbEntity
  8
$DDT_AUDIT_GENERATED_(88)
  6
Continuous
 62
     7
100
AcDbLine
 10
37.4459533648
 20
418.9183077585
 30
0.0
 11
36.4459533648
 21
418.9183077585
 31
0.0
  0
LINE
  5
D9
330
75
100
AcDbEntity
  8
$DDT_AUDIT_GENERATED_(88)
  6
Continuous
 62
     7
100
AcDbLine
 10
35.2459533648
 20
415.0615821004
 30
0.0
 11
35.2459533648
 21
415.70436971
 31
0.0
  0
LINE
  5
DA
330
75
100
AcDbEntity
  8
$DDT_AUDIT_GENERATED_(88)
  6
Continuous
 62
     7
100
AcDbLine
 10
35.2459533648
 20
415.70436971
 30
0.0
 11
36.2459533648
 21
415.70436971
 31
0.0
  0
LINE
  5
DB
330
75
100
AcDbEntity
  8
$DDT_AUDIT_GENERATED_(88)
  6
Continuous
 62
     7
100
AcDbLine
 10
36.2459533648
 20
415.70436971
 30
0.0
 11
36.2459533648
 21
415.0615821004
 31
0.0
  0
LINE
  5
DC
330
75
100
AcDbEntity
  8
$DDT_AUDIT_GENERATED_(88)
  6
Continuous
 62
     7
100
AcDbLine
 10
35.2459533648
 20
415.832927232
 30
0.0
 11
35.2459533648
 21
416.4757148417
 31
0.0
  0
LINE
  5
DD
330
75
100
AcDbEntity
  8
$DDT_AUDIT_GENERATED_(88)
  6
Continuous
 62
     7
100
AcDbLine
 10
35.2459533648
 20
416.4757148417
 30
0.0
 11
36.2459533648
 21
416.4757148417
 31
0.0
  0
LINE
  5
DE
330
75
100
AcDbEntity
  8
$DDT_AUDIT_GENERATED_(88)
  6
Continuous
 62
     7
100
AcDbLine
 10
36.2459533648
 20
416.4757148417
 30
0.0
 11
36.2459533648
 21
415.832927232
 31
0.0
  0
LINE
  5
DF
330
75
100
AcDbEntity
  8
$DDT_AUDIT_GENERATED_(88)
  6
Continuous
 62
     7
100
AcDbLine
 10
36.2459533648
 20
415.832927232
 30
0.0
 11
35.2459533648
 21
415.832927232
 31
0.0
  0
LINE
  5
E0
330
75
100
AcDbEntity
  8
$DDT_AUDIT_GENERATED_(88)
  6
Continuous
 62
     7
100
AcDbLine
 10
35.2459533648
 20
416.6042723636
 30
0.0
 11
35.2459533648
 21
417.2470599733
 31
0.0
  0
LINE
  5
E1
330
75
100
AcDbEntity
  8
$DDT_AUDIT_GENERATED_(88)
  6
Continuous
 62
     7
100
AcDbLine
 10
35.2459533648
 20
417.2470599733
 30
0.0
 11
36.2459533648
 21
417.2470599733
 31
0.0
  0
LINE
  5
E2
330
75
100
AcDbEntity
  8
$DDT_AUDIT_GENERATED_(88)
  6
Continuous
 62
     7
100
AcDbLine
 10
36.2459533648
 20
417.2470599733
 30
0.0
 11
36.2459533648
 21
416.6042723636
 31
0.0
  0
LINE
  5
E3
330
75
100
AcDbEntity
  8
$DDT_AUDIT_GENERATED_(88)
  6
Continuous
 62
     7
100
AcDbLine
 10
36.2459533648
 20
416.6042723636
 30
0.0
 11
35.2459533648
 21
416.6042723636
 31
0.0
  0
LINE
  5
E4
330
75
100
AcDbEntity
  8
$DDT_AUDIT_GENERATED_(88)
  6
Continuous
 62
     7
100
AcDbLine
 10
35.2459533648
 20
417.3756174952
 30
0.0
 11
35.2459533648
 21
418.0184051049
 31
0.0
  0
LINE
  5
E5
330
75
100
AcDbEntity
  8
$DDT_AUDIT_GENERATED_(88)
  6
Continuous
 62
     7
100
AcDbLine
 10
35.2459533648
 20
418.0184051049
 30
0.0
 11
36.2459533648
 21
418.0184051049
 31
0.0
  0
LINE
  5
E6
330
75
100
AcDbEntity
  8
$DDT_AUDIT_GENERATED_(88)
  6
Continuous
 62
     7
100
AcDbLine
 10
36.2459533648
 20
418.0184051049
 30
0.0
 11
36.2459533648
 21
417.3756174952
 31
0.0
  0
LINE
  5
E7
330
75
100
AcDbEntity
  8
$DDT_AUDIT_GENERATED_(88)
  6
Continuous
 62
     7
100
AcDbLine
 10
36.2459533648
 20
417.3756174952
 30
0.0
 11
35.2459533648
 21
417.3756174952
 31
0.0
  0
LINE
  5
E8
330
75
100
AcDbEntity
  8
$DDT_AUDIT_GENERATED_(88)
  6
Continuous
 62
     7
100
AcDbLine
 10
35.2459533648
 20
418.1469626268
 30
0.0
 11
35.2459533648
 21
418.7897502365
 31
0.0
  0
LINE
  5
E9
330
75
100
AcDbEntity
  8
$DDT_AUDIT_GENERATED_(88)
  6
Continuous
 62
     7
100
AcDbLine
 10
35.2459533648
 20
418.7897502365
 30
0.0
 11
36.2459533648
 21
418.7897502365
 31
0.0
  0
LINE
  5
EA
330
75
100
AcDbEntity
  8
$DDT_AUDIT_GENERATED_(88)
  6
Continuous
 62
     7
100
AcDbLine
 10
36.2459533648
 20
418.7897502365
 30
0.0
 11
36.2459533648
 21
418.1469626268
 31
0.0
  0
LINE
  5
EB
330
75
100
AcDbEntity
  8
$DDT_AUDIT_GENERATED_(88)
  6
Continuous
 62
     7
100
AcDbLine
 10
36.2459533648
 20
418.1469626268
 30
0.0
 11
35.2459533648
 21
418.1469626268
 31
0.0
  0
LINE
  5
EC
330
75
100
AcDbEntity
  8
$DDT_AUDIT_GENERATED_(88)
  6
Continuous
 62
     7
100
AcDbLine
 10
35.2459533648
 20
419.5610953682
 30
0.0
 11
36.2459533648
 21
419.5610953682
 31
0.0
  0
LINE
  5
ED
330
75
100
AcDbEntity
  8
$DDT_AUDIT_GENERATED_(88)
  6
Continuous
 62
     7
100
AcDbLine
 10
35.2459533648
 20
418.9183077585
 30
0.0
 11
35.2459533648
 21
419.5610953682
 31
0.0
  0
LINE
  5
EE
330
75
100
AcDbEntity
  8
$DDT_AUDIT_GENERATED_(88)
  6
Continuous
 62
     7
100
AcDbLine
 10
36.2459533648
 20
419.5610953682
 30
0.0
 11
36.2459533648
 21
418.9183077585
 31
0.0
  0
LINE
  5
EF
330
75
100
AcDbEntity
  8
$DDT_AUDIT_GENERATED_(88)
  6
Continuous
 62
     7
100
AcDbLine
 10
36.2459533648
 20
418.9183077585
 30
0.0
 11
35.2459533648
 21
418.9183077585
 31
0.0
  0
LINE
  5
F0
330
75
100
AcDbEntity
  8
$DDT_AUDIT_GENERATED_(88)
  6
Continuous
 62
     7
100
AcDbLine
 10
34.0459533648
 20
415.0615821004
 30
0.0
 11
34.0459533648
 21
415.70436971
 31
0.0
  0
LINE
  5
F1
330
75
100
AcDbEntity
  8
$DDT_AUDIT_GENERATED_(88)
  6
Continuous
 62
     7
100
AcDbLine
 10
34.0459533648
 20
415.70436971
 30
0.0
 11
35.0459533648
 21
415.70436971
 31
0.0
  0
LINE
  5
F2
330
75
100
AcDbEntity
  8
$DDT_AUDIT_GENERATED_(88)
  6
Continuous
 62
     7
100
AcDbLine
 10
35.0459533648
 20
415.70436971
 30
0.0
 11
35.0459533648
 21
415.0615821004
 31
0.0
  0
LINE
  5
F3
330
75
100
AcDbEntity
  8
$DDT_AUDIT_GENERATED_(88)
  6
Continuous
 62
     7
100
AcDbLine
 10
34.0459533648
 20
415.832927232
 30
0.0
 11
34.0459533648
 21
416.4757148417
 31
0.0
  0
LINE
  5
F4
330
75
100
AcDbEntity
  8
$DDT_AUDIT_GENERATED_(88)
  6
Continuous
 62
     7
100
AcDbLine
 10
34.0459533648
 20
416.4757148417
 30
0.0
 11
35.0459533648
 21
416.4757148417
 31
0.0
  0
LINE
  5
F5
330
75
100
AcDbEntity
  8
$DDT_AUDIT_GENERATED_(88)
  6
Continuous
 62
     7
100
AcDbLine
 10
35.0459533648
 20
416.4757148417
 30
0.0
 11
35.0459533648
 21
415.832927232
 31
0.0
  0
LINE
  5
F6
330
75
100
AcDbEntity
  8
$DDT_AUDIT_GENERATED_(88)
  6
Continuous
 62
     7
100
AcDbLine
 10
35.0459533648
 20
415.832927232
 30
0.0
 11
34.0459533648
 21
415.832927232
 31
0.0
  0
LINE
  5
F7
330
75
100
AcDbEntity
  8
$DDT_AUDIT_GENERATED_(88)
  6
Continuous
 62
     7
100
AcDbLine
 10
34.0459533648
 20
416.6042723636
 30
0.0
 11
34.0459533648
 21
417.2470599733
 31
0.0
  0
LINE
  5
F8
330
75
100
AcDbEntity
  8
$DDT_AUDIT_GENERATED_(88)
  6
Continuous
 62
     7
100
AcDbLine
 10
34.0459533648
 20
417.2470599733
 30
0.0
 11
35.0459533648
 21
417.2470599733
 31
0.0
  0
LINE
  5
F9
330
75
100
AcDbEntity
  8
$DDT_AUDIT_GENERATED_(88)
  6
Continuous
 62
     7
100
AcDbLine
 10
35.0459533648
 20
417.2470599733
 30
0.0
 11
35.0459533648
 21
416.6042723636
 31
0.0
  0
LINE
  5
FA
330
75
100
AcDbEntity
  8
$DDT_AUDIT_GENERATED_(88)
  6
Continuous
 62
     7
100
AcDbLine
 10
35.0459533648
 20
416.6042723636
 30
0.0
 11
34.0459533648
 21
416.6042723636
 31
0.0
  0
LINE
  5
FB
330
75
100
AcDbEntity
  8
$DDT_AUDIT_GENERATED_(88)
  6
Continuous
 62
     7
100
AcDbLine
 10
34.0459533648
 20
417.3756174952
 30
0.0
 11
34.0459533648
 21
418.0184051049
 31
0.0
  0
LINE
  5
FC
330
75
100
AcDbEntity
  8
$DDT_AUDIT_GENERATED_(88)
  6
Continuous
 62
     7
100
AcDbLine
 10
34.0459533648
 20
418.0184051049
 30
0.0
 11
35.0459533648
 21
418.0184051049
 31
0.0
  0
LINE
  5
FD
330
75
100
AcDbEntity
  8
$DDT_AUDIT_GENERATED_(88)
  6
Continuous
 62
     7
100
AcDbLine
 10
35.0459533648
 20
418.0184051049
 30
0.0
 11
35.0459533648
 21
417.3756174952
 31
0.0
  0
LINE
  5
FE
330
75
100
AcDbEntity
  8
$DDT_AUDIT_GENERATED_(88)
  6
Continuous
 62
     7
100
AcDbLine
 10
35.0459533648
 20
417.3756174952
 30
0.0
 11
34.0459533648
 21
417.3756174952
 31
0.0
  0
LINE
  5
FF
330
75
100
AcDbEntity
  8
$DDT_AUDIT_GENERATED_(88)
  6
Continuous
 62
     7
100
AcDbLine
 10
34.0459533648
 20
418.1469626268
 30
0.0
 11
34.0459533648
 21
418.7897502365
 31
0.0
  0
LINE
  5
100
330
75
100
AcDbEntity
  8
$DDT_AUDIT_GENERATED_(88)
  6
Continuous
 62
     7
100
AcDbLine
 10
34.0459533648
 20
418.7897502365
 30
0.0
 11
35.0459533648
 21
418.7897502365
 31
0.0
  0
LINE
  5
101
330
75
100
AcDbEntity
  8
$DDT_AUDIT_GENERATED_(88)
  6
Continuous
 62
     7
100
AcDbLine
 10
35.0459533648
 20
418.7897502365
 30
0.0
 11
35.0459533648
 21
418.1469626268
 31
0.0
  0
LINE
  5
102
330
75
100
AcDbEntity
  8
$DDT_AUDIT_GENERATED_(88)
  6
Continuous
 62
     7
100
AcDbLine
 10
35.0459533648
 20
418.1469626268
 30
0.0
 11
34.0459533648
 21
418.1469626268
 31
0.0
  0
LINE
  5
103
330
75
100
AcDbEntity
  8
$DDT_AUDIT_GENERATED_(88)
  6
Continuous
 62
     7
100
AcDbLine
 10
32.8459533648
 20
415.0615821004
 30
0.0
 11
32.8459533648
 21
415.70436971
 31
0.0
  0
LINE
  5
104
330
75
100
AcDbEntity
  8
$DDT_AUDIT_GENERATED_(88)
  6
Continuous
 62
     7
100
AcDbLine
 10
32.8459533648
 20
415.70436971
 30
0.0
 11
33.8459533648
 21
415.70436971
 31
0.0
  0
LINE
  5
105
330
75
100
AcDbEntity
  8
$DDT_AUDIT_GENERATED_(88)
  6
Continuous
 62
     7
100
AcDbLine
 10
33.8459533648
 20
415.70436971
 30
0.0
 11
33.8459533648
 21
415.0615821004
 31
0.0
  0
LINE
  5
106
330
75
100
AcDbEntity
  8
$DDT_AUDIT_GENERATED_(88)
  6
Continuous
 62
     7
100
AcDbLine
 10
32.8459533648
 20
415.832927232
 30
0.0
 11
32.8459533648
 21
416.4757148417
 31
0.0
  0
LINE
  5
107
330
75
100
AcDbEntity
  8
$DDT_AUDIT_GENERATED_(88)
  6
Continuous
 62
     7
100
AcDbLine
 10
32.8459533648
 20
416.4757148417
 30
0.0
 11
33.8459533648
 21
416.4757148417
 31
0.0
  0
LINE
  5
108
330
75
100
AcDbEntity
  8
$DDT_AUDIT_GENERATED_(88)
  6
Continuous
 62
     7
100
AcDbLine
 10
33.8459533648
 20
416.4757148417
 30
0.0
 11
33.8459533648
 21
415.832927232
 31
0.0
  0
LINE
  5
109
330
75
100
AcDbEntity
  8
$DDT_AUDIT_GENERATED_(88)
  6
Continuous
 62
     7
100
AcDbLine
 10
33.8459533648
 20
415.832927232
 30
0.0
 11
32.8459533648
 21
415.832927232
 31
0.0
  0
LINE
  5
10A
330
75
100
AcDbEntity
  8
$DDT_AUDIT_GENERATED_(88)
  6
Continuous
 62
     7
100
AcDbLine
 10
32.8459533648
 20
416.6042723636
 30
0.0
 11
32.8459533648
 21
417.2470599733
 31
0.0
  0
LINE
  5
10B
330
75
100
AcDbEntity
  8
$DDT_AUDIT_GENERATED_(88)
  6
Continuous
 62
     7
100
AcDbLine
 10
32.8459533648
 20
417.2470599733
 30
0.0
 11
33.8459533648
 21
417.2470599733
 31
0.0
  0
LINE
  5
10C
330
75
100
AcDbEntity
  8
$DDT_AUDIT_GENERATED_(88)
  6
Continuous
 62
     7
100
AcDbLine
 10
33.8459533648
 20
417.2470599733
 30
0.0
 11
33.8459533648
 21
416.6042723636
 31
0.0
  0
LINE
  5
10D
330
75
100
AcDbEntity
  8
$DDT_AUDIT_GENERATED_(88)
  6
Continuous
 62
     7
100
AcDbLine
 10
33.8459533648
 20
416.6042723636
 30
0.0
 11
32.8459533648
 21
416.6042723636
 31
0.0
  0
LINE
  5
10E
330
75
100
AcDbEntity
  8
$DDT_AUDIT_GENERATED_(88)
  6
Continuous
 62
     7
100
AcDbLine
 10
32.8459533648
 20
417.3756174952
 30
0.0
 11
32.8459533648
 21
418.0184051049
 31
0.0
  0
LINE
  5
10F
330
75
100
AcDbEntity
  8
$DDT_AUDIT_GENERATED_(88)
  6
Continuous
 62
     7
100
AcDbLine
 10
32.8459533648
 20
418.0184051049
 30
0.0
 11
33.8459533648
 21
418.0184051049
 31
0.0
  0
LINE
  5
110
330
75
100
AcDbEntity
  8
$DDT_AUDIT_GENERATED_(88)
  6
Continuous
 62
     7
100
AcDbLine
 10
33.8459533648
 20
418.0184051049
 30
0.0
 11
33.8459533648
 21
417.3756174952
 31
0.0
  0
LINE
  5
111
330
75
100
AcDbEntity
  8
$DDT_AUDIT_GENERATED_(88)
  6
Continuous
 62
     7
100
AcDbLine
 10
33.8459533648
 20
417.3756174952
 30
0.0
 11
32.8459533648
 21
417.3756174952
 31
0.0
  0
LINE
  5
112
330
75
100
AcDbEntity
  8
$DDT_AUDIT_GENERATED_(88)
  6
Continuous
 62
     7
100
AcDbLine
 10
31.6459533648
 20
415.0615821004
 30
0.0
 11
31.6459533648
 21
415.70436971
 31
0.0
  0
LINE
  5
113
330
75
100
AcDbEntity
  8
$DDT_AUDIT_GENERATED_(88)
  6
Continuous
 62
     7
100
AcDbLine
 10
31.6459533648
 20
415.70436971
 30
0.0
 11
32.6459533648
 21
415.70436971
 31
0.0
  0
LINE
  5
114
330
75
100
AcDbEntity
  8
$DDT_AUDIT_GENERATED_(88)
  6
Continuous
 62
     7
100
AcDbLine
 10
32.6459533648
 20
415.70436971
 30
0.0
 11
32.6459533648
 21
415.0615821004
 31
0.0
  0
LINE
  5
115
330
75
100
AcDbEntity
  8
$DDT_AUDIT_GENERATED_(88)
  6
Continuous
 62
     7
100
AcDbLine
 10
31.6459533648
 20
415.832927232
 30
0.0
 11
31.6459533648
 21
416.4757148417
 31
0.0
  0
LINE
  5
116
330
75
100
AcDbEntity
  8
$DDT_AUDIT_GENERATED_(88)
  6
Continuous
 62
     7
100
AcDbLine
 10
31.6459533648
 20
416.4757148417
 30
0.0
 11
32.6459533648
 21
416.4757148417
 31
0.0
  0
LINE
  5
117
330
75
100
AcDbEntity
  8
$DDT_AUDIT_GENERATED_(88)
  6
Continuous
 62
     7
100
AcDbLine
 10
32.6459533648
 20
416.4757148417
 30
0.0
 11
32.6459533648
 21
415.832927232
 31
0.0
  0
LINE
  5
118
330
75
100
AcDbEntity
  8
$DDT_AUDIT_GENERATED_(88)
  6
Continuous
 62
     7
100
AcDbLine
 10
32.6459533648
 20
415.832927232
 30
0.0
 11
31.6459533648
 21
415.832927232
 31
0.0
  0
LINE
  5
119
330
75
100
AcDbEntity
  8
$DDT_AUDIT_GENERATED_(88)
  6
Continuous
 62
     7
100
AcDbLine
 10
31.6459533648
 20
416.6042723636
 30
0.0
 11
31.6459533648
 21
416.9037881514
 31
0.0
  0
LINE
  5
11A
330
75
100
AcDbEntity
  8
$DDT_AUDIT_GENERATED_(88)
  6
Continuous
 62
     7
100
AcDbLine
 10
31.8732466648
 20
417.2470599733
 30
0.0
 11
32.6459533648
 21
417.2470599733
 31
0.0
  0
LINE
  5
11B
330
75
100
AcDbEntity
  8
$DDT_AUDIT_GENERATED_(88)
  6
Continuous
 62
     7
100
AcDbLine
 10
32.6459533648
 20
417.2470599733
 30
0.0
 11
32.6459533648
 21
416.6042723636
 31
0.0
  0
LINE
  5
11C
330
75
100
AcDbEntity
  8
$DDT_AUDIT_GENERATED_(88)
  6
Continuous
 62
     7
100
AcDbLine
 10
32.6459533648
 20
416.6042723636
 30
0.0
 11
31.6459533648
 21
416.6042723636
 31
0.0
  0
LINE
  5
11D
330
75
100
AcDbEntity
  8
$DDT_AUDIT_GENERATED_(88)
  6
Continuous
 62
     7
100
AcDbLine
 10
31.1690618988
 20
415.70436971
 30
0.0
 11
31.4459533648
 21
415.70436971
 31
0.0
  0
LINE
  5
11E
330
75
100
AcDbEntity
  8
$DDT_AUDIT_GENERATED_(88)
  6
Continuous
 62
     7
100
AcDbLine
 10
31.4459533648
 20
415.70436971
 30
0.0
 11
31.4459533648
 21
415.0615821004
 31
0.0
  0
LINE
  5
11F
330
75
100
AcDbEntity
  8
$DDT_AUDIT_GENERATED_(88)
  6
Continuous
 62
     7
100
AcDbLine
 10
31.4218477537
 20
416.4757148417
 30
0.0
 11
31.4459533648
 21
416.4757148417
 31
0.0
  0
LINE
  5
120
330
75
100
AcDbEntity
  8
$DDT_AUDIT_GENERATED_(88)
  6
Continuous
 62
     7
100
AcDbLine
 10
31.4459533648
 20
416.4757148417
 30
0.0
 11
31.4459533648
 21
415.832927232
 31
0.0
  0
LINE
  5
121
330
75
100
AcDbEntity
  8
$DDT_AUDIT_GENERATED_(88)
  6
Continuous
 62
     7
100
AcDbLine
 10
31.4459533648
 20
415.832927232
 30
0.0
 11
31.1983645602
 21
415.832927232
 31
0.0
  0
LINE
  5
122
330
75
100
AcDbEntity
  8
$DDT_AUDIT_GENERATED_(88)
  6
Continuous
 62
     7
100
AcDbLine
 10
32.5627947264
 20
418.0184051049
 30
0.0
 11
32.6459533648
 21
418.0184051049
 31
0.0
  0
LINE
  5
123
330
75
100
AcDbEntity
  8
$DDT_AUDIT_GENERATED_(88)
  6
Continuous
 62
     7
100
AcDbLine
 10
32.6459533648
 20
418.0184051049
 30
0.0
 11
32.6459533648
 21
417.3756174952
 31
0.0
  0
LINE
  5
124
330
75
100
AcDbEntity
  8
$DDT_AUDIT_GENERATED_(88)
  6
Continuous
 62
     7
100
AcDbLine
 10
32.6459533648
 20
417.3756174952
 30
0.0
 11
31.9701147883
 21
417.3756174952
 31
0.0
  0
LINE
  5
125
330
75
100
AcDbEntity
  8
$DDT_AUDIT_GENERATED_(88)
  6
Continuous
 62
     7
100
AcDbLine
 10
33.5752396479
 20
418.7897502365
 30
0.0
 11
33.8459533648
 21
418.7897502365
 31
0.0
  0
LINE
  5
126
330
75
100
AcDbEntity
  8
$DDT_AUDIT_GENERATED_(88)
  6
Continuous
 62
     7
100
AcDbLine
 10
33.8459533648
 20
418.7897502365
 30
0.0
 11
33.8459533648
 21
418.1469626268
 31
0.0
  0
LINE
  5
127
330
75
100
AcDbEntity
  8
$DDT_AUDIT_GENERATED_(88)
  6
Continuous
 62
     7
100
AcDbLine
 10
33.8459533648
 20
418.1469626268
 30
0.0
 11
32.8459533648
 21
418.1469626268
 31
0.0
  0
LINE
  5
128
330
75
100
AcDbEntity
  8
$DDT_AUDIT_GENERATED_(88)
  6
Continuous
 62
     7
100
AcDbLine
 10
32.8459533648
 20
418.1469626268
 30
0.0
 11
32.8459533648
 21
418.2657006437
 31
0.0
  0
LINE
  5
129
330
75
100
AcDbEntity
  8
$DDT_AUDIT_GENERATED_(88)
  6
Continuous
 62
     7
100
AcDbLine
 10
35.0459533648
 20
419.525676041
 30
0.0
 11
35.0459533648
 21
418.9183077585
 31
0.0
  0
LINE
  5
12A
330
75
100
AcDbEntity
  8
$DDT_AUDIT_GENERATED_(88)
  6
Continuous
 62
     7
100
AcDbLine
 10
35.0459533648
 20
418.9183077585
 30
0.0
 11
34.0459533648
 21
418.9183077585
 31
0.0
  0
LINE
  5
12B
330
75
100
AcDbEntity
  8
$DDT_AUDIT_GENERATED_(88)
  6
Continuous
 62
     7
100
AcDbLine
 10
34.0459533648
 20
418.9183077585
 30
0.0
 11
34.0459533648
 21
419.0639017774
 31
0.0
  0
LINE
  5
12C
330
75
100
AcDbEntity
  8
$DDT_AUDIT_GENERATED_(88)
  6
Continuous
 62
     7
100
AcDbLine
 10
33.8459533648
 20
418.9525748571
 30
0.0
 11
33.8459533648
 21
418.9183077585
 31
0.0
  0
LINE
  5
12D
330
75
100
AcDbEntity
  8
$DDT_AUDIT_GENERATED_(88)
  6
Continuous
 62
     7
100
AcDbLine
 10
33.8459533648
 20
418.9183077585
 30
0.0
 11
33.7869259243
 21
418.9183077585
 31
0.0
  0
LINE
  5
12E
330
75
100
AcDbEntity
  8
$DDT_AUDIT_GENERATED_(88)
  6
Continuous
 62
     7
100
AcDbLine
 10
36.4459533648
 20
419.6896528901
 30
0.0
 11
36.4459533648
 21
419.964525774
 31
0.0
  0
LINE
  5
12F
330
75
100
AcDbEntity
  8
$DDT_AUDIT_GENERATED_(88)
  6
Continuous
 62
     7
100
AcDbLine
 10
37.4459533648
 20
420.1604013788
 30
0.0
 11
37.4459533648
 21
419.6896528901
 31
0.0
  0
LINE
  5
130
330
75
100
AcDbEntity
  8
$DDT_AUDIT_GENERATED_(88)
  6
Continuous
 62
     7
100
AcDbLine
 10
37.4459533648
 20
419.6896528901
 30
0.0
 11
36.4459533648
 21
419.6896528901
 31
0.0
  0
LINE
  5
131
330
75
100
AcDbEntity
  8
$DDT_AUDIT_GENERATED_(88)
  6
Continuous
 62
     7
100
AcDbLine
 10
36.2459533648
 20
419.9143371595
 30
0.0
 11
36.2459533648
 21
419.6896528901
 31
0.0
  0
LINE
  5
132
330
75
100
AcDbEntity
  8
$DDT_AUDIT_GENERATED_(88)
  6
Continuous
 62
     7
100
AcDbLine
 10
36.2459533648
 20
419.6896528901
 30
0.0
 11
35.4946312836
 21
419.6896528901
 31
0.0
  0
LINE
  5
133
330
75
100
AcDbEntity
  8
$DDT_AUDIT_GENERATED_(88)
  6
Continuous
 62
     7
100
AcDbLine
 10
39.8459533648
 20
415.70436971
 30
0.0
 11
39.8459533648
 21
415.0615821004
 31
0.0
  0
LINE
  5
134
330
75
100
AcDbEntity
  8
$DDT_AUDIT_GENERATED_(88)
  6
Continuous
 62
     7
100
AcDbLine
 10
40.0459533648
 20
415.70436971
 30
0.0
 11
41.0459533648
 21
415.70436971
 31
0.0
  0
LINE
  5
135
330
75
100
AcDbEntity
  8
$DDT_AUDIT_GENERATED_(88)
  6
Continuous
 62
     7
100
AcDbLine
 10
41.0459533648
 20
415.70436971
 30
0.0
 11
41.0459533648
 21
415.0615821004
 31
0.0
  0
LINE
  5
136
330
75
100
AcDbEntity
  8
$DDT_AUDIT_GENERATED_(88)
  6
Continuous
 62
     7
100
AcDbLine
 10
40.0459533648
 20
415.0615821004
 30
0.0
 11
40.0459533648
 21
415.70436971
 31
0.0
  0
LINE
  5
137
330
75
100
AcDbEntity
  8
$DDT_AUDIT_GENERATED_(88)
  6
Continuous
 62
     7
100
AcDbLine
 10
41.2459533648
 20
415.70436971
 30
0.0
 11
42.2459533648
 21
415.70436971
 31
0.0
  0
LINE
  5
138
330
75
100
AcDbEntity
  8
$DDT_AUDIT_GENERATED_(88)
  6
Continuous
 62
     7
100
AcDbLine
 10
42.2459533648
 20
415.70436971
 30
0.0
 11
42.2459533648
 21
415.0615821004
 31
0.0
  0
LINE
  5
139
330
75
100
AcDbEntity
  8
$DDT_AUDIT_GENERATED_(88)
  6
Continuous
 62
     7
100
AcDbLine
 10
41.2459533648
 20
415.0615821004
 30
0.0
 11
41.2459533648
 21
415.70436971
 31
0.0
  0
LINE
  5
13A
330
75
100
AcDbEntity
  8
$DDT_AUDIT_GENERATED_(88)
  6
Continuous
 62
     7
100
AcDbLine
 10
42.4459533648
 20
415.70436971
 30
0.0
 11
43.4459533648
 21
415.70436971
 31
0.0
  0
LINE
  5
13B
330
75
100
AcDbEntity
  8
$DDT_AUDIT_GENERATED_(88)
  6
Continuous
 62
     7
100
AcDbLine
 10
43.4459533648
 20
415.70436971
 30
0.0
 11
43.4459533648
 21
415.0615821004
 31
0.0
  0
LINE
  5
13C
330
75
100
AcDbEntity
  8
$DDT_AUDIT_GENERATED_(88)
  6
Continuous
 62
     7
100
AcDbLine
 10
42.4459533648
 20
415.0615821004
 30
0.0
 11
42.4459533648
 21
415.70436971
 31
0.0
  0
LINE
  5
13D
330
75
100
AcDbEntity
  8
$DDT_AUDIT_GENERATED_(88)
  6
Continuous
 62
     7
100
AcDbLine
 10
43.6459533648
 20
415.70436971
 30
0.0
 11
44.6459533648
 21
415.70436971
 31
0.0
  0
LINE
  5
13E
330
75
100
AcDbEntity
  8
$DDT_AUDIT_GENERATED_(88)
  6
Continuous
 62
     7
100
AcDbLine
 10
44.6459533648
 20
415.70436971
 30
0.0
 11
44.6459533648
 21
415.0615821004
 31
0.0
  0
LINE
  5
13F
330
75
100
AcDbEntity
  8
$DDT_AUDIT_GENERATED_(88)
  6
Continuous
 62
     7
100
AcDbLine
 10
43.6459533648
 20
415.0615821004
 30
0.0
 11
43.6459533648
 21
415.70436971
 31
0.0
  0
LINE
  5
140
330
75
100
AcDbEntity
  8
$DDT_AUDIT_GENERATED_(88)
  6
Continuous
 62
     7
100
AcDbLine
 10
44.8459533648
 20
415.70436971
 30
0.0
 11
45.8459533648
 21
415.70436971
 31
0.0
  0
LINE
  5
141
330
75
100
AcDbEntity
  8
$DDT_AUDIT_GENERATED_(88)
  6
Continuous
 62
     7
100
AcDbLine
 10
45.8459533648
 20
415.70436971
 30
0.0
 11
45.8459533648
 21
415.0615821004
 31
0.0
  0
LINE
  5
142
330
75
100
AcDbEntity
  8
$DDT_AUDIT_GENERATED_(88)
  6
Continuous
 62
     7
100
AcDbLine
 10
44.8459533648
 20
415.0615821004
 30
0.0
 11
44.8459533648
 21
415.70436971
 31
0.0
  0
LINE
  5
143
330
75
100
AcDbEntity
  8
$DDT_AUDIT_GENERATED_(88)
  6
Continuous
 62
     7
100
AcDbLine
 10
47.0459533648
 20
415.70436971
 30
0.0
 11
47.0459533648
 21
415.0615821004
 31
0.0
  0
LINE
  5
144
330
75
100
AcDbEntity
  8
$DDT_AUDIT_GENERATED_(88)
  6
Continuous
 62
     7
100
AcDbLine
 10
46.0459533648
 20
415.70436971
 30
0.0
 11
47.0459533648
 21
415.70436971
 31
0.0
  0
LINE
  5
145
330
75
100
AcDbEntity
  8
$DDT_AUDIT_GENERATED_(88)
  6
Continuous
 62
     7
100
AcDbLine
 10
46.0459533648
 20
415.0615821004
 30
0.0
 11
46.0459533648
 21
415.70436971
 31
0.0
  0
LINE
  5
146
330
75
100
AcDbEntity
  8
$DDT_AUDIT_GENERATED_(88)
  6
Continuous
 62
     7
100
AcDbLine
 10
39.8459533648
 20
416.4757148417
 30
0.0
 11
39.8459533648
 21
415.832927232
 31
0.0
  0
LINE
  5
147
330
75
100
AcDbEntity
  8
$DDT_AUDIT_GENERATED_(88)
  6
Continuous
 62
     7
100
AcDbLine
 10
40.0459533648
 20
416.4757148417
 30
0.0
 11
41.0459533648
 21
416.4757148417
 31
0.0
  0
LINE
  5
148
330
75
100
AcDbEntity
  8
$DDT_AUDIT_GENERATED_(88)
  6
Continuous
 62
     7
100
AcDbLine
 10
41.0459533648
 20
416.4757148417
 30
0.0
 11
41.0459533648
 21
415.832927232
 31
0.0
  0
LINE
  5
149
330
75
100
AcDbEntity
  8
$DDT_AUDIT_GENERATED_(88)
  6
Continuous
 62
     7
100
AcDbLine
 10
41.0459533648
 20
415.832927232
 30
0.0
 11
40.0459533648
 21
415.832927232
 31
0.0
  0
LINE
  5
14A
330
75
100
AcDbEntity
  8
$DDT_AUDIT_GENERATED_(88)
  6
Continuous
 62
     7
100
AcDbLine
 10
40.0459533648
 20
415.832927232
 30
0.0
 11
40.0459533648
 21
416.4757148417
 31
0.0
  0
LINE
  5
14B
330
75
100
AcDbEntity
  8
$DDT_AUDIT_GENERATED_(88)
  6
Continuous
 62
     7
100
AcDbLine
 10
41.2459533648
 20
416.4757148417
 30
0.0
 11
42.2459533648
 21
416.4757148417
 31
0.0
  0
LINE
  5
14C
330
75
100
AcDbEntity
  8
$DDT_AUDIT_GENERATED_(88)
  6
Continuous
 62
     7
100
AcDbLine
 10
42.2459533648
 20
416.4757148417
 30
0.0
 11
42.2459533648
 21
415.832927232
 31
0.0
  0
LINE
  5
14D
330
75
100
AcDbEntity
  8
$DDT_AUDIT_GENERATED_(88)
  6
Continuous
 62
     7
100
AcDbLine
 10
42.2459533648
 20
415.832927232
 30
0.0
 11
41.2459533648
 21
415.832927232
 31
0.0
  0
LINE
  5
14E
330
75
100
AcDbEntity
  8
$DDT_AUDIT_GENERATED_(88)
  6
Continuous
 62
     7
100
AcDbLine
 10
41.2459533648
 20
415.832927232
 30
0.0
 11
41.2459533648
 21
416.4757148417
 31
0.0
  0
LINE
  5
14F
330
75
100
AcDbEntity
  8
$DDT_AUDIT_GENERATED_(88)
  6
Continuous
 62
     7
100
AcDbLine
 10
42.4459533648
 20
416.4757148417
 30
0.0
 11
43.4459533648
 21
416.4757148417
 31
0.0
  0
LINE
  5
150
330
75
100
AcDbEntity
  8
$DDT_AUDIT_GENERATED_(88)
  6
Continuous
 62
     7
100
AcDbLine
 10
43.4459533648
 20
416.4757148417
 30
0.0
 11
43.4459533648
 21
415.832927232
 31
0.0
  0
LINE
  5
151
330
75
100
AcDbEntity
  8
$DDT_AUDIT_GENERATED_(88)
  6
Continuous
 62
     7
100
AcDbLine
 10
43.4459533648
 20
415.832927232
 30
0.0
 11
42.4459533648
 21
415.832927232
 31
0.0
  0
LINE
  5
152
330
75
100
AcDbEntity
  8
$DDT_AUDIT_GENERATED_(88)
  6
Continuous
 62
     7
100
AcDbLine
 10
42.4459533648
 20
415.832927232
 30
0.0
 11
42.4459533648
 21
416.4757148417
 31
0.0
  0
LINE
  5
153
330
75
100
AcDbEntity
  8
$DDT_AUDIT_GENERATED_(88)
  6
Continuous
 62
     7
100
AcDbLine
 10
43.6459533648
 20
416.4757148417
 30
0.0
 11
44.6459533648
 21
416.4757148417
 31
0.0
  0
LINE
  5
154
330
75
100
AcDbEntity
  8
$DDT_AUDIT_GENERATED_(88)
  6
Continuous
 62
     7
100
AcDbLine
 10
44.6459533648
 20
416.4757148417
 30
0.0
 11
44.6459533648
 21
415.832927232
 31
0.0
  0
LINE
  5
155
330
75
100
AcDbEntity
  8
$DDT_AUDIT_GENERATED_(88)
  6
Continuous
 62
     7
100
AcDbLine
 10
44.6459533648
 20
415.832927232
 30
0.0
 11
43.6459533648
 21
415.832927232
 31
0.0
  0
LINE
  5
156
330
75
100
AcDbEntity
  8
$DDT_AUDIT_GENERATED_(88)
  6
Continuous
 62
     7
100
AcDbLine
 10
43.6459533648
 20
415.832927232
 30
0.0
 11
43.6459533648
 21
416.4757148417
 31
0.0
  0
LINE
  5
157
330
75
100
AcDbEntity
  8
$DDT_AUDIT_GENERATED_(88)
  6
Continuous
 62
     7
100
AcDbLine
 10
44.8459533648
 20
416.4757148417
 30
0.0
 11
45.8459533648
 21
416.4757148417
 31
0.0
  0
LINE
  5
158
330
75
100
AcDbEntity
  8
$DDT_AUDIT_GENERATED_(88)
  6
Continuous
 62
     7
100
AcDbLine
 10
45.8459533648
 20
416.4757148417
 30
0.0
 11
45.8459533648
 21
415.832927232
 31
0.0
  0
LINE
  5
159
330
75
100
AcDbEntity
  8
$DDT_AUDIT_GENERATED_(88)
  6
Continuous
 62
     7
100
AcDbLine
 10
45.8459533648
 20
415.832927232
 30
0.0
 11
44.8459533648
 21
415.832927232
 31
0.0
  0
LINE
  5
15A
330
75
100
AcDbEntity
  8
$DDT_AUDIT_GENERATED_(88)
  6
Continuous
 62
     7
100
AcDbLine
 10
44.8459533648
 20
415.832927232
 30
0.0
 11
44.8459533648
 21
416.4757148417
 31
0.0
  0
LINE
  5
15B
330
75
100
AcDbEntity
  8
$DDT_AUDIT_GENERATED_(88)
  6
Continuous
 62
     7
100
AcDbLine
 10
46.0459533648
 20
416.4757148417
 30
0.0
 11
47.0459533648
 21
416.4757148417
 31
0.0
  0
LINE
  5
15C
330
75
100
AcDbEntity
  8
$DDT_AUDIT_GENERATED_(88)
  6
Continuous
 62
     7
100
AcDbLine
 10
47.0459533648
 20
416.4757148417
 30
0.0
 11
47.0459533648
 21
415.832927232
 31
0.0
  0
LINE
  5
15D
330
75
100
AcDbEntity
  8
$DDT_AUDIT_GENERATED_(88)
  6
Continuous
 62
     7
100
AcDbLine
 10
47.0459533648
 20
415.832927232
 30
0.0
 11
46.0459533648
 21
415.832927232
 31
0.0
  0
LINE
  5
15E
330
75
100
AcDbEntity
  8
$DDT_AUDIT_GENERATED_(88)
  6
Continuous
 62
     7
100
AcDbLine
 10
46.0459533648
 20
415.832927232
 30
0.0
 11
46.0459533648
 21
416.4757148417
 31
0.0
  0
LINE
  5
15F
330
75
100
AcDbEntity
  8
$DDT_AUDIT_GENERATED_(88)
  6
Continuous
 62
     7
100
AcDbLine
 10
39.8459533648
 20
417.2470599733
 30
0.0
 11
39.8459533648
 21
416.6042723636
 31
0.0
  0
LINE
  5
160
330
75
100
AcDbEntity
  8
$DDT_AUDIT_GENERATED_(88)
  6
Continuous
 62
     7
100
AcDbLine
 10
40.0459533648
 20
417.2470599733
 30
0.0
 11
41.0459533648
 21
417.2470599733
 31
0.0
  0
LINE
  5
161
330
75
100
AcDbEntity
  8
$DDT_AUDIT_GENERATED_(88)
  6
Continuous
 62
     7
100
AcDbLine
 10
41.0459533648
 20
417.2470599733
 30
0.0
 11
41.0459533648
 21
416.6042723636
 31
0.0
  0
LINE
  5
162
330
75
100
AcDbEntity
  8
$DDT_AUDIT_GENERATED_(88)
  6
Continuous
 62
     7
100
AcDbLine
 10
41.0459533648
 20
416.6042723636
 30
0.0
 11
40.0459533648
 21
416.6042723636
 31
0.0
  0
LINE
  5
163
330
75
100
AcDbEntity
  8
$DDT_AUDIT_GENERATED_(88)
  6
Continuous
 62
     7
100
AcDbLine
 10
40.0459533648
 20
416.6042723636
 30
0.0
 11
40.0459533648
 21
417.2470599733
 31
0.0
  0
LINE
  5
164
330
75
100
AcDbEntity
  8
$DDT_AUDIT_GENERATED_(88)
  6
Continuous
 62
     7
100
AcDbLine
 10
41.2459533648
 20
417.2470599733
 30
0.0
 11
42.2459533648
 21
417.2470599733
 31
0.0
  0
LINE
  5
165
330
75
100
AcDbEntity
  8
$DDT_AUDIT_GENERATED_(88)
  6
Continuous
 62
     7
100
AcDbLine
 10
42.2459533648
 20
417.2470599733
 30
0.0
 11
42.2459533648
 21
416.6042723636
 31
0.0
  0
LINE
  5
166
330
75
100
AcDbEntity
  8
$DDT_AUDIT_GENERATED_(88)
  6
Continuous
 62
     7
100
AcDbLine
 10
42.2459533648
 20
416.6042723636
 30
0.0
 11
41.2459533648
 21
416.6042723636
 31
0.0
  0
LINE
  5
167
330
75
100
AcDbEntity
  8
$DDT_AUDIT_GENERATED_(88)
  6
Continuous
 62
     7
100
AcDbLine
 10
41.2459533648
 20
416.6042723636
 30
0.0
 11
41.2459533648
 21
417.2470599733
 31
0.0
  0
LINE
  5
168
330
75
100
AcDbEntity
  8
$DDT_AUDIT_GENERATED_(88)
  6
Continuous
 62
     7
100
AcDbLine
 10
42.4459533648
 20
417.2470599733
 30
0.0
 11
43.4459533648
 21
417.2470599733
 31
0.0
  0
LINE
  5
169
330
75
100
AcDbEntity
  8
$DDT_AUDIT_GENERATED_(88)
  6
Continuous
 62
     7
100
AcDbLine
 10
43.4459533648
 20
417.2470599733
 30
0.0
 11
43.4459533648
 21
416.6042723636
 31
0.0
  0
LINE
  5
16A
330
75
100
AcDbEntity
  8
$DDT_AUDIT_GENERATED_(88)
  6
Continuous
 62
     7
100
AcDbLine
 10
43.4459533648
 20
416.6042723636
 30
0.0
 11
42.4459533648
 21
416.6042723636
 31
0.0
  0
LINE
  5
16B
330
75
100
AcDbEntity
  8
$DDT_AUDIT_GENERATED_(88)
  6
Continuous
 62
     7
100
AcDbLine
 10
42.4459533648
 20
416.6042723636
 30
0.0
 11
42.4459533648
 21
417.2470599733
 31
0.0
  0
LINE
  5
16C
330
75
100
AcDbEntity
  8
$DDT_AUDIT_GENERATED_(88)
  6
Continuous
 62
     7
100
AcDbLine
 10
43.6459533648
 20
417.2470599733
 30
0.0
 11
44.6459533648
 21
417.2470599733
 31
0.0
  0
LINE
  5
16D
330
75
100
AcDbEntity
  8
$DDT_AUDIT_GENERATED_(88)
  6
Continuous
 62
     7
100
AcDbLine
 10
44.6459533648
 20
417.2470599733
 30
0.0
 11
44.6459533648
 21
416.6042723636
 31
0.0
  0
LINE
  5
16E
330
75
100
AcDbEntity
  8
$DDT_AUDIT_GENERATED_(88)
  6
Continuous
 62
     7
100
AcDbLine
 10
44.6459533648
 20
416.6042723636
 30
0.0
 11
43.6459533648
 21
416.6042723636
 31
0.0
  0
LINE
  5
16F
330
75
100
AcDbEntity
  8
$DDT_AUDIT_GENERATED_(88)
  6
Continuous
 62
     7
100
AcDbLine
 10
43.6459533648
 20
416.6042723636
 30
0.0
 11
43.6459533648
 21
417.2470599733
 31
0.0
  0
LINE
  5
170
330
75
100
AcDbEntity
  8
$DDT_AUDIT_GENERATED_(88)
  6
Continuous
 62
     7
100
AcDbLine
 10
44.8459533648
 20
417.2470599733
 30
0.0
 11
45.8459533648
 21
417.2470599733
 31
0.0
  0
LINE
  5
171
330
75
100
AcDbEntity
  8
$DDT_AUDIT_GENERATED_(88)
  6
Continuous
 62
     7
100
AcDbLine
 10
45.8459533648
 20
417.2470599733
 30
0.0
 11
45.8459533648
 21
416.6042723636
 31
0.0
  0
LINE
  5
172
330
75
100
AcDbEntity
  8
$DDT_AUDIT_GENERATED_(88)
  6
Continuous
 62
     7
100
AcDbLine
 10
45.8459533648
 20
416.6042723636
 30
0.0
 11
44.8459533648
 21
416.6042723636
 31
0.0
  0
LINE
  5
173
330
75
100
AcDbEntity
  8
$DDT_AUDIT_GENERATED_(88)
  6
Continuous
 62
     7
100
AcDbLine
 10
44.8459533648
 20
416.6042723636
 30
0.0
 11
44.8459533648
 21
417.2470599733
 31
0.0
  0
LINE
  5
174
330
75
100
AcDbEntity
  8
$DDT_AUDIT_GENERATED_(88)
  6
Continuous
 62
     7
100
AcDbLine
 10
39.8459533648
 20
418.0184051049
 30
0.0
 11
39.8459533648
 21
417.3756174952
 31
0.0
  0
LINE
  5
175
330
75
100
AcDbEntity
  8
$DDT_AUDIT_GENERATED_(88)
  6
Continuous
 62
     7
100
AcDbLine
 10
40.0459533648
 20
418.0184051049
 30
0.0
 11
41.0459533648
 21
418.0184051049
 31
0.0
  0
LINE
  5
176
330
75
100
AcDbEntity
  8
$DDT_AUDIT_GENERATED_(88)
  6
Continuous
 62
     7
100
AcDbLine
 10
41.0459533648
 20
418.0184051049
 30
0.0
 11
41.0459533648
 21
417.3756174952
 31
0.0
  0
LINE
  5
177
330
75
100
AcDbEntity
  8
$DDT_AUDIT_GENERATED_(88)
  6
Continuous
 62
     7
100
AcDbLine
 10
41.0459533648
 20
417.3756174952
 30
0.0
 11
40.0459533648
 21
417.3756174952
 31
0.0
  0
LINE
  5
178
330
75
100
AcDbEntity
  8
$DDT_AUDIT_GENERATED_(88)
  6
Continuous
 62
     7
100
AcDbLine
 10
40.0459533648
 20
417.3756174952
 30
0.0
 11
40.0459533648
 21
418.0184051049
 31
0.0
  0
LINE
  5
179
330
75
100
AcDbEntity
  8
$DDT_AUDIT_GENERATED_(88)
  6
Continuous
 62
     7
100
AcDbLine
 10
41.2459533648
 20
418.0184051049
 30
0.0
 11
42.2459533648
 21
418.0184051049
 31
0.0
  0
LINE
  5
17A
330
75
100
AcDbEntity
  8
$DDT_AUDIT_GENERATED_(88)
  6
Continuous
 62
     7
100
AcDbLine
 10
42.2459533648
 20
418.0184051049
 30
0.0
 11
42.2459533648
 21
417.3756174952
 31
0.0
  0
LINE
  5
17B
330
75
100
AcDbEntity
  8
$DDT_AUDIT_GENERATED_(88)
  6
Continuous
 62
     7
100
AcDbLine
 10
42.2459533648
 20
417.3756174952
 30
0.0
 11
41.2459533648
 21
417.3756174952
 31
0.0
  0
LINE
  5
17C
330
75
100
AcDbEntity
  8
$DDT_AUDIT_GENERATED_(88)
  6
Continuous
 62
     7
100
AcDbLine
 10
41.2459533648
 20
417.3756174952
 30
0.0
 11
41.2459533648
 21
418.0184051049
 31
0.0
  0
LINE
  5
17D
330
75
100
AcDbEntity
  8
$DDT_AUDIT_GENERATED_(88)
  6
Continuous
 62
     7
100
AcDbLine
 10
42.4459533648
 20
418.0184051049
 30
0.0
 11
43.4459533648
 21
418.0184051049
 31
0.0
  0
LINE
  5
17E
330
75
100
AcDbEntity
  8
$DDT_AUDIT_GENERATED_(88)
  6
Continuous
 62
     7
100
AcDbLine
 10
43.4459533648
 20
418.0184051049
 30
0.0
 11
43.4459533648
 21
417.3756174952
 31
0.0
  0
LINE
  5
17F
330
75
100
AcDbEntity
  8
$DDT_AUDIT_GENERATED_(88)
  6
Continuous
 62
     7
100
AcDbLine
 10
43.4459533648
 20
417.3756174952
 30
0.0
 11
42.4459533648
 21
417.3756174952
 31
0.0
  0
LINE
  5
180
330
75
100
AcDbEntity
  8
$DDT_AUDIT_GENERATED_(88)
  6
Continuous
 62
     7
100
AcDbLine
 10
42.4459533648
 20
417.3756174952
 30
0.0
 11
42.4459533648
 21
418.0184051049
 31
0.0
  0
LINE
  5
181
330
75
100
AcDbEntity
  8
$DDT_AUDIT_GENERATED_(88)
  6
Continuous
 62
     7
100
AcDbLine
 10
43.6459533648
 20
418.0184051049
 30
0.0
 11
44.6459533648
 21
418.0184051049
 31
0.0
  0
LINE
  5
182
330
75
100
AcDbEntity
  8
$DDT_AUDIT_GENERATED_(88)
  6
Continuous
 62
     7
100
AcDbLine
 10
44.6459533648
 20
418.0184051049
 30
0.0
 11
44.6459533648
 21
417.3756174952
 31
0.0
  0
LINE
  5
183
330
75
100
AcDbEntity
  8
$DDT_AUDIT_GENERATED_(88)
  6
Continuous
 62
     7
100
AcDbLine
 10
44.6459533648
 20
417.3756174952
 30
0.0
 11
43.6459533648
 21
417.3756174952
 31
0.0
  0
LINE
  5
184
330
75
100
AcDbEntity
  8
$DDT_AUDIT_GENERATED_(88)
  6
Continuous
 62
     7
100
AcDbLine
 10
43.6459533648
 20
417.3756174952
 30
0.0
 11
43.6459533648
 21
418.0184051049
 31
0.0
  0
LINE
  5
185
330
75
100
AcDbEntity
  8
$DDT_AUDIT_GENERATED_(88)
  6
Continuous
 62
     7
100
AcDbLine
 10
45.8459533648
 20
418.0184051049
 30
0.0
 11
45.8459533648
 21
417.3756174952
 31
0.0
  0
LINE
  5
186
330
75
100
AcDbEntity
  8
$DDT_AUDIT_GENERATED_(88)
  6
Continuous
 62
     7
100
AcDbLine
 10
44.8459533648
 20
418.0184051049
 30
0.0
 11
45.8459533648
 21
418.0184051049
 31
0.0
  0
LINE
  5
187
330
75
100
AcDbEntity
  8
$DDT_AUDIT_GENERATED_(88)
  6
Continuous
 62
     7
100
AcDbLine
 10
45.8459533648
 20
417.3756174952
 30
0.0
 11
44.8459533648
 21
417.3756174952
 31
0.0
  0
LINE
  5
188
330
75
100
AcDbEntity
  8
$DDT_AUDIT_GENERATED_(88)
  6
Continuous
 62
     7
100
AcDbLine
 10
44.8459533648
 20
417.3756174952
 30
0.0
 11
44.8459533648
 21
418.0184051049
 31
0.0
  0
LINE
  5
189
330
75
100
AcDbEntity
  8
$DDT_AUDIT_GENERATED_(88)
  6
Continuous
 62
     7
100
AcDbLine
 10
39.8459533648
 20
418.7897502365
 30
0.0
 11
39.8459533648
 21
418.1469626268
 31
0.0
  0
LINE
  5
18A
330
75
100
AcDbEntity
  8
$DDT_AUDIT_GENERATED_(88)
  6
Continuous
 62
     7
100
AcDbLine
 10
40.0459533648
 20
418.7897502365
 30
0.0
 11
41.0459533648
 21
418.7897502365
 31
0.0
  0
LINE
  5
18B
330
75
100
AcDbEntity
  8
$DDT_AUDIT_GENERATED_(88)
  6
Continuous
 62
     7
100
AcDbLine
 10
41.0459533648
 20
418.7897502365
 30
0.0
 11
41.0459533648
 21
418.1469626268
 31
0.0
  0
LINE
  5
18C
330
75
100
AcDbEntity
  8
$DDT_AUDIT_GENERATED_(88)
  6
Continuous
 62
     7
100
AcDbLine
 10
41.0459533648
 20
418.1469626268
 30
0.0
 11
40.0459533648
 21
418.1469626268
 31
0.0
  0
LINE
  5
18D
330
75
100
AcDbEntity
  8
$DDT_AUDIT_GENERATED_(88)
  6
Continuous
 62
     7
100
AcDbLine
 10
40.0459533648
 20
418.1469626268
 30
0.0
 11
40.0459533648
 21
418.7897502365
 31
0.0
  0
LINE
  5
18E
330
75
100
AcDbEntity
  8
$DDT_AUDIT_GENERATED_(88)
  6
Continuous
 62
     7
100
AcDbLine
 10
41.2459533648
 20
418.7897502365
 30
0.0
 11
42.2459533648
 21
418.7897502365
 31
0.0
  0
LINE
  5
18F
330
75
100
AcDbEntity
  8
$DDT_AUDIT_GENERATED_(88)
  6
Continuous
 62
     7
100
AcDbLine
 10
42.2459533648
 20
418.7897502365
 30
0.0
 11
42.2459533648
 21
418.1469626268
 31
0.0
  0
LINE
  5
190
330
75
100
AcDbEntity
  8
$DDT_AUDIT_GENERATED_(88)
  6
Continuous
 62
     7
100
AcDbLine
 10
42.2459533648
 20
418.1469626268
 30
0.0
 11
41.2459533648
 21
418.1469626268
 31
0.0
  0
LINE
  5
191
330
75
100
AcDbEntity
  8
$DDT_AUDIT_GENERATED_(88)
  6
Continuous
 62
     7
100
AcDbLine
 10
41.2459533648
 20
418.1469626268
 30
0.0
 11
41.2459533648
 21
418.7897502365
 31
0.0
  0
LINE
  5
192
330
75
100
AcDbEntity
  8
$DDT_AUDIT_GENERATED_(88)
  6
Continuous
 62
     7
100
AcDbLine
 10
42.4459533648
 20
418.7897502365
 30
0.0
 11
43.4459533648
 21
418.7897502365
 31
0.0
  0
LINE
  5
193
330
75
100
AcDbEntity
  8
$DDT_AUDIT_GENERATED_(88)
  6
Continuous
 62
     7
100
AcDbLine
 10
43.4459533648
 20
418.7897502365
 30
0.0
 11
43.4459533648
 21
418.1469626268
 31
0.0
  0
LINE
  5
194
330
75
100
AcDbEntity
  8
$DDT_AUDIT_GENERATED_(88)
  6
Continuous
 62
     7
100
AcDbLine
 10
43.4459533648
 20
418.1469626268
 30
0.0
 11
42.4459533648
 21
418.1469626268
 31
0.0
  0
LINE
  5
195
330
75
100
AcDbEntity
  8
$DDT_AUDIT_GENERATED_(88)
  6
Continuous
 62
     7
100
AcDbLine
 10
42.4459533648
 20
418.1469626268
 30
0.0
 11
42.4459533648
 21
418.7897502365
 31
0.0
  0
LINE
  5
196
330
75
100
AcDbEntity
  8
$DDT_AUDIT_GENERATED_(88)
  6
Continuous
 62
     7
100
AcDbLine
 10
43.6459533648
 20
418.7897502365
 30
0.0
 11
44.6459533648
 21
418.7897502365
 31
0.0
  0
LINE
  5
197
330
75
100
AcDbEntity
  8
$DDT_AUDIT_GENERATED_(88)
  6
Continuous
 62
     7
100
AcDbLine
 10
44.6459533648
 20
418.7897502365
 30
0.0
 11
44.6459533648
 21
418.1469626268
 31
0.0
  0
LINE
  5
198
330
75
100
AcDbEntity
  8
$DDT_AUDIT_GENERATED_(88)
  6
Continuous
 62
     7
100
AcDbLine
 10
44.6459533648
 20
418.1469626268
 30
0.0
 11
43.6459533648
 21
418.1469626268
 31
0.0
  0
LINE
  5
199
330
75
100
AcDbEntity
  8
$DDT_AUDIT_GENERATED_(88)
  6
Continuous
 62
     7
100
AcDbLine
 10
43.6459533648
 20
418.1469626268
 30
0.0
 11
43.6459533648
 21
418.7897502365
 31
0.0
  0
LINE
  5
19A
330
75
100
AcDbEntity
  8
$DDT_AUDIT_GENERATED_(88)
  6
Continuous
 62
     7
100
AcDbLine
 10
39.8459533648
 20
419.5610953682
 30
0.0
 11
39.8459533648
 21
418.9183077585
 31
0.0
  0
LINE
  5
19B
330
75
100
AcDbEntity
  8
$DDT_AUDIT_GENERATED_(88)
  6
Continuous
 62
     7
100
AcDbLine
 10
40.0459533648
 20
419.5610953682
 30
0.0
 11
41.0459533648
 21
419.5610953682
 31
0.0
  0
LINE
  5
19C
330
75
100
AcDbEntity
  8
$DDT_AUDIT_GENERATED_(88)
  6
Continuous
 62
     7
100
AcDbLine
 10
41.0459533648
 20
419.5610953682
 30
0.0
 11
41.0459533648
 21
418.9183077585
 31
0.0
  0
LINE
  5
19D
330
75
100
AcDbEntity
  8
$DDT_AUDIT_GENERATED_(88)
  6
Continuous
 62
     7
100
AcDbLine
 10
41.0459533648
 20
418.9183077585
 30
0.0
 11
40.0459533648
 21
418.9183077585
 31
0.0
  0
LINE
  5
19E
330
75
100
AcDbEntity
  8
$DDT_AUDIT_GENERATED_(88)
  6
Continuous
 62
     7
100
AcDbLine
 10
40.0459533648
 20
418.9183077585
 30
0.0
 11
40.0459533648
 21
419.5610953682
 31
0.0
  0
LINE
  5
19F
330
75
100
AcDbEntity
  8
$DDT_AUDIT_GENERATED_(88)
  6
Continuous
 62
     7
100
AcDbLine
 10
41.2459533648
 20
419.5610953682
 30
0.0
 11
42.2459533648
 21
419.5610953682
 31
0.0
  0
LINE
  5
1A0
330
75
100
AcDbEntity
  8
$DDT_AUDIT_GENERATED_(88)
  6
Continuous
 62
     7
100
AcDbLine
 10
42.2459533648
 20
419.5610953682
 30
0.0
 11
42.2459533648
 21
418.9183077585
 31
0.0
  0
LINE
  5
1A1
330
75
100
AcDbEntity
  8
$DDT_AUDIT_GENERATED_(88)
  6
Continuous
 62
     7
100
AcDbLine
 10
42.2459533648
 20
418.9183077585
 30
0.0
 11
41.2459533648
 21
418.9183077585
 31
0.0
  0
LINE
  5
1A2
330
75
100
AcDbEntity
  8
$DDT_AUDIT_GENERATED_(88)
  6
Continuous
 62
     7
100
AcDbLine
 10
41.2459533648
 20
418.9183077585
 30
0.0
 11
41.2459533648
 21
419.5610953682
 31
0.0
  0
LINE
  5
1A3
330
75
100
AcDbEntity
  8
$DDT_AUDIT_GENERATED_(88)
  6
Continuous
 62
     7
100
AcDbLine
 10
42.4459533648
 20
419.5610953682
 30
0.0
 11
43.4459533648
 21
419.5610953682
 31
0.0
  0
LINE
  5
1A4
330
75
100
AcDbEntity
  8
$DDT_AUDIT_GENERATED_(88)
  6
Continuous
 62
     7
100
AcDbLine
 10
43.4459533648
 20
419.5610953682
 30
0.0
 11
43.4459533648
 21
418.9183077585
 31
0.0
  0
LINE
  5
1A5
330
75
100
AcDbEntity
  8
$DDT_AUDIT_GENERATED_(88)
  6
Continuous
 62
     7
100
AcDbLine
 10
43.4459533648
 20
418.9183077585
 30
0.0
 11
42.4459533648
 21
418.9183077585
 31
0.0
  0
LINE
  5
1A6
330
75
100
AcDbEntity
  8
$DDT_AUDIT_GENERATED_(88)
  6
Continuous
 62
     7
100
AcDbLine
 10
42.4459533648
 20
418.9183077585
 30
0.0
 11
42.4459533648
 21
419.5610953682
 31
0.0
  0
LINE
  5
1A7
330
75
100
AcDbEntity
  8
$DDT_AUDIT_GENERATED_(88)
  6
Continuous
 62
     7
100
AcDbLine
 10
39.8459533648
 20
420.2932032976
 30
0.0
 11
39.8459533648
 21
419.6896528901
 31
0.0
  0
LINE
  5
1A8
330
75
100
AcDbEntity
  8
$DDT_AUDIT_GENERATED_(88)
  6
Continuous
 62
     7
100
AcDbLine
 10
41.0459533648
 20
420.1891450533
 30
0.0
 11
41.0459533648
 21
419.6896528901
 31
0.0
  0
LINE
  5
1A9
330
75
100
AcDbEntity
  8
$DDT_AUDIT_GENERATED_(88)
  6
Continuous
 62
     7
100
AcDbLine
 10
41.0459533648
 20
419.6896528901
 30
0.0
 11
40.0459533648
 21
419.6896528901
 31
0.0
  0
LINE
  5
1AA
330
75
100
AcDbEntity
  8
$DDT_AUDIT_GENERATED_(88)
  6
Continuous
 62
     7
100
AcDbLine
 10
40.0459533648
 20
419.6896528901
 30
0.0
 11
40.0459533648
 21
420.2838281387
 31
0.0
  0
LINE
  5
1AB
330
75
100
AcDbEntity
  8
$DDT_AUDIT_GENERATED_(88)
  6
Continuous
 62
     7
100
AcDbLine
 10
42.2459533648
 20
419.964525774
 30
0.0
 11
42.2459533648
 21
419.6896528901
 31
0.0
  0
LINE
  5
1AC
330
75
100
AcDbEntity
  8
$DDT_AUDIT_GENERATED_(88)
  6
Continuous
 62
     7
100
AcDbLine
 10
42.2459533648
 20
419.6896528901
 30
0.0
 11
41.2459533648
 21
419.6896528901
 31
0.0
  0
LINE
  5
1AD
330
75
100
AcDbEntity
  8
$DDT_AUDIT_GENERATED_(88)
  6
Continuous
 62
     7
100
AcDbLine
 10
41.2459533648
 20
419.6896528901
 30
0.0
 11
41.2459533648
 21
420.1604013788
 31
0.0
  0
LINE
  5
1AE
330
75
100
AcDbEntity
  8
$DDT_AUDIT_GENERATED_(88)
  6
Continuous
 62
     7
100
AcDbLine
 10
43.1972754461
 20
419.6896528901
 30
0.0
 11
42.4459533648
 21
419.6896528901
 31
0.0
  0
LINE
  5
1AF
330
75
100
AcDbEntity
  8
$DDT_AUDIT_GENERATED_(88)
  6
Continuous
 62
     7
100
AcDbLine
 10
42.4459533648
 20
419.6896528901
 30
0.0
 11
42.4459533648
 21
419.9143371595
 31
0.0
  0
LINE
  5
1B0
330
75
100
AcDbEntity
  8
$DDT_AUDIT_GENERATED_(88)
  6
Continuous
 62
     7
100
AcDbLine
 10
44.6459533648
 20
419.0639017774
 30
0.0
 11
44.6459533648
 21
418.9183077585
 31
0.0
  0
LINE
  5
1B1
330
75
100
AcDbEntity
  8
$DDT_AUDIT_GENERATED_(88)
  6
Continuous
 62
     7
100
AcDbLine
 10
44.6459533648
 20
418.9183077585
 30
0.0
 11
43.6459533648
 21
418.9183077585
 31
0.0
  0
LINE
  5
1B2
330
75
100
AcDbEntity
  8
$DDT_AUDIT_GENERATED_(88)
  6
Continuous
 62
     7
100
AcDbLine
 10
43.6459533648
 20
418.9183077585
 30
0.0
 11
43.6459533648
 21
419.525676041
 31
0.0
  0
LINE
  5
1B3
330
75
100
AcDbEntity
  8
$DDT_AUDIT_GENERATED_(88)
  6
Continuous
 62
     7
100
AcDbLine
 10
45.8459533648
 20
418.2657006437
 30
0.0
 11
45.8459533648
 21
418.1469626268
 31
0.0
  0
LINE
  5
1B4
330
75
100
AcDbEntity
  8
$DDT_AUDIT_GENERATED_(88)
  6
Continuous
 62
     7
100
AcDbLine
 10
45.8459533648
 20
418.1469626268
 30
0.0
 11
44.8459533648
 21
418.1469626268
 31
0.0
  0
LINE
  5
1B5
330
75
100
AcDbEntity
  8
$DDT_AUDIT_GENERATED_(88)
  6
Continuous
 62
     7
100
AcDbLine
 10
44.8459533648
 20
418.1469626268
 30
0.0
 11
44.8459533648
 21
418.7897502365
 31
0.0
  0
LINE
  5
1B6
330
75
100
AcDbEntity
  8
$DDT_AUDIT_GENERATED_(88)
  6
Continuous
 62
     7
100
AcDbLine
 10
44.8459533648
 20
418.7897502365
 30
0.0
 11
45.1166670818
 21
418.7897502365
 31
0.0
  0
LINE
  5
1B7
330
75
100
AcDbEntity
  8
$DDT_AUDIT_GENERATED_(88)
  6
Continuous
 62
     7
100
AcDbLine
 10
44.9049808054
 20
418.9183077585
 30
0.0
 11
44.8459533648
 21
418.9183077585
 31
0.0
  0
LINE
  5
1B8
330
75
100
AcDbEntity
  8
$DDT_AUDIT_GENERATED_(88)
  6
Continuous
 62
     7
100
AcDbLine
 10
44.8459533648
 20
418.9183077585
 30
0.0
 11
44.8459533648
 21
418.9525748571
 31
0.0
  0
LINE
  5
1B9
330
75
100
AcDbEntity
  8
$DDT_AUDIT_GENERATED_(88)
  6
Continuous
 62
     7
100
AcDbLine
 10
46.0459533648
 20
417.2470599733
 30
0.0
 11
46.8186600649
 21
417.2470599733
 31
0.0
  0
LINE
  5
1BA
330
75
100
AcDbEntity
  8
$DDT_AUDIT_GENERATED_(88)
  6
Continuous
 62
     7
100
AcDbLine
 10
47.0459533648
 20
416.9037881514
 30
0.0
 11
47.0459533648
 21
416.6042723636
 31
0.0
  0
LINE
  5
1BB
330
75
100
AcDbEntity
  8
$DDT_AUDIT_GENERATED_(88)
  6
Continuous
 62
     7
100
AcDbLine
 10
47.0459533648
 20
416.6042723636
 30
0.0
 11
46.0459533648
 21
416.6042723636
 31
0.0
  0
LINE
  5
1BC
330
75
100
AcDbEntity
  8
$DDT_AUDIT_GENERATED_(88)
  6
Continuous
 62
     7
100
AcDbLine
 10
46.0459533648
 20
416.6042723636
 30
0.0
 11
46.0459533648
 21
417.2470599733
 31
0.0
  0
LINE
  5
1BD
330
75
100
AcDbEntity
  8
$DDT_AUDIT_GENERATED_(88)
  6
Continuous
 62
     7
100
AcDbLine
 10
46.7217919413
 20
417.3756174952
 30
0.0
 11
46.0459533648
 21
417.3756174952
 31
0.0
  0
LINE
  5
1BE
330
75
100
AcDbEntity
  8
$DDT_AUDIT_GENERATED_(88)
  6
Continuous
 62
     7
100
AcDbLine
 10
46.0459533648
 20
417.3756174952
 30
0.0
 11
46.0459533648
 21
418.0184051049
 31
0.0
  0
LINE
  5
1BF
330
75
100
AcDbEntity
  8
$DDT_AUDIT_GENERATED_(88)
  6
Continuous
 62
     7
100
AcDbLine
 10
46.0459533648
 20
418.0184051049
 30
0.0
 11
46.1291120033
 21
418.0184051049
 31
0.0
  0
LINE
  5
1C0
330
75
100
AcDbEntity
  8
$DDT_AUDIT_GENERATED_(88)
  6
Continuous
 62
     7
100
AcDbLine
 10
47.2459533648
 20
415.0615821004
 30
0.0
 11
47.2459533648
 21
415.70436971
 31
0.0
  0
LINE
  5
1C1
330
75
100
AcDbEntity
  8
$DDT_AUDIT_GENERATED_(88)
  6
Continuous
 62
     7
100
AcDbLine
 10
47.2459533648
 20
415.70436971
 30
0.0
 11
47.5228448309
 21
415.70436971
 31
0.0
  0
LINE
  5
1C2
330
75
100
AcDbEntity
  8
$DDT_AUDIT_GENERATED_(88)
  6
Continuous
 62
     7
100
AcDbLine
 10
47.4935421694
 20
415.832927232
 30
0.0
 11
47.2459533648
 21
415.832927232
 31
0.0
  0
LINE
  5
1C3
330
75
100
AcDbEntity
  8
$DDT_AUDIT_GENERATED_(88)
  6
Continuous
 62
     7
100
AcDbLine
 10
47.2459533648
 20
415.832927232
 30
0.0
 11
47.2459533648
 21
416.4757148417
 31
0.0
  0
LINE
  5
1C4
330
75
100
AcDbEntity
  8
$DDT_AUDIT_GENERATED_(88)
  6
Continuous
 62
     7
100
AcDbLine
 10
47.2459533648
 20
416.4757148417
 30
0.0
 11
47.270058976
 21
416.4757148417
 31
0.0
  0
LINE
  5
1C5
330
75
100
AcDbEntity
  8
$DDT_AUDIT_GENERATED_(88)
  6
Continuous
 62
     7
100
AcDbLine
 10
39.8459533648
 20
415.0615821004
 30
0.0
 11
38.8459533648
 21
415.0615821004
 31
0.0
  0
LINE
  5
1C6
330
75
100
AcDbEntity
  8
$DDT_AUDIT_GENERATED_(88)
  6
Continuous
 62
     7
100
AcDbLine
 10
39.8459533648
 20
414.9330245784
 30
0.0
 11
39.8459533648
 21
414.2902369687
 31
0.0
  0
LINE
  5
1C7
330
75
100
AcDbEntity
  8
$DDT_AUDIT_GENERATED_(88)
  6
Continuous
 62
     7
100
AcDbLine
 10
39.8459533648
 20
414.2902369687
 30
0.0
 11
38.8459533648
 21
414.2902369687
 31
0.0
  0
LINE
  5
1C8
330
75
100
AcDbEntity
  8
$DDT_AUDIT_GENERATED_(88)
  6
Continuous
 62
     7
100
AcDbLine
 10
38.8459533648
 20
414.9330245784
 30
0.0
 11
39.8459533648
 21
414.9330245784
 31
0.0
  0
LINE
  5
1C9
330
75
100
AcDbEntity
  8
$DDT_AUDIT_GENERATED_(88)
  6
Continuous
 62
     7
100
AcDbLine
 10
39.8459533648
 20
414.1616794468
 30
0.0
 11
39.8459533648
 21
413.5188918371
 31
0.0
  0
LINE
  5
1CA
330
75
100
AcDbEntity
  8
$DDT_AUDIT_GENERATED_(88)
  6
Continuous
 62
     7
100
AcDbLine
 10
39.8459533648
 20
413.5188918371
 30
0.0
 11
38.8459533648
 21
413.5188918371
 31
0.0
  0
LINE
  5
1CB
330
75
100
AcDbEntity
  8
$DDT_AUDIT_GENERATED_(88)
  6
Continuous
 62
     7
100
AcDbLine
 10
38.8459533648
 20
414.1616794468
 30
0.0
 11
39.8459533648
 21
414.1616794468
 31
0.0
  0
LINE
  5
1CC
330
75
100
AcDbEntity
  8
$DDT_AUDIT_GENERATED_(88)
  6
Continuous
 62
     7
100
AcDbLine
 10
39.8459533648
 20
413.3903343152
 30
0.0
 11
39.8459533648
 21
412.7475467055
 31
0.0
  0
LINE
  5
1CD
330
75
100
AcDbEntity
  8
$DDT_AUDIT_GENERATED_(88)
  6
Continuous
 62
     7
100
AcDbLine
 10
39.8459533648
 20
412.7475467055
 30
0.0
 11
38.8459533648
 21
412.7475467055
 31
0.0
  0
LINE
  5
1CE
330
75
100
AcDbEntity
  8
$DDT_AUDIT_GENERATED_(88)
  6
Continuous
 62
     7
100
AcDbLine
 10
38.8459533648
 20
413.3903343152
 30
0.0
 11
39.8459533648
 21
413.3903343152
 31
0.0
  0
LINE
  5
1CF
330
75
100
AcDbEntity
  8
$DDT_AUDIT_GENERATED_(88)
  6
Continuous
 62
     7
100
AcDbLine
 10
39.8459533648
 20
412.6189891835
 30
0.0
 11
39.8459533648
 21
411.9762015739
 31
0.0
  0
LINE
  5
1D0
330
75
100
AcDbEntity
  8
$DDT_AUDIT_GENERATED_(88)
  6
Continuous
 62
     7
100
AcDbLine
 10
39.8459533648
 20
411.9762015739
 30
0.0
 11
38.8459533648
 21
411.9762015739
 31
0.0
  0
LINE
  5
1D1
330
75
100
AcDbEntity
  8
$DDT_AUDIT_GENERATED_(88)
  6
Continuous
 62
     7
100
AcDbLine
 10
38.8459533648
 20
412.6189891835
 30
0.0
 11
39.8459533648
 21
412.6189891835
 31
0.0
  0
LINE
  5
1D2
330
75
100
AcDbEntity
  8
$DDT_AUDIT_GENERATED_(88)
  6
Continuous
 62
     7
100
AcDbLine
 10
39.8459533648
 20
411.8476440519
 30
0.0
 11
39.8459533648
 21
411.2048564422
 31
0.0
  0
LINE
  5
1D3
330
75
100
AcDbEntity
  8
$DDT_AUDIT_GENERATED_(88)
  6
Continuous
 62
     7
100
AcDbLine
 10
39.8459533648
 20
411.2048564422
 30
0.0
 11
38.8459533648
 21
411.2048564422
 31
0.0
  0
LINE
  5
1D4
330
75
100
AcDbEntity
  8
$DDT_AUDIT_GENERATED_(88)
  6
Continuous
 62
     7
100
AcDbLine
 10
38.8459533648
 20
411.8476440519
 30
0.0
 11
39.8459533648
 21
411.8476440519
 31
0.0
  0
LINE
  5
1D5
330
75
100
AcDbEntity
  8
$DDT_AUDIT_GENERATED_(88)
  6
Continuous
 62
     7
100
AcDbLine
 10
39.8459533648
 20
410.4335113106
 30
0.0
 11
38.8459533648
 21
410.4335113106
 31
0.0
  0
LINE
  5
1D6
330
75
100
AcDbEntity
  8
$DDT_AUDIT_GENERATED_(88)
  6
Continuous
 62
     7
100
AcDbLine
 10
39.8459533648
 20
411.0762989203
 30
0.0
 11
39.8459533648
 21
410.4335113106
 31
0.0
  0
LINE
  5
1D7
330
75
100
AcDbEntity
  8
$DDT_AUDIT_GENERATED_(88)
  6
Continuous
 62
     7
100
AcDbLine
 10
38.8459533648
 20
411.0762989203
 30
0.0
 11
39.8459533648
 21
411.0762989203
 31
0.0
  0
LINE
  5
1D8
330
75
100
AcDbEntity
  8
$DDT_AUDIT_GENERATED_(88)
  6
Continuous
 62
     7
100
AcDbLine
 10
41.0459533648
 20
415.0615821004
 30
0.0
 11
40.0459533648
 21
415.0615821004
 31
0.0
  0
LINE
  5
1D9
330
75
100
AcDbEntity
  8
$DDT_AUDIT_GENERATED_(88)
  6
Continuous
 62
     7
100
AcDbLine
 10
41.0459533648
 20
414.9330245784
 30
0.0
 11
41.0459533648
 21
414.2902369687
 31
0.0
  0
LINE
  5
1DA
330
75
100
AcDbEntity
  8
$DDT_AUDIT_GENERATED_(88)
  6
Continuous
 62
     7
100
AcDbLine
 10
41.0459533648
 20
414.2902369687
 30
0.0
 11
40.0459533648
 21
414.2902369687
 31
0.0
  0
LINE
  5
1DB
330
75
100
AcDbEntity
  8
$DDT_AUDIT_GENERATED_(88)
  6
Continuous
 62
     7
100
AcDbLine
 10
40.0459533648
 20
414.2902369687
 30
0.0
 11
40.0459533648
 21
414.9330245784
 31
0.0
  0
LINE
  5
1DC
330
75
100
AcDbEntity
  8
$DDT_AUDIT_GENERATED_(88)
  6
Continuous
 62
     7
100
AcDbLine
 10
40.0459533648
 20
414.9330245784
 30
0.0
 11
41.0459533648
 21
414.9330245784
 31
0.0
  0
LINE
  5
1DD
330
75
100
AcDbEntity
  8
$DDT_AUDIT_GENERATED_(88)
  6
Continuous
 62
     7
100
AcDbLine
 10
41.0459533648
 20
414.1616794468
 30
0.0
 11
41.0459533648
 21
413.5188918371
 31
0.0
  0
LINE
  5
1DE
330
75
100
AcDbEntity
  8
$DDT_AUDIT_GENERATED_(88)
  6
Continuous
 62
     7
100
AcDbLine
 10
41.0459533648
 20
413.5188918371
 30
0.0
 11
40.0459533648
 21
413.5188918371
 31
0.0
  0
LINE
  5
1DF
330
75
100
AcDbEntity
  8
$DDT_AUDIT_GENERATED_(88)
  6
Continuous
 62
     7
100
AcDbLine
 10
40.0459533648
 20
413.5188918371
 30
0.0
 11
40.0459533648
 21
414.1616794468
 31
0.0
  0
LINE
  5
1E0
330
75
100
AcDbEntity
  8
$DDT_AUDIT_GENERATED_(88)
  6
Continuous
 62
     7
100
AcDbLine
 10
40.0459533648
 20
414.1616794468
 30
0.0
 11
41.0459533648
 21
414.1616794468
 31
0.0
  0
LINE
  5
1E1
330
75
100
AcDbEntity
  8
$DDT_AUDIT_GENERATED_(88)
  6
Continuous
 62
     7
100
AcDbLine
 10
41.0459533648
 20
413.3903343152
 30
0.0
 11
41.0459533648
 21
412.7475467055
 31
0.0
  0
LINE
  5
1E2
330
75
100
AcDbEntity
  8
$DDT_AUDIT_GENERATED_(88)
  6
Continuous
 62
     7
100
AcDbLine
 10
41.0459533648
 20
412.7475467055
 30
0.0
 11
40.0459533648
 21
412.7475467055
 31
0.0
  0
LINE
  5
1E3
330
75
100
AcDbEntity
  8
$DDT_AUDIT_GENERATED_(88)
  6
Continuous
 62
     7
100
AcDbLine
 10
40.0459533648
 20
412.7475467055
 30
0.0
 11
40.0459533648
 21
413.3903343152
 31
0.0
  0
LINE
  5
1E4
330
75
100
AcDbEntity
  8
$DDT_AUDIT_GENERATED_(88)
  6
Continuous
 62
     7
100
AcDbLine
 10
40.0459533648
 20
413.3903343152
 30
0.0
 11
41.0459533648
 21
413.3903343152
 31
0.0
  0
LINE
  5
1E5
330
75
100
AcDbEntity
  8
$DDT_AUDIT_GENERATED_(88)
  6
Continuous
 62
     7
100
AcDbLine
 10
41.0459533648
 20
412.6189891835
 30
0.0
 11
41.0459533648
 21
411.9762015739
 31
0.0
  0
LINE
  5
1E6
330
75
100
AcDbEntity
  8
$DDT_AUDIT_GENERATED_(88)
  6
Continuous
 62
     7
100
AcDbLine
 10
41.0459533648
 20
411.9762015739
 30
0.0
 11
40.0459533648
 21
411.9762015739
 31
0.0
  0
LINE
  5
1E7
330
75
100
AcDbEntity
  8
$DDT_AUDIT_GENERATED_(88)
  6
Continuous
 62
     7
100
AcDbLine
 10
40.0459533648
 20
411.9762015739
 30
0.0
 11
40.0459533648
 21
412.6189891835
 31
0.0
  0
LINE
  5
1E8
330
75
100
AcDbEntity
  8
$DDT_AUDIT_GENERATED_(88)
  6
Continuous
 62
     7
100
AcDbLine
 10
40.0459533648
 20
412.6189891835
 30
0.0
 11
41.0459533648
 21
412.6189891835
 31
0.0
  0
LINE
  5
1E9
330
75
100
AcDbEntity
  8
$DDT_AUDIT_GENERATED_(88)
  6
Continuous
 62
     7
100
AcDbLine
 10
41.0459533648
 20
411.8476440519
 30
0.0
 11
41.0459533648
 21
411.2048564422
 31
0.0
  0
LINE
  5
1EA
330
75
100
AcDbEntity
  8
$DDT_AUDIT_GENERATED_(88)
  6
Continuous
 62
     7
100
AcDbLine
 10
41.0459533648
 20
411.2048564422
 30
0.0
 11
40.0459533648
 21
411.2048564422
 31
0.0
  0
LINE
  5
1EB
330
75
100
AcDbEntity
  8
$DDT_AUDIT_GENERATED_(88)
  6
Continuous
 62
     7
100
AcDbLine
 10
40.0459533648
 20
411.2048564422
 30
0.0
 11
40.0459533648
 21
411.8476440519
 31
0.0
  0
LINE
  5
1EC
330
75
100
AcDbEntity
  8
$DDT_AUDIT_GENERATED_(88)
  6
Continuous
 62
     7
100
AcDbLine
 10
40.0459533648
 20
411.8476440519
 30
0.0
 11
41.0459533648
 21
411.8476440519
 31
0.0
  0
LINE
  5
1ED
330
75
100
AcDbEntity
  8
$DDT_AUDIT_GENERATED_(88)
  6
Continuous
 62
     7
100
AcDbLine
 10
41.0459533648
 20
411.0762989203
 30
0.0
 11
41.0459533648
 21
410.4335113106
 31
0.0
  0
LINE
  5
1EE
330
75
100
AcDbEntity
  8
$DDT_AUDIT_GENERATED_(88)
  6
Continuous
 62
     7
100
AcDbLine
 10
41.0459533648
 20
410.4335113106
 30
0.0
 11
40.0459533648
 21
410.4335113106
 31
0.0
  0
LINE
  5
1EF
330
75
100
AcDbEntity
  8
$DDT_AUDIT_GENERATED_(88)
  6
Continuous
 62
     7
100
AcDbLine
 10
40.0459533648
 20
410.4335113106
 30
0.0
 11
40.0459533648
 21
411.0762989203
 31
0.0
  0
LINE
  5
1F0
330
75
100
AcDbEntity
  8
$DDT_AUDIT_GENERATED_(88)
  6
Continuous
 62
     7
100
AcDbLine
 10
40.0459533648
 20
411.0762989203
 30
0.0
 11
41.0459533648
 21
411.0762989203
 31
0.0
  0
LINE
  5
1F1
330
75
100
AcDbEntity
  8
$DDT_AUDIT_GENERATED_(88)
  6
Continuous
 62
     7
100
AcDbLine
 10
42.2459533648
 20
415.0615821004
 30
0.0
 11
41.2459533648
 21
415.0615821004
 31
0.0
  0
LINE
  5
1F2
330
75
100
AcDbEntity
  8
$DDT_AUDIT_GENERATED_(88)
  6
Continuous
 62
     7
100
AcDbLine
 10
42.2459533648
 20
414.9330245784
 30
0.0
 11
42.2459533648
 21
414.2902369687
 31
0.0
  0
LINE
  5
1F3
330
75
100
AcDbEntity
  8
$DDT_AUDIT_GENERATED_(88)
  6
Continuous
 62
     7
100
AcDbLine
 10
42.2459533648
 20
414.2902369687
 30
0.0
 11
41.2459533648
 21
414.2902369687
 31
0.0
  0
LINE
  5
1F4
330
75
100
AcDbEntity
  8
$DDT_AUDIT_GENERATED_(88)
  6
Continuous
 62
     7
100
AcDbLine
 10
41.2459533648
 20
414.2902369687
 30
0.0
 11
41.2459533648
 21
414.9330245784
 31
0.0
  0
LINE
  5
1F5
330
75
100
AcDbEntity
  8
$DDT_AUDIT_GENERATED_(88)
  6
Continuous
 62
     7
100
AcDbLine
 10
41.2459533648
 20
414.9330245784
 30
0.0
 11
42.2459533648
 21
414.9330245784
 31
0.0
  0
LINE
  5
1F6
330
75
100
AcDbEntity
  8
$DDT_AUDIT_GENERATED_(88)
  6
Continuous
 62
     7
100
AcDbLine
 10
42.2459533648
 20
414.1616794468
 30
0.0
 11
42.2459533648
 21
413.5188918371
 31
0.0
  0
LINE
  5
1F7
330
75
100
AcDbEntity
  8
$DDT_AUDIT_GENERATED_(88)
  6
Continuous
 62
     7
100
AcDbLine
 10
42.2459533648
 20
413.5188918371
 30
0.0
 11
41.2459533648
 21
413.5188918371
 31
0.0
  0
LINE
  5
1F8
330
75
100
AcDbEntity
  8
$DDT_AUDIT_GENERATED_(88)
  6
Continuous
 62
     7
100
AcDbLine
 10
41.2459533648
 20
413.5188918371
 30
0.0
 11
41.2459533648
 21
414.1616794468
 31
0.0
  0
LINE
  5
1F9
330
75
100
AcDbEntity
  8
$DDT_AUDIT_GENERATED_(88)
  6
Continuous
 62
     7
100
AcDbLine
 10
41.2459533648
 20
414.1616794468
 30
0.0
 11
42.2459533648
 21
414.1616794468
 31
0.0
  0
LINE
  5
1FA
330
75
100
AcDbEntity
  8
$DDT_AUDIT_GENERATED_(88)
  6
Continuous
 62
     7
100
AcDbLine
 10
42.2459533648
 20
413.3903343152
 30
0.0
 11
42.2459533648
 21
412.7475467055
 31
0.0
  0
LINE
  5
1FB
330
75
100
AcDbEntity
  8
$DDT_AUDIT_GENERATED_(88)
  6
Continuous
 62
     7
100
AcDbLine
 10
42.2459533648
 20
412.7475467055
 30
0.0
 11
41.2459533648
 21
412.7475467055
 31
0.0
  0
LINE
  5
1FC
330
75
100
AcDbEntity
  8
$DDT_AUDIT_GENERATED_(88)
  6
Continuous
 62
     7
100
AcDbLine
 10
41.2459533648
 20
412.7475467055
 30
0.0
 11
41.2459533648
 21
413.3903343152
 31
0.0
  0
LINE
  5
1FD
330
75
100
AcDbEntity
  8
$DDT_AUDIT_GENERATED_(88)
  6
Continuous
 62
     7
100
AcDbLine
 10
41.2459533648
 20
413.3903343152
 30
0.0
 11
42.2459533648
 21
413.3903343152
 31
0.0
  0
LINE
  5
1FE
330
75
100
AcDbEntity
  8
$DDT_AUDIT_GENERATED_(88)
  6
Continuous
 62
     7
100
AcDbLine
 10
42.2459533648
 20
412.6189891835
 30
0.0
 11
42.2459533648
 21
411.9762015739
 31
0.0
  0
LINE
  5
1FF
330
75
100
AcDbEntity
  8
$DDT_AUDIT_GENERATED_(88)
  6
Continuous
 62
     7
100
AcDbLine
 10
42.2459533648
 20
411.9762015739
 30
0.0
 11
41.2459533648
 21
411.9762015739
 31
0.0
  0
LINE
  5
200
330
75
100
AcDbEntity
  8
$DDT_AUDIT_GENERATED_(88)
  6
Continuous
 62
     7
100
AcDbLine
 10
41.2459533648
 20
411.9762015739
 30
0.0
 11
41.2459533648
 21
412.6189891835
 31
0.0
  0
LINE
  5
201
330
75
100
AcDbEntity
  8
$DDT_AUDIT_GENERATED_(88)
  6
Continuous
 62
     7
100
AcDbLine
 10
41.2459533648
 20
412.6189891835
 30
0.0
 11
42.2459533648
 21
412.6189891835
 31
0.0
  0
LINE
  5
202
330
75
100
AcDbEntity
  8
$DDT_AUDIT_GENERATED_(88)
  6
Continuous
 62
     7
100
AcDbLine
 10
42.2459533648
 20
411.8476440519
 30
0.0
 11
42.2459533648
 21
411.2048564422
 31
0.0
  0
LINE
  5
203
330
75
100
AcDbEntity
  8
$DDT_AUDIT_GENERATED_(88)
  6
Continuous
 62
     7
100
AcDbLine
 10
42.2459533648
 20
411.2048564422
 30
0.0
 11
41.2459533648
 21
411.2048564422
 31
0.0
  0
LINE
  5
204
330
75
100
AcDbEntity
  8
$DDT_AUDIT_GENERATED_(88)
  6
Continuous
 62
     7
100
AcDbLine
 10
41.2459533648
 20
411.2048564422
 30
0.0
 11
41.2459533648
 21
411.8476440519
 31
0.0
  0
LINE
  5
205
330
75
100
AcDbEntity
  8
$DDT_AUDIT_GENERATED_(88)
  6
Continuous
 62
     7
100
AcDbLine
 10
41.2459533648
 20
411.8476440519
 30
0.0
 11
42.2459533648
 21
411.8476440519
 31
0.0
  0
LINE
  5
206
330
75
100
AcDbEntity
  8
$DDT_AUDIT_GENERATED_(88)
  6
Continuous
 62
     7
100
AcDbLine
 10
43.4459533648
 20
415.0615821004
 30
0.0
 11
42.4459533648
 21
415.0615821004
 31
0.0
  0
LINE
  5
207
330
75
100
AcDbEntity
  8
$DDT_AUDIT_GENERATED_(88)
  6
Continuous
 62
     7
100
AcDbLine
 10
43.4459533648
 20
414.9330245784
 30
0.0
 11
43.4459533648
 21
414.2902369687
 31
0.0
  0
LINE
  5
208
330
75
100
AcDbEntity
  8
$DDT_AUDIT_GENERATED_(88)
  6
Continuous
 62
     7
100
AcDbLine
 10
43.4459533648
 20
414.2902369687
 30
0.0
 11
42.4459533648
 21
414.2902369687
 31
0.0
  0
LINE
  5
209
330
75
100
AcDbEntity
  8
$DDT_AUDIT_GENERATED_(88)
  6
Continuous
 62
     7
100
AcDbLine
 10
42.4459533648
 20
414.2902369687
 30
0.0
 11
42.4459533648
 21
414.9330245784
 31
0.0
  0
LINE
  5
20A
330
75
100
AcDbEntity
  8
$DDT_AUDIT_GENERATED_(88)
  6
Continuous
 62
     7
100
AcDbLine
 10
42.4459533648
 20
414.9330245784
 30
0.0
 11
43.4459533648
 21
414.9330245784
 31
0.0
  0
LINE
  5
20B
330
75
100
AcDbEntity
  8
$DDT_AUDIT_GENERATED_(88)
  6
Continuous
 62
     7
100
AcDbLine
 10
43.4459533648
 20
414.1616794468
 30
0.0
 11
43.4459533648
 21
413.5188918371
 31
0.0
  0
LINE
  5
20C
330
75
100
AcDbEntity
  8
$DDT_AUDIT_GENERATED_(88)
  6
Continuous
 62
     7
100
AcDbLine
 10
43.4459533648
 20
413.5188918371
 30
0.0
 11
42.4459533648
 21
413.5188918371
 31
0.0
  0
LINE
  5
20D
330
75
100
AcDbEntity
  8
$DDT_AUDIT_GENERATED_(88)
  6
Continuous
 62
     7
100
AcDbLine
 10
42.4459533648
 20
413.5188918371
 30
0.0
 11
42.4459533648
 21
414.1616794468
 31
0.0
  0
LINE
  5
20E
330
75
100
AcDbEntity
  8
$DDT_AUDIT_GENERATED_(88)
  6
Continuous
 62
     7
100
AcDbLine
 10
42.4459533648
 20
414.1616794468
 30
0.0
 11
43.4459533648
 21
414.1616794468
 31
0.0
  0
LINE
  5
20F
330
75
100
AcDbEntity
  8
$DDT_AUDIT_GENERATED_(88)
  6
Continuous
 62
     7
100
AcDbLine
 10
43.4459533648
 20
413.3903343152
 30
0.0
 11
43.4459533648
 21
412.7475467055
 31
0.0
  0
LINE
  5
210
330
75
100
AcDbEntity
  8
$DDT_AUDIT_GENERATED_(88)
  6
Continuous
 62
     7
100
AcDbLine
 10
43.4459533648
 20
412.7475467055
 30
0.0
 11
42.4459533648
 21
412.7475467055
 31
0.0
  0
LINE
  5
211
330
75
100
AcDbEntity
  8
$DDT_AUDIT_GENERATED_(88)
  6
Continuous
 62
     7
100
AcDbLine
 10
42.4459533648
 20
412.7475467055
 30
0.0
 11
42.4459533648
 21
413.3903343152
 31
0.0
  0
LINE
  5
212
330
75
100
AcDbEntity
  8
$DDT_AUDIT_GENERATED_(88)
  6
Continuous
 62
     7
100
AcDbLine
 10
42.4459533648
 20
413.3903343152
 30
0.0
 11
43.4459533648
 21
413.3903343152
 31
0.0
  0
LINE
  5
213
330
75
100
AcDbEntity
  8
$DDT_AUDIT_GENERATED_(88)
  6
Continuous
 62
     7
100
AcDbLine
 10
43.4459533648
 20
412.6189891835
 30
0.0
 11
43.4459533648
 21
411.9762015739
 31
0.0
  0
LINE
  5
214
330
75
100
AcDbEntity
  8
$DDT_AUDIT_GENERATED_(88)
  6
Continuous
 62
     7
100
AcDbLine
 10
43.4459533648
 20
411.9762015739
 30
0.0
 11
42.4459533648
 21
411.9762015739
 31
0.0
  0
LINE
  5
215
330
75
100
AcDbEntity
  8
$DDT_AUDIT_GENERATED_(88)
  6
Continuous
 62
     7
100
AcDbLine
 10
42.4459533648
 20
411.9762015739
 30
0.0
 11
42.4459533648
 21
412.6189891835
 31
0.0
  0
LINE
  5
216
330
75
100
AcDbEntity
  8
$DDT_AUDIT_GENERATED_(88)
  6
Continuous
 62
     7
100
AcDbLine
 10
42.4459533648
 20
412.6189891835
 30
0.0
 11
43.4459533648
 21
412.6189891835
 31
0.0
  0
LINE
  5
217
330
75
100
AcDbEntity
  8
$DDT_AUDIT_GENERATED_(88)
  6
Continuous
 62
     7
100
AcDbLine
 10
43.4459533648
 20
411.2048564422
 30
0.0
 11
42.4459533648
 21
411.2048564422
 31
0.0
  0
LINE
  5
218
330
75
100
AcDbEntity
  8
$DDT_AUDIT_GENERATED_(88)
  6
Continuous
 62
     7
100
AcDbLine
 10
43.4459533648
 20
411.8476440519
 30
0.0
 11
43.4459533648
 21
411.2048564422
 31
0.0
  0
LINE
  5
219
330
75
100
AcDbEntity
  8
$DDT_AUDIT_GENERATED_(88)
  6
Continuous
 62
     7
100
AcDbLine
 10
42.4459533648
 20
411.2048564422
 30
0.0
 11
42.4459533648
 21
411.8476440519
 31
0.0
  0
LINE
  5
21A
330
75
100
AcDbEntity
  8
$DDT_AUDIT_GENERATED_(88)
  6
Continuous
 62
     7
100
AcDbLine
 10
42.4459533648
 20
411.8476440519
 30
0.0
 11
43.4459533648
 21
411.8476440519
 31
0.0
  0
LINE
  5
21B
330
75
100
AcDbEntity
  8
$DDT_AUDIT_GENERATED_(88)
  6
Continuous
 62
     7
100
AcDbLine
 10
44.6459533648
 20
415.0615821004
 30
0.0
 11
43.6459533648
 21
415.0615821004
 31
0.0
  0
LINE
  5
21C
330
75
100
AcDbEntity
  8
$DDT_AUDIT_GENERATED_(88)
  6
Continuous
 62
     7
100
AcDbLine
 10
44.6459533648
 20
414.9330245784
 30
0.0
 11
44.6459533648
 21
414.2902369687
 31
0.0
  0
LINE
  5
21D
330
75
100
AcDbEntity
  8
$DDT_AUDIT_GENERATED_(88)
  6
Continuous
 62
     7
100
AcDbLine
 10
44.6459533648
 20
414.2902369687
 30
0.0
 11
43.6459533648
 21
414.2902369687
 31
0.0
  0
LINE
  5
21E
330
75
100
AcDbEntity
  8
$DDT_AUDIT_GENERATED_(88)
  6
Continuous
 62
     7
100
AcDbLine
 10
43.6459533648
 20
414.2902369687
 30
0.0
 11
43.6459533648
 21
414.9330245784
 31
0.0
  0
LINE
  5
21F
330
75
100
AcDbEntity
  8
$DDT_AUDIT_GENERATED_(88)
  6
Continuous
 62
     7
100
AcDbLine
 10
43.6459533648
 20
414.9330245784
 30
0.0
 11
44.6459533648
 21
414.9330245784
 31
0.0
  0
LINE
  5
220
330
75
100
AcDbEntity
  8
$DDT_AUDIT_GENERATED_(88)
  6
Continuous
 62
     7
100
AcDbLine
 10
44.6459533648
 20
414.1616794468
 30
0.0
 11
44.6459533648
 21
413.5188918371
 31
0.0
  0
LINE
  5
221
330
75
100
AcDbEntity
  8
$DDT_AUDIT_GENERATED_(88)
  6
Continuous
 62
     7
100
AcDbLine
 10
44.6459533648
 20
413.5188918371
 30
0.0
 11
43.6459533648
 21
413.5188918371
 31
0.0
  0
LINE
  5
222
330
75
100
AcDbEntity
  8
$DDT_AUDIT_GENERATED_(88)
  6
Continuous
 62
     7
100
AcDbLine
 10
43.6459533648
 20
413.5188918371
 30
0.0
 11
43.6459533648
 21
414.1616794468
 31
0.0
  0
LINE
  5
223
330
75
100
AcDbEntity
  8
$DDT_AUDIT_GENERATED_(88)
  6
Continuous
 62
     7
100
AcDbLine
 10
43.6459533648
 20
414.1616794468
 30
0.0
 11
44.6459533648
 21
414.1616794468
 31
0.0
  0
LINE
  5
224
330
75
100
AcDbEntity
  8
$DDT_AUDIT_GENERATED_(88)
  6
Continuous
 62
     7
100
AcDbLine
 10
44.6459533648
 20
413.3903343152
 30
0.0
 11
44.6459533648
 21
412.7475467055
 31
0.0
  0
LINE
  5
225
330
75
100
AcDbEntity
  8
$DDT_AUDIT_GENERATED_(88)
  6
Continuous
 62
     7
100
AcDbLine
 10
44.6459533648
 20
412.7475467055
 30
0.0
 11
43.6459533648
 21
412.7475467055
 31
0.0
  0
LINE
  5
226
330
75
100
AcDbEntity
  8
$DDT_AUDIT_GENERATED_(88)
  6
Continuous
 62
     7
100
AcDbLine
 10
43.6459533648
 20
412.7475467055
 30
0.0
 11
43.6459533648
 21
413.3903343152
 31
0.0
  0
LINE
  5
227
330
75
100
AcDbEntity
  8
$DDT_AUDIT_GENERATED_(88)
  6
Continuous
 62
     7
100
AcDbLine
 10
43.6459533648
 20
413.3903343152
 30
0.0
 11
44.6459533648
 21
413.3903343152
 31
0.0
  0
LINE
  5
228
330
75
100
AcDbEntity
  8
$DDT_AUDIT_GENERATED_(88)
  6
Continuous
 62
     7
100
AcDbLine
 10
44.6459533648
 20
412.6189891835
 30
0.0
 11
44.6459533648
 21
411.9762015739
 31
0.0
  0
LINE
  5
229
330
75
100
AcDbEntity
  8
$DDT_AUDIT_GENERATED_(88)
  6
Continuous
 62
     7
100
AcDbLine
 10
44.6459533648
 20
411.9762015739
 30
0.0
 11
43.6459533648
 21
411.9762015739
 31
0.0
  0
LINE
  5
22A
330
75
100
AcDbEntity
  8
$DDT_AUDIT_GENERATED_(88)
  6
Continuous
 62
     7
100
AcDbLine
 10
43.6459533648
 20
411.9762015739
 30
0.0
 11
43.6459533648
 21
412.6189891835
 31
0.0
  0
LINE
  5
22B
330
75
100
AcDbEntity
  8
$DDT_AUDIT_GENERATED_(88)
  6
Continuous
 62
     7
100
AcDbLine
 10
43.6459533648
 20
412.6189891835
 30
0.0
 11
44.6459533648
 21
412.6189891835
 31
0.0
  0
LINE
  5
22C
330
75
100
AcDbEntity
  8
$DDT_AUDIT_GENERATED_(88)
  6
Continuous
 62
     7
100
AcDbLine
 10
45.8459533648
 20
415.0615821004
 30
0.0
 11
44.8459533648
 21
415.0615821004
 31
0.0
  0
LINE
  5
22D
330
75
100
AcDbEntity
  8
$DDT_AUDIT_GENERATED_(88)
  6
Continuous
 62
     7
100
AcDbLine
 10
45.8459533648
 20
414.9330245784
 30
0.0
 11
45.8459533648
 21
414.2902369687
 31
0.0
  0
LINE
  5
22E
330
75
100
AcDbEntity
  8
$DDT_AUDIT_GENERATED_(88)
  6
Continuous
 62
     7
100
AcDbLine
 10
45.8459533648
 20
414.2902369687
 30
0.0
 11
44.8459533648
 21
414.2902369687
 31
0.0
  0
LINE
  5
22F
330
75
100
AcDbEntity
  8
$DDT_AUDIT_GENERATED_(88)
  6
Continuous
 62
     7
100
AcDbLine
 10
44.8459533648
 20
414.2902369687
 30
0.0
 11
44.8459533648
 21
414.9330245784
 31
0.0
  0
LINE
  5
230
330
75
100
AcDbEntity
  8
$DDT_AUDIT_GENERATED_(88)
  6
Continuous
 62
     7
100
AcDbLine
 10
44.8459533648
 20
414.9330245784
 30
0.0
 11
45.8459533648
 21
414.9330245784
 31
0.0
  0
LINE
  5
231
330
75
100
AcDbEntity
  8
$DDT_AUDIT_GENERATED_(88)
  6
Continuous
 62
     7
100
AcDbLine
 10
45.8459533648
 20
414.1616794468
 30
0.0
 11
45.8459533648
 21
413.5188918371
 31
0.0
  0
LINE
  5
232
330
75
100
AcDbEntity
  8
$DDT_AUDIT_GENERATED_(88)
  6
Continuous
 62
     7
100
AcDbLine
 10
45.8459533648
 20
413.5188918371
 30
0.0
 11
44.8459533648
 21
413.5188918371
 31
0.0
  0
LINE
  5
233
330
75
100
AcDbEntity
  8
$DDT_AUDIT_GENERATED_(88)
  6
Continuous
 62
     7
100
AcDbLine
 10
44.8459533648
 20
413.5188918371
 30
0.0
 11
44.8459533648
 21
414.1616794468
 31
0.0
  0
LINE
  5
234
330
75
100
AcDbEntity
  8
$DDT_AUDIT_GENERATED_(88)
  6
Continuous
 62
     7
100
AcDbLine
 10
44.8459533648
 20
414.1616794468
 30
0.0
 11
45.8459533648
 21
414.1616794468
 31
0.0
  0
LINE
  5
235
330
75
100
AcDbEntity
  8
$DDT_AUDIT_GENERATED_(88)
  6
Continuous
 62
     7
100
AcDbLine
 10
45.8459533648
 20
413.3903343152
 30
0.0
 11
45.8459533648
 21
412.7475467055
 31
0.0
  0
LINE
  5
236
330
75
100
AcDbEntity
  8
$DDT_AUDIT_GENERATED_(88)
  6
Continuous
 62
     7
100
AcDbLine
 10
45.8459533648
 20
412.7475467055
 30
0.0
 11
44.8459533648
 21
412.7475467055
 31
0.0
  0
LINE
  5
237
330
75
100
AcDbEntity
  8
$DDT_AUDIT_GENERATED_(88)
  6
Continuous
 62
     7
100
AcDbLine
 10
44.8459533648
 20
412.7475467055
 30
0.0
 11
44.8459533648
 21
413.3903343152
 31
0.0
  0
LINE
  5
238
330
75
100
AcDbEntity
  8
$DDT_AUDIT_GENERATED_(88)
  6
Continuous
 62
     7
100
AcDbLine
 10
44.8459533648
 20
413.3903343152
 30
0.0
 11
45.8459533648
 21
413.3903343152
 31
0.0
  0
LINE
  5
239
330
75
100
AcDbEntity
  8
$DDT_AUDIT_GENERATED_(88)
  6
Continuous
 62
     7
100
AcDbLine
 10
47.0459533648
 20
415.0615821004
 30
0.0
 11
46.0459533648
 21
415.0615821004
 31
0.0
  0
LINE
  5
23A
330
75
100
AcDbEntity
  8
$DDT_AUDIT_GENERATED_(88)
  6
Continuous
 62
     7
100
AcDbLine
 10
47.0459533648
 20
414.9330245784
 30
0.0
 11
47.0459533648
 21
414.2902369687
 31
0.0
  0
LINE
  5
23B
330
75
100
AcDbEntity
  8
$DDT_AUDIT_GENERATED_(88)
  6
Continuous
 62
     7
100
AcDbLine
 10
47.0459533648
 20
414.2902369687
 30
0.0
 11
46.0459533648
 21
414.2902369687
 31
0.0
  0
LINE
  5
23C
330
75
100
AcDbEntity
  8
$DDT_AUDIT_GENERATED_(88)
  6
Continuous
 62
     7
100
AcDbLine
 10
46.0459533648
 20
414.2902369687
 30
0.0
 11
46.0459533648
 21
414.9330245784
 31
0.0
  0
LINE
  5
23D
330
75
100
AcDbEntity
  8
$DDT_AUDIT_GENERATED_(88)
  6
Continuous
 62
     7
100
AcDbLine
 10
46.0459533648
 20
414.9330245784
 30
0.0
 11
47.0459533648
 21
414.9330245784
 31
0.0
  0
LINE
  5
23E
330
75
100
AcDbEntity
  8
$DDT_AUDIT_GENERATED_(88)
  6
Continuous
 62
     7
100
AcDbLine
 10
47.0459533648
 20
414.1616794468
 30
0.0
 11
47.0459533648
 21
413.5188918371
 31
0.0
  0
LINE
  5
23F
330
75
100
AcDbEntity
  8
$DDT_AUDIT_GENERATED_(88)
  6
Continuous
 62
     7
100
AcDbLine
 10
47.0459533648
 20
413.5188918371
 30
0.0
 11
46.0459533648
 21
413.5188918371
 31
0.0
  0
LINE
  5
240
330
75
100
AcDbEntity
  8
$DDT_AUDIT_GENERATED_(88)
  6
Continuous
 62
     7
100
AcDbLine
 10
46.0459533648
 20
413.5188918371
 30
0.0
 11
46.0459533648
 21
414.1616794468
 31
0.0
  0
LINE
  5
241
330
75
100
AcDbEntity
  8
$DDT_AUDIT_GENERATED_(88)
  6
Continuous
 62
     7
100
AcDbLine
 10
46.0459533648
 20
414.1616794468
 30
0.0
 11
47.0459533648
 21
414.1616794468
 31
0.0
  0
LINE
  5
242
330
75
100
AcDbEntity
  8
$DDT_AUDIT_GENERATED_(88)
  6
Continuous
 62
     7
100
AcDbLine
 10
47.5807879108
 20
415.0615821004
 30
0.0
 11
47.2459533648
 21
415.0615821004
 31
0.0
  0
LINE
  5
243
330
75
100
AcDbEntity
  8
$DDT_AUDIT_GENERATED_(88)
  6
Continuous
 62
     7
100
AcDbLine
 10
47.5807879108
 20
415.0615821004
 30
0.0
 11
47.5807879108
 21
415.3213474885
 31
0.0
  0
ELLIPSE
  5
244
330
75
100
AcDbEntity
  8
$DDT_AUDIT_GENERATED_(88)
  6
Continuous
 62
     7
100
AcDbEllipse
 10
39.3459530463
 20
415.3829759201
 30
0.0
 11
8.250000318529997
 21
-2.537529908419600E-8
 31
0.0
210
0.0
220
0.0
230
1.0
 40
0.6427875974
 41
-0.0849506202691632
 42
-0.0606432208854963
  0
LINE
  5
245
330
75
100
AcDbEntity
  8
$DDT_AUDIT_GENERATED_(88)
  6
Continuous
 62
     7
100
AcDbLine
 10
47.4189020207
 20
414.2902369687
 30
0.0
 11
47.4189020207
 21
414.9330245784
 31
0.0
  0
LINE
  5
246
330
75
100
AcDbEntity
  8
$DDT_AUDIT_GENERATED_(88)
  6
Continuous
 62
     7
100
AcDbLine
 10
47.4189020207
 20
414.2902369687
 30
0.0
 11
47.2459533648
 21
414.2902369687
 31
0.0
  0
LINE
  5
247
330
75
100
AcDbEntity
  8
$DDT_AUDIT_GENERATED_(88)
  6
Continuous
 62
     7
100
AcDbLine
 10
47.2459533648
 20
414.2902369687
 30
0.0
 11
47.2459533648
 21
414.9330245784
 31
0.0
  0
LINE
  5
248
330
75
100
AcDbEntity
  8
$DDT_AUDIT_GENERATED_(88)
  6
Continuous
 62
     7
100
AcDbLine
 10
47.2459533648
 20
414.9330245784
 30
0.0
 11
47.5662027528
 21
414.9330245784
 31
0.0
  0
ELLIPSE
  5
249
330
75
100
AcDbEntity
  8
$DDT_AUDIT_GENERATED_(88)
  6
Continuous
 62
     7
100
AcDbEllipse
 10
39.3459530587
 20
415.3829759493
 30
0.0
 11
8.250000306203564
 21
-7.339263918826333E-8
 31
0.0
210
0.0
220
0.0
230
1.0
 40
0.6427875986
 41
-0.2323890624790526
 42
-0.2075474409531646
  0
LINE
  5
24A
330
75
100
AcDbEntity
  8
$DDT_AUDIT_GENERATED_(88)
  6
Continuous
 62
     7
100
AcDbLine
 10
47.2459533648
 20
413.8547492081
 30
0.0
 11
47.2459533648
 21
414.1616794468
 31
0.0
  0
LINE
  5
24B
330
75
100
AcDbEntity
  8
$DDT_AUDIT_GENERATED_(88)
  6
Continuous
 62
     7
100
AcDbLine
 10
47.2459533648
 20
414.1616794468
 30
0.0
 11
47.3741848015
 21
414.1616794468
 31
0.0
  0
ELLIPSE
  5
24C
330
75
100
AcDbEntity
  8
$DDT_AUDIT_GENERATED_(88)
  6
Continuous
 62
     7
100
AcDbEllipse
 10
39.3459533644
 20
415.3829759053
 30
0.0
 11
8.250000000489532
 21
-1.790234627208065E-10
 31
0.0
210
0.0
220
0.0
230
1.0
 40
0.6427876097
 41
-0.3852141216369356
 42
-0.2923273931311252
  0
LINE
  5
24D
330
75
100
AcDbEntity
  8
$DDT_AUDIT_GENERATED_(88)
  6
Continuous
 62
     7
100
AcDbLine
 10
46.5050385019
 20
412.7475467055
 30
0.0
 11
46.5050385019
 21
413.3903343152
 31
0.0
  0
LINE
  5
24E
330
75
100
AcDbEntity
  8
$DDT_AUDIT_GENERATED_(88)
  6
Continuous
 62
     7
100
AcDbLine
 10
46.5050385019
 20
412.7475467055
 30
0.0
 11
46.0459533648
 21
412.7475467055
 31
0.0
  0
LINE
  5
24F
330
75
100
AcDbEntity
  8
$DDT_AUDIT_GENERATED_(88)
  6
Continuous
 62
     7
100
AcDbLine
 10
46.0459533648
 20
412.7475467055
 30
0.0
 11
46.0459533648
 21
413.3903343152
 31
0.0
  0
LINE
  5
250
330
75
100
AcDbEntity
  8
$DDT_AUDIT_GENERATED_(88)
  6
Continuous
 62
     7
100
AcDbLine
 10
46.0459533648
 20
413.3903343152
 30
0.0
 11
46.9913768325
 21
413.3903343152
 31
0.0
  0
ELLIPSE
  5
251
330
75
100
AcDbEntity
  8
$DDT_AUDIT_GENERATED_(88)
  6
Continuous
 62
     7
100
AcDbEllipse
 10
39.3459533737
 20
415.3829759009
 30
0.0
 11
8.249999990927948
 21
5.846267914222381E-9
 31
0.0
210
0.0
220
0.0
230
1.0
 40
0.6427876098
 41
-0.663439435026647
 42
-0.6230179605852273
  0
LINE
  5
252
330
75
100
AcDbEntity
  8
$DDT_AUDIT_GENERATED_(88)
  6
Continuous
 62
     7
100
AcDbLine
 10
45.6683342455
 20
411.9762015739
 30
0.0
 11
45.6683342455
 21
412.6189891835
 31
0.0
  0
LINE
  5
253
330
75
100
AcDbEntity
  8
$DDT_AUDIT_GENERATED_(88)
  6
Continuous
 62
     7
100
AcDbLine
 10
45.6683342455
 20
411.9762015739
 30
0.0
 11
44.8459533648
 21
411.9762015739
 31
0.0
  0
LINE
  5
254
330
75
100
AcDbEntity
  8
$DDT_AUDIT_GENERATED_(88)
  6
Continuous
 62
     7
100
AcDbLine
 10
44.8459533648
 20
411.9762015739
 30
0.0
 11
44.8459533648
 21
412.6189891835
 31
0.0
  0
LINE
  5
255
330
75
100
AcDbEntity
  8
$DDT_AUDIT_GENERATED_(88)
  6
Continuous
 62
     7
100
AcDbLine
 10
44.8459533648
 20
412.6189891835
 30
0.0
 11
45.8459533648
 21
412.6189891835
 31
0.0
  0
LINE
  5
256
330
75
100
AcDbEntity
  8
$DDT_AUDIT_GENERATED_(88)
  6
Continuous
 62
     7
100
AcDbLine
 10
45.8459533648
 20
412.6189891835
 30
0.0
 11
45.8459533648
 21
412.1172289452
 31
0.0
  0
ELLIPSE
  5
257
330
75
100
AcDbEntity
  8
$DDT_AUDIT_GENERATED_(88)
  6
Continuous
 62
     7
100
AcDbEllipse
 10
39.345953346
 20
415.3829759122
 30
0.0
 11
8.250000019012175
 21
-1.035424523898598E-8
 31
0.0
210
0.0
220
0.0
230
1.0
 40
0.6427876093
 41
-0.5482706326755293
 42
-0.5201032018937433
  0
LINE
  5
258
330
75
100
AcDbEntity
  8
$DDT_AUDIT_GENERATED_(88)
  6
Continuous
 62
     7
100
AcDbLine
 10
46.0459533648
 20
412.2887362892
 30
0.0
 11
46.0459533648
 21
412.6189891835
 31
0.0
  0
LINE
  5
259
330
75
100
AcDbEntity
  8
$DDT_AUDIT_GENERATED_(88)
  6
Continuous
 62
     7
100
AcDbLine
 10
46.0459533648
 20
412.6189891835
 30
0.0
 11
46.38672747
 21
412.6189891835
 31
0.0
  0
ELLIPSE
  5
25A
330
75
100
AcDbEntity
  8
$DDT_AUDIT_GENERATED_(88)
  6
Continuous
 62
     7
100
AcDbEllipse
 10
39.3459532855
 20
415.382975964
 30
0.0
 11
8.250000086576254
 21
-6.567255073086642E-8
 31
0.0
210
0.0
220
0.0
230
1.0
 40
0.6427876104
 41
-0.873138865053555
 42
-0.8410686619305547
  0
LINE
  5
25B
330
75
100
AcDbEntity
  8
$DDT_AUDIT_GENERATED_(88)
  6
Continuous
 62
     7
100
AcDbLine
 10
44.4265537231
 20
411.2048564422
 30
0.0
 11
44.4265537231
 21
411.8476440519
 31
0.0
  0
LINE
  5
25C
330
75
100
AcDbEntity
  8
$DDT_AUDIT_GENERATED_(88)
  6
Continuous
 62
     7
100
AcDbLine
 10
44.4265537231
 20
411.2048564422
 30
0.0
 11
43.6459533648
 21
411.2048564422
 31
0.0
  0
LINE
  5
25D
330
75
100
AcDbEntity
  8
$DDT_AUDIT_GENERATED_(88)
  6
Continuous
 62
     7
100
AcDbLine
 10
43.6459533648
 20
411.2048564422
 30
0.0
 11
43.6459533648
 21
411.8476440519
 31
0.0
  0
LINE
  5
25E
330
75
100
AcDbEntity
  8
$DDT_AUDIT_GENERATED_(88)
  6
Continuous
 62
     7
100
AcDbLine
 10
43.6459533648
 20
411.8476440519
 30
0.0
 11
44.6459533648
 21
411.8476440519
 31
0.0
  0
LINE
  5
25F
330
75
100
AcDbEntity
  8
$DDT_AUDIT_GENERATED_(88)
  6
Continuous
 62
     7
100
AcDbLine
 10
44.6459533648
 20
411.8476440519
 30
0.0
 11
44.6459533648
 21
411.3190278114
 31
0.0
  0
ELLIPSE
  5
260
330
75
100
AcDbEntity
  8
$DDT_AUDIT_GENERATED_(88)
  6
Continuous
 62
     7
100
AcDbEllipse
 10
39.345953442
 20
415.3829758622
 30
0.0
 11
8.249999919832604
 21
5.534143976415606E-8
 31
0.0
210
0.0
220
0.0
230
1.0
 40
0.6427876102
 41
-0.7297276636949777
 42
-0.6976574601380561
  0
LINE
  5
261
330
75
100
AcDbEntity
  8
$DDT_AUDIT_GENERATED_(88)
  6
Continuous
 62
     7
100
AcDbLine
 10
44.8459533648
 20
411.4303547317
 30
0.0
 11
44.8459533648
 21
411.8476440519
 31
0.0
  0
LINE
  5
262
330
75
100
AcDbEntity
  8
$DDT_AUDIT_GENERATED_(88)
  6
Continuous
 62
     7
100
AcDbLine
 10
44.8459533648
 20
411.8476440519
 30
0.0
 11
45.495140303
 21
411.8476440519
 31
0.0
  0
LINE
  5
263
330
75
100
AcDbEntity
  8
$DDT_AUDIT_GENERATED_(88)
  6
Continuous
 62
     7
100
AcDbLine
 10
42.2459533648
 20
411.0762989203
 30
0.0
 11
42.2459533648
 21
410.4335113106
 31
0.0
  0
LINE
  5
264
330
75
100
AcDbEntity
  8
$DDT_AUDIT_GENERATED_(88)
  6
Continuous
 62
     7
100
AcDbLine
 10
42.2459533648
 20
410.4335113106
 30
0.0
 11
41.2459533648
 21
410.4335113106
 31
0.0
  0
LINE
  5
265
330
75
100
AcDbEntity
  8
$DDT_AUDIT_GENERATED_(88)
  6
Continuous
 62
     7
100
AcDbLine
 10
41.2459533648
 20
410.4335113106
 30
0.0
 11
41.2459533648
 21
411.0762989203
 31
0.0
  0
LINE
  5
266
330
75
100
AcDbEntity
  8
$DDT_AUDIT_GENERATED_(88)
  6
Continuous
 62
     7
100
AcDbLine
 10
41.2459533648
 20
411.0762989203
 30
0.0
 11
42.2459533648
 21
411.0762989203
 31
0.0
  0
ELLIPSE
  5
267
330
75
100
AcDbEntity
  8
$DDT_AUDIT_GENERATED_(88)
  6
Continuous
 62
     7
100
AcDbEllipse
 10
39.3459533537
 20
415.3829759172
 30
0.0
 11
8.250000013703799
 21
-1.049541009656707E-8
 31
0.0
210
0.0
220
0.0
230
1.0
 40
0.6427876101
 41
-1.050693122107238
 42
-1.022525691325285
  0
LINE
  5
268
330
75
100
AcDbEntity
  8
$DDT_AUDIT_GENERATED_(88)
  6
Continuous
 62
     7
100
AcDbLine
 10
42.4459533648
 20
410.4685924294
 30
0.0
 11
42.4459533648
 21
411.0762989203
 31
0.0
  0
LINE
  5
269
330
75
100
AcDbEntity
  8
$DDT_AUDIT_GENERATED_(88)
  6
Continuous
 62
     7
100
AcDbLine
 10
42.4459533648
 20
411.0762989203
 30
0.0
 11
43.4459533648
 21
411.0762989203
 31
0.0
  0
LINE
  5
26A
330
75
100
AcDbEntity
  8
$DDT_AUDIT_GENERATED_(88)
  6
Continuous
 62
     7
100
AcDbLine
 10
43.4459533648
 20
411.0762989203
 30
0.0
 11
43.4459533648
 21
410.7812046824
 31
0.0
  0
ELLIPSE
  5
26B
330
75
100
AcDbEntity
  8
$DDT_AUDIT_GENERATED_(88)
  6
Continuous
 62
     7
100
AcDbEllipse
 10
39.3459533714
 20
415.3829758995
 30
0.0
 11
8.249999992496527
 21
5.828268423435645E-9
 31
0.0
210
0.0
220
0.0
230
1.0
 40
0.6427876096
 41
-0.9477783677566967
 42
-0.9073568933153586
  0
LINE
  5
26C
330
75
100
AcDbEntity
  8
$DDT_AUDIT_GENERATED_(88)
  6
Continuous
 62
     7
100
AcDbLine
 10
43.6459533648
 20
410.8572535478
 30
0.0
 11
43.6459533648
 21
411.0762989203
 31
0.0
  0
LINE
  5
26D
330
75
100
AcDbEntity
  8
$DDT_AUDIT_GENERATED_(88)
  6
Continuous
 62
     7
100
AcDbLine
 10
43.6459533648
 20
411.0762989203
 30
0.0
 11
44.1597356615
 21
411.0762989203
 31
0.0
  0
ELLIPSE
  5
26E
330
75
100
AcDbEntity
  8
$DDT_AUDIT_GENERATED_(88)
  6
Continuous
 62
     7
100
AcDbEllipse
 10
39.345953342
 20
415.3829761073
 30
0.0
 11
8.25000015842058
 21
-2.507824503616973E-8
 31
0.0
210
0.0
220
0.0
230
1.0
 40
0.6427876218
 41
-1.510153099197385
 42
-1.485845699807519
  0
LINE
  5
26F
330
75
100
AcDbEntity
  8
$DDT_AUDIT_GENERATED_(88)
  6
Continuous
 62
     7
100
AcDbLine
 10
38.8459533648
 20
410.3049537887
 30
0.0
 11
39.8459533648
 21
410.3049537887
 31
0.0
  0
LINE
  5
270
330
75
100
AcDbEntity
  8
$DDT_AUDIT_GENERATED_(88)
  6
Continuous
 62
     7
100
AcDbLine
 10
39.8459533648
 20
410.3049537887
 30
0.0
 11
39.8459533648
 21
410.0897262912
 31
0.0
  0
ELLIPSE
  5
271
330
75
100
AcDbEntity
  8
$DDT_AUDIT_GENERATED_(88)
  6
Continuous
 62
     7
100
AcDbEllipse
 10
39.3459532982
 20
415.3829760973
 30
0.0
 11
8.250000160326401
 21
-7.123410195042368E-8
 31
0.0
210
0.0
220
0.0
230
1.0
 40
0.6427876205
 41
-1.363248866601293
 42
-1.338407245064049
  0
LINE
  5
272
330
75
100
AcDbEntity
  8
$DDT_AUDIT_GENERATED_(88)
  6
Continuous
 62
     7
100
AcDbLine
 10
40.0459533648
 20
410.0991014501
 30
0.0
 11
40.0459533648
 21
410.3049537887
 31
0.0
  0
LINE
  5
273
330
75
100
AcDbEntity
  8
$DDT_AUDIT_GENERATED_(88)
  6
Continuous
 62
     7
100
AcDbLine
 10
40.0459533648
 20
410.3049537887
 30
0.0
 11
41.0459533648
 21
410.3049537887
 31
0.0
  0
LINE
  5
274
330
75
100
AcDbEntity
  8
$DDT_AUDIT_GENERATED_(88)
  6
Continuous
 62
     7
100
AcDbLine
 10
41.0459533648
 20
410.3049537887
 30
0.0
 11
41.0459533648
 21
410.1937845356
 31
0.0
  0
ELLIPSE
  5
275
330
75
100
AcDbEntity
  8
$DDT_AUDIT_GENERATED_(88)
  6
Continuous
 62
     7
100
AcDbEllipse
 10
39.3459533644
 20
415.3829759061
 30
0.0
 11
8.250000000784647
 21
-4.873740300226359E-10
 31
0.0
210
0.0
220
0.0
230
1.0
 40
0.6427876097
 41
-1.278468933572861
 42
-1.18558220507208
  0
LINE
  5
276
330
75
100
AcDbEntity
  8
$DDT_AUDIT_GENERATED_(88)
  6
Continuous
 62
     7
100
AcDbLine
 10
41.2459533648
 20
410.22252821
 30
0.0
 11
41.2459533648
 21
410.3049537887
 31
0.0
  0
LINE
  5
277
330
75
100
AcDbEntity
  8
$DDT_AUDIT_GENERATED_(88)
  6
Continuous
 62
     7
100
AcDbLine
 10
41.2459533648
 20
410.3049537887
 30
0.0
 11
41.7234520504
 21
410.3049537887
 31
0.0
  0
LINE
  5
278
330
75
100
AcDbEntity
  8
$DDT_AUDIT_GENERATED_(88)
  6
Continuous
 62
     7
100
AcDbLine
 10
38.6459533648
 20
415.0615821004
 30
0.0
 11
37.6459533648
 21
415.0615821004
 31
0.0
  0
LINE
  5
279
330
75
100
AcDbEntity
  8
$DDT_AUDIT_GENERATED_(88)
  6
Continuous
 62
     7
100
AcDbLine
 10
37.4459533648
 20
415.0615821004
 30
0.0
 11
36.4459533648
 21
415.0615821004
 31
0.0
  0
LINE
  5
27A
330
75
100
AcDbEntity
  8
$DDT_AUDIT_GENERATED_(88)
  6
Continuous
 62
     7
100
AcDbLine
 10
36.2459533648
 20
415.0615821004
 30
0.0
 11
35.2459533648
 21
415.0615821004
 31
0.0
  0
LINE
  5
27B
330
75
100
AcDbEntity
  8
$DDT_AUDIT_GENERATED_(88)
  6
Continuous
 62
     7
100
AcDbLine
 10
35.0459533648
 20
415.0615821004
 30
0.0
 11
34.0459533648
 21
415.0615821004
 31
0.0
  0
LINE
  5
27C
330
75
100
AcDbEntity
  8
$DDT_AUDIT_GENERATED_(88)
  6
Continuous
 62
     7
100
AcDbLine
 10
33.8459533648
 20
415.0615821004
 30
0.0
 11
32.8459533648
 21
415.0615821004
 31
0.0
  0
LINE
  5
27D
330
75
100
AcDbEntity
  8
$DDT_AUDIT_GENERATED_(88)
  6
Continuous
 62
     7
100
AcDbLine
 10
32.6459533648
 20
415.0615821004
 30
0.0
 11
31.6459533648
 21
415.0615821004
 31
0.0
  0
LINE
  5
27E
330
75
100
AcDbEntity
  8
$DDT_AUDIT_GENERATED_(88)
  6
Continuous
 62
     7
100
AcDbLine
 10
38.8459533648
 20
414.2902369687
 30
0.0
 11
38.8459533648
 21
414.9330245784
 31
0.0
  0
LINE
  5
27F
330
75
100
AcDbEntity
  8
$DDT_AUDIT_GENERATED_(88)
  6
Continuous
 62
     7
100
AcDbLine
 10
38.6459533648
 20
414.2902369687
 30
0.0
 11
37.6459533648
 21
414.2902369687
 31
0.0
  0
LINE
  5
280
330
75
100
AcDbEntity
  8
$DDT_AUDIT_GENERATED_(88)
  6
Continuous
 62
     7
100
AcDbLine
 10
37.6459533648
 20
414.2902369687
 30
0.0
 11
37.6459533648
 21
414.9330245784
 31
0.0
  0
LINE
  5
281
330
75
100
AcDbEntity
  8
$DDT_AUDIT_GENERATED_(88)
  6
Continuous
 62
     7
100
AcDbLine
 10
37.6459533648
 20
414.9330245784
 30
0.0
 11
38.6459533648
 21
414.9330245784
 31
0.0
  0
LINE
  5
282
330
75
100
AcDbEntity
  8
$DDT_AUDIT_GENERATED_(88)
  6
Continuous
 62
     7
100
AcDbLine
 10
38.6459533648
 20
414.9330245784
 30
0.0
 11
38.6459533648
 21
414.2902369687
 31
0.0
  0
LINE
  5
283
330
75
100
AcDbEntity
  8
$DDT_AUDIT_GENERATED_(88)
  6
Continuous
 62
     7
100
AcDbLine
 10
37.4459533648
 20
414.2902369687
 30
0.0
 11
36.4459533648
 21
414.2902369687
 31
0.0
  0
LINE
  5
284
330
75
100
AcDbEntity
  8
$DDT_AUDIT_GENERATED_(88)
  6
Continuous
 62
     7
100
AcDbLine
 10
36.4459533648
 20
414.2902369687
 30
0.0
 11
36.4459533648
 21
414.9330245784
 31
0.0
  0
LINE
  5
285
330
75
100
AcDbEntity
  8
$DDT_AUDIT_GENERATED_(88)
  6
Continuous
 62
     7
100
AcDbLine
 10
36.4459533648
 20
414.9330245784
 30
0.0
 11
37.4459533648
 21
414.9330245784
 31
0.0
  0
LINE
  5
286
330
75
100
AcDbEntity
  8
$DDT_AUDIT_GENERATED_(88)
  6
Continuous
 62
     7
100
AcDbLine
 10
37.4459533648
 20
414.9330245784
 30
0.0
 11
37.4459533648
 21
414.2902369687
 31
0.0
  0
LINE
  5
287
330
75
100
AcDbEntity
  8
$DDT_AUDIT_GENERATED_(88)
  6
Continuous
 62
     7
100
AcDbLine
 10
36.2459533648
 20
414.2902369687
 30
0.0
 11
35.2459533648
 21
414.2902369687
 31
0.0
  0
LINE
  5
288
330
75
100
AcDbEntity
  8
$DDT_AUDIT_GENERATED_(88)
  6
Continuous
 62
     7
100
AcDbLine
 10
35.2459533648
 20
414.2902369687
 30
0.0
 11
35.2459533648
 21
414.9330245784
 31
0.0
  0
LINE
  5
289
330
75
100
AcDbEntity
  8
$DDT_AUDIT_GENERATED_(88)
  6
Continuous
 62
     7
100
AcDbLine
 10
35.2459533648
 20
414.9330245784
 30
0.0
 11
36.2459533648
 21
414.9330245784
 31
0.0
  0
LINE
  5
28A
330
75
100
AcDbEntity
  8
$DDT_AUDIT_GENERATED_(88)
  6
Continuous
 62
     7
100
AcDbLine
 10
36.2459533648
 20
414.9330245784
 30
0.0
 11
36.2459533648
 21
414.2902369687
 31
0.0
  0
LINE
  5
28B
330
75
100
AcDbEntity
  8
$DDT_AUDIT_GENERATED_(88)
  6
Continuous
 62
     7
100
AcDbLine
 10
35.0459533648
 20
414.2902369687
 30
0.0
 11
34.0459533648
 21
414.2902369687
 31
0.0
  0
LINE
  5
28C
330
75
100
AcDbEntity
  8
$DDT_AUDIT_GENERATED_(88)
  6
Continuous
 62
     7
100
AcDbLine
 10
34.0459533648
 20
414.2902369687
 30
0.0
 11
34.0459533648
 21
414.9330245784
 31
0.0
  0
LINE
  5
28D
330
75
100
AcDbEntity
  8
$DDT_AUDIT_GENERATED_(88)
  6
Continuous
 62
     7
100
AcDbLine
 10
34.0459533648
 20
414.9330245784
 30
0.0
 11
35.0459533648
 21
414.9330245784
 31
0.0
  0
LINE
  5
28E
330
75
100
AcDbEntity
  8
$DDT_AUDIT_GENERATED_(88)
  6
Continuous
 62
     7
100
AcDbLine
 10
35.0459533648
 20
414.9330245784
 30
0.0
 11
35.0459533648
 21
414.2902369687
 31
0.0
  0
LINE
  5
28F
330
75
100
AcDbEntity
  8
$DDT_AUDIT_GENERATED_(88)
  6
Continuous
 62
     7
100
AcDbLine
 10
33.8459533648
 20
414.2902369687
 30
0.0
 11
32.8459533648
 21
414.2902369687
 31
0.0
  0
LINE
  5
290
330
75
100
AcDbEntity
  8
$DDT_AUDIT_GENERATED_(88)
  6
Continuous
 62
     7
100
AcDbLine
 10
32.8459533648
 20
414.2902369687
 30
0.0
 11
32.8459533648
 21
414.9330245784
 31
0.0
  0
LINE
  5
291
330
75
100
AcDbEntity
  8
$DDT_AUDIT_GENERATED_(88)
  6
Continuous
 62
     7
100
AcDbLine
 10
32.8459533648
 20
414.9330245784
 30
0.0
 11
33.8459533648
 21
414.9330245784
 31
0.0
  0
LINE
  5
292
330
75
100
AcDbEntity
  8
$DDT_AUDIT_GENERATED_(88)
  6
Continuous
 62
     7
100
AcDbLine
 10
33.8459533648
 20
414.9330245784
 30
0.0
 11
33.8459533648
 21
414.2902369687
 31
0.0
  0
LINE
  5
293
330
75
100
AcDbEntity
  8
$DDT_AUDIT_GENERATED_(88)
  6
Continuous
 62
     7
100
AcDbLine
 10
32.6459533648
 20
414.2902369687
 30
0.0
 11
31.6459533648
 21
414.2902369687
 31
0.0
  0
LINE
  5
294
330
75
100
AcDbEntity
  8
$DDT_AUDIT_GENERATED_(88)
  6
Continuous
 62
     7
100
AcDbLine
 10
31.6459533648
 20
414.2902369687
 30
0.0
 11
31.6459533648
 21
414.9330245784
 31
0.0
  0
LINE
  5
295
330
75
100
AcDbEntity
  8
$DDT_AUDIT_GENERATED_(88)
  6
Continuous
 62
     7
100
AcDbLine
 10
31.6459533648
 20
414.9330245784
 30
0.0
 11
32.6459533648
 21
414.9330245784
 31
0.0
  0
LINE
  5
296
330
75
100
AcDbEntity
  8
$DDT_AUDIT_GENERATED_(88)
  6
Continuous
 62
     7
100
AcDbLine
 10
32.6459533648
 20
414.9330245784
 30
0.0
 11
32.6459533648
 21
414.2902369687
 31
0.0
  0
LINE
  5
297
330
75
100
AcDbEntity
  8
$DDT_AUDIT_GENERATED_(88)
  6
Continuous
 62
     7
100
AcDbLine
 10
38.8459533648
 20
413.5188918371
 30
0.0
 11
38.8459533648
 21
414.1616794468
 31
0.0
  0
LINE
  5
298
330
75
100
AcDbEntity
  8
$DDT_AUDIT_GENERATED_(88)
  6
Continuous
 62
     7
100
AcDbLine
 10
38.6459533648
 20
413.5188918371
 30
0.0
 11
37.6459533648
 21
413.5188918371
 31
0.0
  0
LINE
  5
299
330
75
100
AcDbEntity
  8
$DDT_AUDIT_GENERATED_(88)
  6
Continuous
 62
     7
100
AcDbLine
 10
37.6459533648
 20
413.5188918371
 30
0.0
 11
37.6459533648
 21
414.1616794468
 31
0.0
  0
LINE
  5
29A
330
75
100
AcDbEntity
  8
$DDT_AUDIT_GENERATED_(88)
  6
Continuous
 62
     7
100
AcDbLine
 10
37.6459533648
 20
414.1616794468
 30
0.0
 11
38.6459533648
 21
414.1616794468
 31
0.0
  0
LINE
  5
29B
330
75
100
AcDbEntity
  8
$DDT_AUDIT_GENERATED_(88)
  6
Continuous
 62
     7
100
AcDbLine
 10
38.6459533648
 20
414.1616794468
 30
0.0
 11
38.6459533648
 21
413.5188918371
 31
0.0
  0
LINE
  5
29C
330
75
100
AcDbEntity
  8
$DDT_AUDIT_GENERATED_(88)
  6
Continuous
 62
     7
100
AcDbLine
 10
37.4459533648
 20
413.5188918371
 30
0.0
 11
36.4459533648
 21
413.5188918371
 31
0.0
  0
LINE
  5
29D
330
75
100
AcDbEntity
  8
$DDT_AUDIT_GENERATED_(88)
  6
Continuous
 62
     7
100
AcDbLine
 10
36.4459533648
 20
413.5188918371
 30
0.0
 11
36.4459533648
 21
414.1616794468
 31
0.0
  0
LINE
  5
29E
330
75
100
AcDbEntity
  8
$DDT_AUDIT_GENERATED_(88)
  6
Continuous
 62
     7
100
AcDbLine
 10
36.4459533648
 20
414.1616794468
 30
0.0
 11
37.4459533648
 21
414.1616794468
 31
0.0
  0
LINE
  5
29F
330
75
100
AcDbEntity
  8
$DDT_AUDIT_GENERATED_(88)
  6
Continuous
 62
     7
100
AcDbLine
 10
37.4459533648
 20
414.1616794468
 30
0.0
 11
37.4459533648
 21
413.5188918371
 31
0.0
  0
LINE
  5
2A0
330
75
100
AcDbEntity
  8
$DDT_AUDIT_GENERATED_(88)
  6
Continuous
 62
     7
100
AcDbLine
 10
36.2459533648
 20
413.5188918371
 30
0.0
 11
35.2459533648
 21
413.5188918371
 31
0.0
  0
LINE
  5
2A1
330
75
100
AcDbEntity
  8
$DDT_AUDIT_GENERATED_(88)
  6
Continuous
 62
     7
100
AcDbLine
 10
35.2459533648
 20
413.5188918371
 30
0.0
 11
35.2459533648
 21
414.1616794468
 31
0.0
  0
LINE
  5
2A2
330
75
100
AcDbEntity
  8
$DDT_AUDIT_GENERATED_(88)
  6
Continuous
 62
     7
100
AcDbLine
 10
35.2459533648
 20
414.1616794468
 30
0.0
 11
36.2459533648
 21
414.1616794468
 31
0.0
  0
LINE
  5
2A3
330
75
100
AcDbEntity
  8
$DDT_AUDIT_GENERATED_(88)
  6
Continuous
 62
     7
100
AcDbLine
 10
36.2459533648
 20
414.1616794468
 30
0.0
 11
36.2459533648
 21
413.5188918371
 31
0.0
  0
LINE
  5
2A4
330
75
100
AcDbEntity
  8
$DDT_AUDIT_GENERATED_(88)
  6
Continuous
 62
     7
100
AcDbLine
 10
35.0459533648
 20
413.5188918371
 30
0.0
 11
34.0459533648
 21
413.5188918371
 31
0.0
  0
LINE
  5
2A5
330
75
100
AcDbEntity
  8
$DDT_AUDIT_GENERATED_(88)
  6
Continuous
 62
     7
100
AcDbLine
 10
34.0459533648
 20
413.5188918371
 30
0.0
 11
34.0459533648
 21
414.1616794468
 31
0.0
  0
LINE
  5
2A6
330
75
100
AcDbEntity
  8
$DDT_AUDIT_GENERATED_(88)
  6
Continuous
 62
     7
100
AcDbLine
 10
34.0459533648
 20
414.1616794468
 30
0.0
 11
35.0459533648
 21
414.1616794468
 31
0.0
  0
LINE
  5
2A7
330
75
100
AcDbEntity
  8
$DDT_AUDIT_GENERATED_(88)
  6
Continuous
 62
     7
100
AcDbLine
 10
35.0459533648
 20
414.1616794468
 30
0.0
 11
35.0459533648
 21
413.5188918371
 31
0.0
  0
LINE
  5
2A8
330
75
100
AcDbEntity
  8
$DDT_AUDIT_GENERATED_(88)
  6
Continuous
 62
     7
100
AcDbLine
 10
33.8459533648
 20
413.5188918371
 30
0.0
 11
32.8459533648
 21
413.5188918371
 31
0.0
  0
LINE
  5
2A9
330
75
100
AcDbEntity
  8
$DDT_AUDIT_GENERATED_(88)
  6
Continuous
 62
     7
100
AcDbLine
 10
32.8459533648
 20
413.5188918371
 30
0.0
 11
32.8459533648
 21
414.1616794468
 31
0.0
  0
LINE
  5
2AA
330
75
100
AcDbEntity
  8
$DDT_AUDIT_GENERATED_(88)
  6
Continuous
 62
     7
100
AcDbLine
 10
32.8459533648
 20
414.1616794468
 30
0.0
 11
33.8459533648
 21
414.1616794468
 31
0.0
  0
LINE
  5
2AB
330
75
100
AcDbEntity
  8
$DDT_AUDIT_GENERATED_(88)
  6
Continuous
 62
     7
100
AcDbLine
 10
33.8459533648
 20
414.1616794468
 30
0.0
 11
33.8459533648
 21
413.5188918371
 31
0.0
  0
LINE
  5
2AC
330
75
100
AcDbEntity
  8
$DDT_AUDIT_GENERATED_(88)
  6
Continuous
 62
     7
100
AcDbLine
 10
38.8459533648
 20
412.7475467055
 30
0.0
 11
38.8459533648
 21
413.3903343152
 31
0.0
  0
LINE
  5
2AD
330
75
100
AcDbEntity
  8
$DDT_AUDIT_GENERATED_(88)
  6
Continuous
 62
     7
100
AcDbLine
 10
38.6459533648
 20
412.7475467055
 30
0.0
 11
37.6459533648
 21
412.7475467055
 31
0.0
  0
LINE
  5
2AE
330
75
100
AcDbEntity
  8
$DDT_AUDIT_GENERATED_(88)
  6
Continuous
 62
     7
100
AcDbLine
 10
37.6459533648
 20
412.7475467055
 30
0.0
 11
37.6459533648
 21
413.3903343152
 31
0.0
  0
LINE
  5
2AF
330
75
100
AcDbEntity
  8
$DDT_AUDIT_GENERATED_(88)
  6
Continuous
 62
     7
100
AcDbLine
 10
37.6459533648
 20
413.3903343152
 30
0.0
 11
38.6459533648
 21
413.3903343152
 31
0.0
  0
LINE
  5
2B0
330
75
100
AcDbEntity
  8
$DDT_AUDIT_GENERATED_(88)
  6
Continuous
 62
     7
100
AcDbLine
 10
38.6459533648
 20
413.3903343152
 30
0.0
 11
38.6459533648
 21
412.7475467055
 31
0.0
  0
LINE
  5
2B1
330
75
100
AcDbEntity
  8
$DDT_AUDIT_GENERATED_(88)
  6
Continuous
 62
     7
100
AcDbLine
 10
37.4459533648
 20
412.7475467055
 30
0.0
 11
36.4459533648
 21
412.7475467055
 31
0.0
  0
LINE
  5
2B2
330
75
100
AcDbEntity
  8
$DDT_AUDIT_GENERATED_(88)
  6
Continuous
 62
     7
100
AcDbLine
 10
36.4459533648
 20
412.7475467055
 30
0.0
 11
36.4459533648
 21
413.3903343152
 31
0.0
  0
LINE
  5
2B3
330
75
100
AcDbEntity
  8
$DDT_AUDIT_GENERATED_(88)
  6
Continuous
 62
     7
100
AcDbLine
 10
36.4459533648
 20
413.3903343152
 30
0.0
 11
37.4459533648
 21
413.3903343152
 31
0.0
  0
LINE
  5
2B4
330
75
100
AcDbEntity
  8
$DDT_AUDIT_GENERATED_(88)
  6
Continuous
 62
     7
100
AcDbLine
 10
37.4459533648
 20
413.3903343152
 30
0.0
 11
37.4459533648
 21
412.7475467055
 31
0.0
  0
LINE
  5
2B5
330
75
100
AcDbEntity
  8
$DDT_AUDIT_GENERATED_(88)
  6
Continuous
 62
     7
100
AcDbLine
 10
36.2459533648
 20
412.7475467055
 30
0.0
 11
35.2459533648
 21
412.7475467055
 31
0.0
  0
LINE
  5
2B6
330
75
100
AcDbEntity
  8
$DDT_AUDIT_GENERATED_(88)
  6
Continuous
 62
     7
100
AcDbLine
 10
35.2459533648
 20
412.7475467055
 30
0.0
 11
35.2459533648
 21
413.3903343152
 31
0.0
  0
LINE
  5
2B7
330
75
100
AcDbEntity
  8
$DDT_AUDIT_GENERATED_(88)
  6
Continuous
 62
     7
100
AcDbLine
 10
35.2459533648
 20
413.3903343152
 30
0.0
 11
36.2459533648
 21
413.3903343152
 31
0.0
  0
LINE
  5
2B8
330
75
100
AcDbEntity
  8
$DDT_AUDIT_GENERATED_(88)
  6
Continuous
 62
     7
100
AcDbLine
 10
36.2459533648
 20
413.3903343152
 30
0.0
 11
36.2459533648
 21
412.7475467055
 31
0.0
  0
LINE
  5
2B9
330
75
100
AcDbEntity
  8
$DDT_AUDIT_GENERATED_(88)
  6
Continuous
 62
     7
100
AcDbLine
 10
35.0459533648
 20
412.7475467055
 30
0.0
 11
34.0459533648
 21
412.7475467055
 31
0.0
  0
LINE
  5
2BA
330
75
100
AcDbEntity
  8
$DDT_AUDIT_GENERATED_(88)
  6
Continuous
 62
     7
100
AcDbLine
 10
34.0459533648
 20
412.7475467055
 30
0.0
 11
34.0459533648
 21
413.3903343152
 31
0.0
  0
LINE
  5
2BB
330
75
100
AcDbEntity
  8
$DDT_AUDIT_GENERATED_(88)
  6
Continuous
 62
     7
100
AcDbLine
 10
34.0459533648
 20
413.3903343152
 30
0.0
 11
35.0459533648
 21
413.3903343152
 31
0.0
  0
LINE
  5
2BC
330
75
100
AcDbEntity
  8
$DDT_AUDIT_GENERATED_(88)
  6
Continuous
 62
     7
100
AcDbLine
 10
35.0459533648
 20
413.3903343152
 30
0.0
 11
35.0459533648
 21
412.7475467055
 31
0.0
  0
LINE
  5
2BD
330
75
100
AcDbEntity
  8
$DDT_AUDIT_GENERATED_(88)
  6
Continuous
 62
     7
100
AcDbLine
 10
32.8459533648
 20
412.7475467055
 30
0.0
 11
32.8459533648
 21
413.3903343152
 31
0.0
  0
LINE
  5
2BE
330
75
100
AcDbEntity
  8
$DDT_AUDIT_GENERATED_(88)
  6
Continuous
 62
     7
100
AcDbLine
 10
33.8459533648
 20
412.7475467055
 30
0.0
 11
32.8459533648
 21
412.7475467055
 31
0.0
  0
LINE
  5
2BF
330
75
100
AcDbEntity
  8
$DDT_AUDIT_GENERATED_(88)
  6
Continuous
 62
     7
100
AcDbLine
 10
32.8459533648
 20
413.3903343152
 30
0.0
 11
33.8459533648
 21
413.3903343152
 31
0.0
  0
LINE
  5
2C0
330
75
100
AcDbEntity
  8
$DDT_AUDIT_GENERATED_(88)
  6
Continuous
 62
     7
100
AcDbLine
 10
33.8459533648
 20
413.3903343152
 30
0.0
 11
33.8459533648
 21
412.7475467055
 31
0.0
  0
LINE
  5
2C1
330
75
100
AcDbEntity
  8
$DDT_AUDIT_GENERATED_(88)
  6
Continuous
 62
     7
100
AcDbLine
 10
38.8459533648
 20
411.9762015739
 30
0.0
 11
38.8459533648
 21
412.6189891835
 31
0.0
  0
LINE
  5
2C2
330
75
100
AcDbEntity
  8
$DDT_AUDIT_GENERATED_(88)
  6
Continuous
 62
     7
100
AcDbLine
 10
38.6459533648
 20
411.9762015739
 30
0.0
 11
37.6459533648
 21
411.9762015739
 31
0.0
  0
LINE
  5
2C3
330
75
100
AcDbEntity
  8
$DDT_AUDIT_GENERATED_(88)
  6
Continuous
 62
     7
100
AcDbLine
 10
37.6459533648
 20
411.9762015739
 30
0.0
 11
37.6459533648
 21
412.6189891835
 31
0.0
  0
LINE
  5
2C4
330
75
100
AcDbEntity
  8
$DDT_AUDIT_GENERATED_(88)
  6
Continuous
 62
     7
100
AcDbLine
 10
37.6459533648
 20
412.6189891835
 30
0.0
 11
38.6459533648
 21
412.6189891835
 31
0.0
  0
LINE
  5
2C5
330
75
100
AcDbEntity
  8
$DDT_AUDIT_GENERATED_(88)
  6
Continuous
 62
     7
100
AcDbLine
 10
38.6459533648
 20
412.6189891835
 30
0.0
 11
38.6459533648
 21
411.9762015739
 31
0.0
  0
LINE
  5
2C6
330
75
100
AcDbEntity
  8
$DDT_AUDIT_GENERATED_(88)
  6
Continuous
 62
     7
100
AcDbLine
 10
37.4459533648
 20
411.9762015739
 30
0.0
 11
36.4459533648
 21
411.9762015739
 31
0.0
  0
LINE
  5
2C7
330
75
100
AcDbEntity
  8
$DDT_AUDIT_GENERATED_(88)
  6
Continuous
 62
     7
100
AcDbLine
 10
36.4459533648
 20
411.9762015739
 30
0.0
 11
36.4459533648
 21
412.6189891835
 31
0.0
  0
LINE
  5
2C8
330
75
100
AcDbEntity
  8
$DDT_AUDIT_GENERATED_(88)
  6
Continuous
 62
     7
100
AcDbLine
 10
36.4459533648
 20
412.6189891835
 30
0.0
 11
37.4459533648
 21
412.6189891835
 31
0.0
  0
LINE
  5
2C9
330
75
100
AcDbEntity
  8
$DDT_AUDIT_GENERATED_(88)
  6
Continuous
 62
     7
100
AcDbLine
 10
37.4459533648
 20
412.6189891835
 30
0.0
 11
37.4459533648
 21
411.9762015739
 31
0.0
  0
LINE
  5
2CA
330
75
100
AcDbEntity
  8
$DDT_AUDIT_GENERATED_(88)
  6
Continuous
 62
     7
100
AcDbLine
 10
36.2459533648
 20
411.9762015739
 30
0.0
 11
35.2459533648
 21
411.9762015739
 31
0.0
  0
LINE
  5
2CB
330
75
100
AcDbEntity
  8
$DDT_AUDIT_GENERATED_(88)
  6
Continuous
 62
     7
100
AcDbLine
 10
35.2459533648
 20
411.9762015739
 30
0.0
 11
35.2459533648
 21
412.6189891835
 31
0.0
  0
LINE
  5
2CC
330
75
100
AcDbEntity
  8
$DDT_AUDIT_GENERATED_(88)
  6
Continuous
 62
     7
100
AcDbLine
 10
35.2459533648
 20
412.6189891835
 30
0.0
 11
36.2459533648
 21
412.6189891835
 31
0.0
  0
LINE
  5
2CD
330
75
100
AcDbEntity
  8
$DDT_AUDIT_GENERATED_(88)
  6
Continuous
 62
     7
100
AcDbLine
 10
36.2459533648
 20
412.6189891835
 30
0.0
 11
36.2459533648
 21
411.9762015739
 31
0.0
  0
LINE
  5
2CE
330
75
100
AcDbEntity
  8
$DDT_AUDIT_GENERATED_(88)
  6
Continuous
 62
     7
100
AcDbLine
 10
35.0459533648
 20
411.9762015739
 30
0.0
 11
34.0459533648
 21
411.9762015739
 31
0.0
  0
LINE
  5
2CF
330
75
100
AcDbEntity
  8
$DDT_AUDIT_GENERATED_(88)
  6
Continuous
 62
     7
100
AcDbLine
 10
34.0459533648
 20
411.9762015739
 30
0.0
 11
34.0459533648
 21
412.6189891835
 31
0.0
  0
LINE
  5
2D0
330
75
100
AcDbEntity
  8
$DDT_AUDIT_GENERATED_(88)
  6
Continuous
 62
     7
100
AcDbLine
 10
34.0459533648
 20
412.6189891835
 30
0.0
 11
35.0459533648
 21
412.6189891835
 31
0.0
  0
LINE
  5
2D1
330
75
100
AcDbEntity
  8
$DDT_AUDIT_GENERATED_(88)
  6
Continuous
 62
     7
100
AcDbLine
 10
35.0459533648
 20
412.6189891835
 30
0.0
 11
35.0459533648
 21
411.9762015739
 31
0.0
  0
LINE
  5
2D2
330
75
100
AcDbEntity
  8
$DDT_AUDIT_GENERATED_(88)
  6
Continuous
 62
     7
100
AcDbLine
 10
38.8459533648
 20
411.2048564422
 30
0.0
 11
38.8459533648
 21
411.8476440519
 31
0.0
  0
LINE
  5
2D3
330
75
100
AcDbEntity
  8
$DDT_AUDIT_GENERATED_(88)
  6
Continuous
 62
     7
100
AcDbLine
 10
38.6459533648
 20
411.2048564422
 30
0.0
 11
37.6459533648
 21
411.2048564422
 31
0.0
  0
LINE
  5
2D4
330
75
100
AcDbEntity
  8
$DDT_AUDIT_GENERATED_(88)
  6
Continuous
 62
     7
100
AcDbLine
 10
37.6459533648
 20
411.2048564422
 30
0.0
 11
37.6459533648
 21
411.8476440519
 31
0.0
  0
LINE
  5
2D5
330
75
100
AcDbEntity
  8
$DDT_AUDIT_GENERATED_(88)
  6
Continuous
 62
     7
100
AcDbLine
 10
37.6459533648
 20
411.8476440519
 30
0.0
 11
38.6459533648
 21
411.8476440519
 31
0.0
  0
LINE
  5
2D6
330
75
100
AcDbEntity
  8
$DDT_AUDIT_GENERATED_(88)
  6
Continuous
 62
     7
100
AcDbLine
 10
38.6459533648
 20
411.8476440519
 30
0.0
 11
38.6459533648
 21
411.2048564422
 31
0.0
  0
LINE
  5
2D7
330
75
100
AcDbEntity
  8
$DDT_AUDIT_GENERATED_(88)
  6
Continuous
 62
     7
100
AcDbLine
 10
37.4459533648
 20
411.2048564422
 30
0.0
 11
36.4459533648
 21
411.2048564422
 31
0.0
  0
LINE
  5
2D8
330
75
100
AcDbEntity
  8
$DDT_AUDIT_GENERATED_(88)
  6
Continuous
 62
     7
100
AcDbLine
 10
36.4459533648
 20
411.2048564422
 30
0.0
 11
36.4459533648
 21
411.8476440519
 31
0.0
  0
LINE
  5
2D9
330
75
100
AcDbEntity
  8
$DDT_AUDIT_GENERATED_(88)
  6
Continuous
 62
     7
100
AcDbLine
 10
36.4459533648
 20
411.8476440519
 30
0.0
 11
37.4459533648
 21
411.8476440519
 31
0.0
  0
LINE
  5
2DA
330
75
100
AcDbEntity
  8
$DDT_AUDIT_GENERATED_(88)
  6
Continuous
 62
     7
100
AcDbLine
 10
37.4459533648
 20
411.8476440519
 30
0.0
 11
37.4459533648
 21
411.2048564422
 31
0.0
  0
LINE
  5
2DB
330
75
100
AcDbEntity
  8
$DDT_AUDIT_GENERATED_(88)
  6
Continuous
 62
     7
100
AcDbLine
 10
36.2459533648
 20
411.2048564422
 30
0.0
 11
35.2459533648
 21
411.2048564422
 31
0.0
  0
LINE
  5
2DC
330
75
100
AcDbEntity
  8
$DDT_AUDIT_GENERATED_(88)
  6
Continuous
 62
     7
100
AcDbLine
 10
35.2459533648
 20
411.2048564422
 30
0.0
 11
35.2459533648
 21
411.8476440519
 31
0.0
  0
LINE
  5
2DD
330
75
100
AcDbEntity
  8
$DDT_AUDIT_GENERATED_(88)
  6
Continuous
 62
     7
100
AcDbLine
 10
35.2459533648
 20
411.8476440519
 30
0.0
 11
36.2459533648
 21
411.8476440519
 31
0.0
  0
LINE
  5
2DE
330
75
100
AcDbEntity
  8
$DDT_AUDIT_GENERATED_(88)
  6
Continuous
 62
     7
100
AcDbLine
 10
36.2459533648
 20
411.8476440519
 30
0.0
 11
36.2459533648
 21
411.2048564422
 31
0.0
  0
LINE
  5
2DF
330
75
100
AcDbEntity
  8
$DDT_AUDIT_GENERATED_(88)
  6
Continuous
 62
     7
100
AcDbLine
 10
38.8459533648
 20
410.4335113106
 30
0.0
 11
38.8459533648
 21
411.0762989203
 31
0.0
  0
LINE
  5
2E0
330
75
100
AcDbEntity
  8
$DDT_AUDIT_GENERATED_(88)
  6
Continuous
 62
     7
100
AcDbLine
 10
38.6459533648
 20
410.4335113106
 30
0.0
 11
37.6459533648
 21
410.4335113106
 31
0.0
  0
LINE
  5
2E1
330
75
100
AcDbEntity
  8
$DDT_AUDIT_GENERATED_(88)
  6
Continuous
 62
     7
100
AcDbLine
 10
37.6459533648
 20
410.4335113106
 30
0.0
 11
37.6459533648
 21
411.0762989203
 31
0.0
  0
LINE
  5
2E2
330
75
100
AcDbEntity
  8
$DDT_AUDIT_GENERATED_(88)
  6
Continuous
 62
     7
100
AcDbLine
 10
37.6459533648
 20
411.0762989203
 30
0.0
 11
38.6459533648
 21
411.0762989203
 31
0.0
  0
LINE
  5
2E3
330
75
100
AcDbEntity
  8
$DDT_AUDIT_GENERATED_(88)
  6
Continuous
 62
     7
100
AcDbLine
 10
38.6459533648
 20
411.0762989203
 30
0.0
 11
38.6459533648
 21
410.4335113106
 31
0.0
  0
LINE
  5
2E4
330
75
100
AcDbEntity
  8
$DDT_AUDIT_GENERATED_(88)
  6
Continuous
 62
     7
100
AcDbLine
 10
37.4459533648
 20
410.4335113106
 30
0.0
 11
36.4459533648
 21
410.4335113106
 31
0.0
  0
LINE
  5
2E5
330
75
100
AcDbEntity
  8
$DDT_AUDIT_GENERATED_(88)
  6
Continuous
 62
     7
100
AcDbLine
 10
36.4459533648
 20
410.4335113106
 30
0.0
 11
36.4459533648
 21
411.0762989203
 31
0.0
  0
LINE
  5
2E6
330
75
100
AcDbEntity
  8
$DDT_AUDIT_GENERATED_(88)
  6
Continuous
 62
     7
100
AcDbLine
 10
36.4459533648
 20
411.0762989203
 30
0.0
 11
37.4459533648
 21
411.0762989203
 31
0.0
  0
LINE
  5
2E7
330
75
100
AcDbEntity
  8
$DDT_AUDIT_GENERATED_(88)
  6
Continuous
 62
     7
100
AcDbLine
 10
37.4459533648
 20
411.0762989203
 30
0.0
 11
37.4459533648
 21
410.4335113106
 31
0.0
  0
LINE
  5
2E8
330
75
100
AcDbEntity
  8
$DDT_AUDIT_GENERATED_(88)
  6
Continuous
 62
     7
100
AcDbLine
 10
38.8459533648
 20
410.0897262912
 30
0.0
 11
38.8459533648
 21
410.3049537887
 31
0.0
  0
ELLIPSE
  5
2E9
330
75
100
AcDbEntity
  8
$DDT_AUDIT_GENERATED_(88)
  6
Continuous
 62
     7
100
AcDbEllipse
 10
39.3459533885
 20
415.3829761131
 30
0.0
 11
-8.250000162942897
 21
-2.596348136485460E-8
 31
0.0
210
0.0
220
0.0
230
1.0
 40
0.6427876222
 41
1.485845699690585
 42
1.510153099067228
  0
LINE
  5
2EA
330
75
100
AcDbEntity
  8
$DDT_AUDIT_GENERATED_(88)
  6
Continuous
 62
     7
100
AcDbLine
 10
37.6459533648
 20
410.1937845356
 30
0.0
 11
37.6459533648
 21
410.3049537887
 31
0.0
  0
LINE
  5
2EB
330
75
100
AcDbEntity
  8
$DDT_AUDIT_GENERATED_(88)
  6
Continuous
 62
     7
100
AcDbLine
 10
37.6459533648
 20
410.3049537887
 30
0.0
 11
38.6459533648
 21
410.3049537887
 31
0.0
  0
LINE
  5
2EC
330
75
100
AcDbEntity
  8
$DDT_AUDIT_GENERATED_(88)
  6
Continuous
 62
     7
100
AcDbLine
 10
38.6459533648
 20
410.3049537887
 30
0.0
 11
38.6459533648
 21
410.0991014501
 31
0.0
  0
ELLIPSE
  5
2ED
330
75
100
AcDbEntity
  8
$DDT_AUDIT_GENERATED_(88)
  6
Continuous
 62
     7
100
AcDbEllipse
 10
39.3459534306
 20
415.3829760936
 30
0.0
 11
-8.250000157374982
 21
-7.023229220415317E-8
 31
0.0
210
0.0
220
0.0
230
1.0
 40
0.6427876203
 41
1.33840724517095
 42
1.363248866716903
  0
LINE
  5
2EE
330
75
100
AcDbEntity
  8
$DDT_AUDIT_GENERATED_(88)
  6
Continuous
 62
     7
100
AcDbLine
 10
36.9684546792
 20
410.3049537887
 30
0.0
 11
37.4459533648
 21
410.3049537887
 31
0.0
  0
LINE
  5
2EF
330
75
100
AcDbEntity
  8
$DDT_AUDIT_GENERATED_(88)
  6
Continuous
 62
     7
100
AcDbLine
 10
37.4459533648
 20
410.3049537887
 30
0.0
 11
37.4459533648
 21
410.22252821
 31
0.0
  0
ELLIPSE
  5
2F0
330
75
100
AcDbEntity
  8
$DDT_AUDIT_GENERATED_(88)
  6
Continuous
 62
     7
100
AcDbEllipse
 10
39.3459533642
 20
415.3829759041
 30
0.0
 11
-8.249999998968937
 21
6.366296378956804E-10
 31
0.0
210
0.0
220
0.0
230
1.0
 40
0.6427876096
 41
1.185582205212489
 42
1.278468933731694
  0
LINE
  5
2F1
330
75
100
AcDbEntity
  8
$DDT_AUDIT_GENERATED_(88)
  6
Continuous
 62
     7
100
AcDbLine
 10
35.2459533648
 20
410.7812046824
 30
0.0
 11
35.2459533648
 21
411.0762989203
 31
0.0
  0
LINE
  5
2F2
330
75
100
AcDbEntity
  8
$DDT_AUDIT_GENERATED_(88)
  6
Continuous
 62
     7
100
AcDbLine
 10
35.2459533648
 20
411.0762989203
 30
0.0
 11
36.2459533648
 21
411.0762989203
 31
0.0
  0
LINE
  5
2F3
330
75
100
AcDbEntity
  8
$DDT_AUDIT_GENERATED_(88)
  6
Continuous
 62
     7
100
AcDbLine
 10
36.2459533648
 20
411.0762989203
 30
0.0
 11
36.2459533648
 21
410.4685924294
 31
0.0
  0
ELLIPSE
  5
2F4
330
75
100
AcDbEntity
  8
$DDT_AUDIT_GENERATED_(88)
  6
Continuous
 62
     7
100
AcDbEllipse
 10
39.3459533581
 20
415.3829758995
 30
0.0
 11
-8.24999999243634
 21
5.847031192551811E-9
 31
0.0
210
0.0
220
0.0
230
1.0
 40
0.6427876096
 41
0.9073568933267335
 42
0.9477783677680708
  0
LINE
  5
2F5
330
75
100
AcDbEntity
  8
$DDT_AUDIT_GENERATED_(88)
  6
Continuous
 62
     7
100
AcDbLine
 10
34.0459533648
 20
411.3190278114
 30
0.0
 11
34.0459533648
 21
411.8476440519
 31
0.0
  0
LINE
  5
2F6
330
75
100
AcDbEntity
  8
$DDT_AUDIT_GENERATED_(88)
  6
Continuous
 62
     7
100
AcDbLine
 10
34.0459533648
 20
411.8476440519
 30
0.0
 11
35.0459533648
 21
411.8476440519
 31
0.0
  0
LINE
  5
2F7
330
75
100
AcDbEntity
  8
$DDT_AUDIT_GENERATED_(88)
  6
Continuous
 62
     7
100
AcDbLine
 10
35.0459533648
 20
411.8476440519
 30
0.0
 11
35.0459533648
 21
411.2048564422
 31
0.0
  0
LINE
  5
2F8
330
75
100
AcDbEntity
  8
$DDT_AUDIT_GENERATED_(88)
  6
Continuous
 62
     7
100
AcDbLine
 10
35.0459533648
 20
411.2048564422
 30
0.0
 11
34.2653530066
 21
411.2048564422
 31
0.0
  0
LINE
  5
2F9
330
75
100
AcDbEntity
  8
$DDT_AUDIT_GENERATED_(88)
  6
Continuous
 62
     7
100
AcDbLine
 10
34.2653530066
 20
411.2048564422
 30
0.0
 11
34.2653530066
 21
411.8476440519
 31
0.0
  0
ELLIPSE
  5
2FA
330
75
100
AcDbEntity
  8
$DDT_AUDIT_GENERATED_(88)
  6
Continuous
 62
     7
100
AcDbEllipse
 10
39.345953376
 20
415.3829759175
 30
0.0
 11
-8.250000013846773
 21
-1.053877818346649E-8
 31
0.0
210
0.0
220
0.0
230
1.0
 40
0.6427876101
 41
1.02252569133397
 42
1.050693122115216
  0
LINE
  5
2FB
330
75
100
AcDbEntity
  8
$DDT_AUDIT_GENERATED_(88)
  6
Continuous
 62
     7
100
AcDbLine
 10
34.5321710681
 20
411.0762989203
 30
0.0
 11
35.0459533648
 21
411.0762989203
 31
0.0
  0
LINE
  5
2FC
330
75
100
AcDbEntity
  8
$DDT_AUDIT_GENERATED_(88)
  6
Continuous
 62
     7
100
AcDbLine
 10
35.0459533648
 20
411.0762989203
 30
0.0
 11
35.0459533648
 21
410.8572535478
 31
0.0
  0
ELLIPSE
  5
2FD
330
75
100
AcDbEntity
  8
$DDT_AUDIT_GENERATED_(88)
  6
Continuous
 62
     7
100
AcDbEllipse
 10
39.3459533571
 20
415.3829759008
 30
0.0
 11
-8.249999991914576
 21
5.610484299367613E-9
 31
0.0
210
0.0
220
0.0
230
1.0
 40
0.6427876097
 41
0.6976574536023604
 42
0.7297276569809301
  0
LINE
  5
2FE
330
75
100
AcDbEntity
  8
$DDT_AUDIT_GENERATED_(88)
  6
Continuous
 62
     7
100
AcDbLine
 10
32.8459533648
 20
412.1172289452
 30
0.0
 11
32.8459533648
 21
412.6189891835
 31
0.0
  0
LINE
  5
2FF
330
75
100
AcDbEntity
  8
$DDT_AUDIT_GENERATED_(88)
  6
Continuous
 62
     7
100
AcDbLine
 10
32.8459533648
 20
412.6189891835
 30
0.0
 11
33.8459533648
 21
412.6189891835
 31
0.0
  0
LINE
  5
300
330
75
100
AcDbEntity
  8
$DDT_AUDIT_GENERATED_(88)
  6
Continuous
 62
     7
100
AcDbLine
 10
33.8459533648
 20
412.6189891835
 30
0.0
 11
33.8459533648
 21
411.9762015739
 31
0.0
  0
LINE
  5
301
330
75
100
AcDbEntity
  8
$DDT_AUDIT_GENERATED_(88)
  6
Continuous
 62
     7
100
AcDbLine
 10
33.8459533648
 20
411.9762015739
 30
0.0
 11
33.0235724842
 21
411.9762015739
 31
0.0
  0
LINE
  5
302
330
75
100
AcDbEntity
  8
$DDT_AUDIT_GENERATED_(88)
  6
Continuous
 62
     7
100
AcDbLine
 10
33.0235724842
 20
411.9762015739
 30
0.0
 11
33.0235724842
 21
412.6189891835
 31
0.0
  0
ELLIPSE
  5
303
330
75
100
AcDbEntity
  8
$DDT_AUDIT_GENERATED_(88)
  6
Continuous
 62
     7
100
AcDbEllipse
 10
39.3459534443
 20
415.3829759642
 30
0.0
 11
-8.250000086714254
 21
-6.583930622916512E-8
 31
0.0
210
0.0
220
0.0
230
1.0
 40
0.6427876104
 41
0.8410686619167683
 42
0.8731388650392343
  0
LINE
  5
304
330
75
100
AcDbEntity
  8
$DDT_AUDIT_GENERATED_(88)
  6
Continuous
 62
     7
100
AcDbLine
 10
33.1967664267
 20
411.8476440519
 30
0.0
 11
33.8459533648
 21
411.8476440519
 31
0.0
  0
LINE
  5
305
330
75
100
AcDbEntity
  8
$DDT_AUDIT_GENERATED_(88)
  6
Continuous
 62
     7
100
AcDbLine
 10
33.8459533648
 20
411.8476440519
 30
0.0
 11
33.8459533648
 21
411.4303547317
 31
0.0
  0
LINE
  5
306
330
75
100
AcDbEntity
  8
$DDT_AUDIT_GENERATED_(88)
  6
Continuous
 62
     7
100
AcDbLine
 10
32.6459533648
 20
413.5188918371
 30
0.0
 11
31.6459533648
 21
413.5188918371
 31
0.0
  0
LINE
  5
307
330
75
100
AcDbEntity
  8
$DDT_AUDIT_GENERATED_(88)
  6
Continuous
 62
     7
100
AcDbLine
 10
31.6459533648
 20
413.5188918371
 30
0.0
 11
31.6459533648
 21
414.1616794468
 31
0.0
  0
LINE
  5
308
330
75
100
AcDbEntity
  8
$DDT_AUDIT_GENERATED_(88)
  6
Continuous
 62
     7
100
AcDbLine
 10
31.6459533648
 20
414.1616794468
 30
0.0
 11
32.6459533648
 21
414.1616794468
 31
0.0
  0
LINE
  5
309
330
75
100
AcDbEntity
  8
$DDT_AUDIT_GENERATED_(88)
  6
Continuous
 62
     7
100
AcDbLine
 10
32.6459533648
 20
414.1616794468
 30
0.0
 11
32.6459533648
 21
413.5188918371
 31
0.0
  0
ELLIPSE
  5
30A
330
75
100
AcDbEntity
  8
$DDT_AUDIT_GENERATED_(88)
  6
Continuous
 62
     7
100
AcDbEllipse
 10
39.3459535184
 20
415.3829759635
 30
0.0
 11
-8.250000155250612
 21
-8.554647268343984E-8
 31
0.0
210
0.0
220
0.0
230
1.0
 40
0.6427876063
 41
0.520103192011641
 42
0.5482706225262247
  0
LINE
  5
30B
330
75
100
AcDbEntity
  8
$DDT_AUDIT_GENERATED_(88)
  6
Continuous
 62
     7
100
AcDbLine
 10
31.7005298972
 20
413.3903343152
 30
0.0
 11
32.6459533648
 21
413.3903343152
 31
0.0
  0
LINE
  5
30C
330
75
100
AcDbEntity
  8
$DDT_AUDIT_GENERATED_(88)
  6
Continuous
 62
     7
100
AcDbLine
 10
32.6459533648
 20
413.3903343152
 30
0.0
 11
32.6459533648
 21
412.7475467055
 31
0.0
  0
LINE
  5
30D
330
75
100
AcDbEntity
  8
$DDT_AUDIT_GENERATED_(88)
  6
Continuous
 62
     7
100
AcDbLine
 10
32.6459533648
 20
412.7475467055
 30
0.0
 11
32.1868682278
 21
412.7475467055
 31
0.0
  0
LINE
  5
30E
330
75
100
AcDbEntity
  8
$DDT_AUDIT_GENERATED_(88)
  6
Continuous
 62
     7
100
AcDbLine
 10
32.1868682278
 20
412.7475467055
 30
0.0
 11
32.1868682278
 21
413.3903343152
 31
0.0
  0
ELLIPSE
  5
30F
330
75
100
AcDbEntity
  8
$DDT_AUDIT_GENERATED_(88)
  6
Continuous
 62
     7
100
AcDbEllipse
 10
39.3459533559
 20
415.382975901
 30
0.0
 11
-8.249999990884435
 21
5.791672696986438E-9
 31
0.0
210
0.0
220
0.0
230
1.0
 40
0.6427876098
 41
0.6230179605859253
 42
0.6634394350272814
  0
LINE
  5
310
330
75
100
AcDbEntity
  8
$DDT_AUDIT_GENERATED_(88)
  6
Continuous
 62
     7
100
AcDbLine
 10
32.3051792597
 20
412.6189891835
 30
0.0
 11
32.6459533648
 21
412.6189891835
 31
0.0
  0
LINE
  5
311
330
75
100
AcDbEntity
  8
$DDT_AUDIT_GENERATED_(88)
  6
Continuous
 62
     7
100
AcDbLine
 10
32.6459533648
 20
412.6189891835
 30
0.0
 11
32.6459533648
 21
412.2887362892
 31
0.0
  0
ELLIPSE
  5
312
330
75
100
AcDbEntity
  8
$DDT_AUDIT_GENERATED_(88)
  6
Continuous
 62
     7
100
AcDbEllipse
 10
39.3459536526
 20
415.3829759187
 30
0.0
 11
-8.250000287756544
 21
-2.300316881420628E-8
 31
0.0
210
0.0
220
0.0
230
1.0
 40
0.6427875986
 41
0.0606432211832335
 42
0.0849506206124066
  0
LINE
  5
313
330
75
100
AcDbEntity
  8
$DDT_AUDIT_GENERATED_(88)
  6
Continuous
 62
     7
100
AcDbLine
 10
31.4459533648
 20
415.0615821004
 30
0.0
 11
31.1111188188
 21
415.0615821004
 31
0.0
  0
LINE
  5
314
330
75
100
AcDbEntity
  8
$DDT_AUDIT_GENERATED_(88)
  6
Continuous
 62
     7
100
AcDbLine
 10
31.1111188188
 20
415.0615821004
 30
0.0
 11
31.1111188188
 21
415.3213474885
 31
0.0
  0
ELLIPSE
  5
315
330
75
100
AcDbEntity
  8
$DDT_AUDIT_GENERATED_(88)
  6
Continuous
 62
     7
100
AcDbEllipse
 10
39.345953415
 20
415.3829759125
 30
0.0
 11
-8.250000050176311
 21
-1.206465483072350E-8
 31
0.0
210
0.0
220
0.0
230
1.0
 40
0.6427876079
 41
0.2075474489188415
 42
0.2323890708396133
  0
LINE
  5
316
330
75
100
AcDbEntity
  8
$DDT_AUDIT_GENERATED_(88)
  6
Continuous
 62
     7
100
AcDbLine
 10
31.1257039769
 20
414.9330245784
 30
0.0
 11
31.4459533648
 21
414.9330245784
 31
0.0
  0
LINE
  5
317
330
75
100
AcDbEntity
  8
$DDT_AUDIT_GENERATED_(88)
  6
Continuous
 62
     7
100
AcDbLine
 10
31.4459533648
 20
414.9330245784
 30
0.0
 11
31.4459533648
 21
414.2902369687
 31
0.0
  0
LINE
  5
318
330
75
100
AcDbEntity
  8
$DDT_AUDIT_GENERATED_(88)
  6
Continuous
 62
     7
100
AcDbLine
 10
31.4459533648
 20
414.2902369687
 30
0.0
 11
31.273004709
 21
414.2902369687
 31
0.0
  0
LINE
  5
319
330
75
100
AcDbEntity
  8
$DDT_AUDIT_GENERATED_(88)
  6
Continuous
 62
     7
100
AcDbLine
 10
31.273004709
 20
414.2902369687
 30
0.0
 11
31.273004709
 21
414.9330245784
 31
0.0
  0
ELLIPSE
  5
31A
330
75
100
AcDbEntity
  8
$DDT_AUDIT_GENERATED_(88)
  6
Continuous
 62
     7
100
AcDbEllipse
 10
39.3459533643
 20
415.3829759051
 30
0.0
 11
-8.249999999441542
 21
2.023103906623192E-10
 31
0.0
210
0.0
220
0.0
230
1.0
 40
0.6427876097
 41
0.2923273931788217
 42
0.3852141216908793
  0
LINE
  5
31B
330
75
100
AcDbEntity
  8
$DDT_AUDIT_GENERATED_(88)
  6
Continuous
 62
     7
100
AcDbLine
 10
31.3177219282
 20
414.1616794468
 30
0.0
 11
31.4459533648
 21
414.1616794468
 31
0.0
  0
LINE
  5
31C
330
75
100
AcDbEntity
  8
$DDT_AUDIT_GENERATED_(88)
  6
Continuous
 62
     7
100
AcDbLine
 10
31.4459533648
 20
414.1616794468
 30
0.0
 11
31.4459533648
 21
413.8547492081
 31
0.0
  0
LINE
  5
31D
330
75
100
AcDbEntity
  8
$DDT_AUDIT_GENERATED_(88)
  6
Continuous
 62
     7
100
AcDbLine
 10
48.7459533648
 20
414.9999536836
 30
0.0
 11
48.7459533648
 21
415.9000559043
 31
0.0
  0
LINE
  5
31E
330
75
100
AcDbEntity
  8
$DDT_AUDIT_GENERATED_(88)
  6
Continuous
 62
     7
100
AcDbLine
 10
29.9459533648
 20
415.9000559043
 30
0.0
 11
29.9459533648
 21
414.9999536836
 31
0.0
  0
ELLIPSE
  5
320
330
75
100
AcDbEntity
  8
$DDT_AUDIT_GENERATED_(31F)
  6
Continuous
 62
     7
100
AcDbEllipse
 10
39.3459533648
 20
414.9233492393
 30
0.0
 11
10.05000000000001
 21
0.0
 31
0.0
210
0.0
220
0.0
230
1.0
 40
0.6427876097
 41
0.0
 42
6.283185307179586
  0
ELLIPSE
  5
321
330
75
100
AcDbEntity
  8
$DDT_AUDIT_GENERATED_(31F)
  6
Continuous
 62
     7
100
AcDbEllipse
 10
39.3459533648
 20
414.9233492393
 30
0.0
 11
10.75000000000001
 21
0.0
 31
0.0
210
0.0
220
0.0
230
1.0
 40
0.6427876097
 41
0.0
 42
6.283185307179586
  0
ELLIPSE
  5
322
330
75
100
AcDbEntity
  8
$DDT_AUDIT_GENERATED_(31F)
  6
Continuous
 62
     7
100
AcDbEllipse
 10
39.3459533648
 20
421.4347270058
 30
0.0
 11
11.80000000000001
 21
-1.387778780781446E-14
 31
0.0
210
0.0
220
0.0
230
1.0
 40
0.6427876097
 41
3.000623028334777
 42
3.141592653589793
  0
ELLIPSE
  5
323
330
75
100
AcDbEntity
  8
$DDT_AUDIT_GENERATED_(31F)
  6
Continuous
 62
     7
100
AcDbEllipse
 10
39.3459533648
 20
421.4347270058
 30
0.0
 11
11.80000000000001
 21
-1.387778780781446E-14
 31
0.0
210
0.0
220
0.0
230
1.0
 40
0.6427876097
 41
0.0
 42
0.1409696252550106
  0
LINE
  5
324
330
75
100
AcDbEntity
  8
$DDT_AUDIT_GENERATED_(31F)
  6
Continuous
 62
     7
100
AcDbLine
 10
50.3459533648
 20
413.5040286623
 30
0.0
 11
50.3459533648
 21
416.8291733784
 31
0.0
  0
ELLIPSE
  5
325
330
75
100
AcDbEntity
  8
$DDT_AUDIT_GENERATED_(31F)
  6
Continuous
 62
     7
100
AcDbEllipse
 10
39.3459533648
 20
417.2214825687
 30
0.0
 11
-11.79999999999946
 21
5.551115123125783E-14
 31
0.0
210
0.0
220
0.0
230
1.0
 40
0.6427876097
 41
2.77125002149807
 42
3.511935285681515
  0
LINE
  5
326
330
75
100
AcDbEntity
  8
$DDT_AUDIT_GENERATED_(31F)
  6
Continuous
 62
     7
100
AcDbLine
 10
50.3459533648
 20
412.9298812068
 30
0.0
 11
50.3459533648
 21
413.5040286623
 31
0.0
  0
LINE
  5
327
330
75
100
AcDbEntity
  8
$DDT_AUDIT_GENERATED_(31F)
  6
Continuous
 62
     7
100
AcDbLine
 10
50.3459533648
 20
416.8291733784
 30
0.0
 11
50.3459533648
 21
418.5752524117
 31
0.0
  0
LINE
  5
328
330
75
100
AcDbEntity
  8
$DDT_AUDIT_GENERATED_(31F)
  6
Continuous
 62
     7
100
AcDbLine
 10
50.3459533648
 20
418.5752524117
 30
0.0
 11
50.3459533648
 21
419.9667200119
 31
0.0
  0
LINE
  5
329
330
75
100
AcDbEntity
  8
$DDT_AUDIT_GENERATED_(31F)
  6
Continuous
 62
     7
100
AcDbLine
 10
28.3459533648
 20
416.8291733784
 30
0.0
 11
28.3459533648
 21
413.5040286623
 31
0.0
  0
ELLIPSE
  5
32A
330
75
100
AcDbEntity
  8
$DDT_AUDIT_GENERATED_(31F)
  6
Continuous
 62
     7
100
AcDbEllipse
 10
39.3459533648
 20
417.2214825687
 30
0.0
 11
11.80000000000052
 21
-8.326672684688674E-14
 31
0.0
210
0.0
220
0.0
230
1.0
 40
0.6427876097
 41
2.771250021498088
 42
3.511935285681501
  0
LINE
  5
32B
330
75
100
AcDbEntity
  8
$DDT_AUDIT_GENERATED_(31F)
  6
Continuous
 62
     7
100
AcDbLine
 10
28.3459533648
 20
419.9667200119
 30
0.0
 11
28.3459533648
 21
418.5752524117
 31
0.0
  0
LINE
  5
32C
330
75
100
AcDbEntity
  8
$DDT_AUDIT_GENERATED_(31F)
  6
Continuous
 62
     7
100
AcDbLine
 10
28.3459533648
 20
418.5752524117
 30
0.0
 11
28.3459533648
 21
416.8291733784
 31
0.0
  0
LINE
  5
32D
330
75
100
AcDbEntity
  8
$DDT_AUDIT_GENERATED_(31F)
  6
Continuous
 62
     7
100
AcDbLine
 10
28.3459533648
 20
413.5040286623
 30
0.0
 11
28.3459533648
 21
412.9298600899
 31
0.0
  0
SPLINE
  5
32E
330
75
100
AcDbEntity
  8
$DDT_AUDIT_GENERATED_(31F)
  6
Continuous
 62
     7
100
AcDbSpline
210
0.0
220
0.0
230
1.0
 70
     8
 71
     3
 72
    48
 73
    44
 74
     0
 42
0.0000000003955924
 43
0.0000000001
 40
0.0
 40
0.0
 40
0.0
 40
0.0
 40
0.0044842583722466
 40
0.0289021949552243
 40
0.0534879779058369
 40
0.0782303808801932
 40
0.1031099696610129
 40
0.1281024625317744
 40
0.1531820130433367
 40
0.178323889585368
 40
0.2035062819291824
 40
0.2287112280735993
 40
0.253923941040661
 40
0.2791326433633837
 40
0.3043315412182842
 40
0.3295173501657946
 40
0.354688741226886
 40
0.3798458648800471
 40
0.4049899647420837
 40
0.430123075525108
 40
0.4552477927056585
 40
0.4803670991479719
 40
0.5054842342030244
 40
0.5306025920213284
 40
0.5557248062146037
 40
0.5808540285536609
 40
0.6059936707760325
 40
0.6311469897379776
 40
0.6563169713348178
 40
0.6815061775792154
 40
0.7067165417961974
 40
0.7319490954526467
 40
0.7572036098802571
 40
0.7824781390610535
 40
0.8077684587912218
 40
0.8330667622912281
 40
0.8583585037595188
 40
0.8836272289086943
 40
0.9088518877695685
 40
0.9340072057813602
 40
0.9590649378007284
 40
0.9839961808405931
 40
1.0
 40
1.0
 40
1.0
 40
1.0
 10
28.3454293397677
 20
412.9367817079923
 30
0.0
 10
28.36167497060752
 20
412.9062766442826
 30
0.0
 10
28.45166608793102
 20
412.7377424026085
 30
0.0
 10
28.67104656457884
 20
412.409394212958
 30
0.0
 10
28.98809553750202
 20
411.9856511904813
 30
0.0
 10
29.349372657183
 20
411.5719083939369
 30
0.0
 10
29.7458957347916
 20
411.1746001763084
 30
0.0
 10
30.17826858172013
 20
410.7940674000508
 30
0.0
 10
30.64421425022579
 20
410.4321992349411
 30
0.0
 10
31.14199261090378
 20
410.0903230415404
 30
0.0
 10
31.66953300327301
 20
409.7697474541732
 30
0.0
 10
32.22471203235663
 20
409.4716109790489
 30
0.0
 10
32.80530951939041
 20
409.1969297455691
 30
0.0
 10
33.40906536520452
 20
408.9465853605017
 30
0.0
 10
34.03369565133247
 20
408.7213398230168
 30
0.0
 10
34.67690888992238
 20
408.5218477084784
 30
0.0
 10
35.33638618153206
 20
408.3486749335246
 30
0.0
 10
36.00978307298358
 20
408.2023043559774
 30
0.0
 10
36.69473145874453
 20
408.0831393859664
 30
0.0
 10
37.38884220269033
 20
407.9915060398885
 30
0.0
 10
38.08970863822299
 20
407.9276539779816
 30
0.0
 10
38.79491094587059
 20
407.891756962498
 30
0.0
 10
39.50202126978314
 20
407.8839130848533
 30
0.0
 10
40.20860158989684
 20
407.9041447888467
 30
0.0
 10
40.91221476606709
 20
407.9523979328093
 30
0.0
 10
41.61043432403584
 20
408.0285422321323
 30
0.0
 10
42.30085843526759
 20
408.1323740033431
 30
0.0
 10
42.98111055327227
 20
408.2636180453266
 30
0.0
 10
43.64884110984242
 20
408.4219288585613
 30
0.0
 10
44.30173126822297
 20
408.6068918975755
 30
0.0
 10
44.9374954678573
 20
408.8180242559031
 30
0.0
 10
45.55388268515824
 20
409.0547743321769
 30
0.0
 10
46.1486760751911
 20
409.3165195090182
 30
0.0
 10
46.71969243177237
 20
409.6025620302765
 30
0.0
 10
47.26477295192819
 20
409.9121156046454
 30
0.0
 10
47.78177272000146
 20
410.2442869041957
 30
0.0
 10
48.26854722221708
 20
410.5980294587371
 30
0.0
 10
48.72311277545847
 20
410.9722486769647
 30
0.0
 10
49.14314518887635
 20
411.3653307226383
 30
0.0
 10
49.52799820717309
 20
411.7768452585716
 30
0.0
 10
49.87131230270542
 20
412.2011077207732
 30
0.0
 10
50.15140773698902
 20
412.5982358422557
 30
0.0
 10
50.28494189813854
 20
412.8317091964461
 30
0.0
 10
50.34606154852295
 20
412.939533994303
 30
0.0
  0
LINE
  5
32F
330
75
100
AcDbEntity
  8
$DDT_AUDIT_GENERATED_(31F)
  6
Continuous
 62
     7
100
AcDbLine
 10
27.5459533648
 20
421.4347270058
 30
0.0
 11
27.5459533648
 21
417.2214825687
 31
0.0
  0
LINE
  5
330
330
75
100
AcDbEntity
  8
$DDT_AUDIT_GENERATED_(31F)
  6
Continuous
 62
     7
100
AcDbLine
 10
51.1459533648
 20
417.2214825687
 30
0.0
 11
51.1459533648
 21
421.4347270058
 31
0.0
  0
ELLIPSE
  5
332
330
75
100
AcDbEntity
  8
$DDT_AUDIT_GENERATED_(331)
  6
Continuous
 62
     7
100
AcDbEllipse
 10
39.3459533649
 20
472.4133526951
 30
0.0
 11
3.582542252657285E-15
 21
3.796314342143392
 31
0.0
210
0.0
220
0.0
230
1.0
 40
0.9087761679
 41
0.0
 42
6.283185307179586
  0
LINE
  5
333
330
75
100
AcDbEntity
  8
$DDT_AUDIT_GENERATED_(331)
  6
Continuous
 62
     7
100
AcDbLine
 10
35.8959533649
 20
472.7284450342
 30
0.0
 11
35.8959533649
 21
472.4133526951
 31
0.0
  0
LINE
  5
334
330
75
100
AcDbEntity
  8
$DDT_AUDIT_GENERATED_(331)
  6
Continuous
 62
     7
100
AcDbLine
 10
42.7959533649
 20
472.4133526951
 30
0.0
 11
42.7959533649
 21
472.7284450342
 31
0.0
  0
ARC
  5
336
330
75
100
AcDbEntity
  8
$DDT_AUDIT_GENERATED_(335)
  6
Continuous
 62
     7
100
AcDbCircle
 10
47.4978980862
 20
494.9188514851
 30
0.0
 40
1.00000000000137
100
AcDbArc
 50
353.7926549925
 51
81.7294408935
  0
ARC
  5
337
330
75
100
AcDbEntity
  8
$DDT_AUDIT_GENERATED_(335)
  6
Continuous
 62
     7
100
AcDbCircle
 10
39.3459719947
 20
439.1197839592
 30
0.0
 40
57.39139834295447
100
AcDbArc
 50
81.6889326197
 51
98.3110811684
  0
ARC
  5
338
330
75
100
AcDbEntity
  8
$DDT_AUDIT_GENERATED_(335)
  6
Continuous
 62
     7
100
AcDbCircle
 10
31.1940324704
 20
494.9188495227
 30
0.0
 40
0.9999999999992624
100
AcDbArc
 50
98.2705726092
 51
186.2073588008
  0
ARC
  5
339
330
75
100
AcDbEntity
  8
$DDT_AUDIT_GENERATED_(335)
  6
Continuous
 62
     7
100
AcDbCircle
 10
39.3459651716
 20
495.8054921776
 30
0.0
 40
9.200008656215402
100
AcDbArc
 50
186.2073588007
 51
353.7926549924
  0
LINE
  5
33A
330
75
100
AcDbEntity
  8
$DDT_AUDIT_GENERATED_(335)
  6
Continuous
 62
     7
100
AcDbLine
 10
29.4399687324
 20
494.8232845683
 30
0.0
 11
29.6817442426
 21
494.822828465
 31
0.0
  0
SPLINE
  5
33B
330
75
100
AcDbEntity
  8
$DDT_AUDIT_GENERATED_(335)
  6
Continuous
 62
     7
100
AcDbSpline
210
0.0
220
0.0
230
1.0
 70
     8
 71
     3
 72
     8
 73
     4
 74
     0
 42
0.0000000056202017
 43
0.0000000001
 40
0.4930683383985428
 40
0.4930683383985428
 40
0.4930683383985428
 40
0.4930683383985428
 40
0.4936303585706253
 40
0.4936303585706253
 40
0.4936303585706253
 40
0.4936303585706253
 10
12.84592722650137
 20
494.0285898623621
 30
0.0
 10
12.84592721782471
 20
494.0286488508115
 30
0.0
 10
12.84593505531677
 20
494.0287078212203
 30
0.0
 10
12.84595073906648
 20
494.0287667735844
 30
0.0
  0
ARC
  5
33C
330
75
100
AcDbEntity
  8
$DDT_AUDIT_GENERATED_(335)
  6
Continuous
 62
     7
100
AcDbCircle
 10
57.2685911012
 20
266.363699078
 30
0.0
 40
228.5976815768674
100
AcDbArc
 50
88.0448844881
 51
92.0096806041
  0
LINE
  5
33D
330
75
100
AcDbEntity
  8
$DDT_AUDIT_GENERATED_(335)
  6
Continuous
 62
     7
100
AcDbLine
 10
49.0101868265
 20
494.8228289073
 30
0.0
 11
49.2519590932
 21
494.82328501
 31
0.0
  0
SPLINE
  5
33E
330
75
100
AcDbEntity
  8
$DDT_AUDIT_GENERATED_(335)
  6
Continuous
 62
     7
100
AcDbSpline
210
0.0
220
0.0
230
1.0
 70
     8
 71
     3
 72
    16
 73
    12
 74
     0
 42
0.0000000191930476
 43
0.0000000001
 40
0.0
 40
0.0
 40
0.0
 40
0.0
 40
0.0911151069965292
 40
0.1752282278388523
 40
0.2525463999537271
 40
0.3232564104352867
 40
0.3875257148419574
 40
0.445504894590288
 40
0.4973316605082111
 40
0.7568913647751839
 40
1.0
 40
1.0
 40
1.0
 40
1.0
 10
49.010186826458
 20
494.8228289072873
 30
0.0
 10
49.00129149094401
 20
494.8211697342578
 30
0.0
 10
48.98418440596628
 20
494.8179788918255
 30
0.0
 10
48.96322871674125
 20
494.8036773885452
 30
0.0
 10
48.94558316257329
 20
494.7846515898383
 30
0.0
 10
48.9305183115006
 20
494.7619489226043
 30
0.0
 10
48.91715772342525
 20
494.7372780383336
 30
0.0
 10
48.90490046721161
 20
494.7119608866982
 30
0.0
 10
48.87731815818788
 20
494.6533007247736
 30
0.0
 10
48.82292588311657
 20
494.5470125996507
 30
0.0
 10
48.74818830971617
 20
494.4552345142206
 30
0.0
 10
48.71204250931066
 20
494.4108473043256
 30
0.0
  0
SPLINE
  5
33F
330
75
100
AcDbEntity
  8
$DDT_AUDIT_GENERATED_(335)
  6
Continuous
 62
     7
100
AcDbSpline
210
0.0
220
0.0
230
1.0
 70
     8
 71
     3
 72
    21
 73
    17
 74
     0
 42
0.0000000131126059
 43
0.0000000001
 40
0.0
 40
0.0
 40
0.0
 40
0.0
 40
0.0452934933428925
 40
0.0906587611394033
 40
0.1364876986594261
 40
0.1831590329796753
 40
0.2269662470929169
 40
0.3120644239128924
 40
0.3712747634926611
 40
0.4551646370712391
 40
0.5343959365332173
 40
0.6468337406746004
 40
0.6991695807415489
 40
0.8139494837048264
 40
0.9149182341368232
 40
1.0
 40
1.0
 40
1.0
 40
1.0
 10
48.71204250931066
 20
494.4108473043256
 30
0.0
 10
48.70347599906592
 20
494.4005053960575
 30
0.0
 10
48.68632940363398
 20
494.379805191187
 30
0.0
 10
48.66622369368963
 20
494.3417154049615
 30
0.0
 10
48.64942361476399
 20
494.2980949727797
 30
0.0
 10
48.63528308911767
 20
494.250257844418
 30
0.0
 10
48.62099575569452
 20
494.1808538131112
 30
0.0
 10
48.60296061875403
 20
494.1034303526451
 30
0.0
 10
48.57194750418553
 20
494.0092785235429
 30
0.0
 10
48.52301419136877
 20
493.9511196775834
 30
0.0
 10
48.46606225664847
 20
493.9118934436109
 30
0.0
 10
48.42304911376088
 20
493.8856651493671
 30
0.0
 10
48.38279457562626
 20
493.8621386374059
 30
0.0
 10
48.3528973260349
 20
493.8406253355173
 30
0.0
 10
48.33129425715169
 20
493.8176863511235
 30
0.0
 10
48.32622017592136
 20
493.8030117005643
 30
0.0
 10
48.32389977498973
 20
493.7963009146528
 30
0.0
  0
ARC
  5
340
330
75
100
AcDbEntity
  8
$DDT_AUDIT_GENERATED_(335)
  6
Continuous
 62
     7
100
AcDbCircle
 10
47.4978980862
 20
494.9188514851
 30
0.0
 40
1.000000000004986
100
AcDbArc
 50
13.840282392
 51
18.350891318
  0
ELLIPSE
  5
341
330
75
100
AcDbEntity
  8
$DDT_AUDIT_GENERATED_(335)
  6
Continuous
 62
     7
100
AcDbEllipse
 10
49.1495472037
 20
494.7392107382
 30
0.0
 11
0.6575120066482972
 21
-0.0715139473055626
 31
0.0
210
0.0
220
0.0
230
1.0
 40
0.7089890277
 41
3.141592653589793
 42
4.063963028822966
  0
ARC
  5
342
330
75
100
AcDbEntity
  8
$DDT_AUDIT_GENERATED_(335)
  6
Continuous
 62
     7
100
AcDbCircle
 10
31.1940324704
 20
494.9188495227
 30
0.0
 40
1.000000000004601
100
AcDbArc
 50
161.6490513399
 51
166.0731904033
  0
SPLINE
  5
343
330
75
100
AcDbEntity
  8
$DDT_AUDIT_GENERATED_(335)
  6
Continuous
 62
     7
100
AcDbSpline
210
0.0
220
0.0
230
1.0
 70
     8
 71
     3
 72
    16
 73
    12
 74
     0
 42
0.0000000003125252
 43
0.0000000001
 40
0.5057222483350295
 40
0.5057222483350295
 40
0.5057222483350295
 40
0.5057222483350295
 40
0.6249999999999999
 40
0.6249999999999999
 40
0.6875
 40
0.6875
 40
0.75
 40
0.75
 40
0.875
 40
0.875
 40
1.0
 40
1.0
 40
1.0
 40
1.0
 10
13.62436486161363
 20
494.8283220508579
 30
0.0
 10
13.64443461504267
 20
494.8288492923134
 30
0.0
 10
14.00936123935219
 20
494.8285723465632
 30
0.0
 10
15.05084268602958
 20
494.8281829034809
 30
0.0
 10
15.49545798831486
 20
494.8280441175361
 30
0.0
 10
16.56031681901768
 20
494.827811299745
 30
0.0
 10
17.18565749780864
 20
494.8277169268991
 30
0.0
 10
19.27377126509639
 20
494.8273877138159
 30
0.0
 10
20.97572102997801
 20
494.8269647829131
 30
0.0
 10
24.89994393486995
 20
494.8249835689339
 30
0.0
 10
27.06529231316345
 20
494.8238559943448
 30
0.0
 10
29.43996873242417
 20
494.8232845682971
 30
0.0
  0
SPLINE
  5
344
330
75
100
AcDbEntity
  8
$DDT_AUDIT_GENERATED_(335)
  6
Continuous
 62
     7
100
AcDbSpline
210
0.0
220
0.0
230
1.0
 70
     8
 71
     3
 72
    13
 73
     9
 74
     0
 42
0.0000000190820893
 43
0.0000000001
 40
0.0
 40
0.0
 40
0.0
 40
0.0
 40
0.1227123657799055
 40
0.246918307044149
 40
0.3738803047770171
 40
0.504596890152899
 40
0.7083276423477674
 40
1.0
 40
1.0
 40
1.0
 40
1.0
 10
29.97988683472125
 20
494.4108429503027
 30
0.0
 10
29.96108046702703
 20
494.4324788363647
 30
0.0
 10
29.92323883270417
 20
494.4760139464892
 30
0.0
 10
29.87421461937668
 20
494.5475749552646
 30
0.0
 10
29.83196981564845
 20
494.619841625581
 30
0.0
 10
29.79112222384094
 20
494.7009248497785
 30
0.0
 10
29.75202450319505
 20
494.7931488721623
 30
0.0
 10
29.70778851683392
 20
494.8118298794923
 30
0.0
 10
29.68174424262851
 20
494.8228284649735
 30
0.0
  0
SPLINE
  5
345
330
75
100
AcDbEntity
  8
$DDT_AUDIT_GENERATED_(335)
  6
Continuous
 62
     7
100
AcDbSpline
210
0.0
220
0.0
230
1.0
 70
     8
 71
     3
 72
    20
 73
    16
 74
     0
 42
0.0000000131091065
 43
0.0000000001
 40
0.0
 40
0.0
 40
0.0
 40
0.0
 40
0.0859505943479393
 40
0.1860607120379518
 40
0.2952562613947237
 40
0.3531905447641118
 40
0.4658187713435264
 40
0.5448739767690546
 40
0.6287690599976306
 40
0.6879828536735483
 40
0.7746164305470321
 40
0.8168926760830038
 40
0.8793534872234202
 40
0.9402052081318234
 40
1.0
 40
1.0
 40
1.0
 40
1.0
 10
30.36803067754678
 20
493.7963004257178
 30
0.0
 10
30.36568009120595
 20
493.8030759190062
 30
0.0
 10
30.36059168231717
 20
493.8177431021148
 30
0.0
 10
30.33933165325794
 20
493.8402986306571
 30
0.0
 10
30.30983592853189
 20
493.8615830896807
 30
0.0
 10
30.26983439151241
 20
493.8851604470068
 30
0.0
 10
30.22583387731129
 20
493.9118183733499
 30
0.0
 10
30.16887890960811
 20
493.9511879079072
 30
0.0
 10
30.11997829407417
 20
494.009267851866
 30
0.0
 10
30.08877901858949
 20
494.1040767384185
 30
0.0
 10
30.07073183515186
 20
494.181408621575
 30
0.0
 10
30.05521638274404
 20
494.2570350296841
 30
0.0
 10
30.03745378232744
 20
494.3139679689605
 30
0.0
 10
30.01340183037991
 20
494.368937411744
 30
0.0
 10
29.99099306227727
 20
494.396956257557
 30
0.0
 10
29.97988683472125
 20
494.4108429503027
 30
0.0
  0
ELLIPSE
  5
346
330
75
100
AcDbEntity
  8
$DDT_AUDIT_GENERATED_(335)
  6
Continuous
 62
     7
100
AcDbEllipse
 10
29.5423748163
 20
494.739207445
 30
0.0
 11
-0.6575205692194043
 21
-0.07151503876606791
 31
0.0
210
0.0
220
0.0
230
1.0
 40
0.7089853612
 41
2.219225814738276
 42
3.141592653590611
  0
ARC
  5
347
330
75
100
AcDbEntity
  8
$DDT_AUDIT_GENERATED_(335)
  6
Continuous
 62
     7
100
AcDbCircle
 10
38.7318709215
 20
-381.7632273844
 30
0.0
 40
876.9479001197195
100
AcDbArc
 50
90.5818187642
 51
91.6404891368
  0
ARC
  5
348
330
75
100
AcDbEntity
  8
$DDT_AUDIT_GENERATED_(335)
  6
Continuous
 62
     7
100
AcDbCircle
 10
39.8761550137
 20
-387.8513618067
 30
0.0
 40
883.0364817307761
100
AcDbArc
 50
88.3662493413
 51
89.4167492575
  0
SPLINE
  5
349
330
75
100
AcDbEntity
  8
$DDT_AUDIT_GENERATED_(335)
  6
Continuous
 62
     7
100
AcDbSpline
210
0.0
220
0.0
230
1.0
 70
     8
 71
     3
 72
    87
 73
    83
 74
     0
 42
0.0000000001796439
 43
0.0000000001
 40
0.0
 40
0.0
 40
0.0
 40
0.0
 40
0.0089025573991717
 40
0.0191734399521697
 40
0.0296556229484462
 40
0.0406404121895423
 40
0.0523362475097463
 40
0.0647812036460182
 40
0.0778989594070055
 40
0.0913436809900822
 40
0.1048145398132567
 40
0.118196023869764
 40
0.1314764219040232
 40
0.1446696597308068
 40
0.157795394681594
 40
0.1708724405852846
 40
0.1839171983402706
 40
0.1969015989593845
 40
0.2098091591772963
 40
0.222683912279325
 40
0.2355349927700645
 40
0.2483704390111776
 40
0.2611974206949335
 40
0.2740224369441484
 40
0.2868514798628355
 40
0.2996888466351748
 40
0.3125373281491137
 40
0.3253401307025742
 40
0.3381207565942839
 40
0.3509109006475842
 40
0.3637086312731395
 40
0.3765116516011598
 40
0.3893166624636759
 40
0.4021211109435899
 40
0.4149225700432913
 40
0.4277188771869081
 40
0.4405011253553474
 40
0.4532495880062073
 40
0.4660053571514709
 40
0.4787736625897809
 40
0.4915522924771367
 40
0.5043387202199942
 40
0.5171300478157881
 40
0.5299227338763752
 40
0.5427141111883902
 40
0.5555017693169917
 40
0.5682685667573042
 40
0.5810419758629888
 40
0.5938199335286791
 40
0.6065941684599688
 40
0.6193691192607204
 40
0.6321493131095369
 40
0.6449380885911046
 40
0.6577400230974432
 40
0.6705601439193111
 40
0.6834034616590867
 40
0.696225180008055
 40
0.7090163489709431
 40
0.72180882186867
 40
0.7346070502173908
 40
0.7474142266221228
 40
0.7602349552067458
 40
0.7730739740792743
 40
0.7859363056465201
 40
0.7988274372249137
 40
0.8117525275661405
 40
0.8246708859941366
 40
0.837553983205796
 40
0.8505224138877874
 40
0.8635737024094146
 40
0.8767078421925075
 40
0.8899275130940613
 40
0.9032380027236923
 40
0.9166440892178452
 40
0.9301375680298212
 40
0.9436486250110785
 40
0.9568409597161512
 40
0.9680442919583201
 40
0.9785723428335718
 40
0.9886104531279339
 40
0.999250251479658
 40
1.0
 40
1.0
 40
1.0
 40
1.0
 10
12.8505069346046
 20
465.366484453055
 30
0.0
 10
12.85252154781673
 20
465.2920106879126
 30
0.0
 10
12.85751607924825
 20
465.1570469413494
 30
0.0
 10
12.91559690368027
 20
464.9338195333416
 30
0.0
 10
13.0112676774149
 20
464.7145055124344
 30
0.0
 10
13.1469617922613
 20
464.4994987617356
 30
0.0
 10
13.32398763996525
 20
464.2883678484029
 30
0.0
 10
13.54618473635668
 20
464.0794147062994
 30
0.0
 10
13.81461712712732
 20
463.8731420155639
 30
0.0
 10
14.12894034561501
 20
463.6709078694989
 30
0.0
 10
14.48508653396572
 20
463.4749350232975
 30
0.0
 10
14.87965586316224
 20
463.2859165676953
 30
0.0
 10
15.31093115167384
 20
463.1035225066958
 30
0.0
 10
15.77825625724107
 20
462.9271397262582
 30
0.0
 10
16.28127428361528
 20
462.7562726680868
 30
0.0
 10
16.81969506249251
 20
462.590579790561
 30
0.0
 10
17.39259475064225
 20
462.4300292425398
 30
0.0
 10
17.99833695668035
 20
462.2747735304051
 30
0.0
 10
18.63575312493582
 20
462.1248915048371
 30
0.0
 10
19.30422262981002
 20
461.980365124796
 30
0.0
 10
20.00364463074681
 20
461.8411114128338
 30
0.0
 10
20.73330133196246
 20
461.7072058387212
 30
0.0
 10
21.49241585007768
 20
461.5787426057088
 30
0.0
 10
22.28015788222595
 20
461.4558296183176
 30
0.0
 10
23.09561658305959
 20
461.3385862246577
 30
0.0
 10
23.93779163815737
 20
461.2271477757902
 30
0.0
 10
24.80418634750602
 20
461.1218022915068
 30
0.0
 10
25.69283767780825
 20
461.0228145027205
 30
0.0
 10
26.6021226673322
 20
460.9303024743876
 30
0.0
 10
27.53178413745315
 20
460.8442566704476
 30
0.0
 10
28.48101007449411
 20
460.7647512070558
 30
0.0
 10
29.44811747334514
 20
460.6919325603111
 30
0.0
 10
30.4313674915405
 20
460.6259364603028
 30
0.0
 10
31.42898034385917
 20
460.5668858460115
 30
0.0
 10
32.43917220921726
 20
460.5148891375439
 30
0.0
 10
33.45995898576725
 20
460.4700479973408
 30
0.0
 10
34.48886154471653
 20
460.4324653865727
 30
0.0
 10
35.52450458051374
 20
460.4021558399261
 30
0.0
 10
36.56590952955217
 20
460.3791147776371
 30
0.0
 10
37.61260278651672
 20
460.3633526306787
 30
0.0
 10
38.66292163871789
 20
460.3549060863099
 30
0.0
 10
39.71497164094392
 20
460.3538029364298
 30
0.0
 10
40.76681433614194
 20
460.3600564226514
 30
0.0
 10
41.81650302549285
 20
460.3736649905175
 30
0.0
 10
42.86210546004656
 20
460.3946101382629
 30
0.0
 10
43.90131966107182
 20
460.4228548978189
 30
0.0
 10
44.93269200580318
 20
460.4583379992815
 30
0.0
 10
45.95485060478129
 20
460.5009624115734
 30
0.0
 10
46.96657104109359
 20
460.5507142351004
 30
0.0
 10
47.96605059509928
 20
460.6075169400606
 30
0.0
 10
48.95168159798614
 20
460.6712897917807
 30
0.0
 10
49.92217549267598
 20
460.7419592186332
 30
0.0
 10
50.87626083233133
 20
460.8194455863372
 30
0.0
 10
51.81269598923785
 20
460.9036633515195
 30
0.0
 10
52.73029452720326
 20
460.9945261702331
 30
0.0
 10
53.62674654690968
 20
461.0918140474383
 30
0.0
 10
54.49954514515113
 20
461.1952440522571
 30
0.0
 10
55.34683720501766
 20
461.3045946520236
 30
0.0
 10
56.16793932302875
 20
461.4197683425296
 30
0.0
 10
56.96238171386111
 20
461.5407191883694
 30
0.0
 10
57.72912246893242
 20
461.6673214068222
 30
0.0
 10
58.46715482625027
 20
461.7994502939056
 30
0.0
 10
59.17553064053587
 20
461.9369899985067
 30
0.0
 10
59.85336071697077
 20
462.0798335962269
 30
0.0
 10
60.49973059167888
 20
462.2278857039398
 30
0.0
 10
61.11326081936475
 20
462.3808841488841
 30
0.0
 10
61.69145536238997
 20
462.5385332970206
 30
0.0
 10
62.23451845402677
 20
462.7008357223642
 30
0.0
 10
62.74313864836245
 20
462.8681062673797
 30
0.0
 10
63.21794450892033
 20
463.0409043713018
 30
0.0
 10
63.65800114693975
 20
463.2194266634182
 30
0.0
 10
64.06254058183634
 20
463.4041104363447
 30
0.0
 10
64.43092505977465
 20
463.5957413007126
 30
0.0
 10
64.76251270727091
 20
463.7956335988258
 30
0.0
 10
65.05615347004436
 20
464.0054863117696
 30
0.0
 10
65.30872854066361
 20
464.2268999568253
 30
0.0
 10
65.50814025942678
 20
464.4507742072389
 30
0.0
 10
65.65650528828328
 20
464.6733100048738
 30
0.0
 10
65.76021398903988
 20
464.8917044248471
 30
0.0
 10
65.82247473008185
 20
465.1165143124281
 30
0.0
 10
65.84863293191904
 20
465.2846635261779
 30
0.0
 10
65.84179491733119
 20
465.3659541905101
 30
0.0
 10
65.84126655807086
 20
465.3721710993231
 30
0.0
  0
ARC
  5
34A
330
75
100
AcDbEntity
  8
$DDT_AUDIT_GENERATED_(335)
  6
Continuous
 62
     7
100
AcDbCircle
 10
13.6441441524
 20
494.0358034842
 30
0.0
 40
0.7924402187381225
100
AcDbArc
 50
94.4890064034
 51
180.492566876
  0
ARC
  5
34B
330
75
100
AcDbEntity
  8
$DDT_AUDIT_GENERATED_(335)
  6
Continuous
 62
     7
100
AcDbCircle
 10
65.0452399386
 20
494.0324262403
 30
0.0
 40
0.795963341338856
100
AcDbArc
 50
359.7522937227
 51
86.3110507277
  0
ARC
  5
34C
330
75
100
AcDbEntity
  8
$DDT_AUDIT_GENERATED_(335)
  6
Continuous
 62
     7
100
AcDbCircle
 10
48.8711889532
 20
495.7398704828
 30
0.0
 40
0.5999999999999248
100
AcDbArc
 50
210.9947452581
 51
269.4169861059
  0
ARC
  5
34D
330
75
100
AcDbEntity
  8
$DDT_AUDIT_GENERATED_(335)
  6
Continuous
 62
     7
100
AcDbCircle
 10
29.8207426996
 20
495.739870354
 30
0.0
 40
0.5999999999998784
100
AcDbArc
 50
270.5624530247
 51
329.0117394773
  0
LINE
  5
34E
330
75
100
AcDbEntity
  8
$DDT_AUDIT_GENERATED_(335)
  6
Continuous
 62
     7
100
AcDbLine
 10
12.8459269072
 20
494.0285865636
 30
0.0
 11
12.8459269072
 21
465.3692603479
 31
0.0
  0
LINE
  5
34F
330
75
100
AcDbEntity
  8
$DDT_AUDIT_GENERATED_(335)
  6
Continuous
 62
     7
100
AcDbLine
 10
65.8459767746
 20
465.3692603479
 30
0.0
 11
65.8459767746
 21
494.0285884958
 31
0.0
  0
ENDBLK
  5
351
330
75
100
AcDbEntity
  8
0
100
AcDbBlockEnd
  0
BLOCK
  5
39C
330
352
100
AcDbEntity
  8
0
100
AcDbBlockBegin
  2
SE1
 70
     0
 10
0.0
 20
0.0
 30
0.0
  3
SE1
  1

  0
ARC
  5
354
330
352
100
AcDbEntity
  8
$DDT_AUDIT_GENERATED_(77)
  6
Continuous
 62
     7
100
AcDbCircle
 10
184.3082724649
 20
454.3158351745
 30
0.0
 40
26.30000000000001
100
AcDbArc
 50
145.8788392107
 51
147.1411943503
  0
ARC
  5
355
330
352
100
AcDbEntity
  8
$DDT_AUDIT_GENERATED_(77)
  6
Continuous
 62
     7
100
AcDbCircle
 10
184.3082724649
 20
454.3158351745
 30
0.0
 40
26.30000000000001
100
AcDbArc
 50
12.8588056497
 51
14.0860598536
  0
ARC
  5
356
330
352
100
AcDbEntity
  8
$DDT_AUDIT_GENERATED_(77)
  6
Continuous
 62
     7
100
AcDbCircle
 10
162.4680078512
 20
468.4226718717
 30
0.0
 40
0.2999999999999982
100
AcDbArc
 50
147.1411943503
 51
260.0
  0
ARC
  5
357
330
352
100
AcDbEntity
  8
$DDT_AUDIT_GENERATED_(77)
  6
Continuous
 62
     7
100
AcDbCircle
 10
209.6562302675
 20
460.1021150881
 30
0.0
 40
0.299999999999996
100
AcDbArc
 50
260.0
 51
12.8588056497
  0
SPLINE
  5
358
330
352
100
AcDbEntity
  8
$DDT_AUDIT_GENERATED_(7A)
  6
Continuous
 62
     7
100
AcDbSpline
210
0.0
220
0.0
230
1.0
 70
     8
 71
     3
 72
    29
 73
    25
 74
     0
 42
0.0000000002031949
 43
0.0000000001
 40
0.0
 40
0.0
 40
0.0
 40
0.0
 40
0.0160331730194177
 40
0.032161633354919
 40
0.0485082718248019
 40
0.0651911584602182
 40
0.097891902234502
 40
0.1323535376217164
 40
0.2006956354657625
 40
0.2690096389016181
 40
0.3370377236917571
 40
0.4038465548393126
 40
0.4698294050446573
 40
0.5337114880125554
 40
0.5946072988289801
 40
0.6527540403282367
 40
0.7089847730616167
 40
0.7646691359299677
 40
0.8210546003774332
 40
0.8788241679746854
 40
0.9093616526644654
 40
0.9388630065605751
 40
0.9696320215748698
 40
1.0
 40
1.0
 40
1.0
 40
1.0
 10
199.364343904547
 20
395.7337973264117
 30
0.0
 10
199.361646476684
 20
395.7434569353626
 30
0.0
 10
199.3562355897793
 20
395.7628335616274
 30
0.0
 10
199.3127480601858
 20
395.9195553204781
 30
0.0
 10
199.2438301428353
 20
396.1695614454107
 30
0.0
 10
199.1175316036785
 20
396.631047596859
 30
0.0
 10
198.8994692849624
 20
397.4356421252776
 30
0.0
 10
198.4600444776176
 20
399.121769559182
 30
0.0
 10
197.8042549031423
 20
401.8202178164979
 30
0.0
 10
197.0424164237983
 20
405.5773503772597
 30
0.0
 10
196.4403263248383
 20
409.6497317031906
 30
0.0
 10
196.1366848333885
 20
413.9056335258887
 30
0.0
 10
196.2588612063171
 20
418.2033738818821
 30
0.0
 10
196.8916246733206
 20
422.377463574733
 30
0.0
 10
197.9952178045042
 20
426.2490725598903
 30
0.0
 10
199.4373959624974
 20
429.7299357272249
 30
0.0
 10
201.0809472036931
 20
432.822415058598
 30
0.0
 10
202.810608224355
 20
435.5588609872896
 30
0.0
 10
204.5136375405869
 20
437.9453105347105
 30
0.0
 10
205.7866886750364
 20
439.5859904636429
 30
0.0
 10
206.6029461603146
 20
440.6038220422863
 30
0.0
 10
207.0817668273323
 20
441.1886472314196
 30
0.0
 10
207.3986546791981
 20
441.57000825937
 30
0.0
 10
207.4391174004885
 20
441.6181737766647
 30
0.0
 10
207.4592160507171
 20
441.6420985611161
 30
0.0
  0
SPLINE
  5
359
330
352
100
AcDbEntity
  8
$DDT_AUDIT_GENERATED_(7A)
  6
Continuous
 62
     7
100
AcDbSpline
210
0.0
220
0.0
230
1.0
 70
     8
 71
     3
 72
     9
 73
     5
 74
     0
 42
0.0000000031269244
 43
0.0000000001
 40
0.0
 40
0.0
 40
0.0
 40
0.0
 40
0.0169472885695009
 40
0.0235375220987837
 40
0.0235375220987837
 40
0.0235375220987837
 40
0.0235375220987837
 10
212.5213754847901
 20
406.7738576727815
 30
0.0
 10
212.5152670446769
 20
406.7785769909052
 30
0.0
 10
212.5067832365702
 20
406.7851314939556
 30
0.0
 10
212.4731710018581
 20
406.8114271063815
 30
0.0
 10
212.4620279274121
 20
406.8201605641233
 30
0.0
  0
SPLINE
  5
35A
330
352
100
AcDbEntity
  8
$DDT_AUDIT_GENERATED_(7A)
  6
Continuous
 62
     7
100
AcDbSpline
210
0.0
220
0.0
230
1.0
 70
    12
 71
     2
 72
     6
 73
     3
 74
     0
 42
0.0000000004460156
 43
0.0000000001
 40
0.0
 40
0.0
 40
0.0
 40
1.0
 40
1.0
 40
1.0
 10
199.364343904547
 20
395.7337973264117
 30
0.0
 41
1.0
 10
201.3110044122616
 20
406.7738576727815
 30
0.0
 41
0.7660444431189772
 10
212.5213754847901
 20
406.7738576727815
 30
0.0
 41
1.0
  0
SPLINE
  5
35B
330
352
100
AcDbEntity
  8
$DDT_AUDIT_GENERATED_(7A)
  6
Continuous
 62
     7
100
AcDbSpline
210
0.0
220
0.0
230
1.0
 70
    12
 71
     2
 72
     6
 73
     3
 74
     0
 42
0.0000000012576007
 43
0.0000000001
 40
0.0
 40
0.0
 40
0.0
 40
0.1025215874252293
 40
0.1025215874252293
 40
0.1025215874252293
 10
212.3832548157781
 20
435.7738576727815
 30
0.0
 41
1.0
 10
211.9756469462678
 20
435.7738576727815
 30
0.0
 41
0.9633780186971034
 10
211.5734210433273
 20
435.8398765965107
 30
0.0
 41
0.9342651247098668
  0
SPLINE
  5
35C
330
352
100
AcDbEntity
  8
$DDT_AUDIT_GENERATED_(7A)
  6
Continuous
 62
     7
100
AcDbSpline
210
0.0
220
0.0
230
1.0
 70
    12
 71
     2
 72
     6
 73
     3
 74
     0
 42
0.0000000012400889
 43
0.0000000001
 40
0.9124896003071068
 40
0.9124896003071068
 40
0.9124896003071068
 40
0.9362827943159168
 40
0.9362827943159168
 40
0.9362827943159168
 10
207.3865583288622
 20
440.9555833386695
 30
0.0
 41
0.9429515169154778
 10
207.3900450418515
 20
441.0514533769455
 30
0.0
 41
0.9499631996935353
 10
207.397206691197
 20
441.1471191084545
 30
0.0
 41
0.9573793298286711
  0
LINE
  5
35D
330
352
100
AcDbEntity
  8
$DDT_AUDIT_GENERATED_(7A)
  6
Continuous
 62
     7
100
AcDbLine
 10
250.6320991515
 20
407.1224514525
 30
0.0
 11
281.6415276308
 21
433.1424514525
 31
0.0
  0
LINE
  5
35E
330
352
100
AcDbEntity
  8
$DDT_AUDIT_GENERATED_(7A)
  6
Continuous
 62
     7
100
AcDbLine
 10
190.7461766844
 20
346.8577422522
 30
0.0
 11
139.9748460901
 21
346.8577422522
 31
0.0
  0
ARC
  5
35F
330
352
100
AcDbEntity
  8
$DDT_AUDIT_GENERATED_(7A)
  6
Continuous
 62
     7
100
AcDbCircle
 10
37.8254300451
 20
416.831656581
 30
0.0
 40
112.8895895374459
100
AcDbArc
 50
347.1340081945
 51
352.8659784014
  0
LINE
  5
360
330
352
100
AcDbEntity
  8
$DDT_AUDIT_GENERATED_(7A)
  6
Continuous
 62
     7
100
AcDbLine
 10
210.444023572
 20
458.5697831915
 30
0.0
 11
161.2036359214
 21
467.2521920748
 31
0.0
  0
LINE
  5
361
330
352
100
AcDbEntity
  8
$DDT_AUDIT_GENERATED_(7A)
  6
Continuous
 62
     7
100
AcDbLine
 10
210.1378145548
 20
459.7125708011
 30
0.0
 11
161.8822346572
 21
468.2213315068
 31
0.0
  0
ARC
  5
362
330
352
100
AcDbEntity
  8
$DDT_AUDIT_GENERATED_(7A)
  6
Continuous
 62
     7
100
AcDbCircle
 10
212.3534695159
 20
440.7228837761
 30
0.0
 40
5.062454134516642
100
AcDbArc
 50
261.7374086488
 51
269.2228770995
  0
ARC
  5
363
330
352
100
AcDbEntity
  8
$DDT_AUDIT_GENERATED_(7A)
  6
Continuous
 62
     7
100
AcDbCircle
 10
212.4951878956
 20
393.4558456205
 30
0.0
 40
13.42031981594612
100
AcDbArc
 50
165.1997338444
 51
169.3298280301
  0
ARC
  5
364
330
352
100
AcDbEntity
  8
$DDT_AUDIT_GENERATED_(7A)
  6
Continuous
 62
     7
100
AcDbCircle
 10
212.158435934
 20
393.846392246
 30
0.0
 40
12.91774961062897
100
AcDbArc
 50
90.7873046551
 51
169.2126875554
  0
ARC
  5
365
330
352
100
AcDbEntity
  8
$DDT_AUDIT_GENERATED_(7A)
  6
Continuous
 62
     7
100
AcDbCircle
 10
212.1076361315
 20
440.5425861365
 30
0.0
 40
4.749579107063355
100
AcDbArc
 50
172.5693951581
 51
267.430604838
  0
LINE
  5
366
330
352
100
AcDbEntity
  8
$DDT_AUDIT_GENERATED_(7A)
  6
Continuous
 62
     7
100
AcDbLine
 10
212.5213754848
 20
406.7738576728
 30
0.0
 11
249.674345613
 21
406.7738576728
 31
0.0
  0
LINE
  5
367
330
352
100
AcDbEntity
  8
$DDT_AUDIT_GENERATED_(7A)
  6
Continuous
 62
     7
100
AcDbLine
 10
280.6837740923
 20
435.7738576728
 30
0.0
 11
212.3832548158
 21
435.7738576728
 31
0.0
  0
ARC
  5
368
330
352
100
AcDbEntity
  8
$DDT_AUDIT_GENERATED_(7A)
  6
Continuous
 62
     7
100
AcDbCircle
 10
280.6837740923
 20
434.2838576728
 30
0.0
 40
1.489999999999997
100
AcDbArc
 50
310.0
 51
90.1831023929
  0
ARC
  5
369
330
352
100
AcDbEntity
  8
$DDT_AUDIT_GENERATED_(7A)
  6
Continuous
 62
     7
100
AcDbCircle
 10
249.674345613
 20
408.2638576728
 30
0.0
 40
1.489999999999998
100
AcDbArc
 50
269.980284077
 51
310.0
  0
LINE
  5
36A
330
352
100
AcDbEntity
  8
$DDT_AUDIT_GENERATED_(7A)
  6
Continuous
 62
     7
100
AcDbLine
 10
147.8847847769
 20
391.7172337208
 30
0.0
 11
139.9748460901
 21
346.8577422522
 31
0.0
  0
LINE
  5
36B
330
352
100
AcDbEntity
  8
$DDT_AUDIT_GENERATED_(7A)
  6
Continuous
 62
     7
100
AcDbLine
 10
161.2036359214
 20
467.2521920748
 30
0.0
 11
149.837645057
 21
402.7924547239
 31
0.0
  0
LINE
  5
36C
330
352
100
AcDbEntity
  8
$DDT_AUDIT_GENERATED_(7A)
  6
Continuous
 62
     7
100
AcDbLine
 10
207.4592160507
 20
441.6420985611
 30
0.0
 11
210.444023572
 21
458.5697831915
 31
0.0
  0
LINE
  5
36D
330
352
100
AcDbEntity
  8
$DDT_AUDIT_GENERATED_(7A)
  6
Continuous
 62
     7
100
AcDbLine
 10
190.7461766844
 20
346.8577422522
 30
0.0
 11
199.3643439045
 21
395.7337973264
 31
0.0
  0
LINE
  5
36E
330
352
100
AcDbEntity
  8
$DDT_AUDIT_GENERATED_(7A)
  6
Continuous
 62
     7
100
AcDbLine
 10
210.444023572
 20
458.5697831915
 30
0.0
 11
210.1378145548
 21
459.7125708011
 31
0.0
  0
LINE
  5
36F
330
352
100
AcDbEntity
  8
$DDT_AUDIT_GENERATED_(7A)
  6
Continuous
 62
     7
100
AcDbLine
 10
161.8822346572
 20
468.2213315068
 30
0.0
 11
161.2036359214
 21
467.2521920748
 31
0.0
  0
LINE
  5
370
330
352
100
AcDbEntity
  8
$DDT_AUDIT_GENERATED_(31F)
  6
Continuous
 62
     7
100
AcDbLine
 10
262.2727913735
 20
408.0133824352
 30
0.0
 11
278.7427469005
 21
421.8333160435
 31
0.0
  0
SPLINE
  5
371
330
352
100
AcDbEntity
  8
$DDT_AUDIT_GENERATED_(31F)
  6
Continuous
 62
     7
100
AcDbSpline
210
0.0
220
0.0
230
1.0
 70
     8
 71
     3
 72
    10
 73
     6
 74
     0
 42
0.0000000019260148
 43
0.0000000001
 40
0.0
 40
0.0
 40
0.0
 40
0.0
 40
0.5
 40
0.5
 40
1.0
 40
1.0
 40
1.0
 40
1.0
 10
272.2850332378996
 20
416.8291733783562
 30
0.0
 10
271.6977116923536
 20
416.1875921831937
 30
0.0
 10
271.0752848860929
 20
415.5879576073622
 30
0.0
 10
269.7543541843103
 20
414.4795915465203
 30
0.0
 10
269.0558513135508
 20
413.9708588370406
 30
0.0
 10
268.3222800766259
 20
413.504028662285
 30
0.0
  0
LINE
  5
372
330
352
100
AcDbEntity
  8
$DDT_AUDIT_GENERATED_(31F)
  6
Continuous
 62
     7
100
AcDbLine
 10
271.8510528934
 20
419.9667200119
 30
0.0
 11
265.3077597224
 21
414.4762451255
 31
0.0
  0
LINE
  5
373
330
352
100
AcDbEntity
  8
$DDT_AUDIT_GENERATED_(31F)
  6
Continuous
 62
     7
100
AcDbLine
 10
271.8510528934
 20
419.9667200119
 30
0.0
 11
273.0186328435
 21
418.5752524117
 31
0.0
  0
SPLINE
  5
374
330
352
100
AcDbEntity
  8
$DDT_AUDIT_GENERATED_(31F)
  6
Continuous
 62
     7
100
AcDbSpline
210
0.0
220
0.0
230
1.0
 70
     8
 71
     3
 72
    14
 73
    10
 74
     0
 42
0.0000000049320844
 43
0.0000000001
 40
0.0
 40
0.0
 40
0.0
 40
0.0
 40
0.1249999999999997
 40
0.1249999999999997
 40
0.2499999999999994
 40
0.2499999999999994
 40
0.4999999999999996
 40
0.4999999999999996
 40
1.0
 40
1.0
 40
1.0
 40
1.0
 10
273.0186328435225
 20
418.5752524117133
 30
0.0
 10
273.0729003102203
 20
418.5105789633151
 30
0.0
 10
273.1022740136389
 20
418.425517227736
 30
0.0
 10
273.1183345127032
 20
418.2573076521161
 30
0.0
 10
273.1078992910756
 20
418.1715056375181
 30
0.0
 10
273.0500268333805
 20
417.9256817730331
 30
0.0
 10
272.9764218778493
 20
417.770726660109
 30
0.0
 10
272.7259183586223
 20
417.3368409828643
 30
0.0
 10
272.5106005478453
 20
417.0755797045026
 30
0.0
 10
272.2850332378996
 20
416.8291733783562
 30
0.0
  0
SPLINE
  5
375
330
352
100
AcDbEntity
  8
$DDT_AUDIT_GENERATED_(31F)
  6
Continuous
 62
     7
100
AcDbSpline
210
0.0
220
0.0
230
1.0
 70
     8
 71
     3
 72
    14
 73
    10
 74
     0
 42
0.0000000049319876
 43
0.0000000001
 40
0.0
 40
0.0
 40
0.0
 40
0.0
 40
0.4999999999999996
 40
0.4999999999999996
 40
0.7499999999999993
 40
0.7499999999999993
 40
0.8749999999999997
 40
0.8749999999999997
 40
1.0
 40
1.0
 40
1.0
 40
1.0
 10
268.3222800766259
 20
413.504028662285
 30
0.0
 10
268.0392385407505
 20
413.3239066468557
 30
0.0
 10
267.7469632870023
 20
413.1583752658934
 30
0.0
 10
267.2737579302948
 20
412.9862294751273
 30
0.0
 10
267.1096783252966
 20
412.9412529335364
 30
0.0
 10
266.8591991510113
 20
412.9267653715766
 30
0.0
 10
266.772482788914
 20
412.9311557697669
 30
0.0
 10
266.6087419979834
 20
412.976131899233
 30
0.0
 10
266.5298644486642
 20
413.0197974274432
 30
0.0
 10
266.4753396725503
 20
413.0847775252658
 30
0.0
  0
LINE
  5
376
330
352
100
AcDbEntity
  8
$DDT_AUDIT_GENERATED_(31F)
  6
Continuous
 62
     7
100
AcDbLine
 10
266.4753396726
 20
413.0847775253
 30
0.0
 11
265.3077597224
 21
414.4762451255
 31
0.0
  0
LINE
  5
377
330
352
100
AcDbEntity
  8
$DDT_AUDIT_GENERATED_(31F)
  6
Continuous
 62
     7
100
AcDbLine
 10
261.64735445
 20
407.9031010309
 30
0.0
 11
262.2727913735
 21
408.0133824352
 31
0.0
  0
LINE
  5
378
330
352
100
AcDbEntity
  8
$DDT_AUDIT_GENERATED_(31F)
  6
Continuous
 62
     7
100
AcDbLine
 10
278.7427469005
 20
421.8333160435
 30
0.0
 11
278.9599588645
 21
422.4301010098
 31
0.0
  0
ARC
  5
379
330
352
100
AcDbEntity
  8
$DDT_AUDIT_GENERATED_(31F)
  6
Continuous
 62
     7
100
AcDbCircle
 10
278.0202662437
 20
422.7721211531
 30
0.0
 40
1.000000000000006
100
AcDbArc
 50
340.0
 51
40.0
  0
ARC
  5
37A
330
352
100
AcDbEntity
  8
$DDT_AUDIT_GENERATED_(31F)
  6
Continuous
 62
     7
100
AcDbCircle
 10
261.4737062724
 20
408.8879087839
 30
0.0
 40
0.9999999999999886
100
AcDbArc
 50
220.0
 51
280.0
  0
LINE
  5
37B
330
352
100
AcDbEntity
  8
$DDT_AUDIT_GENERATED_(31F)
  6
Continuous
 62
     7
100
AcDbLine
 10
257.0974889623
 20
412.5475576582
 30
0.0
 11
260.7076618292
 21
408.2451211742
 31
0.0
  0
LINE
  5
37C
330
352
100
AcDbEntity
  8
$DDT_AUDIT_GENERATED_(31F)
  6
Continuous
 62
     7
100
AcDbLine
 10
278.7863106868
 20
423.4149087628
 30
0.0
 11
275.1761378199
 21
427.7173452468
 31
0.0
  0
LINE
  5
37E
330
352
100
AcDbEntity
  8
$DDT_AUDIT_GENERATED_(37D)
  6
Continuous
 62
     7
100
AcDbLine
 10
128.6531692042
 20
409.5881911998
 30
0.0
 11
128.6531692042
 21
413.5881911998
 31
0.0
  0
LINE
  5
37F
330
352
100
AcDbEntity
  8
$DDT_AUDIT_GENERATED_(37D)
  6
Continuous
 62
     7
100
AcDbLine
 10
142.0235416202
 20
413.5881911998
 30
0.0
 11
128.6531692042
 21
413.5881911998
 31
0.0
  0
LINE
  5
380
330
352
100
AcDbEntity
  8
$DDT_AUDIT_GENERATED_(37D)
  6
Continuous
 62
     7
100
AcDbLine
 10
128.6531692042
 20
409.5881911998
 30
0.0
 11
142.0235416202
 21
409.5881911998
 31
0.0
  0
ARC
  5
381
330
352
100
AcDbEntity
  8
$DDT_AUDIT_GENERATED_(37D)
  6
Continuous
 62
     7
100
AcDbCircle
 10
142.0235416202
 20
408.5881911998
 30
0.0
 40
1.000000000000001
100
AcDbArc
 50
18.0
 51
90.0
  0
ARC
  5
382
330
352
100
AcDbEntity
  8
$DDT_AUDIT_GENERATED_(37D)
  6
Continuous
 62
     7
100
AcDbCircle
 10
142.0235416202
 20
408.5881911998
 30
0.0
 40
5.000000000000002
100
AcDbArc
 50
18.0
 51
90.0
  0
LINE
  5
383
330
352
100
AcDbEntity
  8
$DDT_AUDIT_GENERATED_(37D)
  6
Continuous
 62
     7
100
AcDbLine
 10
149.6400521139
 20
401.3273221298
 30
0.0
 11
146.7788242016
 21
410.1332761716
 31
0.0
  0
LINE
  5
384
330
352
100
AcDbEntity
  8
$DDT_AUDIT_GENERATED_(37D)
  6
Continuous
 62
     7
100
AcDbLine
 10
142.9745981365
 20
408.8972081941
 30
0.0
 11
148.1608407695
 21
392.9355946225
 31
0.0
  0
LINE
  5
385
330
352
100
AcDbEntity
  8
$DDT_AUDIT_GENERATED_(331)
  6
Continuous
 62
     7
100
AcDbLine
 10
215.1591765424
 20
476.2096670372
 30
0.0
 11
214.0244505827
 21
468.6170383529
 31
0.0
  0
LINE
  5
386
330
352
100
AcDbEntity
  8
$DDT_AUDIT_GENERATED_(331)
  6
Continuous
 62
     7
100
AcDbLine
 10
213.7673323192
 20
468.7937508395
 30
0.0
 11
214.0244505827
 21
468.6170383529
 31
0.0
  0
LINE
  5
387
330
352
100
AcDbEntity
  8
$DDT_AUDIT_GENERATED_(331)
  6
Continuous
 62
     7
100
AcDbLine
 10
215.1591765424
 20
476.2096670372
 30
0.0
 11
215.084061354
 21
476.2612922759
 31
0.0
  0
SPLINE
  5
388
330
352
100
AcDbEntity
  8
$DDT_AUDIT_GENERATED_(335)
  6
Continuous
 62
     7
100
AcDbSpline
210
0.0
220
0.0
230
1.0
 70
     8
 71
     3
 72
    16
 73
    12
 74
     0
 42
0.0000000013199166
 43
0.0000000001
 40
0.0337140501083857
 40
0.0337140501083857
 40
0.0337140501083857
 40
0.0337140501083857
 40
0.125
 40
0.125
 40
0.25
 40
0.25
 40
0.375
 40
0.375
 40
0.5
 40
0.5
 40
0.5011351339437063
 40
0.5011351339437063
 40
0.5011351339437063
 40
0.5011351339437063
 10
288.1346042253704
 20
495.9700125326739
 30
0.0
 10
288.5477556752448
 20
496.0253299951206
 30
0.0
 10
288.9312928133622
 20
496.079795552188
 30
0.0
 10
289.7671616743895
 20
496.2032720299683
 30
0.0
 10
290.1967197188484
 20
496.2709449263545
 30
0.0
 10
290.8945753807779
 20
496.3843872966661
 30
0.0
 10
291.1647770051721
 20
496.4303333628379
 30
0.0
 10
291.5354267495683
 20
496.494016284329
 30
0.0
 10
291.6327514988012
 20
496.5111868387798
 30
0.0
 10
291.633996234374
 20
496.5113860267587
 30
0.0
 10
291.6339994732532
 20
496.5113863833138
 30
0.0
 10
291.6339947558969
 20
496.5113853062235
 30
0.0
  0
LINE
  5
389
330
352
100
AcDbEntity
  8
$DDT_AUDIT_GENERATED_(335)
  6
Continuous
 62
     7
100
AcDbLine
 10
160.5628388598
 20
469.3918119012
 30
0.0
 11
211.7728273076
 21
460.3621092561
 31
0.0
  0
LINE
  5
38A
330
352
100
AcDbEntity
  8
$DDT_AUDIT_GENERATED_(335)
  6
Continuous
 62
     7
100
AcDbLine
 10
215.4118042145
 20
494.8232845683
 30
0.0
 11
215.5280036013
 21
494.822828465
 31
0.0
  0
ARC
  5
38B
330
352
100
AcDbEntity
  8
$DDT_AUDIT_GENERATED_(335)
  6
Continuous
 62
     7
100
AcDbCircle
 10
246.8784876648
 20
491.1253462113
 30
0.0
 40
30.88498195365205
100
AcDbArc
 50
174.8542628871
 51
191.5285713421
  0
SPLINE
  5
38C
330
352
100
AcDbEntity
  8
$DDT_AUDIT_GENERATED_(335)
  6
Continuous
 62
     7
100
AcDbSpline
210
0.0
220
0.0
230
1.0
 70
     8
 71
     3
 72
    13
 73
     9
 74
     0
 42
0.0000000084173657
 43
0.0000000001
 40
0.0
 40
0.0
 40
0.0
 40
0.0
 40
0.1227123657799087
 40
0.246918307043878
 40
0.3738803047770498
 40
0.5045968901529397
 40
0.7083276423478246
 40
1.0
 40
1.0
 40
1.0
 40
1.0
 10
216.6248582250104
 20
494.4108429503027
 30
0.0
 10
216.5837944096488
 20
494.4324788363647
 30
0.0
 10
216.5011669767457
 20
494.4760139464891
 30
0.0
 10
216.3755695802164
 20
494.5475749552647
 30
0.0
 10
216.243997653694
 20
494.6198416255809
 30
0.0
 10
216.0790772767415
 20
494.7009248497785
 30
0.0
 10
215.8418515974937
 20
494.7931488721622
 30
0.0
 10
215.6443085666617
 20
494.8118298794923
 30
0.0
 10
215.5280036012804
 20
494.8228284649735
 30
0.0
  0
SPLINE
  5
38D
330
352
100
AcDbEntity
  8
$DDT_AUDIT_GENERATED_(335)
  6
Continuous
 62
     7
100
AcDbSpline
210
0.0
220
0.0
230
1.0
 70
     8
 71
     3
 72
    20
 73
    16
 74
     0
 42
0.0000000066635694
 43
0.0000000001
 40
0.0
 40
0.0
 40
0.0
 40
0.0
 40
0.0859505943479587
 40
0.1860607120379972
 40
0.295256261394733
 40
0.3531905447642111
 40
0.4658187713436626
 40
0.5448739767692237
 40
0.6287690599985957
 40
0.6879828536734401
 40
0.7746164305469555
 40
0.8168926760829371
 40
0.8793534872233781
 40
0.9402052081317998
 40
1.0
 40
1.0
 40
1.0
 40
1.0
 10
217.9171392238435
 20
493.7963004257178
 30
0.0
 10
217.8731962643167
 20
493.8030759190062
 30
0.0
 10
217.7780711706434
 20
493.8177431021147
 30
0.0
 10
217.6281403332259
 20
493.8402986306571
 30
0.0
 10
217.4944525540922
 20
493.8615830896807
 30
0.0
 10
217.357187749113
 20
493.8851604470068
 30
0.0
 10
217.2382060767056
 20
493.9118183733502
 30
0.0
 10
217.1133782599444
 20
493.9511879079067
 30
0.0
 10
217.0226620649839
 20
494.0092678518683
 30
0.0
 10
216.9559686752061
 20
494.1040767384183
 30
0.0
 10
216.8998710891413
 20
494.1814086215751
 30
0.0
 10
216.837457437802
 20
494.2570350296841
 30
0.0
 10
216.7754543272588
 20
494.3139679689605
 30
0.0
 10
216.7015494380763
 20
494.368937411744
 30
0.0
 10
216.6502722239417
 20
494.396956257557
 30
0.0
 10
216.6248582250104
 20
494.4108429503027
 30
0.0
  0
ARC
  5
38E
330
352
100
AcDbEntity
  8
$DDT_AUDIT_GENERATED_(335)
  6
Continuous
 62
     7
100
AcDbCircle
 10
191.5123965082
 20
-414.5742806126
 30
0.0
 40
909.7141591635683
100
AcDbArc
 50
88.4872690073
 51
91.53768364
  0
ELLIPSE
  5
38F
330
352
100
AcDbEntity
  8
$DDT_AUDIT_GENERATED_(335)
  6
Continuous
 62
     7
100
AcDbEllipse
 10
216.9966211765
 20
494.739207445
 30
0.0
 11
-0.4650527831325176
 21
-0.4702909829204238
 31
0.0
210
0.0
220
0.0
230
1.0
 40
0.0762536961
 41
4.635428691256417
 42
5.557795530108693
  0
LINE
  5
390
330
352
100
AcDbEntity
  8
$DDT_AUDIT_GENERATED_(335)
  6
Continuous
 62
     7
100
AcDbLine
 10
218.5862190594
 20
486.6054835213
 30
0.0
 11
287.7044188378
 21
486.6054835213
 31
0.0
  0
LINE
  5
391
330
352
100
AcDbEntity
  8
$DDT_AUDIT_GENERATED_(335)
  6
Continuous
 62
     7
100
AcDbLine
 10
291.615974915
 20
496.511386027
 30
0.0
 11
165.5230855573
 21
496.511386027
 31
0.0
  0
ARC
  5
392
330
352
100
AcDbEntity
  8
$DDT_AUDIT_GENERATED_(335)
  6
Continuous
 62
     7
100
AcDbCircle
 10
218.5724443628
 20
484.6159178762
 30
0.0
 40
1.981986066671054
100
AcDbArc
 50
89.6321598384
 51
170.1690474058
  0
LINE
  5
393
330
352
100
AcDbEntity
  8
$DDT_AUDIT_GENERATED_(335)
  6
Continuous
 62
     7
100
AcDbLine
 10
288.4273777312
 20
487.063162907
 30
0.0
 11
292.357416534
 21
495.3698234139
 31
0.0
  0
SPLINE
  5
394
330
352
100
AcDbEntity
  8
$DDT_AUDIT_GENERATED_(335)
  6
Continuous
 62
     7
100
AcDbSpline
210
0.0
220
0.0
230
1.0
 70
     8
 71
     3
 72
    15
 73
    11
 74
     0
 42
0.0000000066028268
 43
0.0000000001
 40
0.0
 40
0.0
 40
0.0
 40
0.0
 40
0.0531008193307694
 40
0.2408764713904568
 40
0.4348320554781912
 40
0.6116608753158261
 40
0.7550317218083448
 40
0.876160251525159
 40
0.9772246544840467
 40
1.0
 40
1.0
 40
1.0
 40
1.0
 10
292.3491775293374
 20
495.3730121147593
 30
0.0
 10
292.3641174780341
 20
495.397899024341
 30
0.0
 10
292.4216287343288
 20
495.4954232954841
 30
0.0
 10
292.4483184144714
 20
495.725030362092
 30
0.0
 10
292.398102490277
 20
495.9994873965506
 30
0.0
 10
292.2640141224837
 20
496.2237606644416
 30
0.0
 10
292.098838947228
 20
496.3727557112981
 30
0.0
 10
291.9381743796943
 20
496.4565201396846
 30
0.0
 10
291.8173735123471
 20
496.4946412980839
 30
0.0
 10
291.7596200053234
 20
496.5003148161896
 30
0.0
 10
291.747225535914
 20
496.5014854235807
 30
0.0
  0
SPLINE
  5
395
330
352
100
AcDbEntity
  8
$DDT_AUDIT_GENERATED_(335)
  6
Continuous
 62
     7
100
AcDbSpline
210
0.0
220
0.0
230
1.0
 70
     8
 71
     3
 72
    12
 73
     8
 74
     0
 42
0.0000000109091279
 43
0.0000000001
 40
0.0
 40
0.0
 40
0.0
 40
0.0
 40
0.0755449485241806
 40
0.3969862616097563
 40
0.7016987921758262
 40
0.9462015754316591
 40
1.0
 40
1.0
 40
1.0
 40
1.0
 10
287.7047263852684
 20
486.6143754056978
 30
0.0
 10
287.729468057076
 20
486.6113794562033
 30
0.0
 10
287.8413989846896
 20
486.5985234225753
 30
0.0
 10
288.0573276309995
 20
486.6720759627526
 30
0.0
 10
288.2667950123217
 20
486.8211290926993
 30
0.0
 10
288.3872099597816
 20
486.9702675732453
 30
0.0
 10
288.4175853427623
 20
487.0490607994615
 30
0.0
 10
288.4238839850558
 20
487.0656537082141
 30
0.0
  0
ARC
  5
396
330
352
100
AcDbEntity
  8
$DDT_AUDIT_GENERATED_(335)
  6
Continuous
 62
     7
100
AcDbCircle
 10
211.8596550352
 20
460.8545124939
 30
0.0
 40
0.4999987817181509
100
AcDbArc
 50
259.9859804105
 51
350.0693952043
  0
ARC
  5
397
330
352
100
AcDbEntity
  8
$DDT_AUDIT_GENERATED_(335)
  6
Continuous
 62
     7
100
AcDbCircle
 10
160.6497672068
 20
469.8841974016
 30
0.0
 40
0.4999978683163879
100
AcDbArc
 50
169.8989254814
 51
260.0242946798
  0
ARC
  5
398
330
352
100
AcDbEntity
  8
$DDT_AUDIT_GENERATED_(335)
  6
Continuous
 62
     7
100
AcDbCircle
 10
165.5083178828
 20
495.7113860268
 30
0.0
 40
0.8000000000007694
100
AcDbArc
 50
88.9514213383
 51
170.2423295446
  0
LINE
  5
399
330
352
100
AcDbEntity
  8
$DDT_AUDIT_GENERATED_(335)
  6
Continuous
 62
     7
100
AcDbLine
 10
164.7195422046
 20
495.8450332514
 30
0.0
 11
160.1572417073
 21
469.9709413857
 31
0.0
  0
LINE
  5
39A
330
352
100
AcDbEntity
  8
$DDT_AUDIT_GENERATED_(335)
  6
Continuous
 62
     7
100
AcDbLine
 10
215.084061354
 20
476.2612922759
 30
0.0
 11
216.6166080673
 21
484.9527965889
 31
0.0
  0
LINE
  5
39B
330
352
100
AcDbEntity
  8
$DDT_AUDIT_GENERATED_(335)
  6
Continuous
 62
     7
100
AcDbLine
 10
212.3521017268
 20
460.76757931
 30
0.0
 11
213.7673323192
 21
468.7937508395
 31
0.0
  0
ENDBLK
  5
39D
330
352
100
AcDbEntity
  8
0
100
AcDbBlockEnd
  0
BLOCK
  5
3D1
330
39E
100
AcDbEntity
  8
0
100
AcDbBlockBegin
  2
SE2
 70
     0
 10
0.0
 20
0.0
 30
0.0
  3
SE2
  1

  0
ELLIPSE
  5
3A0
330
39E
100
AcDbEntity
  8
$DDT_AUDIT_GENERATED_(7A)
  6
Continuous
 62
     7
100
AcDbEllipse
 10
39.3459533648
 20
233.425362209
 30
0.0
 11
0.0
 21
-25.38566529714362
 31
0.0
210
0.0
220
0.0
230
1.0
 40
0.984807753
 41
1.570796326794897
 42
3.061507073556171
  0
ELLIPSE
  5
3A1
330
39E
100
AcDbEntity
  8
$DDT_AUDIT_GENERATED_(7A)
  6
Continuous
 62
     7
100
AcDbEllipse
 10
39.3459533648
 20
233.425362209
 30
0.0
 11
0.0
 21
-25.38566529714362
 31
0.0
210
0.0
220
0.0
230
1.0
 40
0.984807753
 41
3.221678233623416
 42
4.712388980384689
  0
SPLINE
  5
3A2
330
39E
100
AcDbEntity
  8
$DDT_AUDIT_GENERATED_(7A)
  6
Continuous
 62
     7
100
AcDbSpline
210
0.0
220
0.0
230
1.0
 70
     8
 71
     3
 72
    26
 73
    22
 74
     0
 42
0.0000000009783574
 43
0.0000000001
 40
0.0773456119448388
 40
0.0773456119448388
 40
0.0773456119448388
 40
0.0773456119448388
 40
0.1250000000000007
 40
0.1250000000000007
 40
0.2500000000000014
 40
0.2500000000000014
 40
0.3750000000000022
 40
0.3750000000000022
 40
0.4375000000000022
 40
0.4375000000000022
 40
0.4687500000000024
 40
0.4687500000000024
 40
0.5000000000000027
 40
0.5000000000000027
 40
0.5625000000000027
 40
0.5625000000000027
 40
0.6250000000000027
 40
0.6250000000000027
 40
0.7500000000000022
 40
0.7500000000000022
 40
0.8664538781015575
 40
0.8664538781015575
 40
0.8664538781015575
 40
0.8664538781015575
 10
37.33764110169654
 20
250.5114588258248
 30
0.0
 10
37.1679227765207
 20
250.4298129878642
 30
0.0
 10
37.04196749111142
 20
250.3463527644081
 30
0.0
 10
36.69733218627207
 20
250.0527632846558
 30
0.0
 10
36.64614481898889
 20
249.8485702543866
 30
0.0
 10
36.82544381649533
 20
249.4828295767004
 30
0.0
 10
37.04911259611419
 20
249.3138673827556
 30
0.0
 10
37.7524286168463
 20
249.0999552516867
 30
0.0
 10
38.05564315096542
 20
249.0321977379092
 30
0.0
 10
38.71982217067167
 20
248.9641024683965
 30
0.0
 10
38.98965374066
 20
248.9474954410722
 30
0.0
 10
39.55176526400803
 20
248.9427031709824
 30
0.0
 10
39.83659171677608
 20
248.9550506525637
 30
0.0
 10
40.54182133306343
 20
249.0158444770388
 30
0.0
 10
40.85927447329426
 20
249.0815907792072
 30
0.0
 10
41.3568405598371
 20
249.2222963321035
 30
0.0
 10
41.53239084576634
 20
249.2988091483151
 30
0.0
 10
41.93582736068722
 20
249.5448340989647
 30
0.0
 10
42.03398491168031
 20
249.727462535511
 30
0.0
 10
41.93769872546524
 20
250.1100687980921
 30
0.0
 10
41.76569460024972
 20
250.3159873475993
 30
0.0
 10
41.34937506948881
 20
250.513863831842
 30
0.0
  0
LINE
  5
3A3
330
39E
100
AcDbEntity
  8
$DDT_AUDIT_GENERATED_(7A)
  6
Continuous
 62
     7
100
AcDbLine
 10
24.8459533648
 20
184.9681808812
 30
0.0
 11
24.8459533648
 21
133.6068137435
 31
0.0
  0
LINE
  5
3A4
330
39E
100
AcDbEntity
  8
$DDT_AUDIT_GENERATED_(7A)
  6
Continuous
 62
     7
100
AcDbLine
 10
53.8459533648
 20
133.6068137435
 30
0.0
 11
53.8459533648
 21
184.9722250856
 31
0.0
  0
SPLINE
  5
3A5
330
39E
100
AcDbEntity
  8
$DDT_AUDIT_GENERATED_(7A)
  6
Continuous
 62
     7
100
AcDbSpline
210
0.0
220
0.0
230
1.0
 70
     8
 71
     3
 72
    25
 73
    21
 74
     0
 42
0.0000000002140726
 43
0.0000000001
 40
0.0
 40
0.0
 40
0.0
 40
0.0
 40
0.0072163235100045
 40
0.0276186347734429
 40
0.0479639273167371
 40
0.068198075416285
 40
0.0882709563565352
 40
0.108134761431408
 40
0.1277446800898365
 40
0.1470595121751567
 40
0.1660421938412619
 40
0.1846602268673306
 40
0.20288600482326
 40
0.2206970334150605
 40
0.2380760461634232
 40
0.2550110201437367
 40
0.2714950996641206
 40
0.2875264383326617
 40
0.3031079718597538
 40
0.3128246381319914
 40
0.3128246381319914
 40
0.3128246381319914
 40
0.3128246381319914
 10
24.85077148782175
 20
133.5998989010022
 30
0.0
 10
24.8492989492431
 20
133.4808994856065
 30
0.0
 10
24.84499525471244
 20
133.0923801321552
 30
0.0
 10
24.87961919356789
 20
132.3533309843211
 30
0.0
 10
24.95580291650964
 20
131.4477389602418
 30
0.0
 10
25.07620937043306
 20
130.5410880893855
 30
0.0
 10
25.23678542265489
 20
129.647775653725
 30
0.0
 10
25.4374842267529
 20
128.768135374094
 30
0.0
 10
25.67689990004179
 20
127.9060369023166
 30
0.0
 10
25.95371490571719
 20
127.0641907310098
 30
0.0
 10
26.2663486806583
 20
126.2453533658313
 30
0.0
 10
26.61308438619491
 20
125.4519823916538
 30
0.0
 10
26.99207239087172
 20
124.6863062000202
 30
0.0
 10
27.40136733998641
 20
123.9502924433753
 30
0.0
 10
27.83895662004181
 20
123.245650265014
 30
0.0
 10
28.30279016794979
 20
122.5738307741645
 30
0.0
 10
28.79080807997045
 20
121.936034501729
 30
0.0
 10
29.30096612301218
 20
121.3332228771685
 30
0.0
 10
29.76975293903115
 20
120.831907045549
 30
0.0
 10
30.07192297934762
 20
120.5343139294448
 30
0.0
 10
30.19025210833868
 20
120.4214935181461
 30
0.0
  0
SPLINE
  5
3A6
330
39E
100
AcDbEntity
  8
$DDT_AUDIT_GENERATED_(7A)
  6
Continuous
 62
     7
100
AcDbSpline
210
0.0
220
0.0
230
1.0
 70
     8
 71
     3
 72
    25
 73
    21
 74
     0
 42
0.0000000002140737
 43
0.0000000001
 40
0.687205646123645
 40
0.687205646123645
 40
0.687205646123645
 40
0.687205646123645
 40
0.6973213720474486
 40
0.7125756916583545
 40
0.7282629153785896
 40
0.7443892332036122
 40
0.7609567003344432
 40
0.7779629747556442
 40
0.7954010953553166
 40
0.8132593128385481
 40
0.831520985359975
 40
0.8501645498661874
 40
0.8691635785824643
 40
0.8884869279264636
 40
0.9080989844480787
 40
0.9279600092802163
 40
0.9480265791712237
 40
0.9682521186116433
 40
0.9885875140361284
 40
1.0
 40
1.0
 40
1.0
 40
1.0
 10
48.5013159502104
 20
120.4211706806569
 30
0.0
 10
48.62450876648517
 20
120.5386210794008
 30
0.0
 10
48.92730323387157
 20
120.8372092119334
 30
0.0
 10
49.39256628725795
 20
121.3354611117532
 30
0.0
 10
49.89204890609165
 20
121.9252367172203
 30
0.0
 10
50.37051518410779
 20
122.5487583673894
 30
0.0
 10
50.82610932720694
 20
123.2052920135916
 30
0.0
 10
51.25693353514213
 20
123.8939009711979
 30
0.0
 10
51.66106766691949
 20
124.6134299647088
 30
0.0
 10
52.03659153391693
 20
125.3624917904841
 30
0.0
 10
52.38160998435013
 20
126.1394592825886
 30
0.0
 10
52.69427841704159
 20
126.9424553461392
 30
0.0
 10
52.97283550717165
 20
127.7693717616886
 30
0.0
 10
53.21561423525683
 20
128.6178012361436
 30
0.0
 10
53.42113858063237
 20
129.4853268538664
 30
0.0
 10
53.58789232578932
 20
130.3684744412843
 30
0.0
 10
53.71532956229725
 20
131.2667754181169
 30
0.0
 10
53.80017116570938
 20
132.1674909640921
 30
0.0
 10
53.8430724125653
 20
132.9654712761116
 30
0.0
 10
53.84171455917243
 20
133.4099074807644
 30
0.0
 10
53.8407583988926
 20
133.5981095208413
 30
0.0
  0
LINE
  5
3A7
330
39E
100
AcDbEntity
  8
$DDT_AUDIT_GENERATED_(7A)
  6
Continuous
 62
     7
100
AcDbLine
 10
64.3459533648
 20
221.1376829008
 30
0.0
 11
64.3459533648
 21
233.425362209
 31
0.0
  0
LINE
  5
3A8
330
39E
100
AcDbEntity
  8
$DDT_AUDIT_GENERATED_(7A)
  6
Continuous
 62
     7
100
AcDbLine
 10
14.3459533648
 20
233.425362209
 30
0.0
 11
14.3459533648
 21
221.1376910371
 31
0.0
  0
LINE
  5
3A9
330
39E
100
AcDbEntity
  8
$DDT_AUDIT_GENERATED_(37D)
  6
Continuous
 62
     7
100
AcDbLine
 10
41.3459533648
 20
270.132704392
 30
0.0
 11
37.3459533648
 21
270.132704392
 31
0.0
  0
LINE
  5
3AA
330
39E
100
AcDbEntity
  8
$DDT_AUDIT_GENERATED_(37D)
  6
Continuous
 62
     7
100
AcDbLine
 10
41.3459533648
 20
256.762331976
 30
0.0
 11
41.3459533648
 21
270.132704392
 31
0.0
  0
LINE
  5
3AB
330
39E
100
AcDbEntity
  8
$DDT_AUDIT_GENERATED_(37D)
  6
Continuous
 62
     7
100
AcDbLine
 10
37.3459533648
 20
270.132704392
 30
0.0
 11
37.3459533648
 21
256.762331976
 31
0.0
  0
LINE
  5
3AC
330
39E
100
AcDbEntity
  8
$DDT_AUDIT_GENERATED_(37D)
  6
Continuous
 62
     7
100
AcDbLine
 10
37.3459533648
 20
256.762331976
 30
0.0
 11
37.3459533648
 21
253.9091624271
 31
0.0
  0
LINE
  5
3AD
330
39E
100
AcDbEntity
  8
$DDT_AUDIT_GENERATED_(37D)
  6
Continuous
 62
     7
100
AcDbLine
 10
41.3459533648
 20
253.9091624271
 30
0.0
 11
41.3459533648
 21
256.762331976
 31
0.0
  0
LINE
  5
3AE
330
39E
100
AcDbEntity
  8
$DDT_AUDIT_GENERATED_(37D)
  6
Continuous
 62
     7
100
AcDbLine
 10
41.3459533648
 20
249.2290346208
 30
0.0
 11
41.3459533648
 21
253.9091624271
 31
0.0
  0
LINE
  5
3AF
330
39E
100
AcDbEntity
  8
$DDT_AUDIT_GENERATED_(37D)
  6
Continuous
 62
     7
100
AcDbLine
 10
37.3459533648
 20
253.9091624271
 30
0.0
 11
37.3459533648
 21
249.2305276606
 31
0.0
  0
ARC
  5
3B0
330
39E
100
AcDbEntity
  8
$DDT_AUDIT_GENERATED_(335)
  6
Continuous
 62
     7
100
AcDbCircle
 10
39.3432714206
 20
212.5107573465
 30
0.0
 40
26.28927925593645
100
AcDbArc
 50
0.0441611622
 51
31.7343454375
  0
ARC
  5
3B1
330
39E
100
AcDbEntity
  8
$DDT_AUDIT_GENERATED_(335)
  6
Continuous
 62
     7
100
AcDbCircle
 10
39.3432714206
 20
212.5107573465
 30
0.0
 40
26.28927925593645
100
AcDbArc
 50
148.2797781593
 51
179.9558299032
  0
ARC
  5
3B2
330
39E
100
AcDbEntity
  8
$DDT_AUDIT_GENERATED_(335)
  6
Continuous
 62
     7
100
AcDbCircle
 10
39.895660929
 20
207.475351066
 30
0.0
 40
27.03853493894895
100
AcDbArc
 50
160.573784333
 51
199.5162440001
  0
ARC
  5
3B3
330
39E
100
AcDbEntity
  8
$DDT_AUDIT_GENERATED_(335)
  6
Continuous
 62
     7
100
AcDbCircle
 10
39.895660929
 20
207.475351066
 30
0.0
 40
27.03853493894895
100
AcDbArc
 50
111.5641007822
 51
160.573784333
  0
ARC
  5
3B4
330
39E
100
AcDbEntity
  8
$DDT_AUDIT_GENERATED_(335)
  6
Continuous
 62
     7
100
AcDbCircle
 10
38.7991075412
 20
207.4786229669
 30
0.0
 40
26.27339184308929
100
AcDbArc
 50
293.4437988821
 51
67.1214749744
  0
SPLINE
  5
3B5
330
39E
100
AcDbEntity
  8
$DDT_AUDIT_GENERATED_(335)
  6
Continuous
 62
     7
100
AcDbSpline
210
0.0
220
0.0
230
1.0
 70
     8
 71
     3
 72
    16
 73
    12
 74
     0
 42
0.0000000087610196
 43
0.0000000001
 40
0.0
 40
0.0
 40
0.0
 40
0.0
 40
0.0911151069965116
 40
0.1752282278388532
 40
0.2525463999537368
 40
0.3232564104352919
 40
0.3875257148419746
 40
0.4455048945903207
 40
0.4973316605082685
 40
0.7568913647752177
 40
1.0
 40
1.0
 40
1.0
 40
1.0
 10
49.01018682645799
 20
183.2578816030147
 30
0.0
 10
49.00129149094401
 20
183.2217768845537
 30
0.0
 10
48.98418440596626
 20
183.1523420121038
 30
0.0
 10
48.96322871674126
 20
183.052246490245
 30
0.0
 10
48.94558316257326
 20
182.9610394139062
 30
0.0
 10
48.9305183115006
 20
182.8786992179515
 30
0.0
 10
48.91715772342524
 20
182.8050511180219
 30
0.0
 10
48.9049004672116
 20
182.7397600481279
 30
0.0
 10
48.87731815818795
 20
182.6035713167408
 30
0.0
 10
48.82292588311658
 20
182.4099468545035
 30
0.0
 10
48.74818830971608
 20
182.2421711679124
 30
0.0
 10
48.71204250931066
 20
182.1610287624999
 30
0.0
  0
SPLINE
  5
3B6
330
39E
100
AcDbEntity
  8
$DDT_AUDIT_GENERATED_(335)
  6
Continuous
 62
     7
100
AcDbSpline
210
0.0
220
0.0
230
1.0
 70
     8
 71
     3
 72
    15
 73
    11
 74
     0
 42
0.0000000088347896
 43
0.0000000001
 40
0.0
 40
0.0
 40
0.0
 40
0.0
 40
0.0452934933429318
 40
0.0906587611394473
 40
0.1364876986589162
 40
0.1831590329797581
 40
0.2269662470929987
 40
0.3120644239129717
 40
0.3712747634927281
 40
0.3962154214913982
 40
0.3962154214913982
 40
0.3962154214913982
 40
0.3962154214913982
 10
48.71204250931066
 20
182.1610287624999
 30
0.0
 10
48.70347599906581
 20
182.1417727730357
 30
0.0
 10
48.68632940363394
 20
182.103230280052
 30
0.0
 10
48.6662236936899
 20
182.0469375104992
 30
0.0
 10
48.64942361476325
 20
181.9928900612813
 30
0.0
 10
48.63528308911791
 20
181.9427088262815
 30
0.0
 10
48.62099575569441
 20
181.8854769356288
 30
0.0
 10
48.60296061875406
 20
181.8294910030406
 30
0.0
 10
48.57995894886169
 20
181.7803374190884
 30
0.0
 10
48.56435641400041
 20
181.7500656483748
 30
0.0
 10
48.55949019190199
 20
181.7406828042294
 30
0.0
  0
SPLINE
  5
3B7
330
39E
100
AcDbEntity
  8
$DDT_AUDIT_GENERATED_(335)
  6
Continuous
 62
     7
100
AcDbSpline
210
0.0
220
0.0
230
1.0
 70
     8
 71
     3
 72
     8
 73
     4
 74
     0
 42
0.0000000073345177
 43
0.0000000001
 40
0.1453680819347761
 40
0.1453680819347761
 40
0.1453680819347761
 40
0.1453680819347761
 40
0.1670877049177382
 40
0.1670877049177382
 40
0.1670877049177382
 40
0.1670877049177382
 10
48.49796324049397
 20
181.9836308671009
 30
0.0
 10
48.49795136810606
 20
181.9934757274318
 30
0.0
 10
48.4978955640514
 20
182.0033470195639
 30
0.0
 10
48.49780234057597
 20
182.0132431481376
 30
0.0
  0
ARC
  5
3B8
330
39E
100
AcDbEntity
  8
$DDT_AUDIT_GENERATED_(335)
  6
Continuous
 62
     7
100
AcDbCircle
 10
38.7938442973
 20
207.4753117615
 30
0.0
 40
27.03945330848224
100
AcDbArc
 50
19.5801577235
 51
68.4311452882
  0
ARC
  5
3B9
330
39E
100
AcDbEntity
  8
$DDT_AUDIT_GENERATED_(335)
  6
Continuous
 62
     7
100
AcDbCircle
 10
38.7938442973
 20
207.4753117615
 30
0.0
 40
27.03945330848224
100
AcDbArc
 50
340.4663808092
 51
19.5801577235
  0
ARC
  5
3BA
330
39E
100
AcDbEntity
  8
$DDT_AUDIT_GENERATED_(335)
  6
Continuous
 62
     7
100
AcDbCircle
 10
2031.5444007583
 20
207.3300726949
 30
0.0
 40
1982.6803524003
100
AcDbArc
 50
179.2961667185
 51
180.6956587022
  0
ELLIPSE
  5
3BB
330
39E
100
AcDbEntity
  8
$DDT_AUDIT_GENERATED_(335)
  6
Continuous
 62
     7
100
AcDbEllipse
 10
49.1495472037
 20
181.789271609
 30
0.0
 11
0.6575972464318638
 21
-0.070725844151312
 31
0.0
210
0.0
220
0.0
230
0.9999999999999999
 40
0.7010848872
 41
2.371443396812981
 42
2.993009225588858
  0
ARC
  5
3BC
330
39E
100
AcDbEntity
  8
$DDT_AUDIT_GENERATED_(335)
  6
Continuous
 62
     7
100
AcDbCircle
 10
39.8967288151
 20
207.4786036249
 30
0.0
 40
26.27493867754961
100
AcDbArc
 50
112.8863450387
 51
246.5483736905
  0
SPLINE
  5
3BD
330
39E
100
AcDbEntity
  8
$DDT_AUDIT_GENERATED_(335)
  6
Continuous
 62
     7
100
AcDbSpline
210
0.0
220
0.0
230
1.0
 70
     8
 71
     3
 72
    13
 73
     9
 74
     0
 42
0.0000000087641648
 43
0.0000000001
 40
0.0
 40
0.0
 40
0.0
 40
0.0
 40
0.122712365779775
 40
0.2469183070437541
 40
0.3738803047769639
 40
0.504596890152859
 40
0.7083276423477716
 40
1.0
 40
1.0
 40
1.0
 40
1.0
 10
29.97988683472125
 20
182.1610153711737
 30
0.0
 10
29.96108046702701
 20
182.2020791865355
 30
0.0
 10
29.92323883270437
 20
182.2847066194386
 30
0.0
 10
29.87421461937598
 20
182.4103040159676
 30
0.0
 10
29.83196981564867
 20
182.5418759424902
 30
0.0
 10
29.79112222384086
 20
182.7067963194426
 30
0.0
 10
29.75202450319509
 20
182.9440219986905
 30
0.0
 10
29.70778851683388
 20
183.1415650295225
 30
0.0
 10
29.6817442426285
 20
183.2578699949037
 30
0.0
  0
SPLINE
  5
3BE
330
39E
100
AcDbEntity
  8
$DDT_AUDIT_GENERATED_(335)
  6
Continuous
 62
     7
100
AcDbSpline
210
0.0
220
0.0
230
1.0
 70
     8
 71
     3
 72
    14
 73
    10
 74
     0
 42
0.0000000088320745
 43
0.0000000001
 40
0.6034976389621506
 40
0.6034976389621506
 40
0.6034976389621506
 40
0.6034976389621506
 40
0.6287690599985314
 40
0.6879828536734474
 40
0.7746164305468698
 40
0.8168926760828495
 40
0.8793534872232844
 40
0.9402052081316984
 40
1.0
 40
1.0
 40
1.0
 40
1.0
 10
30.13263211565085
 20
181.7402990128435
 30
0.0
 10
30.12769536144451
 20
181.7498169406419
 30
0.0
 10
30.11201713688917
 20
181.7802297648291
 30
0.0
 10
30.08877901858909
 20
181.829904920978
 30
0.0
 10
30.07073183515191
 20
181.8860025070429
 30
0.0
 10
30.05521638274401
 20
181.9484161583821
 30
0.0
 10
30.03745378232745
 20
182.0104192689254
 30
0.0
 10
30.01340183037989
 20
182.0843241581079
 30
0.0
 10
29.99099306227718
 20
182.1356013722425
 30
0.0
 10
29.97988683472125
 20
182.1610153711737
 30
0.0
  0
ARC
  5
3BF
330
39E
100
AcDbEntity
  8
$DDT_AUDIT_GENERATED_(335)
  6
Continuous
 62
     7
100
AcDbCircle
 10
-1948.5936998402
 20
207.3303759865
 30
0.0
 40
1978.421900961979
100
AcDbArc
 50
359.3028347341
 51
0.7053398681
  0
ELLIPSE
  5
3C0
330
39E
100
AcDbEntity
  8
$DDT_AUDIT_GENERATED_(335)
  6
Continuous
 62
     7
100
AcDbEllipse
 10
29.5423748163
 20
181.7892524197
 30
0.0
 11
-0.6576057324931325
 21
-0.07072764882656152
 31
0.0
210
0.0
220
0.0
230
0.9999999999999998
 40
0.7010885333
 41
3.290173452349432
 42
3.91173726322392
  0
ARC
  5
3C1
330
39E
100
AcDbEntity
  8
$DDT_AUDIT_GENERATED_(335)
  6
Continuous
 62
     7
100
AcDbCircle
 10
39.345950118
 20
205.914604629
 30
0.0
 40
28.15079728885525
100
AcDbArc
 50
72.56345269
 51
107.4364809439
  0
LINE
  5
3C2
330
39E
100
AcDbEntity
  8
$DDT_AUDIT_GENERATED_(335)
  6
Continuous
 62
     7
100
AcDbLine
 10
30.1940324704
 20
181.9911635036
 30
0.0
 11
30.1940324704
 21
111.4013777112
 31
0.0
  0
LINE
  5
3C3
330
39E
100
AcDbEntity
  8
$DDT_AUDIT_GENERATED_(335)
  6
Continuous
 62
     7
100
AcDbLine
 10
48.4978980862
 20
111.3981054385
 30
0.0
 11
48.4978980862
 21
181.9840242989
 31
0.0
  0
ARC
  5
3C4
330
39E
100
AcDbEntity
  8
$DDT_AUDIT_GENERATED_(335)
  6
Continuous
 62
     7
100
AcDbCircle
 10
31.4145340111
 20
111.4713815091
 30
0.0
 40
1.219911511465045
100
AcDbArc
 50
183.2897362058
 51
225.7686991306
  0
ARC
  5
3C5
330
39E
100
AcDbEntity
  8
$DDT_AUDIT_GENERATED_(335)
  6
Continuous
 62
     7
100
AcDbCircle
 10
39.3481423959
 20
117.5559796849
 30
0.0
 40
11.20597968492582
100
AcDbArc
 50
218.3820421994
 51
321.5904271226
  0
ARC
  5
3C6
330
39E
100
AcDbEntity
  8
$DDT_AUDIT_GENERATED_(335)
  6
Continuous
 62
     7
100
AcDbCircle
 10
47.276802139
 20
111.4644911857
 30
0.0
 40
1.219321942425031
100
AcDbArc
 50
314.3695920796
 51
356.8729177133
  0
ARC
  5
3C7
330
39E
100
AcDbEntity
  8
$DDT_AUDIT_GENERATED_(335)
  6
Continuous
 62
     7
100
AcDbCircle
 10
39.473178462
 20
212.1216621335
 30
0.0
 40
26.49648910151
100
AcDbArc
 50
32.6128633969
 51
78.2197026462
  0
ARC
  5
3C8
330
39E
100
AcDbEntity
  8
$DDT_AUDIT_GENERATED_(335)
  6
Continuous
 62
     7
100
AcDbCircle
 10
39.3312507295
 20
211.9705341831
 30
0.0
 40
26.673628812426
100
AcDbArc
 50
77.9875337963
 51
147.2640046927
  0
ARC
  5
3C9
330
39E
100
AcDbEntity
  8
$DDT_AUDIT_GENERATED_(335)
  6
Continuous
 62
     7
100
AcDbCircle
 10
39.6146200953
 20
207.2352091013
 30
0.0
 40
26.71227635295006
100
AcDbArc
 50
199.2327161483
 51
246.9094818008
  0
ARC
  5
3CA
330
39E
100
AcDbEntity
  8
$DDT_AUDIT_GENERATED_(335)
  6
Continuous
 62
     7
100
AcDbCircle
 10
28.3934130685
 20
180.8591659556
 30
0.0
 40
1.945034119675466
100
AcDbArc
 50
26.778271204
 51
67.5410613078
  0
ARC
  5
3CB
330
39E
100
AcDbEntity
  8
$DDT_AUDIT_GENERATED_(335)
  6
Continuous
 62
     7
100
AcDbCircle
 10
39.0657169412
 20
207.2428214495
 30
0.0
 40
26.72854673116601
100
AcDbArc
 50
293.1075583363
 51
340.7406293159
  0
ARC
  5
3CC
330
39E
100
AcDbEntity
  8
$DDT_AUDIT_GENERATED_(335)
  6
Continuous
 62
     7
100
AcDbCircle
 10
50.3042843698
 20
180.8420614713
 30
0.0
 40
1.96179305552947
100
AcDbArc
 50
112.380280959
 51
152.8356342258
  0
SPLINE
  5
3CD
330
39E
100
AcDbEntity
  8
$DDT_AUDIT_GENERATED_(335)
  6
Continuous
 62
     7
100
AcDbSpline
210
0.0
220
0.0
230
1.0
 70
     8
 71
     3
 72
     9
 73
     5
 74
     0
 42
0.0000000342880243
 43
0.0000000001
 40
0.6206012055941535
 40
0.6206012055941535
 40
0.6206012055941535
 40
0.6206012055941535
 40
0.7368509956168631
 40
1.0
 40
1.0
 40
1.0
 40
1.0
 10
48.50088924841231
 20
181.6600884956926
 30
0.0
 10
48.5046791957278
 20
181.659073059975
 30
0.0
 10
48.52077750839227
 20
181.6703162534242
 30
0.0
 10
48.54356790729005
 20
181.7112143684702
 30
0.0
 10
48.56246623645934
 20
181.7467764388752
 30
0.0
  0
SPLINE
  5
3CE
330
39E
100
AcDbEntity
  8
$DDT_AUDIT_GENERATED_(335)
  6
Continuous
 62
     7
100
AcDbSpline
210
0.0
220
0.0
230
1.0
 70
     8
 71
     3
 72
    10
 73
     6
 74
     0
 42
0.0000000264917984
 43
0.0000000001
 40
0.0
 40
0.0
 40
0.0
 40
0.0
 40
0.2286026899541267
 40
0.3341031938975725
 40
0.3738553049803109
 40
0.3738553049803109
 40
0.3738553049803109
 40
0.3738553049803109
 10
30.12946441456636
 20
181.7467648201562
 30
0.0
 10
30.15008629098177
 20
181.7050658810427
 30
0.0
 10
30.17551465922322
 20
181.6554549724272
 30
0.0
 10
30.19365082742965
 20
181.6281078403958
 30
0.0
 10
30.1983529089153
 20
181.6268466149399
 30
0.0
 10
30.1994756393022
 20
181.6271790113042
 30
0.0
  0
LINE
  5
3CF
330
39E
100
AcDbEntity
  8
$DDT_AUDIT_GENERATED_(335)
  6
Continuous
 62
     7
100
AcDbLine
 10
65.8459767746
 20
207.4777890777
 30
0.0
 11
65.8459767746
 21
212.5312018791
 31
0.0
  0
LINE
  5
3D0
330
39E
100
AcDbEntity
  8
$DDT_AUDIT_GENERATED_(335)
  6
Continuous
 62
     7
100
AcDbLine
 10
12.8459269072
 20
212.5312018791
 30
0.0
 11
12.8459269072
 21
207.4777894184
 31
0.0
  0
ENDBLK
  5
3D2
330
39E
100
AcDbEntity
  8
0
100
AcDbBlockEnd
  0
ENDSEC
  0
SECTION
  2
ENTITIES
  0
INSERT
  5
5F
330
1F
100
AcDbEntity
  8
Default
100
AcDbBlockReference
  2
SEANNOT_GROUP
 10
0.0
 20
0.0
 30
0.0
  0
INSERT
  5
66
330
1F
100
AcDbEntity
  8
Default
100
AcDbBlockReference
  2
SEANNOT_GROUP1
 10
0.0
 20
0.0
 30
0.0
  0
INSERT
  5
6C
330
1F
100
AcDbEntity
  8
Default
100
AcDbBlockReference
  2
SEANNOT_GROUP2
 10
0.0
 20
0.0
 30
0.0
  0
INSERT
  5
76
330
1F
100
AcDbEntity
  8
Default
100
AcDbBlockReference
  2
SE
 10
0.0
 20
0.0
 30
0.0
  0
INSERT
  5
353
330
1F
100
AcDbEntity
  8
Default
100
AcDbBlockReference
  2
SE1
 10
0.0
 20
0.0
 30
0.0
  0
INSERT
  5
39F
330
1F
100
AcDbEntity
  8
Default
100
AcDbBlockReference
  2
SE2
 10
0.0
 20
0.0
 30
0.0
  0
TEXT
  5
3D4
330
1F
100
AcDbEntity
  8
Default
  6
Continuous
 62
     7
100
AcDbText
 10
5.9362635081
 20
53.4225120485
 30
0.0
 40
10.0
  1
Grohe AG^J
  7
SEACAD_seiso_ttf
 11
5.9362635081
 21
63.4225120485
 31
0.0
100
AcDbText
 73
     3
  0
TEXT
  5
3D5
330
1F
100
AcDbEntity
  8
Default
  6
Continuous
 62
     7
100
AcDbText
 10
5.9362635081
 20
37.0588756849
 30
0.0
 40
10.0
  1
 
  7
SEACAD_seiso_ttf
 11
5.9362635081
 21
47.0588756849
 31
0.0
100
AcDbText
 73
     3
  0
TEXT
  5
3D6
330
1F
100
AcDbEntity
  8
Default
  6
Continuous
 62
     7
100
AcDbText
 10
5.9362635081
 20
20.6952393213
 30
0.0
 40
10.0
  1
ecn: 
  7
SEACAD_seiso_ttf
 11
5.9362635081
 21
30.6952393213
 31
0.0
100
AcDbText
 73
     3
  0
TEXT
  5
3D7
330
1F
100
AcDbEntity
  8
Default
  6
Continuous
 62
     7
100
AcDbText
 10
5.9362635081
 20
4.3316029576
 30
0.0
 40
10.0
  1
unit: mm
  7
SEACAD_seiso_ttf
 11
5.9362635081
 21
14.3316029576
 31
0.0
100
AcDbText
 73
     3
  0
LINE
  5
3D8
330
1F
100
AcDbEntity
  8
Default
  6
Continuous
 62
     7
100
AcDbLine
 10
0.0
 20
0.0
 30
0.0
 11
100.0
 21
0.0
 31
0.0
  0
LINE
  5
3D9
330
1F
100
AcDbEntity
  8
Default
  6
Continuous
 62
     7
100
AcDbLine
 10
0.0
 20
0.0
 30
0.0
 11
0.0
 21
100.0
 31
0.0
  0
TEXT
  5
3DA
330
1F
100
AcDbEntity
  8
Default
  6
Continuous
 62
     7
100
AcDbText
 10
24.3923665681
 20
-18.2375342018
 30
0.0
 40
10.0
  1
100 mm
  7
SEACAD_seiso_ttf
 11
24.3923665681
 21
-8.2375342018
 31
0.0
100
AcDbText
 73
     3
  0
TEXT
  5
3DB
330
1F
100
AcDbEntity
  8
Default
  6
Continuous
 62
     7
100
AcDbText
 10
-7.6150308803
 20
24.6231930421
 30
0.0
 40
10.0
  1
100 mm
 50
90.0
  7
SEACAD_seiso_ttf
 11
-17.6150308803
 21
24.6231930421
 31
0.0
100
AcDbText
 73
     3
  0
TEXT
  5
3DC
330
1F
100
AcDbEntity
  8
Default
  6
Continuous
 62
     7
100
AcDbText
 10
28.4878128572
 20
20.0907663715
 30
0.0
 40
10.0
  1
212521
  7
SEACAD_seiso_ttf
 11
28.4878128572
 21
30.0907663715
 31
0.0
100
AcDbText
 73
     3
  0
TEXT
  5
3DD
330
1F
100
AcDbEntity
  8
Default
  6
Continuous
 62
     7
100
AcDbText
 10
5.9012241913
 20
36.7242780188
 30
0.0
 40
10.0
  1
32557000
  7
SEACAD_seiso_ttf
 11
5.9012241913
 21
46.7242780188
 31
0.0
100
AcDbText
 73
     3
  0
ENDSEC
  0
SECTION
  2
OBJECTS
  0
DICTIONARY
  5
C
330
0
100
AcDbDictionary
281
     1
  3
ACAD_GROUP
350
D
  3
ACAD_LAYOUT
350
1A
  3
ACAD_MLEADERSTYLE
350
3E1
  3
ACAD_MLINESTYLE
350
17
  3
ACAD_PLOTSETTINGS
350
19
  3
ACAD_PLOTSTYLENAME
350
E
  3
ACAD_SCALELIST
350
3B
  3
ACAD_TABLESTYLE
350
3E0
  3
ACAD_VISUALSTYLE
350
2A
  3
AcDbVariableDictionary
350
3DE
  0
DICTIONARY
  5
D
102
{ACAD_REACTORS
330
C
102
}
330
C
100
AcDbDictionary
281
     1
  0
DICTIONARY
  5
1A
102
{ACAD_REACTORS
330
C
102
}
330
C
100
AcDbDictionary
281
     1
  3
Layout1
350
1E
  3
Model
350
22
  0
DICTIONARY
  5
3E1
102
{ACAD_REACTORS
330
C
102
}
330
C
100
AcDbDictionary
281
     1
  0
DICTIONARY
  5
17
102
{ACAD_REACTORS
330
C
102
}
330
C
100
AcDbDictionary
281
     1
  3
Standard
350
18
  0
DICTIONARY
  5
19
102
{ACAD_REACTORS
330
C
102
}
330
C
100
AcDbDictionary
281
     1
  0
ACDBDICTIONARYWDFLT
  5
E
102
{ACAD_REACTORS
330
C
102
}
330
C
100
AcDbDictionary
281
     1
  3
Normal
350
F
100
AcDbDictionaryWithDefault
340
F
  0
DICTIONARY
  5
3B
102
{ACAD_REACTORS
330
C
102
}
330
C
100
AcDbDictionary
281
     1
  3
A0
350
3C
  3
A1
350
3D
  3
A2
350
3E
  3
A3
350
3F
  3
A4
350
40
  3
A5
350
41
  3
A6
350
42
  3
A7
350
43
  3
A8
350
44
  3
A9
350
45
  3
B0
350
46
  3
B1
350
47
  3
B2
350
48
  3
B3
350
49
  3
B4
350
4A
  3
B5
350
4B
  3
B6
350
4C
  3
B7
350
4D
  3
B8
350
4E
  3
B9
350
4F
  3
C0
350
50
  3
C1
350
51
  3
C2
350
52
  3
C3
350
53
  3
C4
350
54
  3
C5
350
55
  3
C6
350
56
  3
C7
350
57
  3
C8
350
58
  3
C9
350
59
  3
D0
350
5A
  3
D1
350
5B
  3
D2
350
5C
  0
DICTIONARY
  5
3E0
102
{ACAD_REACTORS
330
C
102
}
330
C
100
AcDbDictionary
281
     1
  0
DICTIONARY
  5
2A
102
{ACAD_REACTORS
330
C
102
}
330
C
100
AcDbDictionary
281
     1
  3
2dWireframe
350
2F
  3
3D Hidden
350
31
  3
3dWireframe
350
30
  3
Basic
350
32
  3
Brighten
350
36
  3
ColorChange
350
3A
  3
Conceptual
350
34
  3
Dim
350
35
  3
Facepattern
350
39
  3
Flat
350
2B
  3
FlatWithEdges
350
2C
  3
Gouraud
350
2D
  3
GouraudWithEdges
350
2E
  3
Linepattern
350
38
  3
Realistic
350
33
  3
Thicken
350
37
  0
DICTIONARY
  5
3DE
102
{ACAD_REACTORS
330
C
102
}
330
C
100
AcDbDictionary
281
     1
  3
CANNOSCALE
350
3DF
  3
PSOLHEIGHT
350
3E3
  3
PSOLWIDTH
350
3E2
  0
LAYOUT
  5
1E
102
{ACAD_REACTORS
330
1A
102
}
330
1A
100
AcDbPlotSettings
  1

  2
none_device
  4

  6

 40
0.0
 41
0.0
 42
0.0
 43
0.0
 44
0.0
 45
0.0
 46
0.0
 47
0.0
 48
0.0
 49
0.0
140
0.0
141
0.0
142
1.0
143
1.0
 70
   688
 72
     0
 73
     0
 74
     5
  7

 75
    16
147
1.0
148
0.0
149
0.0
100
AcDbLayout
  1
Layout1
 70
     1
 71
     1
 10
0.0
 20
0.0
 11
1682.0
 21
2378.0
 12
0.0
 22
0.0
 32
0.0
 14
0.0
 24
0.0
 34
0.0
 15
1682.0
 25
2378.0
 35
0.0
146
0.0
 13
0.0
 23
0.0
 33
0.0
 16
1.0
 26
0.0
 36
0.0
 17
0.0
 27
1.0
 37
0.0
 76
     0
330
1B
  0
LAYOUT
  5
22
102
{ACAD_REACTORS
330
1A
102
}
330
1A
100
AcDbPlotSettings
  1

  2
none_device
  4

  6

 40
0.0
 41
0.0
 42
0.0
 43
0.0
 44
0.0
 45
0.0
 46
0.0
 47
0.0
 48
0.0
 49
0.0
140
0.0
141
0.0
142
1.0
143
1.0
 70
  1712
 72
     0
 73
     0
 74
     0
  7

 75
     0
147
1.0
148
0.0
149
0.0
100
AcDbLayout
  1
Model
 70
     1
 71
     0
 10
0.0
 20
0.0
 11
1682.0
 21
2378.0
 12
0.0
 22
0.0
 32
0.0
 14
0.0
 24
0.0
 34
0.0
 15
1682.0
 25
2378.0
 35
0.0
146
0.0
 13
0.0
 23
0.0
 33
0.0
 16
1.0
 26
0.0
 36
0.0
 17
0.0
 27
1.0
 37
0.0
 76
     0
330
1F
331
29
  0
MLINESTYLE
  5
18
102
{ACAD_REACTORS
330
17
102
}
330
17
100
AcDbMlineStyle
  2
Standard
 70
     0
  3

 62
   256
 51
90.0
 52
90.0
 71
     2
 49
0.5
 62
   256
  6
BYLAYER
 49
-0.5
 62
   256
  6
BYLAYER
  0
ACDBPLACEHOLDER
  5
F
102
{ACAD_REACTORS
330
E
102
}
330
E
  0
SCALE
  5
3C
102
{ACAD_REACTORS
330
3B
102
}
330
3B
100
AcDbScale
 70
     0
300
1:1
140
1.0
141
1.0
290
     1
  0
SCALE
  5
3D
102
{ACAD_REACTORS
330
3B
102
}
330
3B
100
AcDbScale
 70
     0
300
1:2
140
1.0
141
2.0
290
     0
  0
SCALE
  5
3E
102
{ACAD_REACTORS
330
3B
102
}
330
3B
100
AcDbScale
 70
     0
300
1:4
140
1.0
141
4.0
290
     0
  0
SCALE
  5
3F
102
{ACAD_REACTORS
330
3B
102
}
330
3B
100
AcDbScale
 70
     0
300
1:5
140
1.0
141
5.0
290
     0
  0
SCALE
  5
40
102
{ACAD_REACTORS
330
3B
102
}
330
3B
100
AcDbScale
 70
     0
300
1:8
140
1.0
141
8.0
290
     0
  0
SCALE
  5
41
102
{ACAD_REACTORS
330
3B
102
}
330
3B
100
AcDbScale
 70
     0
300
1:10
140
1.0
141
10.0
290
     0
  0
SCALE
  5
42
102
{ACAD_REACTORS
330
3B
102
}
330
3B
100
AcDbScale
 70
     0
300
1:16
140
1.0
141
16.0
290
     0
  0
SCALE
  5
43
102
{ACAD_REACTORS
330
3B
102
}
330
3B
100
AcDbScale
 70
     0
300
1:20
140
1.0
141
20.0
290
     0
  0
SCALE
  5
44
102
{ACAD_REACTORS
330
3B
102
}
330
3B
100
AcDbScale
 70
     0
300
1:30
140
1.0
141
30.0
290
     0
  0
SCALE
  5
45
102
{ACAD_REACTORS
330
3B
102
}
330
3B
100
AcDbScale
 70
     0
300
1:40
140
1.0
141
40.0
290
     0
  0
SCALE
  5
46
102
{ACAD_REACTORS
330
3B
102
}
330
3B
100
AcDbScale
 70
     0
300
1:50
140
1.0
141
50.0
290
     0
  0
SCALE
  5
47
102
{ACAD_REACTORS
330
3B
102
}
330
3B
100
AcDbScale
 70
     0
300
1:100
140
1.0
141
100.0
290
     0
  0
SCALE
  5
48
102
{ACAD_REACTORS
330
3B
102
}
330
3B
100
AcDbScale
 70
     0
300
2:1
140
2.0
141
1.0
290
     0
  0
SCALE
  5
49
102
{ACAD_REACTORS
330
3B
102
}
330
3B
100
AcDbScale
 70
     0
300
4:1
140
4.0
141
1.0
290
     0
  0
SCALE
  5
4A
102
{ACAD_REACTORS
330
3B
102
}
330
3B
100
AcDbScale
 70
     0
300
8:1
140
8.0
141
1.0
290
     0
  0
SCALE
  5
4B
102
{ACAD_REACTORS
330
3B
102
}
330
3B
100
AcDbScale
 70
     0
300
10:1
140
10.0
141
1.0
290
     0
  0
SCALE
  5
4C
102
{ACAD_REACTORS
330
3B
102
}
330
3B
100
AcDbScale
 70
     0
300
100:1
140
100.0
141
1.0
290
     0
  0
SCALE
  5
4D
102
{ACAD_REACTORS
330
3B
102
}
330
3B
100
AcDbScale
 70
     0
300
1/128" = 1'-0"
140
0.0078125
141
12.0
290
     0
  0
SCALE
  5
4E
102
{ACAD_REACTORS
330
3B
102
}
330
3B
100
AcDbScale
 70
     0
300
1/64" = 1'-0"
140
0.015625
141
12.0
290
     0
  0
SCALE
  5
4F
102
{ACAD_REACTORS
330
3B
102
}
330
3B
100
AcDbScale
 70
     0
300
1/32" = 1'-0"
140
0.03125
141
12.0
290
     0
  0
SCALE
  5
50
102
{ACAD_REACTORS
330
3B
102
}
330
3B
100
AcDbScale
 70
     0
300
1/16" = 1'-0"
140
0.0625
141
12.0
290
     0
  0
SCALE
  5
51
102
{ACAD_REACTORS
330
3B
102
}
330
3B
100
AcDbScale
 70
     0
300
3/32" = 1'-0"
140
0.09375
141
12.0
290
     0
  0
SCALE
  5
52
102
{ACAD_REACTORS
330
3B
102
}
330
3B
100
AcDbScale
 70
     0
300
1/8" = 1'-0"
140
0.125
141
12.0
290
     0
  0
SCALE
  5
53
102
{ACAD_REACTORS
330
3B
102
}
330
3B
100
AcDbScale
 70
     0
300
3/16" = 1'-0"
140
0.1875
141
12.0
290
     0
  0
SCALE
  5
54
102
{ACAD_REACTORS
330
3B
102
}
330
3B
100
AcDbScale
 70
     0
300
1/4" = 1'-0"
140
0.25
141
12.0
290
     0
  0
SCALE
  5
55
102
{ACAD_REACTORS
330
3B
102
}
330
3B
100
AcDbScale
 70
     0
300
3/8" = 1'-0"
140
0.375
141
12.0
290
     0
  0
SCALE
  5
56
102
{ACAD_REACTORS
330
3B
102
}
330
3B
100
AcDbScale
 70
     0
300
1/2" = 1'-0"
140
0.5
141
12.0
290
     0
  0
SCALE
  5
57
102
{ACAD_REACTORS
330
3B
102
}
330
3B
100
AcDbScale
 70
     0
300
3/4" = 1'-0"
140
0.75
141
12.0
290
     0
  0
SCALE
  5
58
102
{ACAD_REACTORS
330
3B
102
}
330
3B
100
AcDbScale
 70
     0
300
1" = 1'-0"
140
1.0
141
12.0
290
     0
  0
SCALE
  5
59
102
{ACAD_REACTORS
330
3B
102
}
330
3B
100
AcDbScale
 70
     0
300
1-1/2" = 1'-0"
140
1.5
141
12.0
290
     0
  0
SCALE
  5
5A
102
{ACAD_REACTORS
330
3B
102
}
330
3B
100
AcDbScale
 70
     0
300
3" = 1'-0"
140
3.0
141
12.0
290
     0
  0
SCALE
  5
5B
102
{ACAD_REACTORS
330
3B
102
}
330
3B
100
AcDbScale
 70
     0
300
6" = 1'-0"
140
6.0
141
12.0
290
     0
  0
SCALE
  5
5C
102
{ACAD_REACTORS
330
3B
102
}
330
3B
100
AcDbScale
 70
     0
300
1'-0" = 1'-0"
140
12.0
141
12.0
290
     0
  0
VISUALSTYLE
  5
2F
102
{ACAD_REACTORS
330
2A
102
}
330
2A
100
AcDbVisualStyle
  2
2dWireframe
 70
     4
 71
     0
 72
     2
 73
     0
 90
        0
 40
-0.6
 41
-30.0
 62
     5
 63
     7
 74
     1
 91
        4
 64
     7
 65
   257
 75
     1
175
     1
 42
1.0
 92
        0
 66
   257
 43
1.0
 76
     1
 77
     6
 78
     2
 67
     7
 79
     5
170
     0
171
     0
290
     0
174
     0
 93
        1
 44
0.0
173
     0
291
     0
 45
0.0
1001
ACAD
1000
AcDbSavedByObjectVersion
1070
     0
  0
VISUALSTYLE
  5
31
102
{ACAD_REACTORS
330
2A
102
}
330
2A
100
AcDbVisualStyle
  2
3D Hidden
 70
     6
 71
     1
 72
     2
 73
     2
 90
        0
 40
-0.6
 41
-30.0
 62
     5
 63
     7
 74
     2
 91
        2
 64
     7
 65
   257
 75
     2
175
     1
 42
40.0
 92
        0
 66
   257
 43
1.0
 76
     1
 77
     6
 78
     2
 67
     7
 79
     3
170
     0
171
     0
290
     0
174
     0
 93
        1
 44
0.0
173
     0
291
     0
 45
0.0
1001
ACAD
1000
AcDbSavedByObjectVersion
1070
     0
  0
VISUALSTYLE
  5
30
102
{ACAD_REACTORS
330
2A
102
}
330
2A
100
AcDbVisualStyle
  2
3dWireframe
 70
     5
 71
     0
 72
     2
 73
     0
 90
        0
 40
-0.6
 41
-30.0
 62
     5
 63
     7
 74
     1
 91
        4
 64
     7
 65
   257
 75
     1
175
     1
 42
1.0
 92
        0
 66
   257
 43
1.0
 76
     1
 77
     6
 78
     2
 67
     7
 79
     5
170
     0
171
     0
290
     0
174
     0
 93
        1
 44
0.0
173
     0
291
     0
 45
0.0
1001
ACAD
1000
AcDbSavedByObjectVersion
1070
     0
  0
VISUALSTYLE
  5
32
102
{ACAD_REACTORS
330
2A
102
}
330
2A
100
AcDbVisualStyle
  2
Basic
 70
     7
 71
     1
 72
     0
 73
     1
 90
        0
 40
-0.6
 41
-30.0
 62
     5
 63
     7
 74
     0
 91
        4
 64
     7
 65
   257
 75
     1
175
     1
 42
1.0
 92
        8
 66
     7
 43
1.0
 76
     1
 77
     6
 78
     2
 67
     7
 79
     5
170
     0
171
     0
290
     0
174
     0
 93
        1
 44
0.0
173
     0
291
     1
 45
0.0
1001
ACAD
1000
AcDbSavedByObjectVersion
1070
     0
  0
VISUALSTYLE
  5
36
102
{ACAD_REACTORS
330
2A
102
}
330
2A
100
AcDbVisualStyle
  2
Brighten
 70
    12
 71
     2
 72
     2
 73
     0
 90
        0
 40
-0.6
 41
-30.0
 62
     5
 63
     7
 74
     1
 91
        4
 64
     7
 65
   257
 75
     1
175
     1
 42
1.0
 92
        8
 66
     7
 43
1.0
 76
     1
 77
     6
 78
     2
 67
     7
 79
     5
170
     0
171
     0
290
     0
174
     0
 93
        1
 44
50.0
173
     0
291
     1
 45
0.0
1001
ACAD
1000
AcDbSavedByObjectVersion
1070
     0
  0
VISUALSTYLE
  5
3A
102
{ACAD_REACTORS
330
2A
102
}
330
2A
100
AcDbVisualStyle
  2
ColorChange
 70
    16
 71
     2
 72
     2
 73
     3
 90
        0
 40
-0.6
 41
-30.0
 62
     5
 63
     8
 74
     1
 91
        4
 64
     7
 65
   257
 75
     1
175
     1
 42
1.0
 92
        8
 66
     8
 43
1.0
 76
     1
 77
     6
 78
     2
 67
     7
 79
     5
170
     0
171
     0
290
     0
174
     0
 93
        1
 44
0.0
173
     0
291
     1
 45
0.0
1001
ACAD
1000
AcDbSavedByObjectVersion
1070
     0
  0
VISUALSTYLE
  5
34
102
{ACAD_REACTORS
330
2A
102
}
330
2A
100
AcDbVisualStyle
  2
Conceptual
 70
     9
 71
     3
 72
     2
 73
     0
 90
        0
 40
-0.6
 41
-30.0
 62
     5
 63
     7
 74
     2
 91
        2
 64
     7
 65
   257
 75
     1
175
     1
 42
40.0
 92
        8
 66
     7
 43
1.0
 76
     1
 77
     6
 78
     2
 67
     7
 79
     3
170
     0
171
     0
290
     0
174
     0
 93
        1
 44
0.0
173
     0
291
     0
 45
0.0
1001
ACAD
1000
AcDbSavedByObjectVersion
1070
     0
  0
VISUALSTYLE
  5
35
102
{ACAD_REACTORS
330
2A
102
}
330
2A
100
AcDbVisualStyle
  2
Dim
 70
    11
 71
     2
 72
     2
 73
     0
 90
        0
 40
-0.6
 41
-30.0
 62
     5
 63
     7
 74
     1
 91
        4
 64
     7
 65
   257
 75
     1
175
     1
 42
1.0
 92
        8
 66
     7
 43
1.0
 76
     1
 77
     6
 78
     2
 67
     7
 79
     5
170
     0
171
     0
290
     0
174
     0
 93
        1
 44
-50.0
173
     0
291
     1
 45
0.0
1001
ACAD
1000
AcDbSavedByObjectVersion
1070
     0
  0
VISUALSTYLE
  5
39
102
{ACAD_REACTORS
330
2A
102
}
330
2A
100
AcDbVisualStyle
  2
Facepattern
 70
    15
 71
     2
 72
     2
 73
     0
 90
        0
 40
-0.6
 41
-30.0
 62
     5
 63
     7
 74
     1
 91
        4
 64
     7
 65
   257
 75
     1
175
     1
 42
1.0
 92
        8
 66
     7
 43
1.0
 76
     1
 77
     6
 78
     2
 67
     7
 79
     5
170
     0
171
     0
290
     0
174
     0
 93
        1
 44
0.0
173
     0
291
     1
 45
0.0
1001
ACAD
1000
AcDbSavedByObjectVersion
1070
     0
  0
VISUALSTYLE
  5
2B
102
{ACAD_REACTORS
330
2A
102
}
330
2A
100
AcDbVisualStyle
  2
Flat
 70
     0
 71
     2
 72
     1
 73
     1
 90
        2
 40
-0.6
 41
30.0
 62
     5
 63
     7
 74
     0
 91
        4
 64
     7
 65
   257
 75
     1
175
     1
 42
1.0
 92
        8
 66
     7
 43
1.0
 76
     1
 77
     6
 78
     2
 67
     7
 79
     5
170
     0
171
     0
290
     0
174
     0
 93
       13
 44
0.0
173
     0
291
     1
 45
0.0
1001
ACAD
1000
AcDbSavedByObjectVersion
1070
     0
  0
VISUALSTYLE
  5
2C
102
{ACAD_REACTORS
330
2A
102
}
330
2A
100
AcDbVisualStyle
  2
FlatWithEdges
 70
     1
 71
     2
 72
     1
 73
     1
 90
        2
 40
-0.6
 41
30.0
 62
     5
 63
     7
 74
     1
 91
        4
 64
     7
 65
   257
 75
     1
175
     1
 42
1.0
 92
        0
 66
   257
 43
1.0
 76
     1
 77
     6
 78
     2
 67
     7
 79
     5
170
     0
171
     0
290
     0
174
     0
 93
       13
 44
0.0
173
     0
291
     1
 45
0.0
1001
ACAD
1000
AcDbSavedByObjectVersion
1070
     0
  0
VISUALSTYLE
  5
2D
102
{ACAD_REACTORS
330
2A
102
}
330
2A
100
AcDbVisualStyle
  2
Gouraud
 70
     2
 71
     2
 72
     2
 73
     1
 90
        2
 40
-0.6
 41
30.0
 62
     5
 63
     7
 74
     0
 91
        4
 64
     7
 65
   257
 75
     1
175
     1
 42
1.0
 92
        0
 66
     7
 43
1.0
 76
     1
 77
     6
 78
     2
 67
     7
 79
     5
170
     0
171
     0
290
     0
174
     0
 93
       13
 44
0.0
173
     0
291
     1
 45
0.0
1001
ACAD
1000
AcDbSavedByObjectVersion
1070
     0
  0
VISUALSTYLE
  5
2E
102
{ACAD_REACTORS
330
2A
102
}
330
2A
100
AcDbVisualStyle
  2
GouraudWithEdges
 70
     3
 71
     2
 72
     2
 73
     1
 90
        2
 40
-0.6
 41
30.0
 62
     5
 63
     7
 74
     1
 91
        4
 64
     7
 65
   257
 75
     1
175
     1
 42
1.0
 92
        0
 66
   257
 43
1.0
 76
     1
 77
     6
 78
     2
 67
     7
 79
     5
170
     0
171
     0
290
     0
174
     0
 93
       13
 44
0.0
173
     0
291
     1
 45
0.0
1001
ACAD
1000
AcDbSavedByObjectVersion
1070
     0
  0
VISUALSTYLE
  5
38
102
{ACAD_REACTORS
330
2A
102
}
330
2A
100
AcDbVisualStyle
  2
Linepattern
 70
    14
 71
     2
 72
     2
 73
     0
 90
        0
 40
-0.6
 41
-30.0
 62
     5
 63
     7
 74
     1
 91
        4
 64
     7
 65
   257
 75
     7
175
     7
 42
1.0
 92
        8
 66
     7
 43
1.0
 76
     1
 77
     6
 78
     2
 67
     7
 79
     5
170
     0
171
     0
290
     0
174
     0
 93
        1
 44
0.0
173
     0
291
     1
 45
0.0
1001
ACAD
1000
AcDbSavedByObjectVersion
1070
     0
  0
VISUALSTYLE
  5
33
102
{ACAD_REACTORS
330
2A
102
}
330
2A
100
AcDbVisualStyle
  2
Realistic
 70
     8
 71
     2
 72
     2
 73
     0
 90
        0
 40
-0.6
 41
-30.0
 62
     5
 63
     7
 74
     1
 91
        0
 64
     7
 65
   257
 75
     1
175
     1
 42
1.0
 92
        8
 66
     8
 43
1.0
 76
     1
 77
     6
 78
     2
 67
     7
 79
     5
170
     0
171
     0
290
     0
174
     0
 93
       13
 44
0.0
173
     0
291
     0
 45
0.0
1001
ACAD
1000
AcDbSavedByObjectVersion
1070
     0
  0
VISUALSTYLE
  5
37
102
{ACAD_REACTORS
330
2A
102
}
330
2A
100
AcDbVisualStyle
  2
Thicken
 70
    13
 71
     2
 72
     2
 73
     0
 90
        0
 40
-0.6
 41
-30.0
 62
     5
 63
     7
 74
     1
 91
        4
 64
     7
 65
   257
 75
     1
175
     1
 42
1.0
 92
       12
 66
     7
 43
1.0
 76
     1
 77
     6
 78
     2
 67
     7
 79
     5
170
     0
171
     0
290
     0
174
     0
 93
        1
 44
0.0
173
     0
291
     1
 45
0.0
1001
ACAD
1000
AcDbSavedByObjectVersion
1070
     0
  0
DICTIONARYVAR
  5
3DF
102
{ACAD_REACTORS
330
3DE
102
}
330
3DE
100
DictionaryVariables
280
     0
  1
1:1
  0
DICTIONARYVAR
  5
3E3
102
{ACAD_REACTORS
330
3DE
102
}
330
3DE
100
DictionaryVariables
280
     0
  1
80.000000
  0
DICTIONARYVAR
  5
3E2
102
{ACAD_REACTORS
330
3DE
102
}
330
3DE
100
DictionaryVariables
280
     0
  1
5.000000
  0
ENDSEC
  0
EOF
