  0
SECTION
  2
HEADER
  9
$ACADVER
  1
AC1015
  9
$ACADMAINTVER
 70
     6
  9
$DWGCODEPAGE
  3
ANSI_1252
  9
$INSBASE
 10
0.0
 20
0.0
 30
0.0
  9
$EXTMIN
 10
0.0
 20
0.0
 30
0.0
  9
$EXTMAX
 10
1682.0
 20
2378.0
 30
0.0
  9
$LIMMIN
 10
0.0
 20
0.0
  9
$LIMMAX
 10
1682.0
 20
2378.0
  9
$ORTHOMODE
 70
     0
  9
$REGENMODE
 70
     1
  9
$FILLMODE
 70
     1
  9
$QTEXTMODE
 70
     0
  9
$MIRRTEXT
 70
     1
  9
$LTSCALE
 40
1.0
  9
$ATTMODE
 70
     1
  9
$TEXTSIZE
 40
2.5
  9
$TRACEWID
 40
1.0
  9
$TEXTSTYLE
  7
Standard
  9
$CLAYER
  8
0
  9
$CELTYPE
  6
ByLayer
  9
$CECOLOR
 62
   256
  9
$CELTSCALE
 40
1.0
  9
$DISPSILH
 70
     0
  9
$DIMSCALE
 40
1.0
  9
$DIMASZ
 40
2.5
  9
$DIMEXO
 40
0.625
  9
$DIMDLI
 40
3.75
  9
$DIMRND
 40
0.0
  9
$DIMDLE
 40
0.0
  9
$DIMEXE
 40
1.25
  9
$DIMTP
 40
0.0
  9
$DIMTM
 40
0.0
  9
$DIMTXT
 40
2.5
  9
$DIMCEN
 40
2.5
  9
$DIMTSZ
 40
0.0
  9
$DIMTOL
 70
     0
  9
$DIMLIM
 70
     0
  9
$DIMTIH
 70
     0
  9
$DIMTOH
 70
     0
  9
$DIMSE1
 70
     0
  9
$DIMSE2
 70
     0
  9
$DIMTAD
 70
     1
  9
$DIMZIN
 70
     8
  9
$DIMBLK
  1

  9
$DIMASO
 70
     1
  9
$DIMSHO
 70
     1
  9
$DIMPOST
  1

  9
$DIMAPOST
  1

  9
$DIMALT
 70
     0
  9
$DIMALTD
 70
     3
  9
$DIMALTF
 40
0.0393700787
  9
$DIMLFAC
 40
1.0
  9
$DIMTOFL
 70
     1
  9
$DIMTVP
 40
0.0
  9
$DIMTIX
 70
     0
  9
$DIMSOXD
 70
     0
  9
$DIMSAH
 70
     0
  9
$DIMBLK1
  1

  9
$DIMBLK2
  1

  9
$DIMSTYLE
  2
ISO-25
  9
$DIMCLRD
 70
     0
  9
$DIMCLRE
 70
     0
  9
$DIMCLRT
 70
     0
  9
$DIMTFAC
 40
1.0
  9
$DIMGAP
 40
0.625
  9
$DIMJUST
 70
     0
  9
$DIMSD1
 70
     0
  9
$DIMSD2
 70
     0
  9
$DIMTOLJ
 70
     0
  9
$DIMTZIN
 70
     8
  9
$DIMALTZ
 70
     0
  9
$DIMALTTZ
 70
     0
  9
$DIMUPT
 70
     0
  9
$DIMDEC
 70
     2
  9
$DIMTDEC
 70
     2
  9
$DIMALTU
 70
     2
  9
$DIMALTTD
 70
     3
  9
$DIMTXSTY
  7
Standard
  9
$DIMAUNIT
 70
     0
  9
$DIMADEC
 70
     0
  9
$DIMALTRND
 40
0.0
  9
$DIMAZIN
 70
     0
  9
$DIMDSEP
 70
    44
  9
$DIMATFIT
 70
     3
  9
$DIMFRAC
 70
     0
  9
$DIMLDRBLK
  1

  9
$DIMLUNIT
 70
     2
  9
$DIMLWD
 70
    -2
  9
$DIMLWE
 70
    -2
  9
$DIMTMOVE
 70
     0
  9
$LUNITS
 70
     2
  9
$LUPREC
 70
     4
  9
$SKETCHINC
 40
1.0
  9
$FILLETRAD
 40
10.0
  9
$AUNITS
 70
     0
  9
$AUPREC
 70
     0
  9
$MENU
  1
.
  9
$ELEVATION
 40
0.0
  9
$PELEVATION
 40
0.0
  9
$THICKNESS
 40
0.0
  9
$LIMCHECK
 70
     0
  9
$CHAMFERA
 40
10.0
  9
$CHAMFERB
 40
10.0
  9
$CHAMFERC
 40
20.0
  9
$CHAMFERD
 40
0.0
  9
$SKPOLY
 70
     0
  9
$TDCREATE
 40
2455671.619525926
  9
$TDUCREATE
 40
2455671.536192593
  9
$TDUPDATE
 40
2455671.619525937
  9
$TDUUPDATE
 40
2455671.536192604
  9
$TDINDWG
 40
0.0000000116
  9
$TDUSRTIMER
 40
0.0000000116
  9
$USRTIMER
 70
     1
  9
$ANGBASE
 50
0.0
  9
$ANGDIR
 70
     0
  9
$PDMODE
 70
     0
  9
$PDSIZE
 40
0.0
  9
$PLINEWID
 40
0.0
  9
$SPLFRAME
 70
     0
  9
$SPLINETYPE
 70
     6
  9
$SPLINESEGS
 70
     8
  9
$HANDSEED
  5
155
  9
$SURFTAB1
 70
     6
  9
$SURFTAB2
 70
     6
  9
$SURFTYPE
 70
     6
  9
$SURFU
 70
     6
  9
$SURFV
 70
     6
  9
$UCSBASE
  2

  9
$UCSNAME
  2

  9
$UCSORG
 10
0.0
 20
0.0
 30
0.0
  9
$UCSXDIR
 10
1.0
 20
0.0
 30
0.0
  9
$UCSYDIR
 10
0.0
 20
1.0
 30
0.0
  9
$UCSORTHOREF
  2

  9
$UCSORTHOVIEW
 70
     0
  9
$UCSORGTOP
 10
0.0
 20
0.0
 30
0.0
  9
$UCSORGBOTTOM
 10
0.0
 20
0.0
 30
0.0
  9
$UCSORGLEFT
 10
0.0
 20
0.0
 30
0.0
  9
$UCSORGRIGHT
 10
0.0
 20
0.0
 30
0.0
  9
$UCSORGFRONT
 10
0.0
 20
0.0
 30
0.0
  9
$UCSORGBACK
 10
0.0
 20
0.0
 30
0.0
  9
$PUCSBASE
  2

  9
$PUCSNAME
  2

  9
$PUCSORG
 10
0.0
 20
0.0
 30
0.0
  9
$PUCSXDIR
 10
1.0
 20
0.0
 30
0.0
  9
$PUCSYDIR
 10
0.0
 20
1.0
 30
0.0
  9
$PUCSORTHOREF
  2

  9
$PUCSORTHOVIEW
 70
     0
  9
$PUCSORGTOP
 10
0.0
 20
0.0
 30
0.0
  9
$PUCSORGBOTTOM
 10
0.0
 20
0.0
 30
0.0
  9
$PUCSORGLEFT
 10
0.0
 20
0.0
 30
0.0
  9
$PUCSORGRIGHT
 10
0.0
 20
0.0
 30
0.0
  9
$PUCSORGFRONT
 10
0.0
 20
0.0
 30
0.0
  9
$PUCSORGBACK
 10
0.0
 20
0.0
 30
0.0
  9
$USERI1
 70
     0
  9
$USERI2
 70
     0
  9
$USERI3
 70
     0
  9
$USERI4
 70
     0
  9
$USERI5
 70
     0
  9
$USERR1
 40
0.0
  9
$USERR2
 40
0.0
  9
$USERR3
 40
0.0
  9
$USERR4
 40
0.0
  9
$USERR5
 40
0.0
  9
$WORLDVIEW
 70
     1
  9
$SHADEDGE
 70
     3
  9
$SHADEDIF
 70
    70
  9
$TILEMODE
 70
     1
  9
$MAXACTVP
 70
    64
  9
$PINSBASE
 10
0.0
 20
0.0
 30
0.0
  9
$PLIMCHECK
 70
     0
  9
$PEXTMIN
 10
0.0
 20
0.0
 30
0.0
  9
$PEXTMAX
 10
1682.0
 20
2378.0
 30
0.0
  9
$PLIMMIN
 10
0.0
 20
0.0
  9
$PLIMMAX
 10
1682.0
 20
2378.0
  9
$UNITMODE
 70
     0
  9
$VISRETAIN
 70
     1
  9
$PLINEGEN
 70
     0
  9
$PSLTSCALE
 70
     1
  9
$TREEDEPTH
 70
  3020
  9
$CMLSTYLE
  2
Standard
  9
$CMLJUST
 70
     0
  9
$CMLSCALE
 40
20.0
  9
$PROXYGRAPHICS
 70
     1
  9
$MEASUREMENT
 70
     1
  9
$CELWEIGHT
370
    -1
  9
$ENDCAPS
280
     0
  9
$JOINSTYLE
280
     0
  9
$LWDISPLAY
290
     0
  9
$INSUNITS
 70
     4
  9
$HYPERLINKBASE
  1

  9
$STYLESHEET
  1

  9
$XEDIT
290
     1
  9
$CEPSNTYPE
380
     0
  9
$PSTYLEMODE
290
     1
  9
$FINGERPRINTGUID
  2
{64B60890-E815-4D15-8534-E0A59C6B051E}
  9
$VERSIONGUID
  2
{FAEB1C32-E019-11D5-929B-00C0DF256EC4}
  9
$EXTNAMES
290
     1
  9
$PSVPSCALE
 40
0.0
  9
$OLESTARTUP
290
     0
  0
ENDSEC
  0
SECTION
  2
CLASSES
  0
CLASS
  1
ACDBDICTIONARYWDFLT
  2
AcDbDictionaryWithDefault
  3
ObjectDBX Classes
 90
        0
280
     0
281
     0
  0
CLASS
  1
VISUALSTYLE
  2
AcDbVisualStyle
  3
ObjectDBX Classes
 90
     4095
280
     0
281
     0
  0
CLASS
  1
SCALE
  2
AcDbScale
  3
ObjectDBX Classes
 90
     1153
280
     0
281
     0
  0
CLASS
  1
DICTIONARYVAR
  2
AcDbDictionaryVar
  3
ObjectDBX Classes
 90
        0
280
     0
281
     0
  0
CLASS
  1
ACDBPLACEHOLDER
  2
AcDbPlaceHolder
  3
ObjectDBX Classes
 90
        0
280
     0
281
     0
  0
CLASS
  1
LAYOUT
  2
AcDbLayout
  3
ObjectDBX Classes
 90
        0
280
     0
281
     0
  0
ENDSEC
  0
SECTION
  2
TABLES
  0
TABLE
  2
VPORT
  5
8
330
0
100
AcDbSymbolTable
 70
     1
  0
VPORT
  5
29
330
8
100
AcDbSymbolTableRecord
100
AcDbViewportTableRecord
  2
*Active
 70
     0
 10
0.0
 20
0.0
 11
1.0
 21
1.0
 12
344.1869158879
 22
148.5
 13
0.0
 23
0.0
 14
10.0
 24
10.0
 15
10.0
 25
10.0
 16
0.0
 26
0.0
 36
1.0
 17
0.0
 27
0.0
 37
0.0
 40
297.0
 41
1.9729729729
 42
50.0
 43
0.0
 44
0.0
 50
0.0
 51
0.0
 71
     0
 72
   100
 73
     1
 74
     3
 75
     0
 76
     0
 77
     0
 78
     0
281
     0
 65
     1
110
0.0
120
0.0
130
0.0
111
1.0
121
0.0
131
0.0
112
0.0
122
1.0
132
0.0
 79
     0
146
0.0
  0
ENDTAB
  0
TABLE
  2
LTYPE
  5
5
330
0
100
AcDbSymbolTable
 70
     2
  0
LTYPE
  5
14
330
5
100
AcDbSymbolTableRecord
100
AcDbLinetypeTableRecord
  2
ByBlock
 70
     0
  3

 72
    65
 73
     0
 40
0.0
  0
LTYPE
  5
15
330
5
100
AcDbSymbolTableRecord
100
AcDbLinetypeTableRecord
  2
ByLayer
 70
     0
  3

 72
    65
 73
     0
 40
0.0
  0
LTYPE
  5
16
330
5
100
AcDbSymbolTableRecord
100
AcDbLinetypeTableRecord
  2
Continuous
 70
     0
  3
Solid line
 72
    65
 73
     0
 40
0.0
  0
LTYPE
  5
60
330
5
100
AcDbSymbolTableRecord
100
AcDbLinetypeTableRecord
  2
CENTER2
 70
     0
  3
Center (.5x) ___ _ ___ _ ___ _ ___ _ ___ _ ___
 72
    65
 73
     4
 40
28.575
 49
19.05
 74
     4
 75
     0
340
0
 46
0.0
 50
0.0
 44
0.0
 45
0.0
 49
-3.175
 74
     4
 75
     0
340
0
 46
0.0
 50
0.0
 44
0.0
 45
0.0
 49
3.175
 74
     4
 75
     0
340
0
 46
0.0
 50
0.0
 44
0.0
 45
0.0
 49
-3.175
 74
     4
 75
     0
340
0
 46
0.0
 50
0.0
 44
0.0
 45
0.0
  0
ENDTAB
  0
TABLE
  2
LAYER
  5
2
330
0
100
AcDbSymbolTable
 70
     5
  0
LAYER
  5
10
330
2
100
AcDbSymbolTableRecord
100
AcDbLayerTableRecord
  2
0
 70
     0
 62
     7
  6
Continuous
370
    -3
390
F
  0
LAYER
  5
5D
330
2
100
AcDbSymbolTableRecord
100
AcDbLayerTableRecord
  2
Default
 70
     0
 62
     7
  6
Continuous
370
    -3
390
F
  0
LAYER
  5
77
330
2
100
AcDbSymbolTableRecord
100
AcDbLayerTableRecord
  2
$DDT_AUDIT_GENERATED_(77)
 70
     0
 62
     7
  6
Continuous
370
    -3
390
F
  0
LAYER
  5
B6
330
2
100
AcDbSymbolTableRecord
100
AcDbLayerTableRecord
  2
$DDT_AUDIT_GENERATED_(B6)
 70
     0
 62
     7
  6
Continuous
370
    -3
390
F
  0
LAYER
  5
C0
330
2
100
AcDbSymbolTableRecord
100
AcDbLayerTableRecord
  2
$DDT_AUDIT_GENERATED_(C0)
 70
     0
 62
     7
  6
Continuous
370
    -3
390
F
  0
ENDTAB
  0
TABLE
  2
STYLE
  5
3
330
0
100
AcDbSymbolTable
 70
     2
  0
STYLE
  5
11
330
3
100
AcDbSymbolTableRecord
100
AcDbTextStyleTableRecord
  2
Standard
 70
     0
 40
0.0
 41
1.0
 50
0.0
 71
     0
 42
2.5
  3
txt
  4

  0
STYLE
  5
144
330
3
100
AcDbSymbolTableRecord
100
AcDbTextStyleTableRecord
  2
SEACAD_seiso_ttf
 70
     0
 40
0.0
 41
1.0
 50
0.0
 71
     0
 42
0.2
  3
seiso.ttf
  4

  0
ENDTAB
  0
TABLE
  2
VIEW
  5
6
330
0
100
AcDbSymbolTable
 70
     0
  0
ENDTAB
  0
TABLE
  2
UCS
  5
7
330
0
100
AcDbSymbolTable
 70
     0
  0
ENDTAB
  0
TABLE
  2
APPID
  5
9
330
0
100
AcDbSymbolTable
 70
     1
  0
APPID
  5
12
330
9
100
AcDbSymbolTableRecord
100
AcDbRegAppTableRecord
  2
ACAD
 70
     0
  0
ENDTAB
  0
TABLE
  2
DIMSTYLE
  5
A
330
0
100
AcDbSymbolTable
 70
     1
100
AcDbDimStyleTable
  0
DIMSTYLE
105
27
330
A
100
AcDbSymbolTableRecord
100
AcDbDimStyleTableRecord
  2
ISO-25
 70
     0
 41
2.5
 42
0.625
 43
3.75
 44
1.25
 73
     0
 74
     0
 77
     1
 78
     8
140
2.5
141
2.5
143
0.0393700787
147
0.625
171
     3
172
     1
271
     2
272
     2
274
     3
278
    44
283
     0
284
     8
340
11
  0
ENDTAB
  0
TABLE
  2
BLOCK_RECORD
  5
1
330
0
100
AcDbSymbolTable
 70
     8
  0
BLOCK_RECORD
  5
1F
330
1
100
AcDbSymbolTableRecord
100
AcDbBlockTableRecord
  2
*Model_Space
340
22
  0
BLOCK_RECORD
  5
1B
330
1
100
AcDbSymbolTableRecord
100
AcDbBlockTableRecord
  2
*Paper_Space
340
1E
  0
BLOCK_RECORD
  5
5E
330
1
100
AcDbSymbolTableRecord
100
AcDbBlockTableRecord
  2
SEANNOT_GROUP
340
0
102
{BLKREFS
331
5F
102
}
  0
BLOCK_RECORD
  5
65
330
1
100
AcDbSymbolTableRecord
100
AcDbBlockTableRecord
  2
SEANNOT_GROUP1
340
0
102
{BLKREFS
331
66
102
}
  0
BLOCK_RECORD
  5
6B
330
1
100
AcDbSymbolTableRecord
100
AcDbBlockTableRecord
  2
SEANNOT_GROUP2
340
0
102
{BLKREFS
331
6C
102
}
  0
BLOCK_RECORD
  5
70
330
1
100
AcDbSymbolTableRecord
100
AcDbBlockTableRecord
  2
SEANNOT_GROUP3
340
0
102
{BLKREFS
331
71
102
}
  0
BLOCK_RECORD
  5
75
330
1
100
AcDbSymbolTableRecord
100
AcDbBlockTableRecord
  2
SE
340
0
102
{BLKREFS
331
76
102
}
  0
BLOCK_RECORD
  5
E7
330
1
100
AcDbSymbolTableRecord
100
AcDbBlockTableRecord
  2
SE1
340
0
102
{BLKREFS
331
E8
102
}
  0
BLOCK_RECORD
  5
11A
330
1
100
AcDbSymbolTableRecord
100
AcDbBlockTableRecord
  2
SE2
340
0
102
{BLKREFS
331
11B
102
}
  0
ENDTAB
  0
ENDSEC
  0
SECTION
  2
BLOCKS
  0
BLOCK
  5
20
330
1F
100
AcDbEntity
  8
0
100
AcDbBlockBegin
  2
*Model_Space
 70
     0
 10
0.0
 20
0.0
 30
0.0
  3
*Model_Space
  1

  0
ENDBLK
  5
21
330
1F
100
AcDbEntity
  8
0
100
AcDbBlockEnd
  0
BLOCK
  5
1C
330
1B
100
AcDbEntity
 67
     1
  8
0
100
AcDbBlockBegin
  2
*Paper_Space
 70
     0
 10
0.0
 20
0.0
 30
0.0
  3
*Paper_Space
  1

  0
ENDBLK
  5
1D
330
1B
100
AcDbEntity
 67
     1
  8
0
100
AcDbBlockEnd
  0
BLOCK
  5
63
330
5E
100
AcDbEntity
  8
0
100
AcDbBlockBegin
  2
SEANNOT_GROUP
 70
     0
 10
0.0
 20
0.0
 30
0.0
  3
SEANNOT_GROUP
  1

  0
LINE
  5
61
330
5E
100
AcDbEntity
  8
Default
  6
CENTER2
 62
     7
100
AcDbLine
 10
152.309999553
 20
275.8481369733
 30
0.0
 11
112.310000447
 21
275.8481369733
 31
0.0
  0
LINE
  5
62
330
5E
100
AcDbEntity
  8
Default
  6
CENTER2
 62
     7
100
AcDbLine
 10
132.31
 20
295.8481365262
 30
0.0
 11
132.31
 21
255.8481374203
 31
0.0
  0
ENDBLK
  5
64
330
5E
100
AcDbEntity
  8
0
100
AcDbBlockEnd
  0
BLOCK
  5
69
330
65
100
AcDbEntity
  8
0
100
AcDbBlockBegin
  2
SEANNOT_GROUP1
 70
     0
 10
0.0
 20
0.0
 30
0.0
  3
SEANNOT_GROUP1
  1

  0
LINE
  5
67
330
65
100
AcDbEntity
  8
Default
  6
CENTER2
 62
     7
100
AcDbLine
 10
152.309999553
 20
190.8048044523
 30
0.0
 11
112.310000447
 21
190.8048044523
 31
0.0
  0
LINE
  5
68
330
65
100
AcDbEntity
  8
Default
  6
CENTER2
 62
     7
100
AcDbLine
 10
132.31
 20
210.8048040053
 30
0.0
 11
132.31
 21
170.8048048993
 31
0.0
  0
ENDBLK
  5
6A
330
65
100
AcDbEntity
  8
0
100
AcDbBlockEnd
  0
BLOCK
  5
6E
330
6B
100
AcDbEntity
  8
0
100
AcDbBlockBegin
  2
SEANNOT_GROUP2
 70
     0
 10
0.0
 20
0.0
 30
0.0
  3
SEANNOT_GROUP2
  1

  0
LINE
  5
6D
330
6B
100
AcDbEntity
  8
Default
  6
CENTER2
 62
     7
100
AcDbLine
 10
48.4206930714
 20
275.8481369733
 30
0.0
 11
106.4206930714
 21
275.8481369733
 31
0.0
  0
ENDBLK
  5
6F
330
6B
100
AcDbEntity
  8
0
100
AcDbBlockEnd
  0
BLOCK
  5
73
330
70
100
AcDbEntity
  8
0
100
AcDbBlockBegin
  2
SEANNOT_GROUP3
 70
     0
 10
0.0
 20
0.0
 30
0.0
  3
SEANNOT_GROUP3
  1

  0
LINE
  5
72
330
70
100
AcDbEntity
  8
Default
  6
CENTER2
 62
     7
100
AcDbLine
 10
77.4206930714
 20
246.8481369733
 30
0.0
 11
77.4206930714
 21
304.8481369733
 31
0.0
  0
ENDBLK
  5
74
330
70
100
AcDbEntity
  8
0
100
AcDbBlockEnd
  0
BLOCK
  5
E5
330
75
100
AcDbEntity
  8
0
100
AcDbBlockBegin
  2
SE
 70
     0
 10
0.0
 20
0.0
 30
0.0
  3
SE
  1

  0
LINE
  5
78
330
75
100
AcDbEntity
  8
$DDT_AUDIT_GENERATED_(77)
  6
Continuous
 62
     7
100
AcDbLine
 10
51.9206930714
 20
249.8481369733
 30
0.0
 11
51.9207046991
 21
250.1665788925
 31
0.0
  0
ELLIPSE
  5
79
330
75
100
AcDbEntity
  8
$DDT_AUDIT_GENERATED_(77)
  6
Continuous
 62
     7
100
AcDbEllipse
 10
51.9207021804
 20
250.3481460823
 30
0.0
 11
0.3535668736268927
 21
-0.3535668735512344
 31
0.0
210
0.0
220
0.0
230
0.9999999999999998
 40
0.2656685174
 41
4.452711817171576
 42
4.972066143540912
  0
LINE
  5
7A
330
75
100
AcDbEntity
  8
$DDT_AUDIT_GENERATED_(77)
  6
Continuous
 62
     7
100
AcDbLine
 10
51.7391349906
 20
250.348148601
 30
0.0
 11
51.4206930714
 21
250.3481369733
 31
0.0
  0
SPLINE
  5
7B
330
75
100
AcDbEntity
  8
$DDT_AUDIT_GENERATED_(77)
  6
Continuous
 62
     7
100
AcDbSpline
210
0.0
220
0.0
230
1.0
 70
     8
 71
     3
 72
    19
 73
    15
 74
     0
 42
0.0000000127086404
 43
0.0000000001
 40
0.0
 40
0.0
 40
0.0
 40
0.0
 40
0.0833333333333327
 40
0.1666666666666653
 40
0.2500000000000001
 40
0.3333333333333327
 40
0.4166666666666654
 40
0.5
 40
0.5833333333333326
 40
0.6666666666666674
 40
0.75
 40
0.8333333333333331
 40
0.9166666666666665
 40
1.0
 40
1.0
 40
1.0
 40
1.0
 10
51.42069307142527
 20
250.348136973272
 30
0.0
 10
51.42069307142527
 20
250.3265665128211
 30
0.0
 10
51.42362362998308
 20
250.2832180372727
 30
0.0
 10
51.43649873105308
 20
250.2188667002248
 30
0.0
 10
51.45754068291597
 20
250.1564807796666
 30
0.0
 10
51.48643707313147
 20
250.0973543158129
 30
0.0
 10
51.52287548925937
 20
250.0427813488786
 30
0.0
 10
51.56610720455127
 20
249.9935090798712
 30
0.0
 10
51.61538349225897
 20
249.9502847097981
 30
0.0
 10
51.66995562563397
 20
249.9138554396669
 30
0.0
 10
51.72907487792797
 20
249.8849684704848
 30
0.0
 10
51.79144936194868
 20
249.8639349167345
 30
0.0
 10
51.85578719050368
 20
249.8510658928984
 30
0.0
 10
51.89912671443477
 20
249.848136973272
 30
0.0
 10
51.92069307142527
 20
249.848136973272
 30
0.0
  0
LINE
  5
7C
330
75
100
AcDbEntity
  8
$DDT_AUDIT_GENERATED_(77)
  6
Continuous
 62
     7
100
AcDbLine
 10
51.9206930714
 20
301.8481369733
 30
0.0
 11
51.9207046991
 21
301.5296950541
 31
0.0
  0
SPLINE
  5
7D
330
75
100
AcDbEntity
  8
$DDT_AUDIT_GENERATED_(77)
  6
Continuous
 62
     7
100
AcDbSpline
210
0.0
220
0.0
230
1.0
 70
     8
 71
     3
 72
    10
 73
     6
 74
     0
 42
0.0000000124189131
 43
0.0000000001
 40
0.0
 40
0.0
 40
0.0
 40
0.0
 40
0.5
 40
0.5
 40
1.0
 40
1.0
 40
1.0
 40
1.0
 10
51.42069307142526
 20
301.348136973272
 30
0.0
 10
51.42069307142526
 20
301.4790366671716
 30
0.0
 10
51.47457961962034
 20
301.6091303026536
 30
0.0
 10
51.65969974204361
 20
301.7942504250769
 30
0.0
 10
51.78979337752565
 20
301.848136973272
 30
0.0
 10
51.92069307142526
 20
301.848136973272
 30
0.0
  0
LINE
  5
7E
330
75
100
AcDbEntity
  8
$DDT_AUDIT_GENERATED_(77)
  6
Continuous
 62
     7
100
AcDbLine
 10
51.7391349906
 20
301.3481253456
 30
0.0
 11
51.4206930714
 21
301.3481369733
 31
0.0
  0
ELLIPSE
  5
7F
330
75
100
AcDbEntity
  8
$DDT_AUDIT_GENERATED_(77)
  6
Continuous
 62
     7
100
AcDbEllipse
 10
51.9207021804
 20
301.3481278643
 30
0.0
 11
0.3535668735519838
 21
0.3535668736274512
 31
0.0
210
0.0
220
0.0
230
1.0
 40
0.2656685174
 41
1.311119163582118
 42
1.830473489950585
  0
ELLIPSE
  5
80
330
75
100
AcDbEntity
  8
$DDT_AUDIT_GENERATED_(77)
  6
Continuous
 62
     7
100
AcDbEllipse
 10
102.9206839624
 20
250.3481460823
 30
0.0
 11
-0.3535668735889022
 21
-0.3535668735892804
 31
0.0
210
0.0
220
0.0
230
1.0
 40
0.2656685174
 41
1.311119163610253
 42
1.830473489979589
  0
LINE
  5
81
330
75
100
AcDbEntity
  8
$DDT_AUDIT_GENERATED_(77)
  6
Continuous
 62
     7
100
AcDbLine
 10
102.9206930714
 20
249.8481369733
 30
0.0
 11
102.9206814437
 21
250.1665788925
 31
0.0
  0
SPLINE
  5
82
330
75
100
AcDbEntity
  8
$DDT_AUDIT_GENERATED_(77)
  6
Continuous
 62
     7
100
AcDbSpline
210
0.0
220
0.0
230
1.0
 70
     8
 71
     3
 72
    10
 73
     6
 74
     0
 42
0.0000000124189131
 43
0.0000000001
 40
0.0
 40
0.0
 40
0.0
 40
0.0
 40
0.5
 40
0.5
 40
1.0
 40
1.0
 40
1.0
 40
1.0
 10
103.4206930714253
 20
250.348136973272
 30
0.0
 10
103.4206930714253
 20
250.2172372793725
 30
0.0
 10
103.3668065232302
 20
250.0871436438904
 30
0.0
 10
103.1816864008069
 20
249.9020235214671
 30
0.0
 10
103.0515927653249
 20
249.848136973272
 30
0.0
 10
102.9206930714253
 20
249.848136973272
 30
0.0
  0
LINE
  5
83
330
75
100
AcDbEntity
  8
$DDT_AUDIT_GENERATED_(77)
  6
Continuous
 62
     7
100
AcDbLine
 10
103.1022511522
 20
250.348148601
 30
0.0
 11
103.4206930714
 21
250.3481369733
 31
0.0
  0
LINE
  5
84
330
75
100
AcDbEntity
  8
$DDT_AUDIT_GENERATED_(77)
  6
Continuous
 62
     7
100
AcDbLine
 10
102.9206930714
 20
301.8481369733
 30
0.0
 11
102.9206813427
 21
301.5296950541
 31
0.0
  0
ELLIPSE
  5
85
330
75
100
AcDbEntity
  8
$DDT_AUDIT_GENERATED_(77)
  6
Continuous
 62
     7
100
AcDbEllipse
 10
102.9206838087
 20
301.3481277106
 30
0.0
 11
-0.3535672608122597
 21
0.3535672608400847
 31
0.0
210
0.0
220
0.0
230
1.0
 40
0.2656685184
 41
4.452711960439057
 42
4.972066000330228
  0
LINE
  5
86
330
75
100
AcDbEntity
  8
$DDT_AUDIT_GENERATED_(77)
  6
Continuous
 62
     7
100
AcDbLine
 10
103.1022511522
 20
301.3481252446
 30
0.0
 11
103.4206930714
 21
301.3481369733
 31
0.0
  0
SPLINE
  5
87
330
75
100
AcDbEntity
  8
$DDT_AUDIT_GENERATED_(77)
  6
Continuous
 62
     7
100
AcDbSpline
210
0.0
220
0.0
230
1.0
 70
     8
 71
     3
 72
    19
 73
    15
 74
     0
 42
0.0000000127086404
 43
0.0000000001
 40
0.0
 40
0.0
 40
0.0
 40
0.0
 40
0.0833333333333343
 40
0.1666666666666685
 40
0.2500000000000006
 40
0.3333333333333348
 40
0.4166666666666669
 40
0.500000000000001
 40
0.5833333333333333
 40
0.6666666666666673
 40
0.7499999999999996
 40
0.8333333333333335
 40
0.9166666666666669
 40
1.0
 40
1.0
 40
1.0
 40
1.0
 10
103.4206930714253
 20
301.348136973272
 30
0.0
 10
103.4206930714253
 20
301.3697074337229
 30
0.0
 10
103.4177625128675
 20
301.4130559092713
 30
0.0
 10
103.4048874117975
 20
301.4774072463192
 30
0.0
 10
103.3838454599346
 20
301.5397931668774
 30
0.0
 10
103.3549490697191
 20
301.5989196307311
 30
0.0
 10
103.3185106535912
 20
301.6534925976654
 30
0.0
 10
103.2752789382992
 20
301.7027648666728
 30
0.0
 10
103.2260026505916
 20
301.7459892367459
 30
0.0
 10
103.1714305172166
 20
301.7824185068771
 30
0.0
 10
103.1123112649225
 20
301.8113054760592
 30
0.0
 10
103.0499367809018
 20
301.8323390298095
 30
0.0
 10
102.9855989523469
 20
301.8452080536456
 30
0.0
 10
102.9422594284158
 20
301.848136973272
 30
0.0
 10
102.9206930714253
 20
301.848136973272
 30
0.0
  0
LINE
  5
88
330
75
100
AcDbEntity
  8
$DDT_AUDIT_GENERATED_(77)
  6
Continuous
 62
     7
100
AcDbLine
 10
51.9206930714
 20
301.8481369733
 30
0.0
 11
102.9206930714
 21
301.8481369733
 31
0.0
  0
LINE
  5
89
330
75
100
AcDbEntity
  8
$DDT_AUDIT_GENERATED_(77)
  6
Continuous
 62
     7
100
AcDbLine
 10
103.4206930714
 20
250.3481369733
 30
0.0
 11
103.4206930714
 21
301.3481369733
 31
0.0
  0
LINE
  5
8A
330
75
100
AcDbEntity
  8
$DDT_AUDIT_GENERATED_(77)
  6
Continuous
 62
     7
100
AcDbLine
 10
102.9206930714
 20
249.8481369733
 30
0.0
 11
87.8981930714
 21
249.8481369733
 31
0.0
  0
LINE
  5
8B
330
75
100
AcDbEntity
  8
$DDT_AUDIT_GENERATED_(77)
  6
Continuous
 62
     7
100
AcDbLine
 10
66.9431930714
 20
249.8481369733
 30
0.0
 11
51.9206930714
 21
249.8481369733
 31
0.0
  0
LINE
  5
8C
330
75
100
AcDbEntity
  8
$DDT_AUDIT_GENERATED_(77)
  6
Continuous
 62
     7
100
AcDbLine
 10
51.4206930714
 20
250.3481369733
 30
0.0
 11
51.4206930714
 21
301.3481369733
 31
0.0
  0
LINE
  5
8D
330
75
100
AcDbEntity
  8
$DDT_AUDIT_GENERATED_(77)
  6
Continuous
 62
     7
100
AcDbLine
 10
102.9206814437
 20
250.1665788925
 30
0.0
 11
96.7382841785
 21
256.3489843429
 31
0.0
  0
LINE
  5
8E
330
75
100
AcDbEntity
  8
$DDT_AUDIT_GENERATED_(77)
  6
Continuous
 62
     7
100
AcDbLine
 10
51.9207046991
 20
250.1665788925
 30
0.0
 11
58.1031019644
 21
256.3489843429
 31
0.0
  0
LINE
  5
8F
330
75
100
AcDbEntity
  8
$DDT_AUDIT_GENERATED_(77)
  6
Continuous
 62
     7
100
AcDbLine
 10
102.9206814437
 20
250.1665788925
 30
0.0
 11
87.8981930714
 21
250.1665788925
 31
0.0
  0
LINE
  5
90
330
75
100
AcDbEntity
  8
$DDT_AUDIT_GENERATED_(77)
  6
Continuous
 62
     7
100
AcDbLine
 10
66.9431930714
 20
250.1665788925
 30
0.0
 11
51.9207046991
 21
250.1665788925
 31
0.0
  0
LINE
  5
91
330
75
100
AcDbEntity
  8
$DDT_AUDIT_GENERATED_(77)
  6
Continuous
 62
     7
100
AcDbLine
 10
51.7391349906
 20
250.348148601
 30
0.0
 11
57.9215404411
 21
256.5305458662
 31
0.0
  0
LINE
  5
92
330
75
100
AcDbEntity
  8
$DDT_AUDIT_GENERATED_(77)
  6
Continuous
 62
     7
100
AcDbLine
 10
51.7391349906
 20
301.3481253456
 30
0.0
 11
57.9215404411
 21
295.1657280803
 31
0.0
  0
LINE
  5
93
330
75
100
AcDbEntity
  8
$DDT_AUDIT_GENERATED_(77)
  6
Continuous
 62
     7
100
AcDbLine
 10
51.7391349906
 20
250.348148601
 30
0.0
 11
51.7391349906
 21
301.3481253456
 31
0.0
  0
LINE
  5
94
330
75
100
AcDbEntity
  8
$DDT_AUDIT_GENERATED_(77)
  6
Continuous
 62
     7
100
AcDbLine
 10
96.7382842064
 20
295.3472896036
 30
0.0
 11
102.9206813427
 21
301.5296950541
 31
0.0
  0
LINE
  5
95
330
75
100
AcDbEntity
  8
$DDT_AUDIT_GENERATED_(77)
  6
Continuous
 62
     7
100
AcDbLine
 10
51.9207046991
 20
301.5296950541
 30
0.0
 11
102.9206813427
 21
301.5296950541
 31
0.0
  0
LINE
  5
96
330
75
100
AcDbEntity
  8
$DDT_AUDIT_GENERATED_(77)
  6
Continuous
 62
     7
100
AcDbLine
 10
51.9207046991
 20
301.5296950541
 30
0.0
 11
58.1031019644
 21
295.3472896036
 31
0.0
  0
LINE
  5
97
330
75
100
AcDbEntity
  8
$DDT_AUDIT_GENERATED_(77)
  6
Continuous
 62
     7
100
AcDbLine
 10
103.1022511522
 20
250.348148601
 30
0.0
 11
103.1022511522
 21
301.3481252446
 31
0.0
  0
LINE
  5
98
330
75
100
AcDbEntity
  8
$DDT_AUDIT_GENERATED_(77)
  6
Continuous
 62
     7
100
AcDbLine
 10
96.9198457018
 20
295.1657281082
 30
0.0
 11
103.1022511522
 21
301.3481252446
 31
0.0
  0
LINE
  5
99
330
75
100
AcDbEntity
  8
$DDT_AUDIT_GENERATED_(77)
  6
Continuous
 62
     7
100
AcDbLine
 10
103.1022511522
 20
250.348148601
 30
0.0
 11
96.9198457018
 21
256.5305458662
 31
0.0
  0
ELLIPSE
  5
9A
330
75
100
AcDbEntity
  8
$DDT_AUDIT_GENERATED_(77)
  6
Continuous
 62
     7
100
AcDbEllipse
 10
96.9151784923
 20
295.3426223938
 30
0.0
 11
0.7059228319461381
 21
-0.001169562152510822
 31
0.0
210
0.0
220
0.0
230
1.0
 40
0.006400548
 41
1.564417039366685
 42
1.824092315949686
  0
ELLIPSE
  5
9B
330
75
100
AcDbEntity
  8
$DDT_AUDIT_GENERATED_(77)
  6
Continuous
 62
     7
100
AcDbEllipse
 10
96.915178492
 20
295.3426223935
 30
0.0
 11
0.001169562152760623
 21
-0.7059228320311188
 31
0.0
210
0.0
220
0.0
230
1.0
 40
0.006400548
 41
1.317500338586095
 42
1.577175615166698
  0
ELLIPSE
  5
9C
330
75
100
AcDbEntity
  8
$DDT_AUDIT_GENERATED_(77)
  6
Continuous
 62
     7
100
AcDbEllipse
 10
57.9262076508
 20
295.3426223945
 30
0.0
 11
0.0
 21
0.006379149381987637
 31
0.0
210
0.0
220
0.0
230
1.0
 40
1.0
 41
0.7853982357553808
 42
3.115214602641751
  0
ELLIPSE
  5
9D
330
75
100
AcDbEntity
  8
$DDT_AUDIT_GENERATED_(77)
  6
Continuous
 62
     7
100
AcDbEllipse
 10
96.9151784927
 20
256.3536515527
 30
0.0
 11
-0.7059228300360897
 21
-0.00116956214932587
 31
0.0
210
0.0
220
0.0
230
1.0
 40
0.006400548
 41
1.317500295673109
 42
1.577175613773008
  0
ELLIPSE
  5
9E
330
75
100
AcDbEntity
  8
$DDT_AUDIT_GENERATED_(77)
  6
Continuous
 62
     7
100
AcDbEllipse
 10
57.9262076502
 20
256.3536515527
 30
0.0
 11
-0.7059228300348614
 21
0.001169562149280767
 31
0.0
210
0.0
220
0.0
230
0.9999999999999999
 40
0.006400548
 41
1.564417039815596
 42
1.824092357930963
  0
LINE
  5
9F
330
75
100
AcDbEntity
  8
$DDT_AUDIT_GENERATED_(77)
  6
Continuous
 62
     7
100
AcDbLine
 10
58.1031019644
 20
256.3489843429
 30
0.0
 11
66.9431930714
 21
256.3489843429
 31
0.0
  0
LINE
  5
A0
330
75
100
AcDbEntity
  8
$DDT_AUDIT_GENERATED_(77)
  6
Continuous
 62
     7
100
AcDbLine
 10
87.8981930714
 20
256.3489843429
 30
0.0
 11
96.7382841785
 21
256.3489843429
 31
0.0
  0
LINE
  5
A1
330
75
100
AcDbEntity
  8
$DDT_AUDIT_GENERATED_(77)
  6
Continuous
 62
     7
100
AcDbLine
 10
57.9215404411
 20
295.1657280803
 30
0.0
 11
57.9215404411
 21
256.5305458662
 31
0.0
  0
ELLIPSE
  5
A2
330
75
100
AcDbEntity
  8
$DDT_AUDIT_GENERATED_(77)
  6
Continuous
 62
     7
100
AcDbEllipse
 10
57.9262076508
 20
256.3536515533
 30
0.0
 11
0.0
 21
0.1769558724451571
 31
0.0
210
0.0
220
0.0
230
1.0
 40
1.0
 41
0.0263780511288205
 42
2.356194562520338
  0
ELLIPSE
  5
A3
330
75
100
AcDbEntity
  8
$DDT_AUDIT_GENERATED_(77)
  6
Continuous
 62
     7
100
AcDbEllipse
 10
96.915178492
 20
256.3536515533
 30
0.0
 11
-0.001169562149818532
 21
-0.7059228301919164
 31
0.0
210
0.0
220
0.0
230
1.0
 40
0.006400548
 41
1.564417037972498
 42
1.82409235610022
  0
LINE
  5
A4
330
75
100
AcDbEntity
  8
$DDT_AUDIT_GENERATED_(77)
  6
Continuous
 62
     7
100
AcDbLine
 10
96.9198457018
 20
256.5305458662
 30
0.0
 11
96.9198457018
 21
295.1657281082
 31
0.0
  0
LINE
  5
A5
330
75
100
AcDbEntity
  8
$DDT_AUDIT_GENERATED_(77)
  6
Continuous
 62
     7
100
AcDbLine
 10
96.7382842064
 20
295.3472896036
 30
0.0
 11
58.1031019644
 21
295.3472896036
 31
0.0
  0
ELLIPSE
  5
A6
330
75
100
AcDbEntity
  8
$DDT_AUDIT_GENERATED_(77)
  6
Continuous
 62
     7
100
AcDbEllipse
 10
57.9262076515
 20
295.3426223939
 30
0.0
 11
0.7059228301919407
 21
0.001169562149815062
 31
0.0
210
0.0
220
0.0
230
1.0
 40
0.006400548
 41
1.317500297505553
 42
1.577175615617034
  0
LINE
  5
A7
330
75
100
AcDbEntity
  8
$DDT_AUDIT_GENERATED_(77)
  6
Continuous
 62
     7
100
AcDbLine
 10
96.8674591779
 20
256.4013708668
 30
0.0
 11
96.8674591779
 21
295.2949030797
 31
0.0
  0
LINE
  5
A8
330
75
100
AcDbEntity
  8
$DDT_AUDIT_GENERATED_(77)
  6
Continuous
 62
     7
100
AcDbLine
 10
96.8674591779
 20
295.2949030797
 30
0.0
 11
96.9196892321
 21
295.347133134
 31
0.0
  0
LINE
  5
A9
330
75
100
AcDbEntity
  8
$DDT_AUDIT_GENERATED_(77)
  6
Continuous
 62
     7
100
AcDbLine
 10
96.8674591779
 20
295.2949030797
 30
0.0
 11
85.4906776214
 21
295.2949030797
 31
0.0
  0
LINE
  5
AA
330
75
100
AcDbEntity
  8
$DDT_AUDIT_GENERATED_(77)
  6
Continuous
 62
     7
100
AcDbLine
 10
57.9739269649
 20
295.2949030797
 30
0.0
 11
57.9216969107
 21
295.347133134
 31
0.0
  0
LINE
  5
AB
330
75
100
AcDbEntity
  8
$DDT_AUDIT_GENERATED_(77)
  6
Continuous
 62
     7
100
AcDbLine
 10
57.9739269649
 20
295.2949030797
 30
0.0
 11
57.9739269649
 21
256.4013708668
 31
0.0
  0
LINE
  5
AC
330
75
100
AcDbEntity
  8
$DDT_AUDIT_GENERATED_(77)
  6
Continuous
 62
     7
100
AcDbLine
 10
57.9739269649
 20
256.4013708668
 30
0.0
 11
57.9216969107
 21
256.3491408126
 31
0.0
  0
LINE
  5
AD
330
75
100
AcDbEntity
  8
$DDT_AUDIT_GENERATED_(77)
  6
Continuous
 62
     7
100
AcDbLine
 10
57.9739269649
 20
256.4013708668
 30
0.0
 11
66.9431930714
 21
256.4013708668
 31
0.0
  0
LINE
  5
AE
330
75
100
AcDbEntity
  8
$DDT_AUDIT_GENERATED_(77)
  6
Continuous
 62
     7
100
AcDbLine
 10
87.8981930714
 20
256.4013708668
 30
0.0
 11
96.8674591779
 21
256.4013708668
 31
0.0
  0
LINE
  5
AF
330
75
100
AcDbEntity
  8
$DDT_AUDIT_GENERATED_(77)
  6
Continuous
 62
     7
100
AcDbLine
 10
96.8674591779
 20
256.4013708668
 30
0.0
 11
96.9196892321
 21
256.3491408126
 31
0.0
  0
LINE
  5
B0
330
75
100
AcDbEntity
  8
$DDT_AUDIT_GENERATED_(77)
  6
Continuous
 62
     7
100
AcDbLine
 10
69.3507085214
 20
295.2949030797
 30
0.0
 11
57.9739269649
 21
295.2949030797
 31
0.0
  0
LINE
  5
B1
330
75
100
AcDbEntity
  8
$DDT_AUDIT_GENERATED_(77)
  6
Continuous
 62
     7
100
AcDbLine
 10
85.4206930714
 20
295.3298926898
 30
0.0
 11
69.4206930714
 21
295.3298926898
 31
0.0
  0
LINE
  5
B2
330
75
100
AcDbEntity
  8
$DDT_AUDIT_GENERATED_(77)
  6
Continuous
 62
     7
100
AcDbLine
 10
69.3507085214
 20
295.2949030797
 30
0.0
 11
69.4206930714
 21
295.3298926898
 31
0.0
  0
LINE
  5
B3
330
75
100
AcDbEntity
  8
$DDT_AUDIT_GENERATED_(77)
  6
Continuous
 62
     7
100
AcDbLine
 10
85.4206930714
 20
295.3298926898
 30
0.0
 11
85.4906776214
 21
295.2949030797
 31
0.0
  0
LINE
  5
B4
330
75
100
AcDbEntity
  8
$DDT_AUDIT_GENERATED_(77)
  6
Continuous
 62
     7
100
AcDbLine
 10
69.3507085214
 20
295.2949030797
 30
0.0
 11
69.3507085214
 21
295.0981369733
 31
0.0
  0
LINE
  5
B5
330
75
100
AcDbEntity
  8
$DDT_AUDIT_GENERATED_(77)
  6
Continuous
 62
     7
100
AcDbLine
 10
85.4906776214
 20
295.0981369733
 30
0.0
 11
85.4906776214
 21
295.2949030797
 31
0.0
  0
LINE
  5
B7
330
75
100
AcDbEntity
  8
$DDT_AUDIT_GENERATED_(B6)
  6
Continuous
 62
     7
100
AcDbLine
 10
87.8981930714
 20
247.3481369733
 30
0.0
 11
66.9431930714
 21
247.3481369733
 31
0.0
  0
LINE
  5
B8
330
75
100
AcDbEntity
  8
$DDT_AUDIT_GENERATED_(B6)
  6
Continuous
 62
     7
100
AcDbLine
 10
67.4431930714
 20
246.8481369733
 30
0.0
 11
87.3981930714
 21
246.8481369733
 31
0.0
  0
LINE
  5
B9
330
75
100
AcDbEntity
  8
$DDT_AUDIT_GENERATED_(B6)
  6
Continuous
 62
     7
100
AcDbLine
 10
87.8981930714
 20
247.3481369733
 30
0.0
 11
87.8981930714
 21
256.5981369733
 31
0.0
  0
LINE
  5
BA
330
75
100
AcDbEntity
  8
$DDT_AUDIT_GENERATED_(B6)
  6
Continuous
 62
     7
100
AcDbLine
 10
66.9431930714
 20
256.5981369733
 30
0.0
 11
66.9431930714
 21
247.3481369733
 31
0.0
  0
LINE
  5
BB
330
75
100
AcDbEntity
  8
$DDT_AUDIT_GENERATED_(B6)
  6
Continuous
 62
     7
100
AcDbLine
 10
66.9431930714
 20
247.3481369733
 30
0.0
 11
67.4431930714
 21
246.8481369733
 31
0.0
  0
LINE
  5
BC
330
75
100
AcDbEntity
  8
$DDT_AUDIT_GENERATED_(B6)
  6
Continuous
 62
     7
100
AcDbLine
 10
87.3981930714
 20
246.8481369733
 30
0.0
 11
87.8981930714
 21
247.3481369733
 31
0.0
  0
LINE
  5
BD
330
75
100
AcDbEntity
  8
$DDT_AUDIT_GENERATED_(B6)
  6
Continuous
 62
     7
100
AcDbLine
 10
68.1051930714
 20
246.8481369733
 30
0.0
 11
68.1051930714
 21
255.8481369733
 31
0.0
  0
LINE
  5
BE
330
75
100
AcDbEntity
  8
$DDT_AUDIT_GENERATED_(B6)
  6
Continuous
 62
     7
100
AcDbLine
 10
86.7361930714
 20
246.8481369733
 30
0.0
 11
86.7361930714
 21
255.8481369733
 31
0.0
  0
LINE
  5
BF
330
75
100
AcDbEntity
  8
$DDT_AUDIT_GENERATED_(B6)
  6
Continuous
 62
     7
100
AcDbLine
 10
87.8981930714
 20
255.8481369733
 30
0.0
 11
66.9431930714
 21
255.8481369733
 31
0.0
  0
LINE
  5
C1
330
75
100
AcDbEntity
  8
$DDT_AUDIT_GENERATED_(C0)
  6
Continuous
 62
     7
100
AcDbLine
 10
58.1706930714
 20
257.0981369733
 30
0.0
 11
58.1706930714
 21
294.5981369733
 31
0.0
  0
LINE
  5
C2
330
75
100
AcDbEntity
  8
$DDT_AUDIT_GENERATED_(C0)
  6
Continuous
 62
     7
100
AcDbLine
 10
96.1706930714
 20
256.5981369733
 30
0.0
 11
58.6706930714
 21
256.5981369733
 31
0.0
  0
LINE
  5
C3
330
75
100
AcDbEntity
  8
$DDT_AUDIT_GENERATED_(C0)
  6
Continuous
 62
     7
100
AcDbLine
 10
96.6706930714
 20
294.5981369733
 30
0.0
 11
96.6706930714
 21
257.0981369733
 31
0.0
  0
LINE
  5
C4
330
75
100
AcDbEntity
  8
$DDT_AUDIT_GENERATED_(C0)
  6
Continuous
 62
     7
100
AcDbLine
 10
96.1706930714
 20
294.5981369733
 30
0.0
 11
58.6706930714
 21
294.5981369733
 31
0.0
  0
LINE
  5
C5
330
75
100
AcDbEntity
  8
$DDT_AUDIT_GENERATED_(C0)
  6
Continuous
 62
     7
100
AcDbLine
 10
96.1706930714
 20
257.0981369733
 30
0.0
 11
96.1706930714
 21
294.5981369733
 31
0.0
  0
LINE
  5
C6
330
75
100
AcDbEntity
  8
$DDT_AUDIT_GENERATED_(C0)
  6
Continuous
 62
     7
100
AcDbLine
 10
58.6706930714
 20
294.5981369733
 30
0.0
 11
58.6706930714
 21
257.0981369733
 31
0.0
  0
LINE
  5
C7
330
75
100
AcDbEntity
  8
$DDT_AUDIT_GENERATED_(C0)
  6
Continuous
 62
     7
100
AcDbLine
 10
58.6706930714
 20
257.0981369733
 30
0.0
 11
96.1706930714
 21
257.0981369733
 31
0.0
  0
LINE
  5
C8
330
75
100
AcDbEntity
  8
$DDT_AUDIT_GENERATED_(C0)
  6
Continuous
 62
     7
100
AcDbLine
 10
58.6706930714
 20
295.0981369733
 30
0.0
 11
96.1706930714
 21
295.0981369733
 31
0.0
  0
ARC
  5
C9
330
75
100
AcDbEntity
  8
$DDT_AUDIT_GENERATED_(C0)
  6
Continuous
 62
     7
100
AcDbCircle
 10
96.1706930714
 20
294.5981369733
 30
0.0
 40
0.5000000000000004
100
AcDbArc
 50
0.0
 51
90.0
  0
LINE
  5
CA
330
75
100
AcDbEntity
  8
$DDT_AUDIT_GENERATED_(C0)
  6
Continuous
 62
     7
100
AcDbLine
 10
96.1706930714
 20
294.5981369733
 30
0.0
 11
96.1706930714
 21
295.0981369733
 31
0.0
  0
LINE
  5
CB
330
75
100
AcDbEntity
  8
$DDT_AUDIT_GENERATED_(C0)
  6
Continuous
 62
     7
100
AcDbLine
 10
96.6706930714
 20
294.5981369733
 30
0.0
 11
96.1706930714
 21
294.5981369733
 31
0.0
  0
ARC
  5
CC
330
75
100
AcDbEntity
  8
$DDT_AUDIT_GENERATED_(C0)
  6
Continuous
 62
     7
100
AcDbCircle
 10
58.6706930714
 20
294.5981369733
 30
0.0
 40
0.5000000000000004
100
AcDbArc
 50
90.0
 51
180.0
  0
LINE
  5
CD
330
75
100
AcDbEntity
  8
$DDT_AUDIT_GENERATED_(C0)
  6
Continuous
 62
     7
100
AcDbLine
 10
58.6706930714
 20
294.5981369733
 30
0.0
 11
58.6706930714
 21
295.0981369733
 31
0.0
  0
LINE
  5
CE
330
75
100
AcDbEntity
  8
$DDT_AUDIT_GENERATED_(C0)
  6
Continuous
 62
     7
100
AcDbLine
 10
96.6706930714
 20
257.0981369733
 30
0.0
 11
96.1706930714
 21
257.0981369733
 31
0.0
  0
ARC
  5
CF
330
75
100
AcDbEntity
  8
$DDT_AUDIT_GENERATED_(C0)
  6
Continuous
 62
     7
100
AcDbCircle
 10
96.1706930714
 20
257.0981369733
 30
0.0
 40
0.5000000000000004
100
AcDbArc
 50
270.0
 51
0.0
  0
LINE
  5
D0
330
75
100
AcDbEntity
  8
$DDT_AUDIT_GENERATED_(C0)
  6
Continuous
 62
     7
100
AcDbLine
 10
58.6706930714
 20
294.5981369733
 30
0.0
 11
58.1706930714
 21
294.5981369733
 31
0.0
  0
LINE
  5
D1
330
75
100
AcDbEntity
  8
$DDT_AUDIT_GENERATED_(C0)
  6
Continuous
 62
     7
100
AcDbLine
 10
96.1706930714
 20
256.5981369733
 30
0.0
 11
96.1706930714
 21
257.0981369733
 31
0.0
  0
LINE
  5
D2
330
75
100
AcDbEntity
  8
$DDT_AUDIT_GENERATED_(C0)
  6
Continuous
 62
     7
100
AcDbLine
 10
58.6706930714
 20
257.0981369733
 30
0.0
 11
58.1706930714
 21
257.0981369733
 31
0.0
  0
LINE
  5
D3
330
75
100
AcDbEntity
  8
$DDT_AUDIT_GENERATED_(C0)
  6
Continuous
 62
     7
100
AcDbLine
 10
58.6706930714
 20
256.5981369733
 30
0.0
 11
58.6706930714
 21
257.0981369733
 31
0.0
  0
ARC
  5
D4
330
75
100
AcDbEntity
  8
$DDT_AUDIT_GENERATED_(C0)
  6
Continuous
 62
     7
100
AcDbCircle
 10
58.6706930714
 20
257.0981369733
 30
0.0
 40
0.5000000000000004
100
AcDbArc
 50
180.0
 51
270.0
  0
ARC
  5
D5
330
75
100
AcDbEntity
  8
$DDT_AUDIT_GENERATED_(C0)
  6
Continuous
 62
     7
100
AcDbCircle
 10
69.6206930714
 20
295.3981369733
 30
0.0
 40
0.2999999999999999
100
AcDbArc
 50
270.0
 51
346.8511903337
  0
LINE
  5
D6
330
75
100
AcDbEntity
  8
$DDT_AUDIT_GENERATED_(C0)
  6
Continuous
 62
     7
100
AcDbLine
 10
70.2206930714
 20
295.3298926898
 30
0.0
 11
70.2206930714
 21
295.0981369733
 31
0.0
  0
LINE
  5
D7
330
75
100
AcDbEntity
  8
$DDT_AUDIT_GENERATED_(C0)
  6
Continuous
 62
     7
100
AcDbLine
 10
71.9964290027
 20
295.3298926898
 30
0.0
 11
71.9964290027
 21
295.0981369733
 31
0.0
  0
ELLIPSE
  5
D8
330
75
100
AcDbEntity
  8
$DDT_AUDIT_GENERATED_(C0)
  6
Continuous
 62
     7
100
AcDbEllipse
 10
71.9964290027
 20
295.3981369733
 30
0.0
 11
0.0
 21
0.3000000000000114
 31
0.0
210
0.0
220
0.0
230
1.0
 40
1.0
 41
3.141592653589793
 42
4.393309549726331
  0
ELLIPSE
  5
D9
330
75
100
AcDbEntity
  8
$DDT_AUDIT_GENERATED_(C0)
  6
Continuous
 62
     7
100
AcDbEllipse
 10
72.8449571401
 20
295.3981369733
 30
0.0
 11
0.0
 21
0.2175514677329778
 31
0.0
210
0.0
220
0.0
230
1.0
 40
1.0
 41
1.889875757453256
 42
3.141592653589793
  0
LINE
  5
DA
330
75
100
AcDbEntity
  8
$DDT_AUDIT_GENERATED_(C0)
  6
Continuous
 62
     7
100
AcDbLine
 10
72.8449571401
 20
295.3298926898
 30
0.0
 11
72.8449571401
 21
295.0981369733
 31
0.0
  0
LINE
  5
DB
330
75
100
AcDbEntity
  8
$DDT_AUDIT_GENERATED_(C0)
  6
Continuous
 62
     7
100
AcDbLine
 10
76.9964290027
 20
295.3298926898
 30
0.0
 11
76.9964290027
 21
295.0981369733
 31
0.0
  0
ELLIPSE
  5
DC
330
75
100
AcDbEntity
  8
$DDT_AUDIT_GENERATED_(C0)
  6
Continuous
 62
     7
100
AcDbEllipse
 10
76.9964290027
 20
295.3981369733
 30
0.0
 11
0.0
 21
0.3000000000000114
 31
0.0
210
0.0
220
0.0
230
1.0
 40
1.0
 41
3.141592653589793
 42
4.393309549726331
  0
ELLIPSE
  5
DD
330
75
100
AcDbEntity
  8
$DDT_AUDIT_GENERATED_(C0)
  6
Continuous
 62
     7
100
AcDbEllipse
 10
77.8449571401
 20
295.3981369733
 30
0.0
 11
0.0
 21
0.2175514677329778
 31
0.0
210
0.0
220
0.0
230
1.0
 40
1.0
 41
1.889875757453256
 42
3.141592653589793
  0
LINE
  5
DE
330
75
100
AcDbEntity
  8
$DDT_AUDIT_GENERATED_(C0)
  6
Continuous
 62
     7
100
AcDbLine
 10
77.8449571401
 20
295.3298926898
 30
0.0
 11
77.8449571401
 21
295.0981369733
 31
0.0
  0
LINE
  5
DF
330
75
100
AcDbEntity
  8
$DDT_AUDIT_GENERATED_(C0)
  6
Continuous
 62
     7
100
AcDbLine
 10
81.9964290027
 20
295.3298926898
 30
0.0
 11
81.9964290027
 21
295.0981369733
 31
0.0
  0
ELLIPSE
  5
E0
330
75
100
AcDbEntity
  8
$DDT_AUDIT_GENERATED_(C0)
  6
Continuous
 62
     7
100
AcDbEllipse
 10
81.9964290027
 20
295.3981369733
 30
0.0
 11
0.0
 21
0.3000000000000114
 31
0.0
210
0.0
220
0.0
230
1.0
 40
1.0
 41
3.141592653589793
 42
4.393309549726331
  0
ELLIPSE
  5
E1
330
75
100
AcDbEntity
  8
$DDT_AUDIT_GENERATED_(C0)
  6
Continuous
 62
     7
100
AcDbEllipse
 10
82.8449571401
 20
295.3981369733
 30
0.0
 11
0.0
 21
0.2175514677329778
 31
0.0
210
0.0
220
0.0
230
1.0
 40
1.0
 41
1.889875757453256
 42
3.141592653589793
  0
LINE
  5
E2
330
75
100
AcDbEntity
  8
$DDT_AUDIT_GENERATED_(C0)
  6
Continuous
 62
     7
100
AcDbLine
 10
82.8449571401
 20
295.3298926898
 30
0.0
 11
82.8449571401
 21
295.0981369733
 31
0.0
  0
LINE
  5
E3
330
75
100
AcDbEntity
  8
$DDT_AUDIT_GENERATED_(C0)
  6
Continuous
 62
     7
100
AcDbLine
 10
84.6206930714
 20
295.3298926898
 30
0.0
 11
84.6206930714
 21
295.0981369733
 31
0.0
  0
ARC
  5
E4
330
75
100
AcDbEntity
  8
$DDT_AUDIT_GENERATED_(C0)
  6
Continuous
 62
     7
100
AcDbCircle
 10
85.2206930714
 20
295.3981369733
 30
0.0
 40
0.2999999999999999
100
AcDbArc
 50
193.1488096663
 51
270.0
  0
ENDBLK
  5
E6
330
75
100
AcDbEntity
  8
0
100
AcDbBlockEnd
  0
BLOCK
  5
118
330
E7
100
AcDbEntity
  8
0
100
AcDbBlockBegin
  2
SE1
 70
     0
 10
0.0
 20
0.0
 30
0.0
  3
SE1
  1

  0
ARC
  5
E9
330
E7
100
AcDbEntity
  8
$DDT_AUDIT_GENERATED_(77)
  6
Continuous
 62
     7
100
AcDbCircle
 10
137.9683357944
 20
250.3479824906
 30
0.0
 40
0.4998455285266177
100
AcDbArc
 50
269.9878959655
 51
304.3541530107
  0
ELLIPSE
  5
EA
330
E7
100
AcDbEntity
  8
$DDT_AUDIT_GENERATED_(77)
  6
Continuous
 62
     7
100
AcDbEllipse
 10
137.9682132847
 20
250.3481460823
 30
0.0
 11
0.4658897056344629
 21
-0.1815650031887599
 31
0.0
210
0.0
220
0.0
230
0.9999999999999999
 40
0.6816965009
 41
0.0
 42
0.5193474414821483
  0
LINE
  5
EB
330
E7
100
AcDbEntity
  8
$DDT_AUDIT_GENERATED_(77)
  6
Continuous
 62
     7
100
AcDbLine
 10
138.4341021381
 20
250.348148601
 30
0.0
 11
137.9682301994
 21
250.3481369733
 31
0.0
  0
LINE
  5
EC
330
E7
100
AcDbEntity
  8
$DDT_AUDIT_GENERATED_(77)
  6
Continuous
 62
     7
100
AcDbLine
 10
137.9682301994
 20
250.3481369733
 30
0.0
 11
137.9682301994
 21
249.8481369733
 31
0.0
  0
ARC
  5
ED
330
E7
100
AcDbEntity
  8
$DDT_AUDIT_GENERATED_(77)
  6
Continuous
 62
     7
100
AcDbCircle
 10
137.9682301994
 20
301.3481369733
 30
0.0
 40
0.4999999999698108
100
AcDbArc
 50
21.2916939651
 51
90.0000000032
  0
LINE
  5
EE
330
E7
100
AcDbEntity
  8
$DDT_AUDIT_GENERATED_(77)
  6
Continuous
 62
     7
100
AcDbLine
 10
137.9682301994
 20
301.3481369733
 30
0.0
 11
137.9682301994
 21
301.8481369733
 31
0.0
  0
LINE
  5
EF
330
E7
100
AcDbEntity
  8
$DDT_AUDIT_GENERATED_(77)
  6
Continuous
 62
     7
100
AcDbLine
 10
138.4341021381
 20
301.3481253456
 30
0.0
 11
137.9682301994
 21
301.3481369733
 31
0.0
  0
ELLIPSE
  5
F0
330
E7
100
AcDbEntity
  8
$DDT_AUDIT_GENERATED_(77)
  6
Continuous
 62
     7
100
AcDbEllipse
 10
137.9682132847
 20
301.3481278643
 30
0.0
 11
0.4658897056226659
 21
0.1815650032215149
 31
0.0
210
0.0
220
0.0
230
1.0
 40
0.681696501
 41
5.7638378656506
 42
6.283185307179583
  0
LINE
  5
F1
330
E7
100
AcDbEntity
  8
$DDT_AUDIT_GENERATED_(77)
  6
Continuous
 62
     7
100
AcDbLine
 10
137.9682301994
 20
301.8481369733
 30
0.0
 11
132.31
 21
301.8481369733
 31
0.0
  0
LINE
  5
F2
330
E7
100
AcDbEntity
  8
$DDT_AUDIT_GENERATED_(77)
  6
Continuous
 62
     7
100
AcDbLine
 10
132.31
 20
250.3481369733
 30
0.0
 11
132.31
 21
249.8481369733
 31
0.0
  0
LINE
  5
F3
330
E7
100
AcDbEntity
  8
$DDT_AUDIT_GENERATED_(77)
  6
Continuous
 62
     7
100
AcDbLine
 10
132.31
 20
301.3481369733
 30
0.0
 11
132.31
 21
250.3481369733
 31
0.0
  0
LINE
  5
F4
330
E7
100
AcDbEntity
  8
$DDT_AUDIT_GENERATED_(77)
  6
Continuous
 62
     7
100
AcDbLine
 10
132.31
 20
301.8481369733
 30
0.0
 11
132.31
 21
301.3481369733
 31
0.0
  0
LINE
  5
F5
330
E7
100
AcDbEntity
  8
$DDT_AUDIT_GENERATED_(77)
  6
Continuous
 62
     7
100
AcDbLine
 10
132.31
 20
249.8481369733
 30
0.0
 11
137.9682301994
 21
249.8481369733
 31
0.0
  0
LINE
  5
F6
330
E7
100
AcDbEntity
  8
$DDT_AUDIT_GENERATED_(77)
  6
Continuous
 62
     7
100
AcDbLine
 10
137.9682301994
 20
301.3481369733
 30
0.0
 11
132.31
 21
301.3481369733
 31
0.0
  0
LINE
  5
F7
330
E7
100
AcDbEntity
  8
$DDT_AUDIT_GENERATED_(77)
  6
Continuous
 62
     7
100
AcDbLine
 10
132.31
 20
250.3481369733
 30
0.0
 11
137.9682301994
 21
250.3481369733
 31
0.0
  0
LINE
  5
F8
330
E7
100
AcDbEntity
  8
$DDT_AUDIT_GENERATED_(77)
  6
Continuous
 62
     7
100
AcDbLine
 10
137.9682301994
 20
250.3481369733
 30
0.0
 11
137.9682301994
 21
301.3481369733
 31
0.0
  0
LINE
  5
F9
330
E7
100
AcDbEntity
  8
$DDT_AUDIT_GENERATED_(77)
  6
Continuous
 62
     7
100
AcDbLine
 10
138.4341021381
 20
250.1665788925
 30
0.0
 11
140.8434888705
 21
256.3489843429
 31
0.0
  0
LINE
  5
FA
330
E7
100
AcDbEntity
  8
$DDT_AUDIT_GENERATED_(77)
  6
Continuous
 62
     7
100
AcDbLine
 10
138.4341021381
 20
250.348148601
 30
0.0
 11
140.8434888705
 21
256.5305458662
 31
0.0
  0
LINE
  5
FB
330
E7
100
AcDbEntity
  8
$DDT_AUDIT_GENERATED_(77)
  6
Continuous
 62
     7
100
AcDbLine
 10
138.4341021381
 20
301.3481253456
 30
0.0
 11
140.8434888705
 21
295.1657280803
 31
0.0
  0
LINE
  5
FC
330
E7
100
AcDbEntity
  8
$DDT_AUDIT_GENERATED_(77)
  6
Continuous
 62
     7
100
AcDbLine
 10
138.4341021381
 20
250.348148601
 30
0.0
 11
138.4341021381
 21
301.3481253456
 31
0.0
  0
LINE
  5
FD
330
E7
100
AcDbEntity
  8
$DDT_AUDIT_GENERATED_(77)
  6
Continuous
 62
     7
100
AcDbLine
 10
138.4341021381
 20
301.5296950541
 30
0.0
 11
140.8434888705
 21
295.3472896036
 31
0.0
  0
ELLIPSE
  5
FE
330
E7
100
AcDbEntity
  8
$DDT_AUDIT_GENERATED_(77)
  6
Continuous
 62
     7
100
AcDbEllipse
 10
140.3086796036
 20
295.3426223945
 30
0.0
 11
0.2602232935585511
 21
-0.6831167232022213
 31
0.0
210
0.0
220
0.0
230
0.9999999999999999
 40
0.6839694666
 41
1.062629483994774
 42
1.322304802095639
  0
LINE
  5
FF
330
E7
100
AcDbEntity
  8
$DDT_AUDIT_GENERATED_(77)
  6
Continuous
 62
     7
100
AcDbLine
 10
140.8255592242
 20
256.3491408126
 30
0.0
 11
140.8434888704
 21
256.3489843429
 31
0.0
  0
LINE
  5
100
330
E7
100
AcDbEntity
  8
$DDT_AUDIT_GENERATED_(77)
  6
Continuous
 62
     7
100
AcDbLine
 10
140.8434888705
 20
295.1657280803
 30
0.0
 11
140.8434888705
 21
256.5305458662
 31
0.0
  0
ELLIPSE
  5
101
330
E7
100
AcDbEntity
  8
$DDT_AUDIT_GENERATED_(77)
  6
Continuous
 62
     7
100
AcDbEllipse
 10
140.3086796039
 20
256.3536515533
 30
0.0
 11
0.2602232935648135
 21
0.683116723372873
 31
0.0
210
0.0
220
0.0
230
1.0
 40
0.6839694664
 41
4.960880503129788
 42
5.220555821241353
  0
LINE
  5
102
330
E7
100
AcDbEntity
  8
$DDT_AUDIT_GENERATED_(77)
  6
Continuous
 62
     7
100
AcDbLine
 10
140.8434888707
 20
295.3472896036
 30
0.0
 11
140.8255592242
 21
295.347133134
 31
0.0
  0
LINE
  5
103
330
E7
100
AcDbEntity
  8
$DDT_AUDIT_GENERATED_(B6)
  6
Continuous
 62
     7
100
AcDbLine
 10
160.5725
 20
247.3481369733
 30
0.0
 11
181.5275
 21
247.3481369733
 31
0.0
  0
LINE
  5
104
330
E7
100
AcDbEntity
  8
$DDT_AUDIT_GENERATED_(B6)
  6
Continuous
 62
     7
100
AcDbLine
 10
181.0275
 20
246.8481369733
 30
0.0
 11
161.0725
 21
246.8481369733
 31
0.0
  0
LINE
  5
105
330
E7
100
AcDbEntity
  8
$DDT_AUDIT_GENERATED_(B6)
  6
Continuous
 62
     7
100
AcDbLine
 10
181.5275
 20
247.3481369733
 30
0.0
 11
181.5275
 21
256.5981369733
 31
0.0
  0
LINE
  5
106
330
E7
100
AcDbEntity
  8
$DDT_AUDIT_GENERATED_(B6)
  6
Continuous
 62
     7
100
AcDbLine
 10
160.5725
 20
256.5981369733
 30
0.0
 11
160.5725
 21
247.3481369733
 31
0.0
  0
LINE
  5
107
330
E7
100
AcDbEntity
  8
$DDT_AUDIT_GENERATED_(B6)
  6
Continuous
 62
     7
100
AcDbLine
 10
160.5725
 20
247.3481369733
 30
0.0
 11
161.0725
 21
246.8481369733
 31
0.0
  0
LINE
  5
108
330
E7
100
AcDbEntity
  8
$DDT_AUDIT_GENERATED_(B6)
  6
Continuous
 62
     7
100
AcDbLine
 10
181.0275
 20
246.8481369733
 30
0.0
 11
181.5275
 21
247.3481369733
 31
0.0
  0
LINE
  5
109
330
E7
100
AcDbEntity
  8
$DDT_AUDIT_GENERATED_(B6)
  6
Continuous
 62
     7
100
AcDbLine
 10
161.7345
 20
246.8481369733
 30
0.0
 11
161.7345
 21
255.8481369733
 31
0.0
  0
LINE
  5
10A
330
E7
100
AcDbEntity
  8
$DDT_AUDIT_GENERATED_(B6)
  6
Continuous
 62
     7
100
AcDbLine
 10
180.3655
 20
246.8481369733
 30
0.0
 11
180.3655
 21
255.8481369733
 31
0.0
  0
LINE
  5
10B
330
E7
100
AcDbEntity
  8
$DDT_AUDIT_GENERATED_(B6)
  6
Continuous
 62
     7
100
AcDbLine
 10
181.5275
 20
255.8481369733
 30
0.0
 11
160.5725
 21
255.8481369733
 31
0.0
  0
LINE
  5
10C
330
E7
100
AcDbEntity
  8
$DDT_AUDIT_GENERATED_(C0)
  6
Continuous
 62
     7
100
AcDbLine
 10
198.35
 20
257.0981369733
 30
0.0
 11
198.35
 21
294.5981369733
 31
0.0
  0
LINE
  5
10D
330
E7
100
AcDbEntity
  8
$DDT_AUDIT_GENERATED_(C0)
  6
Continuous
 62
     7
100
AcDbLine
 10
198.35
 20
294.5981369733
 30
0.0
 11
140.8434888705
 21
294.5981369733
 31
0.0
  0
LINE
  5
10E
330
E7
100
AcDbEntity
  8
$DDT_AUDIT_GENERATED_(C0)
  6
Continuous
 62
     7
100
AcDbLine
 10
140.8434888705
 20
257.0981369733
 30
0.0
 11
198.35
 21
257.0981369733
 31
0.0
  0
LINE
  5
10F
330
E7
100
AcDbEntity
  8
$DDT_AUDIT_GENERATED_(C0)
  6
Continuous
 62
     7
100
AcDbLine
 10
198.35
 20
256.5981369733
 30
0.0
 11
140.8434888705
 21
256.5981369733
 31
0.0
  0
LINE
  5
110
330
E7
100
AcDbEntity
  8
$DDT_AUDIT_GENERATED_(C0)
  6
Continuous
 62
     7
100
AcDbLine
 10
198.85
 20
294.5981369733
 30
0.0
 11
198.85
 21
257.0981369733
 31
0.0
  0
LINE
  5
111
330
E7
100
AcDbEntity
  8
$DDT_AUDIT_GENERATED_(C0)
  6
Continuous
 62
     7
100
AcDbLine
 10
140.8434888705
 20
295.0981369733
 30
0.0
 11
198.35
 21
295.0981369733
 31
0.0
  0
LINE
  5
112
330
E7
100
AcDbEntity
  8
$DDT_AUDIT_GENERATED_(C0)
  6
Continuous
 62
     7
100
AcDbLine
 10
198.35
 20
295.0981369733
 30
0.0
 11
198.35
 21
294.5981369733
 31
0.0
  0
ARC
  5
113
330
E7
100
AcDbEntity
  8
$DDT_AUDIT_GENERATED_(C0)
  6
Continuous
 62
     7
100
AcDbCircle
 10
198.35
 20
294.5981369733
 30
0.0
 40
0.5000000000000004
100
AcDbArc
 50
0.0
 51
90.0
  0
LINE
  5
114
330
E7
100
AcDbEntity
  8
$DDT_AUDIT_GENERATED_(C0)
  6
Continuous
 62
     7
100
AcDbLine
 10
198.85
 20
294.5981369733
 30
0.0
 11
198.35
 21
294.5981369733
 31
0.0
  0
LINE
  5
115
330
E7
100
AcDbEntity
  8
$DDT_AUDIT_GENERATED_(C0)
  6
Continuous
 62
     7
100
AcDbLine
 10
198.85
 20
257.0981369733
 30
0.0
 11
198.35
 21
257.0981369733
 31
0.0
  0
ARC
  5
116
330
E7
100
AcDbEntity
  8
$DDT_AUDIT_GENERATED_(C0)
  6
Continuous
 62
     7
100
AcDbCircle
 10
198.35
 20
257.0981369733
 30
0.0
 40
0.5000000000000004
100
AcDbArc
 50
270.0
 51
0.0
  0
LINE
  5
117
330
E7
100
AcDbEntity
  8
$DDT_AUDIT_GENERATED_(C0)
  6
Continuous
 62
     7
100
AcDbLine
 10
198.35
 20
256.5981369733
 30
0.0
 11
198.35
 21
257.0981369733
 31
0.0
  0
ENDBLK
  5
119
330
E7
100
AcDbEntity
  8
0
100
AcDbBlockEnd
  0
BLOCK
  5
142
330
11A
100
AcDbEntity
  8
0
100
AcDbBlockBegin
  2
SE2
 70
     0
 10
0.0
 20
0.0
 30
0.0
  3
SE2
  1

  0
LINE
  5
11C
330
11A
100
AcDbEntity
  8
$DDT_AUDIT_GENERATED_(77)
  6
Continuous
 62
     7
100
AcDbLine
 10
137.9682301994
 20
165.3048044523
 30
0.0
 11
138.4341021381
 21
165.30481608
 31
0.0
  0
LINE
  5
11D
330
11A
100
AcDbEntity
  8
$DDT_AUDIT_GENERATED_(77)
  6
Continuous
 62
     7
100
AcDbLine
 10
137.9682301994
 20
164.8048044523
 30
0.0
 11
137.9682301994
 21
165.3048044523
 31
0.0
  0
ARC
  5
11E
330
11A
100
AcDbEntity
  8
$DDT_AUDIT_GENERATED_(77)
  6
Continuous
 62
     7
100
AcDbCircle
 10
137.9682301994
 20
165.3048044523
 30
0.0
 40
0.4999999999512463
100
AcDbArc
 50
269.9999999962
 51
338.7083060386
  0
ELLIPSE
  5
11F
330
11A
100
AcDbEntity
  8
$DDT_AUDIT_GENERATED_(77)
  6
Continuous
 62
     7
100
AcDbEllipse
 10
137.9682132847
 20
165.3048135613
 30
0.0
 11
-0.4658897056357847
 21
0.1815650031878127
 31
0.0
210
0.0
220
0.0
230
0.9999999999999999
 40
0.6816965009
 41
3.141585769124308
 42
3.660940095069919
  0
LINE
  5
120
330
11A
100
AcDbEntity
  8
$DDT_AUDIT_GENERATED_(77)
  6
Continuous
 62
     7
100
AcDbLine
 10
137.9682301994
 20
216.3048044523
 30
0.0
 11
138.4341021381
 21
216.3047927236
 31
0.0
  0
ELLIPSE
  5
121
330
11A
100
AcDbEntity
  8
$DDT_AUDIT_GENERATED_(77)
  6
Continuous
 62
     7
100
AcDbEllipse
 10
137.9682127568
 20
216.3047951896
 30
0.0
 11
-0.4658902156429367
 21
-0.1815652026805024
 31
0.0
210
0.0
220
0.0
230
1.0
 40
0.6816965007
 41
2.622245354426192
 42
3.141599389606927
  0
ARC
  5
122
330
11A
100
AcDbEntity
  8
$DDT_AUDIT_GENERATED_(77)
  6
Continuous
 62
     7
100
AcDbCircle
 10
137.9683357944
 20
216.3049589349
 30
0.0
 40
0.4998455285266368
100
AcDbArc
 50
21.2795899308
 51
90.0121040345
  0
LINE
  5
123
330
11A
100
AcDbEntity
  8
$DDT_AUDIT_GENERATED_(77)
  6
Continuous
 62
     7
100
AcDbLine
 10
137.9682301994
 20
216.8048044523
 30
0.0
 11
137.9682301994
 21
216.3048044523
 31
0.0
  0
LINE
  5
124
330
11A
100
AcDbEntity
  8
$DDT_AUDIT_GENERATED_(77)
  6
Continuous
 62
     7
100
AcDbLine
 10
137.9682301994
 20
165.3048044523
 30
0.0
 11
137.9682301994
 21
216.3048044523
 31
0.0
  0
LINE
  5
125
330
11A
100
AcDbEntity
  8
$DDT_AUDIT_GENERATED_(77)
  6
Continuous
 62
     7
100
AcDbLine
 10
132.31
 20
216.3048044523
 30
0.0
 11
137.9682301994
 21
216.3048044523
 31
0.0
  0
LINE
  5
126
330
11A
100
AcDbEntity
  8
$DDT_AUDIT_GENERATED_(77)
  6
Continuous
 62
     7
100
AcDbLine
 10
132.31
 20
165.3048044523
 30
0.0
 11
132.31
 21
216.3048044523
 31
0.0
  0
LINE
  5
127
330
11A
100
AcDbEntity
  8
$DDT_AUDIT_GENERATED_(77)
  6
Continuous
 62
     7
100
AcDbLine
 10
137.9682301994
 20
165.3048044523
 30
0.0
 11
132.31
 21
165.3048044523
 31
0.0
  0
LINE
  5
128
330
11A
100
AcDbEntity
  8
$DDT_AUDIT_GENERATED_(77)
  6
Continuous
 62
     7
100
AcDbLine
 10
132.31
 20
165.3048044523
 30
0.0
 11
132.31
 21
164.8048044523
 31
0.0
  0
LINE
  5
129
330
11A
100
AcDbEntity
  8
$DDT_AUDIT_GENERATED_(77)
  6
Continuous
 62
     7
100
AcDbLine
 10
132.31
 20
216.8048044523
 30
0.0
 11
132.31
 21
216.3048044523
 31
0.0
  0
LINE
  5
12A
330
11A
100
AcDbEntity
  8
$DDT_AUDIT_GENERATED_(77)
  6
Continuous
 62
     7
100
AcDbLine
 10
132.31
 20
216.8048044523
 30
0.0
 11
137.9682301994
 21
216.8048044523
 31
0.0
  0
LINE
  5
12B
330
11A
100
AcDbEntity
  8
$DDT_AUDIT_GENERATED_(77)
  6
Continuous
 62
     7
100
AcDbLine
 10
137.9682301994
 20
164.8048044523
 30
0.0
 11
132.31
 21
164.8048044523
 31
0.0
  0
LINE
  5
12C
330
11A
100
AcDbEntity
  8
$DDT_AUDIT_GENERATED_(77)
  6
Continuous
 62
     7
100
AcDbLine
 10
138.4341021381
 20
165.1232463715
 30
0.0
 11
140.8434888705
 21
171.305651822
 31
0.0
  0
LINE
  5
12D
330
11A
100
AcDbEntity
  8
$DDT_AUDIT_GENERATED_(77)
  6
Continuous
 62
     7
100
AcDbLine
 10
140.8434888705
 20
210.1223955873
 30
0.0
 11
138.4341021381
 21
216.3047927236
 31
0.0
  0
LINE
  5
12E
330
11A
100
AcDbEntity
  8
$DDT_AUDIT_GENERATED_(77)
  6
Continuous
 62
     7
100
AcDbLine
 10
138.4341021381
 20
165.30481608
 30
0.0
 11
138.4341021381
 21
216.3047927236
 31
0.0
  0
LINE
  5
12F
330
11A
100
AcDbEntity
  8
$DDT_AUDIT_GENERATED_(77)
  6
Continuous
 62
     7
100
AcDbLine
 10
138.4341021381
 20
165.30481608
 30
0.0
 11
140.8434888705
 21
171.4872133452
 31
0.0
  0
LINE
  5
130
330
11A
100
AcDbEntity
  8
$DDT_AUDIT_GENERATED_(77)
  6
Continuous
 62
     7
100
AcDbLine
 10
140.8434888705
 20
210.3039570827
 30
0.0
 11
138.4341021381
 21
216.4863625331
 31
0.0
  0
ELLIPSE
  5
131
330
11A
100
AcDbEntity
  8
$DDT_AUDIT_GENERATED_(77)
  6
Continuous
 62
     7
100
AcDbEllipse
 10
140.3086796023
 20
210.2992898732
 30
0.0
 11
0.2602232942440427
 21
-0.6831167250560961
 31
0.0
210
0.0
220
0.0
230
1.0
 40
0.6839694665
 41
1.062629525991142
 42
1.322304802577428
  0
LINE
  5
132
330
11A
100
AcDbEntity
  8
$DDT_AUDIT_GENERATED_(77)
  6
Continuous
 62
     7
100
AcDbLine
 10
140.8434888707
 20
210.3039570827
 30
0.0
 11
140.8255592241
 21
210.303800613
 31
0.0
  0
LINE
  5
133
330
11A
100
AcDbEntity
  8
$DDT_AUDIT_GENERATED_(77)
  6
Continuous
 62
     7
100
AcDbLine
 10
140.8255592242
 20
171.3058082916
 30
0.0
 11
140.8434888704
 21
171.305651822
 31
0.0
  0
LINE
  5
134
330
11A
100
AcDbEntity
  8
$DDT_AUDIT_GENERATED_(77)
  6
Continuous
 62
     7
100
AcDbLine
 10
140.8434888705
 20
210.1223955873
 30
0.0
 11
140.8434888705
 21
171.4872133452
 31
0.0
  0
ELLIPSE
  5
135
330
11A
100
AcDbEntity
  8
$DDT_AUDIT_GENERATED_(77)
  6
Continuous
 62
     7
100
AcDbEllipse
 10
140.3086796039
 20
171.3103190324
 30
0.0
 11
0.2602232935659186
 21
0.6831167233727585
 31
0.0
210
0.0
220
0.0
230
1.0
 40
0.6839694664
 41
4.96088050313113
 42
5.220555821242614
  0
LINE
  5
136
330
11A
100
AcDbEntity
  8
$DDT_AUDIT_GENERATED_(C0)
  6
Continuous
 62
     7
100
AcDbLine
 10
198.35
 20
171.5548044523
 30
0.0
 11
140.8434888705
 21
171.5548044523
 31
0.0
  0
LINE
  5
137
330
11A
100
AcDbEntity
  8
$DDT_AUDIT_GENERATED_(C0)
  6
Continuous
 62
     7
100
AcDbLine
 10
140.8434888705
 20
210.0548044523
 30
0.0
 11
198.35
 21
210.0548044523
 31
0.0
  0
LINE
  5
138
330
11A
100
AcDbEntity
  8
$DDT_AUDIT_GENERATED_(C0)
  6
Continuous
 62
     7
100
AcDbLine
 10
198.85
 20
209.5548044523
 30
0.0
 11
198.85
 21
172.0548044523
 31
0.0
  0
LINE
  5
139
330
11A
100
AcDbEntity
  8
$DDT_AUDIT_GENERATED_(C0)
  6
Continuous
 62
     7
100
AcDbLine
 10
198.35
 20
209.5548044523
 30
0.0
 11
140.8434888705
 21
209.5548044523
 31
0.0
  0
LINE
  5
13A
330
11A
100
AcDbEntity
  8
$DDT_AUDIT_GENERATED_(C0)
  6
Continuous
 62
     7
100
AcDbLine
 10
198.35
 20
172.0548044523
 30
0.0
 11
198.35
 21
209.5548044523
 31
0.0
  0
LINE
  5
13B
330
11A
100
AcDbEntity
  8
$DDT_AUDIT_GENERATED_(C0)
  6
Continuous
 62
     7
100
AcDbLine
 10
140.8434888705
 20
172.0548044523
 30
0.0
 11
198.35
 21
172.0548044523
 31
0.0
  0
LINE
  5
13C
330
11A
100
AcDbEntity
  8
$DDT_AUDIT_GENERATED_(C0)
  6
Continuous
 62
     7
100
AcDbLine
 10
198.35
 20
210.0548044523
 30
0.0
 11
198.35
 21
209.5548044523
 31
0.0
  0
LINE
  5
13D
330
11A
100
AcDbEntity
  8
$DDT_AUDIT_GENERATED_(C0)
  6
Continuous
 62
     7
100
AcDbLine
 10
198.85
 20
209.5548044523
 30
0.0
 11
198.35
 21
209.5548044523
 31
0.0
  0
ARC
  5
13E
330
11A
100
AcDbEntity
  8
$DDT_AUDIT_GENERATED_(C0)
  6
Continuous
 62
     7
100
AcDbCircle
 10
198.35
 20
209.5548044523
 30
0.0
 40
0.5000000000000004
100
AcDbArc
 50
0.0
 51
90.0
  0
LINE
  5
13F
330
11A
100
AcDbEntity
  8
$DDT_AUDIT_GENERATED_(C0)
  6
Continuous
 62
     7
100
AcDbLine
 10
198.35
 20
172.0548044523
 30
0.0
 11
198.35
 21
171.5548044523
 31
0.0
  0
LINE
  5
140
330
11A
100
AcDbEntity
  8
$DDT_AUDIT_GENERATED_(C0)
  6
Continuous
 62
     7
100
AcDbLine
 10
198.85
 20
172.0548044523
 30
0.0
 11
198.35
 21
172.0548044523
 31
0.0
  0
ARC
  5
141
330
11A
100
AcDbEntity
  8
$DDT_AUDIT_GENERATED_(C0)
  6
Continuous
 62
     7
100
AcDbCircle
 10
198.35
 20
172.0548044523
 30
0.0
 40
0.5000000000000004
100
AcDbArc
 50
270.0
 51
0.0
  0
ENDBLK
  5
143
330
11A
100
AcDbEntity
  8
0
100
AcDbBlockEnd
  0
ENDSEC
  0
SECTION
  2
ENTITIES
  0
INSERT
  5
5F
330
1F
100
AcDbEntity
  8
Default
100
AcDbBlockReference
  2
SEANNOT_GROUP
 10
0.0
 20
0.0
 30
0.0
  0
INSERT
  5
66
330
1F
100
AcDbEntity
  8
Default
100
AcDbBlockReference
  2
SEANNOT_GROUP1
 10
0.0
 20
0.0
 30
0.0
  0
INSERT
  5
6C
330
1F
100
AcDbEntity
  8
Default
100
AcDbBlockReference
  2
SEANNOT_GROUP2
 10
0.0
 20
0.0
 30
0.0
  0
INSERT
  5
71
330
1F
100
AcDbEntity
  8
Default
100
AcDbBlockReference
  2
SEANNOT_GROUP3
 10
0.0
 20
0.0
 30
0.0
  0
INSERT
  5
76
330
1F
100
AcDbEntity
  8
Default
100
AcDbBlockReference
  2
SE
 10
0.0
 20
0.0
 30
0.0
  0
INSERT
  5
E8
330
1F
100
AcDbEntity
  8
Default
100
AcDbBlockReference
  2
SE1
 10
0.0
 20
0.0
 30
0.0
  0
INSERT
  5
11B
330
1F
100
AcDbEntity
  8
Default
100
AcDbBlockReference
  2
SE2
 10
0.0
 20
0.0
 30
0.0
  0
TEXT
  5
145
330
1F
100
AcDbEntity
  8
Default
  6
Continuous
 62
     7
100
AcDbText
 10
5.9362635081
 20
53.4225120485
 30
0.0
 40
10.0
  1
Grohe AG^J
  7
SEACAD_seiso_ttf
 11
5.9362635081
 21
63.4225120485
 31
0.0
100
AcDbText
 73
     3
  0
TEXT
  5
146
330
1F
100
AcDbEntity
  8
Default
  6
Continuous
 62
     7
100
AcDbText
 10
5.9362635081
 20
37.0588756849
 30
0.0
 40
10.0
  1
 
  7
SEACAD_seiso_ttf
 11
5.9362635081
 21
47.0588756849
 31
0.0
100
AcDbText
 73
     3
  0
TEXT
  5
147
330
1F
100
AcDbEntity
  8
Default
  6
Continuous
 62
     7
100
AcDbText
 10
5.9362635081
 20
20.6952393213
 30
0.0
 40
10.0
  1
ecn: 
  7
SEACAD_seiso_ttf
 11
5.9362635081
 21
30.6952393213
 31
0.0
100
AcDbText
 73
     3
  0
TEXT
  5
148
330
1F
100
AcDbEntity
  8
Default
  6
Continuous
 62
     7
100
AcDbText
 10
5.9362635081
 20
4.3316029576
 30
0.0
 40
10.0
  1
unit: mm
  7
SEACAD_seiso_ttf
 11
5.9362635081
 21
14.3316029576
 31
0.0
100
AcDbText
 73
     3
  0
LINE
  5
149
330
1F
100
AcDbEntity
  8
Default
  6
Continuous
 62
     7
100
AcDbLine
 10
0.0
 20
0.0
 30
0.0
 11
100.0
 21
0.0
 31
0.0
  0
LINE
  5
14A
330
1F
100
AcDbEntity
  8
Default
  6
Continuous
 62
     7
100
AcDbLine
 10
0.0
 20
0.0
 30
0.0
 11
0.0
 21
100.0
 31
0.0
  0
TEXT
  5
14B
330
1F
100
AcDbEntity
  8
Default
  6
Continuous
 62
     7
100
AcDbText
 10
24.3923665681
 20
-18.2375342018
 30
0.0
 40
10.0
  1
100 mm
  7
SEACAD_seiso_ttf
 11
24.3923665681
 21
-8.2375342018
 31
0.0
100
AcDbText
 73
     3
  0
TEXT
  5
14C
330
1F
100
AcDbEntity
  8
Default
  6
Continuous
 62
     7
100
AcDbText
 10
-7.6150308803
 20
24.6231930421
 30
0.0
 40
10.0
  1
100 mm
 50
90.0
  7
SEACAD_seiso_ttf
 11
-17.6150308803
 21
24.6231930421
 31
0.0
100
AcDbText
 73
     3
  0
TEXT
  5
14D
330
1F
100
AcDbEntity
  8
Default
  6
Continuous
 62
     7
100
AcDbText
 10
28.4878128572
 20
20.0907663715
 30
0.0
 40
10.0
  1
220885
  7
SEACAD_seiso_ttf
 11
28.4878128572
 21
30.0907663715
 31
0.0
100
AcDbText
 73
     3
  0
TEXT
  5
14E
330
1F
100
AcDbEntity
  8
Default
  6
Continuous
 62
     7
100
AcDbText
 10
5.9012241913
 20
36.7242780188
 30
0.0
 40
10.0
  1
27707000
  7
SEACAD_seiso_ttf
 11
5.9012241913
 21
46.7242780188
 31
0.0
100
AcDbText
 73
     3
  0
ENDSEC
  0
SECTION
  2
OBJECTS
  0
DICTIONARY
  5
C
330
0
100
AcDbDictionary
281
     1
  3
ACAD_GROUP
350
D
  3
ACAD_LAYOUT
350
1A
  3
ACAD_MLEADERSTYLE
350
152
  3
ACAD_MLINESTYLE
350
17
  3
ACAD_PLOTSETTINGS
350
19
  3
ACAD_PLOTSTYLENAME
350
E
  3
ACAD_SCALELIST
350
3B
  3
ACAD_TABLESTYLE
350
151
  3
ACAD_VISUALSTYLE
350
2A
  3
AcDbVariableDictionary
350
14F
  0
DICTIONARY
  5
D
102
{ACAD_REACTORS
330
C
102
}
330
C
100
AcDbDictionary
281
     1
  0
DICTIONARY
  5
1A
102
{ACAD_REACTORS
330
C
102
}
330
C
100
AcDbDictionary
281
     1
  3
Layout1
350
1E
  3
Model
350
22
  0
DICTIONARY
  5
152
102
{ACAD_REACTORS
330
C
102
}
330
C
100
AcDbDictionary
281
     1
  0
DICTIONARY
  5
17
102
{ACAD_REACTORS
330
C
102
}
330
C
100
AcDbDictionary
281
     1
  3
Standard
350
18
  0
DICTIONARY
  5
19
102
{ACAD_REACTORS
330
C
102
}
330
C
100
AcDbDictionary
281
     1
  0
ACDBDICTIONARYWDFLT
  5
E
102
{ACAD_REACTORS
330
C
102
}
330
C
100
AcDbDictionary
281
     1
  3
Normal
350
F
100
AcDbDictionaryWithDefault
340
F
  0
DICTIONARY
  5
3B
102
{ACAD_REACTORS
330
C
102
}
330
C
100
AcDbDictionary
281
     1
  3
A0
350
3C
  3
A1
350
3D
  3
A2
350
3E
  3
A3
350
3F
  3
A4
350
40
  3
A5
350
41
  3
A6
350
42
  3
A7
350
43
  3
A8
350
44
  3
A9
350
45
  3
B0
350
46
  3
B1
350
47
  3
B2
350
48
  3
B3
350
49
  3
B4
350
4A
  3
B5
350
4B
  3
B6
350
4C
  3
B7
350
4D
  3
B8
350
4E
  3
B9
350
4F
  3
C0
350
50
  3
C1
350
51
  3
C2
350
52
  3
C3
350
53
  3
C4
350
54
  3
C5
350
55
  3
C6
350
56
  3
C7
350
57
  3
C8
350
58
  3
C9
350
59
  3
D0
350
5A
  3
D1
350
5B
  3
D2
350
5C
  0
DICTIONARY
  5
151
102
{ACAD_REACTORS
330
C
102
}
330
C
100
AcDbDictionary
281
     1
  0
DICTIONARY
  5
2A
102
{ACAD_REACTORS
330
C
102
}
330
C
100
AcDbDictionary
281
     1
  3
2dWireframe
350
2F
  3
3D Hidden
350
31
  3
3dWireframe
350
30
  3
Basic
350
32
  3
Brighten
350
36
  3
ColorChange
350
3A
  3
Conceptual
350
34
  3
Dim
350
35
  3
Facepattern
350
39
  3
Flat
350
2B
  3
FlatWithEdges
350
2C
  3
Gouraud
350
2D
  3
GouraudWithEdges
350
2E
  3
Linepattern
350
38
  3
Realistic
350
33
  3
Thicken
350
37
  0
DICTIONARY
  5
14F
102
{ACAD_REACTORS
330
C
102
}
330
C
100
AcDbDictionary
281
     1
  3
CANNOSCALE
350
150
  3
PSOLHEIGHT
350
154
  3
PSOLWIDTH
350
153
  0
LAYOUT
  5
1E
102
{ACAD_REACTORS
330
1A
102
}
330
1A
100
AcDbPlotSettings
  1

  2
none_device
  4

  6

 40
0.0
 41
0.0
 42
0.0
 43
0.0
 44
0.0
 45
0.0
 46
0.0
 47
0.0
 48
0.0
 49
0.0
140
0.0
141
0.0
142
1.0
143
1.0
 70
   688
 72
     0
 73
     0
 74
     5
  7

 75
    16
147
1.0
148
0.0
149
0.0
100
AcDbLayout
  1
Layout1
 70
     1
 71
     1
 10
0.0
 20
0.0
 11
1682.0
 21
2378.0
 12
0.0
 22
0.0
 32
0.0
 14
0.0
 24
0.0
 34
0.0
 15
1682.0
 25
2378.0
 35
0.0
146
0.0
 13
0.0
 23
0.0
 33
0.0
 16
1.0
 26
0.0
 36
0.0
 17
0.0
 27
1.0
 37
0.0
 76
     0
330
1B
  0
LAYOUT
  5
22
102
{ACAD_REACTORS
330
1A
102
}
330
1A
100
AcDbPlotSettings
  1

  2
none_device
  4

  6

 40
0.0
 41
0.0
 42
0.0
 43
0.0
 44
0.0
 45
0.0
 46
0.0
 47
0.0
 48
0.0
 49
0.0
140
0.0
141
0.0
142
1.0
143
1.0
 70
  1712
 72
     0
 73
     0
 74
     0
  7

 75
     0
147
1.0
148
0.0
149
0.0
100
AcDbLayout
  1
Model
 70
     1
 71
     0
 10
0.0
 20
0.0
 11
1682.0
 21
2378.0
 12
0.0
 22
0.0
 32
0.0
 14
0.0
 24
0.0
 34
0.0
 15
1682.0
 25
2378.0
 35
0.0
146
0.0
 13
0.0
 23
0.0
 33
0.0
 16
1.0
 26
0.0
 36
0.0
 17
0.0
 27
1.0
 37
0.0
 76
     0
330
1F
331
29
  0
MLINESTYLE
  5
18
102
{ACAD_REACTORS
330
17
102
}
330
17
100
AcDbMlineStyle
  2
Standard
 70
     0
  3

 62
   256
 51
90.0
 52
90.0
 71
     2
 49
0.5
 62
   256
  6
BYLAYER
 49
-0.5
 62
   256
  6
BYLAYER
  0
ACDBPLACEHOLDER
  5
F
102
{ACAD_REACTORS
330
E
102
}
330
E
  0
SCALE
  5
3C
102
{ACAD_REACTORS
330
3B
102
}
330
3B
100
AcDbScale
 70
     0
300
1:1
140
1.0
141
1.0
290
     1
  0
SCALE
  5
3D
102
{ACAD_REACTORS
330
3B
102
}
330
3B
100
AcDbScale
 70
     0
300
1:2
140
1.0
141
2.0
290
     0
  0
SCALE
  5
3E
102
{ACAD_REACTORS
330
3B
102
}
330
3B
100
AcDbScale
 70
     0
300
1:4
140
1.0
141
4.0
290
     0
  0
SCALE
  5
3F
102
{ACAD_REACTORS
330
3B
102
}
330
3B
100
AcDbScale
 70
     0
300
1:5
140
1.0
141
5.0
290
     0
  0
SCALE
  5
40
102
{ACAD_REACTORS
330
3B
102
}
330
3B
100
AcDbScale
 70
     0
300
1:8
140
1.0
141
8.0
290
     0
  0
SCALE
  5
41
102
{ACAD_REACTORS
330
3B
102
}
330
3B
100
AcDbScale
 70
     0
300
1:10
140
1.0
141
10.0
290
     0
  0
SCALE
  5
42
102
{ACAD_REACTORS
330
3B
102
}
330
3B
100
AcDbScale
 70
     0
300
1:16
140
1.0
141
16.0
290
     0
  0
SCALE
  5
43
102
{ACAD_REACTORS
330
3B
102
}
330
3B
100
AcDbScale
 70
     0
300
1:20
140
1.0
141
20.0
290
     0
  0
SCALE
  5
44
102
{ACAD_REACTORS
330
3B
102
}
330
3B
100
AcDbScale
 70
     0
300
1:30
140
1.0
141
30.0
290
     0
  0
SCALE
  5
45
102
{ACAD_REACTORS
330
3B
102
}
330
3B
100
AcDbScale
 70
     0
300
1:40
140
1.0
141
40.0
290
     0
  0
SCALE
  5
46
102
{ACAD_REACTORS
330
3B
102
}
330
3B
100
AcDbScale
 70
     0
300
1:50
140
1.0
141
50.0
290
     0
  0
SCALE
  5
47
102
{ACAD_REACTORS
330
3B
102
}
330
3B
100
AcDbScale
 70
     0
300
1:100
140
1.0
141
100.0
290
     0
  0
SCALE
  5
48
102
{ACAD_REACTORS
330
3B
102
}
330
3B
100
AcDbScale
 70
     0
300
2:1
140
2.0
141
1.0
290
     0
  0
SCALE
  5
49
102
{ACAD_REACTORS
330
3B
102
}
330
3B
100
AcDbScale
 70
     0
300
4:1
140
4.0
141
1.0
290
     0
  0
SCALE
  5
4A
102
{ACAD_REACTORS
330
3B
102
}
330
3B
100
AcDbScale
 70
     0
300
8:1
140
8.0
141
1.0
290
     0
  0
SCALE
  5
4B
102
{ACAD_REACTORS
330
3B
102
}
330
3B
100
AcDbScale
 70
     0
300
10:1
140
10.0
141
1.0
290
     0
  0
SCALE
  5
4C
102
{ACAD_REACTORS
330
3B
102
}
330
3B
100
AcDbScale
 70
     0
300
100:1
140
100.0
141
1.0
290
     0
  0
SCALE
  5
4D
102
{ACAD_REACTORS
330
3B
102
}
330
3B
100
AcDbScale
 70
     0
300
1/128" = 1'-0"
140
0.0078125
141
12.0
290
     0
  0
SCALE
  5
4E
102
{ACAD_REACTORS
330
3B
102
}
330
3B
100
AcDbScale
 70
     0
300
1/64" = 1'-0"
140
0.015625
141
12.0
290
     0
  0
SCALE
  5
4F
102
{ACAD_REACTORS
330
3B
102
}
330
3B
100
AcDbScale
 70
     0
300
1/32" = 1'-0"
140
0.03125
141
12.0
290
     0
  0
SCALE
  5
50
102
{ACAD_REACTORS
330
3B
102
}
330
3B
100
AcDbScale
 70
     0
300
1/16" = 1'-0"
140
0.0625
141
12.0
290
     0
  0
SCALE
  5
51
102
{ACAD_REACTORS
330
3B
102
}
330
3B
100
AcDbScale
 70
     0
300
3/32" = 1'-0"
140
0.09375
141
12.0
290
     0
  0
SCALE
  5
52
102
{ACAD_REACTORS
330
3B
102
}
330
3B
100
AcDbScale
 70
     0
300
1/8" = 1'-0"
140
0.125
141
12.0
290
     0
  0
SCALE
  5
53
102
{ACAD_REACTORS
330
3B
102
}
330
3B
100
AcDbScale
 70
     0
300
3/16" = 1'-0"
140
0.1875
141
12.0
290
     0
  0
SCALE
  5
54
102
{ACAD_REACTORS
330
3B
102
}
330
3B
100
AcDbScale
 70
     0
300
1/4" = 1'-0"
140
0.25
141
12.0
290
     0
  0
SCALE
  5
55
102
{ACAD_REACTORS
330
3B
102
}
330
3B
100
AcDbScale
 70
     0
300
3/8" = 1'-0"
140
0.375
141
12.0
290
     0
  0
SCALE
  5
56
102
{ACAD_REACTORS
330
3B
102
}
330
3B
100
AcDbScale
 70
     0
300
1/2" = 1'-0"
140
0.5
141
12.0
290
     0
  0
SCALE
  5
57
102
{ACAD_REACTORS
330
3B
102
}
330
3B
100
AcDbScale
 70
     0
300
3/4" = 1'-0"
140
0.75
141
12.0
290
     0
  0
SCALE
  5
58
102
{ACAD_REACTORS
330
3B
102
}
330
3B
100
AcDbScale
 70
     0
300
1" = 1'-0"
140
1.0
141
12.0
290
     0
  0
SCALE
  5
59
102
{ACAD_REACTORS
330
3B
102
}
330
3B
100
AcDbScale
 70
     0
300
1-1/2" = 1'-0"
140
1.5
141
12.0
290
     0
  0
SCALE
  5
5A
102
{ACAD_REACTORS
330
3B
102
}
330
3B
100
AcDbScale
 70
     0
300
3" = 1'-0"
140
3.0
141
12.0
290
     0
  0
SCALE
  5
5B
102
{ACAD_REACTORS
330
3B
102
}
330
3B
100
AcDbScale
 70
     0
300
6" = 1'-0"
140
6.0
141
12.0
290
     0
  0
SCALE
  5
5C
102
{ACAD_REACTORS
330
3B
102
}
330
3B
100
AcDbScale
 70
     0
300
1'-0" = 1'-0"
140
12.0
141
12.0
290
     0
  0
VISUALSTYLE
  5
2F
102
{ACAD_REACTORS
330
2A
102
}
330
2A
100
AcDbVisualStyle
  2
2dWireframe
 70
     4
 71
     0
 72
     2
 73
     0
 90
        0
 40
-0.6
 41
-30.0
 62
     5
 63
     7
 74
     1
 91
        4
 64
     7
 65
   257
 75
     1
175
     1
 42
1.0
 92
        0
 66
   257
 43
1.0
 76
     1
 77
     6
 78
     2
 67
     7
 79
     5
170
     0
171
     0
290
     0
174
     0
 93
        1
 44
0.0
173
     0
291
     0
 45
0.0
1001
ACAD
1000
AcDbSavedByObjectVersion
1070
     0
  0
VISUALSTYLE
  5
31
102
{ACAD_REACTORS
330
2A
102
}
330
2A
100
AcDbVisualStyle
  2
3D Hidden
 70
     6
 71
     1
 72
     2
 73
     2
 90
        0
 40
-0.6
 41
-30.0
 62
     5
 63
     7
 74
     2
 91
        2
 64
     7
 65
   257
 75
     2
175
     1
 42
40.0
 92
        0
 66
   257
 43
1.0
 76
     1
 77
     6
 78
     2
 67
     7
 79
     3
170
     0
171
     0
290
     0
174
     0
 93
        1
 44
0.0
173
     0
291
     0
 45
0.0
1001
ACAD
1000
AcDbSavedByObjectVersion
1070
     0
  0
VISUALSTYLE
  5
30
102
{ACAD_REACTORS
330
2A
102
}
330
2A
100
AcDbVisualStyle
  2
3dWireframe
 70
     5
 71
     0
 72
     2
 73
     0
 90
        0
 40
-0.6
 41
-30.0
 62
     5
 63
     7
 74
     1
 91
        4
 64
     7
 65
   257
 75
     1
175
     1
 42
1.0
 92
        0
 66
   257
 43
1.0
 76
     1
 77
     6
 78
     2
 67
     7
 79
     5
170
     0
171
     0
290
     0
174
     0
 93
        1
 44
0.0
173
     0
291
     0
 45
0.0
1001
ACAD
1000
AcDbSavedByObjectVersion
1070
     0
  0
VISUALSTYLE
  5
32
102
{ACAD_REACTORS
330
2A
102
}
330
2A
100
AcDbVisualStyle
  2
Basic
 70
     7
 71
     1
 72
     0
 73
     1
 90
        0
 40
-0.6
 41
-30.0
 62
     5
 63
     7
 74
     0
 91
        4
 64
     7
 65
   257
 75
     1
175
     1
 42
1.0
 92
        8
 66
     7
 43
1.0
 76
     1
 77
     6
 78
     2
 67
     7
 79
     5
170
     0
171
     0
290
     0
174
     0
 93
        1
 44
0.0
173
     0
291
     1
 45
0.0
1001
ACAD
1000
AcDbSavedByObjectVersion
1070
     0
  0
VISUALSTYLE
  5
36
102
{ACAD_REACTORS
330
2A
102
}
330
2A
100
AcDbVisualStyle
  2
Brighten
 70
    12
 71
     2
 72
     2
 73
     0
 90
        0
 40
-0.6
 41
-30.0
 62
     5
 63
     7
 74
     1
 91
        4
 64
     7
 65
   257
 75
     1
175
     1
 42
1.0
 92
        8
 66
     7
 43
1.0
 76
     1
 77
     6
 78
     2
 67
     7
 79
     5
170
     0
171
     0
290
     0
174
     0
 93
        1
 44
50.0
173
     0
291
     1
 45
0.0
1001
ACAD
1000
AcDbSavedByObjectVersion
1070
     0
  0
VISUALSTYLE
  5
3A
102
{ACAD_REACTORS
330
2A
102
}
330
2A
100
AcDbVisualStyle
  2
ColorChange
 70
    16
 71
     2
 72
     2
 73
     3
 90
        0
 40
-0.6
 41
-30.0
 62
     5
 63
     8
 74
     1
 91
        4
 64
     7
 65
   257
 75
     1
175
     1
 42
1.0
 92
        8
 66
     8
 43
1.0
 76
     1
 77
     6
 78
     2
 67
     7
 79
     5
170
     0
171
     0
290
     0
174
     0
 93
        1
 44
0.0
173
     0
291
     1
 45
0.0
1001
ACAD
1000
AcDbSavedByObjectVersion
1070
     0
  0
VISUALSTYLE
  5
34
102
{ACAD_REACTORS
330
2A
102
}
330
2A
100
AcDbVisualStyle
  2
Conceptual
 70
     9
 71
     3
 72
     2
 73
     0
 90
        0
 40
-0.6
 41
-30.0
 62
     5
 63
     7
 74
     2
 91
        2
 64
     7
 65
   257
 75
     1
175
     1
 42
40.0
 92
        8
 66
     7
 43
1.0
 76
     1
 77
     6
 78
     2
 67
     7
 79
     3
170
     0
171
     0
290
     0
174
     0
 93
        1
 44
0.0
173
     0
291
     0
 45
0.0
1001
ACAD
1000
AcDbSavedByObjectVersion
1070
     0
  0
VISUALSTYLE
  5
35
102
{ACAD_REACTORS
330
2A
102
}
330
2A
100
AcDbVisualStyle
  2
Dim
 70
    11
 71
     2
 72
     2
 73
     0
 90
        0
 40
-0.6
 41
-30.0
 62
     5
 63
     7
 74
     1
 91
        4
 64
     7
 65
   257
 75
     1
175
     1
 42
1.0
 92
        8
 66
     7
 43
1.0
 76
     1
 77
     6
 78
     2
 67
     7
 79
     5
170
     0
171
     0
290
     0
174
     0
 93
        1
 44
-50.0
173
     0
291
     1
 45
0.0
1001
ACAD
1000
AcDbSavedByObjectVersion
1070
     0
  0
VISUALSTYLE
  5
39
102
{ACAD_REACTORS
330
2A
102
}
330
2A
100
AcDbVisualStyle
  2
Facepattern
 70
    15
 71
     2
 72
     2
 73
     0
 90
        0
 40
-0.6
 41
-30.0
 62
     5
 63
     7
 74
     1
 91
        4
 64
     7
 65
   257
 75
     1
175
     1
 42
1.0
 92
        8
 66
     7
 43
1.0
 76
     1
 77
     6
 78
     2
 67
     7
 79
     5
170
     0
171
     0
290
     0
174
     0
 93
        1
 44
0.0
173
     0
291
     1
 45
0.0
1001
ACAD
1000
AcDbSavedByObjectVersion
1070
     0
  0
VISUALSTYLE
  5
2B
102
{ACAD_REACTORS
330
2A
102
}
330
2A
100
AcDbVisualStyle
  2
Flat
 70
     0
 71
     2
 72
     1
 73
     1
 90
        2
 40
-0.6
 41
30.0
 62
     5
 63
     7
 74
     0
 91
        4
 64
     7
 65
   257
 75
     1
175
     1
 42
1.0
 92
        8
 66
     7
 43
1.0
 76
     1
 77
     6
 78
     2
 67
     7
 79
     5
170
     0
171
     0
290
     0
174
     0
 93
       13
 44
0.0
173
     0
291
     1
 45
0.0
1001
ACAD
1000
AcDbSavedByObjectVersion
1070
     0
  0
VISUALSTYLE
  5
2C
102
{ACAD_REACTORS
330
2A
102
}
330
2A
100
AcDbVisualStyle
  2
FlatWithEdges
 70
     1
 71
     2
 72
     1
 73
     1
 90
        2
 40
-0.6
 41
30.0
 62
     5
 63
     7
 74
     1
 91
        4
 64
     7
 65
   257
 75
     1
175
     1
 42
1.0
 92
        0
 66
   257
 43
1.0
 76
     1
 77
     6
 78
     2
 67
     7
 79
     5
170
     0
171
     0
290
     0
174
     0
 93
       13
 44
0.0
173
     0
291
     1
 45
0.0
1001
ACAD
1000
AcDbSavedByObjectVersion
1070
     0
  0
VISUALSTYLE
  5
2D
102
{ACAD_REACTORS
330
2A
102
}
330
2A
100
AcDbVisualStyle
  2
Gouraud
 70
     2
 71
     2
 72
     2
 73
     1
 90
        2
 40
-0.6
 41
30.0
 62
     5
 63
     7
 74
     0
 91
        4
 64
     7
 65
   257
 75
     1
175
     1
 42
1.0
 92
        0
 66
     7
 43
1.0
 76
     1
 77
     6
 78
     2
 67
     7
 79
     5
170
     0
171
     0
290
     0
174
     0
 93
       13
 44
0.0
173
     0
291
     1
 45
0.0
1001
ACAD
1000
AcDbSavedByObjectVersion
1070
     0
  0
VISUALSTYLE
  5
2E
102
{ACAD_REACTORS
330
2A
102
}
330
2A
100
AcDbVisualStyle
  2
GouraudWithEdges
 70
     3
 71
     2
 72
     2
 73
     1
 90
        2
 40
-0.6
 41
30.0
 62
     5
 63
     7
 74
     1
 91
        4
 64
     7
 65
   257
 75
     1
175
     1
 42
1.0
 92
        0
 66
   257
 43
1.0
 76
     1
 77
     6
 78
     2
 67
     7
 79
     5
170
     0
171
     0
290
     0
174
     0
 93
       13
 44
0.0
173
     0
291
     1
 45
0.0
1001
ACAD
1000
AcDbSavedByObjectVersion
1070
     0
  0
VISUALSTYLE
  5
38
102
{ACAD_REACTORS
330
2A
102
}
330
2A
100
AcDbVisualStyle
  2
Linepattern
 70
    14
 71
     2
 72
     2
 73
     0
 90
        0
 40
-0.6
 41
-30.0
 62
     5
 63
     7
 74
     1
 91
        4
 64
     7
 65
   257
 75
     7
175
     7
 42
1.0
 92
        8
 66
     7
 43
1.0
 76
     1
 77
     6
 78
     2
 67
     7
 79
     5
170
     0
171
     0
290
     0
174
     0
 93
        1
 44
0.0
173
     0
291
     1
 45
0.0
1001
ACAD
1000
AcDbSavedByObjectVersion
1070
     0
  0
VISUALSTYLE
  5
33
102
{ACAD_REACTORS
330
2A
102
}
330
2A
100
AcDbVisualStyle
  2
Realistic
 70
     8
 71
     2
 72
     2
 73
     0
 90
        0
 40
-0.6
 41
-30.0
 62
     5
 63
     7
 74
     1
 91
        0
 64
     7
 65
   257
 75
     1
175
     1
 42
1.0
 92
        8
 66
     8
 43
1.0
 76
     1
 77
     6
 78
     2
 67
     7
 79
     5
170
     0
171
     0
290
     0
174
     0
 93
       13
 44
0.0
173
     0
291
     0
 45
0.0
1001
ACAD
1000
AcDbSavedByObjectVersion
1070
     0
  0
VISUALSTYLE
  5
37
102
{ACAD_REACTORS
330
2A
102
}
330
2A
100
AcDbVisualStyle
  2
Thicken
 70
    13
 71
     2
 72
     2
 73
     0
 90
        0
 40
-0.6
 41
-30.0
 62
     5
 63
     7
 74
     1
 91
        4
 64
     7
 65
   257
 75
     1
175
     1
 42
1.0
 92
       12
 66
     7
 43
1.0
 76
     1
 77
     6
 78
     2
 67
     7
 79
     5
170
     0
171
     0
290
     0
174
     0
 93
        1
 44
0.0
173
     0
291
     1
 45
0.0
1001
ACAD
1000
AcDbSavedByObjectVersion
1070
     0
  0
DICTIONARYVAR
  5
150
102
{ACAD_REACTORS
330
14F
102
}
330
14F
100
DictionaryVariables
280
     0
  1
1:1
  0
DICTIONARYVAR
  5
154
102
{ACAD_REACTORS
330
14F
102
}
330
14F
100
DictionaryVariables
280
     0
  1
80.000000
  0
DICTIONARYVAR
  5
153
102
{ACAD_REACTORS
330
14F
102
}
330
14F
100
DictionaryVariables
280
     0
  1
5.000000
  0
ENDSEC
  0
EOF
