  0
SECTION
  2
HEADER
  9
$ACADVER
  1
AC1015
  9
$ACADMAINTVER
 70
     6
  9
$DWGCODEPAGE
  3
ANSI_1252
  9
$INSBASE
 10
0.0
 20
0.0
 30
0.0
  9
$EXTMIN
 10
0.0
 20
0.0
 30
0.0
  9
$EXTMAX
 10
1682.0
 20
2378.0
 30
0.0
  9
$LIMMIN
 10
0.0
 20
0.0
  9
$LIMMAX
 10
1682.0
 20
2378.0
  9
$ORTHOMODE
 70
     0
  9
$REGENMODE
 70
     1
  9
$FILLMODE
 70
     1
  9
$QTEXTMODE
 70
     0
  9
$MIRRTEXT
 70
     1
  9
$LTSCALE
 40
1.0
  9
$ATTMODE
 70
     1
  9
$TEXTSIZE
 40
2.5
  9
$TRACEWID
 40
1.0
  9
$TEXTSTYLE
  7
Standard
  9
$CLAYER
  8
0
  9
$CELTYPE
  6
ByLayer
  9
$CECOLOR
 62
   256
  9
$CELTSCALE
 40
1.0
  9
$DISPSILH
 70
     0
  9
$DIMSCALE
 40
1.0
  9
$DIMASZ
 40
2.5
  9
$DIMEXO
 40
0.625
  9
$DIMDLI
 40
3.75
  9
$DIMRND
 40
0.0
  9
$DIMDLE
 40
0.0
  9
$DIMEXE
 40
1.25
  9
$DIMTP
 40
0.0
  9
$DIMTM
 40
0.0
  9
$DIMTXT
 40
2.5
  9
$DIMCEN
 40
2.5
  9
$DIMTSZ
 40
0.0
  9
$DIMTOL
 70
     0
  9
$DIMLIM
 70
     0
  9
$DIMTIH
 70
     0
  9
$DIMTOH
 70
     0
  9
$DIMSE1
 70
     0
  9
$DIMSE2
 70
     0
  9
$DIMTAD
 70
     1
  9
$DIMZIN
 70
     8
  9
$DIMBLK
  1

  9
$DIMASO
 70
     1
  9
$DIMSHO
 70
     1
  9
$DIMPOST
  1

  9
$DIMAPOST
  1

  9
$DIMALT
 70
     0
  9
$DIMALTD
 70
     3
  9
$DIMALTF
 40
0.0393700787
  9
$DIMLFAC
 40
1.0
  9
$DIMTOFL
 70
     1
  9
$DIMTVP
 40
0.0
  9
$DIMTIX
 70
     0
  9
$DIMSOXD
 70
     0
  9
$DIMSAH
 70
     0
  9
$DIMBLK1
  1

  9
$DIMBLK2
  1

  9
$DIMSTYLE
  2
ISO-25
  9
$DIMCLRD
 70
     0
  9
$DIMCLRE
 70
     0
  9
$DIMCLRT
 70
     0
  9
$DIMTFAC
 40
1.0
  9
$DIMGAP
 40
0.625
  9
$DIMJUST
 70
     0
  9
$DIMSD1
 70
     0
  9
$DIMSD2
 70
     0
  9
$DIMTOLJ
 70
     0
  9
$DIMTZIN
 70
     8
  9
$DIMALTZ
 70
     0
  9
$DIMALTTZ
 70
     0
  9
$DIMUPT
 70
     0
  9
$DIMDEC
 70
     2
  9
$DIMTDEC
 70
     2
  9
$DIMALTU
 70
     2
  9
$DIMALTTD
 70
     3
  9
$DIMTXSTY
  7
Standard
  9
$DIMAUNIT
 70
     0
  9
$DIMADEC
 70
     0
  9
$DIMALTRND
 40
0.0
  9
$DIMAZIN
 70
     0
  9
$DIMDSEP
 70
    44
  9
$DIMATFIT
 70
     3
  9
$DIMFRAC
 70
     0
  9
$DIMLDRBLK
  1

  9
$DIMLUNIT
 70
     2
  9
$DIMLWD
 70
    -2
  9
$DIMLWE
 70
    -2
  9
$DIMTMOVE
 70
     0
  9
$LUNITS
 70
     2
  9
$LUPREC
 70
     4
  9
$SKETCHINC
 40
1.0
  9
$FILLETRAD
 40
10.0
  9
$AUNITS
 70
     0
  9
$AUPREC
 70
     0
  9
$MENU
  1
.
  9
$ELEVATION
 40
0.0
  9
$PELEVATION
 40
0.0
  9
$THICKNESS
 40
0.0
  9
$LIMCHECK
 70
     0
  9
$CHAMFERA
 40
10.0
  9
$CHAMFERB
 40
10.0
  9
$CHAMFERC
 40
20.0
  9
$CHAMFERD
 40
0.0
  9
$SKPOLY
 70
     0
  9
$TDCREATE
 40
2455656.409854965
  9
$TDUCREATE
 40
2455656.326521632
  9
$TDUPDATE
 40
2455656.409854977
  9
$TDUUPDATE
 40
2455656.326521643
  9
$TDINDWG
 40
0.0000000116
  9
$TDUSRTIMER
 40
0.0000000116
  9
$USRTIMER
 70
     1
  9
$ANGBASE
 50
0.0
  9
$ANGDIR
 70
     0
  9
$PDMODE
 70
     0
  9
$PDSIZE
 40
0.0
  9
$PLINEWID
 40
0.0
  9
$SPLFRAME
 70
     0
  9
$SPLINETYPE
 70
     6
  9
$SPLINESEGS
 70
     8
  9
$HANDSEED
  5
12F
  9
$SURFTAB1
 70
     6
  9
$SURFTAB2
 70
     6
  9
$SURFTYPE
 70
     6
  9
$SURFU
 70
     6
  9
$SURFV
 70
     6
  9
$UCSBASE
  2

  9
$UCSNAME
  2

  9
$UCSORG
 10
0.0
 20
0.0
 30
0.0
  9
$UCSXDIR
 10
1.0
 20
0.0
 30
0.0
  9
$UCSYDIR
 10
0.0
 20
1.0
 30
0.0
  9
$UCSORTHOREF
  2

  9
$UCSORTHOVIEW
 70
     0
  9
$UCSORGTOP
 10
0.0
 20
0.0
 30
0.0
  9
$UCSORGBOTTOM
 10
0.0
 20
0.0
 30
0.0
  9
$UCSORGLEFT
 10
0.0
 20
0.0
 30
0.0
  9
$UCSORGRIGHT
 10
0.0
 20
0.0
 30
0.0
  9
$UCSORGFRONT
 10
0.0
 20
0.0
 30
0.0
  9
$UCSORGBACK
 10
0.0
 20
0.0
 30
0.0
  9
$PUCSBASE
  2

  9
$PUCSNAME
  2

  9
$PUCSORG
 10
0.0
 20
0.0
 30
0.0
  9
$PUCSXDIR
 10
1.0
 20
0.0
 30
0.0
  9
$PUCSYDIR
 10
0.0
 20
1.0
 30
0.0
  9
$PUCSORTHOREF
  2

  9
$PUCSORTHOVIEW
 70
     0
  9
$PUCSORGTOP
 10
0.0
 20
0.0
 30
0.0
  9
$PUCSORGBOTTOM
 10
0.0
 20
0.0
 30
0.0
  9
$PUCSORGLEFT
 10
0.0
 20
0.0
 30
0.0
  9
$PUCSORGRIGHT
 10
0.0
 20
0.0
 30
0.0
  9
$PUCSORGFRONT
 10
0.0
 20
0.0
 30
0.0
  9
$PUCSORGBACK
 10
0.0
 20
0.0
 30
0.0
  9
$USERI1
 70
     0
  9
$USERI2
 70
     0
  9
$USERI3
 70
     0
  9
$USERI4
 70
     0
  9
$USERI5
 70
     0
  9
$USERR1
 40
0.0
  9
$USERR2
 40
0.0
  9
$USERR3
 40
0.0
  9
$USERR4
 40
0.0
  9
$USERR5
 40
0.0
  9
$WORLDVIEW
 70
     1
  9
$SHADEDGE
 70
     3
  9
$SHADEDIF
 70
    70
  9
$TILEMODE
 70
     1
  9
$MAXACTVP
 70
    64
  9
$PINSBASE
 10
0.0
 20
0.0
 30
0.0
  9
$PLIMCHECK
 70
     0
  9
$PEXTMIN
 10
0.0
 20
0.0
 30
0.0
  9
$PEXTMAX
 10
1682.0
 20
2378.0
 30
0.0
  9
$PLIMMIN
 10
0.0
 20
0.0
  9
$PLIMMAX
 10
1682.0
 20
2378.0
  9
$UNITMODE
 70
     0
  9
$VISRETAIN
 70
     1
  9
$PLINEGEN
 70
     0
  9
$PSLTSCALE
 70
     1
  9
$TREEDEPTH
 70
  3020
  9
$CMLSTYLE
  2
Standard
  9
$CMLJUST
 70
     0
  9
$CMLSCALE
 40
20.0
  9
$PROXYGRAPHICS
 70
     1
  9
$MEASUREMENT
 70
     1
  9
$CELWEIGHT
370
    -1
  9
$ENDCAPS
280
     0
  9
$JOINSTYLE
280
     0
  9
$LWDISPLAY
290
     0
  9
$INSUNITS
 70
     4
  9
$HYPERLINKBASE
  1

  9
$STYLESHEET
  1

  9
$XEDIT
290
     1
  9
$CEPSNTYPE
380
     0
  9
$PSTYLEMODE
290
     1
  9
$FINGERPRINTGUID
  2
{4EBD7189-C888-4126-8844-7EDC03F7B5F4}
  9
$VERSIONGUID
  2
{FAEB1C32-E019-11D5-929B-00C0DF256EC4}
  9
$EXTNAMES
290
     1
  9
$PSVPSCALE
 40
0.0
  9
$OLESTARTUP
290
     0
  0
ENDSEC
  0
SECTION
  2
CLASSES
  0
CLASS
  1
ACDBDICTIONARYWDFLT
  2
AcDbDictionaryWithDefault
  3
ObjectDBX Classes
 90
        0
280
     0
281
     0
  0
CLASS
  1
VISUALSTYLE
  2
AcDbVisualStyle
  3
ObjectDBX Classes
 90
     4095
280
     0
281
     0
  0
CLASS
  1
SCALE
  2
AcDbScale
  3
ObjectDBX Classes
 90
     1153
280
     0
281
     0
  0
CLASS
  1
DICTIONARYVAR
  2
AcDbDictionaryVar
  3
ObjectDBX Classes
 90
        0
280
     0
281
     0
  0
CLASS
  1
ACDBPLACEHOLDER
  2
AcDbPlaceHolder
  3
ObjectDBX Classes
 90
        0
280
     0
281
     0
  0
CLASS
  1
LAYOUT
  2
AcDbLayout
  3
ObjectDBX Classes
 90
        0
280
     0
281
     0
  0
ENDSEC
  0
SECTION
  2
TABLES
  0
TABLE
  2
VPORT
  5
8
330
0
100
AcDbSymbolTable
 70
     1
  0
VPORT
  5
29
330
8
100
AcDbSymbolTableRecord
100
AcDbViewportTableRecord
  2
*Active
 70
     0
 10
0.0
 20
0.0
 11
1.0
 21
1.0
 12
344.1869158879
 22
148.5
 13
0.0
 23
0.0
 14
10.0
 24
10.0
 15
10.0
 25
10.0
 16
0.0
 26
0.0
 36
1.0
 17
0.0
 27
0.0
 37
0.0
 40
297.0
 41
1.9729729729
 42
50.0
 43
0.0
 44
0.0
 50
0.0
 51
0.0
 71
     0
 72
   100
 73
     1
 74
     3
 75
     0
 76
     0
 77
     0
 78
     0
281
     0
 65
     1
110
0.0
120
0.0
130
0.0
111
1.0
121
0.0
131
0.0
112
0.0
122
1.0
132
0.0
 79
     0
146
0.0
  0
ENDTAB
  0
TABLE
  2
LTYPE
  5
5
330
0
100
AcDbSymbolTable
 70
     2
  0
LTYPE
  5
14
330
5
100
AcDbSymbolTableRecord
100
AcDbLinetypeTableRecord
  2
ByBlock
 70
     0
  3

 72
    65
 73
     0
 40
0.0
  0
LTYPE
  5
15
330
5
100
AcDbSymbolTableRecord
100
AcDbLinetypeTableRecord
  2
ByLayer
 70
     0
  3

 72
    65
 73
     0
 40
0.0
  0
LTYPE
  5
16
330
5
100
AcDbSymbolTableRecord
100
AcDbLinetypeTableRecord
  2
Continuous
 70
     0
  3
Solid line
 72
    65
 73
     0
 40
0.0
  0
LTYPE
  5
60
330
5
100
AcDbSymbolTableRecord
100
AcDbLinetypeTableRecord
  2
CENTER2
 70
     0
  3
Center (.5x) ___ _ ___ _ ___ _ ___ _ ___ _ ___
 72
    65
 73
     4
 40
28.575
 49
19.05
 74
     4
 75
     0
340
0
 46
0.0
 50
0.0
 44
0.0
 45
0.0
 49
-3.175
 74
     4
 75
     0
340
0
 46
0.0
 50
0.0
 44
0.0
 45
0.0
 49
3.175
 74
     4
 75
     0
340
0
 46
0.0
 50
0.0
 44
0.0
 45
0.0
 49
-3.175
 74
     4
 75
     0
340
0
 46
0.0
 50
0.0
 44
0.0
 45
0.0
  0
ENDTAB
  0
TABLE
  2
LAYER
  5
2
330
0
100
AcDbSymbolTable
 70
     8
  0
LAYER
  5
10
330
2
100
AcDbSymbolTableRecord
100
AcDbLayerTableRecord
  2
0
 70
     0
 62
     7
  6
Continuous
370
    -3
390
F
  0
LAYER
  5
5D
330
2
100
AcDbSymbolTableRecord
100
AcDbLayerTableRecord
  2
Default
 70
     0
 62
     7
  6
Continuous
370
    -3
390
F
  0
LAYER
  5
74
330
2
100
AcDbSymbolTableRecord
100
AcDbLayerTableRecord
  2
$DDT_AUDIT_GENERATED_(74)
 70
     0
 62
     7
  6
Continuous
370
    -3
390
F
  0
LAYER
  5
7E
330
2
100
AcDbSymbolTableRecord
100
AcDbLayerTableRecord
  2
12030689_GROHE_A
 70
     0
 62
     7
  6
Continuous
370
    -3
390
F
  0
LAYER
  5
82
330
2
100
AcDbSymbolTableRecord
100
AcDbLayerTableRecord
  2
$DDT_AUDIT_GENERATED_(82)
 70
     0
 62
     7
  6
Continuous
370
    -3
390
F
  0
LAYER
  5
9A
330
2
100
AcDbSymbolTableRecord
100
AcDbLayerTableRecord
  2
401814038_014751
 70
     0
 62
     7
  6
Continuous
370
    -3
390
F
  0
LAYER
  5
C9
330
2
100
AcDbSymbolTableRecord
100
AcDbLayerTableRecord
  2
12030697_LEVELIN
 70
     0
 62
     7
  6
Continuous
370
    -3
390
F
  0
LAYER
  5
F2
330
2
100
AcDbSymbolTableRecord
100
AcDbLayerTableRecord
  2
$DDT_AUDIT_GENERATED_(F2)
 70
     0
 62
     7
  6
Continuous
370
    -3
390
F
  0
ENDTAB
  0
TABLE
  2
STYLE
  5
3
330
0
100
AcDbSymbolTable
 70
     2
  0
STYLE
  5
11
330
3
100
AcDbSymbolTableRecord
100
AcDbTextStyleTableRecord
  2
Standard
 70
     0
 40
0.0
 41
1.0
 50
0.0
 71
     0
 42
2.5
  3
txt
  4

  0
STYLE
  5
11E
330
3
100
AcDbSymbolTableRecord
100
AcDbTextStyleTableRecord
  2
SEACAD_seiso_ttf
 70
     0
 40
0.0
 41
1.0
 50
0.0
 71
     0
 42
0.2
  3
seiso.ttf
  4

  0
ENDTAB
  0
TABLE
  2
VIEW
  5
6
330
0
100
AcDbSymbolTable
 70
     0
  0
ENDTAB
  0
TABLE
  2
UCS
  5
7
330
0
100
AcDbSymbolTable
 70
     0
  0
ENDTAB
  0
TABLE
  2
APPID
  5
9
330
0
100
AcDbSymbolTable
 70
     1
  0
APPID
  5
12
330
9
100
AcDbSymbolTableRecord
100
AcDbRegAppTableRecord
  2
ACAD
 70
     0
  0
ENDTAB
  0
TABLE
  2
DIMSTYLE
  5
A
330
0
100
AcDbSymbolTable
 70
     1
100
AcDbDimStyleTable
  0
DIMSTYLE
105
27
330
A
100
AcDbSymbolTableRecord
100
AcDbDimStyleTableRecord
  2
ISO-25
 70
     0
 41
2.5
 42
0.625
 43
3.75
 44
1.25
 73
     0
 74
     0
 77
     1
 78
     8
140
2.5
141
2.5
143
0.0393700787
147
0.625
171
     3
172
     1
271
     2
272
     2
274
     3
278
    44
283
     0
284
     8
340
11
  0
ENDTAB
  0
TABLE
  2
BLOCK_RECORD
  5
1
330
0
100
AcDbSymbolTable
 70
     7
  0
BLOCK_RECORD
  5
1F
330
1
100
AcDbSymbolTableRecord
100
AcDbBlockTableRecord
  2
*Model_Space
340
22
  0
BLOCK_RECORD
  5
1B
330
1
100
AcDbSymbolTableRecord
100
AcDbBlockTableRecord
  2
*Paper_Space
340
1E
  0
BLOCK_RECORD
  5
5E
330
1
100
AcDbSymbolTableRecord
100
AcDbBlockTableRecord
  2
SEANNOT_GROUP
340
0
102
{BLKREFS
331
5F
102
}
  0
BLOCK_RECORD
  5
66
330
1
100
AcDbSymbolTableRecord
100
AcDbBlockTableRecord
  2
SEANNOT_GROUP1
340
0
102
{BLKREFS
331
67
102
}
  0
BLOCK_RECORD
  5
6C
330
1
100
AcDbSymbolTableRecord
100
AcDbBlockTableRecord
  2
SEANNOT_GROUP2
340
0
102
{BLKREFS
331
6D
102
}
  0
BLOCK_RECORD
  5
72
330
1
100
AcDbSymbolTableRecord
100
AcDbBlockTableRecord
  2
SE
340
0
102
{BLKREFS
331
73
102
}
  0
BLOCK_RECORD
  5
C0
330
1
100
AcDbSymbolTableRecord
100
AcDbBlockTableRecord
  2
SE1
340
0
102
{BLKREFS
331
C1
102
}
  0
BLOCK_RECORD
  5
F7
330
1
100
AcDbSymbolTableRecord
100
AcDbBlockTableRecord
  2
SE2
340
0
102
{BLKREFS
331
F8
102
}
  0
ENDTAB
  0
ENDSEC
  0
SECTION
  2
BLOCKS
  0
BLOCK
  5
20
330
1F
100
AcDbEntity
  8
0
100
AcDbBlockBegin
  2
*Model_Space
 70
     0
 10
0.0
 20
0.0
 30
0.0
  3
*Model_Space
  1

  0
ENDBLK
  5
21
330
1F
100
AcDbEntity
  8
0
100
AcDbBlockEnd
  0
BLOCK
  5
1C
330
1B
100
AcDbEntity
 67
     1
  8
0
100
AcDbBlockBegin
  2
*Paper_Space
 70
     0
 10
0.0
 20
0.0
 30
0.0
  3
*Paper_Space
  1

  0
ENDBLK
  5
1D
330
1B
100
AcDbEntity
 67
     1
  8
0
100
AcDbBlockEnd
  0
BLOCK
  5
63
330
5E
100
AcDbEntity
  8
0
100
AcDbBlockBegin
  2
SEANNOT_GROUP
 70
     0
 10
0.0
 20
0.0
 30
0.0
  3
SEANNOT_GROUP
  1

  0
LINE
  5
61
330
5E
100
AcDbEntity
  8
Default
  6
CENTER2
 62
     7
100
AcDbLine
 10
500.0219986848
 20
438.2473601343
 30
0.0
 11
460.0219995789
 21
438.2473601343
 31
0.0
  0
LINE
  5
62
330
5E
100
AcDbEntity
  8
Default
  6
CENTER2
 62
     7
100
AcDbLine
 10
480.0219991318
 20
458.2473596872
 30
0.0
 11
480.0219991318
 21
418.2473605813
 31
0.0
  0
ENDBLK
  5
64
330
5E
100
AcDbEntity
  8
0
100
AcDbBlockEnd
  0
BLOCK
  5
6A
330
66
100
AcDbEntity
  8
0
100
AcDbBlockBegin
  2
SEANNOT_GROUP1
 70
     0
 10
0.0
 20
0.0
 30
0.0
  3
SEANNOT_GROUP1
  1

  0
LINE
  5
68
330
66
100
AcDbEntity
  8
Default
  6
CENTER2
 62
     7
100
AcDbLine
 10
235.0332486848
 20
438.2473601343
 30
0.0
 11
195.0332495789
 21
438.2473601343
 31
0.0
  0
LINE
  5
69
330
66
100
AcDbEntity
  8
Default
  6
CENTER2
 62
     7
100
AcDbLine
 10
215.0332491319
 20
458.2473596872
 30
0.0
 11
215.0332491319
 21
418.2473605813
 31
0.0
  0
ENDBLK
  5
6B
330
66
100
AcDbEntity
  8
0
100
AcDbBlockEnd
  0
BLOCK
  5
70
330
6C
100
AcDbEntity
  8
0
100
AcDbBlockBegin
  2
SEANNOT_GROUP2
 70
     0
 10
0.0
 20
0.0
 30
0.0
  3
SEANNOT_GROUP2
  1

  0
LINE
  5
6E
330
6C
100
AcDbEntity
  8
Default
  6
CENTER2
 62
     7
100
AcDbLine
 10
235.0332486848
 20
177.5486101343
 30
0.0
 11
195.0332495789
 21
177.5486101343
 31
0.0
  0
LINE
  5
6F
330
6C
100
AcDbEntity
  8
Default
  6
CENTER2
 62
     7
100
AcDbLine
 10
215.0332491319
 20
197.5486096872
 30
0.0
 11
215.0332491319
 21
157.5486105813
 31
0.0
  0
ENDBLK
  5
71
330
6C
100
AcDbEntity
  8
0
100
AcDbBlockEnd
  0
BLOCK
  5
BE
330
72
100
AcDbEntity
  8
0
100
AcDbBlockBegin
  2
SE
 70
     0
 10
0.0
 20
0.0
 30
0.0
  3
SE
  1

  0
LINE
  5
75
330
72
100
AcDbEntity
  8
$DDT_AUDIT_GENERATED_(74)
  6
Continuous
 62
     7
100
AcDbLine
 10
188.0832491318
 20
465.6973601343
 30
0.0
 11
241.9832491318
 21
465.6973601343
 31
0.0
  0
LINE
  5
76
330
72
100
AcDbEntity
  8
$DDT_AUDIT_GENERATED_(74)
  6
Continuous
 62
     7
100
AcDbLine
 10
187.5832491318
 20
411.2973601343
 30
0.0
 11
187.5832491318
 21
465.1973601343
 31
0.0
  0
LINE
  5
77
330
72
100
AcDbEntity
  8
$DDT_AUDIT_GENERATED_(74)
  6
Continuous
 62
     7
100
AcDbLine
 10
241.9832491318
 20
410.7973601343
 30
0.0
 11
238.8427182791
 21
410.7973601343
 31
0.0
  0
LINE
  5
78
330
72
100
AcDbEntity
  8
$DDT_AUDIT_GENERATED_(74)
  6
Continuous
 62
     7
100
AcDbLine
 10
191.2173017587
 20
410.7973601343
 30
0.0
 11
188.0832491318
 21
410.7973601343
 31
0.0
  0
LINE
  5
79
330
72
100
AcDbEntity
  8
$DDT_AUDIT_GENERATED_(74)
  6
Continuous
 62
     7
100
AcDbLine
 10
242.4832491318
 20
465.1973601343
 30
0.0
 11
242.4832491318
 21
411.2973601343
 31
0.0
  0
ARC
  5
7A
330
72
100
AcDbEntity
  8
$DDT_AUDIT_GENERATED_(74)
  6
Continuous
 62
     7
100
AcDbCircle
 10
241.9832491318
 20
411.2973601343
 30
0.0
 40
0.5000000000000004
100
AcDbArc
 50
270.0
 51
0.0
  0
ARC
  5
7B
330
72
100
AcDbEntity
  8
$DDT_AUDIT_GENERATED_(74)
  6
Continuous
 62
     7
100
AcDbCircle
 10
241.9832491318
 20
465.1973601343
 30
0.0
 40
0.5000000000000004
100
AcDbArc
 50
0.0
 51
90.0
  0
ARC
  5
7C
330
72
100
AcDbEntity
  8
$DDT_AUDIT_GENERATED_(74)
  6
Continuous
 62
     7
100
AcDbCircle
 10
188.0832491318
 20
411.2973601343
 30
0.0
 40
0.5000000000000004
100
AcDbArc
 50
180.0
 51
270.0
  0
ARC
  5
7D
330
72
100
AcDbEntity
  8
$DDT_AUDIT_GENERATED_(74)
  6
Continuous
 62
     7
100
AcDbCircle
 10
188.0832491318
 20
465.1973601343
 30
0.0
 40
0.5000000000000004
100
AcDbArc
 50
90.0
 51
180.0
  0
LINE
  5
7F
330
72
100
AcDbEntity
  8
12030689_GROHE_A
  6
Continuous
 62
     7
100
AcDbLine
 10
216.0332491318
 20
465.6973601343
 30
0.0
 11
216.0332491318
 21
465.7473601343
 31
0.0
  0
LINE
  5
80
330
72
100
AcDbEntity
  8
12030689_GROHE_A
  6
Continuous
 62
     7
100
AcDbLine
 10
214.0332491318
 20
465.7473601343
 30
0.0
 11
214.0332491318
 21
465.6973601343
 31
0.0
  0
LINE
  5
81
330
72
100
AcDbEntity
  8
12030689_GROHE_A
  6
Continuous
 62
     7
100
AcDbLine
 10
216.0332491318
 20
465.7473601343
 30
0.0
 11
214.0332491318
 21
465.7473601343
 31
0.0
  0
LINE
  5
83
330
72
100
AcDbEntity
  8
$DDT_AUDIT_GENERATED_(82)
  6
Continuous
 62
     7
100
AcDbLine
 10
294.5332491319
 20
528.4479769493
 30
0.0
 11
294.5332491319
 21
348.0467433192
 31
0.0
  0
ELLIPSE
  5
84
330
72
100
AcDbEntity
  8
$DDT_AUDIT_GENERATED_(82)
  6
Continuous
 62
     7
100
AcDbEllipse
 10
292.7326321054
 20
528.4467431078
 30
0.0
 11
-1.273664663898039
 21
-1.273664663898038
 31
0.0
210
0.0
220
0.0
230
1.0
 40
0.999315002
 41
2.356537106530543
 42
3.926648200649075
  0
LINE
  5
85
330
72
100
AcDbEntity
  8
$DDT_AUDIT_GENERATED_(82)
  6
Continuous
 62
     7
100
AcDbLine
 10
135.5332491319
 20
348.0467433192
 30
0.0
 11
135.5332491319
 21
528.4479769493
 31
0.0
  0
ELLIPSE
  5
86
330
72
100
AcDbEntity
  8
$DDT_AUDIT_GENERATED_(82)
  6
Continuous
 62
     7
100
AcDbEllipse
 10
137.3338661583
 20
348.0479771608
 30
0.0
 11
1.273664663898039
 21
1.273664663898038
 31
0.0
210
0.0
220
0.0
230
1.0
 40
0.999315002
 41
2.356537106530511
 42
3.926648200649107
  0
LINE
  5
87
330
72
100
AcDbEntity
  8
$DDT_AUDIT_GENERATED_(82)
  6
Continuous
 62
     7
100
AcDbLine
 10
292.7338659469
 20
346.2473601343
 30
0.0
 11
220.0332491318
 21
346.2473601343
 31
0.0
  0
ELLIPSE
  5
88
330
72
100
AcDbEntity
  8
$DDT_AUDIT_GENERATED_(82)
  6
Continuous
 62
     7
100
AcDbEllipse
 10
292.7326321054
 20
348.0479771608
 30
0.0
 11
-1.273664663898038
 21
1.273664663898039
 31
0.0
210
0.0
220
0.0
230
1.0
 40
0.999315002
 41
2.35653710653048
 42
3.926648200649107
  0
LINE
  5
89
330
72
100
AcDbEntity
  8
$DDT_AUDIT_GENERATED_(82)
  6
Continuous
 62
     7
100
AcDbLine
 10
137.3326323168
 20
530.2473601343
 30
0.0
 11
292.7338659469
 21
530.2473601343
 31
0.0
  0
ELLIPSE
  5
8A
330
72
100
AcDbEntity
  8
$DDT_AUDIT_GENERATED_(82)
  6
Continuous
 62
     7
100
AcDbEllipse
 10
137.3338661583
 20
528.4467431078
 30
0.0
 11
1.273664663898038
 21
-1.273664663898039
 31
0.0
210
0.0
220
0.0
230
1.0
 40
0.999315002
 41
2.35653710653059
 42
3.926648200649012
  0
LINE
  5
8B
330
72
100
AcDbEntity
  8
$DDT_AUDIT_GENERATED_(82)
  6
Continuous
 62
     7
100
AcDbLine
 10
210.0332491318
 20
346.2473601343
 30
0.0
 11
137.3326323168
 21
346.2473601343
 31
0.0
  0
LINE
  5
8C
330
72
100
AcDbEntity
  8
$DDT_AUDIT_GENERATED_(82)
  6
Continuous
 62
     7
100
AcDbLine
 10
219.7952490045
 20
346.2706192179
 30
0.0
 11
220.0332491318
 21
346.2473601343
 31
0.0
  0
ELLIPSE
  5
8D
330
72
100
AcDbEntity
  8
$DDT_AUDIT_GENERATED_(82)
  6
Continuous
 62
     7
100
AcDbEllipse
 10
218.346360265
 20
346.2604530951
 30
0.0
 11
-1.5
 21
0.0
 31
0.0
210
0.0
220
0.0
230
1.0
 40
0.0261859216
 41
3.403392041388913
 42
4.71238898038469
  0
LINE
  5
8E
330
72
100
AcDbEntity
  8
$DDT_AUDIT_GENERATED_(82)
  6
Continuous
 62
     7
100
AcDbLine
 10
211.7201379987
 20
346.2997319774
 30
0.0
 11
218.346360265
 21
346.2997319774
 31
0.0
  0
ELLIPSE
  5
8F
330
72
100
AcDbEntity
  8
$DDT_AUDIT_GENERATED_(82)
  6
Continuous
 62
     7
100
AcDbEllipse
 10
211.7201379987
 20
346.2604530951
 30
0.0
 11
-1.5
 21
0.0
 31
0.0
210
0.0
220
0.0
230
1.0
 40
0.0261859216
 41
4.71238898038469
 42
6.021385919380463
  0
LINE
  5
90
330
72
100
AcDbEntity
  8
$DDT_AUDIT_GENERATED_(82)
  6
Continuous
 62
     7
100
AcDbLine
 10
210.0332491318
 20
346.2473601343
 30
0.0
 11
210.2712492592
 21
346.2706192179
 31
0.0
  0
LINE
  5
91
330
72
100
AcDbEntity
  8
$DDT_AUDIT_GENERATED_(82)
  6
Continuous
 62
     7
100
AcDbLine
 10
188.2832491318
 20
410.4973601343
 30
0.0
 11
191.2173017587
 21
410.4973601343
 31
0.0
  0
LINE
  5
92
330
72
100
AcDbEntity
  8
$DDT_AUDIT_GENERATED_(82)
  6
Continuous
 62
     7
100
AcDbLine
 10
238.8427182791
 20
410.4973601343
 30
0.0
 11
241.7832491318
 21
410.4973601343
 31
0.0
  0
ARC
  5
93
330
72
100
AcDbEntity
  8
$DDT_AUDIT_GENERATED_(82)
  6
Continuous
 62
     7
100
AcDbCircle
 10
188.2832491318
 20
411.4973601343
 30
0.0
 40
0.9999999999999597
100
AcDbArc
 50
180.0
 51
270.0
  0
ARC
  5
94
330
72
100
AcDbEntity
  8
$DDT_AUDIT_GENERATED_(82)
  6
Continuous
 62
     7
100
AcDbCircle
 10
241.7832491319
 20
411.4973601343
 30
0.0
 40
0.9999999999999497
100
AcDbArc
 50
270.0
 51
0.0
  0
LINE
  5
95
330
72
100
AcDbEntity
  8
$DDT_AUDIT_GENERATED_(82)
  6
Continuous
 62
     7
100
AcDbLine
 10
187.2832491318
 20
464.9973601343
 30
0.0
 11
187.2832491318
 21
411.4973601343
 31
0.0
  0
LINE
  5
96
330
72
100
AcDbEntity
  8
$DDT_AUDIT_GENERATED_(82)
  6
Continuous
 62
     7
100
AcDbLine
 10
242.7832491318
 20
411.4973601343
 30
0.0
 11
242.7832491318
 21
464.9973601343
 31
0.0
  0
ARC
  5
97
330
72
100
AcDbEntity
  8
$DDT_AUDIT_GENERATED_(82)
  6
Continuous
 62
     7
100
AcDbCircle
 10
188.2832491318
 20
464.9973601343
 30
0.0
 40
0.9999999999999386
100
AcDbArc
 50
90.0
 51
180.0
  0
ARC
  5
98
330
72
100
AcDbEntity
  8
$DDT_AUDIT_GENERATED_(82)
  6
Continuous
 62
     7
100
AcDbCircle
 10
241.7832491319
 20
464.9973601343
 30
0.0
 40
0.9999999999999476
100
AcDbArc
 50
0.0
 51
90.0
  0
LINE
  5
99
330
72
100
AcDbEntity
  8
$DDT_AUDIT_GENERATED_(82)
  6
Continuous
 62
     7
100
AcDbLine
 10
241.7832491318
 20
465.9973601343
 30
0.0
 11
188.2832491318
 21
465.9973601343
 31
0.0
  0
SPLINE
  5
9B
330
72
100
AcDbEntity
  8
401814038_014751
  6
Continuous
 62
     7
100
AcDbSpline
210
0.0
220
0.0
230
1.0
 70
    12
 71
     3
 72
     8
 73
     4
 74
     0
 42
0.0000000028450416
 43
0.0000000001
 40
0.0
 40
0.0
 40
0.0
 40
0.0
 40
1.0
 40
1.0
 40
1.0
 40
1.0
 10
202.5300100188864
 20
366.2947410239132
 30
0.0
 41
1.0
 10
201.3583809809313
 20
366.2946451456237
 30
0.0
 41
0.8047099331481389
 10
200.5299141405946
 20
367.1231119859579
 30
0.0
 41
0.8047099331481389
 10
200.5300100188865
 20
368.2947410239132
 30
0.0
 41
1.0
  0
SPLINE
  5
9C
330
72
100
AcDbEntity
  8
401814038_014751
  6
Continuous
 62
     7
100
AcDbSpline
210
0.0
220
0.0
230
1.0
 70
    12
 71
     3
 72
     8
 73
     4
 74
     0
 42
0.0000000028450416
 43
0.0000000001
 40
0.0
 40
0.0
 40
0.0
 40
0.0
 40
1.0
 40
1.0
 40
1.0
 40
1.0
 10
200.5300100188865
 20
393.2947410239132
 30
0.0
 41
1.0
 10
200.5299141405964
 20
394.4663700618686
 30
0.0
 41
0.8047099331478208
 10
201.3583809809307
 20
395.2948369022057
 30
0.0
 41
0.8047099331478208
 10
202.5300100188865
 20
395.2947410239132
 30
0.0
 41
1.0
  0
SPLINE
  5
9D
330
72
100
AcDbEntity
  8
401814038_014751
  6
Continuous
 62
     7
100
AcDbSpline
210
0.0
220
0.0
230
1.0
 70
    12
 71
     3
 72
     8
 73
     4
 74
     0
 42
0.0000000028450416
 43
0.0000000001
 40
0.0
 40
0.0
 40
0.0
 40
0.0
 40
1.0
 40
1.0
 40
1.0
 40
1.0
 10
227.5300100188867
 20
395.2947410239132
 30
0.0
 41
1.0
 10
228.7016390568423
 20
395.2948369022035
 30
0.0
 41
0.8047099331477219
 10
229.5301058971794
 20
394.4663700618689
 30
0.0
 41
0.8047099331477219
 10
229.5300100188866
 20
393.2947410239132
 30
0.0
 41
1.0
  0
SPLINE
  5
9E
330
72
100
AcDbEntity
  8
401814038_014751
  6
Continuous
 62
     7
100
AcDbSpline
210
0.0
220
0.0
230
1.0
 70
    12
 71
     3
 72
     8
 73
     4
 74
     0
 42
0.0000000028450416
 43
0.0000000001
 40
0.0
 40
0.0
 40
0.0
 40
0.0
 40
1.0
 40
1.0
 40
1.0
 40
1.0
 10
229.5300100188865
 20
368.2947410239132
 30
0.0
 41
1.0
 10
229.5301058971768
 20
367.1231119859578
 30
0.0
 41
0.8047099331478942
 10
228.7016390568424
 20
366.2946451456207
 30
0.0
 41
0.8047099331478942
 10
227.5300100188866
 20
366.2947410239132
 30
0.0
 41
1.0
  0
LINE
  5
9F
330
72
100
AcDbEntity
  8
401814038_014751
  6
Continuous
 62
     7
100
AcDbLine
 10
202.5300100189
 20
366.2947410239
 30
0.0
 11
227.5300100189
 21
366.2947410239
 31
0.0
  0
LINE
  5
A0
330
72
100
AcDbEntity
  8
401814038_014751
  6
Continuous
 62
     7
100
AcDbLine
 10
200.5300100189
 20
393.2947410239
 30
0.0
 11
200.5300100189
 21
368.2947410239
 31
0.0
  0
LINE
  5
A1
330
72
100
AcDbEntity
  8
401814038_014751
  6
Continuous
 62
     7
100
AcDbLine
 10
227.5300100189
 20
395.2947410239
 30
0.0
 11
202.5300100189
 21
395.2947410239
 31
0.0
  0
LINE
  5
A2
330
72
100
AcDbEntity
  8
401814038_014751
  6
Continuous
 62
     7
100
AcDbLine
 10
229.5300100189
 20
368.2947410239
 30
0.0
 11
229.5300100189
 21
393.2947410239
 31
0.0
  0
LINE
  5
A3
330
72
100
AcDbEntity
  8
401814038_014751
  6
Continuous
 62
     7
100
AcDbLine
 10
191.5279900851
 20
349.7947410239
 30
0.0
 11
191.5279900851
 21
461.2531091856
 31
0.0
  0
LINE
  5
A4
330
72
100
AcDbEntity
  8
401814038_014751
  6
Continuous
 62
     7
100
AcDbLine
 10
191.5279900851
 20
461.2531091856
 30
0.0
 11
187.5988841362
 21
465.1822151345
 31
0.0
  0
LINE
  5
A5
330
72
100
AcDbEntity
  8
401814038_014751
  6
Continuous
 62
     7
100
AcDbLine
 10
187.5988841362
 20
411.3125095209
 30
0.0
 11
190.7389098614
 21
414.452535246
 31
0.0
  0
LINE
  5
A6
330
72
100
AcDbEntity
  8
401814038_014751
  6
Continuous
 62
     7
100
AcDbLine
 10
242.4611359015
 20
465.1822151345
 30
0.0
 11
238.5320299526
 21
461.2531091856
 31
0.0
  0
LINE
  5
A7
330
72
100
AcDbEntity
  8
401814038_014751
  6
Continuous
 62
     7
100
AcDbLine
 10
238.5320299526
 20
461.2531091856
 30
0.0
 11
238.5320299526
 21
349.7947410239
 31
0.0
  0
LINE
  5
A8
330
72
100
AcDbEntity
  8
401814038_014751
  6
Continuous
 62
     7
100
AcDbLine
 10
239.3211101764
 20
414.452535246
 30
0.0
 11
242.4611359015
 21
411.3125095209
 31
0.0
  0
LINE
  5
A9
330
72
100
AcDbEntity
  8
401814038_014751
  6
Continuous
 62
     7
100
AcDbLine
 10
238.0357568768
 20
349.2947410239
 30
0.0
 11
192.024263161
 21
349.2947410239
 31
0.0
  0
LINE
  5
AA
330
72
100
AcDbEntity
  8
401814038_014751
  6
Continuous
 62
     7
100
AcDbLine
 10
238.3427182791
 20
349.2947410239
 30
0.0
 11
238.0357568768
 21
349.2947410239
 31
0.0
  0
LINE
  5
AB
330
72
100
AcDbEntity
  8
401814038_014751
  6
Continuous
 62
     7
100
AcDbLine
 10
192.024263161
 20
349.2947410239
 30
0.0
 11
191.7173017587
 21
349.2947410239
 31
0.0
  0
LINE
  5
AC
330
72
100
AcDbEntity
  8
401814038_014751
  6
Continuous
 62
     7
100
AcDbLine
 10
192.024263161
 20
461.7493822615
 30
0.0
 11
238.0357568768
 21
461.7493822615
 31
0.0
  0
LINE
  5
AD
330
72
100
AcDbEntity
  8
401814038_014751
  6
Continuous
 62
     7
100
AcDbLine
 10
238.8389913549
 20
410.9786237153
 30
0.0
 11
238.842718279
 21
410.9786237153
 31
0.0
  0
LINE
  5
AE
330
72
100
AcDbEntity
  8
401814038_014751
  6
Continuous
 62
     7
100
AcDbLine
 10
191.2210286829
 20
410.9786237153
 30
0.0
 11
191.2173017588
 21
410.9786237153
 31
0.0
  0
ARC
  5
AF
330
72
100
AcDbEntity
  8
401814038_014751
  6
Continuous
 62
     7
100
AcDbCircle
 10
241.9648628257
 20
465.1822151345
 30
0.0
 40
0.5000000000000004
100
AcDbArc
 50
0.0
 51
90.0
  0
SPLINE
  5
B0
330
72
100
AcDbEntity
  8
401814038_014751
  6
Continuous
 62
     7
100
AcDbSpline
210
0.0
220
0.0
230
1.0
 70
     8
 71
     3
 72
    16
 73
    12
 74
     0
 42
0.0000000026009895
 43
0.0000000001
 40
0.0
 40
0.0
 40
0.0
 40
0.0
 40
0.0635528518977093
 40
0.1848584276382569
 40
0.3061884211571295
 40
0.4271261969177808
 40
0.5470907730501989
 40
0.664733276870343
 40
0.7585060178167596
 40
0.8310965533440048
 40
0.8320041506012725
 40
0.8320041506012725
 40
0.8320041506012725
 40
0.8320041506012725
 10
238.8427182790703
 20
410.978623715271
 30
0.0
 10
238.8431180434628
 20
411.106639016497
 30
0.0
 10
238.844465370424
 20
411.4232625201315
 30
0.0
 10
238.8586282295575
 20
411.990534184317
 30
0.0
 10
238.8898751386411
 20
412.6026193956902
 30
0.0
 10
238.9348757030777
 20
413.1537117902803
 30
0.0
 10
238.9905326514116
 20
413.610809083739
 30
0.0
 10
239.0488954780269
 20
413.9335464916196
 30
0.0
 10
239.0976544971584
 20
414.1113154787035
 30
0.0
 10
239.1172442239782
 20
414.1547340295597
 30
0.0
 10
239.1173155845746
 20
414.1542625227743
 30
0.0
 10
239.117315123909
 20
414.154253722588
 30
0.0
  0
LINE
  5
B1
330
72
100
AcDbEntity
  8
401814038_014751
  6
Continuous
 62
     7
100
AcDbLine
 10
242.4648628257
 20
411.3125095209
 30
0.0
 11
242.4648628257
 21
465.1822151345
 31
0.0
  0
LINE
  5
B2
330
72
100
AcDbEntity
  8
401814038_014751
  6
Continuous
 62
     7
100
AcDbLine
 10
241.9648628257
 20
465.6822151345
 30
0.0
 11
188.0951572121
 21
465.6822151345
 31
0.0
  0
LINE
  5
B3
330
72
100
AcDbEntity
  8
401814038_014751
  6
Continuous
 62
     7
100
AcDbLine
 10
238.8427182791
 20
349.7947410239
 30
0.0
 11
238.8427182791
 21
410.9786237153
 31
0.0
  0
ARC
  5
B4
330
72
100
AcDbEntity
  8
401814038_014751
  6
Continuous
 62
     7
100
AcDbCircle
 10
241.9648628257
 20
411.3125095209
 30
0.0
 40
0.5000000000000004
100
AcDbArc
 50
270.0
 51
0.0
  0
ARC
  5
B5
330
72
100
AcDbEntity
  8
401814038_014751
  6
Continuous
 62
     7
100
AcDbCircle
 10
188.0951572121
 20
465.1822151345
 30
0.0
 40
0.5000000000000004
100
AcDbArc
 50
90.0
 51
180.0
  0
ARC
  5
B6
330
72
100
AcDbEntity
  8
401814038_014751
  6
Continuous
 62
     7
100
AcDbCircle
 10
238.3427182791
 20
349.7947410239
 30
0.0
 40
0.5000000000000004
100
AcDbArc
 50
270.0
 51
360.0
  0
LINE
  5
B7
330
72
100
AcDbEntity
  8
401814038_014751
  6
Continuous
 62
     7
100
AcDbLine
 10
188.0951572121
 20
410.8125095209
 30
0.0
 11
191.2173017587
 21
410.8125095209
 31
0.0
  0
LINE
  5
B8
330
72
100
AcDbEntity
  8
401814038_014751
  6
Continuous
 62
     7
100
AcDbLine
 10
238.8427182791
 20
410.8125095209
 30
0.0
 11
241.9648628257
 21
410.8125095209
 31
0.0
  0
LINE
  5
B9
330
72
100
AcDbEntity
  8
401814038_014751
  6
Continuous
 62
     7
100
AcDbLine
 10
187.5951572121
 20
465.1822151345
 30
0.0
 11
187.5951572121
 21
411.3125095209
 31
0.0
  0
ARC
  5
BA
330
72
100
AcDbEntity
  8
401814038_014751
  6
Continuous
 62
     7
100
AcDbCircle
 10
188.0951572121
 20
411.3125095209
 30
0.0
 40
0.5000000000000004
100
AcDbArc
 50
180.0
 51
270.0
  0
ARC
  5
BB
330
72
100
AcDbEntity
  8
401814038_014751
  6
Continuous
 62
     7
100
AcDbCircle
 10
191.7173017587
 20
349.7947410239
 30
0.0
 40
0.5000000000000004
100
AcDbArc
 50
180.0
 51
270.0
  0
LINE
  5
BC
330
72
100
AcDbEntity
  8
401814038_014751
  6
Continuous
 62
     7
100
AcDbLine
 10
191.2173017587
 20
410.9786237153
 30
0.0
 11
191.2173017587
 21
349.7947410239
 31
0.0
  0
SPLINE
  5
BD
330
72
100
AcDbEntity
  8
401814038_014751
  6
Continuous
 62
     7
100
AcDbSpline
210
0.0
220
0.0
230
1.0
 70
     8
 71
     3
 72
    16
 73
    12
 74
     0
 42
0.0000000025988657
 43
0.0000000001
 40
0.1689326621359462
 40
0.1689326621359462
 40
0.1689326621359462
 40
0.1689326621359462
 40
0.1720698261493241
 40
0.2371382142598425
 40
0.3199839166661542
 40
0.420236449804251
 40
0.5317838449593687
 40
0.6489695023818075
 40
0.7686251454350383
 40
0.8893235008517388
 40
1.0
 40
1.0
 40
1.0
 40
1.0
 10
190.9427055574611
 20
414.1542327916831
 30
0.0
 10
190.9427056070473
 20
414.1542494400217
 30
0.0
 10
190.9430707224052
 20
414.1538601920395
 30
0.0
 10
190.9597911791108
 20
414.1169653387086
 30
0.0
 10
191.0014279188624
 20
413.9720288165332
 30
0.0
 10
191.0536885760903
 20
413.7072098902015
 30
0.0
 10
191.1073717853717
 20
413.3167418581391
 30
0.0
 10
191.1549423376555
 20
412.8144423984772
 30
0.0
 10
191.1909865956775
 20
412.2322994837427
 30
0.0
 10
191.2132819929031
 20
411.5967511967336
 30
0.0
 10
191.2160846733595
 20
411.2016889734604
 30
0.0
 10
191.2173017587025
 20
410.9786237152716
 30
0.0
  0
ENDBLK
  5
BF
330
72
100
AcDbEntity
  8
0
100
AcDbBlockEnd
  0
BLOCK
  5
F5
330
C0
100
AcDbEntity
  8
0
100
AcDbBlockBegin
  2
SE1
 70
     0
 10
0.0
 20
0.0
 30
0.0
  3
SE1
  1

  0
LINE
  5
C2
330
C0
100
AcDbEntity
  8
$DDT_AUDIT_GENERATED_(74)
  6
Continuous
 62
     7
100
AcDbLine
 10
493.7863088918
 20
465.6973601343
 30
0.0
 11
515.7206092661
 21
465.6973601343
 31
0.0
  0
LINE
  5
C3
330
C0
100
AcDbEntity
  8
$DDT_AUDIT_GENERATED_(74)
  6
Continuous
 62
     7
100
AcDbLine
 10
516.2206092661
 20
465.1973601343
 30
0.0
 11
516.2206092661
 21
411.2973601343
 31
0.0
  0
LINE
  5
C4
330
C0
100
AcDbEntity
  8
$DDT_AUDIT_GENERATED_(74)
  6
Continuous
 62
     7
100
AcDbLine
 10
515.7206092661
 20
410.7973601343
 30
0.0
 11
493.7863273309
 21
410.7973601343
 31
0.0
  0
ARC
  5
C5
330
C0
100
AcDbEntity
  8
$DDT_AUDIT_GENERATED_(74)
  6
Continuous
 62
     7
100
AcDbCircle
 10
515.7206092661
 20
411.2973601343
 30
0.0
 40
0.5000000000000004
100
AcDbArc
 50
270.0
 51
360.0
  0
ARC
  5
C6
330
C0
100
AcDbEntity
  8
$DDT_AUDIT_GENERATED_(74)
  6
Continuous
 62
     7
100
AcDbCircle
 10
515.7206092661
 20
465.1973601343
 30
0.0
 40
0.5000000000000004
100
AcDbArc
 50
0.0
 51
90.0
  0
ARC
  5
C7
330
C0
100
AcDbEntity
  8
$DDT_AUDIT_GENERATED_(74)
  6
Continuous
 62
     7
100
AcDbCircle
 10
518.2206092661
 20
418.2473601343
 30
0.0
 40
2.000000000000002
100
AcDbArc
 50
90.0
 51
180.0
  0
ARC
  5
C8
330
C0
100
AcDbEntity
  8
$DDT_AUDIT_GENERATED_(74)
  6
Continuous
 62
     7
100
AcDbCircle
 10
518.2206092661
 20
458.2473601343
 30
0.0
 40
2.000000000000002
100
AcDbArc
 50
245.3583490331
 51
270.0
  0
LINE
  5
CA
330
C0
100
AcDbEntity
  8
12030697_LEVELIN
  6
Continuous
 62
     7
100
AcDbLine
 10
517.3867259697
 20
458.3639508134
 30
0.0
 11
517.3867259697
 21
458.0127427444
 31
0.0
  0
LINE
  5
CB
330
C0
100
AcDbEntity
  8
12030697_LEVELIN
  6
Continuous
 62
     7
100
AcDbLine
 10
517.3867259697
 20
458.3639508134
 30
0.0
 11
517.3867259697
 21
460.411009637
 31
0.0
  0
LINE
  5
CC
330
C0
100
AcDbEntity
  8
12030697_LEVELIN
  6
Continuous
 62
     7
100
AcDbLine
 10
517.3867259697
 20
457.511009637
 30
0.0
 11
518.2206092661
 21
457.511009637
 31
0.0
  0
SPLINE
  5
CD
330
C0
100
AcDbEntity
  8
12030697_LEVELIN
  6
Continuous
 62
     7
100
AcDbSpline
210
0.0
220
0.0
230
1.0
 70
    24
 71
     3
 72
     8
 73
     4
 74
     0
 42
0.0000000003555788
 43
0.0000000001
 40
0.9855683675784002
 40
0.9855683675784002
 40
0.9855683675784002
 40
0.9855683675784002
 40
1.0
 40
1.0
 40
1.0
 40
1.0
 10
518.7867259696803
 20
410.8168727185873
 30
0.0
 10
518.7867259696803
 20
410.681585024711
 30
0.0
 10
518.7867259696803
 20
410.5462973308347
 30
0.0
 10
518.7867259696803
 20
410.4110096369584
 30
0.0
  0
SPLINE
  5
CE
330
C0
100
AcDbEntity
  8
12030697_LEVELIN
  6
Continuous
 62
     7
100
AcDbSpline
210
0.0
220
0.0
230
1.0
 70
    24
 71
     3
 72
     8
 73
     4
 74
     0
 42
0.0000000003480916
 43
0.0000000001
 40
0.9771294495500584
 40
0.9771294495500584
 40
0.9771294495500584
 40
0.9771294495500584
 40
1.0
 40
1.0
 40
1.0
 40
1.0
 10
519.8261324340156
 20
410.9444957849103
 30
0.0
 10
519.7437251139443
 20
410.7415821492274
 30
0.0
 10
519.661317793873
 20
410.5386685135445
 30
0.0
 10
519.5789104738017
 20
410.3357548778615
 30
0.0
  0
LINE
  5
CF
330
C0
100
AcDbEntity
  8
12030697_LEVELIN
  6
Continuous
 62
     7
100
AcDbLine
 10
517.3867259697
 20
458.0127427444
 30
0.0
 11
517.3867259697
 21
455.011009637
 31
0.0
  0
LINE
  5
D0
330
C0
100
AcDbEntity
  8
12030697_LEVELIN
  6
Continuous
 62
     7
100
AcDbLine
 10
516.2206092661
 20
460.011009637
 30
0.0
 11
517.3867259697
 21
460.011009637
 31
0.0
  0
LINE
  5
D1
330
C0
100
AcDbEntity
  8
12030697_LEVELIN
  6
Continuous
 62
     7
100
AcDbLine
 10
519.2623080542
 20
410.211009637
 30
0.0
 11
519.046338174
 21
410.211009637
 31
0.0
  0
LINE
  5
D2
330
C0
100
AcDbEntity
  8
12030697_LEVELIN
  6
Continuous
 62
     7
100
AcDbLine
 10
519.3936087705
 20
410.211009637
 30
0.0
 11
519.2623080542
 21
410.211009637
 31
0.0
  0
LINE
  5
D3
330
C0
100
AcDbEntity
  8
12030697_LEVELIN
  6
Continuous
 62
     7
100
AcDbLine
 10
519.046338174
 20
410.211009637
 30
0.0
 11
518.9867259697
 21
410.211009637
 31
0.0
  0
ARC
  5
D4
330
C0
100
AcDbEntity
  8
12030697_LEVELIN
  6
Continuous
 62
     7
100
AcDbCircle
 10
519.3936087705
 20
410.411009637
 30
0.0
 40
0.2000000000000032
100
AcDbArc
 50
270.0
 51
337.8969369267
  0
ARC
  5
D5
330
C0
100
AcDbEntity
  8
12030697_LEVELIN
  6
Continuous
 62
     7
100
AcDbCircle
 10
518.9867259697
 20
410.411009637
 30
0.0
 40
0.1999999999999953
100
AcDbArc
 50
180.0
 51
270.0
  0
LINE
  5
D6
330
C0
100
AcDbEntity
  8
12030697_LEVELIN
  6
Continuous
 62
     7
100
AcDbLine
 10
518.2206092661
 20
460.411009637
 30
0.0
 11
517.3867259697
 21
460.411009637
 31
0.0
  0
LINE
  5
D7
330
C0
100
AcDbEntity
  8
$DDT_AUDIT_GENERATED_(82)
  6
Continuous
 62
     7
100
AcDbLine
 10
491.5700940311
 20
346.5497576416
 30
0.0
 11
480.0219991318
 21
346.2473601343
 31
0.0
  0
LINE
  5
D8
330
C0
100
AcDbEntity
  8
$DDT_AUDIT_GENERATED_(82)
  6
Continuous
 62
     7
100
AcDbLine
 10
480.0219991318
 20
348.0467433192
 30
0.0
 11
480.0219991318
 21
528.4479769493
 31
0.0
  0
LINE
  5
D9
330
C0
100
AcDbEntity
  8
$DDT_AUDIT_GENERATED_(82)
  6
Continuous
 62
     7
100
AcDbLine
 10
480.0219991318
 20
346.2473601343
 30
0.0
 11
480.0219991318
 21
348.0467433192
 31
0.0
  0
LINE
  5
DA
330
C0
100
AcDbEntity
  8
$DDT_AUDIT_GENERATED_(82)
  6
Continuous
 62
     7
100
AcDbLine
 10
480.0219991318
 20
528.4479769493
 30
0.0
 11
480.0219991318
 21
530.2473601343
 31
0.0
  0
LINE
  5
DB
330
C0
100
AcDbEntity
  8
$DDT_AUDIT_GENERATED_(82)
  6
Continuous
 62
     7
100
AcDbLine
 10
480.0219991318
 20
530.2473601343
 30
0.0
 11
491.5700940311
 21
529.944962627
 31
0.0
  0
ARC
  5
DC
330
C0
100
AcDbEntity
  8
$DDT_AUDIT_GENERATED_(82)
  6
Continuous
 62
     7
100
AcDbCircle
 10
552.7512534936
 20
465.5131787308
 30
0.0
 40
58.96583656422057
100
AcDbArc
 50
179.3729577891
 51
180.5005014002
  0
ARC
  5
DD
330
C0
100
AcDbEntity
  8
$DDT_AUDIT_GENERATED_(82)
  6
Continuous
 62
     7
100
AcDbCircle
 10
-6783.9255492456
 20
438.2473602272
 30
0.0
 40
7277.762379672974
100
AcDbArc
 50
359.7893984993
 51
0.2106014992
  0
ARC
  5
DE
330
C0
100
AcDbEntity
  8
$DDT_AUDIT_GENERATED_(82)
  6
Continuous
 62
     7
100
AcDbCircle
 10
552.7720877073
 20
410.9815715484
 30
0.0
 40
58.98666972188141
100
AcDbArc
 50
179.499704525
 51
180.6653678252
  0
ARC
  5
DF
330
C0
100
AcDbEntity
  8
$DDT_AUDIT_GENERATED_(82)
  6
Continuous
 62
     7
100
AcDbCircle
 10
491.5449572359
 20
528.1450038306
 30
0.0
 40
1.799999999999988
100
AcDbArc
 50
0.5841505557
 51
88.5001274676
  0
ARC
  5
E0
330
C0
100
AcDbEntity
  8
$DDT_AUDIT_GENERATED_(82)
  6
Continuous
 62
     7
100
AcDbCircle
 10
491.5449572359
 20
348.3497164379
 30
0.0
 40
1.799999999999733
100
AcDbArc
 50
271.4998725348
 51
359.389665886
  0
SPLINE
  5
E1
330
C0
100
AcDbEntity
  8
$DDT_AUDIT_GENERATED_(82)
  6
Continuous
 62
     7
100
AcDbSpline
210
0.0
220
0.0
230
1.0
 70
     8
 71
     3
 72
    18
 73
    14
 74
     0
 42
0.0000000001613732
 43
0.0000000001
 40
0.0
 40
0.0
 40
0.0
 40
0.0
 40
0.0153688079417018
 40
0.0870798488641794
 40
0.1660067441895708
 40
0.2521496061739027
 40
0.3455085611035415
 40
0.4460837428462233
 40
0.5475213639597055
 40
0.6553742745967523
 40
0.7696425390453178
 40
0.8903261716864028
 40
1.0
 40
1.0
 40
1.0
 40
1.0
 10
493.8583009784178
 20
466.19828804652
 30
0.0
 10
493.8568136936746
 20
466.5474896674489
 30
0.0
 10
493.849575791692
 20
468.2422716528636
 30
0.0
 10
493.8316430233447
 20
471.7754184437104
 30
0.0
 10
493.8044433386325
 20
476.6245371081374
 30
0.0
 10
493.7703794791344
 20
481.9753369639261
 30
0.0
 10
493.7293125539822
 20
487.7564730664402
 30
0.0
 10
493.6813500408722
 20
493.8592336889977
 30
0.0
 10
493.6264708109137
 20
500.2569674712923
 30
0.0
 10
493.5645719513781
 20
506.9495840421955
 30
0.0
 10
493.4951241488655
 20
513.992085295504
 30
0.0
 10
493.4196628172276
 20
521.2573061244112
 30
0.0
 10
493.3718202342793
 20
525.6723792179237
 30
0.0
 10
493.3447233282432
 20
528.1642030408409
 30
0.0
  0
SPLINE
  5
E2
330
C0
100
AcDbEntity
  8
$DDT_AUDIT_GENERATED_(82)
  6
Continuous
 62
     7
100
AcDbSpline
210
0.0
220
0.0
230
1.0
 70
     8
 71
     3
 72
    19
 73
    15
 74
     0
 42
0.0000000001613732
 43
0.0000000001
 40
0.0
 40
0.0
 40
0.0
 40
0.0
 40
0.1043858119765336
 40
0.2193129799673557
 40
0.3273563486358465
 40
0.4285159427398611
 40
0.5227918296651276
 40
0.610184101494209
 40
0.6906928609991999
 40
0.7713021625465778
 40
0.8435826673082103
 40
0.9075344879710742
 40
0.9631577188818081
 40
1.0
 40
1.0
 40
1.0
 40
1.0
 10
493.3447314374469
 20
348.3305171394118
 30
0.0
 10
493.3705255310276
 20
350.7021954015733
 30
0.0
 10
493.4160923449199
 20
354.9055885324224
 30
0.0
 10
493.4879824584694
 20
361.8069163676096
 30
0.0
 10
493.5541089575401
 20
368.465875584839
 30
0.0
 10
493.6129181572321
 20
374.7429873647563
 30
0.0
 10
493.6640779190368
 20
380.5828274809317
 30
0.0
 10
493.7081270962717
 20
385.9984776803839
 30
0.0
 10
493.7466500761561
 20
391.1321803657493
 30
0.0
 10
493.7797104522938
 20
395.9506158895225
 30
0.0
 10
493.8076074121543
 20
400.4379629978133
 30
0.0
 10
493.829711818463
 20
404.3749675128301
 30
0.0
 10
493.8465760351952
 20
407.6794390183103
 30
0.0
 10
493.8546400267737
 20
409.4593190023873
 30
0.0
 10
493.8584100066182
 20
410.2964281559271
 30
0.0
  0
ARC
  5
E3
330
C0
100
AcDbEntity
  8
$DDT_AUDIT_GENERATED_(82)
  6
Continuous
 62
     7
100
AcDbCircle
 10
493.6585240316
 20
466.1973601343
 30
0.0
 40
0.1999999999999983
100
AcDbArc
 50
310.3239078632
 51
0.8788061021
  0
SPLINE
  5
E4
330
C0
100
AcDbEntity
  8
$DDT_AUDIT_GENERATED_(82)
  6
Continuous
 62
     7
100
AcDbSpline
210
0.0
220
0.0
230
1.0
 70
     8
 71
     3
 72
     9
 73
     5
 74
     0
 42
0.0000001629388032
 43
0.0000000001
 40
0.0
 40
0.0
 40
0.0
 40
0.0
 40
0.4153602876731002
 40
0.4959502713371014
 40
0.4959502713371014
 40
0.4959502713371014
 40
0.4959502713371014
 10
493.7879608748324
 20
466.1522118993478
 30
0.0
 10
493.7883288791635
 20
466.1671015152243
 30
0.0
 10
493.7882702411143
 20
466.1782373410787
 30
0.0
 10
493.7886658270078
 20
466.1825061190629
 30
0.0
 10
493.7886866442527
 20
466.18262492229
 30
0.0
  0
ARC
  5
E5
330
C0
100
AcDbEntity
  8
$DDT_AUDIT_GENERATED_(82)
  6
Continuous
 62
     7
100
AcDbCircle
 10
493.6585240308
 20
410.2973601343
 30
0.0
 40
0.1999999999999988
100
AcDbArc
 50
0.3829373359
 51
49.3861568025
  0
ARC
  5
E6
330
C0
100
AcDbEntity
  8
401814038_014751
  6
Continuous
 62
     7
100
AcDbCircle
 10
544.7206092661
 20
410.9786237153
 30
0.0
 40
3.000000000000072
100
AcDbArc
 50
0.0
 51
96.9999999999
  0
LINE
  5
E7
330
C0
100
AcDbEntity
  8
401814038_014751
  6
Continuous
 62
     7
100
AcDbLine
 10
547.7206092661
 20
349.7947410239
 30
0.0
 11
547.7206092661
 21
410.9786237153
 31
0.0
  0
LINE
  5
E8
330
C0
100
AcDbEntity
  8
401814038_014751
  6
Continuous
 62
     7
100
AcDbLine
 10
544.3550012359
 20
413.9562621702
 30
0.0
 11
518.7815439378
 21
410.8162364451
 31
0.0
  0
LINE
  5
E9
330
C0
100
AcDbEntity
  8
401814038_014751
  6
Continuous
 62
     7
100
AcDbLine
 10
550.7206092661
 20
349.2947410239
 30
0.0
 11
548.2206092661
 21
349.2947410239
 31
0.0
  0
LINE
  5
EA
330
C0
100
AcDbEntity
  8
401814038_014751
  6
Continuous
 62
     7
100
AcDbLine
 10
518.2206092661
 20
411.3125095209
 30
0.0
 11
518.2206092661
 21
465.1822151345
 31
0.0
  0
LINE
  5
EB
330
C0
100
AcDbEntity
  8
401814038_014751
  6
Continuous
 62
     7
100
AcDbLine
 10
551.2206092661
 20
461.2531091856
 30
0.0
 11
551.2206092661
 21
349.7947410239
 31
0.0
  0
LINE
  5
EC
330
C0
100
AcDbEntity
  8
401814038_014751
  6
Continuous
 62
     7
100
AcDbLine
 10
518.7815439378
 20
465.6784882104
 30
0.0
 11
550.7815439378
 21
461.7493822615
 31
0.0
  0
ARC
  5
ED
330
C0
100
AcDbEntity
  8
401814038_014751
  6
Continuous
 62
     7
100
AcDbCircle
 10
550.7206092661
 20
461.2531091856
 30
0.0
 40
0.5000000000000004
100
AcDbArc
 50
0.0
 51
83.0
  0
ARC
  5
EE
330
C0
100
AcDbEntity
  8
401814038_014751
  6
Continuous
 62
     7
100
AcDbCircle
 10
518.7206092661
 20
465.1822151345
 30
0.0
 40
0.4999999999999989
100
AcDbArc
 50
83.0
 51
180.0
  0
ARC
  5
EF
330
C0
100
AcDbEntity
  8
401814038_014751
  6
Continuous
 62
     7
100
AcDbCircle
 10
550.7206092661
 20
349.7947410239
 30
0.0
 40
0.5000000000000004
100
AcDbArc
 50
270.0
 51
0.0
  0
ARC
  5
F0
330
C0
100
AcDbEntity
  8
401814038_014751
  6
Continuous
 62
     7
100
AcDbCircle
 10
518.7206092661
 20
411.3125095209
 30
0.0
 40
0.5000000000000004
100
AcDbArc
 50
180.0
 51
277.0
  0
ARC
  5
F1
330
C0
100
AcDbEntity
  8
401814038_014751
  6
Continuous
 62
     7
100
AcDbCircle
 10
548.2206092661
 20
349.7947410239
 30
0.0
 40
0.5000000000000004
100
AcDbArc
 50
180.0
 51
270.0
  0
LINE
  5
F3
330
C0
100
AcDbEntity
  8
$DDT_AUDIT_GENERATED_(F2)
  6
Continuous
 62
     7
100
AcDbLine
 10
533.090525569
 20
412.5731584716
 30
0.0
 11
534.1804424485
 21
412.6016989496
 31
0.0
  0
LINE
  5
F4
330
C0
100
AcDbEntity
  8
$DDT_AUDIT_GENERATED_(F2)
  6
Continuous
 62
     7
100
AcDbLine
 10
534.1804424485
 20
412.6016989496
 30
0.0
 11
534.2312673177
 21
412.7132239464
 31
0.0
  0
ENDBLK
  5
F6
330
C0
100
AcDbEntity
  8
0
100
AcDbBlockEnd
  0
BLOCK
  5
11C
330
F7
100
AcDbEntity
  8
0
100
AcDbBlockBegin
  2
SE2
 70
     0
 10
0.0
 20
0.0
 30
0.0
  3
SE2
  1

  0
LINE
  5
F9
330
F7
100
AcDbEntity
  8
$DDT_AUDIT_GENERATED_(74)
  6
Continuous
 62
     7
100
AcDbLine
 10
187.5832491318
 20
141.85
 30
0.0
 11
187.5832491318
 21
163.7839011221
 31
0.0
  0
LINE
  5
FA
330
F7
100
AcDbEntity
  8
$DDT_AUDIT_GENERATED_(74)
  6
Continuous
 62
     7
100
AcDbLine
 10
241.9832491318
 20
141.35
 30
0.0
 11
188.0832491318
 21
141.35
 31
0.0
  0
LINE
  5
FB
330
F7
100
AcDbEntity
  8
$DDT_AUDIT_GENERATED_(74)
  6
Continuous
 62
     7
100
AcDbLine
 10
242.4832491318
 20
163.7839140292
 30
0.0
 11
242.4832491318
 21
141.85
 31
0.0
  0
ARC
  5
FC
330
F7
100
AcDbEntity
  8
$DDT_AUDIT_GENERATED_(74)
  6
Continuous
 62
     7
100
AcDbCircle
 10
241.9832491318
 20
141.85
 30
0.0
 40
0.5000000000000004
100
AcDbArc
 50
270.0
 51
0.0
  0
ARC
  5
FD
330
F7
100
AcDbEntity
  8
$DDT_AUDIT_GENERATED_(74)
  6
Continuous
 62
     7
100
AcDbCircle
 10
188.0832491318
 20
141.85
 30
0.0
 40
0.5000000000000004
100
AcDbArc
 50
180.0
 51
270.0
  0
ARC
  5
FE
330
F7
100
AcDbEntity
  8
$DDT_AUDIT_GENERATED_(74)
  6
Continuous
 62
     7
100
AcDbCircle
 10
195.0332491318
 20
139.35
 30
0.0
 40
2.000000000000002
100
AcDbArc
 50
0.0
 51
90.0
  0
ARC
  5
FF
330
F7
100
AcDbEntity
  8
$DDT_AUDIT_GENERATED_(74)
  6
Continuous
 62
     7
100
AcDbCircle
 10
235.0332491318
 20
139.35
 30
0.0
 40
2.000000000000002
100
AcDbArc
 50
90.0
 51
180.0
  0
LINE
  5
100
330
F7
100
AcDbEntity
  8
12030697_LEVELIN
  6
Continuous
 62
     7
100
AcDbLine
 10
216.2332491318
 20
140.1838832965
 30
0.0
 11
213.8332491318
 21
140.1838832965
 31
0.0
  0
LINE
  5
101
330
F7
100
AcDbEntity
  8
12030697_LEVELIN
  6
Continuous
 62
     7
100
AcDbLine
 10
214.5332491318
 20
141.35
 30
0.0
 11
214.5332491318
 21
140.1838832965
 31
0.0
  0
LINE
  5
102
330
F7
100
AcDbEntity
  8
12030697_LEVELIN
  6
Continuous
 62
     7
100
AcDbLine
 10
215.5332491318
 20
141.35
 30
0.0
 11
215.5332491318
 21
140.1838832965
 31
0.0
  0
LINE
  5
103
330
F7
100
AcDbEntity
  8
12030697_LEVELIN
  6
Continuous
 62
     7
100
AcDbLine
 10
216.2332491318
 20
139.35
 30
0.0
 11
216.2332491318
 21
140.1838832965
 31
0.0
  0
LINE
  5
104
330
F7
100
AcDbEntity
  8
12030697_LEVELIN
  6
Continuous
 62
     7
100
AcDbLine
 10
213.8332491318
 20
140.1838832965
 30
0.0
 11
213.8332491318
 21
139.35
 31
0.0
  0
LINE
  5
105
330
F7
100
AcDbEntity
  8
$DDT_AUDIT_GENERATED_(82)
  6
Continuous
 62
     7
100
AcDbLine
 10
292.7338659469
 20
177.5486101343
 30
0.0
 11
294.5332491319
 21
177.5486101343
 31
0.0
  0
LINE
  5
106
330
F7
100
AcDbEntity
  8
$DDT_AUDIT_GENERATED_(82)
  6
Continuous
 62
     7
100
AcDbLine
 10
294.5332491319
 20
177.5486101343
 30
0.0
 11
294.2308516245
 21
166.0005152351
 31
0.0
  0
LINE
  5
107
330
F7
100
AcDbEntity
  8
$DDT_AUDIT_GENERATED_(82)
  6
Continuous
 62
     7
100
AcDbLine
 10
135.8356466392
 20
166.0005152351
 30
0.0
 11
135.5332491319
 21
177.5486101343
 31
0.0
  0
LINE
  5
108
330
F7
100
AcDbEntity
  8
$DDT_AUDIT_GENERATED_(82)
  6
Continuous
 62
     7
100
AcDbLine
 10
137.3326323168
 20
177.5486101343
 30
0.0
 11
292.7338659469
 21
177.5486101343
 31
0.0
  0
LINE
  5
109
330
F7
100
AcDbEntity
  8
$DDT_AUDIT_GENERATED_(82)
  6
Continuous
 62
     7
100
AcDbLine
 10
135.5332491319
 20
177.5486101343
 30
0.0
 11
137.3326323168
 21
177.5486101343
 31
0.0
  0
ARC
  5
10A
330
F7
100
AcDbEntity
  8
$DDT_AUDIT_GENERATED_(82)
  6
Continuous
 62
     7
100
AcDbCircle
 10
215.0332491888
 20
5339.8750674619
 30
0.0
 40
5176.162980224733
100
AcDbArc
 50
269.7038873702
 51
270.2961126285
  0
ARC
  5
10B
330
F7
100
AcDbEntity
  8
$DDT_AUDIT_GENERATED_(82)
  6
Continuous
 62
     7
100
AcDbCircle
 10
242.5024454394
 20
81.7613554597
 30
0.0
 40
82.02300261988061
100
AcDbArc
 50
89.6708054908
 51
90.5016779892
  0
ARC
  5
10C
330
F7
100
AcDbEntity
  8
$DDT_AUDIT_GENERATED_(82)
  6
Continuous
 62
     7
100
AcDbCircle
 10
187.5640107475
 20
81.7321470669
 30
0.0
 40
82.05221026232357
100
AcDbArc
 50
89.498471212
 51
90.3364579789
  0
ARC
  5
10D
330
F7
100
AcDbEntity
  8
$DDT_AUDIT_GENERATED_(82)
  6
Continuous
 62
     7
100
AcDbCircle
 10
137.6356987043
 20
166.0220902371
 30
0.0
 40
1.799999999992585
100
AcDbArc
 50
181.4993545166
 51
269.3208309895
  0
ARC
  5
10E
330
F7
100
AcDbEntity
  8
$DDT_AUDIT_GENERATED_(82)
  6
Continuous
 62
     7
100
AcDbCircle
 10
292.430799562
 20
166.0220903385
 30
0.0
 40
1.799999999999345
100
AcDbArc
 50
270.6525037746
 51
358.5011363378
  0
SPLINE
  5
10F
330
F7
100
AcDbEntity
  8
$DDT_AUDIT_GENERATED_(82)
  6
Continuous
 62
     7
100
AcDbSpline
210
0.0
220
0.0
230
1.0
 70
     8
 71
     3
 72
    18
 73
    14
 74
     0
 42
0.0000000002021428
 43
0.0000000001
 40
0.0
 40
0.0
 40
0.0
 40
0.0
 40
0.0200396051119657
 40
0.1157262545040854
 40
0.174372074374422
 40
0.2437386394956337
 40
0.3238261160310615
 40
0.4146346973698012
 40
0.5161645945868951
 40
0.6263175090563495
 40
0.7468126291725384
 40
0.8776500604080097
 40
1.0
 40
1.0
 40
1.0
 40
1.0
 10
242.9844656608338
 20
163.7335981609517
 30
0.0
 10
243.3479583370878
 20
163.7356203657445
 30
0.0
 10
245.1457691661382
 20
163.7456434325229
 30
0.0
 10
248.1168858887989
 20
163.7659188325418
 30
0.0
 10
251.7825595346612
 20
163.7925907484055
 30
0.0
 10
255.2202748098908
 20
163.8197522232891
 30
0.0
 10
259.1799000154803
 20
163.8535354000419
 30
0.0
 10
263.673077782041
 20
163.8950143689673
 30
0.0
 10
268.6589689241323
 20
163.9446584522268
 30
0.0
 10
274.1437065333931
 20
164.0032474892876
 30
0.0
 10
280.0728197238526
 20
164.0706502923927
 30
0.0
 10
286.3605505663922
 20
164.1459727581612
 30
0.0
 10
290.2328108995974
 20
164.1944626151099
 30
0.0
 10
292.4519406121536
 20
164.2223528191471
 30
0.0
  0
SPLINE
  5
110
330
F7
100
AcDbEntity
  8
$DDT_AUDIT_GENERATED_(82)
  6
Continuous
 62
     7
100
AcDbSpline
210
0.0
220
0.0
230
1.0
 70
     8
 71
     3
 72
    17
 73
    13
 74
     0
 42
0.0000000002021427
 43
0.0000000001
 40
0.0
 40
0.0
 40
0.0
 40
0.0
 40
0.1401483851006651
 40
0.2881201817131114
 40
0.425085559676439
 40
0.5510446512957885
 40
0.6659976844747747
 40
0.7640977302359837
 40
0.8524567202735417
 40
0.9310748577619956
 40
0.9999523177004659
 40
1.0
 40
1.0
 40
1.0
 40
1.0
 10
137.614558021159
 20
164.2223793912063
 30
0.0
 10
140.1565083356658
 20
164.1904468761615
 30
0.0
 10
144.5623164187182
 20
164.135345614312
 30
0.0
 10
151.7140142100349
 20
164.0504680916209
 30
0.0
 10
158.4538690304463
 20
163.9754669358722
 30
0.0
 10
164.6927250630855
 20
163.9112571935441
 30
0.0
 10
170.2821693446773
 20
163.8586724419978
 30
0.0
 10
175.2486587498533
 20
163.8162355438944
 30
0.0
 10
179.6322338010922
 20
163.7822631922715
 30
0.0
 10
183.4816586287725
 20
163.7555829616547
 30
0.0
 10
186.001469998052
 20
163.7393138722792
 30
0.0
 10
187.0811655910256
 20
163.733214566477
 30
0.0
 10
187.0820304862239
 20
163.7332096803363
 30
0.0
  0
ARC
  5
111
330
F7
100
AcDbEntity
  8
$DDT_AUDIT_GENERATED_(82)
  6
Continuous
 62
     7
100
AcDbCircle
 10
242.98158144
 20
163.9780185724
 30
0.0
 40
0.1948457790920515
100
AcDbArc
 50
265.6510666369
 51
267.3889527998
  0
ARC
  5
112
330
F7
100
AcDbEntity
  8
$DDT_AUDIT_GENERATED_(82)
  6
Continuous
 62
     7
100
AcDbCircle
 10
187.0832491318
 20
163.9332052834
 30
0.0
 40
0.1999999999999991
100
AcDbArc
 50
270.1089801587
 51
311.1603599467
  0
ARC
  5
113
330
F7
100
AcDbEntity
  8
$DDT_AUDIT_GENERATED_(82)
  6
Continuous
 62
     7
100
AcDbCircle
 10
242.9832491318
 20
163.9332052828
 30
0.0
 40
0.2000000000000013
100
AcDbArc
 50
229.3454317305
 51
270.7717147142
  0
LINE
  5
114
330
F7
100
AcDbEntity
  8
401814038_014751
  6
Continuous
 62
     7
100
AcDbLine
 10
191.5279900851
 20
106.7890653283
 30
0.0
 11
187.5988841362
 21
138.7890653283
 31
0.0
  0
LINE
  5
115
330
F7
100
AcDbEntity
  8
401814038_014751
  6
Continuous
 62
     7
100
AcDbLine
 10
242.4611359015
 20
138.7890653283
 30
0.0
 11
238.5320299526
 21
106.7890653283
 31
0.0
  0
LINE
  5
116
330
F7
100
AcDbEntity
  8
401814038_014751
  6
Continuous
 62
     7
100
AcDbLine
 10
188.0951572121
 20
139.35
 30
0.0
 11
241.9648628257
 21
139.35
 31
0.0
  0
LINE
  5
117
330
F7
100
AcDbEntity
  8
401814038_014751
  6
Continuous
 62
     7
100
AcDbLine
 10
238.0357568768
 20
106.35
 30
0.0
 11
192.024263161
 21
106.35
 31
0.0
  0
ARC
  5
118
330
F7
100
AcDbEntity
  8
401814038_014751
  6
Continuous
 62
     7
100
AcDbCircle
 10
238.0357568768
 20
106.85
 30
0.0
 40
0.5000000000000059
100
AcDbArc
 50
270.0
 51
353.0
  0
ARC
  5
119
330
F7
100
AcDbEntity
  8
401814038_014751
  6
Continuous
 62
     7
100
AcDbCircle
 10
241.9648628257
 20
138.85
 30
0.0
 40
0.5000000000000004
100
AcDbArc
 50
353.0
 51
90.0
  0
ARC
  5
11A
330
F7
100
AcDbEntity
  8
401814038_014751
  6
Continuous
 62
     7
100
AcDbCircle
 10
192.024263161
 20
106.85
 30
0.0
 40
0.5000000000000004
100
AcDbArc
 50
187.0
 51
270.0
  0
ARC
  5
11B
330
F7
100
AcDbEntity
  8
401814038_014751
  6
Continuous
 62
     7
100
AcDbCircle
 10
188.0951572121
 20
138.85
 30
0.0
 40
0.4999999999999989
100
AcDbArc
 50
90.0
 51
187.0
  0
ENDBLK
  5
11D
330
F7
100
AcDbEntity
  8
0
100
AcDbBlockEnd
  0
ENDSEC
  0
SECTION
  2
ENTITIES
  0
INSERT
  5
5F
330
1F
100
AcDbEntity
  8
Default
100
AcDbBlockReference
  2
SEANNOT_GROUP
 10
0.0
 20
0.0
 30
0.0
  0
LINE
  5
65
330
1F
100
AcDbEntity
  8
Default
  6
Continuous
 62
     7
100
AcDbLine
 10
207.3068287303
 20
438.2473601343
 30
0.0
 11
222.7596695335
 21
438.2473601343
 31
0.0
  0
INSERT
  5
67
330
1F
100
AcDbEntity
  8
Default
100
AcDbBlockReference
  2
SEANNOT_GROUP1
 10
0.0
 20
0.0
 30
0.0
  0
INSERT
  5
6D
330
1F
100
AcDbEntity
  8
Default
100
AcDbBlockReference
  2
SEANNOT_GROUP2
 10
0.0
 20
0.0
 30
0.0
  0
INSERT
  5
73
330
1F
100
AcDbEntity
  8
Default
100
AcDbBlockReference
  2
SE
 10
0.0
 20
0.0
 30
0.0
  0
INSERT
  5
C1
330
1F
100
AcDbEntity
  8
Default
100
AcDbBlockReference
  2
SE1
 10
0.0
 20
0.0
 30
0.0
  0
INSERT
  5
F8
330
1F
100
AcDbEntity
  8
Default
100
AcDbBlockReference
  2
SE2
 10
0.0
 20
0.0
 30
0.0
  0
TEXT
  5
11F
330
1F
100
AcDbEntity
  8
Default
  6
Continuous
 62
     7
100
AcDbText
 10
5.9362635081
 20
53.4225120485
 30
0.0
 40
10.0
  1
Grohe AG^J
  7
SEACAD_seiso_ttf
 11
5.9362635081
 21
63.4225120485
 31
0.0
100
AcDbText
 73
     3
  0
TEXT
  5
120
330
1F
100
AcDbEntity
  8
Default
  6
Continuous
 62
     7
100
AcDbText
 10
5.9362635081
 20
37.0588756849
 30
0.0
 40
10.0
  1
 
  7
SEACAD_seiso_ttf
 11
5.9362635081
 21
47.0588756849
 31
0.0
100
AcDbText
 73
     3
  0
TEXT
  5
121
330
1F
100
AcDbEntity
  8
Default
  6
Continuous
 62
     7
100
AcDbText
 10
5.9362635081
 20
20.6952393213
 30
0.0
 40
10.0
  1
ecn: 
  7
SEACAD_seiso_ttf
 11
5.9362635081
 21
30.6952393213
 31
0.0
100
AcDbText
 73
     3
  0
TEXT
  5
122
330
1F
100
AcDbEntity
  8
Default
  6
Continuous
 62
     7
100
AcDbText
 10
5.9362635081
 20
4.3316029576
 30
0.0
 40
10.0
  1
unit: mm
  7
SEACAD_seiso_ttf
 11
5.9362635081
 21
14.3316029576
 31
0.0
100
AcDbText
 73
     3
  0
LINE
  5
123
330
1F
100
AcDbEntity
  8
Default
  6
Continuous
 62
     7
100
AcDbLine
 10
0.0
 20
0.0
 30
0.0
 11
100.0
 21
0.0
 31
0.0
  0
LINE
  5
124
330
1F
100
AcDbEntity
  8
Default
  6
Continuous
 62
     7
100
AcDbLine
 10
0.0
 20
0.0
 30
0.0
 11
0.0
 21
100.0
 31
0.0
  0
TEXT
  5
125
330
1F
100
AcDbEntity
  8
Default
  6
Continuous
 62
     7
100
AcDbText
 10
24.3923665681
 20
-18.2375342018
 30
0.0
 40
10.0
  1
100 mm
  7
SEACAD_seiso_ttf
 11
24.3923665681
 21
-8.2375342018
 31
0.0
100
AcDbText
 73
     3
  0
TEXT
  5
126
330
1F
100
AcDbEntity
  8
Default
  6
Continuous
 62
     7
100
AcDbText
 10
-7.6150308803
 20
24.6231930421
 30
0.0
 40
10.0
  1
100 mm
 50
90.0
  7
SEACAD_seiso_ttf
 11
-17.6150308803
 21
24.6231930421
 31
0.0
100
AcDbText
 73
     3
  0
TEXT
  5
127
330
1F
100
AcDbEntity
  8
Default
  6
Continuous
 62
     7
100
AcDbText
 10
28.4878128572
 20
20.0907663715
 30
0.0
 40
10.0
  1
221526
  7
SEACAD_seiso_ttf
 11
28.4878128572
 21
30.0907663715
 31
0.0
100
AcDbText
 73
     3
  0
TEXT
  5
128
330
1F
100
AcDbEntity
  8
Default
  6
Continuous
 62
     7
100
AcDbText
 10
5.9012241913
 20
36.7242780188
 30
0.0
 40
10.0
  1
19899000
  7
SEACAD_seiso_ttf
 11
5.9012241913
 21
46.7242780188
 31
0.0
100
AcDbText
 73
     3
  0
ENDSEC
  0
SECTION
  2
OBJECTS
  0
DICTIONARY
  5
C
330
0
100
AcDbDictionary
281
     1
  3
ACAD_GROUP
350
D
  3
ACAD_LAYOUT
350
1A
  3
ACAD_MLEADERSTYLE
350
12C
  3
ACAD_MLINESTYLE
350
17
  3
ACAD_PLOTSETTINGS
350
19
  3
ACAD_PLOTSTYLENAME
350
E
  3
ACAD_SCALELIST
350
3B
  3
ACAD_TABLESTYLE
350
12B
  3
ACAD_VISUALSTYLE
350
2A
  3
AcDbVariableDictionary
350
129
  0
DICTIONARY
  5
D
102
{ACAD_REACTORS
330
C
102
}
330
C
100
AcDbDictionary
281
     1
  0
DICTIONARY
  5
1A
102
{ACAD_REACTORS
330
C
102
}
330
C
100
AcDbDictionary
281
     1
  3
Layout1
350
1E
  3
Model
350
22
  0
DICTIONARY
  5
12C
102
{ACAD_REACTORS
330
C
102
}
330
C
100
AcDbDictionary
281
     1
  0
DICTIONARY
  5
17
102
{ACAD_REACTORS
330
C
102
}
330
C
100
AcDbDictionary
281
     1
  3
Standard
350
18
  0
DICTIONARY
  5
19
102
{ACAD_REACTORS
330
C
102
}
330
C
100
AcDbDictionary
281
     1
  0
ACDBDICTIONARYWDFLT
  5
E
102
{ACAD_REACTORS
330
C
102
}
330
C
100
AcDbDictionary
281
     1
  3
Normal
350
F
100
AcDbDictionaryWithDefault
340
F
  0
DICTIONARY
  5
3B
102
{ACAD_REACTORS
330
C
102
}
330
C
100
AcDbDictionary
281
     1
  3
A0
350
3C
  3
A1
350
3D
  3
A2
350
3E
  3
A3
350
3F
  3
A4
350
40
  3
A5
350
41
  3
A6
350
42
  3
A7
350
43
  3
A8
350
44
  3
A9
350
45
  3
B0
350
46
  3
B1
350
47
  3
B2
350
48
  3
B3
350
49
  3
B4
350
4A
  3
B5
350
4B
  3
B6
350
4C
  3
B7
350
4D
  3
B8
350
4E
  3
B9
350
4F
  3
C0
350
50
  3
C1
350
51
  3
C2
350
52
  3
C3
350
53
  3
C4
350
54
  3
C5
350
55
  3
C6
350
56
  3
C7
350
57
  3
C8
350
58
  3
C9
350
59
  3
D0
350
5A
  3
D1
350
5B
  3
D2
350
5C
  0
DICTIONARY
  5
12B
102
{ACAD_REACTORS
330
C
102
}
330
C
100
AcDbDictionary
281
     1
  0
DICTIONARY
  5
2A
102
{ACAD_REACTORS
330
C
102
}
330
C
100
AcDbDictionary
281
     1
  3
2dWireframe
350
2F
  3
3D Hidden
350
31
  3
3dWireframe
350
30
  3
Basic
350
32
  3
Brighten
350
36
  3
ColorChange
350
3A
  3
Conceptual
350
34
  3
Dim
350
35
  3
Facepattern
350
39
  3
Flat
350
2B
  3
FlatWithEdges
350
2C
  3
Gouraud
350
2D
  3
GouraudWithEdges
350
2E
  3
Linepattern
350
38
  3
Realistic
350
33
  3
Thicken
350
37
  0
DICTIONARY
  5
129
102
{ACAD_REACTORS
330
C
102
}
330
C
100
AcDbDictionary
281
     1
  3
CANNOSCALE
350
12A
  3
PSOLHEIGHT
350
12E
  3
PSOLWIDTH
350
12D
  0
LAYOUT
  5
1E
102
{ACAD_REACTORS
330
1A
102
}
330
1A
100
AcDbPlotSettings
  1

  2
none_device
  4

  6

 40
0.0
 41
0.0
 42
0.0
 43
0.0
 44
0.0
 45
0.0
 46
0.0
 47
0.0
 48
0.0
 49
0.0
140
0.0
141
0.0
142
1.0
143
1.0
 70
   688
 72
     0
 73
     0
 74
     5
  7

 75
    16
147
1.0
148
0.0
149
0.0
100
AcDbLayout
  1
Layout1
 70
     1
 71
     1
 10
0.0
 20
0.0
 11
1682.0
 21
2378.0
 12
0.0
 22
0.0
 32
0.0
 14
0.0
 24
0.0
 34
0.0
 15
1682.0
 25
2378.0
 35
0.0
146
0.0
 13
0.0
 23
0.0
 33
0.0
 16
1.0
 26
0.0
 36
0.0
 17
0.0
 27
1.0
 37
0.0
 76
     0
330
1B
  0
LAYOUT
  5
22
102
{ACAD_REACTORS
330
1A
102
}
330
1A
100
AcDbPlotSettings
  1

  2
none_device
  4

  6

 40
0.0
 41
0.0
 42
0.0
 43
0.0
 44
0.0
 45
0.0
 46
0.0
 47
0.0
 48
0.0
 49
0.0
140
0.0
141
0.0
142
1.0
143
1.0
 70
  1712
 72
     0
 73
     0
 74
     0
  7

 75
     0
147
1.0
148
0.0
149
0.0
100
AcDbLayout
  1
Model
 70
     1
 71
     0
 10
0.0
 20
0.0
 11
1682.0
 21
2378.0
 12
0.0
 22
0.0
 32
0.0
 14
0.0
 24
0.0
 34
0.0
 15
1682.0
 25
2378.0
 35
0.0
146
0.0
 13
0.0
 23
0.0
 33
0.0
 16
1.0
 26
0.0
 36
0.0
 17
0.0
 27
1.0
 37
0.0
 76
     0
330
1F
331
29
  0
MLINESTYLE
  5
18
102
{ACAD_REACTORS
330
17
102
}
330
17
100
AcDbMlineStyle
  2
Standard
 70
     0
  3

 62
   256
 51
90.0
 52
90.0
 71
     2
 49
0.5
 62
   256
  6
BYLAYER
 49
-0.5
 62
   256
  6
BYLAYER
  0
ACDBPLACEHOLDER
  5
F
102
{ACAD_REACTORS
330
E
102
}
330
E
  0
SCALE
  5
3C
102
{ACAD_REACTORS
330
3B
102
}
330
3B
100
AcDbScale
 70
     0
300
1:1
140
1.0
141
1.0
290
     1
  0
SCALE
  5
3D
102
{ACAD_REACTORS
330
3B
102
}
330
3B
100
AcDbScale
 70
     0
300
1:2
140
1.0
141
2.0
290
     0
  0
SCALE
  5
3E
102
{ACAD_REACTORS
330
3B
102
}
330
3B
100
AcDbScale
 70
     0
300
1:4
140
1.0
141
4.0
290
     0
  0
SCALE
  5
3F
102
{ACAD_REACTORS
330
3B
102
}
330
3B
100
AcDbScale
 70
     0
300
1:5
140
1.0
141
5.0
290
     0
  0
SCALE
  5
40
102
{ACAD_REACTORS
330
3B
102
}
330
3B
100
AcDbScale
 70
     0
300
1:8
140
1.0
141
8.0
290
     0
  0
SCALE
  5
41
102
{ACAD_REACTORS
330
3B
102
}
330
3B
100
AcDbScale
 70
     0
300
1:10
140
1.0
141
10.0
290
     0
  0
SCALE
  5
42
102
{ACAD_REACTORS
330
3B
102
}
330
3B
100
AcDbScale
 70
     0
300
1:16
140
1.0
141
16.0
290
     0
  0
SCALE
  5
43
102
{ACAD_REACTORS
330
3B
102
}
330
3B
100
AcDbScale
 70
     0
300
1:20
140
1.0
141
20.0
290
     0
  0
SCALE
  5
44
102
{ACAD_REACTORS
330
3B
102
}
330
3B
100
AcDbScale
 70
     0
300
1:30
140
1.0
141
30.0
290
     0
  0
SCALE
  5
45
102
{ACAD_REACTORS
330
3B
102
}
330
3B
100
AcDbScale
 70
     0
300
1:40
140
1.0
141
40.0
290
     0
  0
SCALE
  5
46
102
{ACAD_REACTORS
330
3B
102
}
330
3B
100
AcDbScale
 70
     0
300
1:50
140
1.0
141
50.0
290
     0
  0
SCALE
  5
47
102
{ACAD_REACTORS
330
3B
102
}
330
3B
100
AcDbScale
 70
     0
300
1:100
140
1.0
141
100.0
290
     0
  0
SCALE
  5
48
102
{ACAD_REACTORS
330
3B
102
}
330
3B
100
AcDbScale
 70
     0
300
2:1
140
2.0
141
1.0
290
     0
  0
SCALE
  5
49
102
{ACAD_REACTORS
330
3B
102
}
330
3B
100
AcDbScale
 70
     0
300
4:1
140
4.0
141
1.0
290
     0
  0
SCALE
  5
4A
102
{ACAD_REACTORS
330
3B
102
}
330
3B
100
AcDbScale
 70
     0
300
8:1
140
8.0
141
1.0
290
     0
  0
SCALE
  5
4B
102
{ACAD_REACTORS
330
3B
102
}
330
3B
100
AcDbScale
 70
     0
300
10:1
140
10.0
141
1.0
290
     0
  0
SCALE
  5
4C
102
{ACAD_REACTORS
330
3B
102
}
330
3B
100
AcDbScale
 70
     0
300
100:1
140
100.0
141
1.0
290
     0
  0
SCALE
  5
4D
102
{ACAD_REACTORS
330
3B
102
}
330
3B
100
AcDbScale
 70
     0
300
1/128" = 1'-0"
140
0.0078125
141
12.0
290
     0
  0
SCALE
  5
4E
102
{ACAD_REACTORS
330
3B
102
}
330
3B
100
AcDbScale
 70
     0
300
1/64" = 1'-0"
140
0.015625
141
12.0
290
     0
  0
SCALE
  5
4F
102
{ACAD_REACTORS
330
3B
102
}
330
3B
100
AcDbScale
 70
     0
300
1/32" = 1'-0"
140
0.03125
141
12.0
290
     0
  0
SCALE
  5
50
102
{ACAD_REACTORS
330
3B
102
}
330
3B
100
AcDbScale
 70
     0
300
1/16" = 1'-0"
140
0.0625
141
12.0
290
     0
  0
SCALE
  5
51
102
{ACAD_REACTORS
330
3B
102
}
330
3B
100
AcDbScale
 70
     0
300
3/32" = 1'-0"
140
0.09375
141
12.0
290
     0
  0
SCALE
  5
52
102
{ACAD_REACTORS
330
3B
102
}
330
3B
100
AcDbScale
 70
     0
300
1/8" = 1'-0"
140
0.125
141
12.0
290
     0
  0
SCALE
  5
53
102
{ACAD_REACTORS
330
3B
102
}
330
3B
100
AcDbScale
 70
     0
300
3/16" = 1'-0"
140
0.1875
141
12.0
290
     0
  0
SCALE
  5
54
102
{ACAD_REACTORS
330
3B
102
}
330
3B
100
AcDbScale
 70
     0
300
1/4" = 1'-0"
140
0.25
141
12.0
290
     0
  0
SCALE
  5
55
102
{ACAD_REACTORS
330
3B
102
}
330
3B
100
AcDbScale
 70
     0
300
3/8" = 1'-0"
140
0.375
141
12.0
290
     0
  0
SCALE
  5
56
102
{ACAD_REACTORS
330
3B
102
}
330
3B
100
AcDbScale
 70
     0
300
1/2" = 1'-0"
140
0.5
141
12.0
290
     0
  0
SCALE
  5
57
102
{ACAD_REACTORS
330
3B
102
}
330
3B
100
AcDbScale
 70
     0
300
3/4" = 1'-0"
140
0.75
141
12.0
290
     0
  0
SCALE
  5
58
102
{ACAD_REACTORS
330
3B
102
}
330
3B
100
AcDbScale
 70
     0
300
1" = 1'-0"
140
1.0
141
12.0
290
     0
  0
SCALE
  5
59
102
{ACAD_REACTORS
330
3B
102
}
330
3B
100
AcDbScale
 70
     0
300
1-1/2" = 1'-0"
140
1.5
141
12.0
290
     0
  0
SCALE
  5
5A
102
{ACAD_REACTORS
330
3B
102
}
330
3B
100
AcDbScale
 70
     0
300
3" = 1'-0"
140
3.0
141
12.0
290
     0
  0
SCALE
  5
5B
102
{ACAD_REACTORS
330
3B
102
}
330
3B
100
AcDbScale
 70
     0
300
6" = 1'-0"
140
6.0
141
12.0
290
     0
  0
SCALE
  5
5C
102
{ACAD_REACTORS
330
3B
102
}
330
3B
100
AcDbScale
 70
     0
300
1'-0" = 1'-0"
140
12.0
141
12.0
290
     0
  0
VISUALSTYLE
  5
2F
102
{ACAD_REACTORS
330
2A
102
}
330
2A
100
AcDbVisualStyle
  2
2dWireframe
 70
     4
 71
     0
 72
     2
 73
     0
 90
        0
 40
-0.6
 41
-30.0
 62
     5
 63
     7
 74
     1
 91
        4
 64
     7
 65
   257
 75
     1
175
     1
 42
1.0
 92
        0
 66
   257
 43
1.0
 76
     1
 77
     6
 78
     2
 67
     7
 79
     5
170
     0
171
     0
290
     0
174
     0
 93
        1
 44
0.0
173
     0
291
     0
 45
0.0
1001
ACAD
1000
AcDbSavedByObjectVersion
1070
     0
  0
VISUALSTYLE
  5
31
102
{ACAD_REACTORS
330
2A
102
}
330
2A
100
AcDbVisualStyle
  2
3D Hidden
 70
     6
 71
     1
 72
     2
 73
     2
 90
        0
 40
-0.6
 41
-30.0
 62
     5
 63
     7
 74
     2
 91
        2
 64
     7
 65
   257
 75
     2
175
     1
 42
40.0
 92
        0
 66
   257
 43
1.0
 76
     1
 77
     6
 78
     2
 67
     7
 79
     3
170
     0
171
     0
290
     0
174
     0
 93
        1
 44
0.0
173
     0
291
     0
 45
0.0
1001
ACAD
1000
AcDbSavedByObjectVersion
1070
     0
  0
VISUALSTYLE
  5
30
102
{ACAD_REACTORS
330
2A
102
}
330
2A
100
AcDbVisualStyle
  2
3dWireframe
 70
     5
 71
     0
 72
     2
 73
     0
 90
        0
 40
-0.6
 41
-30.0
 62
     5
 63
     7
 74
     1
 91
        4
 64
     7
 65
   257
 75
     1
175
     1
 42
1.0
 92
        0
 66
   257
 43
1.0
 76
     1
 77
     6
 78
     2
 67
     7
 79
     5
170
     0
171
     0
290
     0
174
     0
 93
        1
 44
0.0
173
     0
291
     0
 45
0.0
1001
ACAD
1000
AcDbSavedByObjectVersion
1070
     0
  0
VISUALSTYLE
  5
32
102
{ACAD_REACTORS
330
2A
102
}
330
2A
100
AcDbVisualStyle
  2
Basic
 70
     7
 71
     1
 72
     0
 73
     1
 90
        0
 40
-0.6
 41
-30.0
 62
     5
 63
     7
 74
     0
 91
        4
 64
     7
 65
   257
 75
     1
175
     1
 42
1.0
 92
        8
 66
     7
 43
1.0
 76
     1
 77
     6
 78
     2
 67
     7
 79
     5
170
     0
171
     0
290
     0
174
     0
 93
        1
 44
0.0
173
     0
291
     1
 45
0.0
1001
ACAD
1000
AcDbSavedByObjectVersion
1070
     0
  0
VISUALSTYLE
  5
36
102
{ACAD_REACTORS
330
2A
102
}
330
2A
100
AcDbVisualStyle
  2
Brighten
 70
    12
 71
     2
 72
     2
 73
     0
 90
        0
 40
-0.6
 41
-30.0
 62
     5
 63
     7
 74
     1
 91
        4
 64
     7
 65
   257
 75
     1
175
     1
 42
1.0
 92
        8
 66
     7
 43
1.0
 76
     1
 77
     6
 78
     2
 67
     7
 79
     5
170
     0
171
     0
290
     0
174
     0
 93
        1
 44
50.0
173
     0
291
     1
 45
0.0
1001
ACAD
1000
AcDbSavedByObjectVersion
1070
     0
  0
VISUALSTYLE
  5
3A
102
{ACAD_REACTORS
330
2A
102
}
330
2A
100
AcDbVisualStyle
  2
ColorChange
 70
    16
 71
     2
 72
     2
 73
     3
 90
        0
 40
-0.6
 41
-30.0
 62
     5
 63
     8
 74
     1
 91
        4
 64
     7
 65
   257
 75
     1
175
     1
 42
1.0
 92
        8
 66
     8
 43
1.0
 76
     1
 77
     6
 78
     2
 67
     7
 79
     5
170
     0
171
     0
290
     0
174
     0
 93
        1
 44
0.0
173
     0
291
     1
 45
0.0
1001
ACAD
1000
AcDbSavedByObjectVersion
1070
     0
  0
VISUALSTYLE
  5
34
102
{ACAD_REACTORS
330
2A
102
}
330
2A
100
AcDbVisualStyle
  2
Conceptual
 70
     9
 71
     3
 72
     2
 73
     0
 90
        0
 40
-0.6
 41
-30.0
 62
     5
 63
     7
 74
     2
 91
        2
 64
     7
 65
   257
 75
     1
175
     1
 42
40.0
 92
        8
 66
     7
 43
1.0
 76
     1
 77
     6
 78
     2
 67
     7
 79
     3
170
     0
171
     0
290
     0
174
     0
 93
        1
 44
0.0
173
     0
291
     0
 45
0.0
1001
ACAD
1000
AcDbSavedByObjectVersion
1070
     0
  0
VISUALSTYLE
  5
35
102
{ACAD_REACTORS
330
2A
102
}
330
2A
100
AcDbVisualStyle
  2
Dim
 70
    11
 71
     2
 72
     2
 73
     0
 90
        0
 40
-0.6
 41
-30.0
 62
     5
 63
     7
 74
     1
 91
        4
 64
     7
 65
   257
 75
     1
175
     1
 42
1.0
 92
        8
 66
     7
 43
1.0
 76
     1
 77
     6
 78
     2
 67
     7
 79
     5
170
     0
171
     0
290
     0
174
     0
 93
        1
 44
-50.0
173
     0
291
     1
 45
0.0
1001
ACAD
1000
AcDbSavedByObjectVersion
1070
     0
  0
VISUALSTYLE
  5
39
102
{ACAD_REACTORS
330
2A
102
}
330
2A
100
AcDbVisualStyle
  2
Facepattern
 70
    15
 71
     2
 72
     2
 73
     0
 90
        0
 40
-0.6
 41
-30.0
 62
     5
 63
     7
 74
     1
 91
        4
 64
     7
 65
   257
 75
     1
175
     1
 42
1.0
 92
        8
 66
     7
 43
1.0
 76
     1
 77
     6
 78
     2
 67
     7
 79
     5
170
     0
171
     0
290
     0
174
     0
 93
        1
 44
0.0
173
     0
291
     1
 45
0.0
1001
ACAD
1000
AcDbSavedByObjectVersion
1070
     0
  0
VISUALSTYLE
  5
2B
102
{ACAD_REACTORS
330
2A
102
}
330
2A
100
AcDbVisualStyle
  2
Flat
 70
     0
 71
     2
 72
     1
 73
     1
 90
        2
 40
-0.6
 41
30.0
 62
     5
 63
     7
 74
     0
 91
        4
 64
     7
 65
   257
 75
     1
175
     1
 42
1.0
 92
        8
 66
     7
 43
1.0
 76
     1
 77
     6
 78
     2
 67
     7
 79
     5
170
     0
171
     0
290
     0
174
     0
 93
       13
 44
0.0
173
     0
291
     1
 45
0.0
1001
ACAD
1000
AcDbSavedByObjectVersion
1070
     0
  0
VISUALSTYLE
  5
2C
102
{ACAD_REACTORS
330
2A
102
}
330
2A
100
AcDbVisualStyle
  2
FlatWithEdges
 70
     1
 71
     2
 72
     1
 73
     1
 90
        2
 40
-0.6
 41
30.0
 62
     5
 63
     7
 74
     1
 91
        4
 64
     7
 65
   257
 75
     1
175
     1
 42
1.0
 92
        0
 66
   257
 43
1.0
 76
     1
 77
     6
 78
     2
 67
     7
 79
     5
170
     0
171
     0
290
     0
174
     0
 93
       13
 44
0.0
173
     0
291
     1
 45
0.0
1001
ACAD
1000
AcDbSavedByObjectVersion
1070
     0
  0
VISUALSTYLE
  5
2D
102
{ACAD_REACTORS
330
2A
102
}
330
2A
100
AcDbVisualStyle
  2
Gouraud
 70
     2
 71
     2
 72
     2
 73
     1
 90
        2
 40
-0.6
 41
30.0
 62
     5
 63
     7
 74
     0
 91
        4
 64
     7
 65
   257
 75
     1
175
     1
 42
1.0
 92
        0
 66
     7
 43
1.0
 76
     1
 77
     6
 78
     2
 67
     7
 79
     5
170
     0
171
     0
290
     0
174
     0
 93
       13
 44
0.0
173
     0
291
     1
 45
0.0
1001
ACAD
1000
AcDbSavedByObjectVersion
1070
     0
  0
VISUALSTYLE
  5
2E
102
{ACAD_REACTORS
330
2A
102
}
330
2A
100
AcDbVisualStyle
  2
GouraudWithEdges
 70
     3
 71
     2
 72
     2
 73
     1
 90
        2
 40
-0.6
 41
30.0
 62
     5
 63
     7
 74
     1
 91
        4
 64
     7
 65
   257
 75
     1
175
     1
 42
1.0
 92
        0
 66
   257
 43
1.0
 76
     1
 77
     6
 78
     2
 67
     7
 79
     5
170
     0
171
     0
290
     0
174
     0
 93
       13
 44
0.0
173
     0
291
     1
 45
0.0
1001
ACAD
1000
AcDbSavedByObjectVersion
1070
     0
  0
VISUALSTYLE
  5
38
102
{ACAD_REACTORS
330
2A
102
}
330
2A
100
AcDbVisualStyle
  2
Linepattern
 70
    14
 71
     2
 72
     2
 73
     0
 90
        0
 40
-0.6
 41
-30.0
 62
     5
 63
     7
 74
     1
 91
        4
 64
     7
 65
   257
 75
     7
175
     7
 42
1.0
 92
        8
 66
     7
 43
1.0
 76
     1
 77
     6
 78
     2
 67
     7
 79
     5
170
     0
171
     0
290
     0
174
     0
 93
        1
 44
0.0
173
     0
291
     1
 45
0.0
1001
ACAD
1000
AcDbSavedByObjectVersion
1070
     0
  0
VISUALSTYLE
  5
33
102
{ACAD_REACTORS
330
2A
102
}
330
2A
100
AcDbVisualStyle
  2
Realistic
 70
     8
 71
     2
 72
     2
 73
     0
 90
        0
 40
-0.6
 41
-30.0
 62
     5
 63
     7
 74
     1
 91
        0
 64
     7
 65
   257
 75
     1
175
     1
 42
1.0
 92
        8
 66
     8
 43
1.0
 76
     1
 77
     6
 78
     2
 67
     7
 79
     5
170
     0
171
     0
290
     0
174
     0
 93
       13
 44
0.0
173
     0
291
     0
 45
0.0
1001
ACAD
1000
AcDbSavedByObjectVersion
1070
     0
  0
VISUALSTYLE
  5
37
102
{ACAD_REACTORS
330
2A
102
}
330
2A
100
AcDbVisualStyle
  2
Thicken
 70
    13
 71
     2
 72
     2
 73
     0
 90
        0
 40
-0.6
 41
-30.0
 62
     5
 63
     7
 74
     1
 91
        4
 64
     7
 65
   257
 75
     1
175
     1
 42
1.0
 92
       12
 66
     7
 43
1.0
 76
     1
 77
     6
 78
     2
 67
     7
 79
     5
170
     0
171
     0
290
     0
174
     0
 93
        1
 44
0.0
173
     0
291
     1
 45
0.0
1001
ACAD
1000
AcDbSavedByObjectVersion
1070
     0
  0
DICTIONARYVAR
  5
12A
102
{ACAD_REACTORS
330
129
102
}
330
129
100
DictionaryVariables
280
     0
  1
1:1
  0
DICTIONARYVAR
  5
12E
102
{ACAD_REACTORS
330
129
102
}
330
129
100
DictionaryVariables
280
     0
  1
80.000000
  0
DICTIONARYVAR
  5
12D
102
{ACAD_REACTORS
330
129
102
}
330
129
100
DictionaryVariables
280
     0
  1
5.000000
  0
ENDSEC
  0
EOF
