  0
SECTION
  2
HEADER
  9
$ACADVER
  1
AC1015
  9
$ACADMAINTVER
 70
     6
  9
$DWGCODEPAGE
  3
ANSI_1252
  9
$INSBASE
 10
0.0
 20
0.0
 30
0.0
  9
$EXTMIN
 10
0.0
 20
0.0
 30
0.0
  9
$EXTMAX
 10
1682.0
 20
2378.0
 30
0.0
  9
$LIMMIN
 10
0.0
 20
0.0
  9
$LIMMAX
 10
1682.0
 20
2378.0
  9
$ORTHOMODE
 70
     0
  9
$REGENMODE
 70
     1
  9
$FILLMODE
 70
     1
  9
$QTEXTMODE
 70
     0
  9
$MIRRTEXT
 70
     1
  9
$LTSCALE
 40
1.0
  9
$ATTMODE
 70
     1
  9
$TEXTSIZE
 40
2.5
  9
$TRACEWID
 40
1.0
  9
$TEXTSTYLE
  7
Standard
  9
$CLAYER
  8
0
  9
$CELTYPE
  6
ByLayer
  9
$CECOLOR
 62
   256
  9
$CELTSCALE
 40
1.0
  9
$DISPSILH
 70
     0
  9
$DIMSCALE
 40
1.0
  9
$DIMASZ
 40
2.5
  9
$DIMEXO
 40
0.625
  9
$DIMDLI
 40
3.75
  9
$DIMRND
 40
0.0
  9
$DIMDLE
 40
0.0
  9
$DIMEXE
 40
1.25
  9
$DIMTP
 40
0.0
  9
$DIMTM
 40
0.0
  9
$DIMTXT
 40
2.5
  9
$DIMCEN
 40
2.5
  9
$DIMTSZ
 40
0.0
  9
$DIMTOL
 70
     0
  9
$DIMLIM
 70
     0
  9
$DIMTIH
 70
     0
  9
$DIMTOH
 70
     0
  9
$DIMSE1
 70
     0
  9
$DIMSE2
 70
     0
  9
$DIMTAD
 70
     1
  9
$DIMZIN
 70
     8
  9
$DIMBLK
  1

  9
$DIMASO
 70
     1
  9
$DIMSHO
 70
     1
  9
$DIMPOST
  1

  9
$DIMAPOST
  1

  9
$DIMALT
 70
     0
  9
$DIMALTD
 70
     3
  9
$DIMALTF
 40
0.0393700787
  9
$DIMLFAC
 40
1.0
  9
$DIMTOFL
 70
     1
  9
$DIMTVP
 40
0.0
  9
$DIMTIX
 70
     0
  9
$DIMSOXD
 70
     0
  9
$DIMSAH
 70
     0
  9
$DIMBLK1
  1

  9
$DIMBLK2
  1

  9
$DIMSTYLE
  2
ISO-25
  9
$DIMCLRD
 70
     0
  9
$DIMCLRE
 70
     0
  9
$DIMCLRT
 70
     0
  9
$DIMTFAC
 40
1.0
  9
$DIMGAP
 40
0.625
  9
$DIMJUST
 70
     0
  9
$DIMSD1
 70
     0
  9
$DIMSD2
 70
     0
  9
$DIMTOLJ
 70
     0
  9
$DIMTZIN
 70
     8
  9
$DIMALTZ
 70
     0
  9
$DIMALTTZ
 70
     0
  9
$DIMUPT
 70
     0
  9
$DIMDEC
 70
     2
  9
$DIMTDEC
 70
     2
  9
$DIMALTU
 70
     2
  9
$DIMALTTD
 70
     3
  9
$DIMTXSTY
  7
Standard
  9
$DIMAUNIT
 70
     0
  9
$DIMADEC
 70
     0
  9
$DIMALTRND
 40
0.0
  9
$DIMAZIN
 70
     0
  9
$DIMDSEP
 70
    44
  9
$DIMATFIT
 70
     3
  9
$DIMFRAC
 70
     0
  9
$DIMLDRBLK
  1

  9
$DIMLUNIT
 70
     2
  9
$DIMLWD
 70
    -2
  9
$DIMLWE
 70
    -2
  9
$DIMTMOVE
 70
     0
  9
$LUNITS
 70
     2
  9
$LUPREC
 70
     4
  9
$SKETCHINC
 40
1.0
  9
$FILLETRAD
 40
10.0
  9
$AUNITS
 70
     0
  9
$AUPREC
 70
     0
  9
$MENU
  1
.
  9
$ELEVATION
 40
0.0
  9
$PELEVATION
 40
0.0
  9
$THICKNESS
 40
0.0
  9
$LIMCHECK
 70
     0
  9
$CHAMFERA
 40
10.0
  9
$CHAMFERB
 40
10.0
  9
$CHAMFERC
 40
20.0
  9
$CHAMFERD
 40
0.0
  9
$SKPOLY
 70
     0
  9
$TDCREATE
 40
2455643.434258322
  9
$TDUCREATE
 40
2455643.392591655
  9
$TDUPDATE
 40
2455643.434258333
  9
$TDUUPDATE
 40
2455643.392591667
  9
$TDINDWG
 40
0.0000000116
  9
$TDUSRTIMER
 40
0.0000000116
  9
$USRTIMER
 70
     1
  9
$ANGBASE
 50
0.0
  9
$ANGDIR
 70
     0
  9
$PDMODE
 70
     0
  9
$PDSIZE
 40
0.0
  9
$PLINEWID
 40
0.0
  9
$SPLFRAME
 70
     0
  9
$SPLINETYPE
 70
     6
  9
$SPLINESEGS
 70
     8
  9
$HANDSEED
  5
2F8
  9
$SURFTAB1
 70
     6
  9
$SURFTAB2
 70
     6
  9
$SURFTYPE
 70
     6
  9
$SURFU
 70
     6
  9
$SURFV
 70
     6
  9
$UCSBASE
  2

  9
$UCSNAME
  2

  9
$UCSORG
 10
0.0
 20
0.0
 30
0.0
  9
$UCSXDIR
 10
1.0
 20
0.0
 30
0.0
  9
$UCSYDIR
 10
0.0
 20
1.0
 30
0.0
  9
$UCSORTHOREF
  2

  9
$UCSORTHOVIEW
 70
     0
  9
$UCSORGTOP
 10
0.0
 20
0.0
 30
0.0
  9
$UCSORGBOTTOM
 10
0.0
 20
0.0
 30
0.0
  9
$UCSORGLEFT
 10
0.0
 20
0.0
 30
0.0
  9
$UCSORGRIGHT
 10
0.0
 20
0.0
 30
0.0
  9
$UCSORGFRONT
 10
0.0
 20
0.0
 30
0.0
  9
$UCSORGBACK
 10
0.0
 20
0.0
 30
0.0
  9
$PUCSBASE
  2

  9
$PUCSNAME
  2

  9
$PUCSORG
 10
0.0
 20
0.0
 30
0.0
  9
$PUCSXDIR
 10
1.0
 20
0.0
 30
0.0
  9
$PUCSYDIR
 10
0.0
 20
1.0
 30
0.0
  9
$PUCSORTHOREF
  2

  9
$PUCSORTHOVIEW
 70
     0
  9
$PUCSORGTOP
 10
0.0
 20
0.0
 30
0.0
  9
$PUCSORGBOTTOM
 10
0.0
 20
0.0
 30
0.0
  9
$PUCSORGLEFT
 10
0.0
 20
0.0
 30
0.0
  9
$PUCSORGRIGHT
 10
0.0
 20
0.0
 30
0.0
  9
$PUCSORGFRONT
 10
0.0
 20
0.0
 30
0.0
  9
$PUCSORGBACK
 10
0.0
 20
0.0
 30
0.0
  9
$USERI1
 70
     0
  9
$USERI2
 70
     0
  9
$USERI3
 70
     0
  9
$USERI4
 70
     0
  9
$USERI5
 70
     0
  9
$USERR1
 40
0.0
  9
$USERR2
 40
0.0
  9
$USERR3
 40
0.0
  9
$USERR4
 40
0.0
  9
$USERR5
 40
0.0
  9
$WORLDVIEW
 70
     1
  9
$SHADEDGE
 70
     3
  9
$SHADEDIF
 70
    70
  9
$TILEMODE
 70
     1
  9
$MAXACTVP
 70
    64
  9
$PINSBASE
 10
0.0
 20
0.0
 30
0.0
  9
$PLIMCHECK
 70
     0
  9
$PEXTMIN
 10
0.0
 20
0.0
 30
0.0
  9
$PEXTMAX
 10
1682.0
 20
2378.0
 30
0.0
  9
$PLIMMIN
 10
0.0
 20
0.0
  9
$PLIMMAX
 10
1682.0
 20
2378.0
  9
$UNITMODE
 70
     0
  9
$VISRETAIN
 70
     1
  9
$PLINEGEN
 70
     0
  9
$PSLTSCALE
 70
     1
  9
$TREEDEPTH
 70
  3020
  9
$CMLSTYLE
  2
Standard
  9
$CMLJUST
 70
     0
  9
$CMLSCALE
 40
20.0
  9
$PROXYGRAPHICS
 70
     1
  9
$MEASUREMENT
 70
     1
  9
$CELWEIGHT
370
    -1
  9
$ENDCAPS
280
     0
  9
$JOINSTYLE
280
     0
  9
$LWDISPLAY
290
     0
  9
$INSUNITS
 70
     4
  9
$HYPERLINKBASE
  1

  9
$STYLESHEET
  1

  9
$XEDIT
290
     1
  9
$CEPSNTYPE
380
     0
  9
$PSTYLEMODE
290
     1
  9
$FINGERPRINTGUID
  2
{DC01D6F2-BAF1-4FE9-A4A9-6939CEA9977B}
  9
$VERSIONGUID
  2
{FAEB1C32-E019-11D5-929B-00C0DF256EC4}
  9
$EXTNAMES
290
     1
  9
$PSVPSCALE
 40
0.0
  9
$OLESTARTUP
290
     0
  0
ENDSEC
  0
SECTION
  2
CLASSES
  0
CLASS
  1
ACDBDICTIONARYWDFLT
  2
AcDbDictionaryWithDefault
  3
ObjectDBX Classes
 90
        0
280
     0
281
     0
  0
CLASS
  1
VISUALSTYLE
  2
AcDbVisualStyle
  3
ObjectDBX Classes
 90
     4095
280
     0
281
     0
  0
CLASS
  1
SCALE
  2
AcDbScale
  3
ObjectDBX Classes
 90
     1153
280
     0
281
     0
  0
CLASS
  1
DICTIONARYVAR
  2
AcDbDictionaryVar
  3
ObjectDBX Classes
 90
        0
280
     0
281
     0
  0
CLASS
  1
ACDBPLACEHOLDER
  2
AcDbPlaceHolder
  3
ObjectDBX Classes
 90
        0
280
     0
281
     0
  0
CLASS
  1
LAYOUT
  2
AcDbLayout
  3
ObjectDBX Classes
 90
        0
280
     0
281
     0
  0
ENDSEC
  0
SECTION
  2
TABLES
  0
TABLE
  2
VPORT
  5
8
330
0
100
AcDbSymbolTable
 70
     1
  0
VPORT
  5
29
330
8
100
AcDbSymbolTableRecord
100
AcDbViewportTableRecord
  2
*Active
 70
     0
 10
0.0
 20
0.0
 11
1.0
 21
1.0
 12
344.1869158879
 22
148.5
 13
0.0
 23
0.0
 14
10.0
 24
10.0
 15
10.0
 25
10.0
 16
0.0
 26
0.0
 36
1.0
 17
0.0
 27
0.0
 37
0.0
 40
297.0
 41
1.9729729729
 42
50.0
 43
0.0
 44
0.0
 50
0.0
 51
0.0
 71
     0
 72
   100
 73
     1
 74
     3
 75
     0
 76
     0
 77
     0
 78
     0
281
     0
 65
     1
110
0.0
120
0.0
130
0.0
111
1.0
121
0.0
131
0.0
112
0.0
122
1.0
132
0.0
 79
     0
146
0.0
  0
ENDTAB
  0
TABLE
  2
LTYPE
  5
5
330
0
100
AcDbSymbolTable
 70
     2
  0
LTYPE
  5
14
330
5
100
AcDbSymbolTableRecord
100
AcDbLinetypeTableRecord
  2
ByBlock
 70
     0
  3

 72
    65
 73
     0
 40
0.0
  0
LTYPE
  5
15
330
5
100
AcDbSymbolTableRecord
100
AcDbLinetypeTableRecord
  2
ByLayer
 70
     0
  3

 72
    65
 73
     0
 40
0.0
  0
LTYPE
  5
16
330
5
100
AcDbSymbolTableRecord
100
AcDbLinetypeTableRecord
  2
Continuous
 70
     0
  3
Solid line
 72
    65
 73
     0
 40
0.0
  0
LTYPE
  5
2E2
330
5
100
AcDbSymbolTableRecord
100
AcDbLinetypeTableRecord
  2
CENTER2
 70
     0
  3
Center (.5x) ___ _ ___ _ ___ _ ___ _ ___ _ ___
 72
    65
 73
     4
 40
28.575
 49
19.05
 74
     4
 75
     0
340
0
 46
0.0
 50
0.0
 44
0.0
 45
0.0
 49
-3.175
 74
     4
 75
     0
340
0
 46
0.0
 50
0.0
 44
0.0
 45
0.0
 49
3.175
 74
     4
 75
     0
340
0
 46
0.0
 50
0.0
 44
0.0
 45
0.0
 49
-3.175
 74
     4
 75
     0
340
0
 46
0.0
 50
0.0
 44
0.0
 45
0.0
  0
ENDTAB
  0
TABLE
  2
LAYER
  5
2
330
0
100
AcDbSymbolTable
 70
    11
  0
LAYER
  5
10
330
2
100
AcDbSymbolTableRecord
100
AcDbLayerTableRecord
  2
0
 70
     0
 62
     7
  6
Continuous
370
    -3
390
F
  0
LAYER
  5
5D
330
2
100
AcDbSymbolTableRecord
100
AcDbLayerTableRecord
  2
Default
 70
     0
 62
     7
  6
Continuous
370
    -3
390
F
  0
LAYER
  5
60
330
2
100
AcDbSymbolTableRecord
100
AcDbLayerTableRecord
  2
$DDT_AUDIT_GENERATED_(60)
 70
     0
 62
     7
  6
Continuous
370
    -3
390
F
  0
LAYER
  5
74
330
2
100
AcDbSymbolTableRecord
100
AcDbLayerTableRecord
  2
$DDT_AUDIT_GENERATED_(74)
 70
     0
 62
     7
  6
Continuous
370
    -3
390
F
  0
LAYER
  5
78
330
2
100
AcDbSymbolTableRecord
100
AcDbLayerTableRecord
  2
$DDT_AUDIT_GENERATED_(78)
 70
     0
 62
     7
  6
Continuous
370
    -3
390
F
  0
LAYER
  5
8F
330
2
100
AcDbSymbolTableRecord
100
AcDbLayerTableRecord
  2
$DDT_AUDIT_GENERATED_(8F)
 70
     0
 62
     7
  6
Continuous
370
    -3
390
F
  0
LAYER
  5
208
330
2
100
AcDbSymbolTableRecord
100
AcDbLayerTableRecord
  2
$DDT_AUDIT_GENERATED_(208)
 70
     0
 62
     7
  6
Continuous
370
    -3
390
F
  0
LAYER
  5
20B
330
2
100
AcDbSymbolTableRecord
100
AcDbLayerTableRecord
  2
$DDT_AUDIT_GENERATED_(20B)
 70
     0
 62
     7
  6
Continuous
370
    -3
390
F
  0
LAYER
  5
241
330
2
100
AcDbSymbolTableRecord
100
AcDbLayerTableRecord
  2
DV1_Default
 70
     0
 62
     7
  6
Continuous
370
    -3
390
F
  0
LAYER
  5
2B2
330
2
100
AcDbSymbolTableRecord
100
AcDbLayerTableRecord
  2
DV2_Default
 70
     0
 62
     7
  6
Continuous
370
    -3
390
F
  0
LAYER
  5
2E1
330
2
100
AcDbSymbolTableRecord
100
AcDbLayerTableRecord
  2
DV3_Default
 70
     0
 62
     7
  6
Continuous
370
    -3
390
F
  0
ENDTAB
  0
TABLE
  2
STYLE
  5
3
330
0
100
AcDbSymbolTable
 70
     2
  0
STYLE
  5
11
330
3
100
AcDbSymbolTableRecord
100
AcDbTextStyleTableRecord
  2
Standard
 70
     0
 40
0.0
 41
1.0
 50
0.0
 71
     0
 42
2.5
  3
txt
  4

  0
STYLE
  5
2E7
330
3
100
AcDbSymbolTableRecord
100
AcDbTextStyleTableRecord
  2
SEACAD_seiso_ttf
 70
     0
 40
0.0
 41
1.0
 50
0.0
 71
     0
 42
0.2
  3
seiso.ttf
  4

  0
ENDTAB
  0
TABLE
  2
VIEW
  5
6
330
0
100
AcDbSymbolTable
 70
     0
  0
ENDTAB
  0
TABLE
  2
UCS
  5
7
330
0
100
AcDbSymbolTable
 70
     0
  0
ENDTAB
  0
TABLE
  2
APPID
  5
9
330
0
100
AcDbSymbolTable
 70
     1
  0
APPID
  5
12
330
9
100
AcDbSymbolTableRecord
100
AcDbRegAppTableRecord
  2
ACAD
 70
     0
  0
ENDTAB
  0
TABLE
  2
DIMSTYLE
  5
A
330
0
100
AcDbSymbolTable
 70
     1
100
AcDbDimStyleTable
  0
DIMSTYLE
105
27
330
A
100
AcDbSymbolTableRecord
100
AcDbDimStyleTableRecord
  2
ISO-25
 70
     0
 41
2.5
 42
0.625
 43
3.75
 44
1.25
 73
     0
 74
     0
 77
     1
 78
     8
140
2.5
141
2.5
143
0.0393700787
147
0.625
171
     3
172
     1
271
     2
272
     2
274
     3
278
    44
283
     0
284
     8
340
11
  0
ENDTAB
  0
TABLE
  2
BLOCK_RECORD
  5
1
330
0
100
AcDbSymbolTable
 70
     4
  0
BLOCK_RECORD
  5
1F
330
1
100
AcDbSymbolTableRecord
100
AcDbBlockTableRecord
  2
*Model_Space
340
22
  0
BLOCK_RECORD
  5
1B
330
1
100
AcDbSymbolTableRecord
100
AcDbBlockTableRecord
  2
*Paper_Space
340
1E
  0
BLOCK_RECORD
  5
5E
330
1
100
AcDbSymbolTableRecord
100
AcDbBlockTableRecord
  2
SE
340
0
102
{BLKREFS
331
5F
102
}
  0
BLOCK_RECORD
  5
245
330
1
100
AcDbSymbolTableRecord
100
AcDbBlockTableRecord
  2
SE1
340
0
102
{BLKREFS
331
246
102
}
  0
BLOCK_RECORD
  5
2B6
330
1
100
AcDbSymbolTableRecord
100
AcDbBlockTableRecord
  2
SE2
340
0
102
{BLKREFS
331
2B7
102
}
  0
ENDTAB
  0
ENDSEC
  0
SECTION
  2
BLOCKS
  0
BLOCK
  5
20
330
1F
100
AcDbEntity
  8
0
100
AcDbBlockBegin
  2
*Model_Space
 70
     0
 10
0.0
 20
0.0
 30
0.0
  3
*Model_Space
  1

  0
ENDBLK
  5
21
330
1F
100
AcDbEntity
  8
0
100
AcDbBlockEnd
  0
BLOCK
  5
1C
330
1B
100
AcDbEntity
 67
     1
  8
0
100
AcDbBlockBegin
  2
*Paper_Space
 70
     0
 10
0.0
 20
0.0
 30
0.0
  3
*Paper_Space
  1

  0
ENDBLK
  5
1D
330
1B
100
AcDbEntity
 67
     1
  8
0
100
AcDbBlockEnd
  0
BLOCK
  5
243
330
5E
100
AcDbEntity
  8
0
100
AcDbBlockBegin
  2
SE
 70
     0
 10
0.0
 20
0.0
 30
0.0
  3
SE
  1

  0
LINE
  5
61
330
5E
100
AcDbEntity
  8
$DDT_AUDIT_GENERATED_(60)
  6
Continuous
 62
     7
100
AcDbLine
 10
50.9978421656
 20
281.2468111396
 30
0.0
 11
25.9978421656
 21
281.2468111387
 31
0.0
  0
LINE
  5
62
330
5E
100
AcDbEntity
  8
$DDT_AUDIT_GENERATED_(60)
  6
Continuous
 62
     7
100
AcDbLine
 10
75.9978421656
 20
281.2468103282
 30
0.0
 11
50.9978421656
 21
281.2468111396
 31
0.0
  0
LINE
  5
63
330
5E
100
AcDbEntity
  8
$DDT_AUDIT_GENERATED_(60)
  6
Continuous
 62
     7
100
AcDbLine
 10
69.5101670584
 20
385.4646245063
 30
0.0
 11
69.510198682
 21
391.5320335927
 31
0.0
  0
LINE
  5
64
330
5E
100
AcDbEntity
  8
$DDT_AUDIT_GENERATED_(60)
  6
Continuous
 62
     7
100
AcDbLine
 10
32.4854856491
 20
391.5320335927
 30
0.0
 11
32.4855172727
 21
385.4646229364
 31
0.0
  0
ARC
  5
65
330
5E
100
AcDbEntity
  8
$DDT_AUDIT_GENERATED_(60)
  6
Continuous
 62
     7
100
AcDbCircle
 10
50.9977020012
 20
994.8053238585
 30
0.0
 40
603.0721933810105
100
AcDbArc
 50
269.528809679
 51
270.4702583252
  0
SPLINE
  5
66
330
5E
100
AcDbEntity
  8
$DDT_AUDIT_GENERATED_(60)
  6
Continuous
 62
     7
100
AcDbSpline
210
0.0
220
0.0
230
1.0
 70
     8
 71
     3
 72
     8
 73
     4
 74
     0
 42
0.0000000011537282
 43
0.0000000001
 40
0.6275622900531246
 40
0.6275622900531246
 40
0.6275622900531246
 40
0.6275622900531246
 40
0.6277761402408572
 40
0.6277761402408572
 40
0.6277761402408572
 40
0.6277761402408572
 10
38.07243384637114
 20
371.4621976209544
 30
0.0
 10
38.07205842218968
 20
371.4626888793891
 30
0.0
 10
38.0716834938692
 20
371.4631799703882
 30
0.0
 10
38.071309061467
 20
371.4636708944431
 30
0.0
  0
SPLINE
  5
67
330
5E
100
AcDbEntity
  8
$DDT_AUDIT_GENERATED_(60)
  6
Continuous
 62
     7
100
AcDbSpline
210
0.0
220
0.0
230
1.0
 70
     8
 71
     3
 72
     8
 73
     4
 74
     0
 42
0.0000000006298903
 43
0.0000000001
 40
0.6578731302143892
 40
0.6578731302143892
 40
0.6578731302143892
 40
0.6578731302143892
 40
0.6579641878849001
 40
0.6579641878849001
 40
0.6579641878849001
 40
0.6579641878849001
 10
63.92436585121117
 20
371.4636556671914
 30
0.0
 10
63.9240738476075
 20
371.4632726772127
 30
0.0
 10
63.92378154498131
 20
371.4628895867315
 30
0.0
 10
63.92348894333874
 20
371.4625063955619
 30
0.0
  0
LINE
  5
68
330
5E
100
AcDbEntity
  8
$DDT_AUDIT_GENERATED_(60)
  6
Continuous
 62
     7
100
AcDbLine
 10
25.9978421656
 20
391.6848649335
 30
0.0
 11
25.9978421656
 21
281.2468111387
 31
0.0
  0
ARC
  5
69
330
5E
100
AcDbEntity
  8
$DDT_AUDIT_GENERATED_(60)
  6
Continuous
 62
     7
100
AcDbCircle
 10
86.8466976716
 20
407.692884392
 30
0.0
 40
60.75848895949227
100
AcDbArc
 50
207.8183751956
 51
216.6042828493
  0
ARC
  5
6A
330
5E
100
AcDbEntity
  8
$DDT_AUDIT_GENERATED_(60)
  6
Continuous
 62
     7
100
AcDbCircle
 10
15.3323435862
 20
407.5782678527
 30
0.0
 40
60.54295105343694
100
AcDbArc
 50
323.3791352513
 51
332.2049253266
  0
LINE
  5
6B
330
5E
100
AcDbEntity
  8
$DDT_AUDIT_GENERATED_(60)
  6
Continuous
 62
     7
100
AcDbLine
 10
75.9978421656
 20
281.2468111387
 30
0.0
 11
75.9978421656
 21
391.6848655388
 31
0.0
  0
ARC
  5
6C
330
5E
100
AcDbEntity
  8
$DDT_AUDIT_GENERATED_(60)
  6
Continuous
 62
     7
100
AcDbCircle
 10
39.4802608177
 20
385.2597395596
 30
0.0
 40
29.99792351497547
100
AcDbArc
 50
348.6294031671
 51
359.936937457
  0
ARC
  5
6D
330
5E
100
AcDbEntity
  8
$DDT_AUDIT_GENERATED_(60)
  6
Continuous
 62
     7
100
AcDbCircle
 10
62.3004741522
 20
385.2381458942
 30
0.0
 40
29.78294802057122
100
AcDbArc
 50
180.02210654
 51
191.4114244989
  0
SPLINE
  5
6E
330
5E
100
AcDbEntity
  8
$DDT_AUDIT_GENERATED_(60)
  6
Continuous
 62
     7
100
AcDbSpline
210
0.0
220
0.0
230
1.0
 70
     8
 71
     3
 72
    16
 73
    12
 74
     0
 42
0.0000000046179543
 43
0.0000000001
 40
0.0
 40
0.0
 40
0.0
 40
0.0
 40
0.0234750340568031
 40
0.0475776885065362
 40
0.067877464429615
 40
0.0850362897896862
 40
0.1206847827446286
 40
0.2821271358030347
 40
0.4655893449734929
 40
0.6456827100081299
 40
0.7866517736405838
 40
0.7866517736405838
 40
0.7866517736405838
 40
0.7866517736405838
 10
75.99771070441126
 20
391.6848655123827
 30
0.0
 10
75.9988978694269
 20
391.7619829309974
 30
0.0
 10
75.96344041358824
 20
391.8946215670799
 30
0.0
 10
75.84757397709355
 20
392.0667127880149
 30
0.0
 10
75.6750034558984
 20
392.1589113003818
 30
0.0
 10
75.55216629736749
 20
392.1841600912521
 30
0.0
 10
75.49770611979822
 20
392.1856798088078
 30
0.0
 10
75.43317493813143
 20
392.1890538958206
 30
0.0
 10
75.2305811139961
 20
392.1905969226726
 30
0.0
 10
74.95376284819709
 20
392.1926608232352
 30
0.0
 10
74.70615439285248
 20
392.1935046559094
 30
0.0
 10
74.59177290003399
 20
392.1938460590513
 30
0.0
  0
SPLINE
  5
6F
330
5E
100
AcDbEntity
  8
$DDT_AUDIT_GENERATED_(60)
  6
Continuous
 62
     7
100
AcDbSpline
210
0.0
220
0.0
230
1.0
 70
     8
 71
     3
 72
    15
 73
    11
 74
     0
 42
0.0000000046406987
 43
0.0000000001
 40
0.2081830533664488
 40
0.2081830533664488
 40
0.2081830533664488
 40
0.2081830533664488
 40
0.3917006881669113
 40
0.5896417551891363
 40
0.7954793191034384
 40
0.9028286346229336
 40
0.9259806340257779
 40
0.9462658630625314
 40
0.9725588948503698
 40
1.0
 40
1.0
 40
1.0
 40
1.0
 10
27.40400521550153
 20
392.1938796168388
 30
0.0
 10
27.25821614877572
 20
392.1933758946774
 30
0.0
 10
26.97087512907436
 20
392.1920496600139
 30
0.0
 10
26.68776645450219
 20
392.1906058219846
 30
0.0
 10
26.51782618786094
 20
392.1868574232079
 30
0.0
 10
26.49253609009778
 20
392.1872089778707
 30
0.0
 10
26.38548497448125
 20
392.1762994008877
 30
0.0
 10
26.18180062024966
 20
392.0997335998291
 30
0.0
 10
26.0430808623479
 20
391.9217196805604
 30
0.0
 10
25.99716753584922
 20
391.7742143057877
 30
0.0
 10
25.99800311555416
 20
391.6848662042651
 30
0.0
  0
ARC
  5
70
330
5E
100
AcDbEntity
  8
$DDT_AUDIT_GENERATED_(60)
  6
Continuous
 62
     7
100
AcDbCircle
 10
50.1693264649
 20
318.0862095599
 30
0.0
 40
55.75731118540342
100
AcDbArc
 50
76.4307263534
 51
99.6242905736
  0
ARC
  5
71
330
5E
100
AcDbEntity
  8
$DDT_AUDIT_GENERATED_(60)
  6
Continuous
 62
     7
100
AcDbCircle
 10
50.4882389356
 20
384.1344399429
 30
0.0
 40
18.46839856533742
100
AcDbArc
 50
311.8192131763
 51
316.6735037618
  0
ARC
  5
72
330
5E
100
AcDbEntity
  8
$DDT_AUDIT_GENERATED_(60)
  6
Continuous
 62
     7
100
AcDbCircle
 10
41.3452493829
 20
368.4369787696
 30
0.0
 40
4.648479018668088
100
AcDbArc
 50
96.1475497375
 51
123.9703916388
  0
ARC
  5
73
330
5E
100
AcDbEntity
  8
$DDT_AUDIT_GENERATED_(60)
  6
Continuous
 62
     7
100
AcDbCircle
 10
51.5079004395
 20
384.135522981
 30
0.0
 40
18.46951966859228
100
AcDbArc
 50
223.3285012492
 51
228.1814286481
  0
LINE
  5
75
330
5E
100
AcDbEntity
  8
$DDT_AUDIT_GENERATED_(74)
  6
Continuous
 62
     7
100
AcDbLine
 10
74.647155052
 20
391.9968111387
 30
0.0
 11
27.3485292792
 21
391.9968111387
 31
0.0
  0
ARC
  5
76
330
5E
100
AcDbEntity
  8
$DDT_AUDIT_GENERATED_(74)
  6
Continuous
 62
     7
100
AcDbCircle
 10
50.9978421656
 20
385.5968111387
 30
0.0
 40
24.5
100
AcDbArc
 50
159.0179775818
 51
164.8572685595
  0
ARC
  5
77
330
5E
100
AcDbEntity
  8
$DDT_AUDIT_GENERATED_(74)
  6
Continuous
 62
     7
100
AcDbCircle
 10
50.9978421656
 20
385.5968111387
 30
0.0
 40
24.5
100
AcDbArc
 50
15.1427314405
 51
20.9821297662
  0
ELLIPSE
  5
79
330
5E
100
AcDbEntity
  8
$DDT_AUDIT_GENERATED_(78)
  6
Continuous
 62
     7
100
AcDbEllipse
 10
50.9978421656
 20
365.7606428442
 30
0.0
 11
10.05000000000001
 21
0.0
 31
0.0
210
0.0
220
0.0
230
1.0
 40
0.3420201433
 41
5.70361386627117
 42
6.283185307179586
  0
ELLIPSE
  5
7A
330
5E
100
AcDbEntity
  8
$DDT_AUDIT_GENERATED_(78)
  6
Continuous
 62
     7
100
AcDbEllipse
 10
50.9978421656
 20
365.7606428442
 30
0.0
 11
10.05000000000001
 21
0.0
 31
0.0
210
0.0
220
0.0
230
1.0
 40
0.3420201433
 41
0.0
 42
3.721164094498212
  0
ELLIPSE
  5
7B
330
5E
100
AcDbEntity
  8
$DDT_AUDIT_GENERATED_(78)
  6
Continuous
 62
     7
100
AcDbEllipse
 10
50.9978421656
 20
365.7606428442
 30
0.0
 11
10.75000000000001
 21
0.0
 31
0.0
210
0.0
220
0.0
230
1.0
 40
0.3420201433
 41
5.574312787778019
 42
6.283185307179586
  0
ELLIPSE
  5
7C
330
5E
100
AcDbEntity
  8
$DDT_AUDIT_GENERATED_(78)
  6
Continuous
 62
     7
100
AcDbEllipse
 10
50.9978421656
 20
365.7606428442
 30
0.0
 11
10.75000000000001
 21
0.0
 31
0.0
210
0.0
220
0.0
230
1.0
 40
0.3420201433
 41
0.0
 42
3.850560114888691
  0
ELLIPSE
  5
7D
330
5E
100
AcDbEntity
  8
$DDT_AUDIT_GENERATED_(78)
  6
Continuous
 62
     7
100
AcDbEllipse
 10
50.9978421656
 20
366.0590353274
 30
0.0
 11
11.3
 21
0.0
 31
0.0
210
0.0
220
0.0
230
1.0
 40
0.3420201433
 41
-0.6820876318288107
 42
-0.6803566572028155
  0
ELLIPSE
  5
7E
330
5E
100
AcDbEntity
  8
$DDT_AUDIT_GENERATED_(78)
  6
Continuous
 62
     7
100
AcDbEllipse
 10
50.9978421656
 20
366.0590353274
 30
0.0
 11
11.3
 21
0.0
 31
0.0
210
0.0
220
0.0
230
1.0
 40
0.3420201433
 41
3.822501278848247
 42
3.823680285418599
  0
LINE
  5
7F
330
5E
100
AcDbEntity
  8
$DDT_AUDIT_GENERATED_(78)
  6
Continuous
 62
     7
100
AcDbLine
 10
61.9978421656
 20
365.1743990531
 30
0.0
 11
61.9978421656
 21
366.9436716017
 31
0.0
  0
ELLIPSE
  5
80
330
5E
100
AcDbEntity
  8
$DDT_AUDIT_GENERATED_(78)
  6
Continuous
 62
     7
100
AcDbEllipse
 10
50.9978421656
 20
368.5797207066
 30
0.0
 11
-11.80000000000006
 21
0.0
 31
0.0
210
0.0
220
0.0
230
1.0
 40
0.3420201433
 41
2.771250021498072
 42
3.511935285681508
  0
LINE
  5
81
330
5E
100
AcDbEntity
  8
$DDT_AUDIT_GENERATED_(78)
  6
Continuous
 62
     7
100
AcDbLine
 10
61.9978421656
 20
365.1743990531
 30
0.0
 11
61.9978421656
 21
365.046415429
 31
0.0
  0
LINE
  5
82
330
5E
100
AcDbEntity
  8
$DDT_AUDIT_GENERATED_(78)
  6
Continuous
 62
     7
100
AcDbLine
 10
61.9978421656
 20
366.9436716017
 30
0.0
 11
61.9978421656
 21
368.3335433424
 31
0.0
  0
LINE
  5
83
330
5E
100
AcDbEntity
  8
$DDT_AUDIT_GENERATED_(78)
  6
Continuous
 62
     7
100
AcDbLine
 10
61.9978421656
 20
368.3335433424
 30
0.0
 11
61.9978421656
 21
370.0404310402
 31
0.0
  0
LINE
  5
84
330
5E
100
AcDbEntity
  8
$DDT_AUDIT_GENERATED_(78)
  6
Continuous
 62
     7
100
AcDbLine
 10
39.9978421656
 20
366.9436716017
 30
0.0
 11
39.9978421656
 21
365.1743990531
 31
0.0
  0
ELLIPSE
  5
85
330
5E
100
AcDbEntity
  8
$DDT_AUDIT_GENERATED_(78)
  6
Continuous
 62
     7
100
AcDbEllipse
 10
50.9978421656
 20
368.5797207066
 30
0.0
 11
11.80000000000012
 21
5.551115123125783E-14
 31
0.0
210
0.0
220
0.0
230
1.0
 40
0.3420201433
 41
2.771250021498079
 42
3.511935285681512
  0
LINE
  5
86
330
5E
100
AcDbEntity
  8
$DDT_AUDIT_GENERATED_(78)
  6
Continuous
 62
     7
100
AcDbLine
 10
39.9978421656
 20
370.0404310402
 30
0.0
 11
39.9978421656
 21
368.3335433424
 31
0.0
  0
LINE
  5
87
330
5E
100
AcDbEntity
  8
$DDT_AUDIT_GENERATED_(78)
  6
Continuous
 62
     7
100
AcDbLine
 10
39.9978421656
 20
368.3335433424
 30
0.0
 11
39.9978421656
 21
366.9436716017
 31
0.0
  0
LINE
  5
88
330
5E
100
AcDbEntity
  8
$DDT_AUDIT_GENERATED_(78)
  6
Continuous
 62
     7
100
AcDbLine
 10
39.9978421656
 20
365.0464154611
 30
0.0
 11
39.9978421656
 21
365.1743990531
 31
0.0
  0
LINE
  5
89
330
5E
100
AcDbEntity
  8
$DDT_AUDIT_GENERATED_(78)
  6
Continuous
 62
     7
100
AcDbLine
 10
42.2261229579
 20
363.6225902625
 30
0.0
 11
42.6530650432
 21
363.4427858134
 31
0.0
  0
LINE
  5
8A
330
5E
100
AcDbEntity
  8
$DDT_AUDIT_GENERATED_(78)
  6
Continuous
 62
     7
100
AcDbLine
 10
59.3426192879
 20
363.4427858134
 30
0.0
 11
59.7695613733
 21
363.6225902625
 31
0.0
  0
ARC
  5
8B
330
5E
100
AcDbEntity
  8
$DDT_AUDIT_GENERATED_(78)
  6
Continuous
 62
     7
100
AcDbCircle
 10
57.4517498672
 20
369.7076117413
 30
0.0
 40
6.510965885855832
100
AcDbArc
 50
290.9750105844
 51
314.2843646799
  0
ARC
  5
8C
330
5E
100
AcDbEntity
  8
$DDT_AUDIT_GENERATED_(78)
  6
Continuous
 62
     7
100
AcDbCircle
 10
44.5471216276
 20
369.7118514898
 30
0.0
 40
6.51622895475874
100
AcDbArc
 50
225.7204031837
 51
249.0514246335
  0
LINE
  5
8D
330
5E
100
AcDbEntity
  8
$DDT_AUDIT_GENERATED_(78)
  6
Continuous
 62
     7
100
AcDbLine
 10
39.1978421656
 20
372.5798403287
 30
0.0
 11
39.1978421656
 21
368.5797207066
 31
0.0
  0
LINE
  5
8E
330
5E
100
AcDbEntity
  8
$DDT_AUDIT_GENERATED_(78)
  6
Continuous
 62
     7
100
AcDbLine
 10
62.7978421656
 20
368.5797207066
 30
0.0
 11
62.7978421656
 21
372.5794646808
 31
0.0
  0
ELLIPSE
  5
90
330
5E
100
AcDbEntity
  8
$DDT_AUDIT_GENERATED_(8F)
  6
Continuous
 62
     7
100
AcDbEllipse
 10
50.9978421656
 20
364.122350143
 30
0.0
 11
7.875
 21
0.0
 31
0.0
210
0.0
220
0.0
230
1.0
 40
0.3420201433
 41
3.160183300139324
 42
6.264594660627141
  0
ELLIPSE
  5
91
330
5E
100
AcDbEntity
  8
$DDT_AUDIT_GENERATED_(8F)
  6
Continuous
 62
     7
100
AcDbEllipse
 10
50.9978421656
 20
364.4450731751
 30
0.0
 11
-8.000000000000002
 21
0.0
 31
0.0
210
0.0
220
0.0
230
1.0
 40
0.3420201433
 41
0.1915828921373469
 42
2.950009761452447
  0
ELLIPSE
  5
92
330
5E
100
AcDbEntity
  8
$DDT_AUDIT_GENERATED_(8F)
  6
Continuous
 62
     7
100
AcDbEllipse
 10
50.9978421656
 20
364.0222114958
 30
0.0
 11
7.875
 21
0.0
 31
0.0
210
0.0
220
0.0
230
1.0
 40
0.3420201433
 41
0.0
 42
6.283185307179586
  0
SPLINE
  5
93
330
5E
100
AcDbEntity
  8
$DDT_AUDIT_GENERATED_(8F)
  6
Continuous
 62
     7
100
AcDbSpline
210
0.0
220
0.0
230
1.0
 70
     8
 71
     3
 72
     8
 73
     4
 74
     0
 42
0.0000001335940634
 43
0.0000000001
 40
0.0
 40
0.0
 40
0.0
 40
0.0
 40
0.2238919236352307
 40
0.2238919236352307
 40
0.2238919236352307
 40
0.2238919236352307
 10
51.53784628290843
 20
364.5612424595865
 30
0.0
 10
51.54082726580123
 20
364.5571213274036
 30
0.0
 10
51.54593956406515
 20
364.5556232959614
 30
0.0
 10
51.55225640107351
 20
364.556226877345
 30
0.0
  0
SPLINE
  5
94
330
5E
100
AcDbEntity
  8
$DDT_AUDIT_GENERATED_(8F)
  6
Continuous
 62
     7
100
AcDbSpline
210
0.0
220
0.0
230
1.0
 70
    12
 71
     2
 72
     6
 73
     3
 74
     0
 42
0.0000011105898116
 43
0.0000000001
 40
0.0
 40
0.0
 40
0.0
 40
1.0
 40
1.0
 40
1.0
 10
51.53229717864182
 20
364.5683255391039
 30
0.0
 41
1.0
 10
51.53527131259072
 20
364.5648022898254
 30
0.0
 41
1.0
 10
51.53784628290843
 20
364.5612424595865
 30
0.0
 41
1.0
  0
SPLINE
  5
95
330
5E
100
AcDbEntity
  8
$DDT_AUDIT_GENERATED_(8F)
  6
Continuous
 62
     7
100
AcDbSpline
210
0.0
220
0.0
230
1.0
 70
     8
 71
     3
 72
    10
 73
     6
 74
     0
 42
0.0000000733819831
 43
0.0000000001
 40
0.0
 40
0.0
 40
0.0
 40
0.0
 40
0.5
 40
0.5
 40
1.0
 40
1.0
 40
1.0
 40
1.0
 10
51.57390711318408
 20
364.6906801650668
 30
0.0
 10
51.55952262457568
 20
364.6672071246501
 30
0.0
 10
51.54655337732081
 20
364.6427450148854
 30
0.0
 10
51.52892055968655
 20
364.5983747185194
 30
0.0
 10
51.5245909222017
 20
364.5774546042039
 30
0.0
 10
51.53229717864182
 20
364.5683255391039
 30
0.0
  0
ARC
  5
96
330
5E
100
AcDbEntity
  8
$DDT_AUDIT_GENERATED_(8F)
  6
Continuous
 62
     7
100
AcDbCircle
 10
51.1448384348
 20
364.9553081017
 30
0.0
 40
0.5041109755038882
100
AcDbArc
 50
328.3358063586
 51
349.9085579104
  0
SPLINE
  5
97
330
5E
100
AcDbEntity
  8
$DDT_AUDIT_GENERATED_(8F)
  6
Continuous
 62
     7
100
AcDbSpline
210
0.0
220
0.0
230
1.0
 70
     8
 71
     3
 72
     8
 73
     4
 74
     0
 42
0.0000000631884451
 43
0.0000000001
 40
0.0
 40
0.0
 40
0.0
 40
0.0
 40
0.4006285407631695
 40
0.4006285407631695
 40
0.4006285407631695
 40
0.4006285407631695
 10
51.28521648408958
 20
364.6784566512473
 30
0.0
 10
51.30423418676715
 20
364.6745322727701
 30
0.0
 10
51.32564403760274
 20
364.6803124649023
 30
0.0
 10
51.34445209555088
 20
364.6913496690939
 30
0.0
  0
SPLINE
  5
98
330
5E
100
AcDbEntity
  8
$DDT_AUDIT_GENERATED_(8F)
  6
Continuous
 62
     7
100
AcDbSpline
210
0.0
220
0.0
230
1.0
 70
    12
 71
     2
 72
     6
 73
     3
 74
     0
 42
0.0000005283490689
 43
0.0000000001
 40
0.0
 40
0.0
 40
0.0
 40
1.0
 40
1.0
 40
1.0
 10
51.26664881932898
 20
364.6821231230014
 30
0.0
 41
1.0
 10
51.27603596285915
 20
364.6803510882638
 30
0.0
 41
1.0
 10
51.28521648408958
 20
364.6784566512473
 30
0.0
 41
1.0
  0
SPLINE
  5
99
330
5E
100
AcDbEntity
  8
$DDT_AUDIT_GENERATED_(8F)
  6
Continuous
 62
     7
100
AcDbSpline
210
0.0
220
0.0
230
1.0
 70
     8
 71
     3
 72
    10
 73
     6
 74
     0
 42
0.0000000664841213
 43
0.0000000001
 40
0.0
 40
0.0
 40
0.0
 40
0.0
 40
0.5
 40
0.5
 40
1.0
 40
1.0
 40
1.0
 40
1.0
 10
51.2154507534616
 20
364.8031194043252
 30
0.0
 10
51.20988554515925
 20
364.7768201026767
 30
0.0
 10
51.21047919078715
 20
364.750604749078
 30
0.0
 10
51.22586199936202
 20
364.705915695319
 30
0.0
 10
51.24232586128069
 20
364.6867146290798
 30
0.0
 10
51.26664881932897
 20
364.6821231230014
 30
0.0
  0
ARC
  5
9A
330
5E
100
AcDbEntity
  8
$DDT_AUDIT_GENERATED_(8F)
  6
Continuous
 62
     7
100
AcDbCircle
 10
50.2874479317
 20
364.9987401074
 30
0.0
 40
0.9483969088216845
100
AcDbArc
 50
348.0964628196
 51
357.5069652387
  0
ARC
  5
9B
330
5E
100
AcDbEntity
  8
$DDT_AUDIT_GENERATED_(8F)
  6
Continuous
 62
     7
100
AcDbCircle
 10
52.6420984504
 20
364.9132168094
 30
0.0
 40
1.702727463722948
100
AcDbArc
 50
178.3981703471
 51
183.2924784727
  0
SPLINE
  5
9C
330
5E
100
AcDbEntity
  8
$DDT_AUDIT_GENERATED_(8F)
  6
Continuous
 62
     7
100
AcDbSpline
210
0.0
220
0.0
230
1.0
 70
     8
 71
     3
 72
    10
 73
     6
 74
     0
 42
0.0000000633230328
 43
0.0000000001
 40
0.0
 40
0.0
 40
0.0
 40
0.0
 40
0.5
 40
0.5
 40
1.0
 40
1.0
 40
1.0
 40
1.0
 10
50.86424670696554
 20
364.7002424072887
 30
0.0
 10
50.89115563743186
 20
364.7025193009338
 30
0.0
 10
50.91270449348729
 20
364.7196805476596
 30
0.0
 10
50.9382680953528
 20
364.7627641438026
 30
0.0
 10
50.94373041258543
 20
364.7888392050111
 30
0.0
 10
50.94218156865895
 20
364.8154241161897
 30
0.0
  0
SPLINE
  5
9D
330
5E
100
AcDbEntity
  8
$DDT_AUDIT_GENERATED_(8F)
  6
Continuous
 62
     7
100
AcDbSpline
210
0.0
220
0.0
230
1.0
 70
    12
 71
     2
 72
     6
 73
     3
 74
     0
 42
0.0000004808424308
 43
0.0000000001
 40
0.0
 40
0.0
 40
0.0
 40
1.0
 40
1.0
 40
1.0
 10
50.84353716790609
 20
364.6983445018521
 30
0.0
 41
1.0
 10
50.8538384596495
 20
364.6993617155716
 30
0.0
 41
1.0
 10
50.86424670696554
 20
364.7002424072887
 30
0.0
 41
1.0
  0
SPLINE
  5
9E
330
5E
100
AcDbEntity
  8
$DDT_AUDIT_GENERATED_(8F)
  6
Continuous
 62
     7
100
AcDbSpline
210
0.0
220
0.0
230
1.0
 70
     8
 71
     3
 72
    10
 73
     6
 74
     0
 42
0.0000000597977016
 43
0.0000000001
 40
0.3726973934689142
 40
0.3726973934689142
 40
0.3726973934689142
 40
0.3726973934689142
 40
0.5
 40
0.5
 40
1.0
 40
1.0
 40
1.0
 40
1.0
 10
50.75566417635734
 20
364.7422832435863
 30
0.0
 10
50.75989206213733
 20
364.7369030867055
 30
0.0
 10
50.76452469788437
 20
364.73183167908
 30
0.0
 10
50.78923251289801
 20
364.7086655236795
 30
0.0
 10
50.8168455671973
 20
364.6957088069199
 30
0.0
 10
50.84353716790609
 20
364.6983445018521
 30
0.0
  0
ARC
  5
9F
330
5E
100
AcDbEntity
  8
$DDT_AUDIT_GENERATED_(8F)
  6
Continuous
 62
     7
100
AcDbCircle
 10
51.0209916172
 20
364.9921084173
 30
0.0
 40
0.5696799586689123
100
AcDbArc
 50
186.8704855257
 51
206.429364477
  0
SPLINE
  5
A0
330
5E
100
AcDbEntity
  8
$DDT_AUDIT_GENERATED_(8F)
  6
Continuous
 62
     7
100
AcDbSpline
210
0.0
220
0.0
230
1.0
 70
     8
 71
     3
 72
    10
 73
     6
 74
     0
 42
0.0000000723743653
 43
0.0000000001
 40
0.0
 40
0.0
 40
0.0
 40
0.0
 40
0.5
 40
0.5
 40
1.0
 40
1.0
 40
1.0
 40
1.0
 10
50.52153533762637
 20
364.6138379272884
 30
0.0
 10
50.5358554794683
 20
364.6219557181266
 30
0.0
 10
50.53886931883999
 20
364.642596746733
 30
0.0
 10
50.53206390661104
 20
364.6883378040087
 30
0.0
 10
50.52304487502878
 20
364.7139089876935
 30
0.0
 10
50.51085246348237
 20
364.7385471837017
 30
0.0
  0
SPLINE
  5
A1
330
5E
100
AcDbEntity
  8
$DDT_AUDIT_GENERATED_(8F)
  6
Continuous
 62
     7
100
AcDbSpline
210
0.0
220
0.0
230
1.0
 70
    12
 71
     2
 72
     6
 73
     3
 74
     0
 42
0.0000008024234772
 43
0.0000000001
 40
0.0
 40
0.0
 40
0.0
 40
1.0
 40
1.0
 40
1.0
 10
50.51081529137863
 20
364.6074874119258
 30
0.0
 41
1.0
 10
50.51599637434196
 20
364.6106980041014
 30
0.0
 41
1.0
 10
50.5215353376264
 20
364.6138379272884
 30
0.0
 41
1.0
  0
SPLINE
  5
A2
330
5E
100
AcDbEntity
  8
$DDT_AUDIT_GENERATED_(8F)
  6
Continuous
 62
     7
100
AcDbSpline
210
0.0
220
0.0
230
1.0
 70
     8
 71
     3
 72
     8
 73
     4
 74
     0
 42
0.0000000929037415
 43
0.0000000001
 40
0.7532503085185971
 40
0.7532503085185971
 40
0.7532503085185971
 40
0.7532503085185971
 40
1.0
 40
1.0
 40
1.0
 40
1.0
 10
50.48563885307354
 20
364.6046555691794
 30
0.0
 10
50.49533377881001
 20
364.6027261172022
 30
0.0
 10
50.50419022715126
 20
364.6033820193803
 30
0.0
 10
50.51081529137861
 20
364.6074874119257
 30
0.0
  0
ELLIPSE
  5
A3
330
5E
100
AcDbEntity
  8
$DDT_AUDIT_GENERATED_(8F)
  6
Continuous
 62
     7
100
AcDbEllipse
 10
50.9978421656
 20
364.0872917422
 30
0.0
 11
8.42237532285424
 21
0.0
 31
0.0
210
0.0
220
0.0
230
1.0
 40
0.3420201433
 41
-0.1221748352465042
 42
-0.1142712442044127
  0
ELLIPSE
  5
A4
330
5E
100
AcDbEntity
  8
$DDT_AUDIT_GENERATED_(8F)
  6
Continuous
 62
     7
100
AcDbEllipse
 10
50.9978421656
 20
364.0872917422
 30
0.0
 11
8.42237532285424
 21
0.0
 31
0.0
210
0.0
220
0.0
230
1.0
 40
0.3420201433
 41
3.255450112107562
 42
3.263802272532412
  0
ELLIPSE
  5
A5
330
5E
100
AcDbEntity
  8
$DDT_AUDIT_GENERATED_(8F)
  6
Continuous
 62
     7
100
AcDbEllipse
 10
50.9978421656
 20
364.0991208752
 30
0.0
 11
6.390109892686962
 21
0.0
 31
0.0
210
0.0
220
0.0
230
1.0
 40
0.3420201433
 41
-0.071149680945803
 42
-0.0641153589687846
  0
ELLIPSE
  5
A6
330
5E
100
AcDbEntity
  8
$DDT_AUDIT_GENERATED_(8F)
  6
Continuous
 62
     7
100
AcDbEllipse
 10
50.9978421656
 20
364.0991208752
 30
0.0
 11
6.390109892686962
 21
0.0
 31
0.0
210
0.0
220
0.0
230
1.0
 40
0.3420201433
 41
3.20502961632983
 42
3.212722643257811
  0
ELLIPSE
  5
A7
330
5E
100
AcDbEntity
  8
$DDT_AUDIT_GENERATED_(8F)
  6
Continuous
 62
     7
100
AcDbEllipse
 10
50.9978421656
 20
364.1161807578
 30
0.0
 11
6.175000000000004
 21
0.0
 31
0.0
210
0.0
220
0.0
230
1.0
 40
0.3420201433
 41
3.138122200955107
 42
3.144930744562614
  0
ELLIPSE
  5
A8
330
5E
100
AcDbEntity
  8
$DDT_AUDIT_GENERATED_(8F)
  6
Continuous
 62
     7
100
AcDbEllipse
 10
50.9978421656
 20
364.1018920565
 30
0.0
 11
4.650545274088401
 21
0.0
 31
0.0
210
0.0
220
0.0
230
1.0
 40
0.3420201433
 41
3.197617377764846
 42
3.197898448383051
  0
ELLIPSE
  5
A9
330
5E
100
AcDbEntity
  8
$DDT_AUDIT_GENERATED_(8F)
  6
Continuous
 62
     7
100
AcDbEllipse
 10
50.9978421656
 20
364.0991208752
 30
0.0
 11
2.877609892686966
 21
0.0
 31
0.0
210
0.0
220
0.0
230
1.0
 40
0.3420201433
 41
-0.0676415991908481
 42
-0.0672451728035881
  0
ELLIPSE
  5
AA
330
5E
100
AcDbEntity
  8
$DDT_AUDIT_GENERATED_(8F)
  6
Continuous
 62
     7
100
AcDbEllipse
 10
50.9978421656
 20
364.0991208752
 30
0.0
 11
2.877609892686966
 21
0.0
 31
0.0
210
0.0
220
0.0
230
1.0
 40
0.3420201433
 41
3.208837826393381
 42
3.209363255397839
  0
ELLIPSE
  5
AB
330
5E
100
AcDbEntity
  8
$DDT_AUDIT_GENERATED_(8F)
  6
Continuous
 62
     7
100
AcDbEllipse
 10
50.9978421656
 20
365.5492120045
 30
0.0
 11
8.925000000000004
 21
0.0
 31
0.0
210
0.0
220
0.0
230
1.0
 40
0.3420201433
 41
0.0
 42
0.002776364481324
  0
ELLIPSE
  5
AC
330
5E
100
AcDbEntity
  8
$DDT_AUDIT_GENERATED_(8F)
  6
Continuous
 62
     7
100
AcDbEllipse
 10
50.9978421656
 20
365.5492120045
 30
0.0
 11
8.925000000000004
 21
0.0
 31
0.0
210
0.0
220
0.0
230
1.0
 40
0.3420201433
 41
3.138878560515479
 42
3.259455734026118
  0
ELLIPSE
  5
AD
330
5E
100
AcDbEntity
  8
$DDT_AUDIT_GENERATED_(8F)
  6
Continuous
 62
     7
100
AcDbEllipse
 10
50.9978421656
 20
365.5492120045
 30
0.0
 11
8.925000000000004
 21
0.0
 31
0.0
210
0.0
220
0.0
230
1.0
 40
0.3420201433
 41
6.165322226743262
 42
6.283185307179586
  0
SPLINE
  5
AE
330
5E
100
AcDbEntity
  8
$DDT_AUDIT_GENERATED_(8F)
  6
Continuous
 62
     7
100
AcDbSpline
210
0.0
220
0.0
230
1.0
 70
    12
 71
     2
 72
     6
 73
     3
 74
     0
 42
0.0000000101365331
 43
0.0000000001
 40
0.0944432315091976
 40
0.0944432315091976
 40
0.0944432315091976
 40
1.0
 40
1.0
 40
1.0
 10
54.94342567820303
 20
364.7649196823882
 30
0.0
 41
1.0
 10
54.9195863183416
 20
364.3188034646346
 30
0.0
 41
1.0
 10
54.89468754648605
 20
363.8728913398575
 30
0.0
 41
1.0
  0
SPLINE
  5
AF
330
5E
100
AcDbEntity
  8
$DDT_AUDIT_GENERATED_(8F)
  6
Continuous
 62
     7
100
AcDbSpline
210
0.0
220
0.0
230
1.0
 70
     8
 71
     3
 72
    10
 73
     6
 74
     0
 42
0.0000000780661139
 43
0.0000000001
 40
0.0
 40
0.0
 40
0.0
 40
0.0
 40
0.5
 40
0.5
 40
1.0
 40
1.0
 40
1.0
 40
1.0
 10
54.89468754606
 20
363.872891339696
 30
0.0
 10
54.89336315987814
 20
363.8491726196881
 30
0.0
 10
54.88770883538068
 20
363.8242483027491
 30
0.0
 10
54.87011558753967
 20
363.782944337873
 30
0.0
 10
54.85838381361191
 20
363.7671411693649
 30
0.0
 10
54.84617870410911
 20
363.7598704007164
 30
0.0
  0
LINE
  5
B0
330
5E
100
AcDbEntity
  8
$DDT_AUDIT_GENERATED_(8F)
  6
Continuous
 62
     7
100
AcDbLine
 10
54.8461787041
 20
363.7598704007
 30
0.0
 11
54.8354586579
 21
363.7535198854
 31
0.0
  0
SPLINE
  5
B1
330
5E
100
AcDbEntity
  8
$DDT_AUDIT_GENERATED_(8F)
  6
Continuous
 62
     7
100
AcDbSpline
210
0.0
220
0.0
230
1.0
 70
     8
 71
     3
 72
     8
 73
     4
 74
     0
 42
0.0000001302954896
 43
0.0000000001
 40
0.0
 40
0.0
 40
0.0
 40
0.0
 40
0.2725515475118139
 40
0.2725515475118139
 40
0.2725515475118139
 40
0.2725515475118139
 10
54.83545865786131
 20
363.7535198853536
 30
0.0
 10
54.82874970362467
 20
363.7495676066093
 30
0.0
 10
54.82206955535255
 20
363.748246386327
 30
0.0
 10
54.81586635441801
 20
363.7494653912254
 30
0.0
  0
SPLINE
  5
B2
330
5E
100
AcDbEntity
  8
$DDT_AUDIT_GENERATED_(8F)
  6
Continuous
 62
     7
100
AcDbSpline
210
0.0
220
0.0
230
1.0
 70
    12
 71
     2
 72
     6
 73
     3
 74
     0
 42
0.0000000103333874
 43
0.0000000001
 40
0.9751709757881951
 40
0.9751709757881951
 40
0.9751709757881951
 40
1.0
 40
1.0
 40
1.0
 10
52.25506547530207
 20
363.1669769471782
 30
0.0
 41
1.0
 10
52.25369680941252
 20
363.1550410454201
 30
0.0
 41
1.0
 10
52.25232790513864
 20
363.143105443697
 30
0.0
 41
1.0
  0
ARC
  5
B3
330
5E
100
AcDbEntity
  8
$DDT_AUDIT_GENERATED_(8F)
  6
Continuous
 62
     7
100
AcDbCircle
 10
52.145824513
 20
363.1574117283
 30
0.0
 40
0.1074599568734274
100
AcDbArc
 50
275.8102245403
 51
352.3494236703
  0
LINE
  5
B4
330
5E
100
AcDbEntity
  8
$DDT_AUDIT_GENERATED_(8F)
  6
Continuous
 62
     7
100
AcDbLine
 10
52.1567030964
 20
363.0505038298
 30
0.0
 11
52.1359935573
 21
363.0486059244
 31
0.0
  0
ARC
  5
B5
330
5E
100
AcDbEntity
  8
$DDT_AUDIT_GENERATED_(8F)
  6
Continuous
 62
     7
100
AcDbCircle
 10
52.1253465716
 20
363.1342868306
 30
0.0
 40
0.0863398864297792
100
AcDbArc
 50
217.8361929594
 51
277.0834479561
  0
ARC
  5
B6
330
5E
100
AcDbEntity
  8
$DDT_AUDIT_GENERATED_(8F)
  6
Continuous
 62
     7
100
AcDbCircle
 10
48.8034381693
 20
363.2694932838
 30
0.0
 40
0.0717491865503898
100
AcDbArc
 50
257.887148354
 51
300.2344066003
  0
LINE
  5
B7
330
5E
100
AcDbEntity
  8
$DDT_AUDIT_GENERATED_(8F)
  6
Continuous
 62
     7
100
AcDbLine
 10
48.7698148075
 20
363.203007979
 30
0.0
 11
48.7883824723
 21
363.1993415072
 31
0.0
  0
ARC
  5
B8
330
5E
100
AcDbEntity
  8
$DDT_AUDIT_GENERATED_(8F)
  6
Continuous
 62
     7
100
AcDbCircle
 10
48.7989607818
 20
363.3142511814
 30
0.0
 40
0.1149979908119269
100
AcDbArc
 50
185.2345790176
 51
255.3183775177
  0
SPLINE
  5
B9
330
5E
100
AcDbEntity
  8
$DDT_AUDIT_GENERATED_(8F)
  6
Continuous
 62
     7
100
AcDbSpline
210
0.0
220
0.0
230
1.0
 70
    12
 71
     2
 72
     6
 73
     3
 74
     0
 42
0.0000000102478249
 43
0.0000000001
 40
0.8116622628261652
 40
0.8116622628261652
 40
0.8116622628261652
 40
1.0
 40
1.0
 40
1.0
 10
48.66599325003835
 20
363.4866142752749
 30
0.0
 41
1.0
 10
48.67520458305206
 20
363.3951791611773
 30
0.0
 41
1.0
 10
48.68444238820449
 20
363.3037595009191
 30
0.0
 41
1.0
  0
SPLINE
  5
BA
330
5E
100
AcDbEntity
  8
$DDT_AUDIT_GENERATED_(8F)
  6
Continuous
 62
     7
100
AcDbSpline
210
0.0
220
0.0
230
1.0
 70
     8
 71
     3
 72
     8
 73
     4
 74
     0
 42
0.0000002093895186
 43
0.0000000001
 40
0.7533034822172064
 40
0.7533034822172064
 40
0.7533034822172064
 40
0.7533034822172064
 40
1.0
 40
1.0
 40
1.0
 40
1.0
 10
46.72367735277204
 20
364.1136443486038
 30
0.0
 10
46.72066862192348
 20
364.113367490177
 30
0.0
 10
46.71749186413258
 20
364.1152033340617
 30
0.0
 10
46.7143333710226
 20
364.1191963400346
 30
0.0
  0
SPLINE
  5
BB
330
5E
100
AcDbEntity
  8
$DDT_AUDIT_GENERATED_(8F)
  6
Continuous
 62
     7
100
AcDbSpline
210
0.0
220
0.0
230
1.0
 70
    12
 71
     2
 72
     6
 73
     3
 74
     0
 42
0.000001111355668
 43
0.0000000001
 40
0.0
 40
0.0
 40
0.0
 40
1.0
 40
1.0
 40
1.0
 10
46.7143333710226
 20
364.1191963400346
 30
0.0
 41
1.0
 10
46.71153380391866
 20
364.1227355873209
 30
0.0
 41
1.0
 10
46.70878426675598
 20
364.126279419552
 30
0.0
 41
1.0
  0
SPLINE
  5
BC
330
5E
100
AcDbEntity
  8
$DDT_AUDIT_GENERATED_(8F)
  6
Continuous
 62
     7
100
AcDbSpline
210
0.0
220
0.0
230
1.0
 70
     8
 71
     3
 72
    10
 73
     6
 74
     0
 42
0.0000000829596756
 43
0.0000000001
 40
0.0
 40
0.0
 40
0.0
 40
0.0
 40
0.5
 40
0.5
 40
1.0
 40
1.0
 40
1.0
 40
1.0
 10
46.70878426675599
 20
364.126279419552
 30
0.0
 10
46.70249708962754
 20
364.1343828564698
 30
0.0
 10
46.69657953481055
 20
364.1509557310525
 30
0.0
 10
46.68779711913918
 20
364.1934393543383
 30
0.0
 10
46.68502442123958
 20
364.2187761211411
 30
0.0
 10
46.68437442008699
 20
364.2425837272727
 30
0.0
  0
SPLINE
  5
BD
330
5E
100
AcDbEntity
  8
$DDT_AUDIT_GENERATED_(8F)
  6
Continuous
 62
     7
100
AcDbSpline
210
0.0
220
0.0
230
1.0
 70
    12
 71
     2
 72
     6
 73
     3
 74
     0
 42
0.0000000101121214
 43
0.0000000001
 40
0.0
 40
0.0
 40
0.0
 40
0.1968887646697112
 40
0.1968887646697112
 40
0.1968887646697112
 10
46.68437442008698
 20
364.2425837272727
 30
0.0
 41
1.0
 10
46.68171743405138
 20
364.339898626777
 30
0.0
 41
1.0
 10
46.67911629809877
 20
364.4372184044526
 30
0.0
 41
1.0
  0
ELLIPSE
  5
BE
330
5E
100
AcDbEntity
  8
$DDT_AUDIT_GENERATED_(8F)
  6
Continuous
 62
     7
100
AcDbEllipse
 10
-126.4540878411
 20
398.734972824
 30
0.0
 11
73.53247548107949
 21
-194.1055750012179
 31
0.0
210
0.0
220
0.0
230
1.0
 40
0.8472105985
 41
1.089890356551511
 42
1.091410428472576
  0
SPLINE
  5
BF
330
5E
100
AcDbEntity
  8
$DDT_AUDIT_GENERATED_(8F)
  6
Continuous
 62
     7
100
AcDbSpline
210
0.0
220
0.0
230
1.0
 70
     8
 71
     3
 72
    10
 73
     6
 74
     0
 42
0.0000000781707816
 43
0.0000000001
 40
0.0
 40
0.0
 40
0.0
 40
0.0
 40
0.5
 40
0.5
 40
1.0
 40
1.0
 40
1.0
 40
1.0
 10
53.35670349234196
 20
364.1765900098812
 30
0.0
 10
53.3554187052471
 20
364.1528614706869
 30
0.0
 10
53.34994114559927
 20
364.1279023688317
 30
0.0
 10
53.33271473831304
 20
364.0865298132252
 30
0.0
 10
53.32114807759969
 20
364.0706928849465
 30
0.0
 10
53.3089761364178
 20
364.0634147541642
 30
0.0
  0
SPLINE
  5
C0
330
5E
100
AcDbEntity
  8
$DDT_AUDIT_GENERATED_(8F)
  6
Continuous
 62
     7
100
AcDbSpline
210
0.0
220
0.0
230
1.0
 70
    12
 71
     2
 72
     6
 73
     3
 74
     0
 42
0.0000008025697224
 43
0.0000000001
 40
0.0
 40
0.0
 40
0.0
 40
1.0
 40
1.0
 40
1.0
 10
53.30897613641783
 20
364.0634147541642
 30
0.0
 41
1.0
 10
53.30365349316969
 20
364.06023211525
 30
0.0
 41
1.0
 10
53.29825609017004
 20
364.0570642388015
 30
0.0
 41
1.0
  0
SPLINE
  5
C1
330
5E
100
AcDbEntity
  8
$DDT_AUDIT_GENERATED_(8F)
  6
Continuous
 62
     7
100
AcDbSpline
210
0.0
220
0.0
230
1.0
 70
     8
 71
     3
 72
     8
 73
     4
 74
     0
 42
0.0000001293760258
 43
0.0000000001
 40
0.0
 40
0.0
 40
0.0
 40
0.0
 40
0.2725402782713749
 40
0.2725402782713749
 40
0.2725402782713749
 40
0.2725402782713749
 10
53.29825609017001
 20
364.0570642388015
 30
0.0
 10
53.29152821075483
 20
364.0531154710796
 30
0.0
 10
53.28479070062843
 20
364.0518058370732
 30
0.0
 10
53.27850980614593
 20
364.0530401964307
 30
0.0
  0
ELLIPSE
  5
C2
330
5E
100
AcDbEntity
  8
$DDT_AUDIT_GENERATED_(8F)
  6
Continuous
 62
     7
100
AcDbEllipse
 10
-2.0346493162
 20
431.3875756474
 30
0.0
 11
-3.923616131051141
 21
-207.5298215743937
 31
0.0
210
0.0
220
0.0
230
1.0
 40
0.2802722966
 41
1.244015167734688
 42
1.247087348637636
  0
ARC
  5
C3
330
5E
100
AcDbEntity
  8
$DDT_AUDIT_GENERATED_(8F)
  6
Continuous
 62
     7
100
AcDbCircle
 10
51.6861069719
 20
363.7438213538
 30
0.0
 40
0.1074988649067943
100
AcDbArc
 50
275.9750232404
 51
352.5087545349
  0
LINE
  5
C4
330
5E
100
AcDbEntity
  8
$DDT_AUDIT_GENERATED_(8F)
  6
Continuous
 62
     7
100
AcDbLine
 10
51.6972970571
 20
363.6369064907
 30
0.0
 11
51.676587518
 21
363.6350085852
 31
0.0
  0
ARC
  5
C5
330
5E
100
AcDbEntity
  8
$DDT_AUDIT_GENERATED_(8F)
  6
Continuous
 62
     7
100
AcDbCircle
 10
51.6661298342
 20
363.721156634
 30
0.0
 40
0.0867804670146443
100
AcDbArc
 50
217.8287734218
 51
276.9213839109
  0
ARC
  5
C6
330
5E
100
AcDbEntity
  8
$DDT_AUDIT_GENERATED_(8F)
  6
Continuous
 62
     7
100
AcDbCircle
 10
49.6908453554
 20
363.7958447808
 30
0.0
 40
0.0723130977908313
100
AcDbArc
 50
258.0616942665
 51
300.2263715206
  0
LINE
  5
C7
330
5E
100
AcDbEntity
  8
$DDT_AUDIT_GENERATED_(8F)
  6
Continuous
 62
     7
100
AcDbLine
 10
49.6758867886
 20
363.7250957497
 30
0.0
 11
49.6573191238
 21
363.7287622215
 31
0.0
  0
ARC
  5
C8
330
5E
100
AcDbEntity
  8
$DDT_AUDIT_GENERATED_(8F)
  6
Continuous
 62
     7
100
AcDbCircle
 10
49.6868241342
 20
363.8397693617
 30
0.0
 40
0.1148613547720208
100
AcDbArc
 50
184.9887373867
 51
255.1152838902
  0
ELLIPSE
  5
C9
330
5E
100
AcDbEntity
  8
$DDT_AUDIT_GENERATED_(8F)
  6
Continuous
 62
     7
100
AcDbEllipse
 10
153.4492418053
 20
424.3863723261
 30
0.0
 11
-15.35142182999429
 21
-206.9982561166495
 31
0.0
210
0.0
220
0.0
230
0.9999999999999998
 40
0.5054585259
 41
-1.239378818768061
 42
-1.236654086445187
  0
SPLINE
  5
CA
330
5E
100
AcDbEntity
  8
$DDT_AUDIT_GENERATED_(8F)
  6
Continuous
 62
     7
100
AcDbSpline
210
0.0
220
0.0
230
1.0
 70
     8
 71
     3
 72
     8
 73
     4
 74
     0
 42
0.000000207096541
 43
0.0000000001
 40
0.7533138180459209
 40
0.7533138180459209
 40
0.7533138180459209
 40
0.7533138180459209
 40
1.0
 40
1.0
 40
1.0
 40
1.0
 10
48.43835178356397
 20
364.2707840166141
 30
0.0
 10
48.43526852140971
 20
364.2705003199088
 30
0.0
 10
48.43203749267234
 20
364.2723310099939
 30
0.0
 10
48.42886005105115
 20
364.276322459446
 30
0.0
  0
SPLINE
  5
CB
330
5E
100
AcDbEntity
  8
$DDT_AUDIT_GENERATED_(8F)
  6
Continuous
 62
     7
100
AcDbSpline
210
0.0
220
0.0
230
1.0
 70
    12
 71
     2
 72
     6
 73
     3
 74
     0
 42
0.000001111333928
 43
0.0000000001
 40
0.0
 40
0.0
 40
0.0
 40
1.0
 40
1.0
 40
1.0
 10
48.42886005105115
 20
364.276322459446
 30
0.0
 41
1.0
 10
48.42604380708385
 20
364.2798601783973
 30
0.0
 41
1.0
 10
48.42331094678453
 20
364.2834055389633
 30
0.0
 41
1.0
  0
SPLINE
  5
CC
330
5E
100
AcDbEntity
  8
$DDT_AUDIT_GENERATED_(8F)
  6
Continuous
 62
     7
100
AcDbSpline
210
0.0
220
0.0
230
1.0
 70
     8
 71
     3
 72
     8
 73
     4
 74
     0
 42
0.0000001191648788
 43
0.0000000001
 40
0.0
 40
0.0
 40
0.0
 40
0.0
 40
0.2876205420401844
 40
0.2876205420401844
 40
0.2876205420401844
 40
0.2876205420401844
 10
48.42331094678453
 20
364.2834055389633
 30
0.0
 10
48.41971593771913
 20
364.2880693717169
 30
0.0
 10
48.41629157031021
 20
364.2955404327366
 30
0.0
 10
48.41323411518265
 20
364.3050923446429
 30
0.0
  0
SPLINE
  5
CD
330
5E
100
AcDbEntity
  8
$DDT_AUDIT_GENERATED_(8F)
  6
Continuous
 62
     7
100
AcDbSpline
210
0.0
220
0.0
230
1.0
 70
     8
 71
     3
 72
     8
 73
     4
 74
     0
 42
0.000000198153312
 43
0.0000000001
 40
0.754647436281962
 40
0.754647436281962
 40
0.754647436281962
 40
0.754647436281962
 40
1.0
 40
1.0
 40
1.0
 40
1.0
 10
53.86912534803015
 20
364.7684839422292
 30
0.0
 10
53.86564663983508
 20
364.7681627601132
 30
0.0
 10
53.86227253048772
 20
364.7699750041435
 30
0.0
 10
53.8591811443028
 20
364.7739789208348
 30
0.0
  0
SPLINE
  5
CE
330
5E
100
AcDbEntity
  8
$DDT_AUDIT_GENERATED_(8F)
  6
Continuous
 62
     7
100
AcDbSpline
210
0.0
220
0.0
230
1.0
 70
    12
 71
     2
 72
     6
 73
     3
 74
     0
 42
0.0000011113404023
 43
0.0000000001
 40
0.0
 40
0.0
 40
0.0
 40
1.0
 40
1.0
 40
1.0
 10
53.85918114430282
 20
364.7739789208348
 30
0.0
 41
1.0
 10
53.85644410094525
 20
364.7775238980486
 30
0.0
 41
1.0
 10
53.8536320400362
 20
364.7810620003522
 30
0.0
 41
1.0
  0
SPLINE
  5
CF
330
5E
100
AcDbEntity
  8
$DDT_AUDIT_GENERATED_(8F)
  6
Continuous
 62
     7
100
AcDbSpline
210
0.0
220
0.0
230
1.0
 70
     8
 71
     3
 72
    10
 73
     6
 74
     0
 42
0.0000000826940923
 43
0.0000000001
 40
0.0
 40
0.0
 40
0.0
 40
0.0
 40
0.5
 40
0.5
 40
1.0
 40
1.0
 40
1.0
 40
1.0
 10
53.85363204003618
 20
364.7810620003522
 30
0.0
 10
53.84716184838945
 20
364.7892027201696
 30
0.0
 10
53.84218088732646
 20
364.8060674015917
 30
0.0
 10
53.83770077353191
 20
364.8490081696301
 30
0.0
 10
53.83829017223563
 20
364.8745670807913
 30
0.0
 10
53.8417860726993
 20
364.8985177125143
 30
0.0
  0
SPLINE
  5
D0
330
5E
100
AcDbEntity
  8
$DDT_AUDIT_GENERATED_(8F)
  6
Continuous
 62
     7
100
AcDbSpline
210
0.0
220
0.0
230
1.0
 70
    12
 71
     2
 72
     6
 73
     3
 74
     0
 42
0.0000000098549138
 43
0.0000000001
 40
0.0
 40
0.0
 40
0.0
 40
0.3091162289858537
 40
0.3091162289858537
 40
0.3091162289858537
 10
53.84178607269927
 20
364.8985177125143
 30
0.0
 41
1.0
 10
53.86443185767752
 20
365.053712487317
 30
0.0
 41
1.0
 10
53.88691536079073
 20
365.2089212806644
 30
0.0
 41
1.0
  0
SPLINE
  5
D1
330
5E
100
AcDbEntity
  8
$DDT_AUDIT_GENERATED_(8F)
  6
Continuous
 62
     7
100
AcDbSpline
210
0.0
220
0.0
230
1.0
 70
     8
 71
     3
 72
     8
 73
     4
 74
     0
 42
0.0000000774085701
 43
0.0000000001
 40
0.5706138267800559
 40
0.5706138267800559
 40
0.5706138267800559
 40
0.5706138267800559
 40
1.0
 40
1.0
 40
1.0
 40
1.0
 10
52.53915385998126
 20
365.3990359306307
 30
0.0
 10
52.52356858253415
 20
365.3898456109981
 30
0.0
 10
52.50514030608721
 20
365.3866403293466
 30
0.0
 10
52.48682782846819
 20
365.3902867241819
 30
0.0
  0
LINE
  5
D2
330
5E
100
AcDbEntity
  8
$DDT_AUDIT_GENERATED_(8F)
  6
Continuous
 62
     7
100
AcDbLine
 10
52.4868278285
 20
365.3902867242
 30
0.0
 11
52.4682601637
 21
365.3939531959
 31
0.0
  0
ARC
  5
D3
330
5E
100
AcDbEntity
  8
$DDT_AUDIT_GENERATED_(8F)
  6
Continuous
 62
     7
100
AcDbCircle
 10
52.4951537076
 20
365.4962648887
 30
0.0
 40
0.1057872637613869
100
AcDbArc
 50
181.9645335884
 51
255.272457416
  0
ARC
  5
D4
330
5E
100
AcDbEntity
  8
$DDT_AUDIT_GENERATED_(8F)
  6
Continuous
 62
     7
100
AcDbCircle
 10
50.2311874813
 20
365.5970849276
 30
0.0
 40
0.1034918552749546
100
AcDbArc
 50
276.1344981783
 51
333.2395969169
  0
LINE
  5
D5
330
5E
100
AcDbEntity
  8
$DDT_AUDIT_GENERATED_(8F)
  6
Continuous
 62
     7
100
AcDbLine
 10
50.2422469055
 20
365.4941856893
 30
0.0
 11
50.2215373664
 21
365.4922877839
 31
0.0
  0
ARC
  5
D6
330
5E
100
AcDbEntity
  8
$DDT_AUDIT_GENERATED_(8F)
  6
Continuous
 62
     7
100
AcDbCircle
 10
50.213006579
 20
365.5838754075
 30
0.0
 40
0.0919840591991277
100
AcDbArc
 50
218.5162079671
 51
275.3213732428
  0
SPLINE
  5
D7
330
5E
100
AcDbEntity
  8
$DDT_AUDIT_GENERATED_(8F)
  6
Continuous
 62
     7
100
AcDbSpline
210
0.0
220
0.0
230
1.0
 70
    12
 71
     2
 72
     6
 73
     3
 74
     0
 42
0.0000000098020726
 43
0.0000000001
 40
0.842069084403577
 40
0.842069084403577
 40
0.842069084403577
 40
1.0
 40
1.0
 40
1.0
 10
48.4616809167447
 20
365.3003972072626
 30
0.0
 41
1.0
 10
48.46958525879702
 20
365.2202278346369
 30
0.0
 41
1.0
 10
48.47752781452789
 20
365.1400584931978
 30
0.0
 41
1.0
  0
SPLINE
  5
D8
330
5E
100
AcDbEntity
  8
$DDT_AUDIT_GENERATED_(8F)
  6
Continuous
 62
     7
100
AcDbSpline
210
0.0
220
0.0
230
1.0
 70
     8
 71
     3
 72
    10
 73
     6
 74
     0
 42
0.0000000780501573
 43
0.0000000001
 40
0.0
 40
0.0
 40
0.0
 40
0.0
 40
0.5
 40
0.5
 40
1.0
 40
1.0
 40
1.0
 40
1.0
 10
48.47752781456841
 20
365.1400584932131
 30
0.0
 10
48.47992867025443
 20
365.1158346494393
 30
0.0
 10
48.47734499722498
 20
365.0904665408323
 30
0.0
 10
48.46360923987942
 20
365.0482297215655
 30
0.0
 10
48.45269807325202
 20
365.0321064554638
 30
0.0
 10
48.44028343821159
 20
365.0248132115145
 30
0.0
  0
SPLINE
  5
D9
330
5E
100
AcDbEntity
  8
$DDT_AUDIT_GENERATED_(8F)
  6
Continuous
 62
     7
100
AcDbSpline
210
0.0
220
0.0
230
1.0
 70
    12
 71
     2
 72
     6
 73
     3
 74
     0
 42
0.0000008025709941
 43
0.0000000001
 40
0.0
 40
0.0
 40
0.0
 40
1.0
 40
1.0
 40
1.0
 10
48.4402834382116
 20
365.0248132115145
 30
0.0
 41
1.0
 10
48.43488978563937
 20
365.0216445944863
 30
0.0
 41
1.0
 10
48.4295633919638
 20
365.0184626961518
 30
0.0
 41
1.0
  0
SPLINE
  5
DA
330
5E
100
AcDbEntity
  8
$DDT_AUDIT_GENERATED_(8F)
  6
Continuous
 62
     7
100
AcDbSpline
210
0.0
220
0.0
230
1.0
 70
     8
 71
     3
 72
     8
 73
     4
 74
     0
 42
0.0000001253954834
 43
0.0000000001
 40
0.0
 40
0.0
 40
0.0
 40
0.0
 40
0.2709621990577912
 40
0.2709621990577912
 40
0.2709621990577912
 40
0.2709621990577912
 10
48.42956339196379
 20
365.0184626961518
 30
0.0
 10
48.42292191932966
 20
365.0144951916824
 30
0.0
 10
48.4160149441912
 20
365.01323166281
 30
0.0
 10
48.40929287331693
 20
365.0145530676784
 30
0.0
  0
SPLINE
  5
DB
330
5E
100
AcDbEntity
  8
$DDT_AUDIT_GENERATED_(8F)
  6
Continuous
 62
     7
100
AcDbSpline
210
0.0
220
0.0
230
1.0
 70
    12
 71
     2
 72
     6
 73
     3
 74
     0
 42
0.0000000101125618
 43
0.0000000001
 40
0.5780349646759958
 40
0.5780349646759958
 40
0.5780349646759958
 40
1.0
 40
1.0
 40
1.0
 10
57.00150877695641
 20
364.5058526795194
 30
0.0
 41
1.0
 10
56.9958350880397
 20
364.2972901371309
 30
0.0
 41
1.0
 10
56.98997725650393
 20
364.0887439014948
 30
0.0
 41
1.0
  0
ARC
  5
DC
330
5E
100
AcDbEntity
  8
$DDT_AUDIT_GENERATED_(8F)
  6
Continuous
 62
     7
100
AcDbCircle
 10
56.7370164897
 20
364.0818750732
 30
0.0
 40
0.2530540069532808
100
AcDbArc
 50
334.3847465184
 51
1.5554119379
  0
LINE
  5
DD
330
5E
100
AcDbEntity
  8
$DDT_AUDIT_GENERATED_(8F)
  6
Continuous
 62
     7
100
AcDbLine
 10
56.9651997069
 20
363.9724732915
 30
0.0
 11
56.9596506026
 21
363.965390212
 31
0.0
  0
SPLINE
  5
DE
330
5E
100
AcDbEntity
  8
$DDT_AUDIT_GENERATED_(8F)
  6
Continuous
 62
     7
100
AcDbSpline
210
0.0
220
0.0
230
1.0
 70
     8
 71
     3
 72
     8
 73
     4
 74
     0
 42
0.000000210428718
 43
0.0000000001
 40
0.0
 40
0.0
 40
0.0
 40
0.0
 40
0.2467410368788233
 40
0.2467410368788233
 40
0.2467410368788233
 40
0.2467410368788233
 10
56.95965060262846
 20
363.9653902120194
 30
0.0
 10
56.95649955367191
 20
363.9613958484025
 30
0.0
 10
56.95334716583579
 20
363.9595566320124
 30
0.0
 10
56.95037131513605
 20
363.9598291654063
 30
0.0
  0
SPLINE
  5
DF
330
5E
100
AcDbEntity
  8
$DDT_AUDIT_GENERATED_(8F)
  6
Continuous
 62
     7
100
AcDbSpline
210
0.0
220
0.0
230
1.0
 70
    12
 71
     2
 72
     6
 73
     3
 74
     0
 42
0.0000000101386518
 43
0.0000000001
 40
0.5609827955550503
 40
0.5609827955550503
 40
0.5609827955550503
 40
1.0
 40
1.0
 40
1.0
 10
56.42400775068798
 20
364.0080283840471
 30
0.0
 41
1.0
 10
56.41196299757443
 20
363.7918446639105
 30
0.0
 41
1.0
 10
56.39973951431647
 20
363.5756956181727
 30
0.0
 41
1.0
  0
SPLINE
  5
E0
330
5E
100
AcDbEntity
  8
$DDT_AUDIT_GENERATED_(8F)
  6
Continuous
 62
     7
100
AcDbSpline
210
0.0
220
0.0
230
1.0
 70
     8
 71
     3
 72
    10
 73
     6
 74
     0
 42
0.0000000780210202
 43
0.0000000001
 40
0.0
 40
0.0
 40
0.0
 40
0.0
 40
0.5
 40
0.5
 40
1.0
 40
1.0
 40
1.0
 40
1.0
 10
56.3997395138546
 20
363.5756956179978
 30
0.0
 10
56.3983984158774
 20
363.5519807415639
 30
0.0
 10
56.39266946707492
 20
363.5270711287426
 30
0.0
 10
56.37492167569225
 20
363.4857966339985
 30
0.0
 10
56.36312025943583
 20
363.4700075315042
 30
0.0
 10
56.35090099851506
 20
363.4627397781335
 30
0.0
  0
LINE
  5
E1
330
5E
100
AcDbEntity
  8
$DDT_AUDIT_GENERATED_(8F)
  6
Continuous
 62
     7
100
AcDbLine
 10
56.3509009985
 20
363.4627397781
 30
0.0
 11
56.3401809523
 21
363.4563892628
 31
0.0
  0
SPLINE
  5
E2
330
5E
100
AcDbEntity
  8
$DDT_AUDIT_GENERATED_(8F)
  6
Continuous
 62
     7
100
AcDbSpline
210
0.0
220
0.0
230
1.0
 70
     8
 71
     3
 72
     8
 73
     4
 74
     0
 42
0.0000001306864332
 43
0.0000000001
 40
0.0
 40
0.0
 40
0.0
 40
0.0
 40
0.2725546114839034
 40
0.2725546114839034
 40
0.2725546114839034
 40
0.2725546114839034
 10
56.34018095226726
 20
363.4563892627708
 30
0.0
 10
56.33347994201533
 20
363.4524354768183
 30
0.0
 10
56.32682400696488
 20
363.4511094047238
 30
0.0
 10
56.32065362952221
 20
363.4523219246795
 30
0.0
  0
SPLINE
  5
E3
330
5E
100
AcDbEntity
  8
$DDT_AUDIT_GENERATED_(8F)
  6
Continuous
 62
     7
100
AcDbSpline
210
0.0
220
0.0
230
1.0
 70
    12
 71
     2
 72
     6
 73
     3
 74
     0
 42
0.0000000101839288
 43
0.0000000001
 40
0.5036904206602264
 40
0.5036904206602264
 40
0.5036904206602264
 40
1.0
 40
1.0
 40
1.0
 10
55.48079627914155
 20
363.6181262078332
 30
0.0
 41
1.0
 10
55.4611771039865
 20
363.375220433752
 30
0.0
 41
1.0
 10
55.44137139486991
 20
363.1323776593045
 30
0.0
 41
1.0
  0
ARC
  5
E4
330
5E
100
AcDbEntity
  8
$DDT_AUDIT_GENERATED_(8F)
  6
Continuous
 62
     7
100
AcDbCircle
 10
55.3160259408
 20
363.1371060073
 30
0.0
 40
0.1254346049969313
100
AcDbArc
 50
296.4008150137
 51
357.8396824068
  0
LINE
  5
E5
330
5E
100
AcDbEntity
  8
$DDT_AUDIT_GENERATED_(8F)
  6
Continuous
 62
     7
100
AcDbLine
 10
55.371800177
 20
363.0247535498
 30
0.0
 11
55.3566397422
 21
363.0195683757
 31
0.0
  0
SPLINE
  5
E6
330
5E
100
AcDbEntity
  8
$DDT_AUDIT_GENERATED_(8F)
  6
Continuous
 62
     7
100
AcDbSpline
210
0.0
220
0.0
230
1.0
 70
     8
 71
     3
 72
     8
 73
     4
 74
     0
 42
0.0000000966234118
 43
0.0000000001
 40
0.0
 40
0.0
 40
0.0
 40
0.0
 40
0.3260130677192413
 40
0.3260130677192413
 40
0.3260130677192413
 40
0.3260130677192413
 10
55.3566397422256
 20
363.019568375711
 30
0.0
 10
55.34531870736812
 20
363.0157097744369
 30
0.0
 10
55.3341245973664
 20
363.0156021487378
 30
0.0
 10
55.32410340159191
 20
363.0190119361628
 30
0.0
  0
SPLINE
  5
E7
330
5E
100
AcDbEntity
  8
$DDT_AUDIT_GENERATED_(8F)
  6
Continuous
 62
     7
100
AcDbSpline
210
0.0
220
0.0
230
1.0
 70
    12
 71
     2
 72
     6
 73
     3
 74
     0
 42
0.0000000102503096
 43
0.0000000001
 40
0.8840905316080494
 40
0.8840905316080494
 40
0.8840905316080494
 40
1.0
 40
1.0
 40
1.0
 10
54.19159388558209
 20
362.901503301466
 30
0.0
 41
1.0
 10
54.18589259160665
 20
362.8452502471851
 30
0.0
 41
1.0
 10
54.18018410172671
 20
362.7890014111692
 30
0.0
 41
1.0
  0
ARC
  5
E8
330
5E
100
AcDbEntity
  8
$DDT_AUDIT_GENERATED_(8F)
  6
Continuous
 62
     7
100
AcDbCircle
 10
54.0656238521
 20
362.7997081956
 30
0.0
 40
0.1150594908806437
100
AcDbArc
 50
284.597180755
 51
354.660654741
  0
LINE
  5
E9
330
5E
100
AcDbEntity
  8
$DDT_AUDIT_GENERATED_(8F)
  6
Continuous
 62
     7
100
AcDbLine
 10
54.0946213453
 20
362.6883626442
 30
0.0
 11
54.0760536806
 21
362.6846961724
 31
0.0
  0
ARC
  5
EA
330
5E
100
AcDbEntity
  8
$DDT_AUDIT_GENERATED_(8F)
  6
Continuous
 62
     7
100
AcDbCircle
 10
54.0609567399
 20
362.7545958414
 30
0.0
 40
0.0715114071151532
100
AcDbArc
 50
239.7495180128
 51
282.1875463557
  0
SPLINE
  5
EB
330
5E
100
AcDbEntity
  8
$DDT_AUDIT_GENERATED_(8F)
  6
Continuous
 62
     7
100
AcDbSpline
210
0.0
220
0.0
230
1.0
 70
    12
 71
     2
 72
     6
 73
     3
 74
     0
 42
0.0000000103360846
 43
0.0000000001
 40
0.9970579621936478
 40
0.9970579621936478
 40
0.9970579621936478
 40
1.0
 40
1.0
 40
1.0
 10
52.7024504802737
 20
362.5717951561808
 30
0.0
 41
1.0
 10
52.70228797368942
 20
362.5703812753838
 30
0.0
 41
1.0
 10
52.70212546470369
 20
362.5689673976213
 30
0.0
 41
1.0
  0
ARC
  5
EC
330
5E
100
AcDbEntity
  8
$DDT_AUDIT_GENERATED_(8F)
  6
Continuous
 62
     7
100
AcDbCircle
 10
52.5956546856
 20
362.5833967645
 30
0.0
 40
0.1074440942721719
100
AcDbArc
 50
275.7407972176
 51
352.2820575767
  0
LINE
  5
ED
330
5E
100
AcDbEntity
  8
$DDT_AUDIT_GENERATED_(8F)
  6
Continuous
 62
     7
100
AcDbLine
 10
52.6064021302
 20
362.4764915456
 30
0.0
 11
52.5856925912
 21
362.4745936401
 31
0.0
  0
ARC
  5
EE
330
5E
100
AcDbEntity
  8
$DDT_AUDIT_GENERATED_(8F)
  6
Continuous
 62
     7
100
AcDbCircle
 10
52.5749660822
 20
362.5600777238
 30
0.0
 40
0.0861544343828762
100
AcDbArc
 50
217.8393444857
 51
277.1520713081
  0
ARC
  5
EF
330
5E
100
AcDbEntity
  8
$DDT_AUDIT_GENERATED_(8F)
  6
Continuous
 62
     7
100
AcDbCircle
 10
51.010749241
 20
362.5018097311
 30
0.0
 40
0.0982551550911461
100
AcDbArc
 50
268.7245667788
 51
334.7362161944
  0
LINE
  5
F0
330
5E
100
AcDbEntity
  8
$DDT_AUDIT_GENERATED_(8F)
  6
Continuous
 62
     7
100
AcDbLine
 10
50.9871221193
 20
362.4035789192
 30
0.0
 11
51.0085622118
 21
362.4035789192
 31
0.0
  0
ARC
  5
F1
330
5E
100
AcDbEntity
  8
$DDT_AUDIT_GENERATED_(8F)
  6
Continuous
 62
     7
100
AcDbCircle
 10
50.9849363065
 20
362.5018111751
 30
0.0
 40
0.0982565716715775
100
AcDbArc
 50
205.2484336284
 51
271.2747054225
  0
ARC
  5
F2
330
5E
100
AcDbEntity
  8
$DDT_AUDIT_GENERATED_(8F)
  6
Continuous
 62
     7
100
AcDbCircle
 10
49.4207190105
 20
362.5600767436
 30
0.0
 40
0.0861535566113171
100
AcDbArc
 50
262.8473450654
 51
322.1547438215
  0
LINE
  5
F3
330
5E
100
AcDbEntity
  8
$DDT_AUDIT_GENERATED_(8F)
  6
Continuous
 62
     7
100
AcDbLine
 10
49.40999174
 20
362.4745936401
 30
0.0
 11
49.3892822009
 21
362.4764915456
 31
0.0
  0
ARC
  5
F4
330
5E
100
AcDbEntity
  8
$DDT_AUDIT_GENERATED_(8F)
  6
Continuous
 62
     7
100
AcDbCircle
 10
49.4000299788
 20
362.58339711
 30
0.0
 40
0.1074444713698549
100
AcDbArc
 50
187.7181011031
 51
264.2590444327
  0
SPLINE
  5
F5
330
5E
100
AcDbEntity
  8
$DDT_AUDIT_GENERATED_(8F)
  6
Continuous
 62
     7
100
AcDbSpline
210
0.0
220
0.0
230
1.0
 70
    12
 71
     2
 72
     6
 73
     3
 74
     0
 42
0.0000000103360846
 43
0.0000000001
 40
0.0
 40
0.0
 40
0.0
 40
0.0029404172109938
 40
0.0029404172109938
 40
0.0029404172109938
 10
49.29355886611726
 20
362.5689673976149
 30
0.0
 41
1.0
 10
49.29339644664817
 20
362.5703804965555
 30
0.0
 41
1.0
 10
49.29323402957786
 20
362.5717935985271
 30
0.0
 41
1.0
  0
ARC
  5
F6
330
5E
100
AcDbEntity
  8
$DDT_AUDIT_GENERATED_(8F)
  6
Continuous
 62
     7
100
AcDbCircle
 10
47.9347269141
 20
362.7545967216
 30
0.0
 40
0.0715121244940242
100
AcDbArc
 50
257.8131328198
 51
300.2378086795
  0
LINE
  5
F7
330
5E
100
AcDbEntity
  8
$DDT_AUDIT_GENERATED_(8F)
  6
Continuous
 62
     7
100
AcDbLine
 10
47.9010629858
 20
362.6883626442
 30
0.0
 11
47.9196306506
 21
362.6846961724
 31
0.0
  0
ARC
  5
F8
330
5E
100
AcDbEntity
  8
$DDT_AUDIT_GENERATED_(8F)
  6
Continuous
 62
     7
100
AcDbCircle
 10
47.9300580308
 20
362.7997061118
 30
0.0
 40
0.1150568573477711
100
AcDbArc
 50
185.3384257046
 51
255.4037375988
  0
SPLINE
  5
F9
330
5E
100
AcDbEntity
  8
$DDT_AUDIT_GENERATED_(8F)
  6
Continuous
 62
     7
100
AcDbSpline
210
0.0
220
0.0
230
1.0
 70
    12
 71
     2
 72
     6
 73
     3
 74
     0
 42
0.0000000102503096
 43
0.0000000001
 40
0.8840892408940557
 40
0.8840892408940557
 40
0.8840892408940557
 40
1.0
 40
1.0
 40
1.0
 10
47.80409031860397
 20
362.9015045542814
 30
0.0
 41
1.0
 10
47.80979167598623
 20
362.8452508735459
 30
0.0
 41
1.0
 10
47.81550022943324
 20
362.7890014111692
 30
0.0
 41
1.0
  0
SPLINE
  5
FA
330
5E
100
AcDbEntity
  8
$DDT_AUDIT_GENERATED_(8F)
  6
Continuous
 62
     7
100
AcDbSpline
210
0.0
220
0.0
230
1.0
 70
     8
 71
     3
 72
     8
 73
     4
 74
     0
 42
0.000000096578091
 43
0.0000000001
 40
0.6743140250675161
 40
0.6743140250675161
 40
0.6743140250675161
 40
0.6743140250675161
 40
1.0
 40
1.0
 40
1.0
 40
1.0
 10
46.67156539284969
 20
363.0190093894733
 30
0.0
 10
46.66154651650132
 20
363.0156057610148
 30
0.0
 10
46.65035426438302
 20
363.0157136461173
 30
0.0
 10
46.63904458893429
 20
363.0195683757111
 30
0.0
  0
LINE
  5
FB
330
5E
100
AcDbEntity
  8
$DDT_AUDIT_GENERATED_(8F)
  6
Continuous
 62
     7
100
AcDbLine
 10
46.6390445889
 20
363.0195683757
 30
0.0
 11
46.6238841541
 21
363.0247535498
 31
0.0
  0
ARC
  5
FC
330
5E
100
AcDbEntity
  8
$DDT_AUDIT_GENERATED_(8F)
  6
Continuous
 62
     7
100
AcDbCircle
 10
46.6796503027
 20
363.1371007794
 30
0.0
 40
0.1254263262520923
100
AcDbArc
 50
182.1580703936
 51
243.6014323233
  0
SPLINE
  5
FD
330
5E
100
AcDbEntity
  8
$DDT_AUDIT_GENERATED_(8F)
  6
Continuous
 62
     7
100
AcDbSpline
210
0.0
220
0.0
230
1.0
 70
    12
 71
     2
 72
     6
 73
     3
 74
     0
 42
0.0000000101839288
 43
0.0000000001
 40
0.0
 40
0.0
 40
0.0
 40
0.4963095792992893
 40
0.4963095792992893
 40
0.4963095792992893
 10
46.55431293611332
 20
363.1323776593382
 30
0.0
 41
1.0
 10
46.53450722699904
 20
363.375220433758
 30
0.0
 41
1.0
 10
46.5148880518456
 20
363.6181262078192
 30
0.0
 41
1.0
  0
SPLINE
  5
FE
330
5E
100
AcDbEntity
  8
$DDT_AUDIT_GENERATED_(8F)
  6
Continuous
 62
     7
100
AcDbSpline
210
0.0
220
0.0
230
1.0
 70
     8
 71
     3
 72
     8
 73
     4
 74
     0
 42
0.0000001306337968
 43
0.0000000001
 40
0.7274463738588763
 40
0.7274463738588763
 40
0.7274463738588763
 40
0.7274463738588763
 40
1.0
 40
1.0
 40
1.0
 40
1.0
 10
45.67503900279954
 20
363.452326685116
 30
0.0
 10
45.66886488778645
 20
363.4511112911155
 30
0.0
 10
45.66220436440587
 20
363.4524354914148
 30
0.0
 10
45.65550337889264
 20
363.4563892627708
 30
0.0
  0
LINE
  5
FF
330
5E
100
AcDbEntity
  8
$DDT_AUDIT_GENERATED_(8F)
  6
Continuous
 62
     7
100
AcDbLine
 10
45.6555033789
 20
363.4563892628
 30
0.0
 11
45.6447833326
 21
363.4627397781
 31
0.0
  0
SPLINE
  5
100
330
5E
100
AcDbEntity
  8
$DDT_AUDIT_GENERATED_(8F)
  6
Continuous
 62
     7
100
AcDbSpline
210
0.0
220
0.0
230
1.0
 70
     8
 71
     3
 72
    10
 73
     6
 74
     0
 42
0.0000000780210123
 43
0.0000000001
 40
0.0
 40
0.0
 40
0.0
 40
0.0
 40
0.5
 40
0.5
 40
1.0
 40
1.0
 40
1.0
 40
1.0
 10
45.64478333264485
 20
363.4627397781335
 30
0.0
 10
45.63256407076393
 20
363.4700075320753
 30
0.0
 10
45.62077764312156
 20
363.4857722450772
 30
0.0
 10
45.60302440106091
 20
363.5270384973163
 30
0.0
 10
45.59728591480621
 20
363.5519807499865
 30
0.0
 10
45.59594481673199
 20
363.5756956182148
 30
0.0
  0
SPLINE
  5
101
330
5E
100
AcDbEntity
  8
$DDT_AUDIT_GENERATED_(8F)
  6
Continuous
 62
     7
100
AcDbSpline
210
0.0
220
0.0
230
1.0
 70
    12
 71
     2
 72
     6
 73
     3
 74
     0
 42
0.0000000101386518
 43
0.0000000001
 40
0.0
 40
0.0
 40
0.0
 40
0.4390172043841838
 40
0.4390172043841838
 40
0.4390172043841838
 10
45.59594481673199
 20
363.5756956182148
 30
0.0
 41
1.0
 10
45.58372133347511
 20
363.7918446639332
 30
0.0
 41
1.0
 10
45.57167658036312
 20
364.0080283840412
 30
0.0
 41
1.0
  0
SPLINE
  5
102
330
5E
100
AcDbEntity
  8
$DDT_AUDIT_GENERATED_(8F)
  6
Continuous
 62
     7
100
AcDbSpline
210
0.0
220
0.0
230
1.0
 70
     8
 71
     3
 72
     8
 73
     4
 74
     0
 42
0.0000002103694524
 43
0.0000000001
 40
0.7533006734172961
 40
0.7533006734172961
 40
0.7533006734172961
 40
0.7533006734172961
 40
1.0
 40
1.0
 40
1.0
 40
1.0
 10
45.04531535416462
 20
363.9598325038032
 30
0.0
 10
45.04233809412153
 20
363.9595585316417
 30
0.0
 10
45.03918424457328
 20
363.9613965239411
 30
0.0
 10
45.03603372853147
 20
363.9653902120194
 30
0.0
  0
LINE
  5
103
330
5E
100
AcDbEntity
  8
$DDT_AUDIT_GENERATED_(8F)
  6
Continuous
 62
     7
100
AcDbLine
 10
45.0360337285
 20
363.965390212
 30
0.0
 11
45.0304846243
 21
363.9724732915
 31
0.0
  0
ARC
  5
104
330
5E
100
AcDbEntity
  8
$DDT_AUDIT_GENERATED_(8F)
  6
Continuous
 62
     7
100
AcDbCircle
 10
45.2586181287
 20
364.0818644786
 30
0.0
 40
0.2530046000802572
100
AcDbArc
 50
178.4418841466
 51
205.6179571381
  0
SPLINE
  5
105
330
5E
100
AcDbEntity
  8
$DDT_AUDIT_GENERATED_(8F)
  6
Continuous
 62
     7
100
AcDbSpline
210
0.0
220
0.0
230
1.0
 70
    12
 71
     2
 72
     6
 73
     3
 74
     0
 42
0.0000000101125618
 43
0.0000000001
 40
0.0
 40
0.0
 40
0.0
 40
0.4219650354543462
 40
0.4219650354543462
 40
0.4219650354543462
 10
45.0057070747936
 20
364.0887439013759
 30
0.0
 41
1.0
 10
44.9998492432562
 20
364.2972901370708
 30
0.0
 41
1.0
 10
44.99417555433781
 20
364.5058526795229
 30
0.0
 41
1.0
  0
LINE
  5
106
330
5E
100
AcDbEntity
  8
$DDT_AUDIT_GENERATED_(8F)
  6
Continuous
 62
     7
100
AcDbLine
 10
57.4697563642
 20
364.5118836499
 30
0.0
 11
57.4697563642
 21
364.5192165934
 31
0.0
  0
ARC
  5
107
330
5E
100
AcDbEntity
  8
$DDT_AUDIT_GENERATED_(8F)
  6
Continuous
 62
     7
100
AcDbCircle
 10
58.3567952307
 20
364.4620970515
 30
0.0
 40
0.8888760277421502
100
AcDbArc
 50
168.6809213803
 51
176.3156107696
  0
ARC
  5
108
330
5E
100
AcDbEntity
  8
$DDT_AUDIT_GENERATED_(8F)
  6
Continuous
 62
     7
100
AcDbCircle
 10
-490.2237959785
 20
466.8969833852
 30
0.0
 40
557.1735347835726
100
AcDbArc
 50
349.4243123005
 51
349.4736129751
  0
SPLINE
  5
109
330
5E
100
AcDbEntity
  8
$DDT_AUDIT_GENERATED_(8F)
  6
Continuous
 62
     7
100
AcDbSpline
210
0.0
220
0.0
230
1.0
 70
     8
 71
     3
 72
     8
 73
     4
 74
     0
 42
0.000000195527199
 43
0.0000000001
 40
0.7547661922595984
 40
0.7547661922595984
 40
0.7547661922595984
 40
0.7547661922595984
 40
1.0
 40
1.0
 40
1.0
 40
1.0
 10
57.2621306755811
 20
365.0794320860088
 30
0.0
 10
57.25856184038077
 20
365.079102423209
 30
0.0
 10
57.25512133266891
 20
365.080907706406
 30
0.0
 10
57.25200578768122
 20
365.084911014378
 30
0.0
  0
LINE
  5
10A
330
5E
100
AcDbEntity
  8
$DDT_AUDIT_GENERATED_(8F)
  6
Continuous
 62
     7
100
AcDbLine
 10
57.2520057877
 20
365.0849110144
 30
0.0
 11
57.2464566834
 21
365.0919940939
 31
0.0
  0
SPLINE
  5
10B
330
5E
100
AcDbEntity
  8
$DDT_AUDIT_GENERATED_(8F)
  6
Continuous
 62
     7
100
AcDbSpline
210
0.0
220
0.0
230
1.0
 70
     8
 71
     3
 72
    10
 73
     6
 74
     0
 42
0.0000000827156902
 43
0.0000000001
 40
0.0
 40
0.0
 40
0.0
 40
0.0
 40
0.5
 40
0.5
 40
1.0
 40
1.0
 40
1.0
 40
1.0
 10
57.2464566834146
 20
365.0919940938954
 30
0.0
 10
57.24002822098485
 20
365.1001455859709
 30
0.0
 10
57.23527522069712
 20
365.1170525841832
 30
0.0
 10
57.23129497585467
 20
365.160021225397
 30
0.0
 10
57.23211790010016
 20
365.1855825795167
 30
0.0
 10
57.23566582047501
 20
365.209546499806
 30
0.0
  0
SPLINE
  5
10C
330
5E
100
AcDbEntity
  8
$DDT_AUDIT_GENERATED_(8F)
  6
Continuous
 62
     7
100
AcDbSpline
210
0.0
220
0.0
230
1.0
 70
    12
 71
     2
 72
     6
 73
     3
 74
     0
 42
0.0000000098484301
 43
0.0000000001
 40
0.0
 40
0.0
 40
0.0
 40
0.4263100488614666
 40
0.4263100488614666
 40
0.4263100488614666
 10
57.23566582047499
 20
365.2095464998061
 30
0.0
 41
1.0
 10
57.26736254846884
 20
365.4236530835378
 30
0.0
 41
1.0
 10
57.29890121460988
 20
365.6377738041235
 30
0.0
 41
1.0
  0
SPLINE
  5
10D
330
5E
100
AcDbEntity
  8
$DDT_AUDIT_GENERATED_(8F)
  6
Continuous
 62
     7
100
AcDbSpline
210
0.0
220
0.0
230
1.0
 70
     8
 71
     3
 72
     8
 73
     4
 74
     0
 42
0.0000001242750855
 43
0.0000000001
 40
0.729063186086646
 40
0.729063186086646
 40
0.729063186086646
 40
0.729063186086646
 40
1.0
 40
1.0
 40
1.0
 40
1.0
 10
56.6285123949556
 20
365.6152606316058
 30
0.0
 10
56.62169332847711
 20
365.6139169307042
 30
0.0
 10
56.61471606091148
 20
365.6151698839112
 30
0.0
 10
56.6080442958166
 20
365.6191373749029
 30
0.0
  0
LINE
  5
10E
330
5E
100
AcDbEntity
  8
$DDT_AUDIT_GENERATED_(8F)
  6
Continuous
 62
     7
100
AcDbLine
 10
56.6080442958
 20
365.6191373749
 30
0.0
 11
56.5973242496
 21
365.6254878903
 31
0.0
  0
SPLINE
  5
10F
330
5E
100
AcDbEntity
  8
$DDT_AUDIT_GENERATED_(8F)
  6
Continuous
 62
     7
100
AcDbSpline
210
0.0
220
0.0
230
1.0
 70
     8
 71
     3
 72
    10
 73
     6
 74
     0
 42
0.000000078131039
 43
0.0000000001
 40
0.0
 40
0.0
 40
0.0
 40
0.0
 40
0.5
 40
0.5
 40
1.0
 40
1.0
 40
1.0
 40
1.0
 10
56.5973242495688
 20
365.6254878902655
 30
0.0
 10
56.58494630201287
 20
365.6327925709724
 30
0.0
 10
56.57423102572184
 20
365.6490030666742
 30
0.0
 10
56.56097575871432
 20
365.6911956307007
 30
0.0
 10
56.55857938923732
 20
365.716686135833
 30
0.0
 10
56.56102585216349
 20
365.7409199709767
 30
0.0
  0
SPLINE
  5
110
330
5E
100
AcDbEntity
  8
$DDT_AUDIT_GENERATED_(8F)
  6
Continuous
 62
     7
100
AcDbSpline
210
0.0
220
0.0
230
1.0
 70
    12
 71
     2
 72
     6
 73
     3
 74
     0
 42
0.0000000097950349
 43
0.0000000001
 40
0.0
 40
0.0
 40
0.0
 40
0.1785456492881656
 40
0.1785456492881656
 40
0.1785456492881656
 10
56.56102585216347
 20
365.7409199709768
 30
0.0
 41
1.0
 10
56.570179487705
 20
365.8316012414988
 30
0.0
 41
1.0
 10
56.57930810952379
 20
365.9222826170086
 30
0.0
 41
1.0
  0
SPLINE
  5
111
330
5E
100
AcDbEntity
  8
$DDT_AUDIT_GENERATED_(8F)
  6
Continuous
 62
     7
100
AcDbSpline
210
0.0
220
0.0
230
1.0
 70
     8
 71
     3
 72
     8
 73
     4
 74
     0
 42
0.0000000928490251
 43
0.0000000001
 40
0.6761720908080332
 40
0.6761720908080332
 40
0.6761720908080332
 40
0.6761720908080332
 40
1.0
 40
1.0
 40
1.0
 40
1.0
 10
55.61538225365621
 20
366.0779768361841
 30
0.0
 10
55.60461513607503
 20
366.0743169334621
 30
0.0
 10
55.59304773241472
 20
366.0742815472737
 30
0.0
 10
55.58175680007373
 20
366.078156087885
 30
0.0
  0
LINE
  5
112
330
5E
100
AcDbEntity
  8
$DDT_AUDIT_GENERATED_(8F)
  6
Continuous
 62
     7
100
AcDbLine
 10
55.5817568001
 20
366.0781560879
 30
0.0
 11
55.5665963653
 21
366.083341262
 31
0.0
  0
SPLINE
  5
113
330
5E
100
AcDbEntity
  8
$DDT_AUDIT_GENERATED_(8F)
  6
Continuous
 62
     7
100
AcDbSpline
210
0.0
220
0.0
230
1.0
 70
     8
 71
     3
 72
    10
 73
     6
 74
     0
 42
0.0000000732389729
 43
0.0000000001
 40
0.0
 40
0.0
 40
0.0
 40
0.0
 40
0.5
 40
0.5
 40
1.0
 40
1.0
 40
1.0
 40
1.0
 10
55.56659636528083
 20
366.0833412619657
 30
0.0
 10
55.54911246930181
 20
366.0893013293639
 30
0.0
 10
55.53316514540301
 20
366.104311266641
 30
0.0
 10
55.51153818075878
 20
366.1449331602337
 30
0.0
 10
55.50608582614249
 20
366.1700702546822
 30
0.0
 10
55.50726411240828
 20
366.1944673037992
 30
0.0
  0
SPLINE
  5
114
330
5E
100
AcDbEntity
  8
$DDT_AUDIT_GENERATED_(8F)
  6
Continuous
 62
     7
100
AcDbSpline
210
0.0
220
0.0
230
1.0
 70
    12
 71
     2
 72
     6
 73
     3
 74
     0
 42
0.0000000097674784
 43
0.0000000001
 40
0.0
 40
0.0
 40
0.0
 40
0.0346553045657787
 40
0.0346553045657787
 40
0.0346553045657787
 10
55.50726411240829
 20
366.1944673037992
 30
0.0
 41
1.0
 10
55.50811976423468
 20
366.2121868612449
 30
0.0
 41
1.0
 10
55.50897464006801
 20
366.229906345272
 30
0.0
 41
1.0
  0
SPLINE
  5
115
330
5E
100
AcDbEntity
  8
$DDT_AUDIT_GENERATED_(8F)
  6
Continuous
 62
     7
100
AcDbSpline
210
0.0
220
0.0
230
1.0
 70
     8
 71
     3
 72
     8
 73
     4
 74
     0
 42
0.0000000770499689
 43
0.0000000001
 40
0.5707610731510082
 40
0.5707610731510082
 40
0.5707610731510082
 40
0.5707610731510082
 40
1.0
 40
1.0
 40
1.0
 40
1.0
 10
54.29562565816019
 20
366.4395632000658
 30
0.0
 10
54.27994023935859
 20
366.4303132356976
 30
0.0
 10
54.26142585775609
 20
366.4270498570002
 30
0.0
 10
54.24308309726722
 20
366.4306857865989
 30
0.0
  0
LINE
  5
116
330
5E
100
AcDbEntity
  8
$DDT_AUDIT_GENERATED_(8F)
  6
Continuous
 62
     7
100
AcDbLine
 10
54.2430830973
 20
366.4306857866
 30
0.0
 11
54.2245154325
 21
366.4343522584
 31
0.0
  0
ARC
  5
117
330
5E
100
AcDbEntity
  8
$DDT_AUDIT_GENERATED_(8F)
  6
Continuous
 62
     7
100
AcDbCircle
 10
54.2518678779
 20
366.5364649804
 30
0.0
 40
0.1057126495366607
100
AcDbArc
 50
206.8612854672
 51
255.004489759
  0
ARC
  5
118
330
5E
100
AcDbEntity
  8
$DDT_AUDIT_GENERATED_(8F)
  6
Continuous
 62
     7
100
AcDbCircle
 10
52.6915344346
 20
366.7448701069
 30
0.0
 40
0.0925393805915193
100
AcDbArc
 50
264.8648012954
 51
270.8242009827
  0
LINE
  5
119
330
5E
100
AcDbEntity
  8
$DDT_AUDIT_GENERATED_(8F)
  6
Continuous
 62
     7
100
AcDbLine
 10
52.683251588
 20
366.6527021547
 30
0.0
 11
52.6625420489
 21
366.6546000601
 31
0.0
  0
LINE
  5
11A
330
5E
100
AcDbEntity
  8
$DDT_AUDIT_GENERATED_(8F)
  6
Continuous
 62
     7
100
AcDbLine
 10
49.3331422822
 20
366.6546000601
 30
0.0
 11
49.3124327432
 21
366.6527021547
 31
0.0
  0
ARC
  5
11B
330
5E
100
AcDbEntity
  8
$DDT_AUDIT_GENERATED_(8F)
  6
Continuous
 62
     7
100
AcDbCircle
 10
49.304149297
 20
366.744869351
 30
0.0
 40
0.0925386813833419
100
AcDbArc
 50
271.4257215788
 51
275.1356103309
  0
ARC
  5
11C
330
5E
100
AcDbEntity
  8
$DDT_AUDIT_GENERATED_(8F)
  6
Continuous
 62
     7
100
AcDbCircle
 10
47.7438126295
 20
366.5364678331
 30
0.0
 40
0.105716394488947
100
AcDbArc
 50
284.9971119824
 51
333.2230428846
  0
LINE
  5
11D
330
5E
100
AcDbEntity
  8
$DDT_AUDIT_GENERATED_(8F)
  6
Continuous
 62
     7
100
AcDbLine
 10
47.7711688987
 20
366.4343522584
 30
0.0
 11
47.7526012339
 21
366.4306857866
 31
0.0
  0
SPLINE
  5
11E
330
5E
100
AcDbEntity
  8
$DDT_AUDIT_GENERATED_(8F)
  6
Continuous
 62
     7
100
AcDbSpline
210
0.0
220
0.0
230
1.0
 70
     8
 71
     3
 72
     8
 73
     4
 74
     0
 42
0.0000000770738588
 43
0.0000000001
 40
0.0
 40
0.0
 40
0.0
 40
0.0
 40
0.4294974157854823
 40
0.4294974157854823
 40
0.4294974157854823
 40
0.4294974157854823
 10
47.7526012338928
 20
366.4306857865989
 30
0.0
 10
47.7342552882215
 20
366.4270492256285
 30
0.0
 10
47.71571136039276
 20
366.4303359069278
 30
0.0
 10
47.70004267178682
 20
366.4395746163432
 30
0.0
  0
SPLINE
  5
11F
330
5E
100
AcDbEntity
  8
$DDT_AUDIT_GENERATED_(8F)
  6
Continuous
 62
     7
100
AcDbSpline
210
0.0
220
0.0
230
1.0
 70
    12
 71
     2
 72
     6
 73
     3
 74
     0
 42
0.0000000097674784
 43
0.0000000001
 40
0.9653446953910881
 40
0.9653446953910881
 40
0.9653446953910881
 40
1.0
 40
1.0
 40
1.0
 10
46.48670969099435
 20
366.2299063452961
 30
0.0
 41
1.0
 10
46.48756456682869
 20
366.2121868612479
 30
0.0
 41
1.0
 10
46.4884202186561
 20
366.1944673037812
 30
0.0
 41
1.0
  0
SPLINE
  5
120
330
5E
100
AcDbEntity
  8
$DDT_AUDIT_GENERATED_(8F)
  6
Continuous
 62
     7
100
AcDbSpline
210
0.0
220
0.0
230
1.0
 70
     8
 71
     3
 72
    10
 73
     6
 74
     0
 42
0.0000000732351913
 43
0.0000000001
 40
0.0
 40
0.0
 40
0.0
 40
0.0
 40
0.5
 40
0.5
 40
1.0
 40
1.0
 40
1.0
 40
1.0
 10
46.48842021865612
 20
366.1944673037812
 30
0.0
 10
46.48959896287239
 20
366.1700607745503
 30
0.0
 10
46.48418916676066
 20
366.1450294508397
 30
0.0
 10
46.46251062681224
 20
366.1042797219428
 30
0.0
 10
46.44657935342975
 20
366.0893038831581
 30
0.0
 10
46.42908796587918
 20
366.0833412619658
 30
0.0
  0
LINE
  5
121
330
5E
100
AcDbEntity
  8
$DDT_AUDIT_GENERATED_(8F)
  6
Continuous
 62
     7
100
AcDbLine
 10
46.4290879659
 20
366.083341262
 30
0.0
 11
46.4139275311
 21
366.0781560879
 31
0.0
  0
SPLINE
  5
122
330
5E
100
AcDbEntity
  8
$DDT_AUDIT_GENERATED_(8F)
  6
Continuous
 62
     7
100
AcDbSpline
210
0.0
220
0.0
230
1.0
 70
     8
 71
     3
 72
     8
 73
     4
 74
     0
 42
0.0000000928555577
 43
0.0000000001
 40
0.0
 40
0.0
 40
0.0
 40
0.0
 40
0.3239766704938848
 40
0.3239766704938848
 40
0.3239766704938848
 40
0.3239766704938848
 10
46.41392753108628
 20
366.078156087885
 30
0.0
 10
46.40263624997739
 20
366.0742814275923
 30
0.0
 10
46.39105548533622
 20
366.0743279314186
 30
0.0
 10
46.38028857902506
 20
366.0779878283243
 30
0.0
  0
SPLINE
  5
123
330
5E
100
AcDbEntity
  8
$DDT_AUDIT_GENERATED_(8F)
  6
Continuous
 62
     7
100
AcDbSpline
210
0.0
220
0.0
230
1.0
 70
    12
 71
     2
 72
     6
 73
     3
 74
     0
 42
0.0000000097950349
 43
0.0000000001
 40
0.8214543501864504
 40
0.8214543501864504
 40
0.8214543501864504
 40
1.0
 40
1.0
 40
1.0
 10
45.41637622001642
 20
365.9222826169373
 30
0.0
 41
1.0
 10
45.42550484186155
 20
365.8316012411649
 30
0.0
 41
1.0
 10
45.43465847742932
 20
365.7409199703828
 30
0.0
 41
1.0
  0
SPLINE
  5
124
330
5E
100
AcDbEntity
  8
$DDT_AUDIT_GENERATED_(8F)
  6
Continuous
 62
     7
100
AcDbSpline
210
0.0
220
0.0
230
1.0
 70
     8
 71
     3
 72
    10
 73
     6
 74
     0
 42
0.0000000781281799
 43
0.0000000001
 40
0.0
 40
0.0
 40
0.0
 40
0.0
 40
0.5
 40
0.5
 40
1.0
 40
1.0
 40
1.0
 40
1.0
 10
45.43465847742924
 20
365.7409199703828
 30
0.0
 10
45.43710589255939
 20
365.7166767191525
 30
0.0
 10
45.43473395742623
 20
365.6912950011565
 30
0.0
 10
45.42144903796192
 20
365.6489709443887
 30
0.0
 10
45.41074333288562
 20
365.6327957009029
 30
0.0
 10
45.3983600815912
 20
365.6254878902656
 30
0.0
  0
LINE
  5
125
330
5E
100
AcDbEntity
  8
$DDT_AUDIT_GENERATED_(8F)
  6
Continuous
 62
     7
100
AcDbLine
 10
45.3983600816
 20
365.6254878903
 30
0.0
 11
45.3876400353
 21
365.6191373749
 31
0.0
  0
SPLINE
  5
126
330
5E
100
AcDbEntity
  8
$DDT_AUDIT_GENERATED_(8F)
  6
Continuous
 62
     7
100
AcDbSpline
210
0.0
220
0.0
230
1.0
 70
     8
 71
     3
 72
     8
 73
     4
 74
     0
 42
0.0000001242841123
 43
0.0000000001
 40
0.0
 40
0.0
 40
0.0
 40
0.0
 40
0.270807165627911
 40
0.270807165627911
 40
0.270807165627911
 40
0.270807165627911
 10
45.3876400353434
 20
365.6191373749029
 30
0.0
 10
45.38097431895919
 20
365.6151734808912
 30
0.0
 10
45.37399656939627
 20
365.6139261597668
 30
0.0
 10
45.36718129603764
 20
365.615266043939
 30
0.0
  0
SPLINE
  5
127
330
5E
100
AcDbEntity
  8
$DDT_AUDIT_GENERATED_(8F)
  6
Continuous
 62
     7
100
AcDbSpline
210
0.0
220
0.0
230
1.0
 70
    12
 71
     2
 72
     6
 73
     3
 74
     0
 42
0.0000000098484301
 43
0.0000000001
 40
0.5736899513152949
 40
0.5736899513152949
 40
0.5736899513152949
 40
1.0
 40
1.0
 40
1.0
 10
44.69678311684709
 20
365.6377738041651
 30
0.0
 41
1.0
 10
44.72832178297482
 20
365.4236530836698
 30
0.0
 41
1.0
 10
44.76001851095377
 20
365.2095465000384
 30
0.0
 41
1.0
  0
SPLINE
  5
128
330
5E
100
AcDbEntity
  8
$DDT_AUDIT_GENERATED_(8F)
  6
Continuous
 62
     7
100
AcDbSpline
210
0.0
220
0.0
230
1.0
 70
     8
 71
     3
 72
    10
 73
     6
 74
     0
 42
0.0000000827143891
 43
0.0000000001
 40
0.0
 40
0.0
 40
0.0
 40
0.0
 40
0.5
 40
0.5
 40
1.0
 40
1.0
 40
1.0
 40
1.0
 10
44.76001851096201
 20
365.2095465000452
 30
0.0
 10
44.76356780970146
 20
365.1855732676783
 30
0.0
 10
44.76439537900637
 20
365.1601220102731
 30
0.0
 10
44.76040942533307
 20
365.1170202839809
 30
0.0
 10
44.75565886467201
 20
365.1001490787594
 30
0.0
 10
44.74922764774537
 20
365.0919940938954
 30
0.0
  0
LINE
  5
129
330
5E
100
AcDbEntity
  8
$DDT_AUDIT_GENERATED_(8F)
  6
Continuous
 62
     7
100
AcDbLine
 10
44.7492276477
 20
365.0919940939
 30
0.0
 11
44.7436785435
 21
365.0849110144
 31
0.0
  0
SPLINE
  5
12A
330
5E
100
AcDbEntity
  8
$DDT_AUDIT_GENERATED_(8F)
  6
Continuous
 62
     7
100
AcDbSpline
210
0.0
220
0.0
230
1.0
 70
     8
 71
     3
 72
     8
 73
     4
 74
     0
 42
0.0000001955653152
 43
0.0000000001
 40
0.0
 40
0.0
 40
0.0
 40
0.0
 40
0.2451133350485998
 40
0.2451133350485998
 40
0.2451133350485998
 40
0.2451133350485998
 10
44.74367854347876
 20
365.0849110143781
 30
0.0
 10
44.74056586275339
 20
365.0809113868293
 30
0.0
 10
44.73712504287354
 20
365.0791110109695
 30
0.0
 10
44.73355799184027
 20
365.0794388934826
 30
0.0
  0
ARC
  5
12B
330
5E
100
AcDbEntity
  8
$DDT_AUDIT_GENERATED_(8F)
  6
Continuous
 62
     7
100
AcDbCircle
 10
592.2194803197
 20
466.8969833871
 30
0.0
 40
557.173534801855
100
AcDbArc
 50
190.5263870249
 51
190.5756876995
  0
ARC
  5
12C
330
5E
100
AcDbEntity
  8
$DDT_AUDIT_GENERATED_(8F)
  6
Continuous
 62
     7
100
AcDbCircle
 10
43.6387012637
 20
364.4620723165
 30
0.0
 40
0.8890650659174624
100
AcDbArc
 50
3.6852021003
 51
11.3182657514
  0
LINE
  5
12D
330
5E
100
AcDbEntity
  8
$DDT_AUDIT_GENERATED_(8F)
  6
Continuous
 62
     7
100
AcDbLine
 10
44.525927967
 20
364.5192165934
 30
0.0
 11
44.525927967
 21
364.5118836499
 31
0.0
  0
ARC
  5
12E
330
5E
100
AcDbEntity
  8
$DDT_AUDIT_GENERATED_(8F)
  6
Continuous
 62
     7
100
AcDbCircle
 10
55.1641679901
 20
364.5155501217
 30
0.0
 40
0.5519434061589826
100
AcDbArc
 50
359.6193905029
 51
0.3806094971
  0
ARC
  5
12F
330
5E
100
AcDbEntity
  8
$DDT_AUDIT_GENERATED_(8F)
  6
Continuous
 62
     7
100
AcDbCircle
 10
56.7287512368
 20
364.4717104694
 30
0.0
 40
1.013765723737731
100
AcDbArc
 50
170.641565828
 51
177.3140760951
  0
SPLINE
  5
130
330
5E
100
AcDbEntity
  8
$DDT_AUDIT_GENERATED_(8F)
  6
Continuous
 62
     7
100
AcDbSpline
210
0.0
220
0.0
230
1.0
 70
    12
 71
     2
 72
     6
 73
     3
 74
     0
 42
0.0000000099882947
 43
0.0000000001
 40
0.0
 40
0.0
 40
0.0
 40
0.3098696692976647
 40
0.3098696692976647
 40
0.3098696692976647
 10
55.72847834098769
 20
364.636559116615
 30
0.0
 41
1.0
 10
55.75216887652706
 20
364.7898562905023
 30
0.0
 41
1.0
 10
55.77574184610755
 20
364.9431704998624
 30
0.0
 41
1.0
  0
SPLINE
  5
131
330
5E
100
AcDbEntity
  8
$DDT_AUDIT_GENERATED_(8F)
  6
Continuous
 62
     7
100
AcDbSpline
210
0.0
220
0.0
230
1.0
 70
     8
 71
     3
 72
     8
 73
     4
 74
     0
 42
0.0000001996229481
 43
0.0000000001
 40
0.7542759890600162
 40
0.7542759890600162
 40
0.7542759890600162
 40
0.7542759890600162
 40
1.0
 40
1.0
 40
1.0
 40
1.0
 10
55.56797856050535
 20
364.9241729782813
 30
0.0
 10
55.56456214291899
 20
364.923857814796
 30
0.0
 10
55.56120950900016
 20
364.9256734273848
 30
0.0
 10
55.55810305991294
 20
364.9296749568849
 30
0.0
  0
LINE
  5
132
330
5E
100
AcDbEntity
  8
$DDT_AUDIT_GENERATED_(8F)
  6
Continuous
 62
     7
100
AcDbLine
 10
55.5581030599
 20
364.9296749569
 30
0.0
 11
55.5525539556
 21
364.9367580364
 31
0.0
  0
SPLINE
  5
133
330
5E
100
AcDbEntity
  8
$DDT_AUDIT_GENERATED_(8F)
  6
Continuous
 62
     7
100
AcDbSpline
210
0.0
220
0.0
230
1.0
 70
     8
 71
     3
 72
    20
 73
    16
 74
     0
 42
0.0000000832119301
 43
0.0000000001
 40
0.0
 40
0.0
 40
0.0
 40
0.0
 40
0.2289377704749248
 40
0.2289377704749248
 40
0.2289377704749248
 40
0.4578289888433252
 40
0.4578289888433252
 40
0.4578289888433252
 40
0.6874672639041093
 40
0.6874672639041093
 40
0.6874672639041093
 40
0.9190278165324414
 40
0.9190278165324414
 40
0.9190278165324414
 40
1.0
 40
1.0
 40
1.0
 40
1.0
 10
55.55255395564632
 20
364.9367580364022
 30
0.0
 10
55.54965291157214
 20
364.9404276646833
 30
0.0
 10
55.54695501139935
 20
364.9459619517919
 30
0.0
 10
55.54468946105354
 20
364.9528979882301
 30
0.0
 10
55.54242416476735
 20
364.9598332468585
 30
0.0
 10
55.54052931355388
 20
364.968359578707
 30
0.0
 10
55.53917300607534
 20
364.9777671515932
 30
0.0
 10
55.5378121816175
 20
364.9872060549947
 30
0.0
 10
55.53695686801823
 20
364.9977886260129
 30
0.0
 10
55.53668943483505
 20
365.0086456516385
 30
0.0
 10
55.53641977550514
 20
365.0195930524821
 30
0.0
 10
55.53674085409849
 20
365.0311169177064
 30
0.0
 10
55.53763417521868
 20
365.0422800342061
 30
0.0
 10
55.53795040083664
 20
365.046231651753
 30
0.0
 10
55.53833859158765
 20
365.0501645102166
 30
0.0
 10
55.53879487372492
 20
365.0540384230466
 30
0.0
  0
SPLINE
  5
134
330
5E
100
AcDbEntity
  8
$DDT_AUDIT_GENERATED_(8F)
  6
Continuous
 62
     7
100
AcDbSpline
210
0.0
220
0.0
230
1.0
 70
    12
 71
     2
 72
     6
 73
     3
 74
     0
 42
0.0000000099154853
 43
0.0000000001
 40
0.0
 40
0.0
 40
0.0
 40
0.3536212941473942
 40
0.3536212941473942
 40
0.3536212941473942
 10
55.53879487372496
 20
365.0540384230466
 30
0.0
 41
1.0
 10
55.55965115437348
 20
365.2311366433642
 30
0.0
 41
1.0
 10
55.58035887643186
 20
365.4082434659512
 30
0.0
 41
1.0
  0
SPLINE
  5
135
330
5E
100
AcDbEntity
  8
$DDT_AUDIT_GENERATED_(8F)
  6
Continuous
 62
     7
100
AcDbSpline
210
0.0
220
0.0
230
1.0
 70
     8
 71
     3
 72
     8
 73
     4
 74
     0
 42
0.0000001260576804
 43
0.0000000001
 40
0.7285210834117387
 40
0.7285210834117387
 40
0.7285210834117387
 40
0.7285210834117387
 40
1.0
 40
1.0
 40
1.0
 40
1.0
 10
55.10953214715735
 20
365.3153142884128
 30
0.0
 10
55.10287563532412
 20
365.3140030310868
 30
0.0
 10
55.09599324201926
 20
365.3152778504436
 30
0.0
 10
55.08933265786101
 20
365.3192443406951
 30
0.0
  0
LINE
  5
136
330
5E
100
AcDbEntity
  8
$DDT_AUDIT_GENERATED_(8F)
  6
Continuous
 62
     7
100
AcDbLine
 10
55.0893326579
 20
365.3192443407
 30
0.0
 11
55.0786126116
 21
365.3255948561
 31
0.0
  0
SPLINE
  5
137
330
5E
100
AcDbEntity
  8
$DDT_AUDIT_GENERATED_(8F)
  6
Continuous
 62
     7
100
AcDbSpline
210
0.0
220
0.0
230
1.0
 70
     8
 71
     3
 72
    20
 73
    16
 74
     0
 42
0.0000000789018891
 43
0.0000000001
 40
0.0
 40
0.0
 40
0.0
 40
0.0
 40
0.228937770474167
 40
0.228937770474167
 40
0.228937770474167
 40
0.4578289888418133
 40
0.4578289888418133
 40
0.4578289888418133
 40
0.6874672639018289
 40
0.6874672639018289
 40
0.6874672639018289
 40
0.9190278165293866
 40
0.9190278165293866
 40
0.9190278165293866
 40
1.0
 40
1.0
 40
1.0
 40
1.0
 10
55.0786126116132
 20
365.3255948560578
 30
0.0
 10
55.07303347742707
 20
365.3288826405164
 30
0.0
 10
55.06759526026489
 20
365.3340505761113
 30
0.0
 10
55.06275383484566
 20
365.3406666010227
 30
0.0
 10
55.05791295234561
 20
365.3472818840108
 30
0.0
 10
55.0535361039237
 20
365.3555258149842
 30
0.0
 10
55.04999264248715
 20
365.3647127620258
 30
0.0
 10
55.04643738008196
 20
365.3739303048213
 30
0.0
 10
55.04362433407904
 20
365.3843476976547
 30
0.0
 10
55.04179046530763
 20
365.3951101062634
 30
0.0
 10
55.03994133118677
 20
365.4059621024863
 30
0.0
 10
55.03903747350869
 20
365.4174597264469
 30
0.0
 10
55.03915478302057
 20
365.4286683494267
 30
0.0
 10
55.03919630926691
 20
365.4326360757555
 30
0.0
 10
55.0393629647991
 20
365.43659391773
 30
0.0
 10
55.03965298368134
 20
365.4405014348577
 30
0.0
  0
SPLINE
  5
138
330
5E
100
AcDbEntity
  8
$DDT_AUDIT_GENERATED_(8F)
  6
Continuous
 62
     7
100
AcDbSpline
210
0.0
220
0.0
230
1.0
 70
    12
 71
     2
 72
     6
 73
     3
 74
     0
 42
0.0000000098710019
 43
0.0000000001
 40
0.0
 40
0.0
 40
0.0
 40
0.2066526847143957
 40
0.2066526847143957
 40
0.2066526847143957
 10
55.03965298368128
 20
365.4405014348577
 30
0.0
 41
1.0
 10
55.04739951014805
 20
365.544893449007
 30
0.0
 41
1.0
 10
55.05510031358587
 20
365.6492840576595
 30
0.0
 41
1.0
  0
SPLINE
  5
139
330
5E
100
AcDbEntity
  8
$DDT_AUDIT_GENERATED_(8F)
  6
Continuous
 62
     7
100
AcDbSpline
210
0.0
220
0.0
230
1.0
 70
     8
 71
     3
 72
     8
 73
     4
 74
     0
 42
0.0000000938738924
 43
0.0000000001
 40
0.6755577400637061
 40
0.6755577400637061
 40
0.6755577400637061
 40
0.6755577400637061
 40
1.0
 40
1.0
 40
1.0
 40
1.0
 10
54.37505388755694
 20
365.6537591626996
 30
0.0
 10
54.36446866891295
 20
365.6501618186894
 30
0.0
 10
54.35300989219478
 20
365.6501691243711
 30
0.0
 10
54.34173394026784
 20
365.6540432916471
 30
0.0
  0
LINE
  5
13A
330
5E
100
AcDbEntity
  8
$DDT_AUDIT_GENERATED_(8F)
  6
Continuous
 62
     7
100
AcDbLine
 10
54.3417339403
 20
365.6540432916
 30
0.0
 11
54.3265735055
 21
365.6592284657
 31
0.0
  0
SPLINE
  5
13B
330
5E
100
AcDbEntity
  8
$DDT_AUDIT_GENERATED_(8F)
  6
Continuous
 62
     7
100
AcDbSpline
210
0.0
220
0.0
230
1.0
 70
     8
 71
     3
 72
    20
 73
    16
 74
     0
 42
0.0000000741959867
 43
0.0000000001
 40
0.0
 40
0.0
 40
0.0
 40
0.0
 40
0.2289377704749261
 40
0.2289377704749261
 40
0.2289377704749261
 40
0.4578289888433265
 40
0.4578289888433265
 40
0.4578289888433265
 40
0.6874672639041141
 40
0.6874672639041141
 40
0.6874672639041141
 40
0.9190278165324425
 40
0.9190278165324425
 40
0.9190278165324425
 40
1.0
 40
1.0
 40
1.0
 40
1.0
 10
54.32657350547494
 20
365.6592284657278
 30
0.0
 10
54.31869648995168
 20
365.6619103492866
 30
0.0
 10
54.31088856131264
 20
365.6664818399968
 30
0.0
 10
54.30380119596147
 20
365.6725607376305
 30
0.0
 10
54.29671462539002
 20
365.6786389535745
 30
0.0
 10
54.29015405474652
 20
365.686390396563
 30
0.0
 10
54.28466492039301
 20
365.6951706256329
 30
0.0
 10
54.27915750529804
 20
365.7039800959433
 30
0.0
 10
54.2745784313278
 20
365.7140646378318
 30
0.0
 10
54.27130310209431
 20
365.7245969904635
 30
0.0
 10
54.26800050861702
 20
365.735217015695
 30
0.0
 10
54.26593331107455
 20
365.7465808595574
 30
0.0
 10
54.26526661452878
 20
365.7577647448443
 30
0.0
 10
54.26503061145841
 20
365.7617237143081
 30
0.0
 10
54.26496437447266
 20
365.7656860779093
 30
0.0
 10
54.26506836579227
 20
365.7696113364519
 30
0.0
  0
SPLINE
  5
13C
330
5E
100
AcDbEntity
  8
$DDT_AUDIT_GENERATED_(8F)
  6
Continuous
 62
     7
100
AcDbSpline
210
0.0
220
0.0
230
1.0
 70
    12
 71
     2
 72
     6
 73
     3
 74
     0
 42
0.0000000098498435
 43
0.0000000001
 40
0.0
 40
0.0
 40
0.0
 40
0.075169070072429
 40
0.075169070072429
 40
0.075169070072429
 10
54.26506836579224
 20
365.7696113364519
 30
0.0
 41
1.0
 10
54.26607846704729
 20
365.8077558657764
 30
0.0
 41
1.0
 10
54.26708359398119
 20
365.8458997127521
 30
0.0
 41
1.0
  0
SPLINE
  5
13D
330
5E
100
AcDbEntity
  8
$DDT_AUDIT_GENERATED_(8F)
  6
Continuous
 62
     7
100
AcDbSpline
210
0.0
220
0.0
230
1.0
 70
     8
 71
     3
 72
     8
 73
     4
 74
     0
 42
0.0000000777537707
 43
0.0000000001
 40
0.5700222928543057
 40
0.5700222928543057
 40
0.5700222928543057
 40
0.5700222928543057
 40
1.0
 40
1.0
 40
1.0
 40
1.0
 10
53.41843466552928
 20
365.9199182092286
 30
0.0
 10
53.40295841706567
 20
365.9107916665865
 30
0.0
 10
53.38457451112487
 20
365.9076192441466
 30
0.0
 10
53.36625452427214
 20
365.911255814515
 30
0.0
  0
LINE
  5
13E
330
5E
100
AcDbEntity
  8
$DDT_AUDIT_GENERATED_(8F)
  6
Continuous
 62
     7
100
AcDbLine
 10
53.3662545243
 20
365.9112558145
 30
0.0
 11
53.3476868595
 21
365.9149222863
 31
0.0
  0
ARC
  5
13F
330
5E
100
AcDbEntity
  8
$DDT_AUDIT_GENERATED_(8F)
  6
Continuous
 62
     7
100
AcDbCircle
 10
53.3744943438
 20
366.0181682591
 30
0.0
 40
0.1066694526492524
100
AcDbArc
 50
181.1218487041
 51
255.4447420408
  0
ARC
  5
140
330
5E
100
AcDbEntity
  8
$DDT_AUDIT_GENERATED_(8F)
  6
Continuous
 62
     7
100
AcDbCircle
 10
52.2382237896
 20
366.1640482174
 30
0.0
 40
0.0911258855176754
100
AcDbArc
 50
264.425433597
 51
321.5845113673
  0
LINE
  5
141
330
5E
100
AcDbEntity
  8
$DDT_AUDIT_GENERATED_(8F)
  6
Continuous
 62
     7
100
AcDbLine
 10
52.22937172
 20
366.0733533009
 30
0.0
 11
52.208662181
 21
366.0752512064
 31
0.0
  0
ARC
  5
142
330
5E
100
AcDbEntity
  8
$DDT_AUDIT_GENERATED_(8F)
  6
Continuous
 62
     7
100
AcDbCircle
 10
52.2196256745
 20
366.1786526521
 30
0.0
 40
0.1039810423738512
100
AcDbArc
 50
209.8679171333
 51
263.9476308361
  0
ARC
  5
143
330
5E
100
AcDbEntity
  8
$DDT_AUDIT_GENERATED_(8F)
  6
Continuous
 62
     7
100
AcDbCircle
 10
51.0092630721
 20
366.2286450103
 30
0.0
 40
0.0993584071684836
100
AcDbArc
 50
269.5958402494
 51
317.8441577282
  0
LINE
  5
144
330
5E
100
AcDbEntity
  8
$DDT_AUDIT_GENERATED_(8F)
  6
Continuous
 62
     7
100
AcDbLine
 10
51.0085622118
 20
366.1292890751
 30
0.0
 11
50.9871221193
 21
366.1292890751
 31
0.0
  0
ARC
  5
145
330
5E
100
AcDbEntity
  8
$DDT_AUDIT_GENERATED_(8F)
  6
Continuous
 62
     7
100
AcDbCircle
 10
50.9864583878
 20
366.2286871271
 30
0.0
 40
0.0994002680548494
100
AcDbArc
 50
222.0930808123
 51
270.3825874757
  0
ARC
  5
146
330
5E
100
AcDbEntity
  8
$DDT_AUDIT_GENERATED_(8F)
  6
Continuous
 62
     7
100
AcDbCircle
 10
49.7759488946
 20
366.1787584526
 30
0.0
 40
0.1040978722584524
100
AcDbArc
 50
276.1063058886
 51
330.0315197581
  0
LINE
  5
147
330
5E
100
AcDbEntity
  8
$DDT_AUDIT_GENERATED_(8F)
  6
Continuous
 62
     7
100
AcDbLine
 10
49.7870221502
 20
366.0752512064
 30
0.0
 11
49.7663126111
 21
366.0733533009
 31
0.0
  0
ARC
  5
148
330
5E
100
AcDbEntity
  8
$DDT_AUDIT_GENERATED_(8F)
  6
Continuous
 62
     7
100
AcDbCircle
 10
49.7574931956
 20
366.1640893924
 30
0.0
 40
0.0911637010581459
100
AcDbArc
 50
218.4236899576
 51
275.5516267655
  0
ARC
  5
149
330
5E
100
AcDbEntity
  8
$DDT_AUDIT_GENERATED_(8F)
  6
Continuous
 62
     7
100
AcDbCircle
 10
48.6207177909
 20
366.018530786
 30
0.0
 40
0.1071396387822326
100
AcDbArc
 50
284.7509511463
 51
358.6815472348
  0
LINE
  5
14A
330
5E
100
AcDbEntity
  8
$DDT_AUDIT_GENERATED_(8F)
  6
Continuous
 62
     7
100
AcDbLine
 10
48.6479974716
 20
365.9149222863
 30
0.0
 11
48.6294298069
 21
365.9112558145
 31
0.0
  0
SPLINE
  5
14B
330
5E
100
AcDbEntity
  8
$DDT_AUDIT_GENERATED_(8F)
  6
Continuous
 62
     7
100
AcDbSpline
210
0.0
220
0.0
230
1.0
 70
     8
 71
     3
 72
    11
 73
     7
 74
     0
 42
0.0000000790796226
 43
0.0000000001
 40
0.0
 40
0.0
 40
0.0
 40
0.0
 40
0.2289377704741473
 40
0.2289377704741473
 40
0.2289377704741473
 40
0.4303174128524198
 40
0.4303174128524198
 40
0.4303174128524198
 40
0.4303174128524198
 10
48.62942980688788
 20
365.911255814515
 30
0.0
 10
48.61981696822079
 20
365.909347638241
 30
0.0
 10
48.60994515128355
 20
365.9092792337789
 30
0.0
 10
48.60063011999705
 20
365.9110534653389
 30
0.0
 10
48.59243562776953
 20
365.9126142681189
 30
0.0
 10
48.58447374652341
 20
365.9156381444931
 30
0.0
 10
48.57724091226677
 20
365.9199139876458
 30
0.0
  0
SPLINE
  5
14C
330
5E
100
AcDbEntity
  8
$DDT_AUDIT_GENERATED_(8F)
  6
Continuous
 62
     7
100
AcDbSpline
210
0.0
220
0.0
230
1.0
 70
    12
 71
     2
 72
     6
 73
     3
 74
     0
 42
0.0000000098498435
 43
0.0000000001
 40
0.9248363215130233
 40
0.9248363215130233
 40
0.9248363215130233
 40
1.0
 40
1.0
 40
1.0
 10
47.72860088136655
 20
365.8458942409307
 30
0.0
 41
1.0
 10
47.72960593656335
 20
365.8077531298167
 30
0.0
 41
1.0
 10
47.73061596536774
 20
365.7696113364519
 30
0.0
 41
1.0
  0
SPLINE
  5
14D
330
5E
100
AcDbEntity
  8
$DDT_AUDIT_GENERATED_(8F)
  6
Continuous
 62
     7
100
AcDbSpline
210
0.0
220
0.0
230
1.0
 70
     8
 71
     3
 72
    10
 73
     6
 74
     0
 42
0.0000000732270649
 43
0.0000000001
 40
0.0
 40
0.0
 40
0.0
 40
0.0
 40
0.5
 40
0.5
 40
1.0
 40
1.0
 40
1.0
 40
1.0
 10
47.73061596553057
 20
365.769611336483
 30
0.0
 10
47.731259366952
 20
365.7453254866856
 30
0.0
 10
47.72525733841537
 20
365.7204208051353
 30
0.0
 10
47.7027374496823
 20
365.6800076486869
 30
0.0
 10
47.68656740999899
 20
365.6651719003099
 30
0.0
 10
47.66911082568505
 20
365.6592284657278
 30
0.0
  0
LINE
  5
14E
330
5E
100
AcDbEntity
  8
$DDT_AUDIT_GENERATED_(8F)
  6
Continuous
 62
     7
100
AcDbLine
 10
47.6691108257
 20
365.6592284657
 30
0.0
 11
47.6539503909
 21
365.6540432916
 31
0.0
  0
SPLINE
  5
14F
330
5E
100
AcDbEntity
  8
$DDT_AUDIT_GENERATED_(8F)
  6
Continuous
 62
     7
100
AcDbSpline
210
0.0
220
0.0
230
1.0
 70
     8
 71
     3
 72
    11
 73
     7
 74
     0
 42
0.0000000950688761
 43
0.0000000001
 40
0.0
 40
0.0
 40
0.0
 40
0.0
 40
0.2289377704741491
 40
0.2289377704741491
 40
0.2289377704741491
 40
0.3251290443554065
 40
0.3251290443554065
 40
0.3251290443554065
 40
0.3251290443554065
 10
47.65395039089216
 20
365.6540432916471
 30
0.0
 10
47.64610908794222
 20
365.6513491936688
 30
0.0
 10
47.63798115918312
 20
365.6504703001477
 30
0.0
 10
47.63023658299474
 20
365.6514763750103
 30
0.0
 10
47.62698229864785
 20
365.6518991294125
 30
0.0
 10
47.6237580675995
 20
365.6526594422119
 30
0.0
 10
47.62060905452513
 20
365.6537387760891
 30
0.0
  0
SPLINE
  5
150
330
5E
100
AcDbEntity
  8
$DDT_AUDIT_GENERATED_(8F)
  6
Continuous
 62
     7
100
AcDbSpline
210
0.0
220
0.0
230
1.0
 70
    12
 71
     2
 72
     6
 73
     3
 74
     0
 42
0.0000000098710018
 43
0.0000000001
 40
0.7933865536158285
 40
0.7933865536158285
 40
0.7933865536158285
 40
1.0
 40
1.0
 40
1.0
 10
46.94058694196706
 20
365.6492444151734
 30
0.0
 41
1.0
 10
46.94828629188926
 20
365.5448736274971
 30
0.0
 41
1.0
 10
46.9560313474787
 20
365.4405014348574
 30
0.0
 41
1.0
  0
SPLINE
  5
151
330
5E
100
AcDbEntity
  8
$DDT_AUDIT_GENERATED_(8F)
  6
Continuous
 62
     7
100
AcDbSpline
210
0.0
220
0.0
230
1.0
 70
     8
 71
     3
 72
    10
 73
     6
 74
     0
 42
0.0000000781238496
 43
0.0000000001
 40
0.0
 40
0.0
 40
0.0
 40
0.0
 40
0.5
 40
0.5
 40
1.0
 40
1.0
 40
1.0
 40
1.0
 10
46.9560313470294
 20
365.440501434687
 30
0.0
 10
46.95782571463208
 20
365.4163253524877
 30
0.0
 10
46.95475417939497
 20
365.3910121081757
 30
0.0
 10
46.94044493722018
 20
365.3489406168118
 30
0.0
 10
46.92943587269034
 20
365.3328810530184
 30
0.0
 10
46.91707171954678
 20
365.3255948560578
 30
0.0
  0
LINE
  5
152
330
5E
100
AcDbEntity
  8
$DDT_AUDIT_GENERATED_(8F)
  6
Continuous
 62
     7
100
AcDbLine
 10
46.9170717195
 20
365.3255948561
 30
0.0
 11
46.9063516733
 21
365.3192443407
 31
0.0
  0
SPLINE
  5
153
330
5E
100
AcDbEntity
  8
$DDT_AUDIT_GENERATED_(8F)
  6
Continuous
 62
     7
100
AcDbSpline
210
0.0
220
0.0
230
1.0
 70
     8
 71
     3
 72
    11
 73
     7
 74
     0
 42
0.0000001274709194
 43
0.0000000001
 40
0.0
 40
0.0
 40
0.0
 40
0.0
 40
0.2289377704741384
 40
0.2289377704741384
 40
0.2289377704741384
 40
0.2721793009313058
 40
0.2721793009313058
 40
0.2721793009313058
 40
0.2721793009313058
 10
46.90635167329897
 20
365.3192443406951
 30
0.0
 10
46.90081627790387
 20
365.3159479193376
 30
0.0
 10
46.8949861422358
 20
365.314440524798
 30
0.0
 10
46.88933980121426
 20
365.314843636037
 30
0.0
 10
46.88827322885204
 20
365.3149197822182
 30
0.0
 10
46.88720766405888
 20
365.3150644622017
 30
0.0
 10
46.88614611814652
 20
365.315276312323
 30
0.0
  0
SPLINE
  5
154
330
5E
100
AcDbEntity
  8
$DDT_AUDIT_GENERATED_(8F)
  6
Continuous
 62
     7
100
AcDbSpline
210
0.0
220
0.0
230
1.0
 70
    12
 71
     2
 72
     6
 73
     3
 74
     0
 42
0.0000000099154853
 43
0.0000000001
 40
0.6463787058628963
 40
0.6463787058628963
 40
0.6463787058628963
 40
1.0
 40
1.0
 40
1.0
 10
46.41532545472813
 20
365.4082434659513
 30
0.0
 41
1.0
 10
46.43603317678621
 20
365.2311366433671
 30
0.0
 41
1.0
 10
46.45688945743507
 20
365.0540384230466
 30
0.0
 41
1.0
  0
SPLINE
  5
155
330
5E
100
AcDbEntity
  8
$DDT_AUDIT_GENERATED_(8F)
  6
Continuous
 62
     7
100
AcDbSpline
210
0.0
220
0.0
230
1.0
 70
     8
 71
     3
 72
    10
 73
     6
 74
     0
 42
0.0000000828211425
 43
0.0000000001
 40
0.0
 40
0.0
 40
0.0
 40
0.0
 40
0.5
 40
0.5
 40
1.0
 40
1.0
 40
1.0
 40
1.0
 10
46.45688945739023
 20
365.0540384230079
 30
0.0
 10
46.45971250700428
 20
365.0300702528017
 30
0.0
 10
46.45978078514672
 20
365.0046217785124
 30
0.0
 10
46.45465734073744
 20
364.9616752758513
 30
0.0
 10
46.4495595009017
 20
364.9448904534711
 30
0.0
 10
46.44313037551364
 20
364.9367580364023
 30
0.0
  0
LINE
  5
156
330
5E
100
AcDbEntity
  8
$DDT_AUDIT_GENERATED_(8F)
  6
Continuous
 62
     7
100
AcDbLine
 10
46.4431303755
 20
364.9367580364
 30
0.0
 11
46.4375812712
 21
364.9296749569
 31
0.0
  0
SPLINE
  5
157
330
5E
100
AcDbEntity
  8
$DDT_AUDIT_GENERATED_(8F)
  6
Continuous
 62
     7
100
AcDbSpline
210
0.0
220
0.0
230
1.0
 70
     8
 71
     3
 72
    11
 73
     7
 74
     0
 42
0.0000002017488269
 43
0.0000000001
 40
0.0
 40
0.0
 40
0.0
 40
0.0
 40
0.2289377704741448
 40
0.2289377704741448
 40
0.2289377704741448
 40
0.2464198476277873
 40
0.2464198476277873
 40
0.2464198476277873
 40
0.2464198476277873
 10
46.43758127124702
 20
364.9296749568849
 30
0.0
 10
46.43472901145523
 20
364.9260008578161
 30
0.0
 10
46.43159398298923
 20
364.9240897816043
 30
0.0
 10
46.42843066594413
 20
364.9240962132682
 30
0.0
 10
46.42818908764539
 20
364.9240967044457
 30
0.0
 10
46.42794683482261
 20
364.9241083744914
 30
0.0
 10
46.42770402076945
 20
364.9241311473543
 30
0.0
  0
SPLINE
  5
158
330
5E
100
AcDbEntity
  8
$DDT_AUDIT_GENERATED_(8F)
  6
Continuous
 62
     7
100
AcDbSpline
210
0.0
220
0.0
230
1.0
 70
    12
 71
     2
 72
     6
 73
     3
 74
     0
 42
0.0000000099882947
 43
0.0000000001
 40
0.6901303306988578
 40
0.6901303306988578
 40
0.6901303306988578
 40
1.0
 40
1.0
 40
1.0
 10
46.21994248505239
 20
364.9431704998624
 30
0.0
 41
1.0
 10
46.24351545463302
 20
364.7898562905013
 30
0.0
 41
1.0
 10
46.26720599017229
 20
364.6365591166145
 30
0.0
 41
1.0
  0
ARC
  5
159
330
5E
100
AcDbEntity
  8
$DDT_AUDIT_GENERATED_(8F)
  6
Continuous
 62
     7
100
AcDbCircle
 10
45.2538217424
 20
364.4703272791
 30
0.0
 40
1.026927776198186
100
AcDbArc
 50
2.7287318903
 51
9.3156261879
  0
ARC
  5
15A
330
5E
100
AcDbEntity
  8
$DDT_AUDIT_GENERATED_(8F)
  6
Continuous
 62
     7
100
AcDbCircle
 10
46.8315163411
 20
364.5155501217
 30
0.0
 40
0.5519434061589825
100
AcDbArc
 50
179.6193905029
 51
180.3806094971
  0
SPLINE
  5
15B
330
5E
100
AcDbEntity
  8
$DDT_AUDIT_GENERATED_(8F)
  6
Continuous
 62
     7
100
AcDbSpline
210
0.0
220
0.0
230
1.0
 70
    12
 71
     2
 72
     6
 73
     3
 74
     0
 42
0.0000000101128699
 43
0.0000000001
 40
0.4606819039454253
 40
0.4606819039454253
 40
0.4606819039454253
 40
1.0
 40
1.0
 40
1.0
 10
58.76799343530637
 20
364.4602607876767
 30
0.0
 41
1.0
 10
58.76061682397523
 20
364.1937063673453
 30
0.0
 41
1.0
 10
58.75300813781024
 20
363.9271726620336
 30
0.0
 41
1.0
  0
ARC
  5
15C
330
5E
100
AcDbEntity
  8
$DDT_AUDIT_GENERATED_(8F)
  6
Continuous
 62
     7
100
AcDbCircle
 10
58.5005307591
 20
363.9206386268
 30
0.0
 40
0.2525619139328377
100
AcDbArc
 50
334.2518590127
 51
1.4824658607
  0
LINE
  5
15D
330
5E
100
AcDbEntity
  8
$DDT_AUDIT_GENERATED_(8F)
  6
Continuous
 62
     7
100
AcDbLine
 10
58.7280163903
 20
363.810921682
 30
0.0
 11
58.722467286
 21
363.8038386025
 31
0.0
  0
SPLINE
  5
15E
330
5E
100
AcDbEntity
  8
$DDT_AUDIT_GENERATED_(8F)
  6
Continuous
 62
     7
100
AcDbSpline
210
0.0
220
0.0
230
1.0
 70
     8
 71
     3
 72
     8
 73
     4
 74
     0
 42
0.0000002110028704
 43
0.0000000001
 40
0.0
 40
0.0
 40
0.0
 40
0.0
 40
0.2467424055911684
 40
0.2467424055911684
 40
0.2467424055911684
 40
0.2467424055911684
 10
58.72246728603056
 20
363.8038386025153
 30
0.0
 10
58.71932087804456
 20
363.7998438321258
 30
0.0
 10
58.71618182559452
 20
363.7980033709728
 30
0.0
 10
58.71322430311987
 20
363.7982742237921
 30
0.0
  0
SPLINE
  5
15F
330
5E
100
AcDbEntity
  8
$DDT_AUDIT_GENERATED_(8F)
  6
Continuous
 62
     7
100
AcDbSpline
210
0.0
220
0.0
230
1.0
 70
    12
 71
     2
 72
     6
 73
     3
 74
     0
 42
0.0000000101392083
 43
0.0000000001
 40
0.39196956796383
 40
0.39196956796383
 40
0.39196956796383
 40
1.0
 40
1.0
 40
1.0
 10
58.01426991101411
 20
363.8622906843326
 30
0.0
 41
1.0
 10
57.99748208075502
 20
363.5629015576185
 30
0.0
 41
1.0
 10
57.98042975917037
 20
363.2635639522102
 30
0.0
 41
1.0
  0
SPLINE
  5
160
330
5E
100
AcDbEntity
  8
$DDT_AUDIT_GENERATED_(8F)
  6
Continuous
 62
     7
100
AcDbSpline
210
0.0
220
0.0
230
1.0
 70
     8
 71
     3
 72
    10
 73
     6
 74
     0
 42
0.0000000779944978
 43
0.0000000001
 40
0.0
 40
0.0
 40
0.0
 40
0.0
 40
0.5
 40
0.5
 40
1.0
 40
1.0
 40
1.0
 40
1.0
 10
57.98042975955377
 20
363.2635639523554
 30
0.0
 10
57.97907892282448
 20
363.2398512330813
 30
0.0
 10
57.97330648413464
 20
363.2149501945304
 30
0.0
 10
57.95546872627737
 20
363.1736930131133
 30
0.0
 10
57.94362674643687
 20
363.1579120560494
 30
0.0
 10
57.93139919878201
 20
363.1506460343362
 30
0.0
  0
LINE
  5
161
330
5E
100
AcDbEntity
  8
$DDT_AUDIT_GENERATED_(8F)
  6
Continuous
 62
     7
100
AcDbLine
 10
57.9313991988
 20
363.1506460343
 30
0.0
 11
57.9206791525
 21
363.144295519
 31
0.0
  0
SPLINE
  5
162
330
5E
100
AcDbEntity
  8
$DDT_AUDIT_GENERATED_(8F)
  6
Continuous
 62
     7
100
AcDbSpline
210
0.0
220
0.0
230
1.0
 70
     8
 71
     3
 72
     8
 73
     4
 74
     0
 42
0.0000001309150029
 43
0.0000000001
 40
0.0
 40
0.0
 40
0.0
 40
0.0
 40
0.2725559332164038
 40
0.2725559332164038
 40
0.2725559332164038
 40
0.2725559332164038
 10
57.92067915253422
 20
363.1442955189735
 30
0.0
 10
57.91398275874185
 20
363.140340847953
 30
0.0
 10
57.90734093176114
 20
363.1390119595541
 30
0.0
 10
57.90118968709019
 20
363.140220699966
 30
0.0
  0
SPLINE
  5
163
330
5E
100
AcDbEntity
  8
$DDT_AUDIT_GENERATED_(8F)
  6
Continuous
 62
     7
100
AcDbSpline
210
0.0
220
0.0
230
1.0
 70
    12
 71
     2
 72
     6
 73
     3
 74
     0
 42
0.0000000101851278
 43
0.0000000001
 40
0.548782183660846
 40
0.548782183660846
 40
0.548782183660846
 40
1.0
 40
1.0
 40
1.0
 10
56.76804226489003
 20
363.1325045561518
 30
0.0
 41
1.0
 10
56.75008039128861
 20
362.9117105463
 30
0.0
 41
1.0
 10
56.73199957529888
 20
362.690956824054
 30
0.0
 41
1.0
  0
ARC
  5
164
330
5E
100
AcDbEntity
  8
$DDT_AUDIT_GENERATED_(8F)
  6
Continuous
 62
     7
100
AcDbCircle
 10
56.6066089913
 20
362.6958516141
 30
0.0
 40
0.125486085683526
100
AcDbArc
 50
296.3322403127
 51
357.7645173223
  0
LINE
  5
165
330
5E
100
AcDbEntity
  8
$DDT_AUDIT_GENERATED_(8F)
  6
Continuous
 62
     7
100
AcDbLine
 10
56.6622715537
 20
362.5833863446
 30
0.0
 11
56.6471111189
 21
362.5782011705
 31
0.0
  0
SPLINE
  5
166
330
5E
100
AcDbEntity
  8
$DDT_AUDIT_GENERATED_(8F)
  6
Continuous
 62
     7
100
AcDbSpline
210
0.0
220
0.0
230
1.0
 70
     8
 71
     3
 72
     8
 73
     4
 74
     0
 42
0.0000000967411839
 43
0.0000000001
 40
0.0
 40
0.0
 40
0.0
 40
0.0
 40
0.3260144088232559
 40
0.3260144088232559
 40
0.3260144088232559
 40
0.3260144088232559
 10
56.64711111890599
 20
362.5782011705011
 30
0.0
 10
56.63579462504316
 20
362.5743410606776
 30
0.0
 10
56.6246161121254
 20
362.5742280484615
 30
0.0
 10
56.61461533816254
 20
362.5776308532175
 30
0.0
  0
SPLINE
  5
167
330
5E
100
AcDbEntity
  8
$DDT_AUDIT_GENERATED_(8F)
  6
Continuous
 62
     7
100
AcDbSpline
210
0.0
220
0.0
230
1.0
 70
    12
 71
     2
 72
     6
 73
     3
 74
     0
 42
0.0000000102515472
 43
0.0000000001
 40
0.8620885017475359
 40
0.8620885017475359
 40
0.8620885017475359
 40
1.0
 40
1.0
 40
1.0
 10
55.10640455242084
 20
362.3822109302353
 30
0.0
 41
1.0
 10
55.09960422546752
 20
362.3152899097856
 30
0.0
 41
1.0
 10
55.09279604009846
 20
362.2483735070708
 30
0.0
 41
1.0
  0
ARC
  5
168
330
5E
100
AcDbEntity
  8
$DDT_AUDIT_GENERATED_(8F)
  6
Continuous
 62
     7
100
AcDbCircle
 10
54.9782127408
 20
362.2592045298
 30
0.0
 40
0.1150940648062756
100
AcDbArc
 50
284.5475236879
 51
354.6001428382
  0
LINE
  5
169
330
5E
100
AcDbEntity
  8
$DDT_AUDIT_GENERATED_(8F)
  6
Continuous
 62
     7
100
AcDbLine
 10
55.0071224067
 20
362.1478004232
 30
0.0
 11
54.988554742
 21
362.1441339514
 31
0.0
  0
ARC
  5
16A
330
5E
100
AcDbEntity
  8
$DDT_AUDIT_GENERATED_(8F)
  6
Continuous
 62
     7
100
AcDbCircle
 10
54.9734342785
 20
362.2138874697
 30
0.0
 40
0.071373536649268
100
AcDbArc
 50
239.7475238082
 51
282.2307724253
  0
SPLINE
  5
16B
330
5E
100
AcDbEntity
  8
$DDT_AUDIT_GENERATED_(8F)
  6
Continuous
 62
     7
100
AcDbSpline
210
0.0
220
0.0
230
1.0
 70
    12
 71
     2
 72
     6
 73
     3
 74
     0
 42
0.0000000103375154
 43
0.0000000001
 40
0.9678990182705878
 40
0.9678990182705878
 40
0.9678990182705878
 40
1.0
 40
1.0
 40
1.0
 10
53.17807813964295
 20
361.9968246373325
 30
0.0
 41
1.0
 10
53.17630326286695
 20
361.9813998404773
 30
0.0
 41
1.0
 10
53.17452816558075
 20
361.9659753229095
 30
0.0
 41
1.0
  0
ARC
  5
16C
330
5E
100
AcDbEntity
  8
$DDT_AUDIT_GENERATED_(8F)
  6
Continuous
 62
     7
100
AcDbCircle
 10
53.0680763025
 20
361.9804764721
 30
0.0
 40
0.1074350175947378
100
AcDbArc
 50
275.7003834366
 51
352.242767747
  0
LINE
  5
16D
330
5E
100
AcDbEntity
  8
$DDT_AUDIT_GENERATED_(8F)
  6
Continuous
 62
     7
100
AcDbLine
 10
53.078747437
 20
361.8735727309
 30
0.0
 11
53.0580378979
 21
361.8716748254
 31
0.0
  0
ARC
  5
16E
330
5E
100
AcDbEntity
  8
$DDT_AUDIT_GENERATED_(8F)
  6
Continuous
 62
     7
100
AcDbCircle
 10
53.0472651573
 20
361.9570443243
 30
0.0
 40
0.0860465181377505
100
AcDbArc
 50
217.8411865494
 51
277.1921154537
  0
LINE
  5
16F
330
5E
100
AcDbEntity
  8
$DDT_AUDIT_GENERATED_(8F)
  6
Continuous
 62
     7
100
AcDbLine
 10
51.1081186577
 20
361.8646287684
 30
0.0
 11
51.1079227373
 21
361.8630072411
 31
0.0
  0
ARC
  5
170
330
5E
100
AcDbEntity
  8
$DDT_AUDIT_GENERATED_(8F)
  6
Continuous
 62
     7
100
AcDbCircle
 10
51.0108131133
 20
361.8775595664
 30
0.0
 40
0.0981939368442237
100
AcDbArc
 50
268.6864927257
 51
351.4773812696
  0
LINE
  5
171
330
5E
100
AcDbEntity
  8
$DDT_AUDIT_GENERATED_(8F)
  6
Continuous
 62
     7
100
AcDbLine
 10
51.0085622118
 20
361.7793914316
 30
0.0
 11
50.9871221193
 21
361.7793914316
 31
0.0
  0
ARC
  5
172
330
5E
100
AcDbEntity
  8
$DDT_AUDIT_GENERATED_(8F)
  6
Continuous
 62
     7
100
AcDbCircle
 10
50.984872455
 20
361.8775610365
 30
0.0
 40
0.098195378240627
100
AcDbArc
 50
188.5233600826
 51
271.3127659425
  0
LINE
  5
173
330
5E
100
AcDbEntity
  8
$DDT_AUDIT_GENERATED_(8F)
  6
Continuous
 62
     7
100
AcDbLine
 10
50.8877615939
 20
361.8630072411
 30
0.0
 11
50.8875651483
 21
361.8646331154
 31
0.0
  0
ARC
  5
174
330
5E
100
AcDbEntity
  8
$DDT_AUDIT_GENERATED_(8F)
  6
Continuous
 62
     7
100
AcDbCircle
 10
48.9484199438
 20
361.957043331
 30
0.0
 40
0.0860456290580289
100
AcDbArc
 50
262.8072930833
 51
322.1528960722
  0
LINE
  5
175
330
5E
100
AcDbEntity
  8
$DDT_AUDIT_GENERATED_(8F)
  6
Continuous
 62
     7
100
AcDbLine
 10
48.9376464332
 20
361.8716748254
 30
0.0
 11
48.9169368942
 21
361.8735727309
 31
0.0
  0
ARC
  5
176
330
5E
100
AcDbEntity
  8
$DDT_AUDIT_GENERATED_(8F)
  6
Continuous
 62
     7
100
AcDbCircle
 10
48.9276083973
 20
361.9804768523
 30
0.0
 40
0.1074354325143781
100
AcDbArc
 50
187.7574067218
 51
264.2994411014
  0
SPLINE
  5
177
330
5E
100
AcDbEntity
  8
$DDT_AUDIT_GENERATED_(8F)
  6
Continuous
 62
     7
100
AcDbSpline
210
0.0
220
0.0
230
1.0
 70
    12
 71
     2
 72
     6
 73
     3
 74
     0
 42
0.0000000103375153
 43
0.0000000001
 40
0.0
 40
0.0
 40
0.0
 40
0.0321149042695965
 40
0.0321149042695965
 40
0.0321149042695965
 10
48.82115616476743
 20
361.9659753228941
 30
0.0
 41
1.0
 10
48.81938029760239
 20
361.9814065302415
 30
0.0
 41
1.0
 10
48.81760465113888
 20
361.9968380171186
 30
0.0
 41
1.0
  0
ARC
  5
178
330
5E
100
AcDbEntity
  8
$DDT_AUDIT_GENERATED_(8F)
  6
Continuous
 62
     7
100
AcDbCircle
 10
47.0222493737
 20
362.2138883475
 30
0.0
 40
0.0713742506302317
100
AcDbArc
 50
257.7699095709
 51
300.2397966138
  0
LINE
  5
179
330
5E
100
AcDbEntity
  8
$DDT_AUDIT_GENERATED_(8F)
  6
Continuous
 62
     7
100
AcDbLine
 10
46.9885619244
 20
362.1478004232
 30
0.0
 11
47.0071295892
 21
362.1441339514
 31
0.0
  0
ARC
  5
17A
330
5E
100
AcDbEntity
  8
$DDT_AUDIT_GENERATED_(8F)
  6
Continuous
 62
     7
100
AcDbCircle
 10
47.0174692048
 20
362.2592024975
 30
0.0
 40
0.1150914984322975
100
AcDbArc
 50
185.3989616669
 51
255.4533716694
  0
SPLINE
  5
17B
330
5E
100
AcDbEntity
  8
$DDT_AUDIT_GENERATED_(8F)
  6
Continuous
 62
     7
100
AcDbSpline
210
0.0
220
0.0
230
1.0
 70
    12
 71
     2
 72
     6
 73
     3
 74
     0
 42
0.0000000102515472
 43
0.0000000001
 40
0.8621194287361645
 40
0.8621194287361645
 40
0.8621194287361645
 40
1.0
 40
1.0
 40
1.0
 10
46.8892828287192
 20
362.3821809158316
 30
0.0
 41
1.0
 10
46.89608163244452
 20
362.3152749036191
 30
0.0
 41
1.0
 10
46.90288829106141
 20
362.2483735070708
 30
0.0
 41
1.0
  0
SPLINE
  5
17C
330
5E
100
AcDbEntity
  8
$DDT_AUDIT_GENERATED_(8F)
  6
Continuous
 62
     7
100
AcDbSpline
210
0.0
220
0.0
230
1.0
 70
     8
 71
     3
 72
     8
 73
     4
 74
     0
 42
0.0000000966957382
 43
0.0000000001
 40
0.6743129181474738
 40
0.6743129181474738
 40
0.6743129181474738
 40
0.6743129181474738
 40
1.0
 40
1.0
 40
1.0
 40
1.0
 10
45.38105347924648
 20
362.5776283179235
 30
0.0
 10
45.37105500828201
 20
362.5742316689675
 30
0.0
 10
45.35987834352104
 20
362.5743449365129
 30
0.0
 10
45.34857321225388
 20
362.5782011705011
 30
0.0
  0
LINE
  5
17D
330
5E
100
AcDbEntity
  8
$DDT_AUDIT_GENERATED_(8F)
  6
Continuous
 62
     7
100
AcDbLine
 10
45.3485732123
 20
362.5782011705
 30
0.0
 11
45.3334127775
 21
362.5833863446
 31
0.0
  0
ARC
  5
17E
330
5E
100
AcDbEntity
  8
$DDT_AUDIT_GENERATED_(8F)
  6
Continuous
 62
     7
100
AcDbCircle
 10
45.3890673419
 20
362.6958464263
 30
0.0
 40
0.1254778885565444
100
AcDbArc
 50
182.2332583823
 51
243.6699820014
  0
SPLINE
  5
17F
330
5E
100
AcDbEntity
  8
$DDT_AUDIT_GENERATED_(8F)
  6
Continuous
 62
     7
100
AcDbSpline
210
0.0
220
0.0
230
1.0
 70
    12
 71
     2
 72
     6
 73
     3
 74
     0
 42
0.0000000101851279
 43
0.0000000001
 40
0.0
 40
0.0
 40
0.0
 40
0.4511461735570597
 40
0.4511461735570597
 40
0.4511461735570597
 10
45.2636847581616
 20
362.6909568236146
 30
0.0
 41
1.0
 10
45.24560681297991
 20
362.9116754953653
 30
0.0
 41
1.0
 10
45.22764777241947
 20
363.1324344419237
 30
0.0
 41
1.0
  0
SPLINE
  5
180
330
5E
100
AcDbEntity
  8
$DDT_AUDIT_GENERATED_(8F)
  6
Continuous
 62
     7
100
AcDbSpline
210
0.0
220
0.0
230
1.0
 70
     8
 71
     3
 72
     8
 73
     4
 74
     0
 42
0.0000001308623393
 43
0.0000000001
 40
0.727445178379682
 40
0.727445178379682
 40
0.727445178379682
 40
0.727445178379682
 40
1.0
 40
1.0
 40
1.0
 40
1.0
 10
44.09450291306893
 20
363.1402254581013
 30
0.0
 10
44.08834794502666
 20
363.1390138460605
 30
0.0
 10
44.08170154478447
 20
363.1403408642725
 30
0.0
 10
44.07500517862567
 20
363.1442955189735
 30
0.0
  0
LINE
  5
181
330
5E
100
AcDbEntity
  8
$DDT_AUDIT_GENERATED_(8F)
  6
Continuous
 62
     7
100
AcDbLine
 10
44.0750051786
 20
363.144295519
 30
0.0
 11
44.0642851324
 21
363.1506460343
 31
0.0
  0
SPLINE
  5
182
330
5E
100
AcDbEntity
  8
$DDT_AUDIT_GENERATED_(8F)
  6
Continuous
 62
     7
100
AcDbSpline
210
0.0
220
0.0
230
1.0
 70
     8
 71
     3
 72
    10
 73
     6
 74
     0
 42
0.0000000779944909
 43
0.0000000001
 40
0.0
 40
0.0
 40
0.0
 40
0.0
 40
0.5
 40
0.5
 40
1.0
 40
1.0
 40
1.0
 40
1.0
 10
44.06428513237788
 20
363.1506460343362
 30
0.0
 10
44.05205758416359
 20
363.1579120563819
 30
0.0
 10
44.040230673149
 20
363.1736686040664
 30
0.0
 10
44.02238745877871
 20
363.2149175352752
 30
0.0
 10
44.01660540804792
 20
363.2398512381282
 30
0.0
 10
44.01525457386773
 20
363.2635639514983
 30
0.0
  0
SPLINE
  5
183
330
5E
100
AcDbEntity
  8
$DDT_AUDIT_GENERATED_(8F)
  6
Continuous
 62
     7
100
AcDbSpline
210
0.0
220
0.0
230
1.0
 70
    12
 71
     2
 72
     6
 73
     3
 74
     0
 42
0.0000000101392083
 43
0.0000000001
 40
0.0
 40
0.0
 40
0.0
 40
0.6080304328759798
 40
0.6080304328759798
 40
0.6080304328759798
 10
44.01525457386766
 20
363.2635639514983
 30
0.0
 41
1.0
 10
43.99820225226033
 20
363.5629015573042
 30
0.0
 41
1.0
 10
43.98141442197828
 20
363.8622906844354
 30
0.0
 41
1.0
  0
SPLINE
  5
184
330
5E
100
AcDbEntity
  8
$DDT_AUDIT_GENERATED_(8F)
  6
Continuous
 62
     7
100
AcDbSpline
210
0.0
220
0.0
230
1.0
 70
     8
 71
     3
 72
     8
 73
     4
 74
     0
 42
0.0000002109437616
 43
0.0000000001
 40
0.7532994614184184
 40
0.7532994614184184
 40
0.7532994614184184
 40
0.7532994614184184
 40
1.0
 40
1.0
 40
1.0
 40
1.0
 10
43.28246234144726
 20
363.7982775639748
 30
0.0
 10
43.27950342104749
 20
363.7980052734615
 30
0.0
 10
43.27636291908743
 20
363.7998445101431
 30
0.0
 10
43.27321704512936
 20
363.8038386025153
 30
0.0
  0
LINE
  5
185
330
5E
100
AcDbEntity
  8
$DDT_AUDIT_GENERATED_(8F)
  6
Continuous
 62
     7
100
AcDbLine
 10
43.2732170451
 20
363.8038386025
 30
0.0
 11
43.2676679409
 21
363.810921682
 31
0.0
  0
ARC
  5
186
330
5E
100
AcDbEntity
  8
$DDT_AUDIT_GENERATED_(8F)
  6
Continuous
 62
     7
100
AcDbCircle
 10
43.4951045482
 20
363.9206280899
 30
0.0
 40
0.2525131804220086
100
AcDbArc
 50
178.5148561135
 51
205.7508197909
  0
SPLINE
  5
187
330
5E
100
AcDbEntity
  8
$DDT_AUDIT_GENERATED_(8F)
  6
Continuous
 62
     7
100
AcDbSpline
210
0.0
220
0.0
230
1.0
 70
    12
 71
     2
 72
     6
 73
     3
 74
     0
 42
0.0000000101128699
 43
0.0000000001
 40
0.0
 40
0.0
 40
0.0
 40
0.539318094768052
 40
0.539318094768052
 40
0.539318094768052
 10
43.24267619233599
 20
363.9271726629092
 30
0.0
 41
1.0
 10
43.23506750618878
 20
364.193706367597
 30
0.0
 41
1.0
 10
43.2276908948747
 20
364.4602607872916
 30
0.0
 41
1.0
  0
LINE
  5
188
330
5E
100
AcDbEntity
  8
$DDT_AUDIT_GENERATED_(8F)
  6
Continuous
 62
     7
100
AcDbLine
 10
41.8326907757
 20
365.0042252478
 30
0.0
 11
41.9588640707
 21
365.0042252478
 31
0.0
  0
ARC
  5
189
330
5E
100
AcDbEntity
  8
$DDT_AUDIT_GENERATED_(8F)
  6
Continuous
 62
     7
100
AcDbCircle
 10
41.8293463144
 20
365.1018060431
 30
0.0
 40
0.0976380920775012
100
AcDbArc
 50
201.529841805
 51
271.9629736797
  0
LINE
  5
18A
330
5E
100
AcDbEntity
  8
$DDT_AUDIT_GENERATED_(8F)
  6
Continuous
 62
     7
100
AcDbLine
 10
41.7317750387
 20
365.9532448682
 30
0.0
 11
41.7317750387
 21
367.0915583224
 31
0.0
  0
ARC
  5
18B
330
5E
100
AcDbEntity
  8
$DDT_AUDIT_GENERATED_(8F)
  6
Continuous
 62
     7
100
AcDbCircle
 10
41.8293429222
 20
365.9568527583
 30
0.0
 40
0.0976345674167728
100
AcDbArc
 50
182.117733068
 51
271.9650364717
  0
LINE
  5
18C
330
5E
100
AcDbEntity
  8
$DDT_AUDIT_GENERATED_(8F)
  6
Continuous
 62
     7
100
AcDbLine
 10
41.9588640707
 20
365.8592756061
 30
0.0
 11
41.8326907757
 21
365.8592756061
 31
0.0
  0
ARC
  5
18D
330
5E
100
AcDbEntity
  8
$DDT_AUDIT_GENERATED_(8F)
  6
Continuous
 62
     7
100
AcDbCircle
 10
41.9555079258
 20
365.9568703094
 30
0.0
 40
0.0976523928183751
100
AcDbArc
 50
182.1276511905
 51
271.9695453225
  0
LINE
  5
18E
330
5E
100
AcDbEntity
  8
$DDT_AUDIT_GENERATED_(8F)
  6
Continuous
 62
     7
100
AcDbLine
 10
41.8579228552
 20
367.1899586908
 30
0.0
 11
41.8579228552
 21
365.9532448682
 31
0.0
  0
LINE
  5
18F
330
5E
100
AcDbEntity
  8
$DDT_AUDIT_GENERATED_(8F)
  6
Continuous
 62
     7
100
AcDbLine
 10
43.6332179907
 20
367.3459883362
 30
0.0
 11
43.7224359832
 21
367.3154739856
 31
0.0
  0
ARC
  5
190
330
5E
100
AcDbEntity
  8
$DDT_AUDIT_GENERATED_(8F)
  6
Continuous
 62
     7
100
AcDbCircle
 10
43.690182741
 20
367.4610229266
 30
0.0
 40
0.1283664277629665
100
AcDbArc
 50
178.5087635231
 51
243.6555383208
  0
LINE
  5
191
330
5E
100
AcDbEntity
  8
$DDT_AUDIT_GENERATED_(8F)
  6
Continuous
 62
     7
100
AcDbLine
 10
43.5618597887
 20
368.0729789389
 30
0.0
 11
43.5618597887
 21
367.4643635407
 31
0.0
  0
LINE
  5
192
330
5E
100
AcDbEntity
  8
$DDT_AUDIT_GENERATED_(8F)
  6
Continuous
 62
     7
100
AcDbLine
 10
45.3296267417
 20
368.0689754473
 30
0.0
 11
45.3296267417
 21
368.5990769342
 31
0.0
  0
ARC
  5
193
330
5E
100
AcDbEntity
  8
$DDT_AUDIT_GENERATED_(8F)
  6
Continuous
 62
     7
100
AcDbCircle
 10
45.4579637754
 20
368.0656433217
 30
0.0
 40
0.1283802838012577
100
AcDbArc
 50
178.5127141677
 51
243.6515876763
  0
LINE
  5
194
330
5E
100
AcDbEntity
  8
$DDT_AUDIT_GENERATED_(8F)
  6
Continuous
 62
     7
100
AcDbLine
 10
45.4902029362
 20
367.9200858922
 30
0.0
 11
45.4009849437
 21
367.9506002428
 31
0.0
  0
ARC
  5
195
330
5E
100
AcDbEntity
  8
$DDT_AUDIT_GENERATED_(8F)
  6
Continuous
 62
     7
100
AcDbCircle
 10
45.547158588
 20
368.0351347013
 30
0.0
 40
0.1283751328819996
100
AcDbArc
 50
178.5124617441
 51
243.6619935018
  0
LINE
  5
196
330
5E
100
AcDbEntity
  8
$DDT_AUDIT_GENERATED_(8F)
  6
Continuous
 62
     7
100
AcDbLine
 10
45.4188267182
 20
368.6196752608
 30
0.0
 11
45.4188267182
 21
368.0384672586
 31
0.0
  0
LINE
  5
197
330
5E
100
AcDbEntity
  8
$DDT_AUDIT_GENERATED_(8F)
  6
Continuous
 62
     7
100
AcDbLine
 10
49.7478421656
 20
368.5664168189
 30
0.0
 11
49.7478421656
 21
368.5232630105
 31
0.0
  0
LINE
  5
198
330
5E
100
AcDbEntity
  8
$DDT_AUDIT_GENERATED_(8F)
  6
Continuous
 62
     7
100
AcDbLine
 10
49.7478421656
 20
368.5664168189
 30
0.0
 11
49.7478421656
 21
368.6949012958
 31
0.0
  0
LINE
  5
199
330
5E
100
AcDbEntity
  8
$DDT_AUDIT_GENERATED_(8F)
  6
Continuous
 62
     7
100
AcDbLine
 10
49.7478421656
 20
369.1712542686
 30
0.0
 11
49.7478421656
 21
368.6949012958
 31
0.0
  0
LINE
  5
19A
330
5E
100
AcDbEntity
  8
$DDT_AUDIT_GENERATED_(8F)
  6
Continuous
 62
     7
100
AcDbLine
 10
52.2478421656
 20
368.6949012958
 30
0.0
 11
52.2478421656
 21
369.1712542686
 31
0.0
  0
LINE
  5
19B
330
5E
100
AcDbEntity
  8
$DDT_AUDIT_GENERATED_(8F)
  6
Continuous
 62
     7
100
AcDbLine
 10
52.2478421656
 20
368.6949012958
 30
0.0
 11
52.2478421656
 21
368.5664168189
 31
0.0
  0
LINE
  5
19C
330
5E
100
AcDbEntity
  8
$DDT_AUDIT_GENERATED_(8F)
  6
Continuous
 62
     7
100
AcDbLine
 10
52.2478421656
 20
368.5232630105
 30
0.0
 11
52.2478421656
 21
368.5664168189
 31
0.0
  0
LINE
  5
19D
330
5E
100
AcDbEntity
  8
$DDT_AUDIT_GENERATED_(8F)
  6
Continuous
 62
     7
100
AcDbLine
 10
56.576857613
 20
368.6196752608
 30
0.0
 11
56.576857613
 21
368.0384672586
 31
0.0
  0
ARC
  5
19E
330
5E
100
AcDbEntity
  8
$DDT_AUDIT_GENERATED_(8F)
  6
Continuous
 62
     7
100
AcDbCircle
 10
56.4485116757
 20
368.035143183
 30
0.0
 40
0.1283889756787709
100
AcDbArc
 50
296.3419533094
 51
1.4835914446
  0
LINE
  5
19F
330
5E
100
AcDbEntity
  8
$DDT_AUDIT_GENERATED_(8F)
  6
Continuous
 62
     7
100
AcDbLine
 10
56.5946993875
 20
367.9506002428
 30
0.0
 11
56.505481395
 21
367.9200858922
 31
0.0
  0
ARC
  5
1A0
330
5E
100
AcDbEntity
  8
$DDT_AUDIT_GENERATED_(8F)
  6
Continuous
 62
     7
100
AcDbCircle
 10
56.5377346372
 20
368.0656348332
 30
0.0
 40
0.12836642776296
100
AcDbArc
 50
296.3444616792
 51
1.4912364769
  0
LINE
  5
1A1
330
5E
100
AcDbEntity
  8
$DDT_AUDIT_GENERATED_(8F)
  6
Continuous
 62
     7
100
AcDbLine
 10
56.6660575894
 20
368.5990769342
 30
0.0
 11
56.6660575894
 21
368.0689754473
 31
0.0
  0
LINE
  5
1A2
330
5E
100
AcDbEntity
  8
$DDT_AUDIT_GENERATED_(8F)
  6
Continuous
 62
     7
100
AcDbLine
 10
58.4338245424
 20
367.4643635407
 30
0.0
 11
58.4338245424
 21
368.0729789389
 31
0.0
  0
ARC
  5
1A3
330
5E
100
AcDbEntity
  8
$DDT_AUDIT_GENERATED_(8F)
  6
Continuous
 62
     7
100
AcDbCircle
 10
58.3054875088
 20
367.4610314151
 30
0.0
 40
0.1283802838012579
100
AcDbArc
 50
296.3484123237
 51
1.4872858323
  0
LINE
  5
1A4
330
5E
100
AcDbEntity
  8
$DDT_AUDIT_GENERATED_(8F)
  6
Continuous
 62
     7
100
AcDbLine
 10
58.273248348
 20
367.3154739856
 30
0.0
 11
58.3624663405
 21
367.3459883362
 31
0.0
  0
LINE
  5
1A5
330
5E
100
AcDbEntity
  8
$DDT_AUDIT_GENERATED_(8F)
  6
Continuous
 62
     7
100
AcDbLine
 10
60.1377614759
 20
365.9532448682
 30
0.0
 11
60.1377614759
 21
367.1899586908
 31
0.0
  0
ARC
  5
1A6
330
5E
100
AcDbEntity
  8
$DDT_AUDIT_GENERATED_(8F)
  6
Continuous
 62
     7
100
AcDbCircle
 10
60.0401798097
 20
365.9568666525
 30
0.0
 40
0.0976488551112472
100
AcDbArc
 50
268.0283845993
 51
357.8744188877
  0
LINE
  5
1A7
330
5E
100
AcDbEntity
  8
$DDT_AUDIT_GENERATED_(8F)
  6
Continuous
 62
     7
100
AcDbLine
 10
60.1629935555
 20
365.8592756061
 30
0.0
 11
60.0368202605
 21
365.8592756061
 31
0.0
  0
ARC
  5
1A8
330
5E
100
AcDbEntity
  8
$DDT_AUDIT_GENERATED_(8F)
  6
Continuous
 62
     7
100
AcDbCircle
 10
60.1663380167
 20
365.9568564014
 30
0.0
 40
0.0976380920775027
100
AcDbArc
 50
268.0370263203
 51
357.88020414
  0
LINE
  5
1A9
330
5E
100
AcDbEntity
  8
$DDT_AUDIT_GENERATED_(8F)
  6
Continuous
 62
     7
100
AcDbLine
 10
60.2639092925
 20
367.0915583224
 30
0.0
 11
60.2639092925
 21
365.9532448682
 31
0.0
  0
ARC
  5
1AA
330
5E
100
AcDbEntity
  8
$DDT_AUDIT_GENERATED_(8F)
  6
Continuous
 62
     7
100
AcDbCircle
 10
60.166341409
 20
365.1018024
 30
0.0
 40
0.097634567416775
100
AcDbArc
 50
268.0349635283
 51
338.4778597472
  0
LINE
  5
1AB
330
5E
100
AcDbEntity
  8
$DDT_AUDIT_GENERATED_(8F)
  6
Continuous
 62
     7
100
AcDbLine
 10
60.0368202605
 20
365.0042252478
 30
0.0
 11
60.1629935555
 21
365.0042252478
 31
0.0
  0
ELLIPSE
  5
1AC
330
5E
100
AcDbEntity
  8
$DDT_AUDIT_GENERATED_(8F)
  6
Continuous
 62
     7
100
AcDbEllipse
 10
50.9978421656
 20
365.525719689
 30
0.0
 11
9.350000000004815
 21
1.387778780781446E-14
 31
0.0
210
0.0
220
0.0
230
1.0
 40
0.3420201433
 41
3.138126532774164
 42
3.145043634391832
  0
ELLIPSE
  5
1AD
330
5E
100
AcDbEntity
  8
$DDT_AUDIT_GENERATED_(8F)
  6
Continuous
 62
     7
100
AcDbEllipse
 10
50.9978421656
 20
365.525719689
 30
0.0
 11
-9.349999999981728
 21
0.0
 31
0.0
210
0.0
220
0.0
230
1.0
 40
0.3420201433
 41
3.13812653277442
 42
3.14504363439151
  0
ARC
  5
1AE
330
5E
100
AcDbEntity
  8
$DDT_AUDIT_GENERATED_(8F)
  6
Continuous
 62
     7
100
AcDbCircle
 10
264.3390369126
 20
390.717022989
 30
0.0
 40
215.433263837156
100
AcDbArc
 50
186.871425211
 51
186.8763162747
  0
SPLINE
  5
1AF
330
5E
100
AcDbEntity
  8
$DDT_AUDIT_GENERATED_(8F)
  6
Continuous
 62
     7
100
AcDbSpline
210
0.0
220
0.0
230
1.0
 70
     8
 71
     3
 72
    11
 73
     7
 74
     0
 42
0.000000371237843
 43
0.0000000001
 40
0.0
 40
0.0
 40
0.0
 40
0.0
 40
0.2289377704749271
 40
0.2289377704749271
 40
0.2289377704749271
 40
0.2386570975994489
 40
0.2386570975994489
 40
0.2386570975994489
 40
0.2386570975994489
 10
46.27958511295639
 20
364.5118836499295
 30
0.0
 10
46.27961036555917
 20
364.5080822569291
 30
0.0
 10
46.27938409130429
 20
364.5060198286302
 30
0.0
 10
46.27891937306464
 20
364.5058628978247
 30
0.0
 10
46.27889964211072
 20
364.5058562348745
 30
0.0
 10
46.27887945748321
 20
364.5058529973958
 30
0.0
 10
46.27885882259769
 20
364.5058531733505
 30
0.0
  0
SPLINE
  5
1B0
330
5E
100
AcDbEntity
  8
$DDT_AUDIT_GENERATED_(8F)
  6
Continuous
 62
     7
100
AcDbSpline
210
0.0
220
0.0
230
1.0
 70
     8
 71
     3
 72
     8
 73
     4
 74
     0
 42
0.000000365348521
 43
0.0000000001
 40
0.7620361633710686
 40
0.7620361633710686
 40
0.7620361633710686
 40
0.7620361633710686
 40
1.0
 40
1.0
 40
1.0
 40
1.0
 10
55.71682760755595
 20
364.5058952849123
 30
0.0
 10
55.71632155347956
 20
364.5058920395002
 30
0.0
 10
55.71607258369582
 20
364.5078742322799
 30
0.0
 10
55.71609921820355
 20
364.5118836499295
 30
0.0
  0
SPLINE
  5
1B1
330
5E
100
AcDbEntity
  8
$DDT_AUDIT_GENERATED_(8F)
  6
Continuous
 62
     7
100
AcDbSpline
210
0.0
220
0.0
230
1.0
 70
     8
 71
     3
 72
     8
 73
     4
 74
     0
 42
0.0000003560304584
 43
0.0000000001
 40
0.0
 40
0.0
 40
0.0
 40
0.0
 40
0.2374079768411373
 40
0.2374079768411373
 40
0.2374079768411373
 40
0.2374079768411373
 10
44.52592796696625
 20
364.5118836499295
 30
0.0
 10
44.525947381352
 20
364.5078748772397
 30
0.0
 10
44.52561192066983
 20
364.5058994183868
 30
0.0
 10
44.52495629455571
 20
364.5059025906539
 30
0.0
  0
SPLINE
  5
1B2
330
5E
100
AcDbEntity
  8
$DDT_AUDIT_GENERATED_(8F)
  6
Continuous
 62
     7
100
AcDbSpline
210
0.0
220
0.0
230
1.0
 70
     8
 71
     3
 72
     8
 73
     4
 74
     0
 42
0.0000003557326648
 43
0.0000000001
 40
0.7625134393821881
 40
0.7625134393821881
 40
0.7625134393821881
 40
0.7625134393821881
 40
1.0
 40
1.0
 40
1.0
 40
1.0
 10
57.47072742370653
 20
364.5058954583331
 30
0.0
 10
57.47007152391019
 20
364.5058916926962
 30
0.0
 10
57.46973693506014
 20
364.5078718320431
 30
0.0
 10
57.4697563641937
 20
364.5118836499295
 30
0.0
  0
ARC
  5
1B3
330
5E
100
AcDbEntity
  8
$DDT_AUDIT_GENERATED_(8F)
  6
Continuous
 62
     7
100
AcDbCircle
 10
50.7174521293
 20
364.8473652648
 30
0.0
 40
0.4426277346672053
100
AcDbArc
 50
208.6279394206
 51
217.1806035624
  0
SPLINE
  5
1B4
330
5E
100
AcDbEntity
  8
$DDT_AUDIT_GENERATED_(8F)
  6
Continuous
 62
     7
100
AcDbSpline
210
0.0
220
0.0
230
1.0
 70
    12
 71
     2
 72
     6
 73
     3
 74
     0
 42
0.0000011105898116
 43
0.0000000001
 40
0.0
 40
0.0
 40
0.0
 40
1.0
 40
1.0
 40
1.0
 10
50.46338715251623
 20
364.4627747042632
 30
0.0
 41
1.0
 10
50.46041301856732
 20
364.4662979535417
 30
0.0
 41
1.0
 10
50.45783804824961
 20
364.4698577837805
 30
0.0
 41
1.0
  0
ARC
  5
1B5
330
5E
100
AcDbEntity
  8
$DDT_AUDIT_GENERATED_(8F)
  6
Continuous
 62
     7
100
AcDbCircle
 10
52.5758288482
 20
366.3554608993
 30
0.0
 40
2.835733439155982
100
AcDbArc
 50
218.7664915796
 51
221.6780071761
  0
SPLINE
  5
1B6
330
5E
100
AcDbEntity
  8
$DDT_AUDIT_GENERATED_(8F)
  6
Continuous
 62
     7
100
AcDbSpline
210
0.0
220
0.0
230
1.0
 70
     8
 71
     3
 72
     8
 73
     4
 74
     0
 42
0.0000002741177278
 43
0.0000000001
 40
0.7773213237190316
 40
0.7773213237190316
 40
0.7773213237190316
 40
0.7773213237190316
 40
1.0
 40
1.0
 40
1.0
 40
1.0
 10
50.46718839539682
 20
364.4568229779666
 30
0.0
 10
50.46786399107753
 20
364.4568569678733
 30
0.0
 10
50.46681919048342
 20
364.4587090079989
 30
0.0
 10
50.46338715251624
 20
364.4627747042632
 30
0.0
  0
SPLINE
  5
1B7
330
5E
100
AcDbEntity
  8
$DDT_AUDIT_GENERATED_(8F)
  6
Continuous
 62
     7
100
AcDbSpline
210
0.0
220
0.0
230
1.0
 70
     8
 71
     3
 72
    62
 73
    58
 74
     0
 42
0.0000000067432607
 43
0.0000000001
 40
0.1336796473723743
 40
0.1336796473723743
 40
0.1336796473723743
 40
0.1336796473723743
 40
0.144692365522933
 40
0.1587727327379828
 40
0.1728657856375533
 40
0.1869793669310182
 40
0.2011228772709471
 40
0.2153076780959024
 40
0.2295475867402229
 40
0.2438594700442661
 40
0.2582639306056208
 40
0.2727860570862807
 40
0.2874561698727209
 40
0.3023104241384458
 40
0.3173910135312575
 40
0.3327455164231177
 40
0.3484246022456298
 40
0.3644768611467123
 40
0.3809391158471023
 40
0.397820956498
 40
0.4150851135838839
 40
0.4326322572159733
 40
0.4502852725176423
 40
0.4678311649149098
 40
0.4851380423888512
 40
0.5021359805145361
 40
0.5188102676628767
 40
0.5351824875478899
 40
0.5512934577494449
 40
0.5671921862799465
 40
0.5829300208628108
 40
0.5985581171366111
 40
0.6141267595301214
 40
0.629685644522319
 40
0.645275926005601
 40
0.6609404184872906
 40
0.6767315526371623
 40
0.6927043753386777
 40
0.70891716553295
 40
0.725431265431538
 40
0.7423092527414141
 40
0.7596098762932398
 40
0.7773772927115776
 40
0.79562194724027
 40
0.8142936912312261
 40
0.8332585028427817
 40
0.850135494413942
 40
0.8666552455408998
 40
0.8827885011132769
 40
0.8985504626411432
 40
0.913978612159222
 40
0.9291183422012654
 40
0.9440147803451007
 40
0.9587088363796296
 40
0.9732357212742646
 40
0.9876247881790291
 40
0.997196913311728
 40
0.997196913311728
 40
0.997196913311728
 40
0.997196913311728
 10
51.62656887039928
 20
364.5628766533019
 30
0.0
 10
51.62340307626275
 20
364.558361959381
 30
0.0
 10
51.61603653048872
 20
364.5481892282399
 30
0.0
 10
51.60400499811716
 20
364.5327250554678
 30
0.0
 10
51.59040999072605
 20
364.5165703113686
 30
0.0
 10
51.5762110872838
 20
364.5009460329464
 30
0.0
 10
51.56142636190135
 20
364.4858625886819
 30
0.0
 10
51.54607166355966
 20
364.4713276546669
 30
0.0
 10
51.53015970129258
 20
364.4573459989828
 30
0.0
 10
51.51369891951276
 20
364.4439192942516
 30
0.0
 10
51.49669215807726
 20
364.43104599946
 30
0.0
 10
51.47913512521301
 20
364.4187213691687
 30
0.0
 10
51.46101477445751
 20
364.4069376720397
 30
0.0
 10
51.44230778676642
 20
364.3956847300345
 30
0.0
 10
51.42297954867841
 20
364.3849509268114
 30
0.0
 10
51.40298433651511
 20
364.3747248766833
 30
0.0
 10
51.3822679171207
 20
364.3649979754006
 30
0.0
 10
51.36077442555623
 20
364.3557680012759
 30
0.0
 10
51.33845979805473
 20
364.3470436200151
 30
0.0
 10
51.31531301069339
 20
364.3388487678652
 30
0.0
 10
51.29138184013206
 20
364.3312243574686
 30
0.0
 10
51.26680127111995
 20
364.324226449296
 30
0.0
 10
51.24179544470239
 20
364.3179138579866
 30
0.0
 10
51.2166162468485
 20
364.3123240054897
 30
0.0
 10
51.19147774116264
 20
364.3074619410073
 30
0.0
 10
51.16650880335449
 20
364.3033028684627
 30
0.0
 10
51.14177008909712
 20
364.2998074231947
 30
0.0
 10
51.1172711193523
 20
364.2969323247053
 30
0.0
 10
51.09299099952899
 20
364.2946374983151
 30
0.0
 10
51.06889402513033
 20
364.292889487663
 30
0.0
 10
51.04493889348673
 20
364.2916624964128
 30
0.0
 10
51.02108315214051
 20
364.2909383161699
 30
0.0
 10
50.99728474593867
 20
364.2907059155352
 30
0.0
 10
50.97350640440104
 20
364.2909610362517
 30
0.0
 10
50.94971448596405
 20
364.2917055796169
 30
0.0
 10
50.92587382537609
 20
364.2929475181895
 30
0.0
 10
50.90194216618482
 20
364.2947018194984
 30
0.0
 10
50.87786960135968
 20
364.2969917112344
 30
0.0
 10
50.85360211125086
 20
364.2998497027965
 30
0.0
 10
50.82908243635701
 20
364.3033189285302
 30
0.0
 10
50.80425367630974
 20
364.3074543002758
 30
0.0
 10
50.77906783304191
 20
364.312322579295
 30
0.0
 10
50.75350219782199
 20
364.3179996403127
 30
0.0
 10
50.72758516885717
 20
364.3245623798931
 30
0.0
 10
50.70142664005628
 20
364.3320732988656
 30
0.0
 10
50.67623707780469
 20
364.3402357114538
 30
0.0
 10
50.65235036567449
 20
364.3488760632227
 30
0.0
 10
50.63003688876692
 20
364.3577844225209
 30
0.0
 10
50.60850984579725
 20
364.3672225702331
 30
0.0
 10
50.58775896884438
 20
364.377169792111
 30
0.0
 10
50.5677473705607
 20
364.3876189937867
 30
0.0
 10
50.54842629702203
 20
364.3985747117972
 30
0.0
 10
50.5297663816307
 20
364.4100353856853
 30
0.0
 10
50.5116896778763
 20
364.422037789561
 30
0.0
 10
50.49433826858462
 20
364.4344801885196
 30
0.0
 10
50.47897092677758
 20
364.446315993264
 30
0.0
 10
50.47043037383303
 20
364.4534445454578
 30
0.0
 10
50.46668901019125
 20
364.4566020764057
 30
0.0
  0
SPLINE
  5
1B8
330
5E
100
AcDbEntity
  8
$DDT_AUDIT_GENERATED_(8F)
  6
Continuous
 62
     7
100
AcDbSpline
210
0.0
220
0.0
230
1.0
 70
     8
 71
     3
 72
    29
 73
    25
 74
     0
 42
0.0000000005498393
 43
0.0000000001
 40
0.0
 40
0.0
 40
0.0
 40
0.0
 40
0.0428889724016594
 40
0.0885643352150826
 40
0.1344484785191327
 40
0.1802621513639197
 40
0.2259682780128328
 40
0.2715881091589122
 40
0.3171469718100117
 40
0.3626647270441027
 40
0.4081557380466598
 40
0.4536306021533579
 40
0.4990977317225835
 40
0.5445644012513182
 40
0.5900377754932247
 40
0.6355260216148266
 40
0.6810392812628908
 40
0.7265911888026053
 40
0.7722006401879309
 40
0.8178924236034173
 40
0.8636911088742156
 40
0.9095810544345246
 40
0.9553516924655532
 40
1.0
 40
1.0
 40
1.0
 40
1.0
 10
42.63872515690015
 20
363.7351984047918
 30
0.0
 10
42.68787918803324
 20
363.5959186006647
 30
0.0
 10
42.82145428615521
 20
363.3611612528288
 30
0.0
 10
43.17218981517747
 20
362.9809603945148
 30
0.0
 10
43.65820920536728
 20
362.6369962296144
 30
0.0
 10
44.27332782193213
 20
362.3109091009601
 30
0.0
 10
45.00139899118454
 20
362.0224741358768
 30
0.0
 10
45.83227259832867
 20
361.7677942742325
 30
0.0
 10
46.7506319425291
 20
361.5548661268048
 30
0.0
 10
47.74164992046208
 20
361.3846891942079
 30
0.0
 10
48.78814563584488
 20
361.2611927063012
 30
0.0
 10
49.87247251524308
 20
361.1856933235407
 30
0.0
 10
50.97602174832208
 20
361.1598266851325
 30
0.0
 10
52.07992765988421
 20
361.1837277376096
 30
0.0
 10
53.16535318132656
 20
361.2572940864804
 30
0.0
 10
54.21361651559491
 20
361.3789092281765
 30
0.0
 10
55.2071207392544
 20
361.5473007611719
 30
0.0
 10
56.12848262849224
 20
361.7585220535512
 30
0.0
 10
56.96311186107977
 20
362.0116571979719
 30
0.0
 10
57.69512642450273
 20
362.2985929136534
 30
0.0
 10
58.31543245444187
 20
362.623526199996
 30
0.0
 10
58.80618637647108
 20
362.9664803517914
 30
0.0
 10
59.1686966204363
 20
363.3512295948525
 30
0.0
 10
59.30441079852915
 20
363.5904728569124
 30
0.0
 10
59.35706195553451
 20
363.7352982589261
 30
0.0
  0
SPLINE
  5
1B9
330
5E
100
AcDbEntity
  8
$DDT_AUDIT_GENERATED_(8F)
  6
Continuous
 62
     7
100
AcDbSpline
210
0.0
220
0.0
230
1.0
 70
     8
 71
     3
 72
    27
 73
    23
 74
     0
 42
0.0000000007109037
 43
0.0000000001
 40
0.0
 40
0.0
 40
0.0
 40
0.0
 40
0.0474465157144714
 40
0.0976981104926497
 40
0.1484420090363562
 40
0.1990805154225398
 40
0.2495452958748511
 40
0.2998796401177874
 40
0.3501285252362215
 40
0.4003238830758679
 40
0.4504881136755777
 40
0.5006379314955233
 40
0.5507872972754242
 40
0.6009500140399655
 40
0.651142414727044
 40
0.7013861676310817
 40
0.7517120770676474
 40
0.8021641738592333
 40
0.8527896138615347
 40
0.9035522647111228
 40
0.953955701200456
 40
1.0
 40
1.0
 40
1.0
 40
1.0
 10
44.62417885405774
 20
363.9428581117999
 30
0.0
 10
44.65019452348587
 20
363.8175764012281
 30
0.0
 10
44.74309546804382
 20
363.6065049372038
 30
0.0
 10
45.0280573869906
 20
363.2695852217745
 30
0.0
 10
45.44708525810204
 20
362.969267094504
 30
0.0
 10
45.99247075316315
 20
362.688322437397
 30
0.0
 10
46.64745851018147
 20
362.4455010320144
 30
0.0
 10
47.39891720044119
 20
362.2379510704105
 30
0.0
 10
48.22958535080958
 20
362.0733494421837
 30
0.0
 10
49.12170308608447
 20
361.9528864398176
 30
0.0
 10
50.05535308715925
 20
361.8801543820255
 30
0.0
 10
51.00996395358136
 20
361.8559989246741
 30
0.0
 10
51.96427880125498
 20
361.8813994915049
 30
0.0
 10
52.89710589442849
 20
361.9553496566631
 30
0.0
 10
53.78780566887227
 20
362.0769618191143
 30
0.0
 10
54.61663085073766
 20
362.2426372146912
 30
0.0
 10
55.36560991734065
 20
362.4511096548671
 30
0.0
 10
56.01804796659171
 20
362.6947736227239
 30
0.0
 10
56.56013967987607
 20
362.9763783526038
 30
0.0
 10
56.97720033901539
 20
363.2777877751034
 30
0.0
 10
57.25492017644383
 20
363.6124282644486
 30
0.0
 10
57.34756709414187
 20
363.8211197471092
 30
0.0
 10
57.37150747445445
 20
363.9428083168587
 30
0.0
  0
SPLINE
  5
1BA
330
5E
100
AcDbEntity
  8
$DDT_AUDIT_GENERATED_(8F)
  6
Continuous
 62
     7
100
AcDbSpline
210
0.0
220
0.0
230
1.0
 70
     8
 71
     3
 72
    28
 73
    24
 74
     0
 42
0.0000000007274584
 43
0.0000000001
 40
0.0
 40
0.0
 40
0.0
 40
0.0
 40
0.0472998498193783
 40
0.0953318588732822
 40
0.1425769663714476
 40
0.1898613959689501
 40
0.2373226657498285
 40
0.2849307069992406
 40
0.3326392557310048
 40
0.3804124487390622
 40
0.4282252881784868
 40
0.4760596718457909
 40
0.5239012395429223
 40
0.5717366390267167
 40
0.6195517250051017
 40
0.6673289276424046
 40
0.7150441578874044
 40
0.7626627803877088
 40
0.8101388528980858
 40
0.8574348768847725
 40
0.9046464295906096
 40
0.9524549628528276
 40
1.0
 40
1.0
 40
1.0
 40
1.0
 10
44.82296387310576
 20
364.1226142711835
 30
0.0
 10
44.822709723473
 20
364.2240878797903
 30
0.0
 10
44.86652232957797
 20
364.3953713155993
 30
0.0
 10
45.05996987333523
 20
364.6934429516382
 30
0.0
 10
45.39198081342948
 20
364.9744914983377
 30
0.0
 10
45.84941992394889
 20
365.2461186831073
 30
0.0
 10
46.42541628892064
 20
365.490567578507
 30
0.0
 10
47.10640781360971
 20
365.7065526815362
 30
0.0
 10
47.87707240055582
 20
365.8852378481896
 30
0.0
 10
48.71929323553761
 20
366.0235998977302
 30
0.0
 10
49.6137646375664
 20
366.1173494761958
 30
0.0
 10
50.53988896181067
 20
366.1646177564234
 30
0.0
 10
51.4765078764032
 20
366.164086999637
 30
0.0
 10
52.40219224107108
 20
366.1157669472947
 30
0.0
 10
53.2957670857641
 20
366.0209984816456
 30
0.0
 10
54.13672641439192
 20
365.8816657055548
 30
0.0
 10
54.90565901324533
 20
365.7020806079768
 30
0.0
 10
55.58473407228767
 20
365.4852700525857
 30
0.0
 10
56.15813059932012
 20
365.2401261655507
 30
0.0
 10
56.61306873960143
 20
364.9680265458754
 30
0.0
 10
56.94069348015788
 20
364.6872755928748
 30
0.0
 10
57.13285159891168
 20
364.3892829499289
 30
0.0
 10
57.17244905574108
 20
364.2181794412239
 30
0.0
 10
57.17284216557997
 20
364.1161807578496
 30
0.0
  0
SPLINE
  5
1BB
330
5E
100
AcDbEntity
  8
$DDT_AUDIT_GENERATED_(8F)
  6
Continuous
 62
     7
100
AcDbSpline
210
0.0
220
0.0
230
1.0
 70
     8
 71
     3
 72
    24
 73
    20
 74
     0
 42
0.0000000009692808
 43
0.0000000001
 40
0.0
 40
0.0
 40
0.0
 40
0.0
 40
0.054829737092625
 40
0.1141821528420119
 40
0.1741757323084607
 40
0.233875720988402
 40
0.2932881181780345
 40
0.3525197332289203
 40
0.4116475127194763
 40
0.4707218262182015
 40
0.5297790490908004
 40
0.5888506530355605
 40
0.6479720323604131
 40
0.7071913947984936
 40
0.7665821364781761
 40
0.8262506264753486
 40
0.8862469940353062
 40
0.9458688337588219
 40
1.0
 40
1.0
 40
1.0
 40
1.0
 10
46.35478542730853
 20
364.0123192993188
 30
0.0
 10
46.37262576233637
 20
363.9018829561868
 30
0.0
 10
46.45481505726701
 20
363.7145694458238
 30
0.0
 10
46.72148379857509
 20
363.4235276269396
 30
0.0
 10
47.12536168243047
 20
363.1697827200588
 30
0.0
 10
47.65252954185362
 20
362.9405746728156
 30
0.0
 10
48.28258931339874
 20
362.753468285972
 30
0.0
 10
48.99705172614404
 20
362.6068060168312
 30
0.0
 10
49.77346139898676
 20
362.507655870008
 30
0.0
 10
50.58811112439628
 20
362.4571436026968
 30
0.0
 10
51.4154560471443
 20
362.4573877543275
 30
0.0
 10
52.22979964049205
 20
362.5083727726869
 30
0.0
 10
53.00566002308848
 20
362.607966756371
 30
0.0
 10
53.7191942908828
 20
362.7549996949795
 30
0.0
 10
54.34827873066124
 20
362.9424040215894
 30
0.0
 10
54.87408670775356
 20
363.171818235262
 30
0.0
 10
55.27790782893076
 20
363.4261955894211
 30
0.0
 10
55.54163615516036
 20
363.7168012182561
 30
0.0
 10
55.62425194548372
 20
363.9035696488569
 30
0.0
 10
55.64096316340992
 20
364.0126708814081
 30
0.0
  0
SPLINE
  5
1BC
330
5E
100
AcDbEntity
  8
$DDT_AUDIT_GENERATED_(8F)
  6
Continuous
 62
     7
100
AcDbSpline
210
0.0
220
0.0
230
1.0
 70
     8
 71
     3
 72
    25
 73
    21
 74
     0
 42
0.0000000010137038
 43
0.0000000001
 40
0.0
 40
0.0
 40
0.0
 40
0.0
 40
0.058467910087384
 40
0.1137767344685799
 40
0.1683981842488621
 40
0.2232946086782591
 40
0.2784916069322892
 40
0.3338897285695627
 40
0.3894094788604686
 40
0.4449973606721492
 40
0.5006164147562401
 40
0.55623659375457
 40
0.611828097595357
 40
0.6673551215267168
 40
0.7227664152416224
 40
0.7779855038599683
 40
0.8329112332842039
 40
0.8875273691882638
 40
0.9425614845333232
 40
1.0
 40
1.0
 40
1.0
 40
1.0
 10
46.56040061988135
 20
364.11619479451
 30
0.0
 10
46.56086172055018
 20
364.2016509935256
 30
0.0
 10
46.59993713031817
 20
364.3415104658706
 30
0.0
 10
46.79521441154444
 20
364.5911093454826
 30
0.0
 10
47.11807427636887
 20
364.8188417335115
 30
0.0
 10
47.5606663866318
 20
365.0340158374134
 30
0.0
 10
48.11108378178889
 20
365.219173405599
 30
0.0
 10
48.75219621561966
 20
365.3719479190921
 30
0.0
 10
49.46365430962159
 20
365.4840837353967
 30
0.0
 10
50.2230415242847
 20
365.5531108333873
 30
0.0
 10
51.00660158858576
 20
365.5758254737335
 30
0.0
 10
51.78990681632327
 20
365.5520726870333
 30
0.0
 10
52.54855742281099
 20
365.4820376333612
 30
0.0
 10
53.25879997878047
 20
365.3689354476422
 30
0.0
 10
53.89829998287179
 20
365.2152812445467
 30
0.0
 10
54.44664923820164
 20
365.0293024545476
 30
0.0
 10
54.886749737976
 20
364.8135510952319
 30
0.0
 10
55.2059739599822
 20
364.585799945654
 30
0.0
 10
55.39706229576833
 20
364.3383767102292
 30
0.0
 10
55.4345957591522
 20
364.2001390058791
 30
0.0
 10
55.43534216557997
 20
364.1161807578496
 30
0.0
  0
SPLINE
  5
1BD
330
5E
100
AcDbEntity
  8
$DDT_AUDIT_GENERATED_(8F)
  6
Continuous
 62
     7
100
AcDbSpline
210
0.0
220
0.0
230
1.0
 70
     8
 71
     3
 72
    21
 73
    17
 74
     0
 42
0.0000000015655923
 43
0.0000000001
 40
0.0
 40
0.0
 40
0.0
 40
0.0
 40
0.0670583003340166
 40
0.1396372041348466
 40
0.2125614325374553
 40
0.2847563653353943
 40
0.3564868316448588
 40
0.4279779461130467
 40
0.4993669839243752
 40
0.5707509183606517
 40
0.6422238637856366
 40
0.7139144977472645
 40
0.7860327719085389
 40
0.8588720121034923
 40
0.9318911879353899
 40
1.0
 40
1.0
 40
1.0
 40
1.0
 10
48.12689274790184
 20
364.0323480470139
 30
0.0
 10
48.14524700910702
 20
363.9437947807283
 30
0.0
 10
48.22219772759248
 20
363.7972953661886
 30
0.0
 10
48.46445169142567
 20
363.5830908229271
 30
0.0
 10
48.81998216421905
 20
363.4060179075723
 30
0.0
 10
49.27440889998608
 20
363.2566237583852
 30
0.0
 10
49.80295486191213
 20
363.1486740931124
 30
0.0
 10
50.38437929207149
 20
363.0807932846795
 30
0.0
 10
50.99258089819619
 20
363.0583059272901
 30
0.0
 10
51.60097476820351
 20
363.0800188038727
 30
0.0
 10
52.18293387460104
 20
363.14713720064
 30
0.0
 10
52.71233369171735
 20
363.254311979052
 30
0.0
 10
53.16794596128562
 20
363.4029351441283
 30
0.0
 10
53.52602196264309
 20
363.5796173647468
 30
0.0
 10
53.77172912847787
 20
363.7947258404337
 30
0.0
 10
53.85029448272207
 20
363.9425557623921
 30
0.0
 10
53.8688117349032
 20
364.0325077468431
 30
0.0
  0
SPLINE
  5
1BE
330
5E
100
AcDbEntity
  8
$DDT_AUDIT_GENERATED_(8F)
  6
Continuous
 62
     7
100
AcDbSpline
210
0.0
220
0.0
230
1.0
 70
     8
 71
     3
 72
    21
 73
    17
 74
     0
 42
0.0000000016972114
 43
0.0000000001
 40
0.0
 40
0.0
 40
0.0
 40
0.0
 40
0.0772420328890335
 40
0.1469382787035036
 40
0.2168148234164006
 40
0.2875276412111034
 40
0.3587526538920676
 40
0.4302413099912242
 40
0.5018417421607755
 40
0.5734446531233207
 40
0.6449419946081236
 40
0.7161870938807523
 40
0.786940312858647
 40
0.8568659614108698
 40
0.9263582951918161
 40
1.0
 40
1.0
 40
1.0
 40
1.0
 10
48.33538155511352
 20
364.1162133809497
 30
0.0
 10
48.33600159689166
 20
364.1748615235594
 30
0.0
 10
48.36972310141607
 20
364.2724965506538
 30
0.0
 10
48.56506179631148
 20
364.4618345067832
 30
0.0
 10
48.88151122764958
 20
364.6257741660416
 30
0.0
 10
49.30876589779697
 20
364.770651149395
 30
0.0
 10
49.8254601875148
 20
364.878621476869
 30
0.0
 10
50.40399537559836
 20
364.9468375216253
 30
0.0
 10
51.01372833967946
 20
364.9686176104466
 30
0.0
 10
51.62269317491592
 20
364.9444210545904
 30
0.0
 10
52.19890922662158
 20
364.8739453409571
 30
0.0
 10
52.711935608731
 20
364.7638526497626
 30
0.0
 10
53.13414124332538
 20
364.6173951436173
 30
0.0
 10
53.4441089285277
 20
364.4523132214156
 30
0.0
 10
53.62853258497833
 20
364.2668031785391
 30
0.0
 10
53.6597893804906
 20
364.1721166615248
 30
0.0
 10
53.66034216557998
 20
364.1161807578496
 30
0.0
  0
LINE
  5
1BF
330
5E
100
AcDbEntity
  8
$DDT_AUDIT_GENERATED_(8F)
  6
Continuous
 62
     7
100
AcDbLine
 10
42.1347621714
 20
365.1902638575
 30
0.0
 11
42.6338997311
 21
363.7485582951
 31
0.0
  0
LINE
  5
1C0
330
5E
100
AcDbEntity
  8
$DDT_AUDIT_GENERATED_(8F)
  6
Continuous
 62
     7
100
AcDbLine
 10
59.3617846001
 20
363.7485582951
 30
0.0
 11
59.8609221598
 21
365.1902638575
 31
0.0
  0
LINE
  5
1C1
330
5E
100
AcDbEntity
  8
$DDT_AUDIT_GENERATED_(8F)
  6
Continuous
 62
     7
100
AcDbLine
 10
47.914217219
 20
365.1122640216
 30
0.0
 11
48.1267359727
 21
364.0329880067
 31
0.0
  0
LINE
  5
1C2
330
5E
100
AcDbEntity
  8
$DDT_AUDIT_GENERATED_(8F)
  6
Continuous
 62
     7
100
AcDbLine
 10
53.8689483584
 20
364.0329880067
 30
0.0
 11
54.0164233533
 21
364.7819394379
 31
0.0
  0
LINE
  5
1C3
330
5E
100
AcDbEntity
  8
$DDT_AUDIT_GENERATED_(8F)
  6
Continuous
 62
     7
100
AcDbLine
 10
44.5131681947
 20
364.505852912
 30
0.0
 11
44.6221745908
 21
363.9522641738
 31
0.0
  0
LINE
  5
1C4
330
5E
100
AcDbEntity
  8
$DDT_AUDIT_GENERATED_(8F)
  6
Continuous
 62
     7
100
AcDbLine
 10
57.3735097404
 20
363.9522641738
 30
0.0
 11
57.4825161365
 21
364.505852912
 31
0.0
  0
LINE
  5
1C5
330
5E
100
AcDbEntity
  8
$DDT_AUDIT_GENERATED_(8F)
  6
Continuous
 62
     7
100
AcDbLine
 10
46.2737485767
 20
364.505852912
 30
0.0
 11
46.354593478
 21
364.0128268512
 31
0.0
  0
LINE
  5
1C6
330
5E
100
AcDbEntity
  8
$DDT_AUDIT_GENERATED_(8F)
  6
Continuous
 62
     7
100
AcDbLine
 10
55.6410908532
 20
364.0128268512
 30
0.0
 11
55.7219357544
 21
364.505852912
 31
0.0
  0
SPLINE
  5
1C7
330
5E
100
AcDbEntity
  8
$DDT_AUDIT_GENERATED_(8F)
  6
Continuous
 62
     7
100
AcDbSpline
210
0.0
220
0.0
230
1.0
 70
     8
 71
     3
 72
    31
 73
    27
 74
     0
 42
0.0000000005032566
 43
0.0000000001
 40
0.0
 40
0.0
 40
0.0
 40
0.0
 40
0.0418246843297316
 40
0.0839774924154045
 40
0.1253779717483752
 40
0.1666982316926813
 40
0.2081207009297853
 40
0.249657522235358
 40
0.2912830526812691
 40
0.332971132751875
 40
0.374701659825329
 40
0.416459960233921
 40
0.4582350835661429
 40
0.5000183092511943
 40
0.5418018897579987
 40
0.5835781085696452
 40
0.6253384291934582
 40
0.6670722437644169
 40
0.7087654200302953
 40
0.7503985763867391
 40
0.7919460717291592
 40
0.8333806541378752
 40
0.8747033059465923
 40
0.9160551379864605
 40
0.9580111239756808
 40
1.0
 40
1.0
 40
1.0
 40
1.0
 10
42.0729830418795
 20
365.5566211089819
 30
0.0
 10
42.07317842423546
 20
365.6885827864556
 30
0.0
 10
42.1221975266434
 20
365.9098700378719
 30
0.0
 10
42.33965946724323
 20
366.290822280049
 30
0.0
 10
42.70848602677049
 20
366.6506447976359
 30
0.0
 10
43.21846912384078
 20
367.0041372779509
 30
0.0
 10
43.86390550387944
 20
367.3306277346351
 30
0.0
 10
44.63392099378738
 20
367.6304767955284
 30
0.0
 10
45.51540305528862
 20
367.8934904288533
 30
0.0
 10
46.49265398786909
 20
368.1164899428114
 30
0.0
 10
47.54853100366768
 20
368.294046471276
 30
0.0
 10
48.66448311429853
 20
368.4234334075412
 30
0.0
 10
49.8210493629255
 20
368.5019271679436
 30
0.0
 10
50.99808358349533
 20
368.5282918984442
 30
0.0
 10
52.1751249799911
 20
368.5019054126456
 30
0.0
 10
53.33170912661639
 20
368.4233876898691
 30
0.0
 10
54.44769776692063
 20
368.2939706271016
 30
0.0
 10
55.50362250564272
 20
368.1163753250197
 30
0.0
 10
56.48095280286059
 20
367.8933183757774
 30
0.0
 10
57.36250616209816
 20
367.630227796612
 30
0.0
 10
58.13262074680225
 20
367.3302664734027
 30
0.0
 10
58.77797235823254
 20
367.0036855285341
 30
0.0
 10
59.28770712714844
 20
366.6502430713559
 30
0.0
 10
59.65549859208247
 20
366.2911586802099
 30
0.0
 10
59.87350319651143
 20
365.9103962865485
 30
0.0
 10
59.92211646093845
 20
365.6892698941612
 30
0.0
 10
59.92270035585305
 20
365.5567912426042
 30
0.0
  0
LINE
  5
1C8
330
5E
100
AcDbEntity
  8
$DDT_AUDIT_GENERATED_(8F)
  6
Continuous
 62
     7
100
AcDbLine
 10
41.6478421656
 20
367.0210230374
 30
0.0
 11
41.6478421656
 21
365.525719689
 31
0.0
  0
LINE
  5
1C9
330
5E
100
AcDbEntity
  8
$DDT_AUDIT_GENERATED_(8F)
  6
Continuous
 62
     7
100
AcDbLine
 10
60.3478421656
 20
365.525719689
 30
0.0
 11
60.3478421656
 21
367.0210230374
 31
0.0
  0
ARC
  5
1CA
330
5E
100
AcDbEntity
  8
$DDT_AUDIT_GENERATED_(8F)
  6
Continuous
 62
     7
100
AcDbCircle
 10
57.2517795034
 20
366.6718222371
 30
0.0
 40
3.297351341195466
100
AcDbArc
 50
314.267972323
 51
329.6973425358
  0
ARC
  5
1CB
330
5E
100
AcDbEntity
  8
$DDT_AUDIT_GENERATED_(8F)
  6
Continuous
 62
     7
100
AcDbCircle
 10
59.1019234557
 20
365.5309662576
 30
0.0
 40
1.245864261364637
100
AcDbArc
 50
338.0752072049
 51
359.2078070478
  0
ARC
  5
1CC
330
5E
100
AcDbEntity
  8
$DDT_AUDIT_GENERATED_(8F)
  6
Continuous
 62
     7
100
AcDbCircle
 10
42.8946242959
 20
365.5311634851
 30
0.0
 40
1.246763929607936
100
AcDbArc
 50
180.7982803755
 51
201.9182701537
  0
ARC
  5
1CD
330
5E
100
AcDbEntity
  8
$DDT_AUDIT_GENERATED_(8F)
  6
Continuous
 62
     7
100
AcDbCircle
 10
44.7434382962
 20
366.6713765306
 30
0.0
 40
3.296756532078999
100
AcDbArc
 50
210.3000204858
 51
225.7352754684
  0
LINE
  5
1CE
330
5E
100
AcDbEntity
  8
$DDT_AUDIT_GENERATED_(8F)
  6
Continuous
 62
     7
100
AcDbLine
 10
49.7272986941
 20
363.7332915748
 30
0.0
 11
50.7262855794
 21
364.3250876749
 31
0.0
  0
LINE
  5
1CF
330
5E
100
AcDbEntity
  8
$DDT_AUDIT_GENERATED_(8F)
  6
Continuous
 62
     7
100
AcDbLine
 10
48.8396166824
 20
363.2074320662
 30
0.0
 11
49.050814192
 21
363.3325446822
 31
0.0
  0
LINE
  5
1D0
330
5E
100
AcDbEntity
  8
$DDT_AUDIT_GENERATED_(8F)
  6
Continuous
 62
     7
100
AcDbLine
 10
47.970789876
 20
362.6927423108
 30
0.0
 11
48.1490892047
 21
362.7983661672
 31
0.0
  0
LINE
  5
1D1
330
5E
100
AcDbEntity
  8
$DDT_AUDIT_GENERATED_(8F)
  6
Continuous
 62
     7
100
AcDbLine
 10
47.0582451295
 20
362.1521542109
 30
0.0
 11
47.272397288
 21
362.2790171498
 31
0.0
  0
LINE
  5
1D2
330
5E
100
AcDbEntity
  8
$DDT_AUDIT_GENERATED_(8F)
  6
Continuous
 62
     7
100
AcDbLine
 10
48.4383583846
 20
364.2707431337
 30
0.0
 11
50.4671878537
 21
364.4566732246
 31
0.0
  0
LINE
  5
1D3
330
5E
100
AcDbEntity
  8
$DDT_AUDIT_GENERATED_(8F)
  6
Continuous
 62
     7
100
AcDbLine
 10
46.7236828212
 20
364.11360337
 30
0.0
 11
48.0862734855
 21
364.2384766577
 31
0.0
  0
LINE
  5
1D4
330
5E
100
AcDbEntity
  8
$DDT_AUDIT_GENERATED_(8F)
  6
Continuous
 62
     7
100
AcDbLine
 10
45.045320347
 20
363.9597914839
 30
0.0
 11
46.3437774831
 21
364.0787873172
 31
0.0
  0
LINE
  5
1D5
330
5E
100
AcDbEntity
  8
$DDT_AUDIT_GENERATED_(8F)
  6
Continuous
 62
     7
100
AcDbLine
 10
43.2824670579
 20
363.7982365197
 30
0.0
 11
44.6288167755
 21
363.9216214217
 31
0.0
  0
LINE
  5
1D6
330
5E
100
AcDbEntity
  8
$DDT_AUDIT_GENERATED_(8F)
  6
Continuous
 62
     7
100
AcDbLine
 10
49.480131918
 20
364.803050015
 30
0.0
 11
50.4855589551
 21
364.604512941
 31
0.0
  0
LINE
  5
1D7
330
5E
100
AcDbEntity
  8
$DDT_AUDIT_GENERATED_(8F)
  6
Continuous
 62
     7
100
AcDbLine
 10
47.8433947497
 20
365.1262490103
 30
0.0
 11
48.4092408124
 21
365.0145139789
 31
0.0
  0
LINE
  5
1D8
330
5E
100
AcDbEntity
  8
$DDT_AUDIT_GENERATED_(8F)
  6
Continuous
 62
     7
100
AcDbLine
 10
46.2989854725
 20
365.4312164397
 30
0.0
 11
46.8861521014
 21
365.3152713337
 31
0.0
  0
LINE
  5
1D9
330
5E
100
AcDbEntity
  8
$DDT_AUDIT_GENERATED_(8F)
  6
Continuous
 62
     7
100
AcDbLine
 10
44.8691475737
 20
365.7135599835
 30
0.0
 11
45.3671290518
 21
365.6152258609
 31
0.0
  0
LINE
  5
1DA
330
5E
100
AcDbEntity
  8
$DDT_AUDIT_GENERATED_(8F)
  6
Continuous
 62
     7
100
AcDbLine
 10
50.5924628115
 20
364.9506433857
 30
0.0
 11
50.7556878543
 21
364.7422969749
 31
0.0
  0
LINE
  5
1DB
330
5E
100
AcDbEntity
  8
$DDT_AUDIT_GENERATED_(8F)
  6
Continuous
 62
     7
100
AcDbLine
 10
50.1312965027
 20
365.5392929188
 30
0.0
 11
50.141165738
 21
365.5266954661
 31
0.0
  0
LINE
  5
1DC
330
5E
100
AcDbEntity
  8
$DDT_AUDIT_GENERATED_(8F)
  6
Continuous
 62
     7
100
AcDbLine
 10
49.6808442474
 20
366.1142666424
 30
0.0
 11
49.6861489688
 21
366.1074955021
 31
0.0
  0
LINE
  5
1DD
330
5E
100
AcDbEntity
  8
$DDT_AUDIT_GENERATED_(8F)
  6
Continuous
 62
     7
100
AcDbLine
 10
51.3444970535
 20
364.6913138435
 30
0.0
 11
51.740245123
 21
364.9257535219
 31
0.0
  0
LINE
  5
1DE
330
5E
100
AcDbEntity
  8
$DDT_AUDIT_GENERATED_(8F)
  6
Continuous
 62
     7
100
AcDbLine
 10
52.5391747868
 20
365.3990364711
 30
0.0
 11
52.6444150017
 21
365.4613803814
 31
0.0
  0
LINE
  5
1DF
330
5E
100
AcDbEntity
  8
$DDT_AUDIT_GENERATED_(8F)
  6
Continuous
 62
     7
100
AcDbLine
 10
53.4184530958
 20
365.9199176576
 30
0.0
 11
53.5201621154
 21
365.980169701
 31
0.0
  0
LINE
  5
1E0
330
5E
100
AcDbEntity
  8
$DDT_AUDIT_GENERATED_(8F)
  6
Continuous
 62
     7
100
AcDbLine
 10
54.2956473932
 20
366.4395642835
 30
0.0
 11
54.3336018856
 21
366.462048383
 31
0.0
  0
LINE
  5
1E1
330
5E
100
AcDbEntity
  8
$DDT_AUDIT_GENERATED_(8F)
  6
Continuous
 62
     7
100
AcDbLine
 10
51.5522995724
 20
364.5561172259
 30
0.0
 11
52.9377676655
 21
364.6830870932
 31
0.0
  0
LINE
  5
1E2
330
5E
100
AcDbEntity
  8
$DDT_AUDIT_GENERATED_(8F)
  6
Continuous
 62
     7
100
AcDbLine
 10
53.8691774593
 20
364.7684452321
 30
0.0
 11
54.793517066
 21
364.8531554306
 31
0.0
  0
LINE
  5
1E3
330
5E
100
AcDbEntity
  8
$DDT_AUDIT_GENERATED_(8F)
  6
Continuous
 62
     7
100
AcDbLine
 10
55.568023529
 20
364.9241343173
 30
0.0
 11
56.5263807705
 21
365.0119620287
 31
0.0
  0
LINE
  5
1E4
330
5E
100
AcDbEntity
  8
$DDT_AUDIT_GENERATED_(8F)
  6
Continuous
 62
     7
100
AcDbLine
 10
57.2621834596
 20
365.0793939459
 30
0.0
 11
58.1363622574
 21
365.1595072062
 31
0.0
  0
LINE
  5
1E5
330
5E
100
AcDbEntity
  8
$DDT_AUDIT_GENERATED_(8F)
  6
Continuous
 62
     7
100
AcDbLine
 10
51.466683831
 20
364.4107747035
 30
0.0
 11
53.2784975394
 21
364.0530041453
 31
0.0
  0
LINE
  5
1E6
330
5E
100
AcDbEntity
  8
$DDT_AUDIT_GENERATED_(8F)
  6
Continuous
 62
     7
100
AcDbLine
 10
53.8408306101
 20
363.9419628083
 30
0.0
 11
54.8158545583
 21
363.7494292931
 31
0.0
  0
LINE
  5
1E7
330
5E
100
AcDbEntity
  8
$DDT_AUDIT_GENERATED_(8F)
  6
Continuous
 62
     7
100
AcDbLine
 10
55.4508377993
 20
363.6240420596
 30
0.0
 11
56.320642033
 21
363.4522857997
 31
0.0
  0
LINE
  5
1E8
330
5E
100
AcDbEntity
  8
$DDT_AUDIT_GENERATED_(8F)
  6
Continuous
 62
     7
100
AcDbLine
 10
56.991745186
 20
363.3197661325
 30
0.0
 11
57.9011782073
 21
363.1401845573
 31
0.0
  0
LINE
  5
1E9
330
5E
100
AcDbEntity
  8
$DDT_AUDIT_GENERATED_(8F)
  6
Continuous
 62
     7
100
AcDbLine
 10
51.1054078902
 20
364.295901538
 30
0.0
 11
51.5974617839
 21
363.6678259625
 31
0.0
  0
LINE
  5
1EA
330
5E
100
AcDbEntity
  8
$DDT_AUDIT_GENERATED_(8F)
  6
Continuous
 62
     7
100
AcDbLine
 10
52.0179479912
 20
363.1311019978
 30
0.0
 11
52.0570305376
 21
363.0812156071
 31
0.0
  0
LINE
  5
1EB
330
5E
100
AcDbEntity
  8
$DDT_AUDIT_GENERATED_(8F)
  6
Continuous
 62
     7
100
AcDbLine
 10
52.4783688298
 20
362.5434040101
 30
0.0
 11
52.5067982223
 21
362.5071156943
 31
0.0
  0
LINE
  5
1EC
330
5E
100
AcDbEntity
  8
$DDT_AUDIT_GENERATED_(8F)
  6
Continuous
 62
     7
100
AcDbLine
 10
52.9294580243
 20
361.967617274
 30
0.0
 11
52.9791835219
 21
361.9041458313
 31
0.0
  0
LINE
  5
1ED
330
5E
100
AcDbEntity
  8
$DDT_AUDIT_GENERATED_(8F)
  6
Continuous
 62
     7
100
AcDbLine
 10
49.4888865756
 20
362.5071162901
 30
0.0
 11
49.5173057001
 21
362.5433914995
 31
0.0
  0
LINE
  5
1EE
330
5E
100
AcDbEntity
  8
$DDT_AUDIT_GENERATED_(8F)
  6
Continuous
 62
     7
100
AcDbLine
 10
49.0165011695
 20
361.904146291
 30
0.0
 11
49.0662115437
 21
361.9675984297
 31
0.0
  0
LINE
  5
1EF
330
5E
100
AcDbEntity
  8
$DDT_AUDIT_GENERATED_(8F)
  6
Continuous
 62
     7
100
AcDbLine
 10
46.6715833505
 20
363.0189793803
 30
0.0
 11
47.1370178437
 21
363.1781673523
 31
0.0
  0
LINE
  5
1F0
330
5E
100
AcDbEntity
  8
$DDT_AUDIT_GENERATED_(8F)
  6
Continuous
 62
     7
100
AcDbLine
 10
45.3810715484
 20
362.5775983487
 30
0.0
 11
45.8870148962
 21
362.7506411651
 31
0.0
  0
LINE
  5
1F1
330
5E
100
AcDbEntity
  8
$DDT_AUDIT_GENERATED_(8F)
  6
Continuous
 62
     7
100
AcDbLine
 10
45.675042255
 20
363.4522857912
 30
0.0
 11
46.5448420339
 21
363.6240411714
 31
0.0
  0
LINE
  5
1F2
330
5E
100
AcDbEntity
  8
$DDT_AUDIT_GENERATED_(8F)
  6
Continuous
 62
     7
100
AcDbLine
 10
44.0945060902
 20
363.1401845507
 30
0.0
 11
45.0040046209
 21
363.3197790617
 31
0.0
  0
LINE
  5
1F3
330
5E
100
AcDbEntity
  8
$DDT_AUDIT_GENERATED_(8F)
  6
Continuous
 62
     7
100
AcDbLine
 10
44.9426057018
 20
364.505852912
 30
0.0
 11
46.2788589096
 21
364.505852912
 31
0.0
  0
LINE
  5
1F4
330
5E
100
AcDbEntity
  8
$DDT_AUDIT_GENERATED_(8F)
  6
Continuous
 62
     7
100
AcDbLine
 10
43.2508412729
 20
364.505852912
 30
0.0
 11
44.5249428986
 21
364.505852912
 31
0.0
  0
LINE
  5
1F5
330
5E
100
AcDbEntity
  8
$DDT_AUDIT_GENERATED_(8F)
  6
Continuous
 62
     7
100
AcDbLine
 10
45.4692594958
 20
365.011966067
 30
0.0
 11
46.4277051677
 21
364.9241302515
 31
0.0
  0
LINE
  5
1F6
330
5E
100
AcDbEntity
  8
$DDT_AUDIT_GENERATED_(8F)
  6
Continuous
 62
     7
100
AcDbLine
 10
43.8593220738
 20
365.1595072062
 30
0.0
 11
44.7335272898
 21
365.0793915249
 31
0.0
  0
LINE
  5
1F7
330
5E
100
AcDbEntity
  8
$DDT_AUDIT_GENERATED_(8F)
  6
Continuous
 62
     7
100
AcDbLine
 10
47.3276944288
 20
365.7539114952
 30
0.0
 11
47.6206123173
 21
365.653727677
 31
0.0
  0
LINE
  5
1F8
330
5E
100
AcDbEntity
  8
$DDT_AUDIT_GENERATED_(8F)
  6
Continuous
 62
     7
100
AcDbLine
 10
46.1696092995
 20
366.1499999371
 30
0.0
 11
46.3802660109
 21
366.0779510985
 31
0.0
  0
LINE
  5
1F9
330
5E
100
AcDbEntity
  8
$DDT_AUDIT_GENERATED_(8F)
  6
Continuous
 62
     7
100
AcDbLine
 10
48.4754962828
 20
365.9801850636
 30
0.0
 11
48.5772389705
 21
365.9199130754
 31
0.0
  0
LINE
  5
1FA
330
5E
100
AcDbEntity
  8
$DDT_AUDIT_GENERATED_(8F)
  6
Continuous
 62
     7
100
AcDbLine
 10
47.6620824456
 20
366.462048383
 30
0.0
 11
47.7000299568
 21
366.4395684191
 31
0.0
  0
LINE
  5
1FB
330
5E
100
AcDbEntity
  8
$DDT_AUDIT_GENERATED_(8F)
  6
Continuous
 62
     7
100
AcDbLine
 10
52.3095356471
 20
366.1074958657
 30
0.0
 11
52.3148254563
 21
366.1142479715
 31
0.0
  0
LINE
  5
1FC
330
5E
100
AcDbEntity
  8
$DDT_AUDIT_GENERATED_(8F)
  6
Continuous
 62
     7
100
AcDbLine
 10
54.3750926947
 20
365.6537347502
 30
0.0
 11
54.6679890836
 21
365.7539112152
 31
0.0
  0
LINE
  5
1FD
330
5E
100
AcDbEntity
  8
$DDT_AUDIT_GENERATED_(8F)
  6
Continuous
 62
     7
100
AcDbLine
 10
55.615426669
 20
366.0779539539
 30
0.0
 11
55.8260750317
 21
366.1499999371
 31
0.0
  0
LINE
  5
1FE
330
5E
100
AcDbEntity
  8
$DDT_AUDIT_GENERATED_(8F)
  6
Continuous
 62
     7
100
AcDbLine
 10
55.1095612449
 20
365.3152770631
 30
0.0
 11
55.6967270915
 21
365.4312220147
 31
0.0
  0
LINE
  5
1FF
330
5E
100
AcDbEntity
  8
$DDT_AUDIT_GENERATED_(8F)
  6
Continuous
 62
     7
100
AcDbLine
 10
56.6285437576
 20
365.6152235858
 30
0.0
 11
57.1265367574
 21
365.7135599835
 31
0.0
  0
LINE
  5
200
330
5E
100
AcDbEntity
  8
$DDT_AUDIT_GENERATED_(8F)
  6
Continuous
 62
     7
100
AcDbLine
 10
55.716871489
 20
364.505852912
 30
0.0
 11
57.0530465352
 21
364.505852912
 31
0.0
  0
LINE
  5
201
330
5E
100
AcDbEntity
  8
$DDT_AUDIT_GENERATED_(8F)
  6
Continuous
 62
     7
100
AcDbLine
 10
57.4707809005
 20
364.505852912
 30
0.0
 11
58.7448430582
 21
364.505852912
 31
0.0
  0
LINE
  5
202
330
5E
100
AcDbEntity
  8
$DDT_AUDIT_GENERATED_(8F)
  6
Continuous
 62
     7
100
AcDbLine
 10
55.651906848
 20
364.0787873172
 30
0.0
 11
56.9503663664
 21
363.9597912655
 31
0.0
  0
LINE
  5
203
330
5E
100
AcDbEntity
  8
$DDT_AUDIT_GENERATED_(8F)
  6
Continuous
 62
     7
100
AcDbLine
 10
57.3667929357
 20
363.9216282602
 30
0.0
 11
58.7132191124
 21
363.7982363511
 31
0.0
  0
LINE
  5
204
330
5E
100
AcDbEntity
  8
$DDT_AUDIT_GENERATED_(8F)
  6
Continuous
 62
     7
100
AcDbLine
 10
54.858636417
 20
363.178177637
 30
0.0
 11
55.3241005271
 21
363.0189795354
 31
0.0
  0
LINE
  5
205
330
5E
100
AcDbEntity
  8
$DDT_AUDIT_GENERATED_(8F)
  6
Continuous
 62
     7
100
AcDbLine
 10
56.1087229546
 20
362.7506228602
 30
0.0
 11
56.6146124327
 21
362.5775984684
 31
0.0
  0
LINE
  5
206
330
5E
100
AcDbEntity
  8
$DDT_AUDIT_GENERATED_(8F)
  6
Continuous
 62
     7
100
AcDbLine
 10
53.8465881529
 20
362.7983702983
 30
0.0
 11
54.024893919
 21
362.6927426284
 31
0.0
  0
LINE
  5
207
330
5E
100
AcDbEntity
  8
$DDT_AUDIT_GENERATED_(8F)
  6
Continuous
 62
     7
100
AcDbLine
 10
54.7232869394
 20
362.2790172113
 30
0.0
 11
54.9374387878
 21
362.152154456
 31
0.0
  0
ELLIPSE
  5
209
330
5E
100
AcDbEntity
  8
$DDT_AUDIT_GENERATED_(208)
  6
Continuous
 62
     7
100
AcDbEllipse
 10
50.9978421656
 20
407.599216719
 30
0.0
 11
0.0
 21
3.45000000000001
 31
0.0
210
0.0
220
0.0
230
1.0
 40
1.0
 41
-1.570796326794897
 42
0.0
  0
ELLIPSE
  5
20A
330
5E
100
AcDbEntity
  8
$DDT_AUDIT_GENERATED_(208)
  6
Continuous
 62
     7
100
AcDbEllipse
 10
50.9978421656
 20
407.599216719
 30
0.0
 11
0.0
 21
3.837161344544256
 31
0.0
210
0.0
220
0.0
230
1.0
 40
1.0
 41
0.0
 42
1.570796326794897
  0
SPLINE
  5
20C
330
5E
100
AcDbEntity
  8
$DDT_AUDIT_GENERATED_(20B)
  6
Continuous
 62
     7
100
AcDbSpline
210
0.0
220
0.0
230
1.0
 70
     8
 71
     3
 72
     8
 73
     4
 74
     0
 42
0.0000000005661053
 43
0.0000000001
 40
0.3365910700198597
 40
0.3365910700198597
 40
0.3365910700198597
 40
0.3365910700198597
 40
0.3408375280729432
 40
0.3408375280729432
 40
0.3408375280729432
 40
0.3408375280729432
 10
36.34475785049561
 20
430.1597560607319
 30
0.0
 10
36.34436818131302
 20
430.1351074339222
 30
0.0
 10
36.34416214311361
 20
430.110100274304
 30
0.0
 10
36.34421153911485
 20
430.0847482330789
 30
0.0
  0
SPLINE
  5
20D
330
5E
100
AcDbEntity
  8
$DDT_AUDIT_GENERATED_(20B)
  6
Continuous
 62
     7
100
AcDbSpline
210
0.0
220
0.0
230
1.0
 70
     8
 71
     3
 72
     8
 73
     4
 74
     0
 42
0.0000000005637158
 43
0.0000000001
 40
0.660325041137664
 40
0.660325041137664
 40
0.660325041137664
 40
0.660325041137664
 40
0.6646349194102144
 40
0.6646349194102144
 40
0.6646349194102144
 40
0.6646349194102144
 10
65.65149383501485
 20
430.0833255626513
 30
0.0
 10
65.65155497921403
 20
430.1091630143904
 30
0.0
 10
65.65134041326529
 20
430.1346549509228
 30
0.0
 10
65.6509343978219
 20
430.1597761170528
 30
0.0
  0
SPLINE
  5
20E
330
5E
100
AcDbEntity
  8
$DDT_AUDIT_GENERATED_(20B)
  6
Continuous
 62
     7
100
AcDbSpline
210
0.0
220
0.0
230
1.0
 70
     8
 71
     3
 72
     8
 73
     4
 74
     0
 42
0.0000000000677489
 43
0.0000000001
 40
0.4637489155554663
 40
0.4637489155554663
 40
0.4637489155554663
 40
0.4637489155554663
 40
0.4651468438715572
 40
0.4651468438715572
 40
0.4651468438715572
 40
0.4651468438715572
 10
57.04126449758927
 20
427.2706706764511
 30
0.0
 10
56.97290116088573
 20
427.2662886733792
 30
0.0
 10
56.90425621001273
 20
427.2619845117093
 30
0.0
 10
56.83532942996172
 20
427.2577590302427
 30
0.0
  0
SPLINE
  5
20F
330
5E
100
AcDbEntity
  8
$DDT_AUDIT_GENERATED_(20B)
  6
Continuous
 62
     7
100
AcDbSpline
210
0.0
220
0.0
230
1.0
 70
     8
 71
     3
 72
    10
 73
     6
 74
     0
 42
0.0000000000673934
 43
0.0000000001
 40
0.5382819638766558
 40
0.5382819638766558
 40
0.5382819638766558
 40
0.5382819638766558
 40
0.5390625000000085
 40
0.5390625000000085
 40
0.5399835924525197
 40
0.5399835924525197
 40
0.5399835924525197
 40
0.5399835924525197
 10
45.17759270837674
 20
427.2567079624769
 30
0.0
 10
45.1388409055026
 20
427.2590743685606
 30
0.0
 10
45.10019120337451
 20
427.2614648390547
 30
0.0
 10
45.01615337171842
 20
427.2667283237578
 30
0.0
 10
44.9708048167525
 20
427.2696107273772
 30
0.0
 10
44.92559705431705
 20
427.2725260862964
 30
0.0
  0
ARC
  5
210
330
5E
100
AcDbEntity
  8
$DDT_AUDIT_GENERATED_(20B)
  6
Continuous
 62
     7
100
AcDbCircle
 10
65.630132782
 20
435.589028606
 30
0.0
 40
3.0983002966586
100
AcDbArc
 50
270.8997753755
 51
281.0954559177
  0
ARC
  5
211
330
5E
100
AcDbEntity
  8
$DDT_AUDIT_GENERATED_(20B)
  6
Continuous
 62
     7
100
AcDbCircle
 10
36.3829263771
 20
435.7545003568
 30
0.0
 40
3.264033955042359
100
AcDbArc
 50
259.1641570976
 51
268.8410419521
  0
ARC
  5
212
330
5E
100
AcDbEntity
  8
$DDT_AUDIT_GENERATED_(20B)
  6
Continuous
 62
     7
100
AcDbCircle
 10
35.8521784805
 20
435.2664733919
 30
0.0
 40
0.5069076934023995
100
AcDbArc
 50
321.3343922801
 51
359.9022792426
  0
SPLINE
  5
213
330
5E
100
AcDbEntity
  8
$DDT_AUDIT_GENERATED_(20B)
  6
Continuous
 62
     7
100
AcDbSpline
210
0.0
220
0.0
230
1.0
 70
     8
 71
     3
 72
     8
 73
     4
 74
     0
 42
0.000000000992462
 43
0.0000000001
 40
0.211798522169339
 40
0.211798522169339
 40
0.211798522169339
 40
0.211798522169339
 40
0.2192921762737338
 40
0.2192921762737338
 40
0.2192921762737338
 40
0.2192921762737338
 10
65.60583674419229
 20
434.3293807627431
 30
0.0
 10
65.60577310114336
 20
434.304738741556
 30
0.0
 10
65.60574968743394
 20
434.2795717833063
 30
0.0
 10
65.6057705262268
 20
434.2538751619278
 30
0.0
  0
SPLINE
  5
214
330
5E
100
AcDbEntity
  8
$DDT_AUDIT_GENERATED_(20B)
  6
Continuous
 62
     7
100
AcDbSpline
210
0.0
220
0.0
230
1.0
 70
     8
 71
     3
 72
     8
 73
     4
 74
     0
 42
0.0000000005720628
 43
0.0000000001
 40
0.3360513245631006
 40
0.3360513245631006
 40
0.3360513245631006
 40
0.3360513245631006
 40
0.3401016733915059
 40
0.3401016733915059
 40
0.3401016733915059
 40
0.3401016733915059
 10
65.65093104797987
 20
432.6489337937943
 30
0.0
 10
65.65130700774787
 20
432.6255064560231
 30
0.0
 10
65.6515146490797
 20
432.6019066087821
 30
0.0
 10
65.65148828614817
 20
432.5781352218945
 30
0.0
  0
SPLINE
  5
215
330
5E
100
AcDbEntity
  8
$DDT_AUDIT_GENERATED_(20B)
  6
Continuous
 62
     7
100
AcDbSpline
210
0.0
220
0.0
230
1.0
 70
     8
 71
     3
 72
     8
 73
     4
 74
     0
 42
0.0000000005714008
 43
0.0000000001
 40
0.6597881685221006
 40
0.6597881685221006
 40
0.6597881685221006
 40
0.6597881685221006
 40
0.6641336204840556
 40
0.6641336204840556
 40
0.6641336204840556
 40
0.6641336204840556
 10
36.34420199781206
 20
432.5728886034809
 30
0.0
 10
36.34413621302556
 20
432.5984348542717
 30
0.0
 10
36.34434708895056
 20
432.6237835660733
 30
0.0
 10
36.34475207404608
 20
432.6489334927337
 30
0.0
  0
SPLINE
  5
216
330
5E
100
AcDbEntity
  8
$DDT_AUDIT_GENERATED_(20B)
  6
Continuous
 62
     7
100
AcDbSpline
210
0.0
220
0.0
230
1.0
 70
     8
 71
     3
 72
     8
 73
     4
 74
     0
 42
0.0000000009827918
 43
0.0000000001
 40
0.7808195675070496
 40
0.7808195675070496
 40
0.7808195675070496
 40
0.7808195675070496
 40
0.7850163706417661
 40
0.7850163706417661
 40
0.7850163706417661
 40
0.7850163706417661
 10
36.38991551352299
 20
434.2538754865939
 30
0.0
 10
36.38992720516966
 20
434.2682758356004
 30
0.0
 10
36.38992499244529
 20
434.2825098437693
 30
0.0
 10
36.38990958409759
 20
434.2965783431104
 30
0.0
  0
ARC
  5
217
330
5E
100
AcDbEntity
  8
$DDT_AUDIT_GENERATED_(20B)
  6
Continuous
 62
     7
100
AcDbCircle
 10
66.1435058679
 20
435.2664733921
 30
0.0
 40
0.5069076936014767
100
AcDbArc
 50
180.1342788114
 51
212.1234981596
  0
ARC
  5
218
330
5E
100
AcDbEntity
  8
$DDT_AUDIT_GENERATED_(20B)
  6
Continuous
 62
     7
100
AcDbCircle
 10
36.8590836098
 20
435.2652862094
 30
0.0
 40
0.499998094515318
100
AcDbArc
 50
162.1435454384
 51
164.3081510904
  0
ARC
  5
219
330
5E
100
AcDbEntity
  8
$DDT_AUDIT_GENERATED_(20B)
  6
Continuous
 62
     7
100
AcDbCircle
 10
36.8590850767
 20
435.2652884074
 30
0.0
 40
0.4999965471740778
100
AcDbArc
 50
169.664603418
 51
180.0001609291
  0
ARC
  5
21A
330
5E
100
AcDbEntity
  8
$DDT_AUDIT_GENERATED_(20B)
  6
Continuous
 62
     7
100
AcDbCircle
 10
65.1365992715
 20
435.2652884073
 30
0.0
 40
0.4999965471739112
100
AcDbArc
 50
0.0
 51
9.9571015642
  0
ARC
  5
21B
330
5E
100
AcDbEntity
  8
$DDT_AUDIT_GENERATED_(20B)
  6
Continuous
 62
     7
100
AcDbCircle
 10
65.1366007385
 20
435.2652862093
 30
0.0
 40
0.4999958116972969
100
AcDbArc
 50
13.2830308792
 51
17.8564760585
  0
ARC
  5
21C
330
5E
100
AcDbEntity
  8
$DDT_AUDIT_GENERATED_(20B)
  6
Continuous
 62
     7
100
AcDbCircle
 10
65.1366007385
 20
435.2652862093
 30
0.0
 40
0.4999958116972969
100
AcDbArc
 50
0.0
 51
12.9330578378
  0
ARC
  5
21D
330
5E
100
AcDbEntity
  8
$DDT_AUDIT_GENERATED_(20B)
  6
Continuous
 62
     7
100
AcDbCircle
 10
65.1366000068
 20
435.265285475
 30
0.0
 40
0.4999965460172562
100
AcDbArc
 50
10.0276037026
 51
10.1218240409
  0
SPLINE
  5
21E
330
5E
100
AcDbEntity
  8
$DDT_AUDIT_GENERATED_(20B)
  6
Continuous
 62
     7
100
AcDbSpline
210
0.0
220
0.0
230
1.0
 70
     8
 71
     3
 72
    48
 73
    44
 74
     0
 42
0.0000000009315234
 43
0.0000000001
 40
0.0
 40
0.0
 40
0.0
 40
0.0
 40
0.0625
 40
0.0625
 40
0.1249999999999999
 40
0.1249999999999999
 40
0.1874999999999999
 40
0.1874999999999999
 40
0.2499999999999998
 40
0.2499999999999998
 40
0.3124999999999998
 40
0.3124999999999998
 40
0.3749999999999997
 40
0.3749999999999997
 40
0.4062499999999997
 40
0.4062499999999997
 40
0.4374999999999997
 40
0.4374999999999997
 40
0.5
 40
0.5
 40
0.53125
 40
0.53125
 40
0.5625
 40
0.5625
 40
0.6249999999999994
 40
0.6249999999999994
 40
0.6562499999999991
 40
0.6562499999999991
 40
0.6874999999999989
 40
0.6874999999999989
 40
0.7499999999999984
 40
0.7499999999999984
 40
0.7812499999999986
 40
0.7812499999999986
 40
0.8124999999999987
 40
0.8124999999999987
 40
0.8437499999999988
 40
0.8437499999999988
 40
0.8749999999999989
 40
0.8749999999999989
 40
0.9374999999999993
 40
0.9374999999999993
 40
1.0
 40
1.0
 40
1.0
 40
1.0
 10
50.9978421656009
 20
403.9050109095617
 30
0.0
 10
51.22388916105967
 20
403.9050109095617
 30
0.0
 10
51.44508426294755
 20
403.9321102406079
 30
0.0
 10
51.87840877448498
 20
404.0369903419423
 30
0.0
 10
52.09204985804602
 20
404.116139472278
 30
0.0
 10
52.49060956363222
 20
404.3159907882907
 30
0.0
 10
52.67872166859556
 20
404.4374451466947
 30
0.0
 10
53.02986092868395
 20
404.7183892122455
 30
0.0
 10
53.18890317201516
 20
404.8744472367007
 30
0.0
 10
53.47730713368907
 20
405.2146783525863
 30
0.0
 10
53.60715790214866
 20
405.4003122818714
 30
0.0
 10
53.82993916429151
 20
405.7864861848596
 30
0.0
 10
53.92410469341035
 20
405.9881399624281
 30
0.0
 10
54.04011926442012
 20
406.3032204274056
 30
0.0
 10
54.074643323144
 20
406.4107873827827
 30
0.0
 10
54.13407336937988
 20
406.626711779511
 30
0.0
 10
54.15912401325604
 20
406.7353581323849
 30
0.0
 10
54.22056489332471
 20
407.0633106427533
 30
0.0
 10
54.24336950001464
 20
407.2846120970002
 30
0.0
 10
54.24919337992482
 20
407.6207372317821
 30
0.0
 10
54.24630546047634
 20
407.7338235287572
 30
0.0
 10
54.23087873111753
 20
407.9570593490354
 30
0.0
 10
54.2183781512954
 20
408.0677014378173
 30
0.0
 10
54.16654698941094
 20
408.3967085783938
 30
0.0
 10
54.11302339740249
 20
408.6121817480617
 30
0.0
 10
54.00211202463296
 20
408.9291674414921
 30
0.0
 10
53.95978801137338
 20
409.0341215953039
 30
0.0
 10
53.86639415407579
 20
409.237181328867
 30
0.0
 10
53.81517017125108
 20
409.3358399093819
 30
0.0
 10
53.64791782263367
 20
409.6232204810535
 30
0.0
 10
53.5184479575689
 20
409.8034339209985
 30
0.0
 10
53.29502518161623
 20
410.0553498861302
 30
0.0
 10
53.21598692296421
 20
410.135736695186
 30
0.0
 10
53.05178785968067
 20
410.2863813277267
 30
0.0
 10
52.9662238372465
 20
410.357107914044
 30
0.0
 10
52.78816548079445
 20
410.4893910487338
 30
0.0
 10
52.69567180573245
 20
410.5509484339998
 30
0.0
 10
52.50354621336363
 20
410.6646405429791
 30
0.0
 10
52.4032448571899
 20
410.7170548829442
 30
0.0
 10
52.09699705404406
 20
410.856722690913
 30
0.0
 10
51.88589526771761
 20
410.9269709747686
 30
0.0
 10
51.44994109114342
 20
411.0222912149208
 30
0.0
 10
51.22382337058919
 20
411.0470376477571
 30
0.0
 10
50.9978421656009
 20
411.0470376477571
 30
0.0
  0
SPLINE
  5
21F
330
5E
100
AcDbEntity
  8
$DDT_AUDIT_GENERATED_(20B)
  6
Continuous
 62
     7
100
AcDbSpline
210
0.0
220
0.0
230
1.0
 70
     8
 71
     3
 72
    45
 73
    41
 74
     0
 42
0.0000000009314734
 43
0.0000000001
 40
0.0
 40
0.0
 40
0.0
 40
0.0
 40
0.0625000000000009
 40
0.0625000000000009
 40
0.1250000000000018
 40
0.1250000000000018
 40
0.1875000000000027
 40
0.1875000000000027
 40
0.2187500000000031
 40
0.2187500000000031
 40
0.2500000000000035
 40
0.2812500000000032
 40
0.2812500000000032
 40
0.3125000000000028
 40
0.3125000000000028
 40
0.3750000000000022
 40
0.3750000000000022
 40
0.4375000000000017
 40
0.4375000000000017
 40
0.500000000000001
 40
0.500000000000001
 40
0.531250000000001
 40
0.531250000000001
 40
0.5625000000000009
 40
0.5625000000000009
 40
0.6250000000000008
 40
0.6250000000000008
 40
0.6875000000000007
 40
0.6875000000000007
 40
0.7500000000000006
 40
0.7500000000000006
 40
0.8125000000000006
 40
0.8125000000000006
 40
0.8750000000000004
 40
0.8750000000000004
 40
0.9375000000000003
 40
0.9375000000000003
 40
0.9687500000000002
 40
0.9687500000000002
 40
1.0
 40
1.0
 40
1.0
 40
1.0
 10
50.9978421656009
 20
411.0470376477571
 30
0.0
 10
50.77191504828458
 20
411.0470376477571
 30
0.0
 10
50.55015924093332
 20
411.0229085577037
 30
0.0
 10
50.11463768082422
 20
410.9283719861371
 30
0.0
 10
49.89863800516225
 20
410.8566084461847
 30
0.0
 10
49.49254939132438
 20
410.6715901605376
 30
0.0
 10
49.30093394533155
 20
410.5585463374719
 30
0.0
 10
49.03062363182095
 20
410.3580920998341
 30
0.0
 10
48.94358067698739
 20
410.2861206157809
 30
0.0
 10
48.77909547024907
 20
410.1351552699794
 30
0.0
 10
48.62315331657813
 20
409.9764210318193
 30
0.0
 10
48.48380995452982
 20
409.8025531531777
 30
0.0
 10
48.35275935955089
 20
409.6211055304935
 30
0.0
 10
48.29121690332008
 20
409.5262153487997
 30
0.0
 10
48.12257052483737
 20
409.2359511132492
 30
0.0
 10
48.03002134950984
 20
409.0335175652605
 30
0.0
 10
47.88255247622651
 20
408.6116925781904
 30
0.0
 10
47.82793813447941
 20
408.3914585931506
 30
0.0
 10
47.75926670976166
 20
407.9507625476672
 30
0.0
 10
47.74434897654315
 20
407.7283029292692
 30
0.0
 10
47.75060663123265
 20
407.3914973578952
 30
0.0
 10
47.75755301854709
 20
407.2787267593169
 30
0.0
 10
47.78069627288008
 20
407.0561947426312
 30
0.0
 10
47.79688977947125
 20
406.9459145563887
 30
0.0
 10
47.85902650032101
 20
406.6179632213074
 30
0.0
 10
47.91839665936624
 20
406.403154196921
 30
0.0
 10
48.07442138699103
 20
405.9814615317526
 30
0.0
 10
48.1695911535726
 20
405.778995867358
 30
0.0
 10
48.39193909219016
 20
405.3952476731665
 30
0.0
 10
48.51937093155723
 20
405.2131747357407
 30
0.0
 10
48.81027782454589
 20
404.8706586707616
 30
0.0
 10
48.97032879409271
 20
404.7145904861899
 30
0.0
 10
49.31603919005259
 20
404.4383800253031
 30
0.0
 10
49.50232045777879
 20
404.3173896994883
 30
0.0
 10
49.90600280223277
 20
404.1149341218824
 30
0.0
 10
50.11499273810829
 20
404.0378065814934
 30
0.0
 10
50.43861629755439
 20
403.9590853871467
 30
0.0
 10
50.54823360146556
 20
403.9390305104846
 30
0.0
 10
50.77114368951846
 20
403.9119572592863
 30
0.0
 10
50.88462312453323
 20
403.9050109095617
 30
0.0
 10
50.9978421656009
 20
403.9050109095617
 30
0.0
  0
SPLINE
  5
220
330
5E
100
AcDbEntity
  8
$DDT_AUDIT_GENERATED_(20B)
  6
Continuous
 62
     7
100
AcDbSpline
210
0.0
220
0.0
230
1.0
 70
     8
 71
     3
 72
     8
 73
     4
 74
     0
 42
0.0000000004160355
 43
0.0000000001
 40
0.0587134220876106
 40
0.0587134220876106
 40
0.0587134220876106
 40
0.0587134220876106
 40
0.0597939447684272
 40
0.0597939447684272
 40
0.0597939447684272
 40
0.0597939447684272
 10
75.99780473429092
 20
396.7932796418028
 30
0.0
 10
75.99782965723455
 20
396.8019368205338
 30
0.0
 10
75.99784211637187
 20
396.8105941020033
 30
0.0
 10
75.99784210492699
 20
396.8192514814952
 30
0.0
  0
LINE
  5
221
330
5E
100
AcDbEntity
  8
$DDT_AUDIT_GENERATED_(20B)
  6
Continuous
 62
     7
100
AcDbLine
 10
49.1724759287
 20
394.3695315151
 30
0.0
 11
26.7825639917
 21
394.3695315151
 31
0.0
  0
LINE
  5
222
330
5E
100
AcDbEntity
  8
$DDT_AUDIT_GENERATED_(20B)
  6
Continuous
 62
     7
100
AcDbLine
 10
50.9978421656
 20
394.3695315151
 30
0.0
 11
49.1724759287
 21
394.3695315151
 31
0.0
  0
LINE
  5
223
330
5E
100
AcDbEntity
  8
$DDT_AUDIT_GENERATED_(20B)
  6
Continuous
 62
     7
100
AcDbLine
 10
75.2131203395
 20
394.3695315151
 30
0.0
 11
50.9978421656
 21
394.3695315151
 31
0.0
  0
SPLINE
  5
224
330
5E
100
AcDbEntity
  8
$DDT_AUDIT_GENERATED_(20B)
  6
Continuous
 62
     7
100
AcDbSpline
210
0.0
220
0.0
230
1.0
 70
     8
 71
     3
 72
     8
 73
     4
 74
     0
 42
0.0000000004199037
 43
0.0000000001
 40
0.9398879998822601
 40
0.9398879998822601
 40
0.9398879998822601
 40
0.9398879998822601
 40
0.9409525331067632
 40
0.9409525331067632
 40
0.9409525331067632
 40
0.9409525331067632
 10
25.9982231599349
 20
396.8192590483309
 30
0.0
 10
25.99822300265934
 20
396.8108088591302
 30
0.0
 10
25.99823459747676
 20
396.8023582583386
 30
0.0
 10
25.99825794795319
 20
396.7939072452787
 30
0.0
  0
LINE
  5
225
330
5E
100
AcDbEntity
  8
$DDT_AUDIT_GENERATED_(20B)
  6
Continuous
 62
     7
100
AcDbLine
 10
75.9978421656
 20
396.8192508387
 30
0.0
 11
75.9978421656
 21
433.8927493562
 31
0.0
  0
LINE
  5
226
330
5E
100
AcDbEntity
  8
$DDT_AUDIT_GENERATED_(20B)
  6
Continuous
 62
     7
100
AcDbLine
 10
25.9978421656
 20
433.8927491365
 30
0.0
 11
25.9978421656
 21
396.8192546259
 31
0.0
  0
ARC
  5
227
330
5E
100
AcDbEntity
  8
$DDT_AUDIT_GENERATED_(20B)
  6
Continuous
 62
     7
100
AcDbCircle
 10
50.997597349
 20
494.5792761122
 30
0.0
 40
67.5788785517582
100
AcDbArc
 50
264.886686947
 51
275.1159838941
  0
LINE
  5
228
330
5E
100
AcDbEntity
  8
$DDT_AUDIT_GENERATED_(20B)
  6
Continuous
 62
     7
100
AcDbLine
 10
65.13526946
 20
435.7687950019
 30
0.0
 11
36.8604137298
 21
435.7687950019
 31
0.0
  0
SPLINE
  5
229
330
5E
100
AcDbEntity
  8
$DDT_AUDIT_GENERATED_(20B)
  6
Continuous
 62
     7
100
AcDbSpline
210
0.0
220
0.0
230
1.0
 70
     8
 71
     3
 72
    21
 73
    17
 74
     0
 42
0.000000001019783
 43
0.0000000001
 40
0.0
 40
0.0
 40
0.0
 40
0.0
 40
0.065126941987878
 40
0.134738656504344
 40
0.2047512998074173
 40
0.274421931888656
 40
0.3440153532755631
 40
0.413808836329969
 40
0.4838177514407771
 40
0.5549565527629863
 40
0.6432072336605831
 40
0.7114311745298783
 40
0.7704146637182228
 40
0.8295574184352048
 40
0.8995479833897242
 40
1.0
 40
1.0
 40
1.0
 40
1.0
 10
57.04146301694754
 20
427.2706951222858
 30
0.0
 10
57.46958238962289
 20
427.2979065331331
 30
0.0
 10
58.18956051954057
 20
427.3507667322024
 30
0.0
 10
59.35811551886163
 20
427.4540286718034
 30
0.0
 10
60.41047400718722
 20
427.5688132340676
 30
0.0
 10
61.40272124178895
 20
427.6956316759217
 30
0.0
 10
62.2776066024299
 20
427.8292461577603
 30
0.0
 10
63.05345412956508
 20
427.9703712040236
 30
0.0
 10
63.71488168072786
 20
428.117840442042
 30
0.0
 10
64.30131907532339
 20
428.2845911413353
 30
0.0
 10
64.7581597773815
 20
428.460959440195
 30
0.0
 10
65.18163230995313
 20
428.7407363746286
 30
0.0
 10
65.47393943470512
 20
429.1249146654846
 30
0.0
 10
65.60444890742599
 20
429.4980734486274
 30
0.0
 10
65.64832973119644
 20
429.8316953983638
 30
0.0
 10
65.65144497232691
 20
429.9845148851845
 30
0.0
 10
65.65143565334445
 20
430.0819781293731
 30
0.0
  0
SPLINE
  5
22A
330
5E
100
AcDbEntity
  8
$DDT_AUDIT_GENERATED_(20B)
  6
Continuous
 62
     7
100
AcDbSpline
210
0.0
220
0.0
230
1.0
 70
     8
 71
     3
 72
    21
 73
    17
 74
     0
 42
0.0000000010227504
 43
0.0000000001
 40
0.0
 40
0.0
 40
0.0
 40
0.0
 40
0.105654254879473
 40
0.1739408603536149
 40
0.2318485081128297
 40
0.2904278579912308
 40
0.3550492009061728
 40
0.4422146503542488
 40
0.5159248278143906
 40
0.5856170483900767
 40
0.6550556218193477
 40
0.7243188874504756
 40
0.7935941221368625
 40
0.8631259640392495
 40
0.9327219365944328
 40
1.0
 40
1.0
 40
1.0
 40
1.0
 10
36.34425114281002
 20
430.0834123791909
 30
0.0
 10
36.34435300596316
 20
429.9806562041919
 30
0.0
 10
36.34689095293027
 20
429.8271137005372
 30
0.0
 10
36.39505280997466
 20
429.4817711923104
 30
0.0
 10
36.52813408961016
 20
429.1147861050129
 30
0.0
 10
36.81446580644822
 20
428.7424918224912
 30
0.0
 10
37.22578368323963
 20
428.4679670877367
 30
0.0
 10
37.67682112311935
 20
428.2899953463092
 30
0.0
 10
38.25943940484895
 20
428.1232637128079
 30
0.0
 10
38.92393778921161
 20
427.9739926876644
 30
0.0
 10
39.69194142565612
 20
427.8336900691831
 30
0.0
 10
40.55786731714371
 20
427.7005613596065
 30
0.0
 10
41.53961746673275
 20
427.5742129267387
 30
0.0
 10
42.58224598682332
 20
427.4596089704767
 30
0.0
 10
43.75589972599451
 20
427.3546632187192
 30
0.0
 10
44.48445776572664
 20
427.3009487483276
 30
0.0
 10
44.92515753574704
 20
427.2725783639415
 30
0.0
  0
SPLINE
  5
22B
330
5E
100
AcDbEntity
  8
$DDT_AUDIT_GENERATED_(20B)
  6
Continuous
 62
     7
100
AcDbSpline
210
0.0
220
0.0
230
1.0
 70
     8
 71
     3
 72
    12
 73
     8
 74
     0
 42
0.000000113080064
 43
0.0000000001
 40
0.8391626615280647
 40
0.8391626615280647
 40
0.8391626615280647
 40
0.8391626615280647
 40
0.8448109526045215
 40
0.8629829159984403
 40
0.8795156955443956
 40
0.8945069544574341
 40
0.9072894247333175
 40
0.9072894247333175
 40
0.9072894247333175
 40
0.9072894247333175
 10
36.35635377504047
 20
435.2185495842211
 30
0.0
 10
36.35635376982069
 20
435.2185495535896
 30
0.0
 10
36.35635102508576
 20
435.2185040583644
 30
0.0
 10
36.35632499166829
 20
435.2180879250144
 30
0.0
 10
36.3562374552112
 20
435.2168471520062
 30
0.0
 10
36.35609524917216
 20
435.2150286845346
 30
0.0
 10
36.35595607384754
 20
435.2134108022407
 30
0.0
 10
36.35587746232733
 20
435.2125440008484
 30
0.0
  0
SPLINE
  5
22C
330
5E
100
AcDbEntity
  8
$DDT_AUDIT_GENERATED_(20B)
  6
Continuous
 62
     7
100
AcDbSpline
210
0.0
220
0.0
230
1.0
 70
     8
 71
     3
 72
     9
 73
     5
 74
     0
 42
0.0000000064732422
 43
0.0000000001
 40
0.9975202503485124
 40
0.9975202503485124
 40
0.9975202503485124
 40
0.9975202503485124
 40
0.9993068577904959
 40
1.0
 40
1.0
 40
1.0
 40
1.0
 10
36.34722194113268
 20
435.1576999807046
 30
0.0
 10
36.34703363712004
 20
435.1568430423176
 30
0.0
 10
36.34676067846715
 20
435.1556269144918
 30
0.0
 10
36.3464675817924
 20
435.1543734575342
 30
0.0
 10
36.34637198262946
 20
435.1539647563288
 30
0.0
  0
ARC
  5
22D
330
5E
100
AcDbEntity
  8
$DDT_AUDIT_GENERATED_(20B)
  6
Continuous
 62
     7
100
AcDbCircle
 10
66.1422540452
 20
435.2644256736
 30
0.0
 40
0.5046106185452379
100
AcDbArc
 50
212.1129007123
 51
257.4084863979
  0
ARC
  5
22E
330
5E
100
AcDbEntity
  8
$DDT_AUDIT_GENERATED_(20B)
  6
Continuous
 62
     7
100
AcDbCircle
 10
66.1405195348
 20
435.2537333795
 30
0.0
 40
0.4937206322482844
100
AcDbArc
 50
257.3322741223
 51
269.8739752842
  0
SPLINE
  5
22F
330
5E
100
AcDbEntity
  8
$DDT_AUDIT_GENERATED_(20B)
  6
Continuous
 62
     7
100
AcDbSpline
210
0.0
220
0.0
230
1.0
 70
     8
 71
     3
 72
    21
 73
    17
 74
     0
 42
0.0000000009808489
 43
0.0000000001
 40
0.0
 40
0.0
 40
0.0
 40
0.0
 40
0.0198290228454175
 40
0.0426286646337465
 40
0.077030309474029
 40
0.164293274145156
 40
0.2574096526574361
 40
0.3435746484903798
 40
0.4284462280047575
 40
0.5126973361265604
 40
0.5965305818638647
 40
0.6795743426872152
 40
0.7617325405055366
 40
0.8427667738956687
 40
0.9232604786351198
 40
1.0
 40
1.0
 40
1.0
 40
1.0
 10
75.99772939966034
 20
433.8927465964695
 30
0.0
 10
75.99845507984293
 20
433.987048621933
 30
0.0
 10
75.94654251261734
 20
434.157612692184
 30
0.0
 10
75.77557349226014
 20
434.3402681731415
 30
0.0
 10
75.56907004346463
 20
434.4366999416248
 30
0.0
 10
75.34231132215263
 20
434.4907794813764
 30
0.0
 10
74.93329202997806
 20
434.5468780665747
 30
0.0
 10
74.39416984452244
 20
434.5924317352967
 30
0.0
 10
73.73802408866256
 20
434.6314604009683
 30
0.0
 10
72.96417160406288
 20
434.6640900512044
 30
0.0
 10
72.06723040496288
 20
434.6915659802326
 30
0.0
 10
71.06977742286841
 20
434.7137312328589
 30
0.0
 10
69.95271901236329
 20
434.7312856102235
 30
0.0
 10
68.77589057992186
 20
434.7444498810655
 30
0.0
 10
67.45684638849796
 20
434.7540619531626
 30
0.0
 10
66.63580480688817
 20
434.7581034294548
 30
0.0
 10
66.1393938736893
 20
434.7599639819379
 30
0.0
  0
SPLINE
  5
230
330
5E
100
AcDbEntity
  8
$DDT_AUDIT_GENERATED_(20B)
  6
Continuous
 62
     7
100
AcDbSpline
210
0.0
220
0.0
230
1.0
 70
     8
 71
     3
 72
    21
 73
    17
 74
     0
 42
0.000000000980811
 43
0.0000000001
 40
0.0
 40
0.0
 40
0.0
 40
0.0
 40
0.0800566830223525
 40
0.1595544664998779
 40
0.2395600156825382
 40
0.3206448101979325
 40
0.4025628567794472
 40
0.4852663847908821
 40
0.5684726294564475
 40
0.6521963720178755
 40
0.7370084621957902
 40
0.8258310814644785
 40
0.9183595600542696
 40
0.9552606673679732
 40
0.9794297354016533
 40
1.0
 40
1.0
 40
1.0
 40
1.0
 10
35.85626523034259
 20
434.7599648041528
 30
0.0
 10
35.33964674118747
 20
434.7579848835099
 30
0.0
 10
34.50787088795995
 20
434.753920163653
 30
0.0
 10
33.18435028455779
 20
434.7440959671699
 30
0.0
 10
32.02559679207329
 20
434.7310295382572
 30
0.0
 10
30.9235223426404
 20
434.7136635496459
 30
0.0
 10
29.93905031224348
 20
434.691799109626
 30
0.0
 10
29.05191434980049
 20
434.6648016993868
 30
0.0
 10
28.28463578981311
 20
434.6326882230302
 30
0.0
 10
27.63189306869659
 20
434.5945780805479
 30
0.0
 10
27.09885841506639
 20
434.5502990805141
 30
0.0
 10
26.67888405738875
 20
434.4955830325738
 30
0.0
 10
26.44367372217236
 20
434.4416588159593
 30
0.0
 10
26.23598871379884
 20
434.350892014612
 30
0.0
 10
26.05419792375937
 20
434.1702497884557
 30
0.0
 10
25.99851104012433
 20
433.9902685322676
 30
0.0
 10
25.99788506759061
 20
433.8927350884644
 30
0.0
  0
ARC
  5
231
330
5E
100
AcDbEntity
  8
$DDT_AUDIT_GENERATED_(20B)
  6
Continuous
 62
     7
100
AcDbCircle
 10
35.8560099249
 20
435.2495346143
 30
0.0
 40
0.4894561253120242
100
AcDbArc
 50
270.0287553969
 51
282.6789598102
  0
ARC
  5
232
330
5E
100
AcDbEntity
  8
$DDT_AUDIT_GENERATED_(20B)
  6
Continuous
 62
     7
100
AcDbCircle
 10
35.8537543474
 20
435.2636660004
 30
0.0
 40
0.5038012146151799
100
AcDbArc
 50
282.5643650967
 51
321.3534406786
  0
LINE
  5
233
330
5E
100
AcDbEntity
  8
$DDT_AUDIT_GENERATED_(20B)
  6
Continuous
 62
     7
100
AcDbLine
 10
65.6508541957
 20
430.1596697113
 30
0.0
 11
65.6508541956
 21
432.6380006413
 31
0.0
  0
LINE
  5
234
330
5E
100
AcDbEntity
  8
$DDT_AUDIT_GENERATED_(20B)
  6
Continuous
 62
     7
100
AcDbLine
 10
36.3448301324
 20
432.6366234056
 30
0.0
 11
36.3448301324
 21
430.1595278241
 31
0.0
  0
ARC
  5
235
330
5E
100
AcDbEntity
  8
$DDT_AUDIT_GENERATED_(20B)
  6
Continuous
 62
     7
100
AcDbCircle
 10
36.8590852509
 20
435.2652845682
 30
0.0
 40
0.4999999999987799
100
AcDbArc
 50
162.1434241
 51
165.8219386279
  0
ARC
  5
236
330
5E
100
AcDbEntity
  8
$DDT_AUDIT_GENERATED_(20B)
  6
Continuous
 62
     7
100
AcDbCircle
 10
36.8590852509
 20
435.2652845682
 30
0.0
 40
0.4999999999987799
100
AcDbArc
 50
166.7741028295
 51
169.8780229102
  0
ARC
  5
237
330
5E
100
AcDbEntity
  8
$DDT_AUDIT_GENERATED_(20B)
  6
Continuous
 62
     7
100
AcDbCircle
 10
36.8606531093
 20
435.267693671
 30
0.0
 40
0.5009113050404456
100
AcDbArc
 50
90.0273415594
 51
169.9674587591
  0
ARC
  5
238
330
5E
100
AcDbEntity
  8
$DDT_AUDIT_GENERATED_(20B)
  6
Continuous
 62
     7
100
AcDbCircle
 10
65.1350368688
 20
435.2676508876
 30
0.0
 40
0.5010336566148984
100
AcDbArc
 50
9.6601802205
 51
89.9736265029
  0
ARC
  5
239
330
5E
100
AcDbEntity
  8
$DDT_AUDIT_GENERATED_(20B)
  6
Continuous
 62
     7
100
AcDbCircle
 10
89.9994010597
 20
434.0883396779
 30
0.0
 40
24.39368343223918
100
AcDbArc
 50
179.7088450344
 51
183.5161969863
  0
ARC
  5
23A
330
5E
100
AcDbEntity
  8
$DDT_AUDIT_GENERATED_(20B)
  6
Continuous
 62
     7
100
AcDbCircle
 10
12.557200951
 20
434.0700421432
 30
0.0
 40
23.83293695201725
100
AcDbArc
 50
356.4313179643
 51
0.3384132363
  0
ARC
  5
23B
330
5E
100
AcDbEntity
  8
$DDT_AUDIT_GENERATED_(20B)
  6
Continuous
 62
     7
100
AcDbCircle
 10
38.0130051028
 20
435.1410346391
 30
0.0
 40
1.659770344545745
100
AcDbArc
 50
172.6850065052
 51
177.5803659944
  0
ARC
  5
23C
330
5E
100
AcDbEntity
  8
$DDT_AUDIT_GENERATED_(20B)
  6
Continuous
 62
     7
100
AcDbCircle
 10
64.0000957528
 20
435.1419333812
 30
0.0
 40
1.642384455658611
100
AcDbArc
 50
2.4007075775
 51
7.3606041509
  0
ARC
  5
23D
330
5E
100
AcDbEntity
  8
$DDT_AUDIT_GENERATED_(20B)
  6
Continuous
 62
     7
100
AcDbCircle
 10
35.6180242839
 20
396.8239547923
 30
0.0
 40
9.620082085029013
100
AcDbArc
 50
180.1839830966
 51
188.8881456052
  0
SPLINE
  5
23E
330
5E
100
AcDbEntity
  8
$DDT_AUDIT_GENERATED_(20B)
  6
Continuous
 62
     7
100
AcDbSpline
210
0.0
220
0.0
230
1.0
 70
     8
 71
     3
 72
    54
 73
    50
 74
     0
 42
0.0000000077798439
 43
0.0000000001
 40
0.0
 40
0.0
 40
0.0
 40
0.0
 40
0.0031291975828892
 40
0.0277845588319555
 40
0.0526826334088922
 40
0.0778032090577556
 40
0.1031327605993766
 40
0.1280784923499733
 40
0.1535664461871728
 40
0.1791876484259979
 40
0.2049567317771382
 40
0.2308849848216999
 40
0.2569795177952707
 40
0.2831412773382889
 40
0.309739493334359
 40
0.3364531886838605
 40
0.3632572773988489
 40
0.3901066501004717
 40
0.4169097907427821
 40
0.4435704810503383
 40
0.4699739800510148
 40
0.4959966881918245
 40
0.521539451474545
 40
0.5463607023042559
 40
0.5704676005101644
 40
0.5938582785406737
 40
0.6164084831592642
 40
0.6380509781863665
 40
0.6587559561166585
 40
0.6791051621792552
 40
0.6987455149569114
 40
0.7178165167677336
 40
0.7363817778552019
 40
0.7545007675493762
 40
0.7722290331861217
 40
0.7896181660770939
 40
0.806697156462705
 40
0.8234908792311839
 40
0.8400599051664183
 40
0.8564425178264943
 40
0.8726741888541267
 40
0.8887881545672505
 40
0.9048158771880412
 40
0.920787506905014
 40
0.9367412041392039
 40
0.9526063774870841
 40
0.968447612260495
 40
0.9843784779873008
 40
0.9990978658447022
 40
0.9990978658447022
 40
0.9990978658447022
 40
0.9990978658447022
 10
26.11343042777525
 20
395.3376329114282
 30
0.0
 10
26.11370340873687
 20
395.3358343149412
 30
0.0
 10
26.1157866462788
 20
395.3221162038575
 30
0.0
 10
26.1203190009831
 20
395.2943896597104
 30
0.0
 10
26.12664726820583
 20
395.257170101408
 30
0.0
 10
26.13337210047752
 20
395.219978102687
 30
0.0
 10
26.14034263547511
 20
395.1835865243916
 30
0.0
 10
26.14762006212144
 20
395.1477539971866
 30
0.0
 10
26.15520802225726
 20
395.1125194841407
 30
0.0
 10
26.16318042726673
 20
395.077650757189
 30
0.0
 10
26.17151710044742
 20
395.0433307090659
 30
0.0
 10
26.18024390535991
 20
395.0095440299298
 30
0.0
 10
26.1893696232379
 20
394.9763422438559
 30
0.0
 10
26.19896205818278
 20
394.9435760107112
 30
0.0
 10
26.20904771312222
 20
394.9112806374008
 30
0.0
 10
26.21966985363666
 20
394.8794481269494
 30
0.0
 10
26.23081633591235
 20
394.8482284144699
 30
0.0
 10
26.2425056921483
 20
394.8176712308301
 30
0.0
 10
26.25474684456618
 20
394.7878457270166
 30
0.0
 10
26.26753371532694
 20
394.7588423079816
 30
0.0
 10
26.28085670897536
 20
394.7307427557986
 30
0.0
 10
26.29467137811593
 20
394.703669062234
 30
0.0
 10
26.30899293780056
 20
394.6776153409489
 30
0.0
 10
26.32370678108657
 20
394.6527939402725
 30
0.0
 10
26.33877083263934
 20
394.6292177670249
 30
0.0
 10
26.35417170023799
 20
394.6068630116509
 30
0.0
 10
26.36985701974241
 20
394.585751417998
 30
0.0
 10
26.3857934079532
 20
394.5658714138324
 30
0.0
 10
26.4019675273055
 20
394.5471733258951
 30
0.0
 10
26.41842123830639
 20
394.5295496223345
 30
0.0
 10
26.43523663406462
 20
394.5128889776196
 30
0.0
 10
26.45232364401615
 20
394.4972465875107
 30
0.0
 10
26.46971407416789
 20
394.482562692256
 30
0.0
 10
26.48741483972165
 20
394.4688081220487
 30
0.0
 10
26.50543128178148
 20
394.455960507316
 30
0.0
 10
26.52375337109128
 20
394.444011641291
 30
0.0
 10
26.54238069380657
 20
394.4329493861215
 30
0.0
 10
26.56130134705677
 20
394.4227713146167
 30
0.0
 10
26.58050243302047
 20
394.413475959585
 30
0.0
 10
26.59997592433105
 20
394.4050609954647
 30
0.0
 10
26.61970271454371
 20
394.3975296468151
 30
0.0
 10
26.63965905444489
 20
394.3908860441869
 30
0.0
 10
26.65982292711019
 20
394.3851329901632
 30
0.0
 10
26.68015728051029
 20
394.3802755493226
 30
0.0
 10
26.70064391825025
 20
394.3763111442258
 30
0.0
 10
26.72127644109576
 20
394.3732443020843
 30
0.0
 10
26.74175479521954
 20
394.3710959252653
 30
0.0
 10
26.7622289406152
 20
394.3698016406708
 30
0.0
 10
26.7744744290391
 20
394.3696295097939
 30
0.0
 10
26.78130872515376
 20
394.3695629077497
 30
0.0
  0
ARC
  5
23F
330
5E
100
AcDbEntity
  8
$DDT_AUDIT_GENERATED_(20B)
  6
Continuous
 62
     7
100
AcDbCircle
 10
66.3801788052
 20
396.8243862921
 30
0.0
 40
9.61759102094857
100
AcDbArc
 50
351.106959468
 51
359.8021233897
  0
SPLINE
  5
240
330
5E
100
AcDbEntity
  8
$DDT_AUDIT_GENERATED_(20B)
  6
Continuous
 62
     7
100
AcDbSpline
210
0.0
220
0.0
230
1.0
 70
     8
 71
     3
 72
    56
 73
    52
 74
     0
 42
0.0000000077798624
 43
0.0000000001
 40
0.0005152584528785
 40
0.0005152584528785
 40
0.0005152584528785
 40
0.0005152584528785
 40
0.0017779440982726
 40
0.0181635659924459
 40
0.034372615371861
 40
0.0504252927293205
 40
0.0663414102333139
 40
0.0821164263284287
 40
0.0978047882434537
 40
0.1137215669951352
 40
0.1296581202187449
 40
0.1456437092098095
 40
0.1617081164752256
 40
0.1778822220934533
 40
0.1941983728184334
 40
0.2106907283332936
 40
0.2273913739749209
 40
0.2442519062464152
 40
0.2615817588271925
 40
0.2792174608950019
 40
0.2972073408768359
 40
0.3155999659331729
 40
0.3344466369856712
 40
0.3538009265387771
 40
0.3737178447957645
 40
0.3942524060369273
 40
0.4154573569404248
 40
0.4373798089889371
 40
0.4600565850457446
 40
0.4835083347666589
 40
0.5077495048998824
 40
0.5320857724358736
 40
0.5575941355103131
 40
0.583730968820948
 40
0.6103042982318475
 40
0.6371119556447684
 40
0.6639613691155285
 40
0.6906865593325652
 40
0.7171984325970332
 40
0.7434395690810253
 40
0.7693749517979875
 40
0.7951870335518465
 40
0.8214016899617503
 40
0.8474260950384054
 40
0.873261297836099
 40
0.8989126828063638
 40
0.9243870891411157
 40
0.949691803308023
 40
0.9748339680462148
 40
0.9998202557388677
 40
1.0
 40
1.0
 40
1.0
 40
1.0
 10
75.21383266475085
 20
394.3695722220812
 30
0.0
 10
75.21438569486874
 20
394.3695620674933
 30
0.0
 10
75.22154272437552
 20
394.36944112969
 30
0.0
 10
75.23662162309353
 20
394.3699973474497
 30
0.0
 10
75.2574320145083
 20
394.3713845151929
 30
0.0
 10
75.27830232059904
 20
394.3737530633858
 30
0.0
 10
75.29894988520327
 20
394.3769974023274
 30
0.0
 10
75.31920744072296
 20
394.3810906247975
 30
0.0
 10
75.33926626843846
 20
394.3860420847737
 30
0.0
 10
75.35914300910754
 20
394.3918639707245
 30
0.0
 10
75.3788267179112
 20
394.3985602973427
 30
0.0
 10
75.39819746691539
 20
394.4060874074974
 30
0.0
 10
75.41723629321956
 20
394.4144298439627
 30
0.0
 10
75.43592910187984
 20
394.4235736348093
 30
0.0
 10
75.45426175481073
 20
394.4335036158754
 30
0.0
 10
75.47223775199701
 20
394.444216209936
 30
0.0
 10
75.48977778646702
 20
394.4556528252027
 30
0.0
 10
75.50701193845492
 20
394.4678891221994
 30
0.0
 10
75.52392345501497
 20
394.4809242143555
 30
0.0
 10
75.54053514037687
 20
394.4947888584229
 30
0.0
 10
75.5567908557013
 20
394.5094445316691
 30
0.0
 10
75.57270515684246
 20
394.5249123655964
 30
0.0
 10
75.58829378320567
 20
394.5412206394955
 30
0.0
 10
75.60357390349994
 20
394.5584058418435
 30
0.0
 10
75.61856309682366
 20
394.5765125796291
 30
0.0
 10
75.63327804518613
 20
394.5955926187272
 30
0.0
 10
75.64773358379638
 20
394.6157041837473
 30
0.0
 10
75.66193900189994
 20
394.6369054576304
 30
0.0
 10
75.67590394095966
 20
394.6592644695628
 30
0.0
 10
75.68960913892262
 20
394.6828025098827
 30
0.0
 10
75.70299778661423
 20
394.7074744477
 30
0.0
 10
75.71608833074015
 20
394.7333704182169
 30
0.0
 10
75.72883421155373
 20
394.7604168815499
 30
0.0
 10
75.74131240903111
 20
394.7888296040481
 30
0.0
 10
75.75339163571753
 20
394.8183291453441
 30
0.0
 10
75.76501602855247
 20
394.8487538355421
 30
0.0
 10
75.77614233811374
 20
394.8799320322948
 30
0.0
 10
75.78674941108551
 20
394.9117170223873
 30
0.0
 10
75.79683662902528
 20
394.9440021753355
 30
0.0
 10
75.80641687824206
 20
394.9767127428263
 30
0.0
 10
75.8155399014665
 20
395.0099161453081
 30
0.0
 10
75.82428158705848
 20
395.0437890031076
 30
0.0
 10
75.83269162074781
 20
395.0784548803123
 30
0.0
 10
75.84077454833665
 20
395.1138879936965
 30
0.0
 10
75.84849046575036
 20
395.1498241085843
 30
0.0
 10
75.85586283044695
 20
395.1862717600001
 30
0.0
 10
75.86290157343296
 20
395.2231959007513
 30
0.0
 10
75.86965932256196
 20
395.2607349349768
 30
0.0
 10
75.87602140963448
 20
395.2983859136749
 30
0.0
 10
75.88035788469595
 20
395.3249805308554
 30
0.0
 10
75.8822491339301
 20
395.3374853769748
 30
0.0
 10
75.88226478291118
 20
395.3375888165621
 30
0.0
  0
LINE
  5
242
330
5E
100
AcDbEntity
  8
DV1_Default
  6
Continuous
 62
     7
100
AcDbLine
 10
50.9978421656
 20
294.7449657724
 30
0.0
 11
50.9978421656
 21
269.1969891729
 31
0.0
  0
ENDBLK
  5
244
330
5E
100
AcDbEntity
  8
0
100
AcDbBlockEnd
  0
BLOCK
  5
2B4
330
245
100
AcDbEntity
  8
0
100
AcDbBlockBegin
  2
SE1
 70
     0
 10
0.0
 20
0.0
 30
0.0
  3
SE1
  1

  0
LINE
  5
247
330
245
100
AcDbEntity
  8
$DDT_AUDIT_GENERATED_(60)
  6
Continuous
 62
     7
100
AcDbLine
 10
214.5721158163
 20
281.2468111387
 30
0.0
 11
214.5721158163
 21
356.6600754284
 31
0.0
  0
LINE
  5
248
330
245
100
AcDbEntity
  8
$DDT_AUDIT_GENERATED_(60)
  6
Continuous
 62
     7
100
AcDbLine
 10
214.5721158163
 20
281.2468111396
 30
0.0
 11
164.5721159764
 21
281.2468111396
 31
0.0
  0
LINE
  5
249
330
245
100
AcDbEntity
  8
$DDT_AUDIT_GENERATED_(60)
  6
Continuous
 62
     7
100
AcDbLine
 10
306.5381474487
 20
377.514964841
 30
0.0
 11
306.5381481158
 21
382.7579484254
 31
0.0
  0
SPLINE
  5
24A
330
245
100
AcDbEntity
  8
$DDT_AUDIT_GENERATED_(60)
  6
Continuous
 62
     7
100
AcDbSpline
210
0.0
220
0.0
230
1.0
 70
    12
 71
     2
 72
     6
 73
     3
 74
     0
 42
0.0000000185410844
 43
0.0000000001
 40
0.0
 40
0.0
 40
0.0
 40
1.0
 40
1.0
 40
1.0
 10
306.5381474487361
 20
377.5149648410018
 30
0.0
 41
1.0
 10
306.5381474144253
 20
377.2452934546824
 30
0.0
 41
0.9270542322225428
 10
306.350683755571
 20
377.0514377445696
 30
0.0
 41
1.0
  0
SPLINE
  5
24B
330
245
100
AcDbEntity
  8
$DDT_AUDIT_GENERATED_(60)
  6
Continuous
 62
     7
100
AcDbSpline
210
0.0
220
0.0
230
1.0
 70
     8
 71
     3
 72
    11
 73
     7
 74
     0
 42
0.0000000001927501
 43
0.0000000001
 40
0.0
 40
0.0
 40
0.0
 40
0.0
 40
0.413218401067773
 40
0.562461438736196
 40
0.8609475140730422
 40
1.0
 40
1.0
 40
1.0
 40
1.0
 10
226.3472997670466
 20
368.6579693162009
 30
0.0
 10
234.8402970658328
 20
368.8171107552466
 30
0.0
 10
245.7749720877734
 20
368.708722461453
 30
0.0
 10
260.8953268871936
 20
367.9871995058929
 30
0.0
 10
270.9842898345997
 20
367.5610143793742
 30
0.0
 10
276.3653436556883
 20
366.170371920832
 30
0.0
 10
277.9530202173798
 20
365.6940924675749
 30
0.0
  0
SPLINE
  5
24C
330
245
100
AcDbEntity
  8
$DDT_AUDIT_GENERATED_(60)
  6
Continuous
 62
     7
100
AcDbSpline
210
0.0
220
0.0
230
1.0
 70
     8
 71
     3
 72
    14
 73
    10
 74
     0
 42
0.000000000533588
 43
0.0000000001
 40
0.0
 40
0.0
 40
0.0
 40
0.0
 40
0.25
 40
0.25
 40
0.5
 40
0.5
 40
0.75
 40
0.75
 40
1.0
 40
1.0
 40
1.0
 40
1.0
 10
226.3472997670466
 20
368.6579693162009
 30
0.0
 10
224.7955116082684
 20
368.6288919725971
 30
0.0
 10
223.2500164407963
 20
368.2950463230789
 30
0.0
 10
220.399157153158
 20
367.0669708984302
 30
0.0
 10
219.0948623444617
 20
366.173201754641
 30
0.0
 10
216.9205752505199
 20
363.9577912825932
 30
0.0
 10
216.0513985053956
 20
362.6369809191735
 30
0.0
 10
214.8769485296247
 20
359.7636143952244
 30
0.0
 10
214.572115816276
 20
358.2121359882672
 30
0.0
 10
214.572115816276
 20
356.660075428355
 30
0.0
  0
ARC
  5
24D
330
245
100
AcDbEntity
  8
$DDT_AUDIT_GENERATED_(60)
  6
Continuous
 62
     7
100
AcDbCircle
 10
174.5960885072
 20
-4304.1258645126
 30
0.0
 40
4696.334634512767
100
AcDbArc
 50
89.6480273103
 51
90.1161934813
  0
ARC
  5
24E
330
245
100
AcDbEntity
  8
$DDT_AUDIT_GENERATED_(60)
  6
Continuous
 62
     7
100
AcDbCircle
 10
205.2827917348
 20
-189.8319652439
 30
0.0
 40
581.8869939393705
100
AcDbArc
 50
80.019901582
 51
89.4898587949
  0
ARC
  5
24F
330
245
100
AcDbEntity
  8
$DDT_AUDIT_GENERATED_(60)
  6
Continuous
 62
     7
100
AcDbCircle
 10
196.2522995115
 20
-459.5570633961
 30
0.0
 40
851.7075990586599
100
AcDbArc
 50
89.0439353951
 51
89.5160703666
  0
ARC
  5
250
330
245
100
AcDbEntity
  8
$DDT_AUDIT_GENERATED_(60)
  6
Continuous
 62
     7
100
AcDbCircle
 10
203.5372581208
 20
-214.702097043
 30
0.0
 40
606.2736092482679
100
AcDbArc
 50
80.2184742338
 51
80.2185102073
  0
LINE
  5
251
330
245
100
AcDbEntity
  8
$DDT_AUDIT_GENERATED_(60)
  6
Continuous
 62
     7
100
AcDbLine
 10
164.5721158163
 20
391.6991128907
 30
0.0
 11
164.5721158163
 21
334.4816901222
 31
0.0
  0
ARC
  5
252
330
245
100
AcDbEntity
  8
$DDT_AUDIT_GENERATED_(60)
  6
Continuous
 62
     7
100
AcDbCircle
 10
204.0336992285
 20
-209.2657286692
 30
0.0
 40
600.8320865951457
100
AcDbArc
 50
80.177052397
 51
80.1770875481
  0
ARC
  5
253
330
245
100
AcDbEntity
  8
$DDT_AUDIT_GENERATED_(60)
  6
Continuous
 62
     7
100
AcDbCircle
 10
306.0381481158
 20
382.757948489
 30
0.0
 40
0.5000000000007677
100
AcDbArc
 50
0.0
 51
79.6163539117
  0
SPLINE
  5
254
330
245
100
AcDbEntity
  8
$DDT_AUDIT_GENERATED_(60)
  6
Continuous
 62
     7
100
AcDbSpline
210
0.0
220
0.0
230
1.0
 70
     8
 71
     3
 72
    10
 73
     6
 74
     0
 42
0.0000000124188139
 43
0.0000000001
 40
0.0
 40
0.0
 40
0.0
 40
0.0
 40
0.5
 40
0.5
 40
1.0
 40
1.0
 40
1.0
 40
1.0
 10
165.0721217990778
 20
392.1991128906918
 30
0.0
 10
164.941221108054
 20
392.1991144569976
 30
0.0
 10
164.8111258609916
 20
392.1452286090716
 30
0.0
 10
164.6260032208663
 20
391.9601081840372
 30
0.0
 10
164.572115816276
 20
391.8300135817608
 30
0.0
 10
164.572115816276
 20
391.6991128907276
 30
0.0
  0
SPLINE
  5
255
330
245
100
AcDbEntity
  8
$DDT_AUDIT_GENERATED_(60)
  6
Continuous
 62
     7
100
AcDbSpline
210
0.0
220
0.0
230
1.0
 70
     8
 71
     3
 72
     9
 73
     5
 74
     0
 42
0.0000000020762021
 43
0.0000000001
 40
0.0
 40
0.0
 40
0.0
 40
0.0
 40
0.3192339599942904
 40
1.0
 40
1.0
 40
1.0
 40
1.0
 10
302.6603459826398
 20
373.9728742655457
 30
0.0
 10
303.0513469041483
 20
374.2509193744328
 30
0.0
 10
304.2903430349001
 20
375.164536078767
 30
0.0
 10
305.5672626991388
 20
376.2413039509945
 30
0.0
 10
306.350683755571
 20
377.0514377445696
 30
0.0
  0
LINE
  5
256
330
245
100
AcDbEntity
  8
$DDT_AUDIT_GENERATED_(60)
  6
Continuous
 62
     7
100
AcDbLine
 10
164.5721158163
 20
313.8023451071
 30
0.0
 11
164.5721158163
 21
281.2468111387
 31
0.0
  0
ARC
  5
257
330
245
100
AcDbEntity
  8
$DDT_AUDIT_GENERATED_(60)
  6
Continuous
 62
     7
100
AcDbCircle
 10
278.0966876526
 20
366.1730075624
 30
0.0
 40
0.5000000000000118
100
AcDbArc
 50
253.3015343142
 51
326.1103730553
  0
LINE
  5
258
330
245
100
AcDbEntity
  8
$DDT_AUDIT_GENERATED_(60)
  6
Continuous
 62
     7
100
AcDbLine
 10
164.5721158163
 20
313.8023451071
 30
0.0
 11
164.5721158163
 21
334.4816901222
 31
0.0
  0
SPLINE
  5
259
330
245
100
AcDbEntity
  8
$DDT_AUDIT_GENERATED_(60)
  6
Continuous
 62
     7
100
AcDbSpline
210
0.0
220
0.0
230
1.0
 70
     8
 71
     3
 72
     8
 73
     4
 74
     0
 42
0.0000000141340448
 43
0.0000000001
 40
0.0
 40
0.0
 40
0.0
 40
0.0
 40
0.1244170037982692
 40
0.1244170037982692
 40
0.1244170037982692
 40
0.1244170037982692
 10
306.489027788953
 20
382.7602596337364
 30
0.0
 10
306.4922703224056
 20
382.7922577104973
 30
0.0
 10
306.4947137332754
 20
382.8198278500951
 30
0.0
 10
306.4923026074374
 20
382.8479108511646
 30
0.0
  0
SPLINE
  5
25A
330
245
100
AcDbEntity
  8
$DDT_AUDIT_GENERATED_(60)
  6
Continuous
 62
     7
100
AcDbSpline
210
0.0
220
0.0
230
1.0
 70
     8
 71
     3
 72
    11
 73
     7
 74
     0
 42
0.0000000241746488
 43
0.0000000001
 40
0.8734668619179025
 40
0.8734668619179025
 40
0.8734668619179025
 40
0.8734668619179025
 40
0.8769683230512674
 40
0.9292929765525858
 40
0.9714763428646506
 40
1.0
 40
1.0
 40
1.0
 40
1.0
 10
306.1759431274058
 20
383.2364671806344
 30
0.0
 10
306.1752775310219
 20
383.2367208872714
 30
0.0
 10
306.1647150336101
 20
383.2407192586223
 30
0.0
 10
306.1476295160815
 20
383.2464142722723
 30
0.0
 10
306.1326031533846
 20
383.2507432375128
 30
0.0
 10
306.1281364572655
 20
383.2519102035667
 30
0.0
 10
306.1261286585849
 20
383.2524187461401
 30
0.0
  0
SPLINE
  5
25B
330
245
100
AcDbEntity
  8
$DDT_AUDIT_GENERATED_(60)
  6
Continuous
 62
     7
100
AcDbSpline
210
0.0
220
0.0
230
1.0
 70
     8
 71
     3
 72
    16
 73
    12
 74
     0
 42
0.0000000149282952
 43
0.0000000001
 40
0.0
 40
0.0
 40
0.0
 40
0.0
 40
0.1235587133400019
 40
0.3372777136852272
 40
0.5142340945671517
 40
0.6637686089461071
 40
0.7863758007914916
 40
0.8768477212202178
 40
0.9292236659770974
 40
0.9714483825430735
 40
1.0
 40
1.0
 40
1.0
 40
1.0
 10
306.4890535651571
 20
382.7609495393157
 30
0.0
 10
306.4922603840442
 20
382.7926967856242
 30
0.0
 10
306.4988619404809
 20
382.8673642739718
 30
0.0
 10
306.454457247857
 20
382.9869611836015
 30
0.0
 10
306.3854590799816
 20
383.0929533622567
 30
0.0
 10
306.3076969567537
 20
383.1658000688256
 30
0.0
 10
306.2361772764605
 20
383.2110990733868
 30
0.0
 10
306.179860717136
 20
383.2356708359865
 30
0.0
 10
306.1476295177156
 20
383.246414272101
 30
0.0
 10
306.1326031531087
 20
383.2507432375414
 30
0.0
 10
306.1281364572664
 20
383.2519102035664
 30
0.0
 10
306.1261286585856
 20
383.2524187461399
 30
0.0
  0
SPLINE
  5
25C
330
245
100
AcDbEntity
  8
$DDT_AUDIT_GENERATED_(60)
  6
Continuous
 62
     7
100
AcDbSpline
210
0.0
220
0.0
230
1.0
 70
     8
 71
     3
 72
    25
 73
    21
 74
     0
 42
0.0000000018073052
 43
0.0000000001
 40
0.0
 40
0.0
 40
0.0
 40
0.0
 40
0.094914184313226
 40
0.1925542402151653
 40
0.2900832952187857
 40
0.3872367205971064
 40
0.4839469236188808
 40
0.567672795740978
 40
0.6542765118946375
 40
0.747443620355786
 40
0.8416146539574536
 40
0.9367497179261741
 40
0.9609564857135641
 40
0.9766319224172153
 40
0.9801565006067061
 40
0.9819014111857082
 40
0.9837835690680679
 40
0.9883260953668906
 40
0.9970069293564849
 40
1.0
 40
1.0
 40
1.0
 40
1.0
 10
297.1253191319945
 20
373.0348459372797
 30
0.0
 10
297.4587754919897
 20
373.0802523041182
 30
0.0
 10
298.0268735487289
 20
373.1576135430117
 30
0.0
 10
298.8861895122088
 20
373.270653138309
 30
0.0
 10
299.6566509362383
 20
373.3716881284507
 30
0.0
 10
300.3470410971871
 20
373.4640497177334
 30
0.0
 10
300.916825450225
 20
373.5439757751913
 30
0.0
 10
301.3873893258354
 20
373.6177516801865
 30
0.0
 10
301.7566013583073
 20
373.6789286735126
 30
0.0
 10
302.051294271705
 20
373.7270788285074
 30
0.0
 10
302.2562670021208
 20
373.7610405035361
 30
0.0
 10
302.3304656558552
 20
373.7732928806866
 30
0.0
 10
302.3561023155542
 20
373.7778289129014
 30
0.0
 10
302.3587901614574
 20
373.7781841871436
 30
0.0
 10
302.3752873604794
 20
373.7814081759194
 30
0.0
 10
302.3897340510398
 20
373.7846564142337
 30
0.0
 10
302.4163729585575
 20
373.791447388104
 30
0.0
 10
302.4744647415297
 20
373.8113479765187
 30
0.0
 10
302.536131639422
 20
373.8406722073323
 30
0.0
 10
302.5691299113478
 20
373.8705917105598
 30
0.0
 10
302.5789582761974
 20
373.8795942033671
 30
0.0
  0
SPLINE
  5
25D
330
245
100
AcDbEntity
  8
$DDT_AUDIT_GENERATED_(60)
  6
Continuous
 62
     7
100
AcDbSpline
210
0.0
220
0.0
230
1.0
 70
     8
 71
     3
 72
    13
 73
     9
 74
     0
 42
0.0000000012648352
 43
0.0000000001
 40
0.8707298397077754
 40
0.8707298397077754
 40
0.8707298397077754
 40
0.8707298397077754
 40
0.8782763340640263
 40
0.9040984260824658
 40
0.9317387735098595
 40
0.9596548354164844
 40
0.9736237918817741
 40
0.9773474066535329
 40
0.9773474066535329
 40
0.9773474066535329
 40
0.9773474066535329
 10
301.5139612810618
 20
373.6392860655396
 30
0.0
 10
301.5514414188058
 20
373.6455244022216
 30
0.0
 10
301.7114322636677
 20
373.6722795405825
 30
0.0
 10
301.95731925897
 20
373.7126599265985
 30
0.0
 10
302.1917163484932
 20
373.7512818019645
 30
0.0
 10
302.3081943399029
 20
373.7702165731022
 30
0.0
 10
302.3401442666478
 20
373.7753784056049
 30
0.0
 10
302.3456095047614
 20
373.7761892516505
 30
0.0
 10
302.3455167388629
 20
373.7761768155495
 30
0.0
  0
SPLINE
  5
25E
330
245
100
AcDbEntity
  8
$DDT_AUDIT_GENERATED_(60)
  6
Continuous
 62
     7
100
AcDbSpline
210
0.0
220
0.0
230
1.0
 70
     8
 71
     3
 72
    33
 73
    29
 74
     0
 42
0.0000000004773342
 43
0.0000000001
 40
0.0204719000074952
 40
0.0204719000074952
 40
0.0204719000074952
 40
0.0204719000074952
 40
0.0302821268436391
 40
0.0541500498577692
 40
0.0891843149560906
 40
0.127912792736033
 40
0.1672709198295328
 40
0.2064985445916935
 40
0.2460414579771946
 40
0.2879661230410355
 40
0.330261569153264
 40
0.3724507988233641
 40
0.4138654803518168
 40
0.4540308925210005
 40
0.4927117429438517
 40
0.5299374823791513
 40
0.5656961370709435
 40
0.6020284685508608
 40
0.6396287363768219
 40
0.678476720845874
 40
0.7184367067046782
 40
0.7592476738859193
 40
0.8005465263077841
 40
0.8418395067472592
 40
0.8826843912725659
 40
0.9240869788821101
 40
0.9656548290879412
 40
1.0
 40
1.0
 40
1.0
 40
1.0
 10
278.482356112212
 20
365.8663180825378
 30
0.0
 10
278.4822865969456
 20
365.8662378986978
 30
0.0
 10
278.4891505564285
 20
365.8738111639299
 30
0.0
 10
278.527600316764
 20
365.9147473601325
 30
0.0
 10
278.6297642414242
 20
366.0211530001113
 30
0.0
 10
278.8140678762338
 20
366.2105270895942
 30
0.0
 10
279.0761072643513
 20
366.4765563694218
 30
0.0
 10
279.4115723536642
 20
366.8151201181855
 30
0.0
 10
279.8182847084074
 20
367.2160311833908
 30
0.0
 10
280.3069340026346
 20
367.6727198874873
 30
0.0
 10
280.8833948748544
 20
368.172469466483
 30
0.0
 10
281.5375773583833
 20
368.6883831993594
 30
0.0
 10
282.2613318788813
 20
369.1980870441703
 30
0.0
 10
283.0434272903377
 20
369.6803951910109
 30
0.0
 10
283.8724745923479
 20
370.1192888940218
 30
0.0
 10
284.73825582659
 20
370.500590106067
 30
0.0
 10
285.6436065735076
 20
370.8320266429701
 30
0.0
 10
286.5947157471321
 20
371.1273480599615
 30
0.0
 10
287.6054759029897
 20
371.3956939774641
 30
0.0
 10
288.6716921178212
 20
371.6404601197534
 30
0.0
 10
289.7802847520597
 20
371.8638618073524
 30
0.0
 10
290.9141336293338
 20
372.0690094763995
 30
0.0
 10
292.0525837329116
 20
372.2591476054284
 30
0.0
 10
293.1713501316194
 20
372.440044379247
 30
0.0
 10
294.2646094224593
 20
372.6114283722501
 30
0.0
 10
295.3154006723018
 20
372.770115421439
 30
0.0
 10
296.2974956869771
 20
372.9138205915016
 30
0.0
 10
296.8375608943227
 20
372.9901143863986
 30
0.0
 10
297.125396951575
 20
373.0306704936237
 30
0.0
  0
LINE
  5
25F
330
245
100
AcDbEntity
  8
$DDT_AUDIT_GENERATED_(74)
  6
Continuous
 62
     7
100
AcDbLine
 10
213.2214312776
 20
391.9968111387
 30
0.0
 11
210.3606616125
 21
391.9968111387
 31
0.0
  0
LINE
  5
260
330
245
100
AcDbEntity
  8
$DDT_AUDIT_GENERATED_(74)
  6
Continuous
 62
     7
100
AcDbLine
 10
175.9772020641
 20
404.9681817665
 30
0.0
 11
174.5721183912
 21
404.9681817665
 31
0.0
  0
ARC
  5
261
330
245
100
AcDbEntity
  8
$DDT_AUDIT_GENERATED_(74)
  6
Continuous
 62
     7
100
AcDbCircle
 10
189.5721183912
 20
385.5968111387
 30
0.0
 40
24.49999999999999
100
AcDbArc
 50
127.7520013062
 51
164.3323833486
  0
ARC
  5
262
330
245
100
AcDbEntity
  8
$DDT_AUDIT_GENERATED_(74)
  6
Continuous
 62
     7
100
AcDbCircle
 10
189.5721183912
 20
385.5968111387
 30
0.0
 40
24.5
100
AcDbArc
 50
15.1427314405
 51
20.9817288002
  0
LINE
  5
263
330
245
100
AcDbEntity
  8
$DDT_AUDIT_GENERATED_(78)
  6
Continuous
 62
     7
100
AcDbLine
 10
281.7133470613
 20
362.0839263035
 30
0.0
 11
301.9167384082
 21
369.437359385
 31
0.0
  0
SPLINE
  5
264
330
245
100
AcDbEntity
  8
$DDT_AUDIT_GENERATED_(78)
  6
Continuous
 62
     7
100
AcDbSpline
210
0.0
220
0.0
230
1.0
 70
     8
 71
     3
 72
    10
 73
     6
 74
     0
 42
0.0000000019260148
 43
0.0000000001
 40
0.0
 40
0.0
 40
0.0
 40
0.0
 40
0.5
 40
0.5
 40
1.0
 40
1.0
 40
1.0
 40
1.0
 10
294.1369549407268
 20
366.9436716016636
 30
0.0
 10
293.3656195260241
 20
366.5416582861202
 30
0.0
 10
292.5756425456326
 20
366.1910686055303
 30
0.0
 10
290.9552901936115
 20
365.6013301049747
 30
0.0
 10
290.1249153661503
 20
365.3621797838947
 30
0.0
 10
289.2759185647126
 20
365.1743990531092
 30
0.0
  0
LINE
  5
265
330
245
100
AcDbEntity
  8
$DDT_AUDIT_GENERATED_(78)
  6
Continuous
 62
     7
100
AcDbLine
 10
294.8022509627
 20
370.0404310402
 30
0.0
 11
286.7757136467
 21
367.119010373
 31
0.0
  0
LINE
  5
266
330
245
100
AcDbEntity
  8
$DDT_AUDIT_GENERATED_(78)
  6
Continuous
 62
     7
100
AcDbLine
 10
294.8022509627
 20
370.0404310402
 30
0.0
 11
295.423507278
 21
368.3335433424
 31
0.0
  0
SPLINE
  5
267
330
245
100
AcDbEntity
  8
$DDT_AUDIT_GENERATED_(78)
  6
Continuous
 62
     7
100
AcDbSpline
210
0.0
220
0.0
230
1.0
 70
     8
 71
     3
 72
    14
 73
    10
 74
     0
 42
0.0000000049320844
 43
0.0000000001
 40
0.0
 40
0.0
 40
0.0
 40
0.0
 40
0.1249999999999997
 40
0.1249999999999997
 40
0.2499999999999994
 40
0.2499999999999994
 40
0.4999999999999996
 40
0.4999999999999996
 40
1.0
 40
1.0
 40
1.0
 40
1.0
 10
295.4235072779887
 20
368.3335433423593
 30
0.0
 10
295.452382393903
 20
368.2542096134009
 30
0.0
 10
295.4508918192562
 20
368.1642313299128
 30
0.0
 10
295.4084526885508
 20
368.0006730187654
 30
0.0
 10
295.3693007704608
 20
367.9236145547958
 30
0.0
 10
295.2308417356539
 20
367.7124092296016
 30
0.0
 10
295.1086779321566
 20
367.591973430874
 30
0.0
 10
294.7248839821399
 20
367.269931511252
 30
0.0
 10
294.4331948043582
 20
367.0980692443811
 30
0.0
 10
294.1369549407268
 20
366.9436716016636
 30
0.0
  0
SPLINE
  5
268
330
245
100
AcDbEntity
  8
$DDT_AUDIT_GENERATED_(78)
  6
Continuous
 62
     7
100
AcDbSpline
210
0.0
220
0.0
230
1.0
 70
     8
 71
     3
 72
    14
 73
    10
 74
     0
 42
0.0000000049319876
 43
0.0000000001
 40
0.0
 40
0.0
 40
0.0
 40
0.0
 40
0.4999999999999996
 40
0.4999999999999996
 40
0.7499999999999993
 40
0.7499999999999993
 40
0.8749999999999997
 40
0.8749999999999997
 40
1.0
 40
1.0
 40
1.0
 40
1.0
 10
289.2759185647126
 20
365.1743990531092
 30
0.0
 10
288.9483411645413
 20
365.1019456310365
 30
0.0
 10
288.6170771987141
 20
365.0463610380152
 30
0.0
 10
288.113532288869
 20
365.0464426726566
 30
0.0
 10
287.9439650116295
 20
365.0602970784333
 30
0.0
 10
287.7036365418751
 20
365.1323521464558
 30
0.0
 10
287.6236514209292
 20
365.1661365138308
 30
0.0
 10
287.4851681502164
 20
365.2644028995839
 30
0.0
 10
287.4259819893922
 20
365.3324127849491
 30
0.0
 10
287.3969699619986
 20
365.4121226751122
 30
0.0
  0
LINE
  5
269
330
245
100
AcDbEntity
  8
$DDT_AUDIT_GENERATED_(78)
  6
Continuous
 62
     7
100
AcDbLine
 10
287.396969962
 20
365.4121226751
 30
0.0
 11
286.7757136467
 21
367.119010373
 31
0.0
  0
LINE
  5
26A
330
245
100
AcDbEntity
  8
$DDT_AUDIT_GENERATED_(78)
  6
Continuous
 62
     7
100
AcDbLine
 10
281.0879101378
 20
362.1942077078
 30
0.0
 11
281.7133470613
 21
362.0839263035
 31
0.0
  0
LINE
  5
26B
330
245
100
AcDbEntity
  8
$DDT_AUDIT_GENERATED_(78)
  6
Continuous
 62
     7
100
AcDbLine
 10
301.9167384082
 20
369.437359385
 30
0.0
 11
302.3249633676
 21
369.923862947
 31
0.0
  0
ARC
  5
26C
330
245
100
AcDbEntity
  8
$DDT_AUDIT_GENERATED_(78)
  6
Continuous
 62
     7
100
AcDbCircle
 10
301.5589189245
 20
370.5666505567
 30
0.0
 40
0.9999999999999929
100
AcDbArc
 50
320.0
 51
20.0
  0
ARC
  5
26D
330
245
100
AcDbEntity
  8
$DDT_AUDIT_GENERATED_(78)
  6
Continuous
 62
     7
100
AcDbCircle
 10
281.2615583155
 20
363.1790154608
 30
0.0
 40
1.000000000000001
100
AcDbArc
 50
200.0
 51
260.0
  0
LINE
  5
26E
330
245
100
AcDbEntity
  8
$DDT_AUDIT_GENERATED_(78)
  6
Continuous
 62
     7
100
AcDbLine
 10
279.0185645281
 20
366.4177858434
 30
0.0
 11
280.3218656947
 21
362.8369953175
 31
0.0
  0
LINE
  5
26F
330
245
100
AcDbEntity
  8
$DDT_AUDIT_GENERATED_(78)
  6
Continuous
 62
     7
100
AcDbLine
 10
302.4986115453
 20
370.9086707
 30
0.0
 11
301.5053309841
 21
373.6376866129
 31
0.0
  0
LINE
  5
270
330
245
100
AcDbEntity
  8
$DDT_AUDIT_GENERATED_(8F)
  6
Continuous
 62
     7
100
AcDbLine
 10
300.2728055585
 20
366.8702878815
 30
0.0
 11
284.6227544412
 21
361.1741351101
 31
0.0
  0
LINE
  5
271
330
245
100
AcDbEntity
  8
$DDT_AUDIT_GENERATED_(8F)
  6
Continuous
 62
     7
100
AcDbLine
 10
283.3223246554
 20
362.297084035
 30
0.0
 11
283.2425930426
 21
362.2680641012
 31
0.0
  0
SPLINE
  5
272
330
245
100
AcDbEntity
  8
$DDT_AUDIT_GENERATED_(8F)
  6
Continuous
 62
     7
100
AcDbSpline
210
0.0
220
0.0
230
1.0
 70
     8
 71
     3
 72
    20
 73
    16
 74
     0
 42
0.0000000631015441
 43
0.0000000001
 40
0.0
 40
0.0
 40
0.0
 40
0.0
 40
0.2125265405902705
 40
0.2125265405902705
 40
0.2125265405902705
 40
0.4250001490954964
 40
0.4250001490954964
 40
0.4250001490954964
 40
0.638312117778163
 40
0.638312117778163
 40
0.638312117778163
 40
0.8534671345903798
 40
0.8534671345903798
 40
0.8534671345903798
 40
1.0
 40
1.0
 40
1.0
 40
1.0
 10
283.1932928677068
 20
362.356538082225
 30
0.0
 10
283.1970952683484
 20
362.3460910723223
 30
0.0
 10
283.2027588440613
 20
362.336158393402
 30
0.0
 10
283.20980877216
 20
362.3275620697488
 30
0.0
 10
283.2168577225182
 20
362.3189669383028
 30
0.0
 10
283.2254850619377
 20
362.3114711683774
 30
0.0
 10
283.234973365799
 20
362.3056801343108
 30
0.0
 10
283.2444995975669
 20
362.2998659515548
 30
0.0
 10
283.2551526726264
 20
362.295610318602
 30
0.0
 10
283.2660594433756
 20
362.2932446971952
 30
0.0
 10
283.2770594928351
 20
362.290858844125
 30
0.0
 10
283.2886174218418
 20
362.2903294831345
 30
0.0
 10
283.2997909789785
 20
362.2916877923392
 30
0.0
 10
283.3074581345535
 20
362.2926198471775
 30
0.0
 10
283.3150668452361
 20
362.2944424081056
 30
0.0
 10
283.3223246553976
 20
362.2970840349706
 30
0.0
  0
LINE
  5
273
330
245
100
AcDbEntity
  8
$DDT_AUDIT_GENERATED_(8F)
  6
Continuous
 62
     7
100
AcDbLine
 10
283.1932928677
 20
362.3565380822
 30
0.0
 11
283.1077878319
 21
362.5914612374
 31
0.0
  0
LINE
  5
274
330
245
100
AcDbEntity
  8
$DDT_AUDIT_GENERATED_(8F)
  6
Continuous
 62
     7
100
AcDbLine
 10
283.4408887697
 20
362.3402378434
 30
0.0
 11
283.3223246554
 21
362.297084035
 31
0.0
  0
SPLINE
  5
275
330
245
100
AcDbEntity
  8
$DDT_AUDIT_GENERATED_(8F)
  6
Continuous
 62
     7
100
AcDbSpline
210
0.0
220
0.0
230
1.0
 70
     8
 71
     3
 72
    20
 73
    16
 74
     0
 42
0.000000063088464
 43
0.0000000001
 40
0.0
 40
0.0
 40
0.0
 40
0.0
 40
0.2174785466303456
 40
0.2174785466303456
 40
0.2174785466303456
 40
0.4350168090148732
 40
0.4350168090148732
 40
0.4350168090148732
 40
0.6515958899074934
 40
0.6515958899074934
 40
0.6515958899074934
 40
0.8662118866631088
 40
0.8662118866631088
 40
0.8662118866631088
 40
1.0
 40
1.0
 40
1.0
 40
1.0
 10
283.4408887696645
 20
362.3402378434163
 30
0.0
 10
283.4301969096287
 20
362.3363463246143
 30
0.0
 10
283.4186876319678
 20
362.3342414941327
 30
0.0
 10
283.4073104321607
 20
362.3341032401719
 30
0.0
 10
283.3959314888813
 20
362.3339649650247
 30
0.0
 10
283.3843689421947
 20
362.3357914457227
 30
0.0
 10
283.3735915630361
 20
362.3394448781697
 30
0.0
 10
283.3628622233139
 20
362.3430820256894
 30
0.0
 10
283.3526120562765
 20
362.34863298109
 30
0.0
 10
283.3437136376803
 20
362.3556448082016
 30
0.0
 10
283.3348949645159
 20
362.3625937970486
 30
0.0
 10
283.3271585128971
 20
362.3711721601335
 30
0.0
 10
283.3211642631014
 20
362.3806656532611
 30
0.0
 10
283.317394398785
 20
362.3866362387722
 30
0.0
 10
283.3142480938361
 20
362.3930478706881
 30
0.0
 10
283.3118330400211
 20
362.3996831765122
 30
0.0
  0
LINE
  5
276
330
245
100
AcDbEntity
  8
$DDT_AUDIT_GENERATED_(8F)
  6
Continuous
 62
     7
100
AcDbLine
 10
283.2263280042
 20
362.6346063317
 30
0.0
 11
283.31183304
 21
362.3996831765
 31
0.0
  0
SPLINE
  5
277
330
245
100
AcDbEntity
  8
$DDT_AUDIT_GENERATED_(8F)
  6
Continuous
 62
     7
100
AcDbSpline
210
0.0
220
0.0
230
1.0
 70
     8
 71
     3
 72
    20
 73
    16
 74
     0
 42
0.0000000734542227
 43
0.0000000001
 40
0.0
 40
0.0
 40
0.0
 40
0.0
 40
0.2174093870011151
 40
0.2174093870011151
 40
0.2174093870011151
 40
0.4348768202247125
 40
0.4348768202247125
 40
0.4348768202247125
 40
0.6514121854904935
 40
0.6514121854904935
 40
0.6514121854904935
 40
0.8660380396115136
 40
0.8660380396115136
 40
0.8660380396115136
 40
1.0
 40
1.0
 40
1.0
 40
1.0
 10
285.0142667928766
 20
362.9129006111141
 30
0.0
 10
285.0067098745255
 20
362.9101501177715
 30
0.0
 10
284.9983790530479
 20
362.9092013926089
 30
0.0
 10
284.9899611050083
 20
362.91013857006
 30
0.0
 10
284.9815419026783
 20
362.9110758871524
 30
0.0
 10
284.9728018573326
 20
362.9139269982037
 30
0.0
 10
284.9644716242244
 20
362.9184673956658
 30
0.0
 10
284.9561774857675
 20
362.9229881197213
 30
0.0
 10
284.9480583764604
 20
362.9293111113003
 30
0.0
 10
284.9408031488471
 20
362.9369169198305
 30
0.0
 10
284.9336111799138
 20
362.944456412949
 30
0.0
 10
284.927067893322
 20
362.9534673303672
 30
0.0
 10
284.9217294339095
 20
362.9631980772255
 30
0.0
 10
284.9183678575393
 20
362.9693254346099
 30
0.0
 10
284.9154278464626
 20
362.9758209597152
 30
0.0
 10
284.9130100027441
 20
362.9824639307361
 30
0.0
  0
LINE
  5
278
330
245
100
AcDbEntity
  8
$DDT_AUDIT_GENERATED_(8F)
  6
Continuous
 62
     7
100
AcDbLine
 10
284.8275049669
 20
363.2173870859
 30
0.0
 11
284.9130100027
 21
362.9824639307
 31
0.0
  0
LINE
  5
279
330
245
100
AcDbEntity
  8
$DDT_AUDIT_GENERATED_(8F)
  6
Continuous
 62
     7
100
AcDbLine
 10
286.5741675637
 20
363.5870758374
 30
0.0
 11
286.4886625279
 21
363.8219989926
 31
0.0
  0
SPLINE
  5
27A
330
245
100
AcDbEntity
  8
$DDT_AUDIT_GENERATED_(8F)
  6
Continuous
 62
     7
100
AcDbSpline
210
0.0
220
0.0
230
1.0
 70
     8
 71
     3
 72
    20
 73
    16
 74
     0
 42
0.0000000734876714
 43
0.0000000001
 40
0.0
 40
0.0
 40
0.0
 40
0.0
 40
0.2125265405902869
 40
0.2125265405902869
 40
0.2125265405902869
 40
0.4250001490955228
 40
0.4250001490955228
 40
0.4250001490955228
 40
0.6383121177781937
 40
0.6383121177781937
 40
0.6383121177781937
 40
0.8534671345904412
 40
0.8534671345904412
 40
0.8534671345904412
 40
1.0
 40
1.0
 40
1.0
 40
1.0
 10
286.5741675637158
 20
363.5870758373561
 30
0.0
 10
286.5779699643575
 20
363.5766288274533
 30
0.0
 10
286.583103766023
 20
363.5665033265489
 30
0.0
 10
286.5891395695095
 20
363.557537891723
 30
0.0
 10
286.5951745359023
 20
363.5485737002956
 30
0.0
 10
286.6022761832968
 20
363.5405226238864
 30
0.0
 10
286.6098556491307
 20
363.5340368295957
 30
0.0
 10
286.6174654126106
 20
363.527525109428
 30
0.0
 10
286.6257638698959
 20
363.5224124656924
 30
0.0
 10
286.6340724947734
 20
363.519101196524
 30
0.0
 10
286.6424521780632
 20
363.5157616081651
 30
0.0
 10
286.6510706966838
 20
363.5141623892878
 30
0.0
 10
286.6592265599298
 20
363.5144223477401
 30
0.0
 10
286.664823011587
 20
363.5146007279885
 30
0.0
 10
286.6702923070667
 20
363.5156446054639
 30
0.0
 10
286.6754243538483
 20
363.517512517734
 30
0.0
  0
LINE
  5
27B
330
245
100
AcDbEntity
  8
$DDT_AUDIT_GENERATED_(8F)
  6
Continuous
 62
     7
100
AcDbLine
 10
286.7592618431
 20
363.5480268683
 30
0.0
 11
286.6754243538
 21
363.5175125177
 31
0.0
  0
SPLINE
  5
27C
330
245
100
AcDbEntity
  8
$DDT_AUDIT_GENERATED_(8F)
  6
Continuous
 62
     7
100
AcDbSpline
210
0.0
220
0.0
230
1.0
 70
     8
 71
     3
 72
    20
 73
    16
 74
     0
 42
0.0000000734471153
 43
0.0000000001
 40
0.0
 40
0.0
 40
0.0
 40
0.0
 40
0.2174785466303357
 40
0.2174785466303357
 40
0.2174785466303357
 40
0.4350168090148483
 40
0.4350168090148483
 40
0.4350168090148483
 40
0.6515958899074671
 40
0.6515958899074671
 40
0.6515958899074671
 40
0.8662118866630723
 40
0.8662118866630723
 40
0.8662118866630723
 40
1.0
 40
1.0
 40
1.0
 40
1.0
 10
286.7592618430518
 20
363.5480268683197
 30
0.0
 10
286.7517015563171
 20
363.5452751489857
 30
0.0
 10
286.7433670734392
 20
363.544325849305
 30
0.0
 10
286.7349453871144
 20
363.5452633142787
 30
0.0
 10
286.7265224102281
 20
363.5462009229121
 30
0.0
 10
286.7177783650515
 20
363.549053254265
 30
0.0
 10
286.7094444401702
 20
363.5535960313376
 30
0.0
 10
286.7011476631935
 20
363.5581185592898
 30
0.0
 10
286.693025975368
 20
363.5644442177677
 30
0.0
 10
286.6857689138399
 20
363.5720534499959
 30
0.0
 10
286.6785768883066
 20
363.5795944901623
 30
0.0
 10
286.6720338084174
 20
363.5886072050353
 30
0.0
 10
286.6666961976552
 20
363.5983396952257
 30
0.0
 10
286.6633393024584
 20
363.6044605892039
 30
0.0
 10
286.6604031772173
 20
363.6109487202773
 30
0.0
 10
286.6579881234023
 20
363.6175840261014
 30
0.0
  0
LINE
  5
27D
330
245
100
AcDbEntity
  8
$DDT_AUDIT_GENERATED_(8F)
  6
Continuous
 62
     7
100
AcDbLine
 10
286.5724830876
 20
363.8525071813
 30
0.0
 11
286.6579881234
 21
363.6175840261
 31
0.0
  0
LINE
  5
27E
330
245
100
AcDbEntity
  8
$DDT_AUDIT_GENERATED_(8F)
  6
Continuous
 62
     7
100
AcDbLine
 10
290.7601340089
 20
365.0042252478
 30
0.0
 11
290.7259319946
 21
365.0981945099
 31
0.0
  0
LINE
  5
27F
330
245
100
AcDbEntity
  8
$DDT_AUDIT_GENERATED_(8F)
  6
Continuous
 62
     7
100
AcDbLine
 10
290.6404269587
 20
365.3331176651
 30
0.0
 11
290.7259319946
 21
365.0981945099
 31
0.0
  0
LINE
  5
280
330
245
100
AcDbEntity
  8
$DDT_AUDIT_GENERATED_(8F)
  6
Continuous
 62
     7
100
AcDbLine
 10
293.0751635465
 20
365.9532448682
 30
0.0
 11
292.9896585107
 21
366.1881680234
 31
0.0
  0
LINE
  5
281
330
245
100
AcDbEntity
  8
$DDT_AUDIT_GENERATED_(8F)
  6
Continuous
 62
     7
100
AcDbLine
 10
293.0751635465
 20
365.9532448682
 30
0.0
 11
293.1093655609
 21
365.8592756061
 31
0.0
  0
LINE
  5
282
330
245
100
AcDbEntity
  8
$DDT_AUDIT_GENERATED_(8F)
  6
Continuous
 62
     7
100
AcDbLine
 10
297.0576023819
 20
367.6687785072
 30
0.0
 11
297.1431074177
 21
367.433855352
 31
0.0
  0
SPLINE
  5
283
330
245
100
AcDbEntity
  8
$DDT_AUDIT_GENERATED_(8F)
  6
Continuous
 62
     7
100
AcDbSpline
210
0.0
220
0.0
230
1.0
 70
     8
 71
     3
 72
    20
 73
    16
 74
     0
 42
0.0000000734807071
 43
0.0000000001
 40
0.0
 40
0.0
 40
0.0
 40
0.0
 40
0.2124602044789375
 40
0.2124602044789375
 40
0.2124602044789375
 40
0.424866054904191
 40
0.424866054904191
 40
0.424866054904191
 40
0.6381326839798532
 40
0.6381326839798532
 40
0.6381326839798532
 40
0.8532925071046277
 40
0.8532925071046277
 40
0.8532925071046277
 40
1.0
 40
1.0
 40
1.0
 40
1.0
 10
297.1431074176991
 20
367.4338553519555
 30
0.0
 10
297.1469091159358
 20
367.4234102718945
 30
0.0
 10
297.1494843669058
 20
367.4123557521187
 30
0.0
 10
297.1506232302239
 20
367.401610087855
 30
0.0
 10
297.1517619312992
 20
367.3908659544228
 30
0.0
 10
297.1514968533085
 20
367.3801357393495
 30
0.0
 10
297.1498601565881
 20
367.3702970847357
 30
0.0
 10
297.1482167402988
 20
367.3604180368611
 30
0.0
 10
297.1451467598231
 20
367.3511679569229
 30
0.0
 10
297.1409115382189
 20
367.3432905363538
 30
0.0
 10
297.1366391015967
 20
367.3353438966562
 30
0.0
 10
297.131064979808
 20
367.3285768314646
 30
0.0
 10
297.1246501591498
 20
367.3235309266344
 30
0.0
 10
297.1202433217854
 20
367.3200645036231
 30
0.0
 10
297.1153764622814
 20
367.3173443323674
 30
0.0
 10
297.1102377267147
 20
367.3154739855801
 30
0.0
  0
LINE
  5
284
330
245
100
AcDbEntity
  8
$DDT_AUDIT_GENERATED_(8F)
  6
Continuous
 62
     7
100
AcDbLine
 10
297.1940752159
 20
367.3459883362
 30
0.0
 11
297.1102377267
 21
367.3154739856
 31
0.0
  0
SPLINE
  5
285
330
245
100
AcDbEntity
  8
$DDT_AUDIT_GENERATED_(8F)
  6
Continuous
 62
     7
100
AcDbSpline
210
0.0
220
0.0
230
1.0
 70
     8
 71
     3
 72
    20
 73
    16
 74
     0
 42
0.0000000734542227
 43
0.0000000001
 40
0.0
 40
0.0
 40
0.0
 40
0.0
 40
0.2174093870011363
 40
0.2174093870011363
 40
0.2174093870011363
 40
0.4348768202247474
 40
0.4348768202247474
 40
0.4348768202247474
 40
0.6514121854905198
 40
0.6514121854905198
 40
0.6514121854905198
 40
0.8660380396115526
 40
0.8660380396115526
 40
0.8660380396115526
 40
1.0
 40
1.0
 40
1.0
 40
1.0
 10
297.1940752159182
 20
367.3459883361658
 30
0.0
 10
297.2016321342693
 20
367.3487388295084
 30
0.0
 10
297.2086237425484
 20
367.3533670126938
 30
0.0
 10
297.2144698588129
 20
367.3594958849714
 30
0.0
 10
297.2203168461599
 20
367.3656256704625
 30
0.0
 10
297.225179450472
 20
367.3734277410964
 30
0.0
 10
297.2286422680228
 20
367.3822604579696
 30
0.0
 10
297.2320900812885
 20
367.3910549029442
 30
0.0
 10
297.2342453392131
 20
367.4011174583715
 30
0.0
 10
297.2349142465249
 20
367.4116074161468
 30
0.0
 10
297.2355773216016
 20
367.4220059114737
 30
0.0
 10
297.2347976638666
 20
367.4331146182371
 30
0.0
 10
297.2326323575209
 20
367.4440002983605
 30
0.0
 10
297.2312688850126
 20
367.4508549060757
 30
0.0
 10
297.2293458211045
 20
367.4577205696802
 30
0.0
 10
297.2269279773856
 20
367.464363540701
 30
0.0
  0
LINE
  5
286
330
245
100
AcDbEntity
  8
$DDT_AUDIT_GENERATED_(8F)
  6
Continuous
 62
     7
100
AcDbLine
 10
297.1414229416
 20
367.6992866959
 30
0.0
 11
297.2269279774
 21
367.4643635407
 31
0.0
  0
LINE
  5
287
330
245
100
AcDbEntity
  8
$DDT_AUDIT_GENERATED_(8F)
  6
Continuous
 62
     7
100
AcDbLine
 10
298.8880855384
 20
368.0689754473
 30
0.0
 11
298.8025805025
 21
368.3038986025
 31
0.0
  0
SPLINE
  5
288
330
245
100
AcDbEntity
  8
$DDT_AUDIT_GENERATED_(8F)
  6
Continuous
 62
     7
100
AcDbSpline
210
0.0
220
0.0
230
1.0
 70
     8
 71
     3
 72
    20
 73
    16
 74
     0
 42
0.0000000734876714
 43
0.0000000001
 40
0.0
 40
0.0
 40
0.0
 40
0.0
 40
0.2125265405902722
 40
0.2125265405902722
 40
0.2125265405902722
 40
0.4250001490954936
 40
0.4250001490954936
 40
0.4250001490954936
 40
0.6383121177781517
 40
0.6383121177781517
 40
0.6383121177781517
 40
0.8534671345903888
 40
0.8534671345903888
 40
0.8534671345903888
 40
1.0
 40
1.0
 40
1.0
 40
1.0
 10
298.8880855383572
 20
368.0689754473209
 30
0.0
 10
298.8918879389989
 20
368.0585284374181
 30
0.0
 10
298.8944637652843
 20
368.0474719096153
 30
0.0
 10
298.8956029419852
 20
368.0367242483912
 30
0.0
 10
298.8967419606959
 20
368.025978077739
 30
0.0
 10
298.8964769153328
 20
368.015245744441
 30
0.0
 10
298.8948396958581
 20
368.0054053510394
 30
0.0
 10
298.8931959318724
 20
367.9955256223122
 30
0.0
 10
298.8901252888285
 20
367.9862749644665
 30
0.0
 10
298.885888955705
 20
367.9783977039955
 30
0.0
 10
298.8816163919042
 20
367.9704530742991
 30
0.0
 10
298.8760421816864
 20
367.9636881245816
 30
0.0
 10
298.8696273298959
 20
367.9586447764686
 30
0.0
 10
298.8652255385892
 20
367.9551840938832
 30
0.0
 10
298.860364823672
 20
367.9524681550544
 30
0.0
 10
298.85523277689
 20
367.9506002427857
 30
0.0
  0
LINE
  5
289
330
245
100
AcDbEntity
  8
$DDT_AUDIT_GENERATED_(8F)
  6
Continuous
 62
     7
100
AcDbLine
 10
300.4037574652
 20
368.8866793567
 30
0.0
 11
300.4892625011
 21
368.6517562015
 31
0.0
  0
SPLINE
  5
28A
330
245
100
AcDbEntity
  8
$DDT_AUDIT_GENERATED_(8F)
  6
Continuous
 62
     7
100
AcDbSpline
210
0.0
220
0.0
230
1.0
 70
     8
 71
     3
 72
    20
 73
    16
 74
     0
 42
0.0000000630935676
 43
0.0000000001
 40
0.0
 40
0.0
 40
0.0
 40
0.0
 40
0.2124602044789328
 40
0.2124602044789328
 40
0.2124602044789328
 40
0.4248660549041722
 40
0.4248660549041722
 40
0.4248660549041722
 40
0.6381326839798376
 40
0.6381326839798376
 40
0.6381326839798376
 40
0.8532925071045689
 40
0.8532925071045689
 40
0.8532925071045689
 40
1.0
 40
1.0
 40
1.0
 40
1.0
 10
300.4892625010802
 20
368.6517562015447
 30
0.0
 10
300.493064199317
 20
368.6413111214837
 30
0.0
 10
300.4951097331322
 20
368.6300638004311
 30
0.0
 10
300.4952346230621
 20
368.6189490800356
 30
0.0
 10
300.4953594952
 20
368.6078359430476
 30
0.0
 10
300.4935689952405
 20
368.596550519783
 30
0.0
 10
300.4900238831725
 20
368.586017258788
 30
0.0
 10
300.4864642164076
 20
368.5754407527789
 30
0.0
 10
300.4810399374327
 20
368.5653337782645
 30
0.0
 10
300.4742069551926
 20
368.5565108501482
 30
0.0
 10
300.4673139313348
 20
368.5476103947005
 30
0.0
 10
300.4588001498801
 20
368.5397733808915
 30
0.0
 10
300.4493673063533
 20
368.5336290055708
 30
0.0
 10
300.4428871552282
 20
368.5294079580644
 30
0.0
 10
300.4358780696338
 20
368.5259080802766
 30
0.0
 10
300.428610800102
 20
368.5232630104834
 30
0.0
  0
LINE
  5
28B
330
245
100
AcDbEntity
  8
$DDT_AUDIT_GENERATED_(8F)
  6
Continuous
 62
     7
100
AcDbLine
 10
300.5471749144
 20
368.5664168189
 30
0.0
 11
300.4286108001
 21
368.5232630105
 31
0.0
  0
SPLINE
  5
28C
330
245
100
AcDbEntity
  8
$DDT_AUDIT_GENERATED_(8F)
  6
Continuous
 62
     7
100
AcDbSpline
210
0.0
220
0.0
230
1.0
 70
     8
 71
     3
 72
    20
 73
    16
 74
     0
 42
0.0000000630965777
 43
0.0000000001
 40
0.0
 40
0.0
 40
0.0
 40
0.0
 40
0.2174093870011214
 40
0.2174093870011214
 40
0.2174093870011214
 40
0.4348768202247293
 40
0.4348768202247293
 40
0.4348768202247293
 40
0.6514121854905003
 40
0.6514121854905003
 40
0.6514121854905003
 40
0.8660380396115237
 40
0.8660380396115237
 40
0.8660380396115237
 40
1.0
 40
1.0
 40
1.0
 40
1.0
 10
300.547174914369
 20
368.5664168189288
 30
0.0
 10
300.5578620107908
 20
368.5703066039171
 30
0.0
 10
300.5680269981767
 20
368.5760898026394
 30
0.0
 10
300.576827298886
 20
368.5832939101214
 30
0.0
 10
300.5856289108568
 20
368.590499091029
 30
0.0
 10
300.5933087161551
 20
368.5993265389658
 30
0.0
 10
300.5992139544683
 20
368.6090482242961
 30
0.0
 10
300.6050936055601
 20
368.618727785854
 30
0.0
 10
300.6093767546108
 20
368.629564830313
 30
0.0
 10
300.6116868040006
 20
368.6406521149548
 30
0.0
 10
300.6139767119582
 20
368.6516427290265
 30
0.0
 10
300.6143907408437
 20
368.6631859021889
 30
0.0
 10
300.612882616016
 20
368.6743107768233
 30
0.0
 10
300.6119329643669
 20
368.6813160030136
 30
0.0
 10
300.6102205171135
 20
368.6882583248112
 30
0.0
 10
300.6078026733945
 20
368.6949012958319
 30
0.0
  0
LINE
  5
28D
330
245
100
AcDbEntity
  8
$DDT_AUDIT_GENERATED_(8F)
  6
Continuous
 62
     7
100
AcDbLine
 10
300.5222976376
 20
368.929824451
 30
0.0
 11
300.6078026734
 21
368.6949012958
 31
0.0
  0
LINE
  5
28E
330
245
100
AcDbEntity
  8
$DDT_AUDIT_GENERATED_(8F)
  6
Continuous
 62
     7
100
AcDbLine
 10
286.6754243538
 20
363.5175125177
 30
0.0
 11
285.0142667929
 21
362.9129006111
 31
0.0
  0
LINE
  5
28F
330
245
100
AcDbEntity
  8
$DDT_AUDIT_GENERATED_(8F)
  6
Continuous
 62
     7
100
AcDbLine
 10
284.9998338562
 20
362.9076474518
 30
0.0
 11
283.4408887697
 21
362.3402378434
 31
0.0
  0
LINE
  5
290
330
245
100
AcDbEntity
  8
$DDT_AUDIT_GENERATED_(8F)
  6
Continuous
 62
     7
100
AcDbLine
 10
300.5471749144
 20
368.5664168189
 30
0.0
 11
300.6269065272
 21
368.5954367527
 31
0.0
  0
LINE
  5
291
330
245
100
AcDbEntity
  8
$DDT_AUDIT_GENERATED_(8F)
  6
Continuous
 62
     7
100
AcDbLine
 10
300.4286108001
 20
368.5232630105
 30
0.0
 11
298.857576054
 21
367.9514531259
 31
0.0
  0
LINE
  5
292
330
245
100
AcDbEntity
  8
$DDT_AUDIT_GENERATED_(8F)
  6
Continuous
 62
     7
100
AcDbLine
 10
298.8552327769
 20
367.9506002428
 30
0.0
 11
297.1940752159
 21
367.3459883362
 31
0.0
  0
LINE
  5
293
330
245
100
AcDbEntity
  8
$DDT_AUDIT_GENERATED_(8F)
  6
Continuous
 62
     7
100
AcDbLine
 10
297.1102377267
 20
367.3154739856
 30
0.0
 11
293.1093655609
 21
365.8592756061
 31
0.0
  0
LINE
  5
294
330
245
100
AcDbEntity
  8
$DDT_AUDIT_GENERATED_(8F)
  6
Continuous
 62
     7
100
AcDbLine
 10
293.1093655609
 20
365.8592756061
 30
0.0
 11
290.7601340089
 21
365.0042252478
 31
0.0
  0
LINE
  5
295
330
245
100
AcDbEntity
  8
$DDT_AUDIT_GENERATED_(8F)
  6
Continuous
 62
     7
100
AcDbLine
 10
290.7601340089
 20
365.0042252478
 30
0.0
 11
286.7592618431
 21
363.5480268683
 31
0.0
  0
ARC
  5
296
330
245
100
AcDbEntity
  8
$DDT_AUDIT_GENERATED_(8F)
  6
Continuous
 62
     7
100
AcDbCircle
 10
300.2386035442
 20
366.9642571436
 30
0.0
 40
0.0999999999999926
100
AcDbArc
 50
290.0
 51
2.0955524938
  0
ARC
  5
297
330
245
100
AcDbEntity
  8
$DDT_AUDIT_GENERATED_(8F)
  6
Continuous
 62
     7
100
AcDbCircle
 10
284.5885524269
 20
361.2681043721
 30
0.0
 40
0.100000000000002
100
AcDbArc
 50
217.9044475062
 51
290.0
  0
LINE
  5
298
330
245
100
AcDbEntity
  8
$DDT_AUDIT_GENERATED_(8F)
  6
Continuous
 62
     7
100
AcDbLine
 10
283.5859422694
 20
362.3930329997
 30
0.0
 11
284.509648787
 21
361.2066697271
 31
0.0
  0
LINE
  5
299
330
245
100
AcDbEntity
  8
$DDT_AUDIT_GENERATED_(8F)
  6
Continuous
 62
     7
100
AcDbLine
 10
300.3385366677
 20
366.9679137573
 30
0.0
 11
300.2835573003
 21
368.4704678542
 31
0.0
  0
ARC
  5
29A
330
245
100
AcDbEntity
  8
$DDT_AUDIT_GENERATED_(8F)
  6
Continuous
 62
     7
100
AcDbCircle
 10
283.2083910283
 20
362.3620333633
 30
0.0
 40
0.1000000000000056
100
AcDbArc
 50
200.0
 51
290.0
  0
LINE
  5
29B
330
245
100
AcDbEntity
  8
$DDT_AUDIT_GENERATED_(8F)
  6
Continuous
 62
     7
100
AcDbLine
 10
283.0289167304
 20
362.5627545041
 30
0.0
 11
283.1144217662
 21
362.3278313489
 31
0.0
  0
LINE
  5
29C
330
245
100
AcDbEntity
  8
$DDT_AUDIT_GENERATED_(8F)
  6
Continuous
 62
     7
100
AcDbLine
 10
300.6866737749
 20
368.7236080291
 30
0.0
 11
300.6011687391
 21
368.9585311843
 31
0.0
  0
ARC
  5
29D
330
245
100
AcDbEntity
  8
$DDT_AUDIT_GENERATED_(8F)
  6
Continuous
 62
     7
100
AcDbCircle
 10
300.5927045128
 20
368.6894060148
 30
0.0
 40
0.1000000000000008
100
AcDbArc
 50
290.0
 51
20.0
  0
LINE
  5
29E
330
245
100
AcDbEntity
  8
$DDT_AUDIT_GENERATED_(20B)
  6
Continuous
 62
     7
100
AcDbLine
 10
214.5978603058
 20
429.5942362105
 30
0.0
 11
214.5913959638
 21
411.0470376478
 31
0.0
  0
ARC
  5
29F
330
245
100
AcDbEntity
  8
$DDT_AUDIT_GENERATED_(20B)
  6
Continuous
 62
     7
100
AcDbCircle
 10
216.0978602147
 20
429.5937134085
 30
0.0
 40
1.49999999999973
100
AcDbArc
 50
90.0336657775
 51
179.9800304344
  0
ARC
  5
2A0
330
245
100
AcDbEntity
  8
$DDT_AUDIT_GENERATED_(20B)
  6
Continuous
 62
     7
100
AcDbCircle
 10
253.3036942257
 20
-1264.8412055097
 30
0.0
 40
1701.491119400979
100
AcDbArc
 50
92.8206978207
 51
92.9728924696
  0
ARC
  5
2A1
330
245
100
AcDbEntity
  8
$DDT_AUDIT_GENERATED_(20B)
  6
Continuous
 62
     7
100
AcDbCircle
 10
216.4802079857
 20
-65.1500805656
 30
0.0
 40
500.9499298653885
100
AcDbArc
 50
81.8640399946
 51
90.6730651971
  0
LINE
  5
2A2
330
245
100
AcDbEntity
  8
$DDT_AUDIT_GENERATED_(20B)
  6
Continuous
 62
     7
100
AcDbLine
 10
210.5946632311
 20
435.7652820211
 30
0.0
 11
210.5955824394
 21
435.7652849546
 31
0.0
  0
ARC
  5
2A3
330
245
100
AcDbEntity
  8
$DDT_AUDIT_GENERATED_(20B)
  6
Continuous
 62
     7
100
AcDbCircle
 10
213.1146622504
 20
-304.9450410647
 30
0.0
 40
740.7146097660518
100
AcDbArc
 50
90.1949274185
 51
91.2541275474
  0
ARC
  5
2A4
330
245
100
AcDbEntity
  8
$DDT_AUDIT_GENERATED_(20B)
  6
Continuous
 62
     7
100
AcDbCircle
 10
219.6494686624
 20
-556.3915382366
 30
0.0
 40
992.2444348197149
100
AcDbArc
 50
91.3135951011
 51
92.8928639826
  0
LINE
  5
2A5
330
245
100
AcDbEntity
  8
$DDT_AUDIT_GENERATED_(20B)
  6
Continuous
 62
     7
100
AcDbLine
 10
164.5843377958
 20
433.8606910677
 30
0.0
 11
164.5843377958
 21
412.2535261936
 31
0.0
  0
SPLINE
  5
2A6
330
245
100
AcDbEntity
  8
$DDT_AUDIT_GENERATED_(20B)
  6
Continuous
 62
     7
100
AcDbSpline
210
0.0
220
0.0
230
1.0
 70
     8
 71
     3
 72
    10
 73
     6
 74
     0
 42
0.0000000128628078
 43
0.0000000001
 40
0.0
 40
0.0
 40
0.0
 40
0.0
 40
0.5
 40
0.5
 40
1.0
 40
1.0
 40
1.0
 40
1.0
 10
164.584337795799
 20
433.8606910677296
 30
0.0
 10
164.584337795799
 20
433.9872722383079
 30
0.0
 10
164.6345857322671
 20
434.1131705205445
 30
0.0
 10
164.8089005434418
 20
434.2967611455368
 30
0.0
 10
164.9320270132541
 20
434.3534630416338
 30
0.0
 10
165.0584382519192
 20
434.3600198307973
 30
0.0
  0
LINE
  5
2A7
330
245
100
AcDbEntity
  8
$DDT_AUDIT_GENERATED_(20B)
  6
Continuous
 62
     7
100
AcDbLine
 10
214.5889067198
 20
403.9050109096
 30
0.0
 11
214.5856877985
 21
394.6694269547
 31
0.0
  0
ARC
  5
2A8
330
245
100
AcDbEntity
  8
$DDT_AUDIT_GENERATED_(20B)
  6
Continuous
 62
     7
100
AcDbCircle
 10
243.3054204503
 20
407.4660160114
 30
0.0
 40
28.93646347033319
100
AcDbArc
 50
172.8911564614
 51
187.0689044074
  0
LINE
  5
2A9
330
245
100
AcDbEntity
  8
$DDT_AUDIT_GENERATED_(20B)
  6
Continuous
 62
     7
100
AcDbLine
 10
214.2148577881
 20
394.3695315151
 30
0.0
 11
194.3723149515
 21
394.3695315151
 31
0.0
  0
ARC
  5
2AA
330
245
100
AcDbEntity
  8
$DDT_AUDIT_GENERATED_(20B)
  6
Continuous
 62
     7
100
AcDbCircle
 10
194.3723149515
 20
399.3695315151
 30
0.0
 40
4.999999999999129
100
AcDbArc
 50
238.0
 51
270.0
  0
LINE
  5
2AB
330
245
100
AcDbEntity
  8
$DDT_AUDIT_GENERATED_(20B)
  6
Continuous
 62
     7
100
AcDbLine
 10
191.7227186303
 20
395.1292910343
 30
0.0
 11
164.7253620165
 21
411.9991117648
 31
0.0
  0
SPLINE
  5
2AC
330
245
100
AcDbEntity
  8
$DDT_AUDIT_GENERATED_(20B)
  6
Continuous
 62
     7
100
AcDbSpline
210
0.0
220
0.0
230
1.0
 70
     8
 71
     3
 72
     8
 73
     4
 74
     0
 42
0.0000000316185498
 43
0.0000000001
 40
0.0
 40
0.0
 40
0.0
 40
0.0
 40
1.0
 40
1.0
 40
1.0
 40
1.0
 10
164.7253620165291
 20
411.9991117647918
 30
0.0
 10
164.6395148738685
 20
412.0527550131894
 30
0.0
 10
164.584337795799
 20
412.1522970970231
 30
0.0
 10
164.584337795799
 20
412.2535261936388
 30
0.0
  0
SPLINE
  5
2AD
330
245
100
AcDbEntity
  8
$DDT_AUDIT_GENERATED_(20B)
  6
Continuous
 62
     7
100
AcDbSpline
210
0.0
220
0.0
230
1.0
 70
     8
 71
     3
 72
    10
 73
     6
 74
     0
 42
0.0000000207030041
 43
0.0000000001
 40
0.0
 40
0.0
 40
0.0
 40
0.0
 40
0.5
 40
0.5
 40
1.0
 40
1.0
 40
1.0
 40
1.0
 10
214.5856877984517
 20
394.6694269546601
 30
0.0
 10
214.5856604306772
 20
394.5909045698231
 30
0.0
 10
214.5533162694161
 20
394.5128765535927
 30
0.0
 10
214.4422494908319
 20
394.401848478887
 30
0.0
 10
214.3642102062795
 20
394.3695315150587
 30
0.0
 10
214.2856878166732
 20
394.3695315150587
 30
0.0
  0
SPLINE
  5
2AE
330
245
100
AcDbEntity
  8
$DDT_AUDIT_GENERATED_(20B)
  6
Continuous
 62
     7
100
AcDbSpline
210
0.0
220
0.0
230
1.0
 70
     8
 71
     3
 72
    38
 73
    34
 74
     0
 42
0.0000000001410318
 43
0.0000000001
 40
0.0
 40
0.0
 40
0.0
 40
0.0
 40
0.03126521458487
 40
0.0761518393357659
 40
0.1178896171951288
 40
0.1576244418318008
 40
0.1963890930501417
 40
0.2344271410495067
 40
0.3019650437075901
 40
0.3661609234867229
 40
0.4264269055192766
 40
0.4807873753805119
 40
0.5303790566808781
 40
0.5751108397302687
 40
0.6150357587289714
 40
0.6502073802703305
 40
0.6806798026224071
 40
0.7065467043676009
 40
0.730795874298061
 40
0.7513212154858687
 40
0.7694366566593567
 40
0.7864509597252317
 40
0.8035769743934205
 40
0.821510423816515
 40
0.8407760591511181
 40
0.8550680929838258
 40
0.87041084931412
 40
0.8869832284056289
 40
0.9051946501699788
 40
0.9257352122451113
 40
0.9493167645767986
 40
0.9766550473094624
 40
1.0
 40
1.0
 40
1.0
 40
1.0
 10
216.0969844714366
 20
431.0916103592288
 30
0.0
 10
216.9098264595461
 20
431.092412248238
 30
0.0
 10
218.5856991093987
 20
431.0934743379574
 30
0.0
 10
221.4362775668557
 20
431.0763010066479
 30
0.0
 10
224.4048288659301
 20
431.0412578303813
 30
0.0
 10
227.2505505009065
 20
430.9890988789273
 30
0.0
 10
230.0029759639136
 20
430.9222331362209
 30
0.0
 10
233.413280737877
 20
430.8205590842032
 30
0.0
 10
237.4229490384186
 20
430.6715202158293
 30
0.0
 10
241.9561599585769
 20
430.4636754521832
 30
0.0
 10
246.1765386696005
 20
430.2369796012666
 30
0.0
 10
250.0506817901799
 20
430.0014725104457
 30
0.0
 10
253.556958144277
 20
429.7665056049365
 30
0.0
 10
256.7213041318709
 20
429.5328099755834
 30
0.0
 10
259.5440456944578
 20
429.3020936268665
 30
0.0
 10
262.0289142815852
 20
429.0758912318102
 30
0.0
 10
264.1806157266913
 20
428.8560584598351
 30
0.0
 10
266.0725425842345
 20
428.635216186255
 30
0.0
 10
267.727340475106
 20
428.4126903859296
 30
0.0
 10
269.1969269068069
 20
428.1894525186256
 30
0.0
 10
270.4951741698284
 20
427.977734310889
 30
0.0
 10
271.7143925167205
 20
427.7804886012754
 30
0.0
 10
272.9324111300013
 20
427.6033735792949
 30
0.0
 10
274.2066174722099
 20
427.4445884390408
 30
0.0
 10
275.417389136549
 20
427.3207905322845
 30
0.0
 10
276.5691295732939
 20
427.2240469854847
 30
0.0
 10
277.6586065713857
 20
427.1482933588632
 30
0.0
 10
278.8415617107814
 20
427.0810531173601
 30
0.0
 10
280.1476476108987
 20
427.0267236860606
 30
0.0
 10
281.6226218449396
 20
426.9953595205916
 30
0.0
 10
283.3026830738866
 20
426.9950879249445
 30
0.0
 10
285.0954863527044
 20
427.0288157048923
 30
0.0
 10
286.2070192362269
 20
427.072947579298
 30
0.0
 10
286.8134367917092
 20
427.0978597111348
 30
0.0
  0
ARC
  5
2AF
330
245
100
AcDbEntity
  8
$DDT_AUDIT_GENERATED_(20B)
  6
Continuous
 62
     7
100
AcDbCircle
 10
286.8014220832
 20
428.0857139036
 30
0.0
 40
0.991017343301317
100
AcDbArc
 50
270.6972074999
 51
1.0873496225
  0
LINE
  5
2B0
330
245
100
AcDbEntity
  8
$DDT_AUDIT_GENERATED_(20B)
  6
Continuous
 62
     7
100
AcDbLine
 10
287.7987436609
 20
428.0985174431
 30
0.0
 11
287.8025244633
 21
430.2646855397
 31
0.0
  0
SPLINE
  5
2B1
330
245
100
AcDbEntity
  8
$DDT_AUDIT_GENERATED_(20B)
  6
Continuous
 62
     7
100
AcDbSpline
210
0.0
220
0.0
230
1.0
 70
     8
 71
     3
 72
    14
 73
    10
 74
     0
 42
0.0000000154907816
 43
0.0000000001
 40
0.0
 40
0.0
 40
0.0
 40
0.0
 40
0.082211355148537
 40
0.3308821713370855
 40
0.5344077199065141
 40
0.7065196015727933
 40
0.8493843593809304
 40
0.9619183596340798
 40
1.0
 40
1.0
 40
1.0
 40
1.0
 10
287.7898714024291
 20
430.2644011062529
 30
0.0
 10
287.7921473999274
 20
430.2835067362865
 30
0.0
 10
287.7995491547947
 20
430.3497146781209
 30
0.0
 10
287.7607054339143
 20
430.4648942972194
 30
0.0
 10
287.6924904042996
 20
430.5780422047115
 30
0.0
 10
287.612440576928
 20
430.6564024524388
 30
0.0
 10
287.5363776978717
 20
430.7054537253297
 30
0.0
 10
287.4775902512464
 20
430.7320171930668
 30
0.0
 10
287.4486715680891
 20
430.7402675776892
 30
0.0
 10
287.4401010843558
 20
430.7426715291328
 30
0.0
  0
LINE
  5
2B3
330
245
100
AcDbEntity
  8
DV2_Default
  6
Continuous
 62
     7
100
AcDbLine
 10
189.5721158964
 20
295.066658285
 30
0.0
 11
189.5721158964
 21
269.6125858796
 31
0.0
  0
ENDBLK
  5
2B5
330
245
100
AcDbEntity
  8
0
100
AcDbBlockEnd
  0
BLOCK
  5
2E5
330
2B6
100
AcDbEntity
  8
0
100
AcDbBlockBegin
  2
SE2
 70
     0
 10
0.0
 20
0.0
 30
0.0
  3
SE2
  1

  0
SPLINE
  5
2B8
330
2B6
100
AcDbEntity
  8
$DDT_AUDIT_GENERATED_(60)
  6
Continuous
 62
     7
100
AcDbSpline
210
0.0
220
0.0
230
1.0
 70
     8
 71
     3
 72
    16
 73
    12
 74
     0
 42
0.0000000000940238
 43
0.0000000001
 40
0.1053987542367241
 40
0.1053987542367241
 40
0.1053987542367241
 40
0.1053987542367241
 40
0.1075712015807171
 40
0.1342805422302321
 40
0.1514345142070704
 40
0.1677643703770246
 40
0.20119112318427
 40
0.2145250949264329
 40
0.2280947477262487
 40
0.2350241699461213
 40
0.2390927143085128
 40
0.2390927143085128
 40
0.2390927143085128
 40
0.2390927143085128
 10
61.52906328441452
 20
109.7410137445681
 30
0.0
 10
61.59178382205738
 20
109.7859473921107
 30
0.0
 10
62.42175820584924
 20
110.3885904714236
 30
0.0
 10
63.66107621492717
 20
111.4597782360997
 30
0.0
 10
65.08325066730674
 20
113.0508416605448
 30
0.0
 10
66.48179607265054
 20
114.9622543121313
 30
0.0
 10
67.53865809271359
 20
116.9513337043405
 30
0.0
 10
68.30008767299964
 20
118.9459972889639
 30
0.0
 10
68.64206592926975
 20
120.0902310615547
 30
0.0
 10
68.82508971686799
 20
120.9329236173479
 30
0.0
 10
68.88570013362678
 20
121.3161763020381
 30
0.0
 10
68.90538548658523
 20
121.4585213155935
 30
0.0
  0
SPLINE
  5
2B9
330
2B6
100
AcDbEntity
  8
$DDT_AUDIT_GENERATED_(60)
  6
Continuous
 62
     7
100
AcDbSpline
210
0.0
220
0.0
230
1.0
 70
     8
 71
     3
 72
    14
 73
    10
 74
     0
 42
0.0000000000939467
 43
0.0000000001
 40
0.7609599856946877
 40
0.7609599856946877
 40
0.7609599856946877
 40
0.7609599856946877
 40
0.7708451321101746
 40
0.781308252185556
 40
0.8090416832531294
 40
0.8267808883109697
 40
0.8472140195882374
 40
0.8853856312640955
 40
0.8946164343657148
 40
0.8946164343657148
 40
0.8946164343657148
 40
0.8946164343657148
 10
33.08983176430937
 20
121.4585371074824
 30
0.0
 10
33.13739295085706
 20
121.1129392287376
 30
0.0
 10
33.27368603884137
 20
120.4091253258387
 30
0.0
 10
33.72966201258001
 20
118.779536309005
 30
0.0
 10
34.47132745324726
 20
116.9320591662317
 30
0.0
 10
35.59632093610119
 20
114.8837438362818
 30
0.0
 10
37.1492195734235
 20
112.6672289080237
 30
0.0
 10
38.85875989121326
 20
110.9490201317775
 30
0.0
 10
40.20006635192298
 20
109.931916838954
 30
0.0
 10
40.46645589799673
 20
109.7410485652079
 30
0.0
  0
ARC
  5
2BA
330
2B6
100
AcDbEntity
  8
$DDT_AUDIT_GENERATED_(60)
  6
Continuous
 62
     7
100
AcDbCircle
 10
20.4854970474
 20
202.4135866066
 30
0.0
 40
12.00000305802554
100
AcDbArc
 50
0.0889355572
 51
34.2391045978
  0
SPLINE
  5
2BB
330
2B6
100
AcDbEntity
  8
$DDT_AUDIT_GENERATED_(60)
  6
Continuous
 62
     7
100
AcDbSpline
210
0.0
220
0.0
230
1.0
 70
     8
 71
     3
 72
    32
 73
    28
 74
     0
 42
0.0000000000939081
 43
0.0000000001
 40
0.0
 40
0.0
 40
0.0
 40
0.0
 40
0.0312500000000002
 40
0.0312500000000002
 40
0.0625000000000005
 40
0.0625000000000005
 40
0.0937500000000007
 40
0.0937500000000007
 40
0.125000000000001
 40
0.125000000000001
 40
0.1875000000000015
 40
0.1875000000000015
 40
0.2187500000000016
 40
0.2187500000000016
 40
0.2500000000000016
 40
0.2500000000000016
 40
0.2812500000000017
 40
0.2812500000000017
 40
0.3125000000000017
 40
0.3125000000000017
 40
0.3750000000000018
 40
0.3750000000000018
 40
0.5000000000000017
 40
0.5000000000000017
 40
0.7500000000000009
 40
0.7500000000000009
 40
1.0
 40
1.0
 40
1.0
 40
1.0
 10
50.99784216558
 20
106.3500025256133
 30
0.0
 10
49.88097762146622
 20
106.3500012622732
 30
0.0
 10
48.7803287822021
 20
106.4531605382075
 30
0.0
 10
46.61023061620433
 20
106.8580346920552
 30
0.0
 10
45.53061182759949
 20
107.1644744867357
 30
0.0
 10
43.46974920752374
 20
107.9602633832086
 30
0.0
 10
42.4857943373344
 20
108.4476988454351
 30
0.0
 10
40.60935728116149
 20
109.5990957130452
 30
0.0
 10
39.71313216608218
 20
110.268796871466
 30
0.0
 10
37.26718381338915
 20
112.4688918873076
 30
0.0
 10
35.90548498895831
 20
114.2469207681923
 30
0.0
 10
34.3907800492556
 20
117.1532754210648
 30
0.0
 10
33.96610109726766
 20
118.15992459647
 30
0.0
 10
33.28898764199292
 20
120.2550144696942
 30
0.0
 10
33.06408953882863
 20
121.3467140386821
 30
0.0
 10
32.92525781392142
 20
123.5500564957466
 30
0.0
 10
32.90860640213273
 20
124.6546500554887
 30
0.0
 10
32.86611556626132
 20
126.8632380323244
 30
0.0
 10
32.85098052284374
 20
127.9681528943597
 30
0.0
 10
32.81038322720003
 20
131.2845065854022
 30
0.0
 10
32.79059026143562
 20
133.4970655648776
 30
0.0
 10
32.73610744504067
 20
140.1392772565378
 30
0.0
 10
32.70784918862983
 20
144.5735196867893
 30
0.0
 10
32.63009095575718
 20
157.8928899318237
 30
0.0
 10
32.58934902226566
 20
166.7912401427384
 30
0.0
 10
32.52355160090052
 20
184.5988620660848
 30
0.0
 10
32.49933327585357
 20
193.5110925030718
 30
0.0
 10
32.48548564914828
 20
202.432213223447
 30
0.0
  0
ARC
  5
2BC
330
2B6
100
AcDbEntity
  8
$DDT_AUDIT_GENERATED_(60)
  6
Continuous
 62
     7
100
AcDbCircle
 10
51.0082106478
 20
223.3198880973
 30
0.0
 40
24.99614887831086
100
AcDbArc
 50
210.9024151132
 51
214.4904114376
  0
ARC
  5
2BD
330
2B6
100
AcDbEntity
  8
$DDT_AUDIT_GENERATED_(60)
  6
Continuous
 62
     7
100
AcDbCircle
 10
51.0082106478
 20
223.3198880973
 30
0.0
 40
24.99614887831086
100
AcDbArc
 50
186.0910082896
 51
194.6811976706
  0
SPLINE
  5
2BE
330
2B6
100
AcDbEntity
  8
$DDT_AUDIT_GENERATED_(60)
  6
Continuous
 62
     7
100
AcDbSpline
210
0.0
220
0.0
230
1.0
 70
     8
 71
     3
 72
    26
 73
    22
 74
     0
 42
0.0000000000938581
 43
0.0000000001
 40
0.0
 40
0.0
 40
0.0
 40
0.0
 40
0.4999999999999996
 40
0.4999999999999996
 40
0.6249999999999992
 40
0.6249999999999992
 40
0.6874999999999991
 40
0.6874999999999991
 40
0.7187499999999991
 40
0.7187499999999991
 40
0.7499999999999992
 40
0.7499999999999992
 40
0.7812499999999993
 40
0.7812499999999993
 40
0.8124999999999993
 40
0.8124999999999993
 40
0.8749999999999996
 40
0.8749999999999996
 40
0.9374999999999997
 40
0.9374999999999997
 40
1.0
 40
1.0
 40
1.0
 40
1.0
 10
69.51019868201169
 20
202.432213223447
 30
0.0
 10
69.48250096171817
 20
184.5883825312679
 30
0.0
 10
69.41738566385693
 20
166.7605488366221
 30
0.0
 10
69.2877584010603
 20
144.5613637750889
 30
0.0
 10
69.25948182041314
 20
140.1250428615784
 30
0.0
 10
69.20495476047306
 20
133.481410923684
 30
0.0
 10
69.18514547669282
 20
131.2684070485653
 30
0.0
 10
69.14448453845459
 20
127.9519528260474
 30
0.0
 10
69.12932413888042
 20
126.8469787884284
 30
0.0
 10
69.08669142680368
 20
124.6381574017881
 30
0.0
 10
69.07016776105127
 20
123.5329994898866
 30
0.0
 10
68.92982589772254
 20
121.3317799699112
 30
0.0
 10
68.70247042471937
 20
120.2400767126672
 30
0.0
 10
68.02797822657605
 20
118.1568357067519
 30
0.0
 10
67.60312226508464
 20
117.1479689740884
 30
0.0
 10
66.07233897345144
 20
114.2164653098783
 30
0.0
 10
64.73043046860457
 20
112.4675232308513
 30
0.0
 10
61.43700844155626
 20
109.5113739962057
 30
0.0
 10
59.55068783144495
 20
108.3541702733781
 30
0.0
 10
55.41472222942305
 20
106.7606944044863
 30
0.0
 10
53.23062804214712
 20
106.35
 30
0.0
 10
50.99784216558
 20
106.3500025256133
 30
0.0
  0
ARC
  5
2BF
330
2B6
100
AcDbEntity
  8
$DDT_AUDIT_GENERATED_(60)
  6
Continuous
 62
     7
100
AcDbCircle
 10
81.5101874483
 20
202.4135865558
 30
0.0
 40
12.00000322270655
100
AcDbArc
 50
145.7608956437
 51
179.9110642013
  0
LINE
  5
2C0
330
2B6
100
AcDbEntity
  8
$DDT_AUDIT_GENERATED_(60)
  6
Continuous
 62
     7
100
AcDbLine
 10
32.8127810727
 20
131.2822770968
 30
0.0
 11
32.8152621999
 21
131.0405814286
 31
0.0
  0
SPLINE
  5
2C1
330
2B6
100
AcDbEntity
  8
$DDT_AUDIT_GENERATED_(20B)
  6
Continuous
 62
     7
100
AcDbSpline
210
0.0
220
0.0
230
1.0
 70
     8
 71
     3
 72
    12
 73
     8
 74
     0
 42
0.0000000000585868
 43
0.0000000001
 40
0.2196590386737154
 40
0.2196590386737154
 40
0.2196590386737154
 40
0.2196590386737154
 40
0.2499999999999993
 40
0.2499999999999993
 40
0.3124999999999992
 40
0.3124999999999992
 40
0.3405988502374634
 40
0.3405988502374634
 40
0.3405988502374634
 40
0.3405988502374634
 10
36.38990904377133
 20
164.70734370955
 30
0.0
 10
36.38982480915209
 20
162.9787989798585
 30
0.0
 10
36.38901875445948
 20
161.2505958633356
 30
0.0
 10
36.38353327282759
 20
155.9634518553354
 30
0.0
 10
36.37384976398131
 20
152.4059157056229
 30
0.0
 10
36.35272562124231
 20
147.2553627084934
 30
0.0
 10
36.34358819668733
 20
145.659175546047
 30
0.0
 10
36.34413148154752
 20
144.0646013120608
 30
0.0
  0
LINE
  5
2C2
330
2B6
100
AcDbEntity
  8
$DDT_AUDIT_GENERATED_(20B)
  6
Continuous
 62
     7
100
AcDbLine
 10
66.4451741349
 20
203.6510319669
 30
0.0
 11
66.2269801164
 21
203.4826948062
 31
0.0
  0
ARC
  5
2C3
330
2B6
100
AcDbEntity
  8
$DDT_AUDIT_GENERATED_(20B)
  6
Continuous
 62
     7
100
AcDbCircle
 10
50.967057737
 20
223.3009710155
 30
0.0
 40
25.01384000597345
100
AcDbArc
 50
308.2272512629
 51
51.754174079
  0
ARC
  5
2C4
330
2B6
100
AcDbEntity
  8
$DDT_AUDIT_GENERATED_(20B)
  6
Continuous
 62
     7
100
AcDbCircle
 10
51.1896425872
 20
223.3780143661
 30
0.0
 40
24.8158704592805
100
AcDbArc
 50
52.0476677503
 51
54.9787396927
  0
ARC
  5
2C5
330
2B6
100
AcDbEntity
  8
$DDT_AUDIT_GENERATED_(20B)
  6
Continuous
 62
     7
100
AcDbCircle
 10
67.1367776421
 20
202.2898799993
 30
0.0
 40
1.500179556352604
100
AcDbArc
 50
127.3339100056
 51
179.9428143761
  0
SPLINE
  5
2C6
330
2B6
100
AcDbEntity
  8
$DDT_AUDIT_GENERATED_(20B)
  6
Continuous
 62
     7
100
AcDbSpline
210
0.0
220
0.0
230
1.0
 70
     8
 71
     3
 72
     8
 73
     4
 74
     0
 42
0.0000000003660756
 43
0.0000000001
 40
0.0
 40
0.0
 40
0.0
 40
0.0
 40
1.0
 40
1.0
 40
1.0
 40
1.0
 10
36.3516666654516
 20
243.2912499929302
 30
0.0
 10
36.35167547641301
 20
234.189335905104
 30
0.0
 10
36.35163796880516
 20
225.0830237840538
 30
0.0
 10
36.35376815337458
 20
215.9744864749466
 30
0.0
  0
ARC
  5
2C7
330
2B6
100
AcDbEntity
  8
$DDT_AUDIT_GENERATED_(20B)
  6
Continuous
 62
     7
100
AcDbCircle
 10
50.8060213102
 20
223.3780419942
 30
0.0
 40
24.81583610701768
100
AcDbArc
 50
125.0682659054
 51
127.9523342784
  0
ARC
  5
2C8
330
2B6
100
AcDbEntity
  8
$DDT_AUDIT_GENERATED_(20B)
  6
Continuous
 62
     7
100
AcDbCircle
 10
51.0273512851
 20
223.3009708089
 30
0.0
 40
25.01305072511557
100
AcDbArc
 50
128.2435313742
 51
231.7750433342
  0
LINE
  5
2C9
330
2B6
100
AcDbEntity
  8
$DDT_AUDIT_GENERATED_(20B)
  6
Continuous
 62
     7
100
AcDbLine
 10
35.7687042293
 20
203.4826947951
 30
0.0
 11
35.5505102137
 21
203.6510319533
 31
0.0
  0
ARC
  5
2CA
330
2B6
100
AcDbEntity
  8
$DDT_AUDIT_GENERATED_(20B)
  6
Continuous
 62
     7
100
AcDbCircle
 10
65.1440176658
 20
243.2912504769
 30
0.0
 40
0.4999999999999993
100
AcDbArc
 50
0.0
 51
54.975206109
  0
SPLINE
  5
2CB
330
2B6
100
AcDbEntity
  8
$DDT_AUDIT_GENERATED_(20B)
  6
Continuous
 62
     7
100
AcDbSpline
210
0.0
220
0.0
230
1.0
 70
     8
 71
     3
 72
     8
 73
     4
 74
     0
 42
0.0000000003660756
 43
0.0000000001
 40
0.0
 40
0.0
 40
0.0
 40
0.0
 40
1.0
 40
1.0
 40
1.0
 40
1.0
 10
65.64191619169267
 20
215.9744879878598
 30
0.0
 10
65.64404607740082
 20
225.0817696459986
 30
0.0
 10
65.64400885350166
 20
234.1869395844822
 30
0.0
 10
65.64401766583222
 20
243.2912499929247
 30
0.0
  0
SPLINE
  5
2CC
330
2B6
100
AcDbEntity
  8
$DDT_AUDIT_GENERATED_(20B)
  6
Continuous
 62
     7
100
AcDbSpline
210
0.0
220
0.0
230
1.0
 70
     8
 71
     3
 72
    12
 73
     8
 74
     0
 42
0.0000000000583996
 43
0.0000000001
 40
0.0
 40
0.0
 40
0.0
 40
0.0
 40
0.2499999999999994
 40
0.2499999999999994
 40
0.3124999999999993
 40
0.3124999999999993
 40
0.3436323496214433
 40
0.3436323496214433
 40
0.3436323496214433
 40
0.3436323496214433
 10
65.63659828276533
 20
202.2906883829625
 30
0.0
 10
65.62846816173992
 20
188.0030937651987
 30
0.0
 10
65.59348423503037
 20
173.7065805212267
 30
0.0
 10
65.61229501465536
 20
155.8820267163212
 30
0.0
 10
65.62213979496548
 20
152.3205853296709
 30
0.0
 10
65.64404002967942
 20
146.9907256152726
 30
0.0
 10
65.65458675844884
 20
145.2194979325703
 30
0.0
 10
65.65084253490829
 20
143.4492394827013
 30
0.0
  0
SPLINE
  5
2CD
330
2B6
100
AcDbEntity
  8
$DDT_AUDIT_GENERATED_(20B)
  6
Continuous
 62
     7
100
AcDbSpline
210
0.0
220
0.0
230
1.0
 70
     8
 71
     3
 72
    10
 73
     6
 74
     0
 42
0.0000000000586211
 43
0.0000000001
 40
0.3436323496214433
 40
0.3436323496214433
 40
0.3436323496214433
 40
0.3436323496214433
 40
0.3437499999999992
 40
0.3437499999999992
 40
0.3437722881053684
 40
0.3437722881053684
 40
0.3437722881053684
 40
0.3437722881053684
 10
65.65084253490829
 20
143.4492394827013
 30
0.0
 10
65.65082838533968
 20
143.4425496061163
 30
0.0
 10
65.65081403168
 20
143.435859743373
 30
0.0
 10
65.65079671493027
 20
143.4279025457495
 30
0.0
 10
65.6507939615091
 20
143.4266351919432
 30
0.0
 10
65.65079121264387
 20
143.4253678330683
 30
0.0
  0
SPLINE
  5
2CE
330
2B6
100
AcDbEntity
  8
$DDT_AUDIT_GENERATED_(20B)
  6
Continuous
 62
     7
100
AcDbSpline
210
0.0
220
0.0
230
1.0
 70
     8
 71
     3
 72
    38
 73
    34
 74
     0
 42
0.0000000000584187
 43
0.0000000001
 40
0.3437722881053684
 40
0.3437722881053684
 40
0.3437722881053684
 40
0.3437722881053684
 40
0.3749999999999992
 40
0.3749999999999992
 40
0.390624999999999
 40
0.390624999999999
 40
0.4062499999999989
 40
0.4062499999999989
 40
0.4218749999999987
 40
0.4218749999999987
 40
0.4374999999999986
 40
0.4374999999999986
 40
0.4687499999999984
 40
0.4687499999999984
 40
0.4999999999999983
 40
0.4999999999999983
 40
0.5312499999999981
 40
0.5312499999999981
 40
0.562499999999998
 40
0.562499999999998
 40
0.5937499999999979
 40
0.5937499999999979
 40
0.609374999999998
 40
0.609374999999998
 40
0.6249999999999981
 40
0.6249999999999981
 40
0.6562499999999984
 40
0.6562499999999984
 40
0.6874999999999988
 40
0.6874999999999988
 40
0.7499999999999992
 40
0.7499999999999992
 40
1.0
 40
1.0
 40
1.0
 40
1.0
 10
65.65079121264387
 20
143.4253678330683
 30
0.0
 10
65.64693979638558
 20
141.6496799871145
 30
0.0
 10
65.65203196751553
 20
139.8640421480914
 30
0.0
 10
65.36616382046114
 20
137.2255620820753
 30
0.0
 10
65.21234328248394
 20
136.3578544054103
 30
0.0
 10
64.73050512475143
 20
134.6587364502325
 30
0.0
 10
64.39938080278432
 20
133.8195513184604
 30
0.0
 10
63.59316785634898
 20
132.2473840573491
 30
0.0
 10
63.11841748654845
 20
131.5063999880241
 30
0.0
 10
62.03222787534975
 20
130.1103295505409
 30
0.0
 10
61.41531880064342
 20
129.4524568091478
 30
0.0
 10
59.43122199366908
 20
127.6831477833518
 30
0.0
 10
57.88382480823618
 20
126.7306931159542
 30
0.0
 10
54.5864545147364
 20
125.4383799931673
 30
0.0
 10
52.79379005996051
 20
125.0886747375028
 30
0.0
 10
49.24992561525401
 20
125.082626764591
 30
0.0
 10
47.45593104970291
 20
125.4259332505694
 30
0.0
 10
44.14886550952405
 20
126.7104797670851
 30
0.0
 10
42.59973511433516
 20
127.6588276631666
 30
0.0
 10
39.95016009068573
 20
130.007482307092
 30
0.0
 10
38.82990042651985
 20
131.426195081488
 30
0.0
 10
37.61363043426388
 20
133.779864119637
 30
0.0
 10
37.27970008987043
 20
134.6177711344801
 30
0.0
 10
36.79183752485456
 20
136.3181268149527
 30
0.0
 10
36.63534261616099
 20
137.1870038763667
 30
0.0
 10
36.34396070083623
 20
139.8317707301623
 30
0.0
 10
36.34906408913866
 20
141.618753525927
 30
0.0
 10
36.34085089913592
 20
145.1748120962299
 30
0.0
 10
36.35148855464472
 20
146.9538341913071
 30
0.0
 10
36.37344231617248
 20
152.293706980966
 30
0.0
 10
36.38334318153698
 20
155.8573698716387
 30
0.0
 10
36.40226598550634
 20
173.6930733052623
 30
0.0
 10
36.36721784979205
 20
188.0001680300751
 30
0.0
 10
36.35908606545614
 20
202.2906883698138
 30
0.0
  0
SPLINE
  5
2CF
330
2B6
100
AcDbEntity
  8
$DDT_AUDIT_GENERATED_(20B)
  6
Continuous
 62
     7
100
AcDbSpline
210
0.0
220
0.0
230
1.0
 70
     8
 71
     3
 72
     8
 73
     4
 74
     0
 42
0.0000000007308402
 43
0.0000000001
 40
0.0
 40
0.0
 40
0.0
 40
0.0
 40
1.0
 40
1.0
 40
1.0
 40
1.0
 10
65.64191619169267
 20
215.9744879878598
 30
0.0
 10
65.64084968526514
 20
211.4141650174949
 30
0.0
 10
65.63919629436838
 20
206.8530402172285
 30
0.0
 10
65.63659891159317
 20
202.291607567337
 30
0.0
  0
LINE
  5
2D0
330
2B6
100
AcDbEntity
  8
$DDT_AUDIT_GENERATED_(20B)
  6
Continuous
 62
     7
100
AcDbLine
 10
65.6365989116
 20
202.2916075673
 30
0.0
 11
65.636598833
 21
202.2913772945
 31
0.0
  0
LINE
  5
2D1
330
2B6
100
AcDbEntity
  8
$DDT_AUDIT_GENERATED_(20B)
  6
Continuous
 62
     7
100
AcDbLine
 10
65.636598833
 20
202.2913772944
 30
0.0
 11
65.6365982828
 21
202.290688383
 31
0.0
  0
ARC
  5
2D2
330
2B6
100
AcDbEntity
  8
$DDT_AUDIT_GENERATED_(20B)
  6
Continuous
 62
     7
100
AcDbCircle
 10
34.8589067011
 20
202.2898799839
 30
0.0
 40
1.500179561322279
100
AcDbArc
 50
0.0571855868
 51
52.6660900231
  0
LINE
  5
2D3
330
2B6
100
AcDbEntity
  8
$DDT_AUDIT_GENERATED_(20B)
  6
Continuous
 62
     7
100
AcDbLine
 10
36.3590860655
 20
202.2906883698
 30
0.0
 11
36.3590855152
 21
202.291377278
 31
0.0
  0
LINE
  5
2D4
330
2B6
100
AcDbEntity
  8
$DDT_AUDIT_GENERATED_(20B)
  6
Continuous
 62
     7
100
AcDbLine
 10
36.3590855152
 20
202.291377278
 30
0.0
 11
36.3590854366
 21
202.2916075497
 31
0.0
  0
SPLINE
  5
2D5
330
2B6
100
AcDbEntity
  8
$DDT_AUDIT_GENERATED_(20B)
  6
Continuous
 62
     7
100
AcDbSpline
210
0.0
220
0.0
230
1.0
 70
     8
 71
     3
 72
     8
 73
     4
 74
     0
 42
0.0000000007308403
 43
0.0000000001
 40
0.0
 40
0.0
 40
0.0
 40
0.0
 40
1.0
 40
1.0
 40
1.0
 40
1.0
 10
36.35908543662802
 20
202.2916075492642
 30
0.0
 10
36.35648805869499
 20
206.8530325510601
 30
0.0
 10
36.35483466070306
 20
211.414170787321
 30
0.0
 10
36.35376815337458
 20
215.9744864749466
 30
0.0
  0
ARC
  5
2D6
330
2B6
100
AcDbEntity
  8
$DDT_AUDIT_GENERATED_(20B)
  6
Continuous
 62
     7
100
AcDbCircle
 10
50.8662051182
 20
222.961812478
 30
0.0
 40
25.34234225455834
100
AcDbArc
 50
54.9198993235
 51
89.702384212
  0
ARC
  5
2D7
330
2B6
100
AcDbEntity
  8
$DDT_AUDIT_GENERATED_(20B)
  6
Continuous
 62
     7
100
AcDbCircle
 10
36.8516666654
 20
243.291250477
 30
0.0
 40
0.5000000000000006
100
AcDbArc
 50
125.0247938908
 51
180.0000554682
  0
ARC
  5
2D8
330
2B6
100
AcDbEntity
  8
$DDT_AUDIT_GENERATED_(20B)
  6
Continuous
 62
     7
100
AcDbCircle
 10
51.1472575448
 20
222.9060681787
 30
0.0
 40
25.39818416973377
100
AcDbArc
 50
90.3370681914
 51
125.0406482729
  0
ARC
  5
2D9
330
2B6
100
AcDbEntity
  8
$DDT_AUDIT_GENERATED_(20B)
  6
Continuous
 62
     7
100
AcDbCircle
 10
50.9662378527
 20
223.2795291211
 30
0.0
 40
25.02430368179147
100
AcDbArc
 50
354.721645418
 51
54.5972716104
  0
ARC
  5
2DA
330
2B6
100
AcDbEntity
  8
$DDT_AUDIT_GENERATED_(20B)
  6
Continuous
 62
     7
100
AcDbCircle
 10
51.2075440462
 20
223.3813917088
 30
0.0
 40
24.79369976072035
100
AcDbArc
 50
348.5424500555
 51
354.4359488142
  0
ARC
  5
2DB
330
2B6
100
AcDbEntity
  8
$DDT_AUDIT_GENERATED_(20B)
  6
Continuous
 62
     7
100
AcDbCircle
 10
50.9770694691
 20
223.3076700716
 30
0.0
 40
25.00521585689102
100
AcDbArc
 50
307.564396808
 51
348.8129096015
  0
ARC
  5
2DC
330
2B6
100
AcDbEntity
  8
$DDT_AUDIT_GENERATED_(20B)
  6
Continuous
 62
     7
100
AcDbCircle
 10
51.029566336
 20
223.2794199649
 30
0.0
 40
25.02441298952818
100
AcDbArc
 50
125.4975727772
 51
185.2780804727
  0
ARC
  5
2DD
330
2B6
100
AcDbEntity
  8
$DDT_AUDIT_GENERATED_(20B)
  6
Continuous
 62
     7
100
AcDbCircle
 10
50.8223019533
 20
223.386503788
 30
0.0
 40
24.828196196773
100
AcDbArc
 50
185.5681490222
 51
191.4534521081
  0
ARC
  5
2DE
330
2B6
100
AcDbEntity
  8
$DDT_AUDIT_GENERATED_(20B)
  6
Continuous
 62
     7
100
AcDbCircle
 10
51.0216244094
 20
223.3113300126
 30
0.0
 40
25.0088784774828
100
AcDbArc
 50
191.1939783561
 51
232.6545993078
  0
LINE
  5
2DF
330
2B6
100
AcDbEntity
  8
$DDT_AUDIT_GENERATED_(20B)
  6
Continuous
 62
     7
100
AcDbLine
 10
36.3442382313
 20
144.0649900687
 30
0.0
 11
36.3442382313
 21
144.0560243552
 31
0.0
  0
ARC
  5
2E0
330
2B6
100
AcDbEntity
  8
$DDT_AUDIT_GENERATED_(20B)
  6
Continuous
 62
     7
100
AcDbCircle
 10
778.4378591154
 20
147.5704678015
 30
0.0
 40
742.1010761075406
100
AcDbArc
 50
179.3941089072
 51
180.4621801953
  0
LINE
  5
2E3
330
2B6
100
AcDbEntity
  8
DV3_Default
  6
CENTER2
 62
     7
100
AcDbLine
 10
50.967057737
 20
252.8920998076
 30
0.0
 11
50.967057737
 21
193.7098422235
 31
0.0
  0
LINE
  5
2E4
330
2B6
100
AcDbEntity
  8
DV3_Default
  6
CENTER2
 62
     7
100
AcDbLine
 10
21.3759289449
 20
223.3009710155
 30
0.0
 11
80.558186529
 21
223.3009710155
 31
0.0
  0
ENDBLK
  5
2E6
330
2B6
100
AcDbEntity
  8
0
100
AcDbBlockEnd
  0
ENDSEC
  0
SECTION
  2
ENTITIES
  0
INSERT
  5
5F
330
1F
100
AcDbEntity
  8
Default
100
AcDbBlockReference
  2
SE
 10
0.0
 20
0.0
 30
0.0
  0
INSERT
  5
246
330
1F
100
AcDbEntity
  8
Default
100
AcDbBlockReference
  2
SE1
 10
0.0
 20
0.0
 30
0.0
  0
INSERT
  5
2B7
330
1F
100
AcDbEntity
  8
Default
100
AcDbBlockReference
  2
SE2
 10
0.0
 20
0.0
 30
0.0
  0
TEXT
  5
2E8
330
1F
100
AcDbEntity
  8
Default
  6
Continuous
 62
     7
100
AcDbText
 10
5.9362635081
 20
53.4225120485
 30
0.0
 40
10.0
  1
Grohe AG^J
  7
SEACAD_seiso_ttf
 11
5.9362635081
 21
63.4225120485
 31
0.0
100
AcDbText
 73
     3
  0
TEXT
  5
2E9
330
1F
100
AcDbEntity
  8
Default
  6
Continuous
 62
     7
100
AcDbText
 10
5.9362635081
 20
37.0588756849
 30
0.0
 40
10.0
  1
 
  7
SEACAD_seiso_ttf
 11
5.9362635081
 21
47.0588756849
 31
0.0
100
AcDbText
 73
     3
  0
TEXT
  5
2EA
330
1F
100
AcDbEntity
  8
Default
  6
Continuous
 62
     7
100
AcDbText
 10
5.9362635081
 20
20.6952393213
 30
0.0
 40
10.0
  1
ecn: 
  7
SEACAD_seiso_ttf
 11
5.9362635081
 21
30.6952393213
 31
0.0
100
AcDbText
 73
     3
  0
TEXT
  5
2EB
330
1F
100
AcDbEntity
  8
Default
  6
Continuous
 62
     7
100
AcDbText
 10
5.9362635081
 20
4.3316029576
 30
0.0
 40
10.0
  1
unit: mm
  7
SEACAD_seiso_ttf
 11
5.9362635081
 21
14.3316029576
 31
0.0
100
AcDbText
 73
     3
  0
LINE
  5
2EC
330
1F
100
AcDbEntity
  8
Default
  6
Continuous
 62
     7
100
AcDbLine
 10
0.0
 20
0.0
 30
0.0
 11
100.0
 21
0.0
 31
0.0
  0
LINE
  5
2ED
330
1F
100
AcDbEntity
  8
Default
  6
Continuous
 62
     7
100
AcDbLine
 10
0.0
 20
0.0
 30
0.0
 11
0.0
 21
100.0
 31
0.0
  0
TEXT
  5
2EE
330
1F
100
AcDbEntity
  8
Default
  6
Continuous
 62
     7
100
AcDbText
 10
24.3923665681
 20
-18.2375342018
 30
0.0
 40
10.0
  1
100 mm
  7
SEACAD_seiso_ttf
 11
24.3923665681
 21
-8.2375342018
 31
0.0
100
AcDbText
 73
     3
  0
TEXT
  5
2EF
330
1F
100
AcDbEntity
  8
Default
  6
Continuous
 62
     7
100
AcDbText
 10
-7.6150308803
 20
24.6231930421
 30
0.0
 40
10.0
  1
100 mm
 50
90.0
  7
SEACAD_seiso_ttf
 11
-17.6150308803
 21
24.6231930421
 31
0.0
100
AcDbText
 73
     3
  0
TEXT
  5
2F0
330
1F
100
AcDbEntity
  8
Default
  6
Continuous
 62
     7
100
AcDbText
 10
28.4878128572
 20
20.0907663715
 30
0.0
 40
10.0
  1
221368
  7
SEACAD_seiso_ttf
 11
28.4878128572
 21
30.0907663715
 31
0.0
100
AcDbText
 73
     3
  0
TEXT
  5
2F1
330
1F
100
AcDbEntity
  8
Default
  6
Continuous
 62
     7
100
AcDbText
 10
5.9012241913
 20
36.7242780188
 30
0.0
 40
10.0
  1
23225000
  7
SEACAD_seiso_ttf
 11
5.9012241913
 21
46.7242780188
 31
0.0
100
AcDbText
 73
     3
  0
ENDSEC
  0
SECTION
  2
OBJECTS
  0
DICTIONARY
  5
C
330
0
100
AcDbDictionary
281
     1
  3
ACAD_GROUP
350
D
  3
ACAD_LAYOUT
350
1A
  3
ACAD_MLEADERSTYLE
350
2F5
  3
ACAD_MLINESTYLE
350
17
  3
ACAD_PLOTSETTINGS
350
19
  3
ACAD_PLOTSTYLENAME
350
E
  3
ACAD_SCALELIST
350
3B
  3
ACAD_TABLESTYLE
350
2F4
  3
ACAD_VISUALSTYLE
350
2A
  3
AcDbVariableDictionary
350
2F2
  0
DICTIONARY
  5
D
102
{ACAD_REACTORS
330
C
102
}
330
C
100
AcDbDictionary
281
     1
  0
DICTIONARY
  5
1A
102
{ACAD_REACTORS
330
C
102
}
330
C
100
AcDbDictionary
281
     1
  3
Layout1
350
1E
  3
Model
350
22
  0
DICTIONARY
  5
2F5
102
{ACAD_REACTORS
330
C
102
}
330
C
100
AcDbDictionary
281
     1
  0
DICTIONARY
  5
17
102
{ACAD_REACTORS
330
C
102
}
330
C
100
AcDbDictionary
281
     1
  3
Standard
350
18
  0
DICTIONARY
  5
19
102
{ACAD_REACTORS
330
C
102
}
330
C
100
AcDbDictionary
281
     1
  0
ACDBDICTIONARYWDFLT
  5
E
102
{ACAD_REACTORS
330
C
102
}
330
C
100
AcDbDictionary
281
     1
  3
Normal
350
F
100
AcDbDictionaryWithDefault
340
F
  0
DICTIONARY
  5
3B
102
{ACAD_REACTORS
330
C
102
}
330
C
100
AcDbDictionary
281
     1
  3
A0
350
3C
  3
A1
350
3D
  3
A2
350
3E
  3
A3
350
3F
  3
A4
350
40
  3
A5
350
41
  3
A6
350
42
  3
A7
350
43
  3
A8
350
44
  3
A9
350
45
  3
B0
350
46
  3
B1
350
47
  3
B2
350
48
  3
B3
350
49
  3
B4
350
4A
  3
B5
350
4B
  3
B6
350
4C
  3
B7
350
4D
  3
B8
350
4E
  3
B9
350
4F
  3
C0
350
50
  3
C1
350
51
  3
C2
350
52
  3
C3
350
53
  3
C4
350
54
  3
C5
350
55
  3
C6
350
56
  3
C7
350
57
  3
C8
350
58
  3
C9
350
59
  3
D0
350
5A
  3
D1
350
5B
  3
D2
350
5C
  0
DICTIONARY
  5
2F4
102
{ACAD_REACTORS
330
C
102
}
330
C
100
AcDbDictionary
281
     1
  0
DICTIONARY
  5
2A
102
{ACAD_REACTORS
330
C
102
}
330
C
100
AcDbDictionary
281
     1
  3
2dWireframe
350
2F
  3
3D Hidden
350
31
  3
3dWireframe
350
30
  3
Basic
350
32
  3
Brighten
350
36
  3
ColorChange
350
3A
  3
Conceptual
350
34
  3
Dim
350
35
  3
Facepattern
350
39
  3
Flat
350
2B
  3
FlatWithEdges
350
2C
  3
Gouraud
350
2D
  3
GouraudWithEdges
350
2E
  3
Linepattern
350
38
  3
Realistic
350
33
  3
Thicken
350
37
  0
DICTIONARY
  5
2F2
102
{ACAD_REACTORS
330
C
102
}
330
C
100
AcDbDictionary
281
     1
  3
CANNOSCALE
350
2F3
  3
PSOLHEIGHT
350
2F7
  3
PSOLWIDTH
350
2F6
  0
LAYOUT
  5
1E
102
{ACAD_REACTORS
330
1A
102
}
330
1A
100
AcDbPlotSettings
  1

  2
none_device
  4

  6

 40
0.0
 41
0.0
 42
0.0
 43
0.0
 44
0.0
 45
0.0
 46
0.0
 47
0.0
 48
0.0
 49
0.0
140
0.0
141
0.0
142
1.0
143
1.0
 70
   688
 72
     0
 73
     0
 74
     5
  7

 75
    16
147
1.0
148
0.0
149
0.0
100
AcDbLayout
  1
Layout1
 70
     1
 71
     1
 10
0.0
 20
0.0
 11
1682.0
 21
2378.0
 12
0.0
 22
0.0
 32
0.0
 14
0.0
 24
0.0
 34
0.0
 15
1682.0
 25
2378.0
 35
0.0
146
0.0
 13
0.0
 23
0.0
 33
0.0
 16
1.0
 26
0.0
 36
0.0
 17
0.0
 27
1.0
 37
0.0
 76
     0
330
1B
  0
LAYOUT
  5
22
102
{ACAD_REACTORS
330
1A
102
}
330
1A
100
AcDbPlotSettings
  1

  2
none_device
  4

  6

 40
0.0
 41
0.0
 42
0.0
 43
0.0
 44
0.0
 45
0.0
 46
0.0
 47
0.0
 48
0.0
 49
0.0
140
0.0
141
0.0
142
1.0
143
1.0
 70
  1712
 72
     0
 73
     0
 74
     0
  7

 75
     0
147
1.0
148
0.0
149
0.0
100
AcDbLayout
  1
Model
 70
     1
 71
     0
 10
0.0
 20
0.0
 11
1682.0
 21
2378.0
 12
0.0
 22
0.0
 32
0.0
 14
0.0
 24
0.0
 34
0.0
 15
1682.0
 25
2378.0
 35
0.0
146
0.0
 13
0.0
 23
0.0
 33
0.0
 16
1.0
 26
0.0
 36
0.0
 17
0.0
 27
1.0
 37
0.0
 76
     0
330
1F
331
29
  0
MLINESTYLE
  5
18
102
{ACAD_REACTORS
330
17
102
}
330
17
100
AcDbMlineStyle
  2
Standard
 70
     0
  3

 62
   256
 51
90.0
 52
90.0
 71
     2
 49
0.5
 62
   256
  6
BYLAYER
 49
-0.5
 62
   256
  6
BYLAYER
  0
ACDBPLACEHOLDER
  5
F
102
{ACAD_REACTORS
330
E
102
}
330
E
  0
SCALE
  5
3C
102
{ACAD_REACTORS
330
3B
102
}
330
3B
100
AcDbScale
 70
     0
300
1:1
140
1.0
141
1.0
290
     1
  0
SCALE
  5
3D
102
{ACAD_REACTORS
330
3B
102
}
330
3B
100
AcDbScale
 70
     0
300
1:2
140
1.0
141
2.0
290
     0
  0
SCALE
  5
3E
102
{ACAD_REACTORS
330
3B
102
}
330
3B
100
AcDbScale
 70
     0
300
1:4
140
1.0
141
4.0
290
     0
  0
SCALE
  5
3F
102
{ACAD_REACTORS
330
3B
102
}
330
3B
100
AcDbScale
 70
     0
300
1:5
140
1.0
141
5.0
290
     0
  0
SCALE
  5
40
102
{ACAD_REACTORS
330
3B
102
}
330
3B
100
AcDbScale
 70
     0
300
1:8
140
1.0
141
8.0
290
     0
  0
SCALE
  5
41
102
{ACAD_REACTORS
330
3B
102
}
330
3B
100
AcDbScale
 70
     0
300
1:10
140
1.0
141
10.0
290
     0
  0
SCALE
  5
42
102
{ACAD_REACTORS
330
3B
102
}
330
3B
100
AcDbScale
 70
     0
300
1:16
140
1.0
141
16.0
290
     0
  0
SCALE
  5
43
102
{ACAD_REACTORS
330
3B
102
}
330
3B
100
AcDbScale
 70
     0
300
1:20
140
1.0
141
20.0
290
     0
  0
SCALE
  5
44
102
{ACAD_REACTORS
330
3B
102
}
330
3B
100
AcDbScale
 70
     0
300
1:30
140
1.0
141
30.0
290
     0
  0
SCALE
  5
45
102
{ACAD_REACTORS
330
3B
102
}
330
3B
100
AcDbScale
 70
     0
300
1:40
140
1.0
141
40.0
290
     0
  0
SCALE
  5
46
102
{ACAD_REACTORS
330
3B
102
}
330
3B
100
AcDbScale
 70
     0
300
1:50
140
1.0
141
50.0
290
     0
  0
SCALE
  5
47
102
{ACAD_REACTORS
330
3B
102
}
330
3B
100
AcDbScale
 70
     0
300
1:100
140
1.0
141
100.0
290
     0
  0
SCALE
  5
48
102
{ACAD_REACTORS
330
3B
102
}
330
3B
100
AcDbScale
 70
     0
300
2:1
140
2.0
141
1.0
290
     0
  0
SCALE
  5
49
102
{ACAD_REACTORS
330
3B
102
}
330
3B
100
AcDbScale
 70
     0
300
4:1
140
4.0
141
1.0
290
     0
  0
SCALE
  5
4A
102
{ACAD_REACTORS
330
3B
102
}
330
3B
100
AcDbScale
 70
     0
300
8:1
140
8.0
141
1.0
290
     0
  0
SCALE
  5
4B
102
{ACAD_REACTORS
330
3B
102
}
330
3B
100
AcDbScale
 70
     0
300
10:1
140
10.0
141
1.0
290
     0
  0
SCALE
  5
4C
102
{ACAD_REACTORS
330
3B
102
}
330
3B
100
AcDbScale
 70
     0
300
100:1
140
100.0
141
1.0
290
     0
  0
SCALE
  5
4D
102
{ACAD_REACTORS
330
3B
102
}
330
3B
100
AcDbScale
 70
     0
300
1/128" = 1'-0"
140
0.0078125
141
12.0
290
     0
  0
SCALE
  5
4E
102
{ACAD_REACTORS
330
3B
102
}
330
3B
100
AcDbScale
 70
     0
300
1/64" = 1'-0"
140
0.015625
141
12.0
290
     0
  0
SCALE
  5
4F
102
{ACAD_REACTORS
330
3B
102
}
330
3B
100
AcDbScale
 70
     0
300
1/32" = 1'-0"
140
0.03125
141
12.0
290
     0
  0
SCALE
  5
50
102
{ACAD_REACTORS
330
3B
102
}
330
3B
100
AcDbScale
 70
     0
300
1/16" = 1'-0"
140
0.0625
141
12.0
290
     0
  0
SCALE
  5
51
102
{ACAD_REACTORS
330
3B
102
}
330
3B
100
AcDbScale
 70
     0
300
3/32" = 1'-0"
140
0.09375
141
12.0
290
     0
  0
SCALE
  5
52
102
{ACAD_REACTORS
330
3B
102
}
330
3B
100
AcDbScale
 70
     0
300
1/8" = 1'-0"
140
0.125
141
12.0
290
     0
  0
SCALE
  5
53
102
{ACAD_REACTORS
330
3B
102
}
330
3B
100
AcDbScale
 70
     0
300
3/16" = 1'-0"
140
0.1875
141
12.0
290
     0
  0
SCALE
  5
54
102
{ACAD_REACTORS
330
3B
102
}
330
3B
100
AcDbScale
 70
     0
300
1/4" = 1'-0"
140
0.25
141
12.0
290
     0
  0
SCALE
  5
55
102
{ACAD_REACTORS
330
3B
102
}
330
3B
100
AcDbScale
 70
     0
300
3/8" = 1'-0"
140
0.375
141
12.0
290
     0
  0
SCALE
  5
56
102
{ACAD_REACTORS
330
3B
102
}
330
3B
100
AcDbScale
 70
     0
300
1/2" = 1'-0"
140
0.5
141
12.0
290
     0
  0
SCALE
  5
57
102
{ACAD_REACTORS
330
3B
102
}
330
3B
100
AcDbScale
 70
     0
300
3/4" = 1'-0"
140
0.75
141
12.0
290
     0
  0
SCALE
  5
58
102
{ACAD_REACTORS
330
3B
102
}
330
3B
100
AcDbScale
 70
     0
300
1" = 1'-0"
140
1.0
141
12.0
290
     0
  0
SCALE
  5
59
102
{ACAD_REACTORS
330
3B
102
}
330
3B
100
AcDbScale
 70
     0
300
1-1/2" = 1'-0"
140
1.5
141
12.0
290
     0
  0
SCALE
  5
5A
102
{ACAD_REACTORS
330
3B
102
}
330
3B
100
AcDbScale
 70
     0
300
3" = 1'-0"
140
3.0
141
12.0
290
     0
  0
SCALE
  5
5B
102
{ACAD_REACTORS
330
3B
102
}
330
3B
100
AcDbScale
 70
     0
300
6" = 1'-0"
140
6.0
141
12.0
290
     0
  0
SCALE
  5
5C
102
{ACAD_REACTORS
330
3B
102
}
330
3B
100
AcDbScale
 70
     0
300
1'-0" = 1'-0"
140
12.0
141
12.0
290
     0
  0
VISUALSTYLE
  5
2F
102
{ACAD_REACTORS
330
2A
102
}
330
2A
100
AcDbVisualStyle
  2
2dWireframe
 70
     4
 71
     0
 72
     2
 73
     0
 90
        0
 40
-0.6
 41
-30.0
 62
     5
 63
     7
 74
     1
 91
        4
 64
     7
 65
   257
 75
     1
175
     1
 42
1.0
 92
        0
 66
   257
 43
1.0
 76
     1
 77
     6
 78
     2
 67
     7
 79
     5
170
     0
171
     0
290
     0
174
     0
 93
        1
 44
0.0
173
     0
291
     0
 45
0.0
1001
ACAD
1000
AcDbSavedByObjectVersion
1070
     0
  0
VISUALSTYLE
  5
31
102
{ACAD_REACTORS
330
2A
102
}
330
2A
100
AcDbVisualStyle
  2
3D Hidden
 70
     6
 71
     1
 72
     2
 73
     2
 90
        0
 40
-0.6
 41
-30.0
 62
     5
 63
     7
 74
     2
 91
        2
 64
     7
 65
   257
 75
     2
175
     1
 42
40.0
 92
        0
 66
   257
 43
1.0
 76
     1
 77
     6
 78
     2
 67
     7
 79
     3
170
     0
171
     0
290
     0
174
     0
 93
        1
 44
0.0
173
     0
291
     0
 45
0.0
1001
ACAD
1000
AcDbSavedByObjectVersion
1070
     0
  0
VISUALSTYLE
  5
30
102
{ACAD_REACTORS
330
2A
102
}
330
2A
100
AcDbVisualStyle
  2
3dWireframe
 70
     5
 71
     0
 72
     2
 73
     0
 90
        0
 40
-0.6
 41
-30.0
 62
     5
 63
     7
 74
     1
 91
        4
 64
     7
 65
   257
 75
     1
175
     1
 42
1.0
 92
        0
 66
   257
 43
1.0
 76
     1
 77
     6
 78
     2
 67
     7
 79
     5
170
     0
171
     0
290
     0
174
     0
 93
        1
 44
0.0
173
     0
291
     0
 45
0.0
1001
ACAD
1000
AcDbSavedByObjectVersion
1070
     0
  0
VISUALSTYLE
  5
32
102
{ACAD_REACTORS
330
2A
102
}
330
2A
100
AcDbVisualStyle
  2
Basic
 70
     7
 71
     1
 72
     0
 73
     1
 90
        0
 40
-0.6
 41
-30.0
 62
     5
 63
     7
 74
     0
 91
        4
 64
     7
 65
   257
 75
     1
175
     1
 42
1.0
 92
        8
 66
     7
 43
1.0
 76
     1
 77
     6
 78
     2
 67
     7
 79
     5
170
     0
171
     0
290
     0
174
     0
 93
        1
 44
0.0
173
     0
291
     1
 45
0.0
1001
ACAD
1000
AcDbSavedByObjectVersion
1070
     0
  0
VISUALSTYLE
  5
36
102
{ACAD_REACTORS
330
2A
102
}
330
2A
100
AcDbVisualStyle
  2
Brighten
 70
    12
 71
     2
 72
     2
 73
     0
 90
        0
 40
-0.6
 41
-30.0
 62
     5
 63
     7
 74
     1
 91
        4
 64
     7
 65
   257
 75
     1
175
     1
 42
1.0
 92
        8
 66
     7
 43
1.0
 76
     1
 77
     6
 78
     2
 67
     7
 79
     5
170
     0
171
     0
290
     0
174
     0
 93
        1
 44
50.0
173
     0
291
     1
 45
0.0
1001
ACAD
1000
AcDbSavedByObjectVersion
1070
     0
  0
VISUALSTYLE
  5
3A
102
{ACAD_REACTORS
330
2A
102
}
330
2A
100
AcDbVisualStyle
  2
ColorChange
 70
    16
 71
     2
 72
     2
 73
     3
 90
        0
 40
-0.6
 41
-30.0
 62
     5
 63
     8
 74
     1
 91
        4
 64
     7
 65
   257
 75
     1
175
     1
 42
1.0
 92
        8
 66
     8
 43
1.0
 76
     1
 77
     6
 78
     2
 67
     7
 79
     5
170
     0
171
     0
290
     0
174
     0
 93
        1
 44
0.0
173
     0
291
     1
 45
0.0
1001
ACAD
1000
AcDbSavedByObjectVersion
1070
     0
  0
VISUALSTYLE
  5
34
102
{ACAD_REACTORS
330
2A
102
}
330
2A
100
AcDbVisualStyle
  2
Conceptual
 70
     9
 71
     3
 72
     2
 73
     0
 90
        0
 40
-0.6
 41
-30.0
 62
     5
 63
     7
 74
     2
 91
        2
 64
     7
 65
   257
 75
     1
175
     1
 42
40.0
 92
        8
 66
     7
 43
1.0
 76
     1
 77
     6
 78
     2
 67
     7
 79
     3
170
     0
171
     0
290
     0
174
     0
 93
        1
 44
0.0
173
     0
291
     0
 45
0.0
1001
ACAD
1000
AcDbSavedByObjectVersion
1070
     0
  0
VISUALSTYLE
  5
35
102
{ACAD_REACTORS
330
2A
102
}
330
2A
100
AcDbVisualStyle
  2
Dim
 70
    11
 71
     2
 72
     2
 73
     0
 90
        0
 40
-0.6
 41
-30.0
 62
     5
 63
     7
 74
     1
 91
        4
 64
     7
 65
   257
 75
     1
175
     1
 42
1.0
 92
        8
 66
     7
 43
1.0
 76
     1
 77
     6
 78
     2
 67
     7
 79
     5
170
     0
171
     0
290
     0
174
     0
 93
        1
 44
-50.0
173
     0
291
     1
 45
0.0
1001
ACAD
1000
AcDbSavedByObjectVersion
1070
     0
  0
VISUALSTYLE
  5
39
102
{ACAD_REACTORS
330
2A
102
}
330
2A
100
AcDbVisualStyle
  2
Facepattern
 70
    15
 71
     2
 72
     2
 73
     0
 90
        0
 40
-0.6
 41
-30.0
 62
     5
 63
     7
 74
     1
 91
        4
 64
     7
 65
   257
 75
     1
175
     1
 42
1.0
 92
        8
 66
     7
 43
1.0
 76
     1
 77
     6
 78
     2
 67
     7
 79
     5
170
     0
171
     0
290
     0
174
     0
 93
        1
 44
0.0
173
     0
291
     1
 45
0.0
1001
ACAD
1000
AcDbSavedByObjectVersion
1070
     0
  0
VISUALSTYLE
  5
2B
102
{ACAD_REACTORS
330
2A
102
}
330
2A
100
AcDbVisualStyle
  2
Flat
 70
     0
 71
     2
 72
     1
 73
     1
 90
        2
 40
-0.6
 41
30.0
 62
     5
 63
     7
 74
     0
 91
        4
 64
     7
 65
   257
 75
     1
175
     1
 42
1.0
 92
        8
 66
     7
 43
1.0
 76
     1
 77
     6
 78
     2
 67
     7
 79
     5
170
     0
171
     0
290
     0
174
     0
 93
       13
 44
0.0
173
     0
291
     1
 45
0.0
1001
ACAD
1000
AcDbSavedByObjectVersion
1070
     0
  0
VISUALSTYLE
  5
2C
102
{ACAD_REACTORS
330
2A
102
}
330
2A
100
AcDbVisualStyle
  2
FlatWithEdges
 70
     1
 71
     2
 72
     1
 73
     1
 90
        2
 40
-0.6
 41
30.0
 62
     5
 63
     7
 74
     1
 91
        4
 64
     7
 65
   257
 75
     1
175
     1
 42
1.0
 92
        0
 66
   257
 43
1.0
 76
     1
 77
     6
 78
     2
 67
     7
 79
     5
170
     0
171
     0
290
     0
174
     0
 93
       13
 44
0.0
173
     0
291
     1
 45
0.0
1001
ACAD
1000
AcDbSavedByObjectVersion
1070
     0
  0
VISUALSTYLE
  5
2D
102
{ACAD_REACTORS
330
2A
102
}
330
2A
100
AcDbVisualStyle
  2
Gouraud
 70
     2
 71
     2
 72
     2
 73
     1
 90
        2
 40
-0.6
 41
30.0
 62
     5
 63
     7
 74
     0
 91
        4
 64
     7
 65
   257
 75
     1
175
     1
 42
1.0
 92
        0
 66
     7
 43
1.0
 76
     1
 77
     6
 78
     2
 67
     7
 79
     5
170
     0
171
     0
290
     0
174
     0
 93
       13
 44
0.0
173
     0
291
     1
 45
0.0
1001
ACAD
1000
AcDbSavedByObjectVersion
1070
     0
  0
VISUALSTYLE
  5
2E
102
{ACAD_REACTORS
330
2A
102
}
330
2A
100
AcDbVisualStyle
  2
GouraudWithEdges
 70
     3
 71
     2
 72
     2
 73
     1
 90
        2
 40
-0.6
 41
30.0
 62
     5
 63
     7
 74
     1
 91
        4
 64
     7
 65
   257
 75
     1
175
     1
 42
1.0
 92
        0
 66
   257
 43
1.0
 76
     1
 77
     6
 78
     2
 67
     7
 79
     5
170
     0
171
     0
290
     0
174
     0
 93
       13
 44
0.0
173
     0
291
     1
 45
0.0
1001
ACAD
1000
AcDbSavedByObjectVersion
1070
     0
  0
VISUALSTYLE
  5
38
102
{ACAD_REACTORS
330
2A
102
}
330
2A
100
AcDbVisualStyle
  2
Linepattern
 70
    14
 71
     2
 72
     2
 73
     0
 90
        0
 40
-0.6
 41
-30.0
 62
     5
 63
     7
 74
     1
 91
        4
 64
     7
 65
   257
 75
     7
175
     7
 42
1.0
 92
        8
 66
     7
 43
1.0
 76
     1
 77
     6
 78
     2
 67
     7
 79
     5
170
     0
171
     0
290
     0
174
     0
 93
        1
 44
0.0
173
     0
291
     1
 45
0.0
1001
ACAD
1000
AcDbSavedByObjectVersion
1070
     0
  0
VISUALSTYLE
  5
33
102
{ACAD_REACTORS
330
2A
102
}
330
2A
100
AcDbVisualStyle
  2
Realistic
 70
     8
 71
     2
 72
     2
 73
     0
 90
        0
 40
-0.6
 41
-30.0
 62
     5
 63
     7
 74
     1
 91
        0
 64
     7
 65
   257
 75
     1
175
     1
 42
1.0
 92
        8
 66
     8
 43
1.0
 76
     1
 77
     6
 78
     2
 67
     7
 79
     5
170
     0
171
     0
290
     0
174
     0
 93
       13
 44
0.0
173
     0
291
     0
 45
0.0
1001
ACAD
1000
AcDbSavedByObjectVersion
1070
     0
  0
VISUALSTYLE
  5
37
102
{ACAD_REACTORS
330
2A
102
}
330
2A
100
AcDbVisualStyle
  2
Thicken
 70
    13
 71
     2
 72
     2
 73
     0
 90
        0
 40
-0.6
 41
-30.0
 62
     5
 63
     7
 74
     1
 91
        4
 64
     7
 65
   257
 75
     1
175
     1
 42
1.0
 92
       12
 66
     7
 43
1.0
 76
     1
 77
     6
 78
     2
 67
     7
 79
     5
170
     0
171
     0
290
     0
174
     0
 93
        1
 44
0.0
173
     0
291
     1
 45
0.0
1001
ACAD
1000
AcDbSavedByObjectVersion
1070
     0
  0
DICTIONARYVAR
  5
2F3
102
{ACAD_REACTORS
330
2F2
102
}
330
2F2
100
DictionaryVariables
280
     0
  1
1:1
  0
DICTIONARYVAR
  5
2F7
102
{ACAD_REACTORS
330
2F2
102
}
330
2F2
100
DictionaryVariables
280
     0
  1
80.000000
  0
DICTIONARYVAR
  5
2F6
102
{ACAD_REACTORS
330
2F2
102
}
330
2F2
100
DictionaryVariables
280
     0
  1
5.000000
  0
ENDSEC
  0
EOF
