  0
SECTION
  2
HEADER
  9
$ACADVER
  1
AC1009
  9
$DWGCODEPAGE
  3
ansi_1252
  9
$INSBASE
 10
0.0
 20
0.0
 30
0.0
  9
$EXTMIN
 10
1.000000000000000E+20
 20
1.000000000000000E+20
 30
1.000000000000000E+20
  9
$EXTMAX
 10
-1.000000000000000E+20
 20
-1.000000000000000E+20
 30
-1.000000000000000E+20
  9
$LIMMIN
 10
0.0
 20
0.0
  9
$LIMMAX
 10
12.0
 20
9.0
  9
$ORTHOMODE
 70
     0
  9
$REGENMODE
 70
     1
  9
$FILLMODE
 70
     1
  9
$QTEXTMODE
 70
     0
  9
$MIRRTEXT
 70
     1
  9
$DRAGMODE
 70
     2
  9
$LTSCALE
 40
1.0
  9
$OSMODE
 70
    37
  9
$ATTMODE
 70
     1
  9
$TEXTSIZE
 40
0.2
  9
$TRACEWID
 40
0.05
  9
$TEXTSTYLE
  7
STANDARD
  9
$CLAYER
  8
0
  9
$CELTYPE
  6
BYLAYER
  9
$CECOLOR
 62
   256
  9
$DIMSCALE
 40
1.0
  9
$DIMASZ
 40
0.18
  9
$DIMEXO
 40
0.0625
  9
$DIMDLI
 40
0.38
  9
$DIMRND
 40
0.0
  9
$DIMDLE
 40
0.0
  9
$DIMEXE
 40
0.18
  9
$DIMTP
 40
0.0
  9
$DIMTM
 40
0.0
  9
$DIMTXT
 40
0.18
  9
$DIMCEN
 40
0.09
  9
$DIMTSZ
 40
0.0
  9
$DIMTOL
 70
     0
  9
$DIMLIM
 70
     0
  9
$DIMTIH
 70
     1
  9
$DIMTOH
 70
     1
  9
$DIMSE1
 70
     0
  9
$DIMSE2
 70
     0
  9
$DIMTAD
 70
     0
  9
$DIMZIN
 70
     0
  9
$DIMBLK
  1

  9
$DIMASO
 70
     1
  9
$DIMSHO
 70
     1
  9
$DIMPOST
  1

  9
$DIMAPOST
  1

  9
$DIMALT
 70
     0
  9
$DIMALTD
 70
     2
  9
$DIMALTF
 40
25.4
  9
$DIMLFAC
 40
1.0
  9
$DIMTOFL
 70
     0
  9
$DIMTVP
 40
0.0
  9
$DIMTIX
 70
     0
  9
$DIMSOXD
 70
     0
  9
$DIMSAH
 70
     0
  9
$DIMBLK1
  1

  9
$DIMBLK2
  1

  9
$DIMSTYLE
  2
STANDARD
  9
$DIMCLRD
 70
     0
  9
$DIMCLRE
 70
     0
  9
$DIMCLRT
 70
     0
  9
$DIMTFAC
 40
1.0
  9
$DIMGAP
 40
0.09
  9
$LUNITS
 70
     2
  9
$LUPREC
 70
     4
  9
$SKETCHINC
 40
0.1
  9
$FILLETRAD
 40
0.5
  9
$AUNITS
 70
     0
  9
$AUPREC
 70
     0
  9
$MENU
  1
.
  9
$ELEVATION
 40
0.0
  9
$PELEVATION
 40
0.0
  9
$THICKNESS
 40
0.0
  9
$LIMCHECK
 70
     0
  9
$CHAMFERA
 40
0.5
  9
$CHAMFERB
 40
0.5
  9
$SKPOLY
 70
     0
  9
$TDCREATE
 40
2455610.489736111
  9
$TDUPDATE
 40
2455610.489736111
  9
$TDINDWG
 40
0.0000000116
  9
$TDUSRTIMER
 40
0.0000000116
  9
$USRTIMER
 70
     1
  9
$ANGBASE
 50
0.0
  9
$ANGDIR
 70
     0
  9
$PDMODE
 70
     0
  9
$PDSIZE
 40
0.0
  9
$PLINEWID
 40
0.0
  9
$COORDS
 70
     1
  9
$SPLFRAME
 70
     0
  9
$SPLINETYPE
 70
     6
  9
$SPLINESEGS
 70
     8
  9
$ATTDIA
 70
     0
  9
$ATTREQ
 70
     1
  9
$HANDLING
 70
     1
  9
$HANDSEED
  5
AB3
  9
$SURFTAB1
 70
     6
  9
$SURFTAB2
 70
     6
  9
$SURFTYPE
 70
     6
  9
$SURFU
 70
     6
  9
$SURFV
 70
     6
  9
$UCSNAME
  2

  9
$UCSORG
 10
0.0
 20
0.0
 30
0.0
  9
$UCSXDIR
 10
1.0
 20
0.0
 30
0.0
  9
$UCSYDIR
 10
0.0
 20
1.0
 30
0.0
  9
$PUCSNAME
  2

  9
$PUCSORG
 10
0.0
 20
0.0
 30
0.0
  9
$PUCSXDIR
 10
1.0
 20
0.0
 30
0.0
  9
$PUCSYDIR
 10
0.0
 20
1.0
 30
0.0
  9
$USERI1
 70
     0
  9
$USERI2
 70
     0
  9
$USERI3
 70
     0
  9
$USERI4
 70
     0
  9
$USERI5
 70
     0
  9
$USERR1
 40
0.0
  9
$USERR2
 40
0.0
  9
$USERR3
 40
0.0
  9
$USERR4
 40
0.0
  9
$USERR5
 40
0.0
  9
$WORLDVIEW
 70
     1
  9
$SHADEDGE
 70
     3
  9
$SHADEDIF
 70
    70
  9
$TILEMODE
 70
     1
  9
$MAXACTVP
 70
    64
  9
$PLIMCHECK
 70
     0
  9
$PEXTMIN
 10
1.000000000000000E+20
 20
1.000000000000000E+20
 30
1.000000000000000E+20
  9
$PEXTMAX
 10
-1.000000000000000E+20
 20
-1.000000000000000E+20
 30
-1.000000000000000E+20
  9
$PLIMMIN
 10
0.0
 20
0.0
  9
$PLIMMAX
 10
12.0
 20
9.0
  9
$UNITMODE
 70
     0
  9
$VISRETAIN
 70
     1
  9
$PLINEGEN
 70
     0
  9
$PSLTSCALE
 70
     1
  0
ENDSEC
  0
SECTION
  2
TABLES
  0
TABLE
  2
VPORT
 70
     1
  0
VPORT
  2
*ACTIVE
 70
     0
 10
0.0
 20
0.0
 11
1.0
 21
1.0
 12
0.0
 22
0.0
 13
0.0
 23
0.0
 14
0.5
 24
0.5
 15
0.5
 25
0.5
 16
526.9161987304688
 26
-526.9161987304688
 36
526.9161376953125
 17
39.86517333984375
 27
0.0
 37
60.001708984375
 40
685.0626572290147
 41
1.972972972850329
 42
50.0
 43
0.0
 44
0.0
 50
0.0
 51
0.0
 71
     0
 72
   100
 73
     1
 74
     3
 75
     0
 76
     0
 77
     0
 78
     0
  0
ENDTAB
  0
TABLE
  2
LTYPE
 70
     1
  0
LTYPE
  2
CONTINUOUS
 70
     0
  3
Solid line
 72
    65
 73
     0
 40
0.0
  0
ENDTAB
  0
TABLE
  2
LAYER
 70
     2
  0
LAYER
  2
0
 70
     0
 62
     7
  6
CONTINUOUS
  0
LAYER
  2
LAYER_1
 70
     0
 62
     7
  6
CONTINUOUS
  0
ENDTAB
  0
TABLE
  2
STYLE
 70
     1
  0
STYLE
  2
STANDARD
 70
     0
 40
0.0
 41
1.0
 50
0.0
 71
     0
 42
0.2
  3
txt
  4

  0
ENDTAB
  0
TABLE
  2
VIEW
 70
     0
  0
ENDTAB
  0
TABLE
  2
UCS
 70
     0
  0
ENDTAB
  0
TABLE
  2
APPID
 70
     1
  0
APPID
  2
ACAD
 70
     0
  0
ENDTAB
  0
TABLE
  2
DIMSTYLE
 70
     1
  0
DIMSTYLE
  2
STANDARD
 70
     0
  3

  4

  5

  6

  7

 40
1.0
 41
0.18
 42
0.0625
 43
0.38
 44
0.18
 45
0.0
 46
0.0
 47
0.0
 48
0.0
140
0.18
141
0.09
142
0.0
143
25.4
144
1.0
145
0.0
146
1.0
147
0.09
 71
     0
 72
     0
 73
     1
 74
     1
 75
     0
 76
     0
 77
     0
 78
     0
170
     0
171
     2
172
     0
173
     0
174
     0
175
     0
176
     0
177
     0
178
     0
  0
ENDTAB
  0
ENDSEC
  0
SECTION
  2
BLOCKS
  0
BLOCK
  8
0
  2
$MODEL_SPACE
 70
     0
 10
0.0
 20
0.0
 30
0.0
  3
$MODEL_SPACE
  1

  0
ENDBLK
  5
21
  8
0
  0
BLOCK
 67
     1
  8
0
  2
$PAPER_SPACE
 70
     0
 10
0.0
 20
0.0
 30
0.0
  3
$PAPER_SPACE
  1

  0
ENDBLK
  5
1D
 67
     1
  8
0
  0
BLOCK
  8
0
  2
38
 70
     0
 10
0.0
 20
0.0
 30
0.0
  3
38
  1

  0
POLYLINE
  5
3C
  8
0
 62
     9
 66
     1
 10
0.0
 20
0.0
 30
0.0
 70
    64
 71
    95
 72
   164
  0
VERTEX
  5
3D
  8
0
 10
99.62749481201172
 20
0.2447598278522491
 30
85.17501831054688
 70
   192
  0
VERTEX
  5
3E
  8
0
 10
99.21319580078125
 20
-2.089437961578369
 30
85.42118072509766
 70
   192
  0
VERTEX
  5
3F
  8
0
 10
100.0703125
 20
-3.087625980377197
 30
85.25708770751953
 70
   192
  0
VERTEX
  5
40
  8
0
 10
99.05854797363281
 20
0.8570252060890198
 30
85.39251708984375
 70
   192
  0
VERTEX
  5
41
  8
0
 10
100.1186218261719
 20
-4.90064525604248
 30
85.5889892578125
 70
   192
  0
VERTEX
  5
42
  8
0
 10
101.7048034667969
 20
-7.367156505584717
 30
85.88297271728516
 70
   192
  0
VERTEX
  5
43
  8
0
 10
103.7870025634766
 20
-8.550027847290039
 30
85.94593811035156
 70
   192
  0
VERTEX
  5
44
  8
0
 10
101.504150390625
 20
-6.118607521057129
 30
85.52283477783203
 70
   192
  0
VERTEX
  5
45
  8
0
 10
100.2202529907227
 20
3.55810284614563
 30
85.28488159179688
 70
   192
  0
VERTEX
  5
46
  8
0
 10
103.8649063110352
 20
-9.334559440612793
 30
86.2833251953125
 70
   192
  0
VERTEX
  5
47
  8
0
 10
106.6959457397461
 20
-10.14408206939697
 30
86.48507690429688
 70
   192
  0
VERTEX
  5
48
  8
0
 10
106.4590835571289
 20
-10.66308212280273
 30
86.76412963867188
 70
   192
  0
VERTEX
  5
49
  8
0
 10
99.6520767211914
 20
3.740145444869995
 30
85.50252532958984
 70
   192
  0
VERTEX
  5
4A
  8
0
 10
100.9700546264648
 20
6.377606391906738
 30
85.74679565429688
 70
   192
  0
VERTEX
  5
4B
  8
0
 10
101.7876129150391
 20
6.51658821105957
 30
85.57537078857422
 70
   192
  0
VERTEX
  5
4C
  8
0
 10
102.9085235595703
 20
8.57017707824707
 30
86.10607147216797
 70
   192
  0
VERTEX
  5
4D
  8
0
 10
105.3317337036133
 20
10.17899131774902
 30
86.55518341064453
 70
   192
  0
VERTEX
  5
4E
  8
0
 10
104.1783218383789
 20
8.838322639465332
 30
86.01846313476562
 70
   192
  0
VERTEX
  5
4F
  8
0
 10
107.1585464477539
 20
10.29657173156738
 30
86.57081604003906
 70
   192
  0
VERTEX
  5
50
  8
0
 10
108.0898895263672
 20
11.09857749938965
 30
87.0663833618164
 70
   192
  0
VERTEX
  5
51
  8
0
 10
110.4351348876953
 20
10.74693489074707
 30
87.17809295654297
 70
   192
  0
VERTEX
  5
52
  8
0
 10
110.9821090698242
 20
11.26094818115234
 30
87.60242462158203
 70
   192
  0
VERTEX
  5
53
  8
0
 10
113.6929931640625
 20
10.14408206939697
 30
87.78190612792969
 70
   192
  0
VERTEX
  5
54
  8
0
 10
113.8141174316406
 20
10.66308212280273
 30
88.12730407714844
 70
   192
  0
VERTEX
  5
55
  8
0
 10
98.649169921875
 20
2.540256023406982
 30
86.19741821289062
 70
   192
  0
VERTEX
  5
56
  8
0
 10
98.37857818603516
 20
-0.2935690581798553
 30
86.14727020263672
 70
   192
  0
VERTEX
  5
57
  8
0
 10
98.78148651123047
 20
-3.113651752471924
 30
86.2219467163086
 70
   192
  0
VERTEX
  5
58
  8
0
 10
99.83868408203125
 20
-5.746945381164551
 30
86.41788482666016
 70
   192
  0
VERTEX
  5
59
  8
0
 10
101.4847717285156
 20
-8.04634952545166
 30
86.72296905517578
 70
   192
  0
VERTEX
  5
5A
  8
0
 10
103.6244812011719
 20
-9.880176544189453
 30
87.11953735351562
 70
   192
  0
VERTEX
  5
5B
  8
0
 10
106.138542175293
 20
-11.1348991394043
 30
87.58549499511719
 70
   192
  0
VERTEX
  5
5C
  8
0
 10
99.57756805419922
 20
5.225099563598633
 30
86.36949157714844
 70
   192
  0
VERTEX
  5
5D
  8
0
 10
101.1132888793945
 20
7.601869583129883
 30
86.65412139892578
 70
   192
  0
VERTEX
  5
5E
  8
0
 10
103.1619033813477
 20
9.536272048950195
 30
87.03380584716797
 70
   192
  0
VERTEX
  5
5F
  8
0
 10
105.6062316894531
 20
10.91998195648193
 30
87.48683166503906
 70
   192
  0
VERTEX
  5
60
  8
0
 10
108.3017959594727
 20
11.66805744171143
 30
87.9864273071289
 70
   192
  0
VERTEX
  5
61
  8
0
 10
111.093147277832
 20
11.73925113677979
 30
88.50377655029297
 70
   192
  0
VERTEX
  5
62
  8
0
 10
113.8190231323242
 20
11.1348991394043
 30
89.00898742675781
 70
   192
  0
VERTEX
  5
63
  8
0
 10
97.697021484375
 20
3.905638694763184
 30
93.46198272705078
 70
   192
  0
VERTEX
  5
64
  8
0
 10
97.08015441894531
 20
0.8805660605430603
 30
93.34765625
 70
   192
  0
VERTEX
  5
65
  8
0
 10
97.2546157836914
 20
-2.193363904953003
 30
93.37998962402344
 70
   192
  0
VERTEX
  5
66
  8
0
 10
98.19876098632812
 20
-5.112850189208984
 30
93.55497741699219
 70
   192
  0
VERTEX
  5
67
  8
0
 10
99.85809326171875
 20
-7.692514896392822
 30
93.86251068115234
 70
   192
  0
VERTEX
  5
68
  8
0
 10
102.1124114990234
 20
-9.743647575378418
 30
94.28032684326172
 70
   192
  0
VERTEX
  5
69
  8
0
 10
104.8052291870117
 20
-11.1348991394043
 30
94.77941131591797
 70
   192
  0
VERTEX
  5
6A
  8
0
 10
99.06220245361328
 20
6.650426864624023
 30
93.71500396728516
 70
   192
  0
VERTEX
  5
6B
  8
0
 10
101.0781021118164
 20
8.950525283813477
 30
94.08863067626953
 70
   192
  0
VERTEX
  5
6C
  8
0
 10
103.6194839477539
 20
10.64225292205811
 30
94.55964660644531
 70
   192
  0
VERTEX
  5
6D
  8
0
 10
106.4948959350586
 20
11.60128021240234
 30
95.09257507324219
 70
   192
  0
VERTEX
  5
6E
  8
0
 10
109.518196105957
 20
11.77256393432617
 30
95.65290832519531
 70
   192
  0
VERTEX
  5
6F
  8
0
 10
112.485710144043
 20
11.1348991394043
 30
96.2029037475586
 70
   192
  0
VERTEX
  5
70
  8
0
 10
108.8724212646484
 20
-11.75227546691895
 30
88.0921859741211
 70
   192
  0
VERTEX
  5
71
  8
0
 10
116.2128295898438
 20
-8.950525283813477
 30
96.89368438720703
 70
   192
  0
VERTEX
  5
72
  8
0
 10
116.8102951049805
 20
-9.545068740844727
 30
89.56338500976562
 70
   192
  0
VERTEX
  5
73
  8
0
 10
113.6714553833008
 20
-10.64225292205811
 30
96.42266845703125
 70
   192
  0
VERTEX
  5
74
  8
0
 10
114.3673629760742
 20
-10.92976188659668
 30
89.1106185913086
 70
   192
  0
VERTEX
  5
75
  8
0
 10
111.6696472167969
 20
-11.67960071563721
 30
88.61062622070312
 70
   192
  0
VERTEX
  5
76
  8
0
 10
110.7960433959961
 20
-11.60128021240234
 30
95.88973999023438
 70
   192
  0
VERTEX
  5
77
  8
0
 10
119.5939102172852
 20
-3.905638694763184
 30
97.52033233642578
 70
   192
  0
VERTEX
  5
78
  8
0
 10
120.2107849121094
 20
-0.8805660605430603
 30
97.63465881347656
 70
   192
  0
VERTEX
  5
79
  8
0
 10
121.3103103637695
 20
-2.527620792388916
 30
90.39741516113281
 70
   192
  0
VERTEX
  5
7A
  8
0
 10
118.8570251464844
 20
-7.598847389221191
 30
89.9427261352539
 70
   192
  0
VERTEX
  5
7B
  8
0
 10
118.2287368774414
 20
-6.650426864624023
 30
97.2673110961914
 70
   192
  0
VERTEX
  5
7C
  8
0
 10
120.3862609863281
 20
-5.214016437530518
 30
90.22615051269531
 70
   192
  0
VERTEX
  5
7D
  8
0
 10
120.0363235473633
 20
2.193363904953003
 30
97.60232543945312
 70
   192
  0
VERTEX
  5
7E
  8
0
 10
119.0921783447266
 20
5.112850189208984
 30
97.42733764648438
 70
   192
  0
VERTEX
  5
7F
  8
0
 10
121.1592407226562
 20
3.116082429885864
 30
90.36941528320312
 70
   192
  0
VERTEX
  5
80
  8
0
 10
121.5708847045898
 20
0.3040322661399841
 30
90.44570922851562
 70
   192
  0
VERTEX
  5
81
  8
0
 10
117.4328460693359
 20
7.692514896392822
 30
97.11979675292969
 70
   192
  0
VERTEX
  5
82
  8
0
 10
118.4548645019531
 20
8.046151161193848
 30
89.8681869506836
 70
   192
  0
VERTEX
  5
83
  8
0
 10
120.1003494262695
 20
5.749495029449463
 30
90.17316436767578
 70
   192
  0
VERTEX
  5
84
  8
0
 10
116.3188400268555
 20
9.875088691711426
 30
89.47229766845703
 70
   192
  0
VERTEX
  5
85
  8
0
 10
115.1785202026367
 20
9.743647575378418
 30
96.70198822021484
 70
   192
  0
VERTEX
  5
86
  8
0
 10
107.7727432250977
 20
-11.77256393432617
 30
95.32940673828125
 70
   192
  0
VERTEX
  5
87
  8
0
 10
109.0771179199219
 20
-11.25429821014404
 30
87.24935150146484
 70
   192
  0
VERTEX
  5
88
  8
0
 10
111.7558212280273
 20
-11.18470287322998
 30
87.74581909179688
 70
   192
  0
VERTEX
  5
89
  8
0
 10
118.6386489868164
 20
-7.276862144470215
 30
89.02147674560547
 70
   192
  0
VERTEX
  5
8A
  8
0
 10
120.1030883789062
 20
-4.993083477020264
 30
89.29289245605469
 70
   192
  0
VERTEX
  5
8B
  8
0
 10
116.6786499023438
 20
-9.140616416931152
 30
88.65821075439453
 70
   192
  0
VERTEX
  5
8C
  8
0
 10
121.2375183105469
 20
0.2911495566368103
 30
89.5031509399414
 70
   192
  0
VERTEX
  5
8D
  8
0
 10
120.9879837036133
 20
-2.420518159866333
 30
89.45690155029297
 70
   192
  0
VERTEX
  5
8E
  8
0
 10
119.8292922973633
 20
5.50587272644043
 30
89.24214935302734
 70
   192
  0
VERTEX
  5
8F
  8
0
 10
120.8433151245117
 20
2.984045028686523
 30
89.43008422851562
 70
   192
  0
VERTEX
  5
90
  8
0
 10
118.253532409668
 20
7.705212593078613
 30
88.9500961303711
 70
   192
  0
VERTEX
  5
91
  8
0
 10
116.2080154418945
 20
9.456653594970703
 30
88.57098388671875
 70
   192
  0
VERTEX
  5
92
  8
0
 10
114.3392333984375
 20
-10.46663665771484
 30
88.22462463378906
 70
   192
  0
VERTEX
  5
93
  8
0
 10
109.9538497924805
 20
-10.74694728851318
 30
87.0888900756836
 70
   192
  0
VERTEX
  5
94
  8
0
 10
116.2094650268555
 20
-8.839566230773926
 30
88.24830627441406
 70
   192
  0
VERTEX
  5
95
  8
0
 10
113.2303237915039
 20
-10.29658603668213
 30
87.69615173339844
 70
   192
  0
VERTEX
  5
96
  8
0
 10
120.7614593505859
 20
-0.2447182089090347
 30
89.09196472167969
 70
   192
  0
VERTEX
  5
97
  8
0
 10
118.6021423339844
 20
-6.514256477355957
 30
88.69175720214844
 70
   192
  0
VERTEX
  5
98
  8
0
 10
118.8860168457031
 20
6.117427349090576
 30
88.74436950683594
 70
   192
  0
VERTEX
  5
99
  8
0
 10
120.3186416625977
 20
3.087551832199097
 30
89.00989532470703
 70
   192
  0
VERTEX
  5
9A
  8
0
 10
116.5996475219727
 20
8.55085563659668
 30
88.32061767578125
 70
   192
  0
VERTEX
  5
9B
  8
0
 10
120.1686859130859
 20
-3.55810284614563
 30
88.98210144042969
 70
   192
  0
VERTEX
  5
9C
  8
0
 62
     9
 10
0.0
 20
0.0
 30
0.0
 70
   128
 71
     3
 72
     2
 73
     1
  0
VERTEX
  5
9D
  8
0
 62
     9
 10
0.0
 20
0.0
 30
0.0
 70
   128
 71
     4
 72
     1
 73
     2
  0
VERTEX
  5
9E
  8
0
 62
     9
 10
0.0
 20
0.0
 30
0.0
 70
   128
 71
     2
 72
     3
 73
     5
  0
VERTEX
  5
9F
  8
0
 62
     9
 10
0.0
 20
0.0
 30
0.0
 70
   128
 71
     8
 72
     7
 73
     6
  0
VERTEX
  5
A0
  8
0
 62
     9
 10
0.0
 20
0.0
 30
0.0
 70
   128
 71
     4
 72
     9
 73
     1
  0
VERTEX
  5
A1
  8
0
 62
     9
 10
0.0
 20
0.0
 30
0.0
 70
   128
 71
     7
 72
    10
 73
     6
  0
VERTEX
  5
A2
  8
0
 62
     9
 10
0.0
 20
0.0
 30
0.0
 70
   128
 71
     6
 72
     5
 73
     8
  0
VERTEX
  5
A3
  8
0
 62
     9
 10
0.0
 20
0.0
 30
0.0
 70
   128
 71
    12
 72
    10
 73
    11
  0
VERTEX
  5
A4
  8
0
 62
     9
 10
0.0
 20
0.0
 30
0.0
 70
   128
 71
    10
 72
     7
 73
    11
  0
VERTEX
  5
A5
  8
0
 62
     9
 10
0.0
 20
0.0
 30
0.0
 70
   128
 71
     8
 72
     5
 73
     3
  0
VERTEX
  5
A6
  8
0
 62
     9
 10
0.0
 20
0.0
 30
0.0
 70
   128
 71
    14
 72
     9
 73
    13
  0
VERTEX
  5
A7
  8
0
 62
     9
 10
0.0
 20
0.0
 30
0.0
 70
   128
 71
     9
 72
     4
 73
    13
  0
VERTEX
  5
A8
  8
0
 62
     9
 10
0.0
 20
0.0
 30
0.0
 70
   128
 71
    14
 72
    16
 73
    15
  0
VERTEX
  5
A9
  8
0
 62
     9
 10
0.0
 20
0.0
 30
0.0
 70
   128
 71
    15
 72
     9
 73
    14
  0
VERTEX
  5
AA
  8
0
 62
     9
 10
0.0
 20
0.0
 30
0.0
 70
   128
 71
    18
 72
    16
 73
    17
  0
VERTEX
  5
AB
  8
0
 62
     9
 10
0.0
 20
0.0
 30
0.0
 70
   128
 71
    16
 72
    18
 73
    15
  0
VERTEX
  5
AC
  8
0
 62
     9
 10
0.0
 20
0.0
 30
0.0
 70
   128
 71
    20
 72
    19
 73
    17
  0
VERTEX
  5
AD
  8
0
 62
     9
 10
0.0
 20
0.0
 30
0.0
 70
   128
 71
    18
 72
    17
 73
    19
  0
VERTEX
  5
AE
  8
0
 62
     9
 10
0.0
 20
0.0
 30
0.0
 70
   128
 71
    20
 72
    22
 73
    21
  0
VERTEX
  5
AF
  8
0
 62
     9
 10
0.0
 20
0.0
 30
0.0
 70
   128
 71
    21
 72
    19
 73
    20
  0
VERTEX
  5
B0
  8
0
 62
     9
 10
0.0
 20
0.0
 30
0.0
 70
   128
 71
    22
 72
    23
 73
    21
  0
VERTEX
  5
B1
  8
0
 62
     9
 10
0.0
 20
0.0
 30
0.0
 70
   128
 71
    22
 72
    24
 73
    23
  0
VERTEX
  5
B2
  8
0
 62
     9
 10
0.0
 20
0.0
 30
0.0
 70
   128
 71
    13
 72
     4
 73
    25
  0
VERTEX
  5
B3
  8
0
 62
     9
 10
0.0
 20
0.0
 30
0.0
 70
   128
 71
     4
 72
    26
 73
    25
  0
VERTEX
  5
B4
  8
0
 62
     9
 10
0.0
 20
0.0
 30
0.0
 70
   128
 71
     2
 72
     5
 73
    27
  0
VERTEX
  5
B5
  8
0
 62
     9
 10
0.0
 20
0.0
 30
0.0
 70
   128
 71
    28
 72
     5
 73
     6
  0
VERTEX
  5
B6
  8
0
 62
     9
 10
0.0
 20
0.0
 30
0.0
 70
   128
 71
     2
 72
    27
 73
    26
  0
VERTEX
  5
B7
  8
0
 62
     9
 10
0.0
 20
0.0
 30
0.0
 70
   128
 71
    27
 72
     5
 73
    28
  0
VERTEX
  5
B8
  8
0
 62
     9
 10
0.0
 20
0.0
 30
0.0
 70
   128
 71
     6
 72
    10
 73
    29
  0
VERTEX
  5
B9
  8
0
 62
     9
 10
0.0
 20
0.0
 30
0.0
 70
   128
 71
     6
 72
    29
 73
    28
  0
VERTEX
  5
BA
  8
0
 62
     9
 10
0.0
 20
0.0
 30
0.0
 70
   128
 71
    26
 72
     4
 73
     2
  0
VERTEX
  5
BB
  8
0
 62
     9
 10
0.0
 20
0.0
 30
0.0
 70
   128
 71
    29
 72
    10
 73
    30
  0
VERTEX
  5
BC
  8
0
 62
     9
 10
0.0
 20
0.0
 30
0.0
 70
   128
 71
    30
 72
    12
 73
    31
  0
VERTEX
  5
BD
  8
0
 62
     9
 10
0.0
 20
0.0
 30
0.0
 70
   128
 71
    30
 72
    10
 73
    12
  0
VERTEX
  5
BE
  8
0
 62
     9
 10
0.0
 20
0.0
 30
0.0
 70
   128
 71
    14
 72
    13
 73
    32
  0
VERTEX
  5
BF
  8
0
 62
     9
 10
0.0
 20
0.0
 30
0.0
 70
   128
 71
    25
 72
    32
 73
    13
  0
VERTEX
  5
C0
  8
0
 62
     9
 10
0.0
 20
0.0
 30
0.0
 70
   128
 71
    33
 72
    16
 73
    14
  0
VERTEX
  5
C1
  8
0
 62
     9
 10
0.0
 20
0.0
 30
0.0
 70
   128
 71
    14
 72
    32
 73
    33
  0
VERTEX
  5
C2
  8
0
 62
     9
 10
0.0
 20
0.0
 30
0.0
 70
   128
 71
    16
 72
    34
 73
    17
  0
VERTEX
  5
C3
  8
0
 62
     9
 10
0.0
 20
0.0
 30
0.0
 70
   128
 71
    34
 72
    16
 73
    33
  0
VERTEX
  5
C4
  8
0
 62
     9
 10
0.0
 20
0.0
 30
0.0
 70
   128
 71
    20
 72
    17
 73
    35
  0
VERTEX
  5
C5
  8
0
 62
     9
 10
0.0
 20
0.0
 30
0.0
 70
   128
 71
    34
 72
    35
 73
    17
  0
VERTEX
  5
C6
  8
0
 62
     9
 10
0.0
 20
0.0
 30
0.0
 70
   128
 71
    36
 72
    22
 73
    20
  0
VERTEX
  5
C7
  8
0
 62
     9
 10
0.0
 20
0.0
 30
0.0
 70
   128
 71
    20
 72
    35
 73
    36
  0
VERTEX
  5
C8
  8
0
 62
     9
 10
0.0
 20
0.0
 30
0.0
 70
   128
 71
    22
 72
    37
 73
    24
  0
VERTEX
  5
C9
  8
0
 62
     9
 10
0.0
 20
0.0
 30
0.0
 70
   128
 71
    37
 72
    22
 73
    36
  0
VERTEX
  5
CA
  8
0
 62
     9
 10
0.0
 20
0.0
 30
0.0
 70
   128
 71
    37
 72
    38
 73
    24
  0
VERTEX
  5
CB
  8
0
 62
     9
 10
0.0
 20
0.0
 30
0.0
 70
   128
 71
    32
 72
    25
 73
    39
  0
VERTEX
  5
CC
  8
0
 62
     9
 10
0.0
 20
0.0
 30
0.0
 70
   128
 71
    40
 72
    25
 73
    26
  0
VERTEX
  5
CD
  8
0
 62
     9
 10
0.0
 20
0.0
 30
0.0
 70
   128
 71
    25
 72
    40
 73
    39
  0
VERTEX
  5
CE
  8
0
 62
     9
 10
0.0
 20
0.0
 30
0.0
 70
   128
 71
    27
 72
    41
 73
    26
  0
VERTEX
  5
CF
  8
0
 62
     9
 10
0.0
 20
0.0
 30
0.0
 70
   128
 71
    40
 72
    26
 73
    41
  0
VERTEX
  5
D0
  8
0
 62
     9
 10
0.0
 20
0.0
 30
0.0
 70
   128
 71
    27
 72
    28
 73
    42
  0
VERTEX
  5
D1
  8
0
 62
     9
 10
0.0
 20
0.0
 30
0.0
 70
   128
 71
    42
 72
    41
 73
    27
  0
VERTEX
  5
D2
  8
0
 62
     9
 10
0.0
 20
0.0
 30
0.0
 70
   128
 71
    43
 72
    28
 73
    29
  0
VERTEX
  5
D3
  8
0
 62
     9
 10
0.0
 20
0.0
 30
0.0
 70
   128
 71
    28
 72
    43
 73
    42
  0
VERTEX
  5
D4
  8
0
 62
     9
 10
0.0
 20
0.0
 30
0.0
 70
   128
 71
    30
 72
    44
 73
    29
  0
VERTEX
  5
D5
  8
0
 62
     9
 10
0.0
 20
0.0
 30
0.0
 70
   128
 71
    43
 72
    29
 73
    44
  0
VERTEX
  5
D6
  8
0
 62
     9
 10
0.0
 20
0.0
 30
0.0
 70
   128
 71
    45
 72
    44
 73
    30
  0
VERTEX
  5
D7
  8
0
 62
     9
 10
0.0
 20
0.0
 30
0.0
 70
   128
 71
    31
 72
    45
 73
    30
  0
VERTEX
  5
D8
  8
0
 62
     9
 10
0.0
 20
0.0
 30
0.0
 70
   128
 71
    39
 72
    46
 73
    32
  0
VERTEX
  5
D9
  8
0
 62
     9
 10
0.0
 20
0.0
 30
0.0
 70
   128
 71
    47
 72
    33
 73
    46
  0
VERTEX
  5
DA
  8
0
 62
     9
 10
0.0
 20
0.0
 30
0.0
 70
   128
 71
    32
 72
    46
 73
    33
  0
VERTEX
  5
DB
  8
0
 62
     9
 10
0.0
 20
0.0
 30
0.0
 70
   128
 71
    47
 72
    48
 73
    34
  0
VERTEX
  5
DC
  8
0
 62
     9
 10
0.0
 20
0.0
 30
0.0
 70
   128
 71
    34
 72
    33
 73
    47
  0
VERTEX
  5
DD
  8
0
 62
     9
 10
0.0
 20
0.0
 30
0.0
 70
   128
 71
    35
 72
    48
 73
    49
  0
VERTEX
  5
DE
  8
0
 62
     9
 10
0.0
 20
0.0
 30
0.0
 70
   128
 71
    48
 72
    35
 73
    34
  0
VERTEX
  5
DF
  8
0
 62
     9
 10
0.0
 20
0.0
 30
0.0
 70
   128
 71
    50
 72
    36
 73
    49
  0
VERTEX
  5
E0
  8
0
 62
     9
 10
0.0
 20
0.0
 30
0.0
 70
   128
 71
    35
 72
    49
 73
    36
  0
VERTEX
  5
E1
  8
0
 62
     9
 10
0.0
 20
0.0
 30
0.0
 70
   128
 71
    50
 72
    51
 73
    37
  0
VERTEX
  5
E2
  8
0
 62
     9
 10
0.0
 20
0.0
 30
0.0
 70
   128
 71
    37
 72
    36
 73
    50
  0
VERTEX
  5
E3
  8
0
 62
     9
 10
0.0
 20
0.0
 30
0.0
 70
   128
 71
    51
 72
    38
 73
    37
  0
VERTEX
  5
E4
  8
0
 62
     9
 10
0.0
 20
0.0
 30
0.0
 70
   128
 71
    45
 72
    31
 73
    52
  0
VERTEX
  5
E5
  8
0
 62
     9
 10
0.0
 20
0.0
 30
0.0
 70
   128
 71
    55
 72
    54
 73
    53
  0
VERTEX
  5
E6
  8
0
 62
     9
 10
0.0
 20
0.0
 30
0.0
 70
   128
 71
    58
 72
    57
 73
    56
  0
VERTEX
  5
E7
  8
0
 62
     9
 10
0.0
 20
0.0
 30
0.0
 70
   128
 71
    61
 72
    60
 73
    59
  0
VERTEX
  5
E8
  8
0
 62
     9
 10
0.0
 20
0.0
 30
0.0
 70
   128
 71
    64
 72
    63
 73
    62
  0
VERTEX
  5
E9
  8
0
 62
     9
 10
0.0
 20
0.0
 30
0.0
 70
   128
 71
    67
 72
    66
 73
    65
  0
VERTEX
  5
EA
  8
0
 62
     9
 10
0.0
 20
0.0
 30
0.0
 70
   128
 71
    65
 72
    60
 73
    68
  0
VERTEX
  5
EB
  8
0
 62
     9
 10
0.0
 20
0.0
 30
0.0
 70
   128
 71
    71
 72
    70
 73
    69
  0
VERTEX
  5
EC
  8
0
 62
     9
 10
0.0
 20
0.0
 30
0.0
 70
   128
 71
    69
 72
    66
 73
    71
  0
VERTEX
  5
ED
  8
0
 62
     9
 10
0.0
 20
0.0
 30
0.0
 70
   128
 71
    73
 72
    70
 73
    72
  0
VERTEX
  5
EE
  8
0
 62
     9
 10
0.0
 20
0.0
 30
0.0
 70
   128
 71
    70
 72
    73
 73
    69
  0
VERTEX
  5
EF
  8
0
 62
     9
 10
0.0
 20
0.0
 30
0.0
 70
   128
 71
    38
 72
    51
 73
    72
  0
VERTEX
  5
F0
  8
0
 62
     9
 10
0.0
 20
0.0
 30
0.0
 70
   128
 71
    73
 72
    72
 73
    51
  0
VERTEX
  5
F1
  8
0
 62
     9
 10
0.0
 20
0.0
 30
0.0
 70
   128
 71
    65
 72
    68
 73
    67
  0
VERTEX
  5
F2
  8
0
 62
     9
 10
0.0
 20
0.0
 30
0.0
 70
   128
 71
    71
 72
    66
 73
    67
  0
VERTEX
  5
F3
  8
0
 62
     9
 10
0.0
 20
0.0
 30
0.0
 70
   128
 71
    59
 72
    64
 73
    61
  0
VERTEX
  5
F4
  8
0
 62
     9
 10
0.0
 20
0.0
 30
0.0
 70
   128
 71
    68
 72
    60
 73
    61
  0
VERTEX
  5
F5
  8
0
 62
     9
 10
0.0
 20
0.0
 30
0.0
 70
   128
 71
    62
 72
    63
 73
    53
  0
VERTEX
  5
F6
  8
0
 62
     9
 10
0.0
 20
0.0
 30
0.0
 70
   128
 71
    64
 72
    59
 73
    63
  0
VERTEX
  5
F7
  8
0
 62
     9
 10
0.0
 20
0.0
 30
0.0
 70
   128
 71
    56
 72
    54
 73
    55
  0
VERTEX
  5
F8
  8
0
 62
     9
 10
0.0
 20
0.0
 30
0.0
 70
   128
 71
    54
 72
    62
 73
    53
  0
VERTEX
  5
F9
  8
0
 62
     9
 10
0.0
 20
0.0
 30
0.0
 70
   128
 71
    74
 72
    57
 73
    58
  0
VERTEX
  5
FA
  8
0
 62
     9
 10
0.0
 20
0.0
 30
0.0
 70
   128
 71
    58
 72
    56
 73
    55
  0
VERTEX
  5
FB
  8
0
 62
     9
 10
0.0
 20
0.0
 30
0.0
 70
   128
 71
    52
 72
    74
 73
    45
  0
VERTEX
  5
FC
  8
0
 62
     9
 10
0.0
 20
0.0
 30
0.0
 70
   128
 71
    74
 72
    52
 73
    57
  0
VERTEX
  5
FD
  8
0
 62
     9
 10
0.0
 20
0.0
 30
0.0
 70
   128
 71
    12
 72
    75
 73
    52
  0
VERTEX
  5
FE
  8
0
 62
     9
 10
0.0
 20
0.0
 30
0.0
 70
   128
 71
    56
 72
    57
 73
    76
  0
VERTEX
  5
FF
  8
0
 62
     9
 10
0.0
 20
0.0
 30
0.0
 70
   128
 71
    78
 72
    64
 73
    77
  0
VERTEX
  5
100
  8
0
 62
     9
 10
0.0
 20
0.0
 30
0.0
 70
   128
 71
    54
 72
    79
 73
    62
  0
VERTEX
  5
101
  8
0
 62
     9
 10
0.0
 20
0.0
 30
0.0
 70
   128
 71
    67
 72
    68
 73
    80
  0
VERTEX
  5
102
  8
0
 62
     9
 10
0.0
 20
0.0
 30
0.0
 70
   128
 71
    61
 72
    81
 73
    68
  0
VERTEX
  5
103
  8
0
 62
     9
 10
0.0
 20
0.0
 30
0.0
 70
   128
 71
    70
 72
    71
 73
    82
  0
VERTEX
  5
104
  8
0
 62
     9
 10
0.0
 20
0.0
 30
0.0
 70
   128
 71
    83
 72
    82
 73
    71
  0
VERTEX
  5
105
  8
0
 62
     9
 10
0.0
 20
0.0
 30
0.0
 70
   128
 71
    84
 72
    72
 73
    70
  0
VERTEX
  5
106
  8
0
 62
     9
 10
0.0
 20
0.0
 30
0.0
 70
   128
 71
    70
 72
    82
 73
    84
  0
VERTEX
  5
107
  8
0
 62
     9
 10
0.0
 20
0.0
 30
0.0
 70
   128
 71
    72
 72
    85
 73
    38
  0
VERTEX
  5
108
  8
0
 62
     9
 10
0.0
 20
0.0
 30
0.0
 70
   128
 71
    85
 72
    72
 73
    84
  0
VERTEX
  5
109
  8
0
 62
     9
 10
0.0
 20
0.0
 30
0.0
 70
   128
 71
    83
 72
    71
 73
    67
  0
VERTEX
  5
10A
  8
0
 62
     9
 10
0.0
 20
0.0
 30
0.0
 70
   128
 71
    85
 72
    24
 73
    38
  0
VERTEX
  5
10B
  8
0
 62
     9
 10
0.0
 20
0.0
 30
0.0
 70
   128
 71
    83
 72
    67
 73
    80
  0
VERTEX
  5
10C
  8
0
 62
     9
 10
0.0
 20
0.0
 30
0.0
 70
   128
 71
    77
 72
    64
 73
    62
  0
VERTEX
  5
10D
  8
0
 62
     9
 10
0.0
 20
0.0
 30
0.0
 70
   128
 71
    68
 72
    81
 73
    80
  0
VERTEX
  5
10E
  8
0
 62
     9
 10
0.0
 20
0.0
 30
0.0
 70
   128
 71
    78
 72
    61
 73
    64
  0
VERTEX
  5
10F
  8
0
 62
     9
 10
0.0
 20
0.0
 30
0.0
 70
   128
 71
    81
 72
    61
 73
    78
  0
VERTEX
  5
110
  8
0
 62
     9
 10
0.0
 20
0.0
 30
0.0
 70
   128
 71
    12
 72
    52
 73
    31
  0
VERTEX
  5
111
  8
0
 62
     9
 10
0.0
 20
0.0
 30
0.0
 70
   128
 71
    86
 72
    79
 73
    54
  0
VERTEX
  5
112
  8
0
 62
     9
 10
0.0
 20
0.0
 30
0.0
 70
   128
 71
    79
 72
    77
 73
    62
  0
VERTEX
  5
113
  8
0
 62
     9
 10
0.0
 20
0.0
 30
0.0
 70
   128
 71
    56
 72
    76
 73
    86
  0
VERTEX
  5
114
  8
0
 62
     9
 10
0.0
 20
0.0
 30
0.0
 70
   128
 71
    56
 72
    86
 73
    54
  0
VERTEX
  5
115
  8
0
 62
     9
 10
0.0
 20
0.0
 30
0.0
 70
   128
 71
    57
 72
    52
 73
    75
  0
VERTEX
  5
116
  8
0
 62
     9
 10
0.0
 20
0.0
 30
0.0
 70
   128
 71
    57
 72
    75
 73
    76
  0
VERTEX
  5
117
  8
0
 62
     9
 10
0.0
 20
0.0
 30
0.0
 70
   128
 71
    11
 72
    87
 73
    75
  0
VERTEX
  5
118
  8
0
 62
     9
 10
0.0
 20
0.0
 30
0.0
 70
   128
 71
    86
 72
    89
 73
    88
  0
VERTEX
  5
119
  8
0
 62
     9
 10
0.0
 20
0.0
 30
0.0
 70
   128
 71
    80
 72
    81
 73
    90
  0
VERTEX
  5
11A
  8
0
 62
     9
 10
0.0
 20
0.0
 30
0.0
 70
   128
 71
    77
 72
    91
 73
    78
  0
VERTEX
  5
11B
  8
0
 62
     9
 10
0.0
 20
0.0
 30
0.0
 70
   128
 71
    84
 72
    82
 73
    92
  0
VERTEX
  5
11C
  8
0
 62
     9
 10
0.0
 20
0.0
 30
0.0
 70
   128
 71
    83
 72
    93
 73
    82
  0
VERTEX
  5
11D
  8
0
 62
     9
 10
0.0
 20
0.0
 30
0.0
 70
   128
 71
    94
 72
    85
 73
    84
  0
VERTEX
  5
11E
  8
0
 62
     9
 10
0.0
 20
0.0
 30
0.0
 70
   128
 71
    84
 72
    92
 73
    94
  0
VERTEX
  5
11F
  8
0
 62
     9
 10
0.0
 20
0.0
 30
0.0
 70
   128
 71
    85
 72
    23
 73
    24
  0
VERTEX
  5
120
  8
0
 62
     9
 10
0.0
 20
0.0
 30
0.0
 70
   128
 71
    23
 72
    85
 73
    94
  0
VERTEX
  5
121
  8
0
 62
     9
 10
0.0
 20
0.0
 30
0.0
 70
   128
 71
    95
 72
    81
 73
    78
  0
VERTEX
  5
122
  8
0
 62
     9
 10
0.0
 20
0.0
 30
0.0
 70
   128
 71
    83
 72
    90
 73
    93
  0
VERTEX
  5
123
  8
0
 62
     9
 10
0.0
 20
0.0
 30
0.0
 70
   128
 71
    92
 72
    82
 73
    93
  0
VERTEX
  5
124
  8
0
 62
     9
 10
0.0
 20
0.0
 30
0.0
 70
   128
 71
    81
 72
    95
 73
    90
  0
VERTEX
  5
125
  8
0
 62
     9
 10
0.0
 20
0.0
 30
0.0
 70
   128
 71
    90
 72
    83
 73
    80
  0
VERTEX
  5
126
  8
0
 62
     9
 10
0.0
 20
0.0
 30
0.0
 70
   128
 71
    87
 72
    89
 73
    76
  0
VERTEX
  5
127
  8
0
 62
     9
 10
0.0
 20
0.0
 30
0.0
 70
   128
 71
    91
 72
    95
 73
    78
  0
VERTEX
  5
128
  8
0
 62
     9
 10
0.0
 20
0.0
 30
0.0
 70
   128
 71
    91
 72
    77
 73
    88
  0
VERTEX
  5
129
  8
0
 62
     9
 10
0.0
 20
0.0
 30
0.0
 70
   128
 71
    79
 72
    86
 73
    88
  0
VERTEX
  5
12A
  8
0
 62
     9
 10
0.0
 20
0.0
 30
0.0
 70
   128
 71
    79
 72
    88
 73
    77
  0
VERTEX
  5
12B
  8
0
 62
     9
 10
0.0
 20
0.0
 30
0.0
 70
   128
 71
    89
 72
    86
 73
    76
  0
VERTEX
  5
12C
  8
0
 62
     9
 10
0.0
 20
0.0
 30
0.0
 70
   128
 71
    75
 72
    12
 73
    11
  0
VERTEX
  5
12D
  8
0
 62
     9
 10
0.0
 20
0.0
 30
0.0
 70
   128
 71
    76
 72
    75
 73
    87
  0
VERTEX
  5
12E
  8
0
 62
     9
 10
0.0
 20
0.0
 30
0.0
 70
   128
 71
    88
 72
    89
 73
    91
  0
VERTEX
  5
12F
  8
0
 62
     9
 10
0.0
 20
0.0
 30
0.0
 70
   128
 71
    92
 72
    11
 73
     7
  0
VERTEX
  5
130
  8
0
 62
     9
 10
0.0
 20
0.0
 30
0.0
 70
   128
 71
    89
 72
    95
 73
    91
  0
VERTEX
  5
131
  8
0
 62
     9
 10
0.0
 20
0.0
 30
0.0
 70
   128
 71
    87
 72
    90
 73
    89
  0
VERTEX
  5
132
  8
0
 62
     9
 10
0.0
 20
0.0
 30
0.0
 70
   128
 71
    95
 72
    89
 73
    90
  0
VERTEX
  5
133
  8
0
 62
     9
 10
0.0
 20
0.0
 30
0.0
 70
   128
 71
    87
 72
    11
 73
    93
  0
VERTEX
  5
134
  8
0
 62
     9
 10
0.0
 20
0.0
 30
0.0
 70
   128
 71
    93
 72
    90
 73
    87
  0
VERTEX
  5
135
  8
0
 62
     9
 10
0.0
 20
0.0
 30
0.0
 70
   128
 71
    93
 72
    11
 73
    92
  0
VERTEX
  5
136
  8
0
 62
     9
 10
0.0
 20
0.0
 30
0.0
 70
   128
 71
    92
 72
     7
 73
    94
  0
VERTEX
  5
137
  8
0
 62
     9
 10
0.0
 20
0.0
 30
0.0
 70
   128
 71
     8
 72
    23
 73
    94
  0
VERTEX
  5
138
  8
0
 62
     9
 10
0.0
 20
0.0
 30
0.0
 70
   128
 71
    94
 72
     7
 73
     8
  0
VERTEX
  5
139
  8
0
 62
     9
 10
0.0
 20
0.0
 30
0.0
 70
   128
 71
     1
 72
    21
 73
     3
  0
VERTEX
  5
13A
  8
0
 62
     9
 10
0.0
 20
0.0
 30
0.0
 70
   128
 71
     3
 72
    23
 73
     8
  0
VERTEX
  5
13B
  8
0
 62
     9
 10
0.0
 20
0.0
 30
0.0
 70
   128
 71
    18
 72
    19
 73
     9
  0
VERTEX
  5
13C
  8
0
 62
     9
 10
0.0
 20
0.0
 30
0.0
 70
   128
 71
     1
 72
     9
 73
    19
  0
VERTEX
  5
13D
  8
0
 62
     9
 10
0.0
 20
0.0
 30
0.0
 70
   128
 71
    15
 72
    18
 73
     9
  0
VERTEX
  5
13E
  8
0
 62
     9
 10
0.0
 20
0.0
 30
0.0
 70
   128
 71
    21
 72
    23
 73
     3
  0
VERTEX
  5
13F
  8
0
 62
     9
 10
0.0
 20
0.0
 30
0.0
 70
   128
 71
    21
 72
     1
 73
    19
  0
SEQEND
  5
140
  8
0
 62
     9
  0
ENDBLK
  5
144
  8
0
  0
BLOCK
  8
0
  2
39
 70
     0
 10
0.0
 20
0.0
 30
0.0
  3
39
  1

  0
POLYLINE
  5
146
  8
0
 62
     9
 66
     1
 10
0.0
 20
0.0
 30
0.0
 70
    64
 71
   105
 72
   198
  0
VERTEX
  5
147
  8
0
 10
-44.11505508422852
 20
1.736973524093628
 30
59.66426086425781
 70
   192
  0
VERTEX
  5
148
  8
0
 10
-32.74468231201172
 20
1.009989738464355
 30
60.41034698486328
 70
   192
  0
VERTEX
  5
149
  8
0
 10
-44.11505508422852
 20
0.968660295009613
 30
60.42121505737305
 70
   192
  0
VERTEX
  5
14A
  8
0
 10
-32.74468231201172
 20
2.0
 30
58.67621231079102
 70
   192
  0
VERTEX
  5
14B
  8
0
 10
-44.11505508422852
 20
1.745004415512085
 30
57.70755004882812
 70
   192
  0
VERTEX
  5
14C
  8
0
 10
-32.74468231201172
 20
1.718164563179016
 30
57.67056655883789
 70
   192
  0
VERTEX
  5
14D
  8
0
 10
-32.74468231201172
 20
0.0000000000000012
 30
60.67621231079102
 70
   192
  0
VERTEX
  5
14E
  8
0
 10
-44.11505508422852
 20
0.0000000000000012
 30
60.67621231079102
 70
   192
  0
VERTEX
  5
14F
  8
0
 10
-32.74468231201172
 20
1.732784867286682
 30
59.67082214355469
 70
   192
  0
VERTEX
  5
150
  8
0
 10
-44.11505508422852
 20
2.0
 30
58.67621231079102
 70
   192
  0
VERTEX
  5
151
  8
0
 10
-32.74468231201172
 20
0.9862242937088013
 30
56.94702529907227
 70
   192
  0
VERTEX
  5
152
  8
0
 10
-44.11505508422852
 20
0.9880486726760864
 30
56.93923568725586
 70
   192
  0
VERTEX
  5
153
  8
0
 10
-32.74468231201172
 20
0.000000000000001
 30
56.67621231079102
 70
   192
  0
VERTEX
  5
154
  8
0
 10
-44.11505508422852
 20
0.000000000000001
 30
56.67621231079102
 70
   192
  0
VERTEX
  5
155
  8
0
 10
-29.73514175415039
 20
1.855999946594238
 30
57.86277008056641
 70
   192
  0
VERTEX
  5
156
  8
0
 10
-30.95389366149902
 20
1.811692357063293
 30
56.977294921875
 70
   192
  0
VERTEX
  5
157
  8
0
 10
-29.89151382446289
 20
2.0
 30
56.6032600402832
 70
   192
  0
VERTEX
  5
158
  8
0
 10
-31.53606796264648
 20
0.9862242937088013
 30
56.06891250610352
 70
   192
  0
VERTEX
  5
159
  8
0
 10
-31.73851585388184
 20
0.9304615259170532
 30
56.40723419189453
 70
   192
  0
VERTEX
  5
15A
  8
0
 10
-31.97526359558105
 20
0.0000000000000012
 30
56.23522567749023
 70
   192
  0
VERTEX
  5
15B
  8
0
 10
-28.94558334350586
 20
1.732784867286682
 30
56.91061401367188
 70
   192
  0
VERTEX
  5
15C
  8
0
 10
-28.24225425720215
 20
1.009989738464355
 30
57.13913726806641
 70
   192
  0
VERTEX
  5
15D
  8
0
 10
-28.89276695251465
 20
0.9698461294174194
 30
58.47479248046875
 70
   192
  0
VERTEX
  5
15E
  8
0
 10
-27.98940086364746
 20
0.000000000000001
 30
57.22129440307617
 70
   192
  0
VERTEX
  5
15F
  8
0
 10
-28.69959831237793
 20
0.000000000000001
 30
58.61513519287109
 70
   192
  0
VERTEX
  5
160
  8
0
 10
-29.92466735839844
 20
0.8577597141265869
 30
59.55763244628906
 70
   192
  0
VERTEX
  5
161
  8
0
 10
-29.80575752258301
 20
0.000000000000001
 30
59.72129440307617
 70
   192
  0
VERTEX
  5
162
  8
0
 10
-30.84793853759766
 20
1.718164563179016
 30
56.29249954223633
 70
   192
  0
VERTEX
  5
163
  8
0
 10
-31.23830413818359
 20
1.949759006500244
 30
57.74956512451172
 70
   192
  0
VERTEX
  5
164
  8
0
 10
-31.71173286437988
 20
1.567879319190979
 30
57.09794616699219
 70
   192
  0
VERTEX
  5
165
  8
0
 10
-32.15689849853516
 20
0.0000000000000012
 30
56.48522567749023
 70
   192
  0
VERTEX
  5
166
  8
0
 10
-32.04335403442383
 20
0.8750741481781006
 30
56.64151000976562
 70
   192
  0
VERTEX
  5
167
  8
0
 10
-31.79362678527832
 20
0.0000000000000012
 30
55.98522567749023
 70
   192
  0
VERTEX
  5
168
  8
0
 10
-30.71458435058594
 20
1.943439602851868
 30
58.47040176391602
 70
   192
  0
VERTEX
  5
169
  8
0
 10
-30.24726295471191
 20
1.549447774887085
 30
59.11361694335938
 70
   192
  0
VERTEX
  5
16A
  8
0
 10
-31.59514045715332
 20
1.855999946594238
 30
59.21414184570312
 70
   192
  0
VERTEX
  5
16B
  8
0
 10
-32.06066131591797
 20
1.811692357063293
 30
57.78141021728516
 70
   192
  0
VERTEX
  5
16C
  8
0
 10
-32.3603630065918
 20
0.9304615259170532
 30
56.85903167724609
 70
   192
  0
VERTEX
  5
16D
  8
0
 10
-32.45079040527344
 20
0.0000000000000012
 30
56.58071899414062
 70
   192
  0
VERTEX
  5
16E
  8
0
 10
-31.27338218688965
 20
0.9698461294174194
 30
60.20441055297852
 70
   192
  0
VERTEX
  5
16F
  8
0
 10
-31.19959831237793
 20
0.000000000000001
 30
60.43149185180664
 70
   192
  0
VERTEX
  5
170
  8
0
 10
-30.24726295471191
 20
-1.549447774887085
 30
59.11361694335938
 70
   192
  0
VERTEX
  5
171
  8
0
 10
-31.27490425109863
 20
-0.9304615259170532
 30
60.19972610473633
 70
   192
  0
VERTEX
  5
172
  8
0
 10
-29.92466735839844
 20
-0.8577597141265869
 30
59.55763244628906
 70
   192
  0
VERTEX
  5
173
  8
0
 10
-31.57460403442383
 20
-1.811692357063293
 30
59.27734756469727
 70
   192
  0
VERTEX
  5
174
  8
0
 10
-32.04012680053711
 20
-1.855999946594238
 30
57.84461975097656
 70
   192
  0
VERTEX
  5
175
  8
0
 10
-32.74468231201172
 20
-2.0
 30
58.67621231079102
 70
   192
  0
VERTEX
  5
176
  8
0
 10
-32.74468231201172
 20
-1.009989738464355
 30
60.41034698486328
 70
   192
  0
VERTEX
  5
177
  8
0
 10
-32.36188507080078
 20
-0.9698461294174194
 30
56.85435104370117
 70
   192
  0
VERTEX
  5
178
  8
0
 10
-32.04335403442383
 20
-0.8750741481781006
 30
56.64151000976562
 70
   192
  0
VERTEX
  5
179
  8
0
 10
-31.71173286437988
 20
-1.567879319190979
 30
57.09794616699219
 70
   192
  0
VERTEX
  5
17A
  8
0
 10
-30.71458435058594
 20
-1.943439602851868
 30
58.47040176391602
 70
   192
  0
VERTEX
  5
17B
  8
0
 10
-31.23830413818359
 20
-1.949759006500244
 30
57.74956512451172
 70
   192
  0
VERTEX
  5
17C
  8
0
 10
-32.74468231201172
 20
-0.9862242937088013
 30
56.94702529907227
 70
   192
  0
VERTEX
  5
17D
  8
0
 10
-32.74468231201172
 20
-1.718164563179016
 30
57.67056655883789
 70
   192
  0
VERTEX
  5
17E
  8
0
 10
-32.74468231201172
 20
-1.732784867286682
 30
59.67082214355469
 70
   192
  0
VERTEX
  5
17F
  8
0
 10
-10.87755966186523
 20
1.895292162895203
 30
0.1036066710948944
 70
   192
  0
VERTEX
  5
180
  8
0
 10
-12.05284881591797
 20
1.900953054428101
 30
-0.2782679498195648
 70
   192
  0
VERTEX
  5
181
  8
0
 10
-9.93356990814209
 20
1.159116983413696
 30
0.4103274941444397
 70
   192
  0
VERTEX
  5
182
  8
0
 10
-9.56889820098877
 20
0.0000000000000012
 30
0.5288164615631104
 70
   192
  0
VERTEX
  5
183
  8
0
 10
-13.01098728179932
 20
1.185255765914917
 30
-0.5895861387252808
 70
   192
  0
VERTEX
  5
184
  8
0
 10
-13.37312412261963
 20
0.000000000000001
 30
-0.7072514891624451
 70
   192
  0
VERTEX
  5
185
  8
0
 10
-45.81657791137695
 20
-0.5130799412727356
 30
57.78546524047852
 70
   192
  0
VERTEX
  5
186
  8
0
 10
-45.81657791137695
 20
-0.890746533870697
 30
58.16313171386719
 70
   192
  0
VERTEX
  5
187
  8
0
 10
-45.1499137878418
 20
-1.464575886726379
 30
57.83259963989258
 70
   192
  0
VERTEX
  5
188
  8
0
 10
-44.11505508422852
 20
-1.010265946388245
 30
56.94210815429688
 70
   192
  0
VERTEX
  5
189
  8
0
 10
-45.1499137878418
 20
-0.843612015247345
 30
57.21163558959961
 70
   192
  0
VERTEX
  5
18A
  8
0
 10
-44.11505508422852
 20
-1.730574727058411
 30
57.68133163452148
 70
   192
  0
VERTEX
  5
18B
  8
0
 10
-46.11505508422852
 20
0.0000000000000006
 30
58.67621231079102
 70
   192
  0
VERTEX
  5
18C
  8
0
 10
-45.85203170776367
 20
0.0000000000062242
 30
57.68815994262695
 70
   192
  0
VERTEX
  5
18D
  8
0
 10
-44.11505508422852
 20
-2.0
 30
58.67621231079102
 70
   192
  0
VERTEX
  5
18E
  8
0
 10
-45.10310363769531
 20
-1.736973524093628
 30
58.67621231079102
 70
   192
  0
VERTEX
  5
18F
  8
0
 10
-45.08371734619141
 20
0.0000000000056463
 30
56.93120574951172
 70
   192
  0
VERTEX
  5
190
  8
0
 10
-45.86006164550781
 20
-0.968660295009613
 30
58.67621231079102
 70
   192
  0
VERTEX
  5
191
  8
0
 10
-45.81657791137695
 20
0.890746533870697
 30
58.16313171386719
 70
   192
  0
VERTEX
  5
192
  8
0
 10
-45.81657791137695
 20
0.5130799412727356
 30
57.78546524047852
 70
   192
  0
VERTEX
  5
193
  8
0
 10
-45.1499137878418
 20
0.843612015247345
 30
57.21163558959961
 70
   192
  0
VERTEX
  5
194
  8
0
 10
-45.1499137878418
 20
1.464575886726379
 30
57.83259963989258
 70
   192
  0
VERTEX
  5
195
  8
0
 10
-45.85203170776367
 20
0.9880486726760864
 30
58.67621231079102
 70
   192
  0
VERTEX
  5
196
  8
0
 10
-45.08371734619141
 20
1.745004415512085
 30
58.67621231079102
 70
   192
  0
VERTEX
  5
197
  8
0
 10
-45.81657791137695
 20
0.5130799412727356
 30
59.56695556640625
 70
   192
  0
VERTEX
  5
198
  8
0
 10
-45.81657791137695
 20
0.890746533870697
 30
59.18928909301758
 70
   192
  0
VERTEX
  5
199
  8
0
 10
-45.1499137878418
 20
1.464575886726379
 30
59.51982116699219
 70
   192
  0
VERTEX
  5
19A
  8
0
 10
-45.1499137878418
 20
0.843612015247345
 30
60.14078521728516
 70
   192
  0
VERTEX
  5
19B
  8
0
 10
-45.85203170776367
 20
0.000000000002091
 30
59.66426086425781
 70
   192
  0
VERTEX
  5
19C
  8
0
 10
-45.08371734619141
 20
0.0000000000016713
 30
60.42121505737305
 70
   192
  0
VERTEX
  5
19D
  8
0
 10
-45.1499137878418
 20
-0.843612015247345
 30
60.14078521728516
 70
   192
  0
VERTEX
  5
19E
  8
0
 10
-45.81657791137695
 20
-0.890746533870697
 30
59.18928909301758
 70
   192
  0
VERTEX
  5
19F
  8
0
 10
-45.81657791137695
 20
-0.5130799412727356
 30
59.56695556640625
 70
   192
  0
VERTEX
  5
1A0
  8
0
 10
-45.1499137878418
 20
-1.464575886726379
 30
59.51982116699219
 70
   192
  0
VERTEX
  5
1A1
  8
0
 10
-44.11505508422852
 20
-0.9862242937088013
 30
60.4053955078125
 70
   192
  0
VERTEX
  5
1A2
  8
0
 10
-44.11505508422852
 20
-1.718164563179016
 30
59.68185424804688
 70
   192
  0
VERTEX
  5
1A3
  8
0
 10
-28.24225425720215
 20
-1.009989738464355
 30
57.13913726806641
 70
   192
  0
VERTEX
  5
1A4
  8
0
 10
-30.84793853759766
 20
-1.718164563179016
 30
56.29249954223633
 70
   192
  0
VERTEX
  5
1A5
  8
0
 10
-29.89151382446289
 20
-2.0
 30
56.6032600402832
 70
   192
  0
VERTEX
  5
1A6
  8
0
 10
-12.06446361541748
 20
-1.895292162895203
 30
-0.2820416986942291
 70
   192
  0
VERTEX
  5
1A7
  8
0
 10
-28.94558334350586
 20
-1.732784867286682
 30
56.91061401367188
 70
   192
  0
VERTEX
  5
1A8
  8
0
 10
-10.88917446136475
 20
-1.900953054428101
 30
0.0998329222202301
 70
   192
  0
VERTEX
  5
1A9
  8
0
 10
-31.53606796264648
 20
-0.9862242937088013
 30
56.06891250610352
 70
   192
  0
VERTEX
  5
1AA
  8
0
 10
-13.00845241546631
 20
-1.159116983413696
 30
-0.5887625217437744
 70
   192
  0
VERTEX
  5
1AB
  8
0
 10
-9.931035041809082
 20
-1.185255765914917
 30
0.411151111125946
 70
   192
  0
VERTEX
  5
1AC
  8
0
 10
-29.68137168884277
 20
-1.811692357063293
 30
57.90183639526367
 70
   192
  0
VERTEX
  5
1AD
  8
0
 10
-28.89674949645996
 20
-0.9304615259170532
 30
58.47189712524414
 70
   192
  0
VERTEX
  5
1AE
  8
0
 10
-30.90012550354004
 20
-1.855999946594238
 30
57.01636123657227
 70
   192
  0
VERTEX
  5
1AF
  8
0
 10
-31.74249839782715
 20
-0.9698461294174194
 30
56.40433883666992
 70
   192
  0
VERTEX
  5
1B0
  8
0
 62
     9
 10
0.0
 20
0.0
 30
0.0
 70
   128
 71
     3
 72
     2
 73
     1
  0
VERTEX
  5
1B1
  8
0
 62
     9
 10
0.0
 20
0.0
 30
0.0
 70
   128
 71
     6
 72
     5
 73
     4
  0
VERTEX
  5
1B2
  8
0
 62
     9
 10
0.0
 20
0.0
 30
0.0
 70
   128
 71
     7
 72
     2
 73
     3
  0
VERTEX
  5
1B3
  8
0
 62
     9
 10
0.0
 20
0.0
 30
0.0
 70
   128
 71
     8
 72
     7
 73
     3
  0
VERTEX
  5
1B4
  8
0
 62
     9
 10
0.0
 20
0.0
 30
0.0
 70
   128
 71
     2
 72
     9
 73
     1
  0
VERTEX
  5
1B5
  8
0
 62
     9
 10
0.0
 20
0.0
 30
0.0
 70
   128
 71
    10
 72
     9
 73
     4
  0
VERTEX
  5
1B6
  8
0
 62
     9
 10
0.0
 20
0.0
 30
0.0
 70
   128
 71
     9
 72
    10
 73
     1
  0
VERTEX
  5
1B7
  8
0
 62
     9
 10
0.0
 20
0.0
 30
0.0
 70
   128
 71
    12
 72
     6
 73
    11
  0
VERTEX
  5
1B8
  8
0
 62
     9
 10
0.0
 20
0.0
 30
0.0
 70
   128
 71
    14
 72
    11
 73
    13
  0
VERTEX
  5
1B9
  8
0
 62
     9
 10
0.0
 20
0.0
 30
0.0
 70
   128
 71
     5
 72
     6
 73
    12
  0
VERTEX
  5
1BA
  8
0
 62
     9
 10
0.0
 20
0.0
 30
0.0
 70
   128
 71
    14
 72
    12
 73
    11
  0
VERTEX
  5
1BB
  8
0
 62
     9
 10
0.0
 20
0.0
 30
0.0
 70
   128
 71
     5
 72
    10
 73
     4
  0
VERTEX
  5
1BC
  8
0
 62
     9
 10
0.0
 20
0.0
 30
0.0
 70
   128
 71
    17
 72
    16
 73
    15
  0
VERTEX
  5
1BD
  8
0
 62
     9
 10
0.0
 20
0.0
 30
0.0
 70
   128
 71
    20
 72
    19
 73
    18
  0
VERTEX
  5
1BE
  8
0
 62
     9
 10
0.0
 20
0.0
 30
0.0
 70
   128
 71
    15
 72
    22
 73
    21
  0
VERTEX
  5
1BF
  8
0
 62
     9
 10
0.0
 20
0.0
 30
0.0
 70
   128
 71
    17
 72
    15
 73
    21
  0
VERTEX
  5
1C0
  8
0
 62
     9
 10
0.0
 20
0.0
 30
0.0
 70
   128
 71
    24
 72
    22
 73
    23
  0
VERTEX
  5
1C1
  8
0
 62
     9
 10
0.0
 20
0.0
 30
0.0
 70
   128
 71
    23
 72
    26
 73
    25
  0
VERTEX
  5
1C2
  8
0
 62
     9
 10
0.0
 20
0.0
 30
0.0
 70
   128
 71
    23
 72
    25
 73
    24
  0
VERTEX
  5
1C3
  8
0
 62
     9
 10
0.0
 20
0.0
 30
0.0
 70
   128
 71
    27
 72
    25
 73
    26
  0
VERTEX
  5
1C4
  8
0
 62
     9
 10
0.0
 20
0.0
 30
0.0
 70
   128
 71
    17
 72
    28
 73
    16
  0
VERTEX
  5
1C5
  8
0
 62
     9
 10
0.0
 20
0.0
 30
0.0
 70
   128
 71
    16
 72
    29
 73
    15
  0
VERTEX
  5
1C6
  8
0
 62
     9
 10
0.0
 20
0.0
 30
0.0
 70
   128
 71
    29
 72
    16
 73
    30
  0
VERTEX
  5
1C7
  8
0
 62
     9
 10
0.0
 20
0.0
 30
0.0
 70
   128
 71
    28
 72
    19
 73
    16
  0
VERTEX
  5
1C8
  8
0
 62
     9
 10
0.0
 20
0.0
 30
0.0
 70
   128
 71
    20
 72
    31
 73
    19
  0
VERTEX
  5
1C9
  8
0
 62
     9
 10
0.0
 20
0.0
 30
0.0
 70
   128
 71
    32
 72
    19
 73
    31
  0
VERTEX
  5
1CA
  8
0
 62
     9
 10
0.0
 20
0.0
 30
0.0
 70
   128
 71
    33
 72
    20
 73
    18
  0
VERTEX
  5
1CB
  8
0
 62
     9
 10
0.0
 20
0.0
 30
0.0
 70
   128
 71
    19
 72
    32
 73
    30
  0
VERTEX
  5
1CC
  8
0
 62
     9
 10
0.0
 20
0.0
 30
0.0
 70
   128
 71
    18
 72
    19
 73
    28
  0
VERTEX
  5
1CD
  8
0
 62
     9
 10
0.0
 20
0.0
 30
0.0
 70
   128
 71
    16
 72
    19
 73
    30
  0
VERTEX
  5
1CE
  8
0
 62
     9
 10
0.0
 20
0.0
 30
0.0
 70
   128
 71
    34
 72
    15
 73
    29
  0
VERTEX
  5
1CF
  8
0
 62
     9
 10
0.0
 20
0.0
 30
0.0
 70
   128
 71
    35
 72
    15
 73
    34
  0
VERTEX
  5
1D0
  8
0
 62
     9
 10
0.0
 20
0.0
 30
0.0
 70
   128
 71
    26
 72
    23
 73
    35
  0
VERTEX
  5
1D1
  8
0
 62
     9
 10
0.0
 20
0.0
 30
0.0
 70
   128
 71
    23
 72
    15
 73
    35
  0
VERTEX
  5
1D2
  8
0
 62
     9
 10
0.0
 20
0.0
 30
0.0
 70
   128
 71
    15
 72
    23
 73
    22
  0
VERTEX
  5
1D3
  8
0
 62
     9
 10
0.0
 20
0.0
 30
0.0
 70
   128
 71
    34
 72
    37
 73
    36
  0
VERTEX
  5
1D4
  8
0
 62
     9
 10
0.0
 20
0.0
 30
0.0
 70
   128
 71
    39
 72
    38
 73
    32
  0
VERTEX
  5
1D5
  8
0
 62
     9
 10
0.0
 20
0.0
 30
0.0
 70
   128
 71
    26
 72
    35
 73
    40
  0
VERTEX
  5
1D6
  8
0
 62
     9
 10
0.0
 20
0.0
 30
0.0
 70
   128
 71
    35
 72
    36
 73
    40
  0
VERTEX
  5
1D7
  8
0
 62
     9
 10
0.0
 20
0.0
 30
0.0
 70
   128
 71
    27
 72
    40
 73
    41
  0
VERTEX
  5
1D8
  8
0
 62
     9
 10
0.0
 20
0.0
 30
0.0
 70
   128
 71
    26
 72
    40
 73
    27
  0
VERTEX
  5
1D9
  8
0
 62
     9
 10
0.0
 20
0.0
 30
0.0
 70
   128
 71
     7
 72
    41
 73
     2
  0
VERTEX
  5
1DA
  8
0
 62
     9
 10
0.0
 20
0.0
 30
0.0
 70
   128
 71
    34
 72
    29
 73
    37
  0
VERTEX
  5
1DB
  8
0
 62
     9
 10
0.0
 20
0.0
 30
0.0
 70
   128
 71
    35
 72
    34
 73
    36
  0
VERTEX
  5
1DC
  8
0
 62
     9
 10
0.0
 20
0.0
 30
0.0
 70
   128
 71
    37
 72
    30
 73
    38
  0
VERTEX
  5
1DD
  8
0
 62
     9
 10
0.0
 20
0.0
 30
0.0
 70
   128
 71
     9
 72
    36
 73
     4
  0
VERTEX
  5
1DE
  8
0
 62
     9
 10
0.0
 20
0.0
 30
0.0
 70
   128
 71
    39
 72
    13
 73
    38
  0
VERTEX
  5
1DF
  8
0
 62
     9
 10
0.0
 20
0.0
 30
0.0
 70
   128
 71
    30
 72
    37
 73
    29
  0
VERTEX
  5
1E0
  8
0
 62
     9
 10
0.0
 20
0.0
 30
0.0
 70
   128
 71
    11
 72
    38
 73
    13
  0
VERTEX
  5
1E1
  8
0
 62
     9
 10
0.0
 20
0.0
 30
0.0
 70
   128
 71
    31
 72
    39
 73
    32
  0
VERTEX
  5
1E2
  8
0
 62
     9
 10
0.0
 20
0.0
 30
0.0
 70
   128
 71
    11
 72
     6
 73
    37
  0
VERTEX
  5
1E3
  8
0
 62
     9
 10
0.0
 20
0.0
 30
0.0
 70
   128
 71
    32
 72
    38
 73
    30
  0
VERTEX
  5
1E4
  8
0
 62
     9
 10
0.0
 20
0.0
 30
0.0
 70
   128
 71
    37
 72
    38
 73
    11
  0
VERTEX
  5
1E5
  8
0
 62
     9
 10
0.0
 20
0.0
 30
0.0
 70
   128
 71
    37
 72
     6
 73
     4
  0
VERTEX
  5
1E6
  8
0
 62
     9
 10
0.0
 20
0.0
 30
0.0
 70
   128
 71
    36
 72
    37
 73
     4
  0
VERTEX
  5
1E7
  8
0
 62
     9
 10
0.0
 20
0.0
 30
0.0
 70
   128
 71
     2
 72
    40
 73
     9
  0
VERTEX
  5
1E8
  8
0
 62
     9
 10
0.0
 20
0.0
 30
0.0
 70
   128
 71
    40
 72
    36
 73
     9
  0
VERTEX
  5
1E9
  8
0
 62
     9
 10
0.0
 20
0.0
 30
0.0
 70
   128
 71
    40
 72
     2
 73
    41
  0
VERTEX
  5
1EA
  8
0
 62
     9
 10
0.0
 20
0.0
 30
0.0
 70
   128
 71
    44
 72
    43
 73
    42
  0
VERTEX
  5
1EB
  8
0
 62
     9
 10
0.0
 20
0.0
 30
0.0
 70
   128
 71
    43
 72
    45
 73
    42
  0
VERTEX
  5
1EC
  8
0
 62
     9
 10
0.0
 20
0.0
 30
0.0
 70
   128
 71
    47
 72
    46
 73
    45
  0
VERTEX
  5
1ED
  8
0
 62
     9
 10
0.0
 20
0.0
 30
0.0
 70
   128
 71
     7
 72
    48
 73
    41
  0
VERTEX
  5
1EE
  8
0
 62
     9
 10
0.0
 20
0.0
 30
0.0
 70
   128
 71
    50
 72
    49
 73
    39
  0
VERTEX
  5
1EF
  8
0
 62
     9
 10
0.0
 20
0.0
 30
0.0
 70
   128
 71
    46
 72
    49
 73
    51
  0
VERTEX
  5
1F0
  8
0
 62
     9
 10
0.0
 20
0.0
 30
0.0
 70
   128
 71
    49
 72
    13
 73
    39
  0
VERTEX
  5
1F1
  8
0
 62
     9
 10
0.0
 20
0.0
 30
0.0
 70
   128
 71
    53
 72
    52
 73
    46
  0
VERTEX
  5
1F2
  8
0
 62
     9
 10
0.0
 20
0.0
 30
0.0
 70
   128
 71
    31
 72
    50
 73
    39
  0
VERTEX
  5
1F3
  8
0
 62
     9
 10
0.0
 20
0.0
 30
0.0
 70
   128
 71
    54
 72
    13
 73
    49
  0
VERTEX
  5
1F4
  8
0
 62
     9
 10
0.0
 20
0.0
 30
0.0
 70
   128
 71
    46
 72
    47
 73
    55
  0
VERTEX
  5
1F5
  8
0
 62
     9
 10
0.0
 20
0.0
 30
0.0
 70
   128
 71
    46
 72
    52
 73
    45
  0
VERTEX
  5
1F6
  8
0
 62
     9
 10
0.0
 20
0.0
 30
0.0
 70
   128
 71
    41
 72
    48
 73
    43
  0
VERTEX
  5
1F7
  8
0
 62
     9
 10
0.0
 20
0.0
 30
0.0
 70
   128
 71
    45
 72
    43
 73
    56
  0
VERTEX
  5
1F8
  8
0
 62
     9
 10
0.0
 20
0.0
 30
0.0
 70
   128
 71
    43
 72
    27
 73
    41
  0
VERTEX
  5
1F9
  8
0
 62
     9
 10
0.0
 20
0.0
 30
0.0
 70
   128
 71
    44
 72
    27
 73
    43
  0
VERTEX
  5
1FA
  8
0
 62
     9
 10
0.0
 20
0.0
 30
0.0
 70
   128
 71
    56
 72
    43
 73
    48
  0
VERTEX
  5
1FB
  8
0
 62
     9
 10
0.0
 20
0.0
 30
0.0
 70
   128
 71
    45
 72
    56
 73
    47
  0
VERTEX
  5
1FC
  8
0
 62
     9
 10
0.0
 20
0.0
 30
0.0
 70
   128
 71
    45
 72
    52
 73
    42
  0
VERTEX
  5
1FD
  8
0
 62
     9
 10
0.0
 20
0.0
 30
0.0
 70
   128
 71
    46
 72
    55
 73
    54
  0
VERTEX
  5
1FE
  8
0
 62
     9
 10
0.0
 20
0.0
 30
0.0
 70
   128
 71
    53
 72
    46
 73
    51
  0
VERTEX
  5
1FF
  8
0
 62
     9
 10
0.0
 20
0.0
 30
0.0
 70
   128
 71
    54
 72
    49
 73
    46
  0
VERTEX
  5
200
  8
0
 62
     9
 10
0.0
 20
0.0
 30
0.0
 70
   128
 71
    49
 72
    50
 73
    51
  0
VERTEX
  5
201
  8
0
 62
     9
 10
0.0
 20
0.0
 30
0.0
 70
   128
 71
    58
 72
    17
 73
    57
  0
VERTEX
  5
202
  8
0
 62
     9
 10
0.0
 20
0.0
 30
0.0
 70
   128
 71
    59
 72
    57
 73
    21
  0
VERTEX
  5
203
  8
0
 62
     9
 10
0.0
 20
0.0
 30
0.0
 70
   128
 71
    17
 72
    21
 73
    57
  0
VERTEX
  5
204
  8
0
 62
     9
 10
0.0
 20
0.0
 30
0.0
 70
   128
 71
    22
 72
    60
 73
    59
  0
VERTEX
  5
205
  8
0
 62
     9
 10
0.0
 20
0.0
 30
0.0
 70
   128
 71
    59
 72
    21
 73
    22
  0
VERTEX
  5
206
  8
0
 62
     9
 10
0.0
 20
0.0
 30
0.0
 70
   128
 71
    24
 72
    60
 73
    22
  0
VERTEX
  5
207
  8
0
 62
     9
 10
0.0
 20
0.0
 30
0.0
 70
   128
 71
    28
 72
    17
 73
    58
  0
VERTEX
  5
208
  8
0
 62
     9
 10
0.0
 20
0.0
 30
0.0
 70
   128
 71
    61
 72
    18
 73
    28
  0
VERTEX
  5
209
  8
0
 62
     9
 10
0.0
 20
0.0
 30
0.0
 70
   128
 71
    28
 72
    58
 73
    61
  0
VERTEX
  5
20A
  8
0
 62
     9
 10
0.0
 20
0.0
 30
0.0
 70
   128
 71
    62
 72
    18
 73
    61
  0
VERTEX
  5
20B
  8
0
 62
     9
 10
0.0
 20
0.0
 30
0.0
 70
   128
 71
    62
 72
    33
 73
    18
  0
VERTEX
  5
20C
  8
0
 62
     9
 10
0.0
 20
0.0
 30
0.0
 70
   128
 71
    65
 72
    64
 73
    63
  0
VERTEX
  5
20D
  8
0
 62
     9
 10
0.0
 20
0.0
 30
0.0
 70
   128
 71
    68
 72
    67
 73
    66
  0
VERTEX
  5
20E
  8
0
 62
     9
 10
0.0
 20
0.0
 30
0.0
 70
   128
 71
    70
 72
    63
 73
    69
  0
VERTEX
  5
20F
  8
0
 62
     9
 10
0.0
 20
0.0
 30
0.0
 70
   128
 71
    72
 72
    65
 73
    71
  0
VERTEX
  5
210
  8
0
 62
     9
 10
0.0
 20
0.0
 30
0.0
 70
   128
 71
    64
 72
    69
 73
    63
  0
VERTEX
  5
211
  8
0
 62
     9
 10
0.0
 20
0.0
 30
0.0
 70
   128
 71
    66
 72
    73
 73
    14
  0
VERTEX
  5
212
  8
0
 62
     9
 10
0.0
 20
0.0
 30
0.0
 70
   128
 71
    67
 72
    68
 73
    65
  0
VERTEX
  5
213
  8
0
 62
     9
 10
0.0
 20
0.0
 30
0.0
 70
   128
 71
    70
 72
    73
 73
    67
  0
VERTEX
  5
214
  8
0
 62
     9
 10
0.0
 20
0.0
 30
0.0
 70
   128
 71
    65
 72
    63
 73
    67
  0
VERTEX
  5
215
  8
0
 62
     9
 10
0.0
 20
0.0
 30
0.0
 70
   128
 71
    74
 72
    64
 73
    72
  0
VERTEX
  5
216
  8
0
 62
     9
 10
0.0
 20
0.0
 30
0.0
 70
   128
 71
    64
 72
    74
 73
    69
  0
VERTEX
  5
217
  8
0
 62
     9
 10
0.0
 20
0.0
 30
0.0
 70
   128
 71
    67
 72
    63
 73
    70
  0
VERTEX
  5
218
  8
0
 62
     9
 10
0.0
 20
0.0
 30
0.0
 70
   128
 71
    66
 72
    67
 73
    73
  0
VERTEX
  5
219
  8
0
 62
     9
 10
0.0
 20
0.0
 30
0.0
 70
   128
 71
    65
 72
    68
 73
    71
  0
VERTEX
  5
21A
  8
0
 62
     9
 10
0.0
 20
0.0
 30
0.0
 70
   128
 71
    65
 72
    72
 73
    64
  0
VERTEX
  5
21B
  8
0
 62
     9
 10
0.0
 20
0.0
 30
0.0
 70
   128
 71
    77
 72
    76
 73
    75
  0
VERTEX
  5
21C
  8
0
 62
     9
 10
0.0
 20
0.0
 30
0.0
 70
   128
 71
    12
 72
    78
 73
     5
  0
VERTEX
  5
21D
  8
0
 62
     9
 10
0.0
 20
0.0
 30
0.0
 70
   128
 71
    79
 72
    75
 73
    69
  0
VERTEX
  5
21E
  8
0
 62
     9
 10
0.0
 20
0.0
 30
0.0
 70
   128
 71
    73
 72
    77
 73
    14
  0
VERTEX
  5
21F
  8
0
 62
     9
 10
0.0
 20
0.0
 30
0.0
 70
   128
 71
    76
 72
    69
 73
    75
  0
VERTEX
  5
220
  8
0
 62
     9
 10
0.0
 20
0.0
 30
0.0
 70
   128
 71
     5
 72
    80
 73
    10
  0
VERTEX
  5
221
  8
0
 62
     9
 10
0.0
 20
0.0
 30
0.0
 70
   128
 71
    78
 72
    12
 73
    77
  0
VERTEX
  5
222
  8
0
 62
     9
 10
0.0
 20
0.0
 30
0.0
 70
   128
 71
    79
 72
    80
 73
    78
  0
VERTEX
  5
223
  8
0
 62
     9
 10
0.0
 20
0.0
 30
0.0
 70
   128
 71
    77
 72
    75
 73
    78
  0
VERTEX
  5
224
  8
0
 62
     9
 10
0.0
 20
0.0
 30
0.0
 70
   128
 71
    70
 72
    76
 73
    73
  0
VERTEX
  5
225
  8
0
 62
     9
 10
0.0
 20
0.0
 30
0.0
 70
   128
 71
    76
 72
    70
 73
    69
  0
VERTEX
  5
226
  8
0
 62
     9
 10
0.0
 20
0.0
 30
0.0
 70
   128
 71
    78
 72
    75
 73
    79
  0
VERTEX
  5
227
  8
0
 62
     9
 10
0.0
 20
0.0
 30
0.0
 70
   128
 71
     5
 72
    78
 73
    80
  0
VERTEX
  5
228
  8
0
 62
     9
 10
0.0
 20
0.0
 30
0.0
 70
   128
 71
    77
 72
    12
 73
    14
  0
VERTEX
  5
229
  8
0
 62
     9
 10
0.0
 20
0.0
 30
0.0
 70
   128
 71
    77
 72
    73
 73
    76
  0
VERTEX
  5
22A
  8
0
 62
     9
 10
0.0
 20
0.0
 30
0.0
 70
   128
 71
    83
 72
    82
 73
    81
  0
VERTEX
  5
22B
  8
0
 62
     9
 10
0.0
 20
0.0
 30
0.0
 70
   128
 71
     1
 72
    84
 73
     3
  0
VERTEX
  5
22C
  8
0
 62
     9
 10
0.0
 20
0.0
 30
0.0
 70
   128
 71
    85
 72
    81
 73
    69
  0
VERTEX
  5
22D
  8
0
 62
     9
 10
0.0
 20
0.0
 30
0.0
 70
   128
 71
    80
 72
    83
 73
    10
  0
VERTEX
  5
22E
  8
0
 62
     9
 10
0.0
 20
0.0
 30
0.0
 70
   128
 71
    82
 72
    69
 73
    81
  0
VERTEX
  5
22F
  8
0
 62
     9
 10
0.0
 20
0.0
 30
0.0
 70
   128
 71
     3
 72
    86
 73
     8
  0
VERTEX
  5
230
  8
0
 62
     9
 10
0.0
 20
0.0
 30
0.0
 70
   128
 71
    84
 72
     1
 73
    83
  0
VERTEX
  5
231
  8
0
 62
     9
 10
0.0
 20
0.0
 30
0.0
 70
   128
 71
    85
 72
    86
 73
    84
  0
VERTEX
  5
232
  8
0
 62
     9
 10
0.0
 20
0.0
 30
0.0
 70
   128
 71
    83
 72
    81
 73
    84
  0
VERTEX
  5
233
  8
0
 62
     9
 10
0.0
 20
0.0
 30
0.0
 70
   128
 71
    79
 72
    82
 73
    80
  0
VERTEX
  5
234
  8
0
 62
     9
 10
0.0
 20
0.0
 30
0.0
 70
   128
 71
    82
 72
    79
 73
    69
  0
VERTEX
  5
235
  8
0
 62
     9
 10
0.0
 20
0.0
 30
0.0
 70
   128
 71
    84
 72
    81
 73
    85
  0
VERTEX
  5
236
  8
0
 62
     9
 10
0.0
 20
0.0
 30
0.0
 70
   128
 71
     3
 72
    84
 73
    86
  0
VERTEX
  5
237
  8
0
 62
     9
 10
0.0
 20
0.0
 30
0.0
 70
   128
 71
    83
 72
     1
 73
    10
  0
VERTEX
  5
238
  8
0
 62
     9
 10
0.0
 20
0.0
 30
0.0
 70
   128
 71
    83
 72
    80
 73
    82
  0
VERTEX
  5
239
  8
0
 62
     9
 10
0.0
 20
0.0
 30
0.0
 70
   128
 71
    89
 72
    88
 73
    87
  0
VERTEX
  5
23A
  8
0
 62
     9
 10
0.0
 20
0.0
 30
0.0
 70
   128
 71
    91
 72
    87
 73
    90
  0
VERTEX
  5
23B
  8
0
 62
     9
 10
0.0
 20
0.0
 30
0.0
 70
   128
 71
     8
 72
    86
 73
    87
  0
VERTEX
  5
23C
  8
0
 62
     9
 10
0.0
 20
0.0
 30
0.0
 70
   128
 71
    71
 72
    92
 73
    72
  0
VERTEX
  5
23D
  8
0
 62
     9
 10
0.0
 20
0.0
 30
0.0
 70
   128
 71
    74
 72
    88
 73
    69
  0
VERTEX
  5
23E
  8
0
 62
     9
 10
0.0
 20
0.0
 30
0.0
 70
   128
 71
    92
 72
    91
 73
    90
  0
VERTEX
  5
23F
  8
0
 62
     9
 10
0.0
 20
0.0
 30
0.0
 70
   128
 71
    88
 72
    89
 73
    69
  0
VERTEX
  5
240
  8
0
 62
     9
 10
0.0
 20
0.0
 30
0.0
 70
   128
 71
    74
 72
    72
 73
    90
  0
VERTEX
  5
241
  8
0
 62
     9
 10
0.0
 20
0.0
 30
0.0
 70
   128
 71
    87
 72
    88
 73
    90
  0
VERTEX
  5
242
  8
0
 62
     9
 10
0.0
 20
0.0
 30
0.0
 70
   128
 71
    85
 72
    89
 73
    86
  0
VERTEX
  5
243
  8
0
 62
     9
 10
0.0
 20
0.0
 30
0.0
 70
   128
 71
    89
 72
    85
 73
    69
  0
VERTEX
  5
244
  8
0
 62
     9
 10
0.0
 20
0.0
 30
0.0
 70
   128
 71
    90
 72
    88
 73
    74
  0
VERTEX
  5
245
  8
0
 62
     9
 10
0.0
 20
0.0
 30
0.0
 70
   128
 71
    92
 72
    90
 73
    72
  0
VERTEX
  5
246
  8
0
 62
     9
 10
0.0
 20
0.0
 30
0.0
 70
   128
 71
    87
 72
    91
 73
     8
  0
VERTEX
  5
247
  8
0
 62
     9
 10
0.0
 20
0.0
 30
0.0
 70
   128
 71
    87
 72
    86
 73
    89
  0
VERTEX
  5
248
  8
0
 62
     9
 10
0.0
 20
0.0
 30
0.0
 70
   128
 71
    60
 72
    24
 73
    93
  0
VERTEX
  5
249
  8
0
 62
     9
 10
0.0
 20
0.0
 30
0.0
 70
   128
 71
    96
 72
    95
 73
    94
  0
VERTEX
  5
24A
  8
0
 62
     9
 10
0.0
 20
0.0
 30
0.0
 70
   128
 71
    98
 72
    97
 73
    95
  0
VERTEX
  5
24B
  8
0
 62
     9
 10
0.0
 20
0.0
 30
0.0
 70
   128
 71
    62
 72
   100
 73
    99
  0
VERTEX
  5
24C
  8
0
 62
     9
 10
0.0
 20
0.0
 30
0.0
 70
   128
 71
    94
 72
    99
 73
   100
  0
VERTEX
  5
24D
  8
0
 62
     9
 10
0.0
 20
0.0
 30
0.0
 70
   128
 71
    62
 72
    99
 73
    33
  0
VERTEX
  5
24E
  8
0
 62
     9
 10
0.0
 20
0.0
 30
0.0
 70
   128
 71
    95
 72
    96
 73
    98
  0
VERTEX
  5
24F
  8
0
 62
     9
 10
0.0
 20
0.0
 30
0.0
 70
   128
 71
    96
 72
    94
 73
   100
  0
VERTEX
  5
250
  8
0
 62
     9
 10
0.0
 20
0.0
 30
0.0
 70
   128
 71
   101
 72
    93
 73
    97
  0
VERTEX
  5
251
  8
0
 62
     9
 10
0.0
 20
0.0
 30
0.0
 70
   128
 71
   101
 72
    97
 73
    98
  0
VERTEX
  5
252
  8
0
 62
     9
 10
0.0
 20
0.0
 30
0.0
 70
   128
 71
    93
 72
   101
 73
    60
  0
VERTEX
  5
253
  8
0
 62
     9
 10
0.0
 20
0.0
 30
0.0
 70
   128
 71
    42
 72
    52
 73
   102
  0
VERTEX
  5
254
  8
0
 62
     9
 10
0.0
 20
0.0
 30
0.0
 70
   128
 71
   103
 72
   102
 73
    93
  0
VERTEX
  5
255
  8
0
 62
     9
 10
0.0
 20
0.0
 30
0.0
 70
   128
 71
    51
 72
   104
 73
    53
  0
VERTEX
  5
256
  8
0
 62
     9
 10
0.0
 20
0.0
 30
0.0
 70
   128
 71
    27
 72
    44
 73
    25
  0
VERTEX
  5
257
  8
0
 62
     9
 10
0.0
 20
0.0
 30
0.0
 70
   128
 71
    33
 72
    99
 73
    20
  0
VERTEX
  5
258
  8
0
 62
     9
 10
0.0
 20
0.0
 30
0.0
 70
   128
 71
    94
 72
    95
 73
   104
  0
VERTEX
  5
259
  8
0
 62
     9
 10
0.0
 20
0.0
 30
0.0
 70
   128
 71
    20
 72
   105
 73
    31
  0
VERTEX
  5
25A
  8
0
 62
     9
 10
0.0
 20
0.0
 30
0.0
 70
   128
 71
   105
 72
    20
 73
    99
  0
VERTEX
  5
25B
  8
0
 62
     9
 10
0.0
 20
0.0
 30
0.0
 70
   128
 71
    95
 72
   102
 73
   104
  0
VERTEX
  5
25C
  8
0
 62
     9
 10
0.0
 20
0.0
 30
0.0
 70
   128
 71
   105
 72
    94
 73
   104
  0
VERTEX
  5
25D
  8
0
 62
     9
 10
0.0
 20
0.0
 30
0.0
 70
   128
 71
    94
 72
   105
 73
    99
  0
VERTEX
  5
25E
  8
0
 62
     9
 10
0.0
 20
0.0
 30
0.0
 70
   128
 71
    42
 72
   102
 73
   103
  0
VERTEX
  5
25F
  8
0
 62
     9
 10
0.0
 20
0.0
 30
0.0
 70
   128
 71
   102
 72
    95
 73
    97
  0
VERTEX
  5
260
  8
0
 62
     9
 10
0.0
 20
0.0
 30
0.0
 70
   128
 71
    24
 72
    25
 73
   103
  0
VERTEX
  5
261
  8
0
 62
     9
 10
0.0
 20
0.0
 30
0.0
 70
   128
 71
    25
 72
    44
 73
   103
  0
VERTEX
  5
262
  8
0
 62
     9
 10
0.0
 20
0.0
 30
0.0
 70
   128
 71
    93
 72
    24
 73
   103
  0
VERTEX
  5
263
  8
0
 62
     9
 10
0.0
 20
0.0
 30
0.0
 70
   128
 71
    42
 72
   103
 73
    44
  0
VERTEX
  5
264
  8
0
 62
     9
 10
0.0
 20
0.0
 30
0.0
 70
   128
 71
    52
 72
    53
 73
   102
  0
VERTEX
  5
265
  8
0
 62
     9
 10
0.0
 20
0.0
 30
0.0
 70
   128
 71
   102
 72
    97
 73
    93
  0
VERTEX
  5
266
  8
0
 62
     9
 10
0.0
 20
0.0
 30
0.0
 70
   128
 71
   104
 72
   102
 73
    53
  0
VERTEX
  5
267
  8
0
 62
     9
 10
0.0
 20
0.0
 30
0.0
 70
   128
 71
    51
 72
    50
 73
   105
  0
VERTEX
  5
268
  8
0
 62
     9
 10
0.0
 20
0.0
 30
0.0
 70
   128
 71
   105
 72
   104
 73
    51
  0
VERTEX
  5
269
  8
0
 62
     9
 10
0.0
 20
0.0
 30
0.0
 70
   128
 71
    50
 72
    31
 73
   105
  0
VERTEX
  5
26A
  8
0
 62
     9
 10
0.0
 20
0.0
 30
0.0
 70
   128
 71
     8
 72
    91
 73
    48
  0
VERTEX
  5
26B
  8
0
 62
     9
 10
0.0
 20
0.0
 30
0.0
 70
   128
 71
    55
 72
    71
 73
    68
  0
VERTEX
  5
26C
  8
0
 62
     9
 10
0.0
 20
0.0
 30
0.0
 70
   128
 71
    47
 72
    56
 73
    92
  0
VERTEX
  5
26D
  8
0
 62
     9
 10
0.0
 20
0.0
 30
0.0
 70
   128
 71
    13
 72
    54
 73
    66
  0
VERTEX
  5
26E
  8
0
 62
     9
 10
0.0
 20
0.0
 30
0.0
 70
   128
 71
    68
 72
    66
 73
    54
  0
VERTEX
  5
26F
  8
0
 62
     9
 10
0.0
 20
0.0
 30
0.0
 70
   128
 71
    13
 72
    66
 73
    14
  0
VERTEX
  5
270
  8
0
 62
     9
 10
0.0
 20
0.0
 30
0.0
 70
   128
 71
    71
 72
    55
 73
    47
  0
VERTEX
  5
271
  8
0
 62
     9
 10
0.0
 20
0.0
 30
0.0
 70
   128
 71
    55
 72
    68
 73
    54
  0
VERTEX
  5
272
  8
0
 62
     9
 10
0.0
 20
0.0
 30
0.0
 70
   128
 71
    56
 72
    91
 73
    92
  0
VERTEX
  5
273
  8
0
 62
     9
 10
0.0
 20
0.0
 30
0.0
 70
   128
 71
    47
 72
    92
 73
    71
  0
VERTEX
  5
274
  8
0
 62
     9
 10
0.0
 20
0.0
 30
0.0
 70
   128
 71
    48
 72
     7
 73
     8
  0
VERTEX
  5
275
  8
0
 62
     9
 10
0.0
 20
0.0
 30
0.0
 70
   128
 71
    56
 72
    48
 73
    91
  0
SEQEND
  5
276
  8
0
 62
     9
  0
ENDBLK
  5
279
  8
0
  0
BLOCK
  8
0
  2
SKIN_580
 70
     0
 10
0.0
 20
0.0
 30
0.0
  3
SKIN_580
  1

  0
POLYLINE
  5
27B
  8
0
 62
     9
 66
     1
 10
0.0
 20
0.0
 30
0.0
 70
    64
 71
    78
 72
   152
  0
VERTEX
  5
27C
  8
0
 10
27.2101879119873
 20
-145.9924011230469
 30
-6.0
 70
   192
  0
VERTEX
  5
27D
  8
0
 10
26.42695617675781
 20
-142.3869476318359
 30
-1.0
 70
   192
  0
VERTEX
  5
27E
  8
0
 10
27.4960765838623
 20
-150.7108306884766
 30
-1.0
 70
   192
  0
VERTEX
  5
27F
  8
0
 10
26.9419002532959
 20
-155.5351715087891
 30
-6.0
 70
   192
  0
VERTEX
  5
280
  8
0
 10
25.95195388793945
 20
-159.116943359375
 30
-1.0
 70
   192
  0
VERTEX
  5
281
  8
0
 10
17.08979034423828
 20
-171.5512237548828
 30
-6.0
 70
   192
  0
VERTEX
  5
282
  8
0
 10
23.42855453491211
 20
-164.4079895019531
 30
-6.0
 70
   192
  0
VERTEX
  5
283
  8
0
 10
21.80836296081543
 20
-166.7587432861328
 30
-1.0
 70
   192
  0
VERTEX
  5
284
  8
0
 10
15.46549129486084
 20
-172.7456512451172
 30
-1.0
 70
   192
  0
VERTEX
  5
285
  8
0
 10
8.687895774841309
 20
-176.0983581542969
 30
-6.0
 70
   192
  0
VERTEX
  5
286
  8
0
 10
-0.7640679478645325
 20
-177.494140625
 30
-6.0
 70
   192
  0
VERTEX
  5
287
  8
0
 10
7.652323722839355
 20
-176.4181365966797
 30
-1.0
 70
   192
  0
VERTEX
  5
288
  8
0
 10
-0.7640679478645325
 20
-177.494140625
 30
-1.0
 70
   192
  0
VERTEX
  5
289
  8
0
 10
24.19335556030273
 20
-136.9252319335938
 30
-6.0
 70
   192
  0
VERTEX
  5
28A
  8
0
 10
22.84253692626953
 20
-134.6905670166016
 30
-1.0
 70
   192
  0
VERTEX
  5
28B
  8
0
 10
18.25959014892578
 20
-129.4397277832031
 30
-6.0
 70
   192
  0
VERTEX
  5
28C
  8
0
 10
10.13129997253418
 20
-124.4346771240234
 30
-6.0
 70
   192
  0
VERTEX
  5
28D
  8
0
 10
16.94242668151855
 20
-128.3440093994141
 30
-1.0
 70
   192
  0
VERTEX
  5
28E
  8
0
 10
0.790810227394104
 20
-122.5110092163086
 30
-6.0
 70
   192
  0
VERTEX
  5
28F
  8
0
 10
9.276188850402832
 20
-124.1100997924805
 30
-1.0
 70
   192
  0
VERTEX
  5
290
  8
0
 10
0.790810227394104
 20
-122.5110092163086
 30
-1.0
 70
   192
  0
VERTEX
  5
291
  8
0
 10
26.49637413024902
 20
-150.6871795654297
 30
-0.0000000000000216
 70
   192
  0
VERTEX
  5
292
  8
0
 10
25.67776870727539
 20
-158.9916687011719
 30
-0.2928932309150696
 70
   192
  0
VERTEX
  5
293
  8
0
 10
27.1995964050293
 20
-150.6909332275391
 30
-0.2928932309150696
 70
   192
  0
VERTEX
  5
294
  8
0
 10
0.762542724609375
 20
-123.510612487793
 30
-0.0000000000000182
 70
   192
  0
VERTEX
  5
295
  8
0
 10
9.141925811767578
 20
-124.3784255981445
 30
-0.2928932309150696
 70
   192
  0
VERTEX
  5
296
  8
0
 10
0.7825309038162231
 20
-122.8037872314453
 30
-0.2928932309150696
 70
   192
  0
VERTEX
  5
297
  8
0
 10
25.00761604309082
 20
-158.7877960205078
 30
-0.0000000000000217
 70
   192
  0
VERTEX
  5
298
  8
0
 10
21.58732414245605
 20
-166.5680084228516
 30
-0.2928932309150696
 70
   192
  0
VERTEX
  5
299
  8
0
 10
15.32455635070801
 20
-172.4878234863281
 30
-0.2928932309150696
 70
   192
  0
VERTEX
  5
29A
  8
0
 10
21.01364517211914
 20
-166.15185546875
 30
-0.0000000000000212
 70
   192
  0
VERTEX
  5
29B
  8
0
 10
7.601446628570557
 20
-176.1311798095703
 30
-0.2928932309150696
 70
   192
  0
VERTEX
  5
29C
  8
0
 10
7.370604038238525
 20
-175.4587249755859
 30
-0.0000000000000185
 70
   192
  0
VERTEX
  5
29D
  8
0
 10
-0.7600045204162598
 20
-177.2010345458984
 30
-0.2928932309150696
 70
   192
  0
VERTEX
  5
29E
  8
0
 10
-0.7399141192436218
 20
-176.4942169189453
 30
-0.0000000000000166
 70
   192
  0
VERTEX
  5
29F
  8
0
 10
25.46661567687988
 20
-142.6656799316406
 30
-0.0000000000000209
 70
   192
  0
VERTEX
  5
2A0
  8
0
 10
26.1440544128418
 20
-142.453369140625
 30
-0.2928932309150696
 70
   192
  0
VERTEX
  5
2A1
  8
0
 10
22.59109878540039
 20
-134.8386993408203
 30
-0.2928932309150696
 70
   192
  0
VERTEX
  5
2A2
  8
0
 10
22.01273345947266
 20
-135.2485046386719
 30
-0.0000000000000197
 70
   192
  0
VERTEX
  5
2A3
  8
0
 10
16.72700119018555
 20
-128.5478363037109
 30
-0.2928932309150696
 70
   192
  0
VERTEX
  5
2A4
  8
0
 10
16.3269214630127
 20
-129.1319885253906
 30
-0.0000000000000181
 70
   192
  0
VERTEX
  5
2A5
  8
0
 10
8.939071655273438
 20
-125.0515823364258
 30
-0.0000000000000161
 70
   192
  0
VERTEX
  5
2A6
  8
0
 10
14.90035629272461
 20
-171.9207000732422
 30
-0.00000000000002
 70
   192
  0
VERTEX
  5
2A7
  8
0
 10
-7.488633632659912
 20
-124.5873184204102
 30
-0.0000000000000163
 70
   192
  0
VERTEX
  5
2A8
  8
0
 10
-15.09422969818115
 20
-128.2430877685547
 30
-0.0000000000000146
 70
   192
  0
VERTEX
  5
2A9
  8
0
 10
-21.1157341003418
 20
-134.0271453857422
 30
-0.0000000000000125
 70
   192
  0
VERTEX
  5
2AA
  8
0
 10
-24.98337936401367
 20
-141.2356262207031
 30
-0.0000000000000113
 70
   192
  0
VERTEX
  5
2AB
  8
0
 10
-26.46586608886719
 20
-149.1847229003906
 30
-0.0000000000000113
 70
   192
  0
VERTEX
  5
2AC
  8
0
 10
-25.43897247314453
 20
-157.3560028076172
 30
-0.0000000000000113
 70
   192
  0
VERTEX
  5
2AD
  8
0
 10
-16.09365463256836
 20
-171.0404205322266
 30
-0.0000000000000129
 70
   192
  0
VERTEX
  5
2AE
  8
0
 10
-8.77785587310791
 20
-174.999755859375
 30
-0.0000000000000148
 70
   192
  0
VERTEX
  5
2AF
  8
0
 10
-21.86925888061523
 20
-164.9343719482422
 30
-0.000000000000012
 70
   192
  0
VERTEX
  5
2B0
  8
0
 10
-17.04330253601074
 20
-128.4425964355469
 30
-6.0
 70
   192
  0
VERTEX
  5
2B1
  8
0
 10
-8.645003318786621
 20
-123.9042663574219
 30
-6.0
 70
   192
  0
VERTEX
  5
2B2
  8
0
 10
-23.38966178894043
 20
-135.5809326171875
 30
-6.0
 70
   192
  0
VERTEX
  5
2B3
  8
0
 10
-10.12329959869385
 20
-175.5656890869141
 30
-6.0
 70
   192
  0
VERTEX
  5
2B4
  8
0
 10
-18.25488662719727
 20
-170.5506744384766
 30
-6.0
 70
   192
  0
VERTEX
  5
2B5
  8
0
 10
-24.17863655090332
 20
-163.0612945556641
 30
-6.0
 70
   192
  0
VERTEX
  5
2B6
  8
0
 10
-26.91353034973145
 20
-144.4625854492188
 30
-6.0
 70
   192
  0
VERTEX
  5
2B7
  8
0
 10
-27.1845874786377
 20
-154.0047760009766
 30
-6.0
 70
   192
  0
VERTEX
  5
2B8
  8
0
 10
-16.76594161987305
 20
-171.7860412597656
 30
-1.0
 70
   192
  0
VERTEX
  5
2B9
  8
0
 10
-9.00910472869873
 20
-175.6672058105469
 30
-0.2928932309150696
 70
   192
  0
VERTEX
  5
2BA
  8
0
 10
-16.50394058227539
 20
-171.6092681884766
 30
-0.2928932309150696
 70
   192
  0
VERTEX
  5
2BB
  8
0
 10
-26.35878372192383
 20
-157.7665100097656
 30
-1.0
 70
   192
  0
VERTEX
  5
2BC
  8
0
 10
-22.45225715637207
 20
-165.3329620361328
 30
-0.2928932309150696
 70
   192
  0
VERTEX
  5
2BD
  8
0
 10
-26.11859703063965
 20
-157.5528106689453
 30
-0.2928932309150696
 70
   192
  0
VERTEX
  5
2BE
  8
0
 10
-22.67036628723145
 20
-165.5350646972656
 30
-1.0
 70
   192
  0
VERTEX
  5
2BF
  8
0
 10
-25.65194320678711
 20
-141.0044708251953
 30
-0.2928932309150696
 70
   192
  0
VERTEX
  5
2C0
  8
0
 10
-21.67973518371582
 20
-133.6005401611328
 30
-0.2928932309150696
 70
   192
  0
VERTEX
  5
2C1
  8
0
 10
-21.76346778869629
 20
-133.2252960205078
 30
-1.0
 70
   192
  0
VERTEX
  5
2C2
  8
0
 10
-27.17538642883301
 20
-149.186279296875
 30
-0.2928932309150696
 70
   192
  0
VERTEX
  5
2C3
  8
0
 10
-27.46767807006836
 20
-149.224609375
 30
-1.0
 70
   192
  0
VERTEX
  5
2C4
  8
0
 10
-7.703175067901611
 20
-123.9164581298828
 30
-0.2928932309150696
 70
   192
  0
VERTEX
  5
2C5
  8
0
 10
-15.50907897949219
 20
-127.6736373901367
 30
-0.2928932309150696
 70
   192
  0
VERTEX
  5
2C6
  8
0
 10
-7.750138282775879
 20
-123.6232070922852
 30
-1.0
 70
   192
  0
VERTEX
  5
2C7
  8
0
 10
-15.51651668548584
 20
-127.3170776367188
 30
-1.0
 70
   192
  0
VERTEX
  5
2C8
  8
0
 10
-25.88400459289551
 20
-140.7835845947266
 30
-1.0
 70
   192
  0
VERTEX
  5
2C9
  8
0
 10
-9.209332466125488
 20
-175.9089660644531
 30
-1.0
 70
   192
  0
VERTEX
  5
2CA
  8
0
 62
     9
 10
0.0
 20
0.0
 30
0.0
 70
   128
 71
     3
 72
     2
 73
     1
  0
VERTEX
  5
2CB
  8
0
 62
     9
 10
0.0
 20
0.0
 30
0.0
 70
   128
 71
     4
 72
     3
 73
     1
  0
VERTEX
  5
2CC
  8
0
 62
     9
 10
0.0
 20
0.0
 30
0.0
 70
   128
 71
     3
 72
     4
 73
     5
  0
VERTEX
  5
2CD
  8
0
 62
     9
 10
0.0
 20
0.0
 30
0.0
 70
   128
 71
     8
 72
     7
 73
     6
  0
VERTEX
  5
2CE
  8
0
 62
     9
 10
0.0
 20
0.0
 30
0.0
 70
   128
 71
     4
 72
     7
 73
     5
  0
VERTEX
  5
2CF
  8
0
 62
     9
 10
0.0
 20
0.0
 30
0.0
 70
   128
 71
    10
 72
     9
 73
     6
  0
VERTEX
  5
2D0
  8
0
 62
     9
 10
0.0
 20
0.0
 30
0.0
 70
   128
 71
     6
 72
     9
 73
     8
  0
VERTEX
  5
2D1
  8
0
 62
     9
 10
0.0
 20
0.0
 30
0.0
 70
   128
 71
    12
 72
    10
 73
    11
  0
VERTEX
  5
2D2
  8
0
 62
     9
 10
0.0
 20
0.0
 30
0.0
 70
   128
 71
     9
 72
    10
 73
    12
  0
VERTEX
  5
2D3
  8
0
 62
     9
 10
0.0
 20
0.0
 30
0.0
 70
   128
 71
    12
 72
    11
 73
    13
  0
VERTEX
  5
2D4
  8
0
 62
     9
 10
0.0
 20
0.0
 30
0.0
 70
   128
 71
     8
 72
     5
 73
     7
  0
VERTEX
  5
2D5
  8
0
 62
     9
 10
0.0
 20
0.0
 30
0.0
 70
   128
 71
     2
 72
    14
 73
     1
  0
VERTEX
  5
2D6
  8
0
 62
     9
 10
0.0
 20
0.0
 30
0.0
 70
   128
 71
    16
 72
    14
 73
    15
  0
VERTEX
  5
2D7
  8
0
 62
     9
 10
0.0
 20
0.0
 30
0.0
 70
   128
 71
     2
 72
    15
 73
    14
  0
VERTEX
  5
2D8
  8
0
 62
     9
 10
0.0
 20
0.0
 30
0.0
 70
   128
 71
    16
 72
    18
 73
    17
  0
VERTEX
  5
2D9
  8
0
 62
     9
 10
0.0
 20
0.0
 30
0.0
 70
   128
 71
    18
 72
    16
 73
    15
  0
VERTEX
  5
2DA
  8
0
 62
     9
 10
0.0
 20
0.0
 30
0.0
 70
   128
 71
    20
 72
    19
 73
    17
  0
VERTEX
  5
2DB
  8
0
 62
     9
 10
0.0
 20
0.0
 30
0.0
 70
   128
 71
    17
 72
    18
 73
    20
  0
VERTEX
  5
2DC
  8
0
 62
     9
 10
0.0
 20
0.0
 30
0.0
 70
   128
 71
    20
 72
    21
 73
    19
  0
VERTEX
  5
2DD
  8
0
 62
     9
 10
0.0
 20
0.0
 30
0.0
 70
   128
 71
    24
 72
    23
 73
    22
  0
VERTEX
  5
2DE
  8
0
 62
     9
 10
0.0
 20
0.0
 30
0.0
 70
   128
 71
    27
 72
    26
 73
    25
  0
VERTEX
  5
2DF
  8
0
 62
     9
 10
0.0
 20
0.0
 30
0.0
 70
   128
 71
    29
 72
    28
 73
    23
  0
VERTEX
  5
2E0
  8
0
 62
     9
 10
0.0
 20
0.0
 30
0.0
 70
   128
 71
    23
 72
    24
 73
     5
  0
VERTEX
  5
2E1
  8
0
 62
     9
 10
0.0
 20
0.0
 30
0.0
 70
   128
 71
    31
 72
    29
 73
    30
  0
VERTEX
  5
2E2
  8
0
 62
     9
 10
0.0
 20
0.0
 30
0.0
 70
   128
 71
    23
 72
     8
 73
    29
  0
VERTEX
  5
2E3
  8
0
 62
     9
 10
0.0
 20
0.0
 30
0.0
 70
   128
 71
    34
 72
    33
 73
    32
  0
VERTEX
  5
2E4
  8
0
 62
     9
 10
0.0
 20
0.0
 30
0.0
 70
   128
 71
     9
 72
    30
 73
    29
  0
VERTEX
  5
2E5
  8
0
 62
     9
 10
0.0
 20
0.0
 30
0.0
 70
   128
 71
    12
 72
    13
 73
    32
  0
VERTEX
  5
2E6
  8
0
 62
     9
 10
0.0
 20
0.0
 30
0.0
 70
   128
 71
    32
 72
    13
 73
    34
  0
VERTEX
  5
2E7
  8
0
 62
     9
 10
0.0
 20
0.0
 30
0.0
 70
   128
 71
    34
 72
    35
 73
    33
  0
VERTEX
  5
2E8
  8
0
 62
     9
 10
0.0
 20
0.0
 30
0.0
 70
   128
 71
    37
 72
    24
 73
    36
  0
VERTEX
  5
2E9
  8
0
 62
     9
 10
0.0
 20
0.0
 30
0.0
 70
   128
 71
     3
 72
    24
 73
    37
  0
VERTEX
  5
2EA
  8
0
 62
     9
 10
0.0
 20
0.0
 30
0.0
 70
   128
 71
    37
 72
    39
 73
    38
  0
VERTEX
  5
2EB
  8
0
 62
     9
 10
0.0
 20
0.0
 30
0.0
 70
   128
 71
    37
 72
    38
 73
     2
  0
VERTEX
  5
2EC
  8
0
 62
     9
 10
0.0
 20
0.0
 30
0.0
 70
   128
 71
    41
 72
    40
 73
    38
  0
VERTEX
  5
2ED
  8
0
 62
     9
 10
0.0
 20
0.0
 30
0.0
 70
   128
 71
    40
 72
    15
 73
    38
  0
VERTEX
  5
2EE
  8
0
 62
     9
 10
0.0
 20
0.0
 30
0.0
 70
   128
 71
    26
 72
    40
 73
    42
  0
VERTEX
  5
2EF
  8
0
 62
     9
 10
0.0
 20
0.0
 30
0.0
 70
   128
 71
    18
 72
    40
 73
    26
  0
VERTEX
  5
2F0
  8
0
 62
     9
 10
0.0
 20
0.0
 30
0.0
 70
   128
 71
    26
 72
    42
 73
    25
  0
VERTEX
  5
2F1
  8
0
 62
     9
 10
0.0
 20
0.0
 30
0.0
 70
   128
 71
    26
 72
    27
 73
    20
  0
VERTEX
  5
2F2
  8
0
 62
     9
 10
0.0
 20
0.0
 30
0.0
 70
   128
 71
    27
 72
    21
 73
    20
  0
VERTEX
  5
2F3
  8
0
 62
     9
 10
0.0
 20
0.0
 30
0.0
 70
   128
 71
    41
 72
    42
 73
    40
  0
VERTEX
  5
2F4
  8
0
 62
     9
 10
0.0
 20
0.0
 30
0.0
 70
   128
 71
    26
 72
    20
 73
    18
  0
VERTEX
  5
2F5
  8
0
 62
     9
 10
0.0
 20
0.0
 30
0.0
 70
   128
 71
    39
 72
    41
 73
    38
  0
VERTEX
  5
2F6
  8
0
 62
     9
 10
0.0
 20
0.0
 30
0.0
 70
   128
 71
    40
 72
    18
 73
    15
  0
VERTEX
  5
2F7
  8
0
 62
     9
 10
0.0
 20
0.0
 30
0.0
 70
   128
 71
    36
 72
    39
 73
    37
  0
VERTEX
  5
2F8
  8
0
 62
     9
 10
0.0
 20
0.0
 30
0.0
 70
   128
 71
    38
 72
    15
 73
     2
  0
VERTEX
  5
2F9
  8
0
 62
     9
 10
0.0
 20
0.0
 30
0.0
 70
   128
 71
    22
 72
    36
 73
    24
  0
VERTEX
  5
2FA
  8
0
 62
     9
 10
0.0
 20
0.0
 30
0.0
 70
   128
 71
    37
 72
     2
 73
     3
  0
VERTEX
  5
2FB
  8
0
 62
     9
 10
0.0
 20
0.0
 30
0.0
 70
   128
 71
    28
 72
    22
 73
    23
  0
VERTEX
  5
2FC
  8
0
 62
     9
 10
0.0
 20
0.0
 30
0.0
 70
   128
 71
    24
 72
     3
 73
     5
  0
VERTEX
  5
2FD
  8
0
 62
     9
 10
0.0
 20
0.0
 30
0.0
 70
   128
 71
    31
 72
    28
 73
    29
  0
VERTEX
  5
2FE
  8
0
 62
     9
 10
0.0
 20
0.0
 30
0.0
 70
   128
 71
    23
 72
     5
 73
     8
  0
VERTEX
  5
2FF
  8
0
 62
     9
 10
0.0
 20
0.0
 30
0.0
 70
   128
 71
    43
 72
    31
 73
    30
  0
VERTEX
  5
300
  8
0
 62
     9
 10
0.0
 20
0.0
 30
0.0
 70
   128
 71
    29
 72
     8
 73
     9
  0
VERTEX
  5
301
  8
0
 62
     9
 10
0.0
 20
0.0
 30
0.0
 70
   128
 71
    33
 72
    43
 73
    32
  0
VERTEX
  5
302
  8
0
 62
     9
 10
0.0
 20
0.0
 30
0.0
 70
   128
 71
    30
 72
     9
 73
    12
  0
VERTEX
  5
303
  8
0
 62
     9
 10
0.0
 20
0.0
 30
0.0
 70
   128
 71
    30
 72
    32
 73
    43
  0
VERTEX
  5
304
  8
0
 62
     9
 10
0.0
 20
0.0
 30
0.0
 70
   128
 71
    32
 72
    30
 73
    12
  0
VERTEX
  5
305
  8
0
 62
     9
 10
0.0
 20
0.0
 30
0.0
 70
   128
 71
    22
 72
    28
 73
    44
  0
VERTEX
  5
306
  8
0
 62
     9
 10
0.0
 20
0.0
 30
0.0
 70
   128
 71
    25
 72
    36
 73
    22
  0
VERTEX
  5
307
  8
0
 62
     9
 10
0.0
 20
0.0
 30
0.0
 70
   128
 71
    41
 72
    39
 73
    36
  0
VERTEX
  5
308
  8
0
 62
     9
 10
0.0
 20
0.0
 30
0.0
 70
   128
 71
    36
 72
    25
 73
    42
  0
VERTEX
  5
309
  8
0
 62
     9
 10
0.0
 20
0.0
 30
0.0
 70
   128
 71
    41
 72
    36
 73
    42
  0
VERTEX
  5
30A
  8
0
 62
     9
 10
0.0
 20
0.0
 30
0.0
 70
   128
 71
    44
 72
    28
 73
    45
  0
VERTEX
  5
30B
  8
0
 62
     9
 10
0.0
 20
0.0
 30
0.0
 70
   128
 71
    25
 72
    22
 73
    44
  0
VERTEX
  5
30C
  8
0
 62
     9
 10
0.0
 20
0.0
 30
0.0
 70
   128
 71
    46
 72
    45
 73
    31
  0
VERTEX
  5
30D
  8
0
 62
     9
 10
0.0
 20
0.0
 30
0.0
 70
   128
 71
    28
 72
    31
 73
    45
  0
VERTEX
  5
30E
  8
0
 62
     9
 10
0.0
 20
0.0
 30
0.0
 70
   128
 71
    43
 72
    46
 73
    31
  0
VERTEX
  5
30F
  8
0
 62
     9
 10
0.0
 20
0.0
 30
0.0
 70
   128
 71
    47
 72
    46
 73
    43
  0
VERTEX
  5
310
  8
0
 62
     9
 10
0.0
 20
0.0
 30
0.0
 70
   128
 71
    48
 72
    47
 73
    33
  0
VERTEX
  5
311
  8
0
 62
     9
 10
0.0
 20
0.0
 30
0.0
 70
   128
 71
    43
 72
    33
 73
    47
  0
VERTEX
  5
312
  8
0
 62
     9
 10
0.0
 20
0.0
 30
0.0
 70
   128
 71
    48
 72
    35
 73
    49
  0
VERTEX
  5
313
  8
0
 62
     9
 10
0.0
 20
0.0
 30
0.0
 70
   128
 71
    35
 72
    48
 73
    33
  0
VERTEX
  5
314
  8
0
 62
     9
 10
0.0
 20
0.0
 30
0.0
 70
   128
 71
    51
 72
    50
 73
    49
  0
VERTEX
  5
315
  8
0
 62
     9
 10
0.0
 20
0.0
 30
0.0
 70
   128
 71
    50
 72
    52
 73
    49
  0
VERTEX
  5
316
  8
0
 62
     9
 10
0.0
 20
0.0
 30
0.0
 70
   128
 71
    35
 72
    51
 73
    49
  0
VERTEX
  5
317
  8
0
 62
     9
 10
0.0
 20
0.0
 30
0.0
 70
   128
 71
    54
 72
    53
 73
     7
  0
VERTEX
  5
318
  8
0
 62
     9
 10
0.0
 20
0.0
 30
0.0
 70
   128
 71
    17
 72
     1
 73
    14
  0
VERTEX
  5
319
  8
0
 62
     9
 10
0.0
 20
0.0
 30
0.0
 70
   128
 71
    14
 72
    16
 73
    17
  0
VERTEX
  5
31A
  8
0
 62
     9
 10
0.0
 20
0.0
 30
0.0
 70
   128
 71
     4
 72
     1
 73
    19
  0
VERTEX
  5
31B
  8
0
 62
     9
 10
0.0
 20
0.0
 30
0.0
 70
   128
 71
    17
 72
    19
 73
     1
  0
VERTEX
  5
31C
  8
0
 62
     9
 10
0.0
 20
0.0
 30
0.0
 70
   128
 71
     6
 72
    55
 73
    10
  0
VERTEX
  5
31D
  8
0
 62
     9
 10
0.0
 20
0.0
 30
0.0
 70
   128
 71
    58
 72
    57
 73
    56
  0
VERTEX
  5
31E
  8
0
 62
     9
 10
0.0
 20
0.0
 30
0.0
 70
   128
 71
    60
 72
    11
 73
    59
  0
VERTEX
  5
31F
  8
0
 62
     9
 10
0.0
 20
0.0
 30
0.0
 70
   128
 71
    60
 72
    56
 73
    11
  0
VERTEX
  5
320
  8
0
 62
     9
 10
0.0
 20
0.0
 30
0.0
 70
   128
 71
    56
 72
    60
 73
    58
  0
VERTEX
  5
321
  8
0
 62
     9
 10
0.0
 20
0.0
 30
0.0
 70
   128
 71
    10
 72
    59
 73
    11
  0
VERTEX
  5
322
  8
0
 62
     9
 10
0.0
 20
0.0
 30
0.0
 70
   128
 71
    55
 72
     6
 73
    53
  0
VERTEX
  5
323
  8
0
 62
     9
 10
0.0
 20
0.0
 30
0.0
 70
   128
 71
    59
 72
    10
 73
    55
  0
VERTEX
  5
324
  8
0
 62
     9
 10
0.0
 20
0.0
 30
0.0
 70
   128
 71
     7
 72
     4
 73
    54
  0
VERTEX
  5
325
  8
0
 62
     9
 10
0.0
 20
0.0
 30
0.0
 70
   128
 71
     6
 72
     7
 73
    53
  0
VERTEX
  5
326
  8
0
 62
     9
 10
0.0
 20
0.0
 30
0.0
 70
   128
 71
    19
 72
    54
 73
     4
  0
VERTEX
  5
327
  8
0
 62
     9
 10
0.0
 20
0.0
 30
0.0
 70
   128
 71
    63
 72
    62
 73
    61
  0
VERTEX
  5
328
  8
0
 62
     9
 10
0.0
 20
0.0
 30
0.0
 70
   128
 71
    35
 72
    62
 73
    51
  0
VERTEX
  5
329
  8
0
 62
     9
 10
0.0
 20
0.0
 30
0.0
 70
   128
 71
    66
 72
    65
 73
    64
  0
VERTEX
  5
32A
  8
0
 62
     9
 10
0.0
 20
0.0
 30
0.0
 70
   128
 71
    67
 72
    63
 73
    61
  0
VERTEX
  5
32B
  8
0
 62
     9
 10
0.0
 20
0.0
 30
0.0
 70
   128
 71
    70
 72
    69
 73
    68
  0
VERTEX
  5
32C
  8
0
 62
     9
 10
0.0
 20
0.0
 30
0.0
 70
   128
 71
    72
 72
    71
 73
    66
  0
VERTEX
  5
32D
  8
0
 62
     9
 10
0.0
 20
0.0
 30
0.0
 70
   128
 71
    73
 72
    27
 73
    44
  0
VERTEX
  5
32E
  8
0
 62
     9
 10
0.0
 20
0.0
 30
0.0
 70
   128
 71
    74
 72
    46
 73
    69
  0
VERTEX
  5
32F
  8
0
 62
     9
 10
0.0
 20
0.0
 30
0.0
 70
   128
 71
    73
 72
    75
 73
    21
  0
VERTEX
  5
330
  8
0
 62
     9
 10
0.0
 20
0.0
 30
0.0
 70
   128
 71
    27
 72
    73
 73
    21
  0
VERTEX
  5
331
  8
0
 62
     9
 10
0.0
 20
0.0
 30
0.0
 70
   128
 71
    44
 72
    27
 73
    25
  0
VERTEX
  5
332
  8
0
 62
     9
 10
0.0
 20
0.0
 30
0.0
 70
   128
 71
    69
 72
    76
 73
    74
  0
VERTEX
  5
333
  8
0
 62
     9
 10
0.0
 20
0.0
 30
0.0
 70
   128
 71
    70
 72
    68
 73
    77
  0
VERTEX
  5
334
  8
0
 62
     9
 10
0.0
 20
0.0
 30
0.0
 70
   128
 71
    76
 72
    69
 73
    70
  0
VERTEX
  5
335
  8
0
 62
     9
 10
0.0
 20
0.0
 30
0.0
 70
   128
 71
    49
 72
    66
 73
    71
  0
VERTEX
  5
336
  8
0
 62
     9
 10
0.0
 20
0.0
 30
0.0
 70
   128
 71
    77
 72
    68
 73
    71
  0
VERTEX
  5
337
  8
0
 62
     9
 10
0.0
 20
0.0
 30
0.0
 70
   128
 71
    64
 72
    65
 73
    67
  0
VERTEX
  5
338
  8
0
 62
     9
 10
0.0
 20
0.0
 30
0.0
 70
   128
 71
    72
 72
    66
 73
    64
  0
VERTEX
  5
339
  8
0
 62
     9
 10
0.0
 20
0.0
 30
0.0
 70
   128
 71
    51
 72
    63
 73
    50
  0
VERTEX
  5
33A
  8
0
 62
     9
 10
0.0
 20
0.0
 30
0.0
 70
   128
 71
    65
 72
    63
 73
    67
  0
VERTEX
  5
33B
  8
0
 62
     9
 10
0.0
 20
0.0
 30
0.0
 70
   128
 71
    78
 72
    34
 73
    13
  0
VERTEX
  5
33C
  8
0
 62
     9
 10
0.0
 20
0.0
 30
0.0
 70
   128
 71
    35
 72
    34
 73
    62
  0
VERTEX
  5
33D
  8
0
 62
     9
 10
0.0
 20
0.0
 30
0.0
 70
   128
 71
    62
 72
    34
 73
    78
  0
VERTEX
  5
33E
  8
0
 62
     9
 10
0.0
 20
0.0
 30
0.0
 70
   128
 71
    62
 72
    78
 73
    61
  0
VERTEX
  5
33F
  8
0
 62
     9
 10
0.0
 20
0.0
 30
0.0
 70
   128
 71
    52
 72
    50
 73
    65
  0
VERTEX
  5
340
  8
0
 62
     9
 10
0.0
 20
0.0
 30
0.0
 70
   128
 71
    62
 72
    63
 73
    51
  0
VERTEX
  5
341
  8
0
 62
     9
 10
0.0
 20
0.0
 30
0.0
 70
   128
 71
    63
 72
    65
 73
    50
  0
VERTEX
  5
342
  8
0
 62
     9
 10
0.0
 20
0.0
 30
0.0
 70
   128
 71
    66
 72
    49
 73
    52
  0
VERTEX
  5
343
  8
0
 62
     9
 10
0.0
 20
0.0
 30
0.0
 70
   128
 71
    65
 72
    66
 73
    52
  0
VERTEX
  5
344
  8
0
 62
     9
 10
0.0
 20
0.0
 30
0.0
 70
   128
 71
    71
 72
    48
 73
    49
  0
VERTEX
  5
345
  8
0
 62
     9
 10
0.0
 20
0.0
 30
0.0
 70
   128
 71
    47
 72
    48
 73
    68
  0
VERTEX
  5
346
  8
0
 62
     9
 10
0.0
 20
0.0
 30
0.0
 70
   128
 71
    71
 72
    72
 73
    77
  0
VERTEX
  5
347
  8
0
 62
     9
 10
0.0
 20
0.0
 30
0.0
 70
   128
 71
    71
 72
    68
 73
    48
  0
VERTEX
  5
348
  8
0
 62
     9
 10
0.0
 20
0.0
 30
0.0
 70
   128
 71
    69
 72
    46
 73
    47
  0
VERTEX
  5
349
  8
0
 62
     9
 10
0.0
 20
0.0
 30
0.0
 70
   128
 71
    45
 72
    46
 73
    74
  0
VERTEX
  5
34A
  8
0
 62
     9
 10
0.0
 20
0.0
 30
0.0
 70
   128
 71
    68
 72
    69
 73
    47
  0
VERTEX
  5
34B
  8
0
 62
     9
 10
0.0
 20
0.0
 30
0.0
 70
   128
 71
    44
 72
    45
 73
    73
  0
VERTEX
  5
34C
  8
0
 62
     9
 10
0.0
 20
0.0
 30
0.0
 70
   128
 71
    74
 72
    76
 73
    75
  0
VERTEX
  5
34D
  8
0
 62
     9
 10
0.0
 20
0.0
 30
0.0
 70
   128
 71
    74
 72
    73
 73
    45
  0
VERTEX
  5
34E
  8
0
 62
     9
 10
0.0
 20
0.0
 30
0.0
 70
   128
 71
    73
 72
    74
 73
    75
  0
VERTEX
  5
34F
  8
0
 62
     9
 10
0.0
 20
0.0
 30
0.0
 70
   128
 71
    78
 72
    13
 73
    11
  0
VERTEX
  5
350
  8
0
 62
     9
 10
0.0
 20
0.0
 30
0.0
 70
   128
 71
    67
 72
    58
 73
    64
  0
VERTEX
  5
351
  8
0
 62
     9
 10
0.0
 20
0.0
 30
0.0
 70
   128
 71
    61
 72
    56
 73
    57
  0
VERTEX
  5
352
  8
0
 62
     9
 10
0.0
 20
0.0
 30
0.0
 70
   128
 71
    70
 72
    77
 73
    55
  0
VERTEX
  5
353
  8
0
 62
     9
 10
0.0
 20
0.0
 30
0.0
 70
   128
 71
    59
 72
    72
 73
    60
  0
VERTEX
  5
354
  8
0
 62
     9
 10
0.0
 20
0.0
 30
0.0
 70
   128
 71
    76
 72
    53
 73
    54
  0
VERTEX
  5
355
  8
0
 62
     9
 10
0.0
 20
0.0
 30
0.0
 70
   128
 71
    53
 72
    76
 73
    70
  0
VERTEX
  5
356
  8
0
 62
     9
 10
0.0
 20
0.0
 30
0.0
 70
   128
 71
    54
 72
    19
 73
    75
  0
VERTEX
  5
357
  8
0
 62
     9
 10
0.0
 20
0.0
 30
0.0
 70
   128
 71
    75
 72
    76
 73
    54
  0
VERTEX
  5
358
  8
0
 62
     9
 10
0.0
 20
0.0
 30
0.0
 70
   128
 71
    75
 72
    19
 73
    21
  0
VERTEX
  5
359
  8
0
 62
     9
 10
0.0
 20
0.0
 30
0.0
 70
   128
 71
    55
 72
    77
 73
    59
  0
VERTEX
  5
35A
  8
0
 62
     9
 10
0.0
 20
0.0
 30
0.0
 70
   128
 71
    53
 72
    70
 73
    55
  0
VERTEX
  5
35B
  8
0
 62
     9
 10
0.0
 20
0.0
 30
0.0
 70
   128
 71
    60
 72
    72
 73
    64
  0
VERTEX
  5
35C
  8
0
 62
     9
 10
0.0
 20
0.0
 30
0.0
 70
   128
 71
    77
 72
    72
 73
    59
  0
VERTEX
  5
35D
  8
0
 62
     9
 10
0.0
 20
0.0
 30
0.0
 70
   128
 71
    56
 72
    78
 73
    11
  0
VERTEX
  5
35E
  8
0
 62
     9
 10
0.0
 20
0.0
 30
0.0
 70
   128
 71
    67
 72
    57
 73
    58
  0
VERTEX
  5
35F
  8
0
 62
     9
 10
0.0
 20
0.0
 30
0.0
 70
   128
 71
    64
 72
    58
 73
    60
  0
VERTEX
  5
360
  8
0
 62
     9
 10
0.0
 20
0.0
 30
0.0
 70
   128
 71
    61
 72
    78
 73
    56
  0
VERTEX
  5
361
  8
0
 62
     9
 10
0.0
 20
0.0
 30
0.0
 70
   128
 71
    61
 72
    57
 73
    67
  0
SEQEND
  5
362
  8
0
 62
     9
  0
ENDBLK
  5
365
  8
0
  0
BLOCK
  8
0
  2
SKIN_580_1_
 70
     0
 10
0.0
 20
0.0
 30
0.0
  3
SKIN_580_1_
  1

  0
POLYLINE
  5
367
  8
0
 62
     9
 66
     1
 10
0.0
 20
0.0
 30
0.0
 70
    64
 71
    78
 72
   152
  0
VERTEX
  5
368
  8
0
 10
-4.775166034698486
 20
177.0860290527344
 30
-6.0
 70
   192
  0
VERTEX
  5
369
  8
0
 10
-8.35702896118164
 20
176.2011871337891
 30
-1.0
 70
   192
  0
VERTEX
  5
36A
  8
0
 10
-0.0667032673954964
 20
177.5051879882812
 30
-1.0
 70
   192
  0
VERTEX
  5
36B
  8
0
 10
4.771380424499512
 20
177.0876007080078
 30
-6.0
 70
   192
  0
VERTEX
  5
36C
  8
0
 10
8.379701614379883
 20
176.1992950439453
 30
-1.0
 70
   192
  0
VERTEX
  5
36D
  8
0
 10
21.05953216552734
 20
167.6921539306641
 30
-6.0
 70
   192
  0
VERTEX
  5
36E
  8
0
 10
13.73996162414551
 20
173.8264770507812
 30
-6.0
 70
   192
  0
VERTEX
  5
36F
  8
0
 10
16.13557624816895
 20
172.2733764648438
 30
-1.0
 70
   192
  0
VERTEX
  5
370
  8
0
 10
22.29939079284668
 20
166.1022796630859
 30
-1.0
 70
   192
  0
VERTEX
  5
371
  8
0
 10
25.84235000610352
 20
159.4221649169922
 30
-6.0
 70
   192
  0
VERTEX
  5
372
  8
0
 10
27.50475692749023
 20
150.013427734375
 30
-6.0
 70
   192
  0
VERTEX
  5
373
  8
0
 10
26.19127464294434
 20
158.3960418701172
 30
-1.0
 70
   192
  0
VERTEX
  5
374
  8
0
 10
27.50475692749023
 20
150.013427734375
 30
-1.0
 70
   192
  0
VERTEX
  5
375
  8
0
 10
-13.75342845916748
 20
173.8141021728516
 30
-6.0
 70
   192
  0
VERTEX
  5
376
  8
0
 10
-15.94902038574219
 20
172.4006500244141
 30
-1.0
 70
   192
  0
VERTEX
  5
377
  8
0
 10
-21.06820869445801
 20
167.6711120605469
 30
-6.0
 70
   192
  0
VERTEX
  5
378
  8
0
 10
-25.84149742126465
 20
159.4045867919922
 30
-6.0
 70
   192
  0
VERTEX
  5
379
  8
0
 10
-22.12625503540039
 20
166.3235015869141
 30
-1.0
 70
   192
  0
VERTEX
  5
37A
  8
0
 10
-27.5003604888916
 20
150.0134429931641
 30
-6.0
 70
   192
  0
VERTEX
  5
37B
  8
0
 10
-26.14177322387695
 20
158.5406341552734
 30
-1.0
 70
   192
  0
VERTEX
  5
37C
  8
0
 10
-27.5003604888916
 20
150.0134429931641
 30
-1.0
 70
   192
  0
VERTEX
  5
37D
  8
0
 10
-0.0620870441198349
 20
176.5052032470703
 30
-0.0000000000000035
 70
   192
  0
VERTEX
  5
37E
  8
0
 10
8.262231826782227
 20
175.9216766357422
 30
-0.2928932309150696
 70
   192
  0
VERTEX
  5
37F
  8
0
 10
-0.0782072767615318
 20
177.208251953125
 30
-0.2928932309150696
 70
   192
  0
VERTEX
  5
380
  8
0
 10
-26.5003604888916
 20
150.0134429931641
 30
-0.0000000000000035
 70
   192
  0
VERTEX
  5
381
  8
0
 10
-25.86975479125977
 20
158.4140167236328
 30
-0.2928932309150696
 70
   192
  0
VERTEX
  5
382
  8
0
 10
-27.20746803283691
 20
150.0134429931641
 30
-0.2928932309150696
 70
   192
  0
VERTEX
  5
383
  8
0
 10
8.077385902404785
 20
175.2460327148438
 30
-0.0000000000000035
 70
   192
  0
VERTEX
  5
384
  8
0
 10
15.95117092132568
 20
172.0470275878906
 30
-0.2928932309150696
 70
   192
  0
VERTEX
  5
385
  8
0
 10
22.04564476013184
 20
165.9541015625
 30
-0.2928932309150696
 70
   192
  0
VERTEX
  5
386
  8
0
 10
15.5513973236084
 20
171.4618225097656
 30
-0.0000000000000035
 70
   192
  0
VERTEX
  5
387
  8
0
 10
25.9058666229248
 20
158.3370666503906
 30
-0.2928932309150696
 70
   192
  0
VERTEX
  5
388
  8
0
 10
25.24020576477051
 20
158.0873107910156
 30
-0.0000000000000035
 70
   192
  0
VERTEX
  5
389
  8
0
 10
27.21165084838867
 20
150.0092010498047
 30
-0.2928932309150696
 70
   192
  0
VERTEX
  5
38A
  8
0
 10
26.50454902648926
 20
150.0093078613281
 30
-0.0000000000000035
 70
   192
  0
VERTEX
  5
38B
  8
0
 10
-8.051268577575684
 20
175.2491149902344
 30
-0.0000000000000035
 70
   192
  0
VERTEX
  5
38C
  8
0
 10
-8.282641410827637
 20
175.9202880859375
 30
-0.2928932309150696
 70
   192
  0
VERTEX
  5
38D
  8
0
 10
-15.79382991790771
 20
172.1535034179688
 30
-0.2928932309150696
 70
   192
  0
VERTEX
  5
38E
  8
0
 10
-15.367844581604
 20
171.5869445800781
 30
-0.0000000000000035
 70
   192
  0
VERTEX
  5
38F
  8
0
 10
-21.91642761230469
 20
166.1139221191406
 30
-0.2928932309150696
 70
   192
  0
VERTEX
  5
390
  8
0
 10
-21.32119941711426
 20
165.7305145263672
 30
-0.0000000000000035
 70
   192
  0
VERTEX
  5
391
  8
0
 10
-25.19113159179688
 20
158.2302703857422
 30
-0.0000000000000035
 70
   192
  0
VERTEX
  5
392
  8
0
 10
21.49073791503906
 20
165.5140533447266
 30
-0.0000000000000035
 70
   192
  0
VERTEX
  5
393
  8
0
 10
15.54658794403076
 20
128.5616455078125
 30
-0.0000000000000035
 70
   192
  0
VERTEX
  5
394
  8
0
 10
21.4869384765625
 20
134.5075378417969
 30
-0.0000000000000035
 70
   192
  0
VERTEX
  5
395
  8
0
 10
8.07215690612793
 20
124.7791290283203
 30
-0.0000000000000035
 70
   192
  0
VERTEX
  5
396
  8
0
 10
25.2378978729248
 20
141.9323272705078
 30
-0.0000000000000035
 70
   192
  0
VERTEX
  5
397
  8
0
 10
-25.19083976745605
 20
141.7960052490234
 30
-0.0000000000000035
 70
   192
  0
VERTEX
  5
398
  8
0
 10
-0.0668254941701889
 20
123.5216674804688
 30
-0.0000000000000035
 70
   192
  0
VERTEX
  5
399
  8
0
 10
-21.32154083251953
 20
134.2967834472656
 30
-0.0000000000000035
 70
   192
  0
VERTEX
  5
39A
  8
0
 10
-15.3695821762085
 20
128.4411926269531
 30
-0.0000000000000035
 70
   192
  0
VERTEX
  5
39B
  8
0
 10
-8.054658889770508
 20
124.7788543701172
 30
-0.0000000000000035
 70
   192
  0
VERTEX
  5
39C
  8
0
 10
25.84163856506348
 20
140.6034240722656
 30
-6.0
 70
   192
  0
VERTEX
  5
39D
  8
0
 10
21.0584888458252
 20
132.3333282470703
 30
-6.0
 70
   192
  0
VERTEX
  5
39E
  8
0
 10
13.73954582214355
 20
126.2002334594727
 30
-6.0
 70
   192
  0
VERTEX
  5
39F
  8
0
 10
4.771612167358398
 20
122.9394836425781
 30
-6.0
 70
   192
  0
VERTEX
  5
3A0
  8
0
 10
-25.84093284606934
 20
140.6207885742188
 30
-6.0
 70
   192
  0
VERTEX
  5
3A1
  8
0
 10
-4.774422645568848
 20
122.9406967163086
 30
-6.0
 70
   192
  0
VERTEX
  5
3A2
  8
0
 10
-13.75214195251465
 20
126.2120895385742
 30
-6.0
 70
   192
  0
VERTEX
  5
3A3
  8
0
 10
-21.06701469421387
 20
132.3541412353516
 30
-6.0
 70
   192
  0
VERTEX
  5
3A4
  8
0
 10
22.25126266479492
 20
133.8565979003906
 30
-1.0
 70
   192
  0
VERTEX
  5
3A5
  8
0
 10
25.91161155700684
 20
141.7200469970703
 30
-0.2928932309150696
 70
   192
  0
VERTEX
  5
3A6
  8
0
 10
22.06715202331543
 20
134.1134948730469
 30
-0.2928932309150696
 70
   192
  0
VERTEX
  5
3A7
  8
0
 10
8.508509635925293
 20
123.8712921142578
 30
-1.0
 70
   192
  0
VERTEX
  5
3A8
  8
0
 10
15.961501121521
 20
127.9901428222656
 30
-0.2928932309150696
 70
   192
  0
VERTEX
  5
3A9
  8
0
 10
8.288107872009277
 20
124.105339050293
 30
-0.2928932309150696
 70
   192
  0
VERTEX
  5
3AA
  8
0
 10
16.1696891784668
 20
127.77783203125
 30
-1.0
 70
   192
  0
VERTEX
  5
3AB
  8
0
 10
-8.266813278198242
 20
124.1040267944336
 30
-0.2928932309150696
 70
   192
  0
VERTEX
  5
3AC
  8
0
 10
-15.78007411956787
 20
127.8653564453125
 30
-0.2928932309150696
 70
   192
  0
VERTEX
  5
3AD
  8
0
 10
-16.15280151367188
 20
127.7710494995117
 30
-1.0
 70
   192
  0
VERTEX
  5
3AE
  8
0
 10
-0.0452090688049793
 20
122.8124694824219
 30
-0.2928932309150696
 70
   192
  0
VERTEX
  5
3AF
  8
0
 10
0.0013633974594995
 20
122.5213775634766
 30
-1.0
 70
   192
  0
VERTEX
  5
3B0
  8
0
 10
-25.85536766052246
 20
141.5625915527344
 30
-0.2928932309150696
 70
   192
  0
VERTEX
  5
3B1
  8
0
 10
-21.8790397644043
 20
133.8660125732422
 30
-0.2928932309150696
 70
   192
  0
VERTEX
  5
3B2
  8
0
 10
-26.14717674255371
 20
141.5073547363281
 30
-1.0
 70
   192
  0
VERTEX
  5
3B3
  8
0
 10
-22.23524856567383
 20
133.8484954833984
 30
-1.0
 70
   192
  0
VERTEX
  5
3B4
  8
0
 10
-8.481059074401855
 20
123.8658142089844
 30
-1.0
 70
   192
  0
VERTEX
  5
3B5
  8
0
 10
26.15894508361816
 20
141.5267333984375
 30
-1.0
 70
   192
  0
VERTEX
  5
3B6
  8
0
 62
     9
 10
0.0
 20
0.0
 30
0.0
 70
   128
 71
     3
 72
     2
 73
     1
  0
VERTEX
  5
3B7
  8
0
 62
     9
 10
0.0
 20
0.0
 30
0.0
 70
   128
 71
     4
 72
     3
 73
     1
  0
VERTEX
  5
3B8
  8
0
 62
     9
 10
0.0
 20
0.0
 30
0.0
 70
   128
 71
     3
 72
     4
 73
     5
  0
VERTEX
  5
3B9
  8
0
 62
     9
 10
0.0
 20
0.0
 30
0.0
 70
   128
 71
     8
 72
     7
 73
     6
  0
VERTEX
  5
3BA
  8
0
 62
     9
 10
0.0
 20
0.0
 30
0.0
 70
   128
 71
     4
 72
     7
 73
     5
  0
VERTEX
  5
3BB
  8
0
 62
     9
 10
0.0
 20
0.0
 30
0.0
 70
   128
 71
    10
 72
     9
 73
     6
  0
VERTEX
  5
3BC
  8
0
 62
     9
 10
0.0
 20
0.0
 30
0.0
 70
   128
 71
     6
 72
     9
 73
     8
  0
VERTEX
  5
3BD
  8
0
 62
     9
 10
0.0
 20
0.0
 30
0.0
 70
   128
 71
    12
 72
    10
 73
    11
  0
VERTEX
  5
3BE
  8
0
 62
     9
 10
0.0
 20
0.0
 30
0.0
 70
   128
 71
     9
 72
    10
 73
    12
  0
VERTEX
  5
3BF
  8
0
 62
     9
 10
0.0
 20
0.0
 30
0.0
 70
   128
 71
    12
 72
    11
 73
    13
  0
VERTEX
  5
3C0
  8
0
 62
     9
 10
0.0
 20
0.0
 30
0.0
 70
   128
 71
     8
 72
     5
 73
     7
  0
VERTEX
  5
3C1
  8
0
 62
     9
 10
0.0
 20
0.0
 30
0.0
 70
   128
 71
     2
 72
    14
 73
     1
  0
VERTEX
  5
3C2
  8
0
 62
     9
 10
0.0
 20
0.0
 30
0.0
 70
   128
 71
    16
 72
    14
 73
    15
  0
VERTEX
  5
3C3
  8
0
 62
     9
 10
0.0
 20
0.0
 30
0.0
 70
   128
 71
     2
 72
    15
 73
    14
  0
VERTEX
  5
3C4
  8
0
 62
     9
 10
0.0
 20
0.0
 30
0.0
 70
   128
 71
    16
 72
    18
 73
    17
  0
VERTEX
  5
3C5
  8
0
 62
     9
 10
0.0
 20
0.0
 30
0.0
 70
   128
 71
    18
 72
    16
 73
    15
  0
VERTEX
  5
3C6
  8
0
 62
     9
 10
0.0
 20
0.0
 30
0.0
 70
   128
 71
    20
 72
    19
 73
    17
  0
VERTEX
  5
3C7
  8
0
 62
     9
 10
0.0
 20
0.0
 30
0.0
 70
   128
 71
    17
 72
    18
 73
    20
  0
VERTEX
  5
3C8
  8
0
 62
     9
 10
0.0
 20
0.0
 30
0.0
 70
   128
 71
    20
 72
    21
 73
    19
  0
VERTEX
  5
3C9
  8
0
 62
     9
 10
0.0
 20
0.0
 30
0.0
 70
   128
 71
    24
 72
    23
 73
    22
  0
VERTEX
  5
3CA
  8
0
 62
     9
 10
0.0
 20
0.0
 30
0.0
 70
   128
 71
    27
 72
    26
 73
    25
  0
VERTEX
  5
3CB
  8
0
 62
     9
 10
0.0
 20
0.0
 30
0.0
 70
   128
 71
    29
 72
    28
 73
    23
  0
VERTEX
  5
3CC
  8
0
 62
     9
 10
0.0
 20
0.0
 30
0.0
 70
   128
 71
    23
 72
    24
 73
     5
  0
VERTEX
  5
3CD
  8
0
 62
     9
 10
0.0
 20
0.0
 30
0.0
 70
   128
 71
    31
 72
    29
 73
    30
  0
VERTEX
  5
3CE
  8
0
 62
     9
 10
0.0
 20
0.0
 30
0.0
 70
   128
 71
    23
 72
     8
 73
    29
  0
VERTEX
  5
3CF
  8
0
 62
     9
 10
0.0
 20
0.0
 30
0.0
 70
   128
 71
    34
 72
    33
 73
    32
  0
VERTEX
  5
3D0
  8
0
 62
     9
 10
0.0
 20
0.0
 30
0.0
 70
   128
 71
     9
 72
    30
 73
    29
  0
VERTEX
  5
3D1
  8
0
 62
     9
 10
0.0
 20
0.0
 30
0.0
 70
   128
 71
    12
 72
    13
 73
    32
  0
VERTEX
  5
3D2
  8
0
 62
     9
 10
0.0
 20
0.0
 30
0.0
 70
   128
 71
    32
 72
    13
 73
    34
  0
VERTEX
  5
3D3
  8
0
 62
     9
 10
0.0
 20
0.0
 30
0.0
 70
   128
 71
    34
 72
    35
 73
    33
  0
VERTEX
  5
3D4
  8
0
 62
     9
 10
0.0
 20
0.0
 30
0.0
 70
   128
 71
    37
 72
    24
 73
    36
  0
VERTEX
  5
3D5
  8
0
 62
     9
 10
0.0
 20
0.0
 30
0.0
 70
   128
 71
     3
 72
    24
 73
    37
  0
VERTEX
  5
3D6
  8
0
 62
     9
 10
0.0
 20
0.0
 30
0.0
 70
   128
 71
    37
 72
    39
 73
    38
  0
VERTEX
  5
3D7
  8
0
 62
     9
 10
0.0
 20
0.0
 30
0.0
 70
   128
 71
    37
 72
    38
 73
     2
  0
VERTEX
  5
3D8
  8
0
 62
     9
 10
0.0
 20
0.0
 30
0.0
 70
   128
 71
    41
 72
    40
 73
    38
  0
VERTEX
  5
3D9
  8
0
 62
     9
 10
0.0
 20
0.0
 30
0.0
 70
   128
 71
    40
 72
    15
 73
    38
  0
VERTEX
  5
3DA
  8
0
 62
     9
 10
0.0
 20
0.0
 30
0.0
 70
   128
 71
    26
 72
    40
 73
    42
  0
VERTEX
  5
3DB
  8
0
 62
     9
 10
0.0
 20
0.0
 30
0.0
 70
   128
 71
    18
 72
    40
 73
    26
  0
VERTEX
  5
3DC
  8
0
 62
     9
 10
0.0
 20
0.0
 30
0.0
 70
   128
 71
    26
 72
    42
 73
    25
  0
VERTEX
  5
3DD
  8
0
 62
     9
 10
0.0
 20
0.0
 30
0.0
 70
   128
 71
    26
 72
    27
 73
    20
  0
VERTEX
  5
3DE
  8
0
 62
     9
 10
0.0
 20
0.0
 30
0.0
 70
   128
 71
    27
 72
    21
 73
    20
  0
VERTEX
  5
3DF
  8
0
 62
     9
 10
0.0
 20
0.0
 30
0.0
 70
   128
 71
    41
 72
    42
 73
    40
  0
VERTEX
  5
3E0
  8
0
 62
     9
 10
0.0
 20
0.0
 30
0.0
 70
   128
 71
    26
 72
    20
 73
    18
  0
VERTEX
  5
3E1
  8
0
 62
     9
 10
0.0
 20
0.0
 30
0.0
 70
   128
 71
    39
 72
    41
 73
    38
  0
VERTEX
  5
3E2
  8
0
 62
     9
 10
0.0
 20
0.0
 30
0.0
 70
   128
 71
    40
 72
    18
 73
    15
  0
VERTEX
  5
3E3
  8
0
 62
     9
 10
0.0
 20
0.0
 30
0.0
 70
   128
 71
    36
 72
    39
 73
    37
  0
VERTEX
  5
3E4
  8
0
 62
     9
 10
0.0
 20
0.0
 30
0.0
 70
   128
 71
    38
 72
    15
 73
     2
  0
VERTEX
  5
3E5
  8
0
 62
     9
 10
0.0
 20
0.0
 30
0.0
 70
   128
 71
    22
 72
    36
 73
    24
  0
VERTEX
  5
3E6
  8
0
 62
     9
 10
0.0
 20
0.0
 30
0.0
 70
   128
 71
    37
 72
     2
 73
     3
  0
VERTEX
  5
3E7
  8
0
 62
     9
 10
0.0
 20
0.0
 30
0.0
 70
   128
 71
    28
 72
    22
 73
    23
  0
VERTEX
  5
3E8
  8
0
 62
     9
 10
0.0
 20
0.0
 30
0.0
 70
   128
 71
    24
 72
     3
 73
     5
  0
VERTEX
  5
3E9
  8
0
 62
     9
 10
0.0
 20
0.0
 30
0.0
 70
   128
 71
    31
 72
    28
 73
    29
  0
VERTEX
  5
3EA
  8
0
 62
     9
 10
0.0
 20
0.0
 30
0.0
 70
   128
 71
    23
 72
     5
 73
     8
  0
VERTEX
  5
3EB
  8
0
 62
     9
 10
0.0
 20
0.0
 30
0.0
 70
   128
 71
    43
 72
    31
 73
    30
  0
VERTEX
  5
3EC
  8
0
 62
     9
 10
0.0
 20
0.0
 30
0.0
 70
   128
 71
    29
 72
     8
 73
     9
  0
VERTEX
  5
3ED
  8
0
 62
     9
 10
0.0
 20
0.0
 30
0.0
 70
   128
 71
    33
 72
    43
 73
    32
  0
VERTEX
  5
3EE
  8
0
 62
     9
 10
0.0
 20
0.0
 30
0.0
 70
   128
 71
    30
 72
     9
 73
    12
  0
VERTEX
  5
3EF
  8
0
 62
     9
 10
0.0
 20
0.0
 30
0.0
 70
   128
 71
    30
 72
    32
 73
    43
  0
VERTEX
  5
3F0
  8
0
 62
     9
 10
0.0
 20
0.0
 30
0.0
 70
   128
 71
    32
 72
    30
 73
    12
  0
VERTEX
  5
3F1
  8
0
 62
     9
 10
0.0
 20
0.0
 30
0.0
 70
   128
 71
    45
 72
    44
 73
    39
  0
VERTEX
  5
3F2
  8
0
 62
     9
 10
0.0
 20
0.0
 30
0.0
 70
   128
 71
    33
 72
    28
 73
    31
  0
VERTEX
  5
3F3
  8
0
 62
     9
 10
0.0
 20
0.0
 30
0.0
 70
   128
 71
    31
 72
    43
 73
    33
  0
VERTEX
  5
3F4
  8
0
 62
     9
 10
0.0
 20
0.0
 30
0.0
 70
   128
 71
    35
 72
    22
 73
    33
  0
VERTEX
  5
3F5
  8
0
 62
     9
 10
0.0
 20
0.0
 30
0.0
 70
   128
 71
    28
 72
    33
 73
    22
  0
VERTEX
  5
3F6
  8
0
 62
     9
 10
0.0
 20
0.0
 30
0.0
 70
   128
 71
    46
 72
    42
 73
    41
  0
VERTEX
  5
3F7
  8
0
 62
     9
 10
0.0
 20
0.0
 30
0.0
 70
   128
 71
    22
 72
    47
 73
    36
  0
VERTEX
  5
3F8
  8
0
 62
     9
 10
0.0
 20
0.0
 30
0.0
 70
   128
 71
    49
 72
    48
 73
    25
  0
VERTEX
  5
3F9
  8
0
 62
     9
 10
0.0
 20
0.0
 30
0.0
 70
   128
 71
    48
 72
    51
 73
    50
  0
VERTEX
  5
3FA
  8
0
 62
     9
 10
0.0
 20
0.0
 30
0.0
 70
   128
 71
    49
 72
    52
 73
    48
  0
VERTEX
  5
3FB
  8
0
 62
     9
 10
0.0
 20
0.0
 30
0.0
 70
   128
 71
    48
 72
    52
 73
    51
  0
VERTEX
  5
3FC
  8
0
 62
     9
 10
0.0
 20
0.0
 30
0.0
 70
   128
 71
    25
 72
    42
 73
    49
  0
VERTEX
  5
3FD
  8
0
 62
     9
 10
0.0
 20
0.0
 30
0.0
 70
   128
 71
    46
 72
    41
 73
    44
  0
VERTEX
  5
3FE
  8
0
 62
     9
 10
0.0
 20
0.0
 30
0.0
 70
   128
 71
    49
 72
    42
 73
    46
  0
VERTEX
  5
3FF
  8
0
 62
     9
 10
0.0
 20
0.0
 30
0.0
 70
   128
 71
    39
 72
    36
 73
    45
  0
VERTEX
  5
400
  8
0
 62
     9
 10
0.0
 20
0.0
 30
0.0
 70
   128
 71
    41
 72
    39
 73
    44
  0
VERTEX
  5
401
  8
0
 62
     9
 10
0.0
 20
0.0
 30
0.0
 70
   128
 71
    35
 72
    47
 73
    22
  0
VERTEX
  5
402
  8
0
 62
     9
 10
0.0
 20
0.0
 30
0.0
 70
   128
 71
    36
 72
    47
 73
    45
  0
VERTEX
  5
403
  8
0
 62
     9
 10
0.0
 20
0.0
 30
0.0
 70
   128
 71
     1
 72
    53
 73
    11
  0
VERTEX
  5
404
  8
0
 62
     9
 10
0.0
 20
0.0
 30
0.0
 70
   128
 71
     4
 72
    11
 73
    10
  0
VERTEX
  5
405
  8
0
 62
     9
 10
0.0
 20
0.0
 30
0.0
 70
   128
 71
     7
 72
     4
 73
    10
  0
VERTEX
  5
406
  8
0
 62
     9
 10
0.0
 20
0.0
 30
0.0
 70
   128
 71
     7
 72
    10
 73
     6
  0
VERTEX
  5
407
  8
0
 62
     9
 10
0.0
 20
0.0
 30
0.0
 70
   128
 71
     1
 72
    11
 73
     4
  0
VERTEX
  5
408
  8
0
 62
     9
 10
0.0
 20
0.0
 30
0.0
 70
   128
 71
    54
 72
    53
 73
    14
  0
VERTEX
  5
409
  8
0
 62
     9
 10
0.0
 20
0.0
 30
0.0
 70
   128
 71
    53
 72
     1
 73
    14
  0
VERTEX
  5
40A
  8
0
 62
     9
 10
0.0
 20
0.0
 30
0.0
 70
   128
 71
    16
 72
    54
 73
    14
  0
VERTEX
  5
40B
  8
0
 62
     9
 10
0.0
 20
0.0
 30
0.0
 70
   128
 71
    55
 72
    54
 73
    16
  0
VERTEX
  5
40C
  8
0
 62
     9
 10
0.0
 20
0.0
 30
0.0
 70
   128
 71
    55
 72
    16
 73
    17
  0
VERTEX
  5
40D
  8
0
 62
     9
 10
0.0
 20
0.0
 30
0.0
 70
   128
 71
    56
 72
    17
 73
    19
  0
VERTEX
  5
40E
  8
0
 62
     9
 10
0.0
 20
0.0
 30
0.0
 70
   128
 71
    17
 72
    56
 73
    55
  0
VERTEX
  5
40F
  8
0
 62
     9
 10
0.0
 20
0.0
 30
0.0
 70
   128
 71
    59
 72
    58
 73
    57
  0
VERTEX
  5
410
  8
0
 62
     9
 10
0.0
 20
0.0
 30
0.0
 70
   128
 71
    58
 72
    56
 73
    19
  0
VERTEX
  5
411
  8
0
 62
     9
 10
0.0
 20
0.0
 30
0.0
 70
   128
 71
    19
 72
    57
 73
    58
  0
VERTEX
  5
412
  8
0
 62
     9
 10
0.0
 20
0.0
 30
0.0
 70
   128
 71
    57
 72
    60
 73
    59
  0
VERTEX
  5
413
  8
0
 62
     9
 10
0.0
 20
0.0
 30
0.0
 70
   128
 71
    63
 72
    62
 73
    61
  0
VERTEX
  5
414
  8
0
 62
     9
 10
0.0
 20
0.0
 30
0.0
 70
   128
 71
    35
 72
    62
 73
    47
  0
VERTEX
  5
415
  8
0
 62
     9
 10
0.0
 20
0.0
 30
0.0
 70
   128
 71
    66
 72
    65
 73
    64
  0
VERTEX
  5
416
  8
0
 62
     9
 10
0.0
 20
0.0
 30
0.0
 70
   128
 71
    67
 72
    63
 73
    61
  0
VERTEX
  5
417
  8
0
 62
     9
 10
0.0
 20
0.0
 30
0.0
 70
   128
 71
    70
 72
    69
 73
    68
  0
VERTEX
  5
418
  8
0
 62
     9
 10
0.0
 20
0.0
 30
0.0
 70
   128
 71
    72
 72
    71
 73
    66
  0
VERTEX
  5
419
  8
0
 62
     9
 10
0.0
 20
0.0
 30
0.0
 70
   128
 71
    73
 72
    27
 73
    48
  0
VERTEX
  5
41A
  8
0
 62
     9
 10
0.0
 20
0.0
 30
0.0
 70
   128
 71
    74
 72
    51
 73
    69
  0
VERTEX
  5
41B
  8
0
 62
     9
 10
0.0
 20
0.0
 30
0.0
 70
   128
 71
    73
 72
    75
 73
    21
  0
VERTEX
  5
41C
  8
0
 62
     9
 10
0.0
 20
0.0
 30
0.0
 70
   128
 71
    27
 72
    73
 73
    21
  0
VERTEX
  5
41D
  8
0
 62
     9
 10
0.0
 20
0.0
 30
0.0
 70
   128
 71
    48
 72
    27
 73
    25
  0
VERTEX
  5
41E
  8
0
 62
     9
 10
0.0
 20
0.0
 30
0.0
 70
   128
 71
    69
 72
    76
 73
    74
  0
VERTEX
  5
41F
  8
0
 62
     9
 10
0.0
 20
0.0
 30
0.0
 70
   128
 71
    70
 72
    68
 73
    77
  0
VERTEX
  5
420
  8
0
 62
     9
 10
0.0
 20
0.0
 30
0.0
 70
   128
 71
    76
 72
    69
 73
    70
  0
VERTEX
  5
421
  8
0
 62
     9
 10
0.0
 20
0.0
 30
0.0
 70
   128
 71
    46
 72
    66
 73
    71
  0
VERTEX
  5
422
  8
0
 62
     9
 10
0.0
 20
0.0
 30
0.0
 70
   128
 71
    77
 72
    68
 73
    71
  0
VERTEX
  5
423
  8
0
 62
     9
 10
0.0
 20
0.0
 30
0.0
 70
   128
 71
    64
 72
    65
 73
    67
  0
VERTEX
  5
424
  8
0
 62
     9
 10
0.0
 20
0.0
 30
0.0
 70
   128
 71
    72
 72
    66
 73
    64
  0
VERTEX
  5
425
  8
0
 62
     9
 10
0.0
 20
0.0
 30
0.0
 70
   128
 71
    47
 72
    63
 73
    45
  0
VERTEX
  5
426
  8
0
 62
     9
 10
0.0
 20
0.0
 30
0.0
 70
   128
 71
    65
 72
    63
 73
    67
  0
VERTEX
  5
427
  8
0
 62
     9
 10
0.0
 20
0.0
 30
0.0
 70
   128
 71
    78
 72
    34
 73
    13
  0
VERTEX
  5
428
  8
0
 62
     9
 10
0.0
 20
0.0
 30
0.0
 70
   128
 71
    35
 72
    34
 73
    62
  0
VERTEX
  5
429
  8
0
 62
     9
 10
0.0
 20
0.0
 30
0.0
 70
   128
 71
    62
 72
    34
 73
    78
  0
VERTEX
  5
42A
  8
0
 62
     9
 10
0.0
 20
0.0
 30
0.0
 70
   128
 71
    62
 72
    78
 73
    61
  0
VERTEX
  5
42B
  8
0
 62
     9
 10
0.0
 20
0.0
 30
0.0
 70
   128
 71
    44
 72
    45
 73
    65
  0
VERTEX
  5
42C
  8
0
 62
     9
 10
0.0
 20
0.0
 30
0.0
 70
   128
 71
    62
 72
    63
 73
    47
  0
VERTEX
  5
42D
  8
0
 62
     9
 10
0.0
 20
0.0
 30
0.0
 70
   128
 71
    63
 72
    65
 73
    45
  0
VERTEX
  5
42E
  8
0
 62
     9
 10
0.0
 20
0.0
 30
0.0
 70
   128
 71
    66
 72
    46
 73
    44
  0
VERTEX
  5
42F
  8
0
 62
     9
 10
0.0
 20
0.0
 30
0.0
 70
   128
 71
    65
 72
    66
 73
    44
  0
VERTEX
  5
430
  8
0
 62
     9
 10
0.0
 20
0.0
 30
0.0
 70
   128
 71
    71
 72
    49
 73
    46
  0
VERTEX
  5
431
  8
0
 62
     9
 10
0.0
 20
0.0
 30
0.0
 70
   128
 71
    52
 72
    49
 73
    68
  0
VERTEX
  5
432
  8
0
 62
     9
 10
0.0
 20
0.0
 30
0.0
 70
   128
 71
    71
 72
    72
 73
    77
  0
VERTEX
  5
433
  8
0
 62
     9
 10
0.0
 20
0.0
 30
0.0
 70
   128
 71
    71
 72
    68
 73
    49
  0
VERTEX
  5
434
  8
0
 62
     9
 10
0.0
 20
0.0
 30
0.0
 70
   128
 71
    69
 72
    51
 73
    52
  0
VERTEX
  5
435
  8
0
 62
     9
 10
0.0
 20
0.0
 30
0.0
 70
   128
 71
    50
 72
    51
 73
    74
  0
VERTEX
  5
436
  8
0
 62
     9
 10
0.0
 20
0.0
 30
0.0
 70
   128
 71
    68
 72
    69
 73
    52
  0
VERTEX
  5
437
  8
0
 62
     9
 10
0.0
 20
0.0
 30
0.0
 70
   128
 71
    48
 72
    50
 73
    73
  0
VERTEX
  5
438
  8
0
 62
     9
 10
0.0
 20
0.0
 30
0.0
 70
   128
 71
    74
 72
    76
 73
    75
  0
VERTEX
  5
439
  8
0
 62
     9
 10
0.0
 20
0.0
 30
0.0
 70
   128
 71
    74
 72
    73
 73
    50
  0
VERTEX
  5
43A
  8
0
 62
     9
 10
0.0
 20
0.0
 30
0.0
 70
   128
 71
    73
 72
    74
 73
    75
  0
VERTEX
  5
43B
  8
0
 62
     9
 10
0.0
 20
0.0
 30
0.0
 70
   128
 71
    78
 72
    13
 73
    11
  0
VERTEX
  5
43C
  8
0
 62
     9
 10
0.0
 20
0.0
 30
0.0
 70
   128
 71
    67
 72
    55
 73
    64
  0
VERTEX
  5
43D
  8
0
 62
     9
 10
0.0
 20
0.0
 30
0.0
 70
   128
 71
    61
 72
    53
 73
    54
  0
VERTEX
  5
43E
  8
0
 62
     9
 10
0.0
 20
0.0
 30
0.0
 70
   128
 71
    70
 72
    77
 73
    59
  0
VERTEX
  5
43F
  8
0
 62
     9
 10
0.0
 20
0.0
 30
0.0
 70
   128
 71
    58
 72
    72
 73
    56
  0
VERTEX
  5
440
  8
0
 62
     9
 10
0.0
 20
0.0
 30
0.0
 70
   128
 71
    76
 72
    60
 73
    57
  0
VERTEX
  5
441
  8
0
 62
     9
 10
0.0
 20
0.0
 30
0.0
 70
   128
 71
    60
 72
    76
 73
    70
  0
VERTEX
  5
442
  8
0
 62
     9
 10
0.0
 20
0.0
 30
0.0
 70
   128
 71
    57
 72
    19
 73
    75
  0
VERTEX
  5
443
  8
0
 62
     9
 10
0.0
 20
0.0
 30
0.0
 70
   128
 71
    75
 72
    76
 73
    57
  0
VERTEX
  5
444
  8
0
 62
     9
 10
0.0
 20
0.0
 30
0.0
 70
   128
 71
    75
 72
    19
 73
    21
  0
VERTEX
  5
445
  8
0
 62
     9
 10
0.0
 20
0.0
 30
0.0
 70
   128
 71
    59
 72
    77
 73
    58
  0
VERTEX
  5
446
  8
0
 62
     9
 10
0.0
 20
0.0
 30
0.0
 70
   128
 71
    60
 72
    70
 73
    59
  0
VERTEX
  5
447
  8
0
 62
     9
 10
0.0
 20
0.0
 30
0.0
 70
   128
 71
    56
 72
    72
 73
    64
  0
VERTEX
  5
448
  8
0
 62
     9
 10
0.0
 20
0.0
 30
0.0
 70
   128
 71
    77
 72
    72
 73
    58
  0
VERTEX
  5
449
  8
0
 62
     9
 10
0.0
 20
0.0
 30
0.0
 70
   128
 71
    53
 72
    78
 73
    11
  0
VERTEX
  5
44A
  8
0
 62
     9
 10
0.0
 20
0.0
 30
0.0
 70
   128
 71
    67
 72
    54
 73
    55
  0
VERTEX
  5
44B
  8
0
 62
     9
 10
0.0
 20
0.0
 30
0.0
 70
   128
 71
    64
 72
    55
 73
    56
  0
VERTEX
  5
44C
  8
0
 62
     9
 10
0.0
 20
0.0
 30
0.0
 70
   128
 71
    61
 72
    78
 73
    53
  0
VERTEX
  5
44D
  8
0
 62
     9
 10
0.0
 20
0.0
 30
0.0
 70
   128
 71
    61
 72
    54
 73
    67
  0
SEQEND
  5
44E
  8
0
 62
     9
  0
ENDBLK
  5
451
  8
0
  0
BLOCK
  8
0
  2
1
 70
     0
 10
0.0
 20
0.0
 30
0.0
  3
1
  1

  0
POLYLINE
  5
453
  8
0
 62
     9
 66
     1
 10
0.0
 20
0.0
 30
0.0
 70
    64
 71
   192
 72
   366
  0
VERTEX
  5
454
  8
0
 10
-0.0000146820721056
 20
-135.4655609130859
 30
35.00318908691406
 70
   192
  0
VERTEX
  5
455
  8
0
 10
-4.956035614013672
 20
-135.7990417480469
 30
34.53879547119141
 70
   192
  0
VERTEX
  5
456
  8
0
 10
-0.0000142204253279
 20
-134.9668273925781
 30
34.53881072998047
 70
   192
  0
VERTEX
  5
457
  8
0
 10
-14.69536209106445
 20
-146.5348052978516
 30
34.53804779052734
 70
   192
  0
VERTEX
  5
458
  8
0
 10
-12.74148464202881
 20
-141.908935546875
 30
34.53840255737305
 70
   192
  0
VERTEX
  5
459
  8
0
 10
-13.87437057495117
 20
-145.4790649414062
 30
35.00318908691406
 70
   192
  0
VERTEX
  5
45A
  8
0
 10
-10.82250308990479
 20
-140.2567596435547
 30
35.00318908691406
 70
   192
  0
VERTEX
  5
45B
  8
0
 10
-9.342842102050781
 20
-138.2203979492188
 30
34.5385627746582
 70
   192
  0
VERTEX
  5
45C
  8
0
 10
-5.917817115783691
 20
-136.7169189453125
 30
35.00318908691406
 70
   192
  0
VERTEX
  5
45D
  8
0
 10
-14.55093574523926
 20
-151.4897918701172
 30
35.00318908691406
 70
   192
  0
VERTEX
  5
45E
  8
0
 10
-15.04754447937012
 20
-151.5377349853516
 30
34.53748321533203
 70
   192
  0
VERTEX
  5
45F
  8
0
 10
-12.16697788238525
 20
-181.0934600830078
 30
34.63612747192383
 70
   192
  0
VERTEX
  5
460
  8
0
 10
-12.26317310333252
 20
-175.1367950439453
 30
35.00317764282227
 70
   192
  0
VERTEX
  5
461
  8
0
 10
-11.68924427032471
 20
-181.0470733642578
 30
35.00317764282227
 70
   192
  0
VERTEX
  5
462
  8
0
 10
-12.74310302734375
 20
-175.1823272705078
 30
34.61641693115234
 70
   192
  0
VERTEX
  5
463
  8
0
 10
-13.31912040710449
 20
-169.2711639404297
 30
34.59664535522461
 70
   192
  0
VERTEX
  5
464
  8
0
 10
-12.83634853363037
 20
-169.2248687744141
 30
35.003173828125
 70
   192
  0
VERTEX
  5
465
  8
0
 10
-13.89513778686523
 20
-163.3600158691406
 30
34.57687759399414
 70
   192
  0
VERTEX
  5
466
  8
0
 10
-13.40862369537354
 20
-163.3133544921875
 30
35.003173828125
 70
   192
  0
VERTEX
  5
467
  8
0
 10
-13.980637550354
 20
-157.3964538574219
 30
35.003173828125
 70
   192
  0
VERTEX
  5
468
  8
0
 10
-14.47115421295166
 20
-157.4488525390625
 30
34.55710601806641
 70
   192
  0
VERTEX
  5
469
  8
0
 10
-11.58817195892334
 20
-187.0043487548828
 30
34.65436172485352
 70
   192
  0
VERTEX
  5
46A
  8
0
 10
-11.11482334136963
 20
-186.9571380615234
 30
35.00317764282227
 70
   192
  0
VERTEX
  5
46B
  8
0
 10
-10.53942489624023
 20
-192.8673248291016
 30
35.00317764282227
 70
   192
  0
VERTEX
  5
46C
  8
0
 10
-11.00733757019043
 20
-192.9150390625
 30
34.67147827148438
 70
   192
  0
VERTEX
  5
46D
  8
0
 10
-9.976555824279785
 20
-198.7825317382812
 30
35.00317764282227
 70
   192
  0
VERTEX
  5
46E
  8
0
 10
-10.62069892883301
 20
-198.918212890625
 30
34.69242477416992
 70
   192
  0
VERTEX
  5
46F
  8
0
 10
-9.094473838806152
 20
-204.6992492675781
 30
34.76119232177734
 70
   192
  0
VERTEX
  5
470
  8
0
 10
-9.013777732849121
 20
-204.6439514160156
 30
35.00318145751953
 70
   192
  0
VERTEX
  5
471
  8
0
 10
-5.581491947174072
 20
-209.3697357177734
 30
35.0031852722168
 70
   192
  0
VERTEX
  5
472
  8
0
 10
-5.860334873199463
 20
-209.6022796630859
 30
34.86890029907227
 70
   192
  0
VERTEX
  5
473
  8
0
 10
0.0000000102169011
 20
-211.1336517333984
 30
35.0031852722168
 70
   192
  0
VERTEX
  5
474
  8
0
 10
-15.24327087402344
 20
-151.2917175292969
 30
32.01612091064453
 70
   192
  0
VERTEX
  5
475
  8
0
 10
-14.92868423461914
 20
-153.8153228759766
 30
31.3853816986084
 70
   192
  0
VERTEX
  5
476
  8
0
 10
-14.96181869506836
 20
-153.601318359375
 30
30.86157417297363
 70
   192
  0
VERTEX
  5
477
  8
0
 10
-14.30999660491943
 20
-156.2655181884766
 30
30.83977699279785
 70
   192
  0
VERTEX
  5
478
  8
0
 10
-14.31495189666748
 20
-155.8683624267578
 30
29.78708839416504
 70
   192
  0
VERTEX
  5
479
  8
0
 10
-14.79345607757568
 20
-156.7711486816406
 30
32.11882019042969
 70
   192
  0
VERTEX
  5
47A
  8
0
 10
-15.01935005187988
 20
-154.0312957763672
 30
32.07421493530273
 70
   192
  0
VERTEX
  5
47B
  8
0
 10
-0.0000601992978773
 20
-165.7188262939453
 30
26.76883697509766
 70
   192
  0
VERTEX
  5
47C
  8
0
 10
-4.707670211791992
 20
-165.7769317626953
 30
29.12048530578613
 70
   192
  0
VERTEX
  5
47D
  8
0
 10
0.0000265155595116
 20
-166.4976501464844
 30
28.99180793762207
 70
   192
  0
VERTEX
  5
47E
  8
0
 10
-12.17542171478271
 20
-159.7532348632812
 30
28.2829475402832
 70
   192
  0
VERTEX
  5
47F
  8
0
 10
-12.27958202362061
 20
-160.4026641845703
 30
30.08640480041504
 70
   192
  0
VERTEX
  5
480
  8
0
 10
-8.96090316772461
 20
-163.6780700683594
 30
29.49914932250977
 70
   192
  0
VERTEX
  5
481
  8
0
 10
-8.824256896972656
 20
-162.9447174072266
 30
27.40449333190918
 70
   192
  0
VERTEX
  5
482
  8
0
 10
-5.139771938323975
 20
-167.8482208251953
 30
30.10665893554688
 70
   192
  0
VERTEX
  5
483
  8
0
 10
-4.633906841278076
 20
-165.0062255859375
 30
26.9254322052002
 70
   192
  0
VERTEX
  5
484
  8
0
 10
-0.0000173326461663
 20
-168.6416778564453
 30
29.96718597412109
 70
   192
  0
VERTEX
  5
485
  8
0
 10
-9.767662048339844
 20
-165.5138397216797
 30
30.52626800537109
 70
   192
  0
VERTEX
  5
486
  8
0
 10
-13.24609088897705
 20
-161.7246704101562
 30
31.22005844116211
 70
   192
  0
VERTEX
  5
487
  8
0
 10
-12.48378658294678
 20
-184.1181488037109
 30
32.06742477416992
 70
   192
  0
VERTEX
  5
488
  8
0
 10
-11.92661571502686
 20
-190.7552490234375
 30
32.08850479125977
 70
   192
  0
VERTEX
  5
489
  8
0
 10
-12.26255416870117
 20
-183.7014312744141
 30
31.82501983642578
 70
   192
  0
VERTEX
  5
48A
  8
0
 10
-14.23053932189941
 20
-163.5338439941406
 30
32.1933479309082
 70
   192
  0
VERTEX
  5
48B
  8
0
 10
-14.71342372894287
 20
-157.572998046875
 30
31.95201301574707
 70
   192
  0
VERTEX
  5
48C
  8
0
 10
-11.39962959289551
 20
-197.3463897705078
 30
32.51144409179688
 70
   192
  0
VERTEX
  5
48D
  8
0
 10
-11.36856365203857
 20
-197.3883209228516
 30
32.10922241210938
 70
   192
  0
VERTEX
  5
48E
  8
0
 10
-11.66228771209717
 20
-190.435546875
 30
31.83961486816406
 70
   192
  0
VERTEX
  5
48F
  8
0
 10
-11.05723476409912
 20
-197.1692199707031
 30
31.85573768615723
 70
   192
  0
VERTEX
  5
490
  8
0
 10
-10.70100402832031
 20
-204.0426788330078
 30
32.13652420043945
 70
   192
  0
VERTEX
  5
491
  8
0
 10
-10.81857299804688
 20
-204.1511535644531
 30
32.57745361328125
 70
   192
  0
VERTEX
  5
492
  8
0
 10
-11.97012901306152
 20
-190.5840606689453
 30
32.46578216552734
 70
   192
  0
VERTEX
  5
493
  8
0
 10
-8.23937702178955
 20
-210.3382568359375
 30
32.67498779296875
 70
   192
  0
VERTEX
  5
494
  8
0
 10
-9.981269836425781
 20
-203.7780303955078
 30
31.86124610900879
 70
   192
  0
VERTEX
  5
495
  8
0
 10
-8.321659088134766
 20
-210.4005584716797
 30
32.17564392089844
 70
   192
  0
VERTEX
  5
496
  8
0
 10
-8.022584915161133
 20
-210.1524963378906
 30
31.84547805786133
 70
   192
  0
VERTEX
  5
497
  8
0
 10
-13.04120254516602
 20
-177.4809417724609
 30
32.04394149780273
 70
   192
  0
VERTEX
  5
498
  8
0
 10
-12.54159927368164
 20
-183.8218383789062
 30
32.42045974731445
 70
   192
  0
VERTEX
  5
499
  8
0
 10
-12.86765766143799
 20
-176.9677276611328
 30
31.81214332580566
 70
   192
  0
VERTEX
  5
49A
  8
0
 10
-13.5985803604126
 20
-170.8451690673828
 30
32.01730728149414
 70
   192
  0
VERTEX
  5
49B
  8
0
 10
-13.10567951202393
 20
-177.0592346191406
 30
32.34853363037109
 70
   192
  0
VERTEX
  5
49C
  8
0
 10
-14.15604496002197
 20
-164.2089538574219
 30
31.98655700683594
 70
   192
  0
VERTEX
  5
49D
  8
0
 10
-13.47801303863525
 20
-170.2344970703125
 30
31.80070686340332
 70
   192
  0
VERTEX
  5
49E
  8
0
 10
-13.66805744171143
 20
-170.2965393066406
 30
32.2707633972168
 70
   192
  0
VERTEX
  5
49F
  8
0
 10
-14.08836841583252
 20
-163.5012664794922
 30
31.78927230834961
 70
   192
  0
VERTEX
  5
4A0
  8
0
 10
-4.613397121429443
 20
-213.2648315429688
 30
32.19215774536133
 70
   192
  0
VERTEX
  5
4A1
  8
0
 10
-4.533859252929688
 20
-213.1334686279297
 30
32.70615768432617
 70
   192
  0
VERTEX
  5
4A2
  8
0
 10
-4.434847354888916
 20
-212.9056243896484
 30
31.83602714538574
 70
   192
  0
VERTEX
  5
4A3
  8
0
 10
0.0000000102144577
 20
-213.9183807373047
 30
31.81217384338379
 70
   192
  0
VERTEX
  5
4A4
  8
0
 10
-0.0000493495463161
 20
-214.3194274902344
 30
32.17744064331055
 70
   192
  0
VERTEX
  5
4A5
  8
0
 10
0.0000000102116555
 20
-214.1515502929688
 30
32.69326019287109
 70
   192
  0
VERTEX
  5
4A6
  8
0
 10
-17.22745132446289
 20
-153.0366058349609
 30
0.0000014545628346
 70
   192
  0
VERTEX
  5
4A7
  8
0
 10
-15.09608268737793
 20
-158.7100524902344
 30
0.0000000121834614
 70
   192
  0
VERTEX
  5
4A8
  8
0
 10
-11.25437164306641
 20
-163.4004364013672
 30
-0.0000000000000199
 70
   192
  0
VERTEX
  5
4A9
  8
0
 10
-5.991479396820068
 20
-166.4414978027344
 30
-0.0000000000000177
 70
   192
  0
VERTEX
  5
4AA
  8
0
 10
0.0000015847025452
 20
-167.5000152587891
 30
0.0000019145404622
 70
   192
  0
VERTEX
  5
4AB
  8
0
 10
-17.2144889831543
 20
-146.9667510986328
 30
-0.0000007718918482
 70
   192
  0
VERTEX
  5
4AC
  8
0
 10
-15.15348243713379
 20
-141.2489624023438
 30
-0.0000000000000182
 70
   192
  0
VERTEX
  5
4AD
  8
0
 10
-11.24721240997314
 20
-136.5932464599609
 30
-0.0000000000000195
 70
   192
  0
VERTEX
  5
4AE
  8
0
 10
-5.982211589813232
 20
-133.5550994873047
 30
-0.0000000000000175
 70
   192
  0
VERTEX
  5
4AF
  8
0
 10
0.0000000102438458
 20
-132.4999847412109
 30
-0.0000000000000194
 70
   192
  0
VERTEX
  5
4B0
  8
0
 10
-10.66749286651611
 20
-174.4232482910156
 30
30.99087905883789
 70
   192
  0
VERTEX
  5
4B1
  8
0
 10
-0.0000047533017096
 20
-189.4177551269531
 30
30.4564266204834
 70
   192
  0
VERTEX
  5
4B2
  8
0
 10
-4.983942985534668
 20
-188.6116790771484
 30
30.62496757507324
 70
   192
  0
VERTEX
  5
4B3
  8
0
 10
-4.125198364257812
 20
-199.5503082275391
 30
30.84850120544434
 70
   192
  0
VERTEX
  5
4B4
  8
0
 10
-7.950728416442871
 20
-198.5375823974609
 30
31.24630928039551
 70
   192
  0
VERTEX
  5
4B5
  8
0
 10
-5.844336032867432
 20
-177.6714172363281
 30
30.41135215759277
 70
   192
  0
VERTEX
  5
4B6
  8
0
 10
-0.0000035623347685
 20
-179.0311737060547
 30
30.16742897033691
 70
   192
  0
VERTEX
  5
4B7
  8
0
 10
-9.30744457244873
 20
-186.4815216064453
 30
31.11526107788086
 70
   192
  0
VERTEX
  5
4B8
  8
0
 10
-2.674209594726562
 20
-210.1722869873047
 30
31.48229598999023
 70
   192
  0
VERTEX
  5
4B9
  8
0
 10
-0.0000035622135783
 20
-199.8014221191406
 30
30.83417892456055
 70
   192
  0
VERTEX
  5
4BA
  8
0
 10
-5.348401546478271
 20
-210.1623840332031
 30
31.66388320922852
 70
   192
  0
VERTEX
  5
4BB
  8
0
 10
-0.0000173243643076
 20
-210.1821899414062
 30
31.30068206787109
 70
   192
  0
VERTEX
  5
4BC
  8
0
 10
14.68467617034912
 20
-146.5304870605469
 30
34.53806304931641
 70
   192
  0
VERTEX
  5
4BD
  8
0
 10
14.5510311126709
 20
-151.4897918701172
 30
35.00318908691406
 70
   192
  0
VERTEX
  5
4BE
  8
0
 10
13.87437057495117
 20
-145.4790649414062
 30
35.00318908691406
 70
   192
  0
VERTEX
  5
4BF
  8
0
 10
12.70269775390625
 20
-141.9317474365234
 30
34.53837203979492
 70
   192
  0
VERTEX
  5
4C0
  8
0
 10
15.04754447937012
 20
-151.5377349853516
 30
34.53748321533203
 70
   192
  0
VERTEX
  5
4C1
  8
0
 10
10.82250308990479
 20
-140.2567596435547
 30
35.00318908691406
 70
   192
  0
VERTEX
  5
4C2
  8
0
 10
9.347079277038574
 20
-138.2060089111328
 30
34.53858184814453
 70
   192
  0
VERTEX
  5
4C3
  8
0
 10
5.917817115783691
 20
-136.7169189453125
 30
35.00318908691406
 70
   192
  0
VERTEX
  5
4C4
  8
0
 10
4.943167209625244
 20
-135.803466796875
 30
34.53879165649414
 70
   192
  0
VERTEX
  5
4C5
  8
0
 10
11.70725345611572
 20
-180.8515625
 30
35.00318908691406
 70
   192
  0
VERTEX
  5
4C6
  8
0
 10
12.72394371032715
 20
-175.3791351318359
 30
34.61701583862305
 70
   192
  0
VERTEX
  5
4C7
  8
0
 10
12.14313697814941
 20
-181.3394775390625
 30
34.63693237304688
 70
   192
  0
VERTEX
  5
4C8
  8
0
 10
12.27619743347168
 20
-174.9792327880859
 30
35.00318908691406
 70
   192
  0
VERTEX
  5
4C9
  8
0
 10
13.30475044250488
 20
-169.4187774658203
 30
34.59709548950195
 70
   192
  0
VERTEX
  5
4CA
  8
0
 10
12.84476089477539
 20
-169.1068572998047
 30
35.00318908691406
 70
   192
  0
VERTEX
  5
4CB
  8
0
 10
13.88555812835693
 20
-163.4584197998047
 30
34.57717514038086
 70
   192
  0
VERTEX
  5
4CC
  8
0
 10
13.41348552703857
 20
-163.2344970703125
 30
35.00318908691406
 70
   192
  0
VERTEX
  5
4CD
  8
0
 10
14.46636486053467
 20
-157.4980621337891
 30
34.55725479125977
 70
   192
  0
VERTEX
  5
4CE
  8
0
 10
11.13717174530029
 20
-186.7237854003906
 30
35.00318908691406
 70
   192
  0
VERTEX
  5
4CF
  8
0
 10
13.98221015930176
 20
-157.3621368408203
 30
35.00318908691406
 70
   192
  0
VERTEX
  5
4D0
  8
0
 10
11.55973529815674
 20
-187.2994384765625
 30
34.656005859375
 70
   192
  0
VERTEX
  5
4D1
  8
0
 10
10.58021354675293
 20
-192.5978698730469
 30
35.00318908691406
 70
   192
  0
VERTEX
  5
4D2
  8
0
 10
10.97367477416992
 20
-193.2581329345703
 30
34.6739501953125
 70
   192
  0
VERTEX
  5
4D3
  8
0
 10
10.18415451049805
 20
-198.5484771728516
 30
35.00318908691406
 70
   192
  0
VERTEX
  5
4D4
  8
0
 10
8.817486763000488
 20
-204.1669158935547
 30
35.00318908691406
 70
   192
  0
VERTEX
  5
4D5
  8
0
 10
10.34118843078613
 20
-199.2194519042969
 30
34.69753265380859
 70
   192
  0
VERTEX
  5
4D6
  8
0
 10
9.131854057312012
 20
-205.0303497314453
 30
34.77077484130859
 70
   192
  0
VERTEX
  5
4D7
  8
0
 10
5.812548160552979
 20
-209.2008666992188
 30
35.00318908691406
 70
   192
  0
VERTEX
  5
4D8
  8
0
 10
5.680182933807373
 20
-209.6699371337891
 30
34.86594772338867
 70
   192
  0
VERTEX
  5
4D9
  8
0
 10
14.92868423461914
 20
-153.8153228759766
 30
31.3853816986084
 70
   192
  0
VERTEX
  5
4DA
  8
0
 10
15.00012111663818
 20
-154.0348358154297
 30
31.89680099487305
 70
   192
  0
VERTEX
  5
4DB
  8
0
 10
15.24327087402344
 20
-151.2917175292969
 30
32.01612091064453
 70
   192
  0
VERTEX
  5
4DC
  8
0
 10
14.69872283935547
 20
-156.7680358886719
 30
31.7778377532959
 70
   192
  0
VERTEX
  5
4DD
  8
0
 10
14.30999660491943
 20
-156.2655181884766
 30
30.83977699279785
 70
   192
  0
VERTEX
  5
4DE
  8
0
 10
14.31495189666748
 20
-155.8683624267578
 30
29.78708839416504
 70
   192
  0
VERTEX
  5
4DF
  8
0
 10
14.96106719970703
 20
-153.6010437011719
 30
30.86424446105957
 70
   192
  0
VERTEX
  5
4E0
  8
0
 10
4.640584945678711
 20
-165.003173828125
 30
26.92536735534668
 70
   192
  0
VERTEX
  5
4E1
  8
0
 10
4.707670211791992
 20
-165.7769317626953
 30
29.12048530578613
 70
   192
  0
VERTEX
  5
4E2
  8
0
 10
8.96090316772461
 20
-163.6780700683594
 30
29.49914932250977
 70
   192
  0
VERTEX
  5
4E3
  8
0
 10
5.139576435089111
 20
-167.8486022949219
 30
30.10661888122559
 70
   192
  0
VERTEX
  5
4E4
  8
0
 10
8.834141731262207
 20
-162.9303741455078
 30
27.4034538269043
 70
   192
  0
VERTEX
  5
4E5
  8
0
 10
9.767438888549805
 20
-165.5138092041016
 30
30.52619361877441
 70
   192
  0
VERTEX
  5
4E6
  8
0
 10
13.23061943054199
 20
-161.7169799804688
 30
31.20832252502441
 70
   192
  0
VERTEX
  5
4E7
  8
0
 10
12.27958202362061
 20
-160.4026641845703
 30
30.08640480041504
 70
   192
  0
VERTEX
  5
4E8
  8
0
 10
12.16175651550293
 20
-159.7553100585938
 30
28.2711124420166
 70
   192
  0
VERTEX
  5
4E9
  8
0
 10
12.60714435577393
 20
-179.8531188964844
 30
31.81749153137207
 70
   192
  0
VERTEX
  5
4EA
  8
0
 10
12.76249980926514
 20
-180.7992401123047
 30
32.05604553222656
 70
   192
  0
VERTEX
  5
4EB
  8
0
 10
13.38955211639404
 20
-173.333740234375
 30
32.02770233154297
 70
   192
  0
VERTEX
  5
4EC
  8
0
 10
14.70245838165283
 20
-157.9024047851562
 30
32.14750289916992
 70
   192
  0
VERTEX
  5
4ED
  8
0
 10
14.15667343139648
 20
-164.5119476318359
 30
32.2393913269043
 70
   192
  0
VERTEX
  5
4EE
  8
0
 10
14.64406967163086
 20
-158.4024658203125
 30
31.95814323425293
 70
   192
  0
VERTEX
  5
4EF
  8
0
 10
14.01668453216553
 20
-165.8679809570312
 30
31.99470710754395
 70
   192
  0
VERTEX
  5
4F0
  8
0
 10
14.0011625289917
 20
-164.4630279541016
 30
31.79093933105469
 70
   192
  0
VERTEX
  5
4F1
  8
0
 10
13.30357360839844
 20
-172.1580200195312
 30
31.80406379699707
 70
   192
  0
VERTEX
  5
4F2
  8
0
 10
12.13557052612305
 20
-188.2669219970703
 30
32.08075714111328
 70
   192
  0
VERTEX
  5
4F3
  8
0
 10
11.91969966888428
 20
-187.5490264892578
 30
31.83326721191406
 70
   192
  0
VERTEX
  5
4F4
  8
0
 10
11.23104381561279
 20
-195.2447814941406
 30
31.85103225708008
 70
   192
  0
VERTEX
  5
4F5
  8
0
 10
8.321659088134766
 20
-210.4005584716797
 30
32.17564392089844
 70
   192
  0
VERTEX
  5
4F6
  8
0
 10
10.20426464080811
 20
-202.8515167236328
 30
31.86215782165527
 70
   192
  0
VERTEX
  5
4F7
  8
0
 10
8.022584915161133
 20
-210.1524963378906
 30
31.84547805786133
 70
   192
  0
VERTEX
  5
4F8
  8
0
 10
10.79961204528809
 20
-203.208251953125
 30
32.13230514526367
 70
   192
  0
VERTEX
  5
4F9
  8
0
 10
11.50833225250244
 20
-195.7295989990234
 30
32.10390090942383
 70
   192
  0
VERTEX
  5
4FA
  8
0
 10
10.75572490692139
 20
-204.2596588134766
 30
32.57319259643555
 70
   192
  0
VERTEX
  5
4FB
  8
0
 10
8.23937702178955
 20
-210.3382568359375
 30
32.67498779296875
 70
   192
  0
VERTEX
  5
4FC
  8
0
 10
13.61086177825928
 20
-171.0747833251953
 30
32.31229400634766
 70
   192
  0
VERTEX
  5
4FD
  8
0
 10
13.0501594543457
 20
-177.7720184326172
 30
32.37266540527344
 70
   192
  0
VERTEX
  5
4FE
  8
0
 10
12.49545001983643
 20
-184.3748016357422
 30
32.42518615722656
 70
   192
  0
VERTEX
  5
4FF
  8
0
 10
11.93865776062012
 20
-190.9710235595703
 30
32.4702033996582
 70
   192
  0
VERTEX
  5
500
  8
0
 10
11.36715316772461
 20
-197.6306610107422
 30
32.51445388793945
 70
   192
  0
VERTEX
  5
501
  8
0
 10
4.613397121429443
 20
-213.2648315429688
 30
32.19215774536133
 70
   192
  0
VERTEX
  5
502
  8
0
 10
4.434847354888916
 20
-212.9056243896484
 30
31.83602714538574
 70
   192
  0
VERTEX
  5
503
  8
0
 10
4.542222499847412
 20
-213.1303100585938
 30
32.70646667480469
 70
   192
  0
VERTEX
  5
504
  8
0
 10
5.991479873657227
 20
-133.5585174560547
 30
-0.0000000000000316
 70
   192
  0
VERTEX
  5
505
  8
0
 10
11.25437164306641
 20
-136.5995788574219
 30
-0.0000000000000305
 70
   192
  0
VERTEX
  5
506
  8
0
 10
17.22738075256348
 20
-146.9633941650391
 30
-0.0000013983036524
 70
   192
  0
VERTEX
  5
507
  8
0
 10
17.21451950073242
 20
-153.0332641601562
 30
0.0000008025772331
 70
   192
  0
VERTEX
  5
508
  8
0
 10
15.09608364105225
 20
-141.2899475097656
 30
-0.0000000121458843
 70
   192
  0
VERTEX
  5
509
  8
0
 10
15.15348339080811
 20
-158.7510528564453
 30
-0.0000000000000103
 70
   192
  0
VERTEX
  5
50A
  8
0
 10
11.24721240997314
 20
-163.4067687988281
 30
-0.0000000000000064
 70
   192
  0
VERTEX
  5
50B
  8
0
 10
5.982212066650391
 20
-166.4449005126953
 30
-0.0000000000000056
 70
   192
  0
VERTEX
  5
50C
  8
0
 10
10.66756725311279
 20
-174.4231719970703
 30
30.99089241027832
 70
   192
  0
VERTEX
  5
50D
  8
0
 10
9.307515144348145
 20
-186.4814605712891
 30
31.11527252197266
 70
   192
  0
VERTEX
  5
50E
  8
0
 10
5.844547271728516
 20
-177.6713409423828
 30
30.41136741638184
 70
   192
  0
VERTEX
  5
50F
  8
0
 10
7.950795650482178
 20
-198.5375518798828
 30
31.24631881713867
 70
   192
  0
VERTEX
  5
510
  8
0
 10
5.348401546478271
 20
-210.1623840332031
 30
31.66388320922852
 70
   192
  0
VERTEX
  5
511
  8
0
 10
2.674209594726562
 20
-210.1722869873047
 30
31.48229598999023
 70
   192
  0
VERTEX
  5
512
  8
0
 10
4.125353813171387
 20
-199.5502777099609
 30
30.84851264953613
 70
   192
  0
VERTEX
  5
513
  8
0
 10
4.984126567840576
 20
-188.6116180419922
 30
30.62497901916504
 70
   192
  0
VERTEX
  5
514
  8
0
 62
     9
 10
0.0
 20
0.0
 30
0.0
 70
   128
 71
     3
 72
     2
 73
     1
  0
VERTEX
  5
515
  8
0
 62
     9
 10
0.0
 20
0.0
 30
0.0
 70
   128
 71
     6
 72
     5
 73
     4
  0
VERTEX
  5
516
  8
0
 62
     9
 10
0.0
 20
0.0
 30
0.0
 70
   128
 71
     9
 72
     8
 73
     7
  0
VERTEX
  5
517
  8
0
 62
     9
 10
0.0
 20
0.0
 30
0.0
 70
   128
 71
    11
 72
    10
 73
     4
  0
VERTEX
  5
518
  8
0
 62
     9
 10
0.0
 20
0.0
 30
0.0
 70
   128
 71
     6
 72
     4
 73
    10
  0
VERTEX
  5
519
  8
0
 62
     9
 10
0.0
 20
0.0
 30
0.0
 70
   128
 71
     7
 72
     5
 73
     6
  0
VERTEX
  5
51A
  8
0
 62
     9
 10
0.0
 20
0.0
 30
0.0
 70
   128
 71
     2
 72
     8
 73
     9
  0
VERTEX
  5
51B
  8
0
 62
     9
 10
0.0
 20
0.0
 30
0.0
 70
   128
 71
     8
 72
     5
 73
     7
  0
VERTEX
  5
51C
  8
0
 62
     9
 10
0.0
 20
0.0
 30
0.0
 70
   128
 71
     9
 72
     1
 73
     2
  0
VERTEX
  5
51D
  8
0
 62
     9
 10
0.0
 20
0.0
 30
0.0
 70
   128
 71
    14
 72
    13
 73
    12
  0
VERTEX
  5
51E
  8
0
 62
     9
 10
0.0
 20
0.0
 30
0.0
 70
   128
 71
    17
 72
    16
 73
    15
  0
VERTEX
  5
51F
  8
0
 62
     9
 10
0.0
 20
0.0
 30
0.0
 70
   128
 71
    15
 72
    12
 73
    13
  0
VERTEX
  5
520
  8
0
 62
     9
 10
0.0
 20
0.0
 30
0.0
 70
   128
 71
    16
 72
    19
 73
    18
  0
VERTEX
  5
521
  8
0
 62
     9
 10
0.0
 20
0.0
 30
0.0
 70
   128
 71
    21
 72
    18
 73
    20
  0
VERTEX
  5
522
  8
0
 62
     9
 10
0.0
 20
0.0
 30
0.0
 70
   128
 71
    21
 72
    20
 73
    10
  0
VERTEX
  5
523
  8
0
 62
     9
 10
0.0
 20
0.0
 30
0.0
 70
   128
 71
    21
 72
    10
 73
    11
  0
VERTEX
  5
524
  8
0
 62
     9
 10
0.0
 20
0.0
 30
0.0
 70
   128
 71
    17
 72
    19
 73
    16
  0
VERTEX
  5
525
  8
0
 62
     9
 10
0.0
 20
0.0
 30
0.0
 70
   128
 71
    20
 72
    18
 73
    19
  0
VERTEX
  5
526
  8
0
 62
     9
 10
0.0
 20
0.0
 30
0.0
 70
   128
 71
    12
 72
    22
 73
    14
  0
VERTEX
  5
527
  8
0
 62
     9
 10
0.0
 20
0.0
 30
0.0
 70
   128
 71
    17
 72
    15
 73
    13
  0
VERTEX
  5
528
  8
0
 62
     9
 10
0.0
 20
0.0
 30
0.0
 70
   128
 71
    14
 72
    22
 73
    23
  0
VERTEX
  5
529
  8
0
 62
     9
 10
0.0
 20
0.0
 30
0.0
 70
   128
 71
    25
 72
    24
 73
    23
  0
VERTEX
  5
52A
  8
0
 62
     9
 10
0.0
 20
0.0
 30
0.0
 70
   128
 71
    23
 72
    22
 73
    25
  0
VERTEX
  5
52B
  8
0
 62
     9
 10
0.0
 20
0.0
 30
0.0
 70
   128
 71
    24
 72
    27
 73
    26
  0
VERTEX
  5
52C
  8
0
 62
     9
 10
0.0
 20
0.0
 30
0.0
 70
   128
 71
    27
 72
    24
 73
    25
  0
VERTEX
  5
52D
  8
0
 62
     9
 10
0.0
 20
0.0
 30
0.0
 70
   128
 71
    29
 72
    26
 73
    28
  0
VERTEX
  5
52E
  8
0
 62
     9
 10
0.0
 20
0.0
 30
0.0
 70
   128
 71
    27
 72
    28
 73
    26
  0
VERTEX
  5
52F
  8
0
 62
     9
 10
0.0
 20
0.0
 30
0.0
 70
   128
 71
    31
 72
    30
 73
    29
  0
VERTEX
  5
530
  8
0
 62
     9
 10
0.0
 20
0.0
 30
0.0
 70
   128
 71
    29
 72
    28
 73
    31
  0
VERTEX
  5
531
  8
0
 62
     9
 10
0.0
 20
0.0
 30
0.0
 70
   128
 71
    31
 72
    32
 73
    30
  0
VERTEX
  5
532
  8
0
 62
     9
 10
0.0
 20
0.0
 30
0.0
 70
   128
 71
    35
 72
    34
 73
    33
  0
VERTEX
  5
533
  8
0
 62
     9
 10
0.0
 20
0.0
 30
0.0
 70
   128
 71
    37
 72
    36
 73
    34
  0
VERTEX
  5
534
  8
0
 62
     9
 10
0.0
 20
0.0
 30
0.0
 70
   128
 71
    39
 72
    36
 73
    38
  0
VERTEX
  5
535
  8
0
 62
     9
 10
0.0
 20
0.0
 30
0.0
 70
   128
 71
    34
 72
    35
 73
    37
  0
VERTEX
  5
536
  8
0
 62
     9
 10
0.0
 20
0.0
 30
0.0
 70
   128
 71
    39
 72
    34
 73
    36
  0
VERTEX
  5
537
  8
0
 62
     9
 10
0.0
 20
0.0
 30
0.0
 70
   128
 71
    34
 72
    39
 73
    33
  0
VERTEX
  5
538
  8
0
 62
     9
 10
0.0
 20
0.0
 30
0.0
 70
   128
 71
    42
 72
    41
 73
    40
  0
VERTEX
  5
539
  8
0
 62
     9
 10
0.0
 20
0.0
 30
0.0
 70
   128
 71
    37
 72
    43
 73
    36
  0
VERTEX
  5
53A
  8
0
 62
     9
 10
0.0
 20
0.0
 30
0.0
 70
   128
 71
    46
 72
    45
 73
    44
  0
VERTEX
  5
53B
  8
0
 62
     9
 10
0.0
 20
0.0
 30
0.0
 70
   128
 71
    47
 72
    41
 73
    42
  0
VERTEX
  5
53C
  8
0
 62
     9
 10
0.0
 20
0.0
 30
0.0
 70
   128
 71
    45
 72
    46
 73
    48
  0
VERTEX
  5
53D
  8
0
 62
     9
 10
0.0
 20
0.0
 30
0.0
 70
   128
 71
    42
 72
    49
 73
    47
  0
VERTEX
  5
53E
  8
0
 62
     9
 10
0.0
 20
0.0
 30
0.0
 70
   128
 71
    47
 72
    50
 73
    41
  0
VERTEX
  5
53F
  8
0
 62
     9
 10
0.0
 20
0.0
 30
0.0
 70
   128
 71
    48
 72
    41
 73
    45
  0
VERTEX
  5
540
  8
0
 62
     9
 10
0.0
 20
0.0
 30
0.0
 70
   128
 71
    44
 72
    38
 73
    36
  0
VERTEX
  5
541
  8
0
 62
     9
 10
0.0
 20
0.0
 30
0.0
 70
   128
 71
    43
 72
    46
 73
    44
  0
VERTEX
  5
542
  8
0
 62
     9
 10
0.0
 20
0.0
 30
0.0
 70
   128
 71
    50
 72
    45
 73
    41
  0
VERTEX
  5
543
  8
0
 62
     9
 10
0.0
 20
0.0
 30
0.0
 70
   128
 71
    48
 72
    40
 73
    41
  0
VERTEX
  5
544
  8
0
 62
     9
 10
0.0
 20
0.0
 30
0.0
 70
   128
 71
    51
 72
    45
 73
    50
  0
VERTEX
  5
545
  8
0
 62
     9
 10
0.0
 20
0.0
 30
0.0
 70
   128
 71
    44
 72
    51
 73
    38
  0
VERTEX
  5
546
  8
0
 62
     9
 10
0.0
 20
0.0
 30
0.0
 70
   128
 71
    44
 72
    45
 73
    51
  0
VERTEX
  5
547
  8
0
 62
     9
 10
0.0
 20
0.0
 30
0.0
 70
   128
 71
    43
 72
    44
 73
    36
  0
VERTEX
  5
548
  8
0
 62
     9
 10
0.0
 20
0.0
 30
0.0
 70
   128
 71
    54
 72
    53
 73
    52
  0
VERTEX
  5
549
  8
0
 62
     9
 10
0.0
 20
0.0
 30
0.0
 70
   128
 71
    56
 72
    55
 73
    38
  0
VERTEX
  5
54A
  8
0
 62
     9
 10
0.0
 20
0.0
 30
0.0
 70
   128
 71
    58
 72
    57
 73
    53
  0
VERTEX
  5
54B
  8
0
 62
     9
 10
0.0
 20
0.0
 30
0.0
 70
   128
 71
    59
 72
    58
 73
    53
  0
VERTEX
  5
54C
  8
0
 62
     9
 10
0.0
 20
0.0
 30
0.0
 70
   128
 71
    61
 72
    58
 73
    60
  0
VERTEX
  5
54D
  8
0
 62
     9
 10
0.0
 20
0.0
 30
0.0
 70
   128
 71
    58
 72
    61
 73
    62
  0
VERTEX
  5
54E
  8
0
 62
     9
 10
0.0
 20
0.0
 30
0.0
 70
   128
 71
    52
 72
    53
 73
    63
  0
VERTEX
  5
54F
  8
0
 62
     9
 10
0.0
 20
0.0
 30
0.0
 70
   128
 71
    62
 72
    61
 73
    64
  0
VERTEX
  5
550
  8
0
 62
     9
 10
0.0
 20
0.0
 30
0.0
 70
   128
 71
    67
 72
    66
 73
    65
  0
VERTEX
  5
551
  8
0
 62
     9
 10
0.0
 20
0.0
 30
0.0
 70
   128
 71
    68
 72
    54
 73
    52
  0
VERTEX
  5
552
  8
0
 62
     9
 10
0.0
 20
0.0
 30
0.0
 70
   128
 71
    68
 72
    52
 73
    69
  0
VERTEX
  5
553
  8
0
 62
     9
 10
0.0
 20
0.0
 30
0.0
 70
   128
 71
    68
 72
    71
 73
    70
  0
VERTEX
  5
554
  8
0
 62
     9
 10
0.0
 20
0.0
 30
0.0
 70
   128
 71
    72
 72
    71
 73
    68
  0
VERTEX
  5
555
  8
0
 62
     9
 10
0.0
 20
0.0
 30
0.0
 70
   128
 71
    74
 72
    71
 73
    73
  0
VERTEX
  5
556
  8
0
 62
     9
 10
0.0
 20
0.0
 30
0.0
 70
   128
 71
    71
 72
    75
 73
    73
  0
VERTEX
  5
557
  8
0
 62
     9
 10
0.0
 20
0.0
 30
0.0
 70
   128
 71
    56
 72
    38
 73
    39
  0
VERTEX
  5
558
  8
0
 62
     9
 10
0.0
 20
0.0
 30
0.0
 70
   128
 71
    56
 72
    73
 73
    55
  0
VERTEX
  5
559
  8
0
 62
     9
 10
0.0
 20
0.0
 30
0.0
 70
   128
 71
    38
 72
    76
 73
    56
  0
VERTEX
  5
55A
  8
0
 62
     9
 10
0.0
 20
0.0
 30
0.0
 70
   128
 71
    56
 72
    39
 73
    38
  0
VERTEX
  5
55B
  8
0
 62
     9
 10
0.0
 20
0.0
 30
0.0
 70
   128
 71
    56
 72
    76
 73
    73
  0
VERTEX
  5
55C
  8
0
 62
     9
 10
0.0
 20
0.0
 30
0.0
 70
   128
 71
    73
 72
    76
 73
    74
  0
VERTEX
  5
55D
  8
0
 62
     9
 10
0.0
 20
0.0
 30
0.0
 70
   128
 71
    55
 72
    73
 73
    75
  0
VERTEX
  5
55E
  8
0
 62
     9
 10
0.0
 20
0.0
 30
0.0
 70
   128
 71
    71
 72
    74
 73
    70
  0
VERTEX
  5
55F
  8
0
 62
     9
 10
0.0
 20
0.0
 30
0.0
 70
   128
 71
    75
 72
    71
 73
    72
  0
VERTEX
  5
560
  8
0
 62
     9
 10
0.0
 20
0.0
 30
0.0
 70
   128
 71
    68
 72
    70
 73
    54
  0
VERTEX
  5
561
  8
0
 62
     9
 10
0.0
 20
0.0
 30
0.0
 70
   128
 71
    72
 72
    68
 73
    69
  0
VERTEX
  5
562
  8
0
 62
     9
 10
0.0
 20
0.0
 30
0.0
 70
   128
 71
    54
 72
    59
 73
    53
  0
VERTEX
  5
563
  8
0
 62
     9
 10
0.0
 20
0.0
 30
0.0
 70
   128
 71
    69
 72
    52
 73
    63
  0
VERTEX
  5
564
  8
0
 62
     9
 10
0.0
 20
0.0
 30
0.0
 70
   128
 71
    59
 72
    60
 73
    58
  0
VERTEX
  5
565
  8
0
 62
     9
 10
0.0
 20
0.0
 30
0.0
 70
   128
 71
    63
 72
    53
 73
    57
  0
VERTEX
  5
566
  8
0
 62
     9
 10
0.0
 20
0.0
 30
0.0
 70
   128
 71
    60
 72
    65
 73
    61
  0
VERTEX
  5
567
  8
0
 62
     9
 10
0.0
 20
0.0
 30
0.0
 70
   128
 71
    57
 72
    58
 73
    62
  0
VERTEX
  5
568
  8
0
 62
     9
 10
0.0
 20
0.0
 30
0.0
 70
   128
 71
    66
 72
    61
 73
    65
  0
VERTEX
  5
569
  8
0
 62
     9
 10
0.0
 20
0.0
 30
0.0
 70
   128
 71
    61
 72
    66
 73
    64
  0
VERTEX
  5
56A
  8
0
 62
     9
 10
0.0
 20
0.0
 30
0.0
 70
   128
 71
    78
 72
    64
 73
    77
  0
VERTEX
  5
56B
  8
0
 62
     9
 10
0.0
 20
0.0
 30
0.0
 70
   128
 71
    80
 72
    77
 73
    79
  0
VERTEX
  5
56C
  8
0
 62
     9
 10
0.0
 20
0.0
 30
0.0
 70
   128
 71
    79
 72
    66
 73
    67
  0
VERTEX
  5
56D
  8
0
 62
     9
 10
0.0
 20
0.0
 30
0.0
 70
   128
 71
    66
 72
    77
 73
    64
  0
VERTEX
  5
56E
  8
0
 62
     9
 10
0.0
 20
0.0
 30
0.0
 70
   128
 71
    80
 72
    81
 73
    77
  0
VERTEX
  5
56F
  8
0
 62
     9
 10
0.0
 20
0.0
 30
0.0
 70
   128
 71
    81
 72
    82
 73
    78
  0
VERTEX
  5
570
  8
0
 62
     9
 10
0.0
 20
0.0
 30
0.0
 70
   128
 71
    77
 72
    81
 73
    78
  0
VERTEX
  5
571
  8
0
 62
     9
 10
0.0
 20
0.0
 30
0.0
 70
   128
 71
    79
 72
    77
 73
    66
  0
VERTEX
  5
572
  8
0
 62
     9
 10
0.0
 20
0.0
 30
0.0
 70
   128
 71
    15
 72
    75
 73
    72
  0
VERTEX
  5
573
  8
0
 62
     9
 10
0.0
 20
0.0
 30
0.0
 70
   128
 71
    22
 72
    63
 73
    25
  0
VERTEX
  5
574
  8
0
 62
     9
 10
0.0
 20
0.0
 30
0.0
 70
   128
 71
    55
 72
    75
 73
    16
  0
VERTEX
  5
575
  8
0
 62
     9
 10
0.0
 20
0.0
 30
0.0
 70
   128
 71
    12
 72
    15
 73
    72
  0
VERTEX
  5
576
  8
0
 62
     9
 10
0.0
 20
0.0
 30
0.0
 70
   128
 71
    38
 72
    55
 73
    18
  0
VERTEX
  5
577
  8
0
 62
     9
 10
0.0
 20
0.0
 30
0.0
 70
   128
 71
    16
 72
    18
 73
    55
  0
VERTEX
  5
578
  8
0
 62
     9
 10
0.0
 20
0.0
 30
0.0
 70
   128
 71
    21
 72
    39
 73
    38
  0
VERTEX
  5
579
  8
0
 62
     9
 10
0.0
 20
0.0
 30
0.0
 70
   128
 71
    38
 72
    18
 73
    21
  0
VERTEX
  5
57A
  8
0
 62
     9
 10
0.0
 20
0.0
 30
0.0
 70
   128
 71
    39
 72
    11
 73
    33
  0
VERTEX
  5
57B
  8
0
 62
     9
 10
0.0
 20
0.0
 30
0.0
 70
   128
 71
    11
 72
    39
 73
    21
  0
VERTEX
  5
57C
  8
0
 62
     9
 10
0.0
 20
0.0
 30
0.0
 70
   128
 71
    75
 72
    15
 73
    16
  0
VERTEX
  5
57D
  8
0
 62
     9
 10
0.0
 20
0.0
 30
0.0
 70
   128
 71
    12
 72
    72
 73
    69
  0
VERTEX
  5
57E
  8
0
 62
     9
 10
0.0
 20
0.0
 30
0.0
 70
   128
 71
    69
 72
    63
 73
    22
  0
VERTEX
  5
57F
  8
0
 62
     9
 10
0.0
 20
0.0
 30
0.0
 70
   128
 71
    22
 72
    12
 73
    69
  0
VERTEX
  5
580
  8
0
 62
     9
 10
0.0
 20
0.0
 30
0.0
 70
   128
 71
    25
 72
    57
 73
    27
  0
VERTEX
  5
581
  8
0
 62
     9
 10
0.0
 20
0.0
 30
0.0
 70
   128
 71
    25
 72
    63
 73
    57
  0
VERTEX
  5
582
  8
0
 62
     9
 10
0.0
 20
0.0
 30
0.0
 70
   128
 71
    28
 72
    27
 73
    62
  0
VERTEX
  5
583
  8
0
 62
     9
 10
0.0
 20
0.0
 30
0.0
 70
   128
 71
    57
 72
    62
 73
    27
  0
VERTEX
  5
584
  8
0
 62
     9
 10
0.0
 20
0.0
 30
0.0
 70
   128
 71
    64
 72
    31
 73
    28
  0
VERTEX
  5
585
  8
0
 62
     9
 10
0.0
 20
0.0
 30
0.0
 70
   128
 71
    28
 72
    62
 73
    64
  0
VERTEX
  5
586
  8
0
 62
     9
 10
0.0
 20
0.0
 30
0.0
 70
   128
 71
    31
 72
    78
 73
    32
  0
VERTEX
  5
587
  8
0
 62
     9
 10
0.0
 20
0.0
 30
0.0
 70
   128
 71
    78
 72
    31
 73
    64
  0
VERTEX
  5
588
  8
0
 62
     9
 10
0.0
 20
0.0
 30
0.0
 70
   128
 71
    78
 72
    82
 73
    32
  0
VERTEX
  5
589
  8
0
 62
     9
 10
0.0
 20
0.0
 30
0.0
 70
   128
 71
    83
 72
    35
 73
    33
  0
VERTEX
  5
58A
  8
0
 62
     9
 10
0.0
 20
0.0
 30
0.0
 70
   128
 71
    43
 72
    37
 73
    84
  0
VERTEX
  5
58B
  8
0
 62
     9
 10
0.0
 20
0.0
 30
0.0
 70
   128
 71
    37
 72
    83
 73
    84
  0
VERTEX
  5
58C
  8
0
 62
     9
 10
0.0
 20
0.0
 30
0.0
 70
   128
 71
    85
 72
    46
 73
    43
  0
VERTEX
  5
58D
  8
0
 62
     9
 10
0.0
 20
0.0
 30
0.0
 70
   128
 71
    43
 72
    84
 73
    85
  0
VERTEX
  5
58E
  8
0
 62
     9
 10
0.0
 20
0.0
 30
0.0
 70
   128
 71
    46
 72
    86
 73
    48
  0
VERTEX
  5
58F
  8
0
 62
     9
 10
0.0
 20
0.0
 30
0.0
 70
   128
 71
    86
 72
    46
 73
    85
  0
VERTEX
  5
590
  8
0
 62
     9
 10
0.0
 20
0.0
 30
0.0
 70
   128
 71
    83
 72
    37
 73
    35
  0
VERTEX
  5
591
  8
0
 62
     9
 10
0.0
 20
0.0
 30
0.0
 70
   128
 71
    48
 72
    86
 73
    87
  0
VERTEX
  5
592
  8
0
 62
     9
 10
0.0
 20
0.0
 30
0.0
 70
   128
 71
    87
 72
    40
 73
    48
  0
VERTEX
  5
593
  8
0
 62
     9
 10
0.0
 20
0.0
 30
0.0
 70
   128
 71
    88
 72
    83
 73
    33
  0
VERTEX
  5
594
  8
0
 62
     9
 10
0.0
 20
0.0
 30
0.0
 70
   128
 71
    11
 72
     4
 73
    33
  0
VERTEX
  5
595
  8
0
 62
     9
 10
0.0
 20
0.0
 30
0.0
 70
   128
 71
    88
 72
    33
 73
     4
  0
VERTEX
  5
596
  8
0
 62
     9
 10
0.0
 20
0.0
 30
0.0
 70
   128
 71
    88
 72
     4
 73
    89
  0
VERTEX
  5
597
  8
0
 62
     9
 10
0.0
 20
0.0
 30
0.0
 70
   128
 71
     5
 72
     8
 73
    90
  0
VERTEX
  5
598
  8
0
 62
     9
 10
0.0
 20
0.0
 30
0.0
 70
   128
 71
     5
 72
    89
 73
     4
  0
VERTEX
  5
599
  8
0
 62
     9
 10
0.0
 20
0.0
 30
0.0
 70
   128
 71
     5
 72
    90
 73
    89
  0
VERTEX
  5
59A
  8
0
 62
     9
 10
0.0
 20
0.0
 30
0.0
 70
   128
 71
     2
 72
    91
 73
     8
  0
VERTEX
  5
59B
  8
0
 62
     9
 10
0.0
 20
0.0
 30
0.0
 70
   128
 71
    90
 72
     8
 73
    91
  0
VERTEX
  5
59C
  8
0
 62
     9
 10
0.0
 20
0.0
 30
0.0
 70
   128
 71
     2
 72
     3
 73
    92
  0
VERTEX
  5
59D
  8
0
 62
     9
 10
0.0
 20
0.0
 30
0.0
 70
   128
 71
    92
 72
    91
 73
     2
  0
VERTEX
  5
59E
  8
0
 62
     9
 10
0.0
 20
0.0
 30
0.0
 70
   128
 71
    54
 72
    70
 73
    93
  0
VERTEX
  5
59F
  8
0
 62
     9
 10
0.0
 20
0.0
 30
0.0
 70
   128
 71
    96
 72
    95
 73
    94
  0
VERTEX
  5
5A0
  8
0
 62
     9
 10
0.0
 20
0.0
 30
0.0
 70
   128
 71
    97
 72
    67
 73
    65
  0
VERTEX
  5
5A1
  8
0
 62
     9
 10
0.0
 20
0.0
 30
0.0
 70
   128
 71
    47
 72
    98
 73
    93
  0
VERTEX
  5
5A2
  8
0
 62
     9
 10
0.0
 20
0.0
 30
0.0
 70
   128
 71
    99
 72
    98
 73
    49
  0
VERTEX
  5
5A3
  8
0
 62
     9
 10
0.0
 20
0.0
 30
0.0
 70
   128
 71
    47
 72
    93
 73
    50
  0
VERTEX
  5
5A4
  8
0
 62
     9
 10
0.0
 20
0.0
 30
0.0
 70
   128
 71
    93
 72
    74
 73
    51
  0
VERTEX
  5
5A5
  8
0
 62
     9
 10
0.0
 20
0.0
 30
0.0
 70
   128
 71
    76
 72
    51
 73
    74
  0
VERTEX
  5
5A6
  8
0
 62
     9
 10
0.0
 20
0.0
 30
0.0
 70
   128
 71
    93
 72
    51
 73
    50
  0
VERTEX
  5
5A7
  8
0
 62
     9
 10
0.0
 20
0.0
 30
0.0
 70
   128
 71
    51
 72
    76
 73
    38
  0
VERTEX
  5
5A8
  8
0
 62
     9
 10
0.0
 20
0.0
 30
0.0
 70
   128
 71
    93
 72
    98
 73
   100
  0
VERTEX
  5
5A9
  8
0
 62
     9
 10
0.0
 20
0.0
 30
0.0
 70
   128
 71
    59
 72
   100
 73
    60
  0
VERTEX
  5
5AA
  8
0
 62
     9
 10
0.0
 20
0.0
 30
0.0
 70
   128
 71
   100
 72
    97
 73
    60
  0
VERTEX
  5
5AB
  8
0
 62
     9
 10
0.0
 20
0.0
 30
0.0
 70
   128
 71
    96
 72
   102
 73
   101
  0
VERTEX
  5
5AC
  8
0
 62
     9
 10
0.0
 20
0.0
 30
0.0
 70
   128
 71
   103
 72
    67
 73
    97
  0
VERTEX
  5
5AD
  8
0
 62
     9
 10
0.0
 20
0.0
 30
0.0
 70
   128
 71
   101
 72
   102
 73
   104
  0
VERTEX
  5
5AE
  8
0
 62
     9
 10
0.0
 20
0.0
 30
0.0
 70
   128
 71
   103
 72
    96
 73
   101
  0
VERTEX
  5
5AF
  8
0
 62
     9
 10
0.0
 20
0.0
 30
0.0
 70
   128
 71
    97
 72
    96
 73
   103
  0
VERTEX
  5
5B0
  8
0
 62
     9
 10
0.0
 20
0.0
 30
0.0
 70
   128
 71
    60
 72
    97
 73
    65
  0
VERTEX
  5
5B1
  8
0
 62
     9
 10
0.0
 20
0.0
 30
0.0
 70
   128
 71
    96
 72
    97
 73
    95
  0
VERTEX
  5
5B2
  8
0
 62
     9
 10
0.0
 20
0.0
 30
0.0
 70
   128
 71
    96
 72
    94
 73
   102
  0
VERTEX
  5
5B3
  8
0
 62
     9
 10
0.0
 20
0.0
 30
0.0
 70
   128
 71
   100
 72
    59
 73
    54
  0
VERTEX
  5
5B4
  8
0
 62
     9
 10
0.0
 20
0.0
 30
0.0
 70
   128
 71
    98
 72
    99
 73
    95
  0
VERTEX
  5
5B5
  8
0
 62
     9
 10
0.0
 20
0.0
 30
0.0
 70
   128
 71
    95
 72
    99
 73
    94
  0
VERTEX
  5
5B6
  8
0
 62
     9
 10
0.0
 20
0.0
 30
0.0
 70
   128
 71
   100
 72
    95
 73
    97
  0
VERTEX
  5
5B7
  8
0
 62
     9
 10
0.0
 20
0.0
 30
0.0
 70
   128
 71
    93
 72
   100
 73
    54
  0
VERTEX
  5
5B8
  8
0
 62
     9
 10
0.0
 20
0.0
 30
0.0
 70
   128
 71
    93
 72
    70
 73
    74
  0
VERTEX
  5
5B9
  8
0
 62
     9
 10
0.0
 20
0.0
 30
0.0
 70
   128
 71
    47
 72
    49
 73
    98
  0
VERTEX
  5
5BA
  8
0
 62
     9
 10
0.0
 20
0.0
 30
0.0
 70
   128
 71
   100
 72
    98
 73
    95
  0
VERTEX
  5
5BB
  8
0
 62
     9
 10
0.0
 20
0.0
 30
0.0
 70
   128
 71
   103
 72
   101
 73
    79
  0
VERTEX
  5
5BC
  8
0
 62
     9
 10
0.0
 20
0.0
 30
0.0
 70
   128
 71
    80
 72
    79
 73
   104
  0
VERTEX
  5
5BD
  8
0
 62
     9
 10
0.0
 20
0.0
 30
0.0
 70
   128
 71
    67
 72
   103
 73
    79
  0
VERTEX
  5
5BE
  8
0
 62
     9
 10
0.0
 20
0.0
 30
0.0
 70
   128
 71
   101
 72
   104
 73
    79
  0
VERTEX
  5
5BF
  8
0
 62
     9
 10
0.0
 20
0.0
 30
0.0
 70
   128
 71
   107
 72
   106
 73
   105
  0
VERTEX
  5
5C0
  8
0
 62
     9
 10
0.0
 20
0.0
 30
0.0
 70
   128
 71
   107
 72
   105
 73
   108
  0
VERTEX
  5
5C1
  8
0
 62
     9
 10
0.0
 20
0.0
 30
0.0
 70
   128
 71
   106
 72
   109
 73
   105
  0
VERTEX
  5
5C2
  8
0
 62
     9
 10
0.0
 20
0.0
 30
0.0
 70
   128
 71
   110
 72
   107
 73
   108
  0
VERTEX
  5
5C3
  8
0
 62
     9
 10
0.0
 20
0.0
 30
0.0
 70
   128
 71
   110
 72
   108
 73
   111
  0
VERTEX
  5
5C4
  8
0
 62
     9
 10
0.0
 20
0.0
 30
0.0
 70
   128
 71
   111
 72
   113
 73
   112
  0
VERTEX
  5
5C5
  8
0
 62
     9
 10
0.0
 20
0.0
 30
0.0
 70
   128
 71
   112
 72
   110
 73
   111
  0
VERTEX
  5
5C6
  8
0
 62
     9
 10
0.0
 20
0.0
 30
0.0
 70
   128
 71
   113
 72
     1
 73
   112
  0
VERTEX
  5
5C7
  8
0
 62
     9
 10
0.0
 20
0.0
 30
0.0
 70
   128
 71
   113
 72
     3
 73
     1
  0
VERTEX
  5
5C8
  8
0
 62
     9
 10
0.0
 20
0.0
 30
0.0
 70
   128
 71
   116
 72
   115
 73
   114
  0
VERTEX
  5
5C9
  8
0
 62
     9
 10
0.0
 20
0.0
 30
0.0
 70
   128
 71
   115
 72
   118
 73
   117
  0
VERTEX
  5
5CA
  8
0
 62
     9
 10
0.0
 20
0.0
 30
0.0
 70
   128
 71
   115
 72
   117
 73
   114
  0
VERTEX
  5
5CB
  8
0
 62
     9
 10
0.0
 20
0.0
 30
0.0
 70
   128
 71
   119
 72
   117
 73
   118
  0
VERTEX
  5
5CC
  8
0
 62
     9
 10
0.0
 20
0.0
 30
0.0
 70
   128
 71
   118
 72
   120
 73
   119
  0
VERTEX
  5
5CD
  8
0
 62
     9
 10
0.0
 20
0.0
 30
0.0
 70
   128
 71
   120
 72
   122
 73
   121
  0
VERTEX
  5
5CE
  8
0
 62
     9
 10
0.0
 20
0.0
 30
0.0
 70
   128
 71
   114
 72
   123
 73
   116
  0
VERTEX
  5
5CF
  8
0
 62
     9
 10
0.0
 20
0.0
 30
0.0
 70
   128
 71
   106
 72
   124
 73
   122
  0
VERTEX
  5
5D0
  8
0
 62
     9
 10
0.0
 20
0.0
 30
0.0
 70
   128
 71
   122
 72
   109
 73
   106
  0
VERTEX
  5
5D1
  8
0
 62
     9
 10
0.0
 20
0.0
 30
0.0
 70
   128
 71
   120
 72
   121
 73
   119
  0
VERTEX
  5
5D2
  8
0
 62
     9
 10
0.0
 20
0.0
 30
0.0
 70
   128
 71
   121
 72
   122
 73
   124
  0
VERTEX
  5
5D3
  8
0
 62
     9
 10
0.0
 20
0.0
 30
0.0
 70
   128
 71
   126
 72
   125
 73
   123
  0
VERTEX
  5
5D4
  8
0
 62
     9
 10
0.0
 20
0.0
 30
0.0
 70
   128
 71
   116
 72
   123
 73
   125
  0
VERTEX
  5
5D5
  8
0
 62
     9
 10
0.0
 20
0.0
 30
0.0
 70
   128
 71
   126
 72
   128
 73
   127
  0
VERTEX
  5
5D6
  8
0
 62
     9
 10
0.0
 20
0.0
 30
0.0
 70
   128
 71
   127
 72
   125
 73
   126
  0
VERTEX
  5
5D7
  8
0
 62
     9
 10
0.0
 20
0.0
 30
0.0
 70
   128
 71
   130
 72
   128
 73
   129
  0
VERTEX
  5
5D8
  8
0
 62
     9
 10
0.0
 20
0.0
 30
0.0
 70
   128
 71
   128
 72
   130
 73
   127
  0
VERTEX
  5
5D9
  8
0
 62
     9
 10
0.0
 20
0.0
 30
0.0
 70
   128
 71
   132
 72
   131
 73
   129
  0
VERTEX
  5
5DA
  8
0
 62
     9
 10
0.0
 20
0.0
 30
0.0
 70
   128
 71
   130
 72
   129
 73
   131
  0
VERTEX
  5
5DB
  8
0
 62
     9
 10
0.0
 20
0.0
 30
0.0
 70
   128
 71
   133
 72
   132
 73
    32
  0
VERTEX
  5
5DC
  8
0
 62
     9
 10
0.0
 20
0.0
 30
0.0
 70
   128
 71
   133
 72
   131
 73
   132
  0
VERTEX
  5
5DD
  8
0
 62
     9
 10
0.0
 20
0.0
 30
0.0
 70
   128
 71
   136
 72
   135
 73
   134
  0
VERTEX
  5
5DE
  8
0
 62
     9
 10
0.0
 20
0.0
 30
0.0
 70
   128
 71
   138
 72
   135
 73
   137
  0
VERTEX
  5
5DF
  8
0
 62
     9
 10
0.0
 20
0.0
 30
0.0
 70
   128
 71
   140
 72
   134
 73
   139
  0
VERTEX
  5
5E0
  8
0
 62
     9
 10
0.0
 20
0.0
 30
0.0
 70
   128
 71
   134
 72
   140
 73
   136
  0
VERTEX
  5
5E1
  8
0
 62
     9
 10
0.0
 20
0.0
 30
0.0
 70
   128
 71
   138
 72
   134
 73
   135
  0
VERTEX
  5
5E2
  8
0
 62
     9
 10
0.0
 20
0.0
 30
0.0
 70
   128
 71
   134
 72
   138
 73
   139
  0
VERTEX
  5
5E3
  8
0
 62
     9
 10
0.0
 20
0.0
 30
0.0
 70
   128
 71
   143
 72
   142
 73
   141
  0
VERTEX
  5
5E4
  8
0
 62
     9
 10
0.0
 20
0.0
 30
0.0
 70
   128
 71
    40
 72
   142
 73
    42
  0
VERTEX
  5
5E5
  8
0
 62
     9
 10
0.0
 20
0.0
 30
0.0
 70
   128
 71
   142
 72
    40
 73
   141
  0
VERTEX
  5
5E6
  8
0
 62
     9
 10
0.0
 20
0.0
 30
0.0
 70
   128
 71
   144
 72
    49
 73
    42
  0
VERTEX
  5
5E7
  8
0
 62
     9
 10
0.0
 20
0.0
 30
0.0
 70
   128
 71
   141
 72
   145
 73
   143
  0
VERTEX
  5
5E8
  8
0
 62
     9
 10
0.0
 20
0.0
 30
0.0
 70
   128
 71
   142
 72
   143
 73
   146
  0
VERTEX
  5
5E9
  8
0
 62
     9
 10
0.0
 20
0.0
 30
0.0
 70
   128
 71
   143
 72
   148
 73
   147
  0
VERTEX
  5
5EA
  8
0
 62
     9
 10
0.0
 20
0.0
 30
0.0
 70
   128
 71
   137
 72
   148
 73
   138
  0
VERTEX
  5
5EB
  8
0
 62
     9
 10
0.0
 20
0.0
 30
0.0
 70
   128
 71
   138
 72
   149
 73
   139
  0
VERTEX
  5
5EC
  8
0
 62
     9
 10
0.0
 20
0.0
 30
0.0
 70
   128
 71
   147
 72
   148
 73
   137
  0
VERTEX
  5
5ED
  8
0
 62
     9
 10
0.0
 20
0.0
 30
0.0
 70
   128
 71
   144
 72
   142
 73
   146
  0
VERTEX
  5
5EE
  8
0
 62
     9
 10
0.0
 20
0.0
 30
0.0
 70
   128
 71
   142
 72
   144
 73
    42
  0
VERTEX
  5
5EF
  8
0
 62
     9
 10
0.0
 20
0.0
 30
0.0
 70
   128
 71
   145
 72
   149
 73
   148
  0
VERTEX
  5
5F0
  8
0
 62
     9
 10
0.0
 20
0.0
 30
0.0
 70
   128
 71
   146
 72
   143
 73
   147
  0
VERTEX
  5
5F1
  8
0
 62
     9
 10
0.0
 20
0.0
 30
0.0
 70
   128
 71
   148
 72
   143
 73
   145
  0
VERTEX
  5
5F2
  8
0
 62
     9
 10
0.0
 20
0.0
 30
0.0
 70
   128
 71
   138
 72
   148
 73
   149
  0
VERTEX
  5
5F3
  8
0
 62
     9
 10
0.0
 20
0.0
 30
0.0
 70
   128
 71
   152
 72
   151
 73
   150
  0
VERTEX
  5
5F4
  8
0
 62
     9
 10
0.0
 20
0.0
 30
0.0
 70
   128
 71
   136
 72
   153
 73
   135
  0
VERTEX
  5
5F5
  8
0
 62
     9
 10
0.0
 20
0.0
 30
0.0
 70
   128
 71
   155
 72
   153
 73
   154
  0
VERTEX
  5
5F6
  8
0
 62
     9
 10
0.0
 20
0.0
 30
0.0
 70
   128
 71
   158
 72
   157
 73
   156
  0
VERTEX
  5
5F7
  8
0
 62
     9
 10
0.0
 20
0.0
 30
0.0
 70
   128
 71
   137
 72
   155
 73
   157
  0
VERTEX
  5
5F8
  8
0
 62
     9
 10
0.0
 20
0.0
 30
0.0
 70
   128
 71
   161
 72
   160
 73
   159
  0
VERTEX
  5
5F9
  8
0
 62
     9
 10
0.0
 20
0.0
 30
0.0
 70
   128
 71
   164
 72
   163
 73
   162
  0
VERTEX
  5
5FA
  8
0
 62
     9
 10
0.0
 20
0.0
 30
0.0
 70
   128
 71
   161
 72
   166
 73
   165
  0
VERTEX
  5
5FB
  8
0
 62
     9
 10
0.0
 20
0.0
 30
0.0
 70
   128
 71
   168
 72
   162
 73
   167
  0
VERTEX
  5
5FC
  8
0
 62
     9
 10
0.0
 20
0.0
 30
0.0
 70
   128
 71
   165
 72
   163
 73
   161
  0
VERTEX
  5
5FD
  8
0
 62
     9
 10
0.0
 20
0.0
 30
0.0
 70
   128
 71
   161
 72
   159
 73
   166
  0
VERTEX
  5
5FE
  8
0
 62
     9
 10
0.0
 20
0.0
 30
0.0
 70
   128
 71
   162
 72
   165
 73
   167
  0
VERTEX
  5
5FF
  8
0
 62
     9
 10
0.0
 20
0.0
 30
0.0
 70
   128
 71
   160
 72
   151
 73
   159
  0
VERTEX
  5
600
  8
0
 62
     9
 10
0.0
 20
0.0
 30
0.0
 70
   128
 71
   152
 72
   150
 73
   158
  0
VERTEX
  5
601
  8
0
 62
     9
 10
0.0
 20
0.0
 30
0.0
 70
   128
 71
   151
 72
   160
 73
   150
  0
VERTEX
  5
602
  8
0
 62
     9
 10
0.0
 20
0.0
 30
0.0
 70
   128
 71
   156
 72
   152
 73
   158
  0
VERTEX
  5
603
  8
0
 62
     9
 10
0.0
 20
0.0
 30
0.0
 70
   128
 71
   137
 72
   135
 73
   155
  0
VERTEX
  5
604
  8
0
 62
     9
 10
0.0
 20
0.0
 30
0.0
 70
   128
 71
   155
 72
   156
 73
   157
  0
VERTEX
  5
605
  8
0
 62
     9
 10
0.0
 20
0.0
 30
0.0
 70
   128
 71
   155
 72
   135
 73
   153
  0
VERTEX
  5
606
  8
0
 62
     9
 10
0.0
 20
0.0
 30
0.0
 70
   128
 71
   155
 72
   154
 73
   156
  0
VERTEX
  5
607
  8
0
 62
     9
 10
0.0
 20
0.0
 30
0.0
 70
   128
 71
   169
 72
   156
 73
   154
  0
VERTEX
  5
608
  8
0
 62
     9
 10
0.0
 20
0.0
 30
0.0
 70
   128
 71
   169
 72
   152
 73
   156
  0
VERTEX
  5
609
  8
0
 62
     9
 10
0.0
 20
0.0
 30
0.0
 70
   128
 71
   170
 72
   152
 73
   169
  0
VERTEX
  5
60A
  8
0
 62
     9
 10
0.0
 20
0.0
 30
0.0
 70
   128
 71
   171
 72
   151
 73
   170
  0
VERTEX
  5
60B
  8
0
 62
     9
 10
0.0
 20
0.0
 30
0.0
 70
   128
 71
   151
 72
   152
 73
   170
  0
VERTEX
  5
60C
  8
0
 62
     9
 10
0.0
 20
0.0
 30
0.0
 70
   128
 71
   172
 72
   159
 73
   171
  0
VERTEX
  5
60D
  8
0
 62
     9
 10
0.0
 20
0.0
 30
0.0
 70
   128
 71
   159
 72
   151
 73
   171
  0
VERTEX
  5
60E
  8
0
 62
     9
 10
0.0
 20
0.0
 30
0.0
 70
   128
 71
   173
 72
   166
 73
   172
  0
VERTEX
  5
60F
  8
0
 62
     9
 10
0.0
 20
0.0
 30
0.0
 70
   128
 71
   166
 72
   159
 73
   172
  0
VERTEX
  5
610
  8
0
 62
     9
 10
0.0
 20
0.0
 30
0.0
 70
   128
 71
   167
 72
   165
 73
   173
  0
VERTEX
  5
611
  8
0
 62
     9
 10
0.0
 20
0.0
 30
0.0
 70
   128
 71
   166
 72
   173
 73
   165
  0
VERTEX
  5
612
  8
0
 62
     9
 10
0.0
 20
0.0
 30
0.0
 70
   128
 71
   163
 72
   165
 73
   162
  0
VERTEX
  5
613
  8
0
 62
     9
 10
0.0
 20
0.0
 30
0.0
 70
   128
 71
   175
 72
   174
 73
    80
  0
VERTEX
  5
614
  8
0
 62
     9
 10
0.0
 20
0.0
 30
0.0
 70
   128
 71
   164
 72
   162
 73
   175
  0
VERTEX
  5
615
  8
0
 62
     9
 10
0.0
 20
0.0
 30
0.0
 70
   128
 71
   168
 72
   174
 73
   162
  0
VERTEX
  5
616
  8
0
 62
     9
 10
0.0
 20
0.0
 30
0.0
 70
   128
 71
   174
 72
   168
 73
   176
  0
VERTEX
  5
617
  8
0
 62
     9
 10
0.0
 20
0.0
 30
0.0
 70
   128
 71
    81
 72
   174
 73
   176
  0
VERTEX
  5
618
  8
0
 62
     9
 10
0.0
 20
0.0
 30
0.0
 70
   128
 71
    81
 72
   176
 73
    82
  0
VERTEX
  5
619
  8
0
 62
     9
 10
0.0
 20
0.0
 30
0.0
 70
   128
 71
   174
 72
    81
 73
    80
  0
VERTEX
  5
61A
  8
0
 62
     9
 10
0.0
 20
0.0
 30
0.0
 70
   128
 71
   162
 72
   174
 73
   175
  0
VERTEX
  5
61B
  8
0
 62
     9
 10
0.0
 20
0.0
 30
0.0
 70
   128
 71
    32
 72
    82
 73
   176
  0
VERTEX
  5
61C
  8
0
 62
     9
 10
0.0
 20
0.0
 30
0.0
 70
   128
 71
   131
 72
   133
 73
   168
  0
VERTEX
  5
61D
  8
0
 62
     9
 10
0.0
 20
0.0
 30
0.0
 70
   128
 71
   127
 72
   172
 73
   125
  0
VERTEX
  5
61E
  8
0
 62
     9
 10
0.0
 20
0.0
 30
0.0
 70
   128
 71
   131
 72
   167
 73
   130
  0
VERTEX
  5
61F
  8
0
 62
     9
 10
0.0
 20
0.0
 30
0.0
 70
   128
 71
   169
 72
   118
 73
   115
  0
VERTEX
  5
620
  8
0
 62
     9
 10
0.0
 20
0.0
 30
0.0
 70
   128
 71
   170
 72
   116
 73
   171
  0
VERTEX
  5
621
  8
0
 62
     9
 10
0.0
 20
0.0
 30
0.0
 70
   128
 71
   154
 72
   153
 73
   120
  0
VERTEX
  5
622
  8
0
 62
     9
 10
0.0
 20
0.0
 30
0.0
 70
   128
 71
   120
 72
   118
 73
   154
  0
VERTEX
  5
623
  8
0
 62
     9
 10
0.0
 20
0.0
 30
0.0
 70
   128
 71
   122
 72
   153
 73
   136
  0
VERTEX
  5
624
  8
0
 62
     9
 10
0.0
 20
0.0
 30
0.0
 70
   128
 71
   153
 72
   122
 73
   120
  0
VERTEX
  5
625
  8
0
 62
     9
 10
0.0
 20
0.0
 30
0.0
 70
   128
 71
   122
 72
   136
 73
   109
  0
VERTEX
  5
626
  8
0
 62
     9
 10
0.0
 20
0.0
 30
0.0
 70
   128
 71
   169
 72
   154
 73
   118
  0
VERTEX
  5
627
  8
0
 62
     9
 10
0.0
 20
0.0
 30
0.0
 70
   128
 71
   133
 72
    32
 73
   176
  0
VERTEX
  5
628
  8
0
 62
     9
 10
0.0
 20
0.0
 30
0.0
 70
   128
 71
   169
 72
   115
 73
   170
  0
VERTEX
  5
629
  8
0
 62
     9
 10
0.0
 20
0.0
 30
0.0
 70
   128
 71
   171
 72
   116
 73
   125
  0
VERTEX
  5
62A
  8
0
 62
     9
 10
0.0
 20
0.0
 30
0.0
 70
   128
 71
   170
 72
   115
 73
   116
  0
VERTEX
  5
62B
  8
0
 62
     9
 10
0.0
 20
0.0
 30
0.0
 70
   128
 71
   173
 72
   172
 73
   127
  0
VERTEX
  5
62C
  8
0
 62
     9
 10
0.0
 20
0.0
 30
0.0
 70
   128
 71
   172
 72
   171
 73
   125
  0
VERTEX
  5
62D
  8
0
 62
     9
 10
0.0
 20
0.0
 30
0.0
 70
   128
 71
   173
 72
   130
 73
   167
  0
VERTEX
  5
62E
  8
0
 62
     9
 10
0.0
 20
0.0
 30
0.0
 70
   128
 71
   130
 72
   173
 73
   127
  0
VERTEX
  5
62F
  8
0
 62
     9
 10
0.0
 20
0.0
 30
0.0
 70
   128
 71
   176
 72
   168
 73
   133
  0
VERTEX
  5
630
  8
0
 62
     9
 10
0.0
 20
0.0
 30
0.0
 70
   128
 71
   168
 72
   167
 73
   131
  0
VERTEX
  5
631
  8
0
 62
     9
 10
0.0
 20
0.0
 30
0.0
 70
   128
 71
     9
 72
     7
 73
   106
  0
VERTEX
  5
632
  8
0
 62
     9
 10
0.0
 20
0.0
 30
0.0
 70
   128
 71
     1
 72
   107
 73
   112
  0
VERTEX
  5
633
  8
0
 62
     9
 10
0.0
 20
0.0
 30
0.0
 70
   128
 71
   110
 72
   112
 73
   107
  0
VERTEX
  5
634
  8
0
 62
     9
 10
0.0
 20
0.0
 30
0.0
 70
   128
 71
   106
 72
   107
 73
     1
  0
VERTEX
  5
635
  8
0
 62
     9
 10
0.0
 20
0.0
 30
0.0
 70
   128
 71
     9
 72
   106
 73
     1
  0
VERTEX
  5
636
  8
0
 62
     9
 10
0.0
 20
0.0
 30
0.0
 70
   128
 71
     7
 72
     6
 73
   106
  0
VERTEX
  5
637
  8
0
 62
     9
 10
0.0
 20
0.0
 30
0.0
 70
   128
 71
    10
 72
   106
 73
     6
  0
VERTEX
  5
638
  8
0
 62
     9
 10
0.0
 20
0.0
 30
0.0
 70
   128
 71
   119
 72
   121
 73
    19
  0
VERTEX
  5
639
  8
0
 62
     9
 10
0.0
 20
0.0
 30
0.0
 70
   128
 71
   124
 72
    10
 73
    20
  0
VERTEX
  5
63A
  8
0
 62
     9
 10
0.0
 20
0.0
 30
0.0
 70
   128
 71
   114
 72
    13
 73
    14
  0
VERTEX
  5
63B
  8
0
 62
     9
 10
0.0
 20
0.0
 30
0.0
 70
   128
 71
   119
 72
    17
 73
   117
  0
VERTEX
  5
63C
  8
0
 62
     9
 10
0.0
 20
0.0
 30
0.0
 70
   128
 71
   126
 72
    24
 73
   128
  0
VERTEX
  5
63D
  8
0
 62
     9
 10
0.0
 20
0.0
 30
0.0
 70
   128
 71
    23
 72
   126
 73
   123
  0
VERTEX
  5
63E
  8
0
 62
     9
 10
0.0
 20
0.0
 30
0.0
 70
   128
 71
   132
 72
    29
 73
    32
  0
VERTEX
  5
63F
  8
0
 62
     9
 10
0.0
 20
0.0
 30
0.0
 70
   128
 71
    29
 72
   129
 73
    26
  0
VERTEX
  5
640
  8
0
 62
     9
 10
0.0
 20
0.0
 30
0.0
 70
   128
 71
   129
 72
    29
 73
   132
  0
VERTEX
  5
641
  8
0
 62
     9
 10
0.0
 20
0.0
 30
0.0
 70
   128
 71
    32
 72
    29
 73
    30
  0
VERTEX
  5
642
  8
0
 62
     9
 10
0.0
 20
0.0
 30
0.0
 70
   128
 71
    24
 72
    26
 73
   128
  0
VERTEX
  5
643
  8
0
 62
     9
 10
0.0
 20
0.0
 30
0.0
 70
   128
 71
   128
 72
    26
 73
   129
  0
VERTEX
  5
644
  8
0
 62
     9
 10
0.0
 20
0.0
 30
0.0
 70
   128
 71
   117
 72
    17
 73
    13
  0
VERTEX
  5
645
  8
0
 62
     9
 10
0.0
 20
0.0
 30
0.0
 70
   128
 71
   126
 72
    23
 73
    24
  0
VERTEX
  5
646
  8
0
 62
     9
 10
0.0
 20
0.0
 30
0.0
 70
   128
 71
   123
 72
   114
 73
    14
  0
VERTEX
  5
647
  8
0
 62
     9
 10
0.0
 20
0.0
 30
0.0
 70
   128
 71
    14
 72
    23
 73
   123
  0
VERTEX
  5
648
  8
0
 62
     9
 10
0.0
 20
0.0
 30
0.0
 70
   128
 71
    13
 72
   114
 73
   117
  0
VERTEX
  5
649
  8
0
 62
     9
 10
0.0
 20
0.0
 30
0.0
 70
   128
 71
   121
 72
   124
 73
    20
  0
VERTEX
  5
64A
  8
0
 62
     9
 10
0.0
 20
0.0
 30
0.0
 70
   128
 71
    19
 72
    17
 73
   119
  0
VERTEX
  5
64B
  8
0
 62
     9
 10
0.0
 20
0.0
 30
0.0
 70
   128
 71
    20
 72
    19
 73
   121
  0
VERTEX
  5
64C
  8
0
 62
     9
 10
0.0
 20
0.0
 30
0.0
 70
   128
 71
   124
 72
   106
 73
    10
  0
VERTEX
  5
64D
  8
0
 62
     9
 10
0.0
 20
0.0
 30
0.0
 70
   128
 71
    92
 72
     3
 73
   113
  0
VERTEX
  5
64E
  8
0
 62
     9
 10
0.0
 20
0.0
 30
0.0
 70
   128
 71
   178
 72
   177
 73
   111
  0
VERTEX
  5
64F
  8
0
 62
     9
 10
0.0
 20
0.0
 30
0.0
 70
   128
 71
   136
 72
   180
 73
   179
  0
VERTEX
  5
650
  8
0
 62
     9
 10
0.0
 20
0.0
 30
0.0
 70
   128
 71
   181
 72
   108
 73
   105
  0
VERTEX
  5
651
  8
0
 62
     9
 10
0.0
 20
0.0
 30
0.0
 70
   128
 71
   105
 72
   109
 73
   136
  0
VERTEX
  5
652
  8
0
 62
     9
 10
0.0
 20
0.0
 30
0.0
 70
   128
 71
    87
 72
   141
 73
    40
  0
VERTEX
  5
653
  8
0
 62
     9
 10
0.0
 20
0.0
 30
0.0
 70
   128
 71
   139
 72
   149
 73
   182
  0
VERTEX
  5
654
  8
0
 62
     9
 10
0.0
 20
0.0
 30
0.0
 70
   128
 71
   139
 72
   180
 73
   140
  0
VERTEX
  5
655
  8
0
 62
     9
 10
0.0
 20
0.0
 30
0.0
 70
   128
 71
   145
 72
   183
 73
   149
  0
VERTEX
  5
656
  8
0
 62
     9
 10
0.0
 20
0.0
 30
0.0
 70
   128
 71
   184
 72
   145
 73
   141
  0
VERTEX
  5
657
  8
0
 62
     9
 10
0.0
 20
0.0
 30
0.0
 70
   128
 71
   145
 72
   184
 73
   183
  0
VERTEX
  5
658
  8
0
 62
     9
 10
0.0
 20
0.0
 30
0.0
 70
   128
 71
   184
 72
   141
 73
    87
  0
VERTEX
  5
659
  8
0
 62
     9
 10
0.0
 20
0.0
 30
0.0
 70
   128
 71
   136
 72
   179
 73
   105
  0
VERTEX
  5
65A
  8
0
 62
     9
 10
0.0
 20
0.0
 30
0.0
 70
   128
 71
   178
 72
   108
 73
   181
  0
VERTEX
  5
65B
  8
0
 62
     9
 10
0.0
 20
0.0
 30
0.0
 70
   128
 71
   139
 72
   182
 73
   180
  0
VERTEX
  5
65C
  8
0
 62
     9
 10
0.0
 20
0.0
 30
0.0
 70
   128
 71
   149
 72
   183
 73
   182
  0
VERTEX
  5
65D
  8
0
 62
     9
 10
0.0
 20
0.0
 30
0.0
 70
   128
 71
   140
 72
   180
 73
   136
  0
VERTEX
  5
65E
  8
0
 62
     9
 10
0.0
 20
0.0
 30
0.0
 70
   128
 71
   105
 72
   179
 73
   181
  0
VERTEX
  5
65F
  8
0
 62
     9
 10
0.0
 20
0.0
 30
0.0
 70
   128
 71
   113
 72
   111
 73
   177
  0
VERTEX
  5
660
  8
0
 62
     9
 10
0.0
 20
0.0
 30
0.0
 70
   128
 71
   111
 72
   108
 73
   178
  0
VERTEX
  5
661
  8
0
 62
     9
 10
0.0
 20
0.0
 30
0.0
 70
   128
 71
   177
 72
    92
 73
   113
  0
VERTEX
  5
662
  8
0
 62
     9
 10
0.0
 20
0.0
 30
0.0
 70
   128
 71
   160
 72
   186
 73
   185
  0
VERTEX
  5
663
  8
0
 62
     9
 10
0.0
 20
0.0
 30
0.0
 70
   128
 71
   185
 72
   147
 73
   158
  0
VERTEX
  5
664
  8
0
 62
     9
 10
0.0
 20
0.0
 30
0.0
 70
   128
 71
   185
 72
   158
 73
   150
  0
VERTEX
  5
665
  8
0
 62
     9
 10
0.0
 20
0.0
 30
0.0
 70
   128
 71
   144
 72
   187
 73
    49
  0
VERTEX
  5
666
  8
0
 62
     9
 10
0.0
 20
0.0
 30
0.0
 70
   128
 71
   185
 72
   150
 73
   160
  0
VERTEX
  5
667
  8
0
 62
     9
 10
0.0
 20
0.0
 30
0.0
 70
   128
 71
   158
 72
   147
 73
   157
  0
VERTEX
  5
668
  8
0
 62
     9
 10
0.0
 20
0.0
 30
0.0
 70
   128
 71
   146
 72
   185
 73
   144
  0
VERTEX
  5
669
  8
0
 62
     9
 10
0.0
 20
0.0
 30
0.0
 70
   128
 71
   147
 72
   137
 73
   157
  0
VERTEX
  5
66A
  8
0
 62
     9
 10
0.0
 20
0.0
 30
0.0
 70
   128
 71
   163
 72
   188
 73
   161
  0
VERTEX
  5
66B
  8
0
 62
     9
 10
0.0
 20
0.0
 30
0.0
 70
   128
 71
   186
 72
   161
 73
   188
  0
VERTEX
  5
66C
  8
0
 62
     9
 10
0.0
 20
0.0
 30
0.0
 70
   128
 71
   164
 72
   189
 73
   188
  0
VERTEX
  5
66D
  8
0
 62
     9
 10
0.0
 20
0.0
 30
0.0
 70
   128
 71
   161
 72
   186
 73
   160
  0
VERTEX
  5
66E
  8
0
 62
     9
 10
0.0
 20
0.0
 30
0.0
 70
   128
 71
   104
 72
   102
 73
   190
  0
VERTEX
  5
66F
  8
0
 62
     9
 10
0.0
 20
0.0
 30
0.0
 70
   128
 71
   188
 72
   163
 73
   164
  0
VERTEX
  5
670
  8
0
 62
     9
 10
0.0
 20
0.0
 30
0.0
 70
   128
 71
   190
 72
   102
 73
   191
  0
VERTEX
  5
671
  8
0
 62
     9
 10
0.0
 20
0.0
 30
0.0
 70
   128
 71
   102
 72
    94
 73
   191
  0
VERTEX
  5
672
  8
0
 62
     9
 10
0.0
 20
0.0
 30
0.0
 70
   128
 71
   192
 72
   191
 73
    94
  0
VERTEX
  5
673
  8
0
 62
     9
 10
0.0
 20
0.0
 30
0.0
 70
   128
 71
    94
 72
    99
 73
   192
  0
VERTEX
  5
674
  8
0
 62
     9
 10
0.0
 20
0.0
 30
0.0
 70
   128
 71
   188
 72
   191
 73
   192
  0
VERTEX
  5
675
  8
0
 62
     9
 10
0.0
 20
0.0
 30
0.0
 70
   128
 71
   192
 72
   187
 73
   186
  0
VERTEX
  5
676
  8
0
 62
     9
 10
0.0
 20
0.0
 30
0.0
 70
   128
 71
   186
 72
   187
 73
   185
  0
VERTEX
  5
677
  8
0
 62
     9
 10
0.0
 20
0.0
 30
0.0
 70
   128
 71
   146
 72
   147
 73
   185
  0
VERTEX
  5
678
  8
0
 62
     9
 10
0.0
 20
0.0
 30
0.0
 70
   128
 71
   189
 72
   191
 73
   188
  0
VERTEX
  5
679
  8
0
 62
     9
 10
0.0
 20
0.0
 30
0.0
 70
   128
 71
   189
 72
   190
 73
   191
  0
VERTEX
  5
67A
  8
0
 62
     9
 10
0.0
 20
0.0
 30
0.0
 70
   128
 71
    49
 72
   187
 73
    99
  0
VERTEX
  5
67B
  8
0
 62
     9
 10
0.0
 20
0.0
 30
0.0
 70
   128
 71
   188
 72
   192
 73
   186
  0
VERTEX
  5
67C
  8
0
 62
     9
 10
0.0
 20
0.0
 30
0.0
 70
   128
 71
   187
 72
   192
 73
    99
  0
VERTEX
  5
67D
  8
0
 62
     9
 10
0.0
 20
0.0
 30
0.0
 70
   128
 71
   187
 72
   144
 73
   185
  0
VERTEX
  5
67E
  8
0
 62
     9
 10
0.0
 20
0.0
 30
0.0
 70
   128
 71
   190
 72
   175
 73
   104
  0
VERTEX
  5
67F
  8
0
 62
     9
 10
0.0
 20
0.0
 30
0.0
 70
   128
 71
   190
 72
   189
 73
   175
  0
VERTEX
  5
680
  8
0
 62
     9
 10
0.0
 20
0.0
 30
0.0
 70
   128
 71
   175
 72
   189
 73
   164
  0
VERTEX
  5
681
  8
0
 62
     9
 10
0.0
 20
0.0
 30
0.0
 70
   128
 71
   104
 72
   175
 73
    80
  0
SEQEND
  5
682
  8
0
 62
     9
  0
ENDBLK
  5
685
  8
0
  0
BLOCK
  8
0
  2
1_1_
 70
     0
 10
0.0
 20
0.0
 30
0.0
  3
1_1_
  1

  0
POLYLINE
  5
687
  8
0
 62
     9
 66
     1
 10
0.0
 20
0.0
 30
0.0
 70
    64
 71
   192
 72
   366
  0
VERTEX
  5
688
  8
0
 10
0.0000146820721056
 20
135.4655609130859
 30
35.00318908691406
 70
   192
  0
VERTEX
  5
689
  8
0
 10
4.956035614013672
 20
135.7990417480469
 30
34.53879547119141
 70
   192
  0
VERTEX
  5
68A
  8
0
 10
0.0000142204253279
 20
134.9668273925781
 30
34.53881072998047
 70
   192
  0
VERTEX
  5
68B
  8
0
 10
14.69536209106445
 20
146.5348052978516
 30
34.53804779052734
 70
   192
  0
VERTEX
  5
68C
  8
0
 10
12.74148464202881
 20
141.908935546875
 30
34.53840255737305
 70
   192
  0
VERTEX
  5
68D
  8
0
 10
13.87437057495117
 20
145.4790649414062
 30
35.00318908691406
 70
   192
  0
VERTEX
  5
68E
  8
0
 10
10.82250308990479
 20
140.2567596435547
 30
35.00318908691406
 70
   192
  0
VERTEX
  5
68F
  8
0
 10
9.342842102050781
 20
138.2203979492188
 30
34.5385627746582
 70
   192
  0
VERTEX
  5
690
  8
0
 10
5.917817115783691
 20
136.7169189453125
 30
35.00318908691406
 70
   192
  0
VERTEX
  5
691
  8
0
 10
14.55093574523926
 20
151.4897918701172
 30
35.00318908691406
 70
   192
  0
VERTEX
  5
692
  8
0
 10
15.04754447937012
 20
151.5377349853516
 30
34.53748321533203
 70
   192
  0
VERTEX
  5
693
  8
0
 10
12.16697788238525
 20
181.0934600830078
 30
34.63612747192383
 70
   192
  0
VERTEX
  5
694
  8
0
 10
12.26317310333252
 20
175.1367950439453
 30
35.00317764282227
 70
   192
  0
VERTEX
  5
695
  8
0
 10
11.68924427032471
 20
181.0470733642578
 30
35.00317764282227
 70
   192
  0
VERTEX
  5
696
  8
0
 10
12.74310302734375
 20
175.1823272705078
 30
34.61641693115234
 70
   192
  0
VERTEX
  5
697
  8
0
 10
13.31912040710449
 20
169.2711639404297
 30
34.59664535522461
 70
   192
  0
VERTEX
  5
698
  8
0
 10
12.83634853363037
 20
169.2248687744141
 30
35.003173828125
 70
   192
  0
VERTEX
  5
699
  8
0
 10
13.89513778686523
 20
163.3600158691406
 30
34.57687759399414
 70
   192
  0
VERTEX
  5
69A
  8
0
 10
13.40862369537354
 20
163.3133544921875
 30
35.003173828125
 70
   192
  0
VERTEX
  5
69B
  8
0
 10
13.980637550354
 20
157.3964538574219
 30
35.003173828125
 70
   192
  0
VERTEX
  5
69C
  8
0
 10
14.47115421295166
 20
157.4488525390625
 30
34.55710601806641
 70
   192
  0
VERTEX
  5
69D
  8
0
 10
11.58817195892334
 20
187.0043487548828
 30
34.65436172485352
 70
   192
  0
VERTEX
  5
69E
  8
0
 10
11.11482334136963
 20
186.9571380615234
 30
35.00317764282227
 70
   192
  0
VERTEX
  5
69F
  8
0
 10
10.53942489624023
 20
192.8673248291016
 30
35.00317764282227
 70
   192
  0
VERTEX
  5
6A0
  8
0
 10
11.00733757019043
 20
192.9150390625
 30
34.67147827148438
 70
   192
  0
VERTEX
  5
6A1
  8
0
 10
9.976555824279785
 20
198.7825317382812
 30
35.00317764282227
 70
   192
  0
VERTEX
  5
6A2
  8
0
 10
10.62069892883301
 20
198.918212890625
 30
34.69242477416992
 70
   192
  0
VERTEX
  5
6A3
  8
0
 10
9.094473838806152
 20
204.6992492675781
 30
34.76119232177734
 70
   192
  0
VERTEX
  5
6A4
  8
0
 10
9.013777732849121
 20
204.6439514160156
 30
35.00318145751953
 70
   192
  0
VERTEX
  5
6A5
  8
0
 10
5.581491947174072
 20
209.3697357177734
 30
35.0031852722168
 70
   192
  0
VERTEX
  5
6A6
  8
0
 10
5.860334873199463
 20
209.6022796630859
 30
34.86890029907227
 70
   192
  0
VERTEX
  5
6A7
  8
0
 10
-0.0000000102168665
 20
211.1336517333984
 30
35.0031852722168
 70
   192
  0
VERTEX
  5
6A8
  8
0
 10
15.24327087402344
 20
151.2917175292969
 30
32.01612091064453
 70
   192
  0
VERTEX
  5
6A9
  8
0
 10
14.92868423461914
 20
153.8153228759766
 30
31.3853816986084
 70
   192
  0
VERTEX
  5
6AA
  8
0
 10
14.96181869506836
 20
153.601318359375
 30
30.86157417297363
 70
   192
  0
VERTEX
  5
6AB
  8
0
 10
14.30999660491943
 20
156.2655181884766
 30
30.83977699279785
 70
   192
  0
VERTEX
  5
6AC
  8
0
 10
14.31495189666748
 20
155.8683624267578
 30
29.78708839416504
 70
   192
  0
VERTEX
  5
6AD
  8
0
 10
14.79345607757568
 20
156.7711486816406
 30
32.11882019042969
 70
   192
  0
VERTEX
  5
6AE
  8
0
 10
15.01935005187988
 20
154.0312957763672
 30
32.07421493530273
 70
   192
  0
VERTEX
  5
6AF
  8
0
 10
0.0000601992978773
 20
165.7188262939453
 30
26.76883697509766
 70
   192
  0
VERTEX
  5
6B0
  8
0
 10
4.707670211791992
 20
165.7769317626953
 30
29.12048530578613
 70
   192
  0
VERTEX
  5
6B1
  8
0
 10
-0.0000265155595116
 20
166.4976501464844
 30
28.99180793762207
 70
   192
  0
VERTEX
  5
6B2
  8
0
 10
12.17542171478271
 20
159.7532348632812
 30
28.2829475402832
 70
   192
  0
VERTEX
  5
6B3
  8
0
 10
12.27958202362061
 20
160.4026641845703
 30
30.08640480041504
 70
   192
  0
VERTEX
  5
6B4
  8
0
 10
8.96090316772461
 20
163.6780700683594
 30
29.49914932250977
 70
   192
  0
VERTEX
  5
6B5
  8
0
 10
8.824256896972656
 20
162.9447174072266
 30
27.40449333190918
 70
   192
  0
VERTEX
  5
6B6
  8
0
 10
5.139771938323975
 20
167.8482208251953
 30
30.10665893554688
 70
   192
  0
VERTEX
  5
6B7
  8
0
 10
4.633906841278076
 20
165.0062255859375
 30
26.9254322052002
 70
   192
  0
VERTEX
  5
6B8
  8
0
 10
0.0000173326461663
 20
168.6416778564453
 30
29.96718597412109
 70
   192
  0
VERTEX
  5
6B9
  8
0
 10
9.767662048339844
 20
165.5138397216797
 30
30.52626800537109
 70
   192
  0
VERTEX
  5
6BA
  8
0
 10
13.24609088897705
 20
161.7246704101562
 30
31.22005844116211
 70
   192
  0
VERTEX
  5
6BB
  8
0
 10
12.48378658294678
 20
184.1181488037109
 30
32.06742477416992
 70
   192
  0
VERTEX
  5
6BC
  8
0
 10
11.97012901306152
 20
190.5840606689453
 30
32.46578216552734
 70
   192
  0
VERTEX
  5
6BD
  8
0
 10
11.92661571502686
 20
190.7552490234375
 30
32.08850479125977
 70
   192
  0
VERTEX
  5
6BE
  8
0
 10
14.23053932189941
 20
163.5338439941406
 30
32.1933479309082
 70
   192
  0
VERTEX
  5
6BF
  8
0
 10
14.71342372894287
 20
157.572998046875
 30
31.95201301574707
 70
   192
  0
VERTEX
  5
6C0
  8
0
 10
11.39962959289551
 20
197.3463897705078
 30
32.51144409179688
 70
   192
  0
VERTEX
  5
6C1
  8
0
 10
11.36856365203857
 20
197.3883209228516
 30
32.10922241210938
 70
   192
  0
VERTEX
  5
6C2
  8
0
 10
11.66228771209717
 20
190.435546875
 30
31.83961486816406
 70
   192
  0
VERTEX
  5
6C3
  8
0
 10
10.81857299804688
 20
204.1511535644531
 30
32.57745361328125
 70
   192
  0
VERTEX
  5
6C4
  8
0
 10
10.70100402832031
 20
204.0426788330078
 30
32.13652420043945
 70
   192
  0
VERTEX
  5
6C5
  8
0
 10
11.05723476409912
 20
197.1692199707031
 30
31.85573768615723
 70
   192
  0
VERTEX
  5
6C6
  8
0
 10
12.26255416870117
 20
183.7014312744141
 30
31.82501983642578
 70
   192
  0
VERTEX
  5
6C7
  8
0
 10
8.23937702178955
 20
210.3382568359375
 30
32.67498779296875
 70
   192
  0
VERTEX
  5
6C8
  8
0
 10
9.981269836425781
 20
203.7780303955078
 30
31.86124610900879
 70
   192
  0
VERTEX
  5
6C9
  8
0
 10
8.321659088134766
 20
210.4005584716797
 30
32.17564392089844
 70
   192
  0
VERTEX
  5
6CA
  8
0
 10
8.022584915161133
 20
210.1524963378906
 30
31.84547805786133
 70
   192
  0
VERTEX
  5
6CB
  8
0
 10
13.04120254516602
 20
177.4809417724609
 30
32.04394149780273
 70
   192
  0
VERTEX
  5
6CC
  8
0
 10
12.54159927368164
 20
183.8218383789062
 30
32.42045974731445
 70
   192
  0
VERTEX
  5
6CD
  8
0
 10
12.86765766143799
 20
176.9677276611328
 30
31.81214332580566
 70
   192
  0
VERTEX
  5
6CE
  8
0
 10
13.5985803604126
 20
170.8451690673828
 30
32.01730728149414
 70
   192
  0
VERTEX
  5
6CF
  8
0
 10
13.10567951202393
 20
177.0592346191406
 30
32.34853363037109
 70
   192
  0
VERTEX
  5
6D0
  8
0
 10
14.15604496002197
 20
164.2089538574219
 30
31.98655700683594
 70
   192
  0
VERTEX
  5
6D1
  8
0
 10
13.47801303863525
 20
170.2344970703125
 30
31.80070686340332
 70
   192
  0
VERTEX
  5
6D2
  8
0
 10
13.66805744171143
 20
170.2965393066406
 30
32.2707633972168
 70
   192
  0
VERTEX
  5
6D3
  8
0
 10
14.08836841583252
 20
163.5012664794922
 30
31.78927230834961
 70
   192
  0
VERTEX
  5
6D4
  8
0
 10
4.613397121429443
 20
213.2648315429688
 30
32.19215774536133
 70
   192
  0
VERTEX
  5
6D5
  8
0
 10
4.533859252929688
 20
213.1334686279297
 30
32.70615768432617
 70
   192
  0
VERTEX
  5
6D6
  8
0
 10
4.434847354888916
 20
212.9056243896484
 30
31.83602714538574
 70
   192
  0
VERTEX
  5
6D7
  8
0
 10
-0.0000000102144231
 20
213.9183807373047
 30
31.81217384338379
 70
   192
  0
VERTEX
  5
6D8
  8
0
 10
0.0000493495463161
 20
214.3194274902344
 30
32.17744064331055
 70
   192
  0
VERTEX
  5
6D9
  8
0
 10
-0.0000000102116209
 20
214.1515502929688
 30
32.69326019287109
 70
   192
  0
VERTEX
  5
6DA
  8
0
 10
17.22745132446289
 20
153.0366058349609
 30
0.0000014545628346
 70
   192
  0
VERTEX
  5
6DB
  8
0
 10
15.09608268737793
 20
158.7100524902344
 30
0.0000000121834773
 70
   192
  0
VERTEX
  5
6DC
  8
0
 10
11.25437164306641
 20
163.4004364013672
 30
-0.0000000000000046
 70
   192
  0
VERTEX
  5
6DD
  8
0
 10
5.991479396820068
 20
166.4414978027344
 30
-0.0000000000000011
 70
   192
  0
VERTEX
  5
6DE
  8
0
 10
-0.0000015847025452
 20
167.5000152587891
 30
0.0000019145404622
 70
   192
  0
VERTEX
  5
6DF
  8
0
 10
17.2144889831543
 20
146.9667510986328
 30
-0.0000007718918482
 70
   192
  0
VERTEX
  5
6E0
  8
0
 10
15.15348243713379
 20
141.2489624023438
 30
-0.0000000000000024
 70
   192
  0
VERTEX
  5
6E1
  8
0
 10
11.24721240997314
 20
136.5932464599609
 30
-0.0000000000000027
 70
   192
  0
VERTEX
  5
6E2
  8
0
 10
5.982211589813232
 20
133.5550994873047
 30
-0.0000000000000037
 70
   192
  0
VERTEX
  5
6E3
  8
0
 10
-0.000000010243812
 20
132.4999847412109
 30
0.0000000000000003
 70
   192
  0
VERTEX
  5
6E4
  8
0
 10
10.66749286651611
 20
174.4232482910156
 30
30.99087905883789
 70
   192
  0
VERTEX
  5
6E5
  8
0
 10
0.0000047533017096
 20
189.4177551269531
 30
30.4564266204834
 70
   192
  0
VERTEX
  5
6E6
  8
0
 10
4.983942985534668
 20
188.6116790771484
 30
30.62496757507324
 70
   192
  0
VERTEX
  5
6E7
  8
0
 10
4.125198364257812
 20
199.5503082275391
 30
30.84850120544434
 70
   192
  0
VERTEX
  5
6E8
  8
0
 10
7.950728416442871
 20
198.5375823974609
 30
31.24630928039551
 70
   192
  0
VERTEX
  5
6E9
  8
0
 10
5.844336032867432
 20
177.6714172363281
 30
30.41135215759277
 70
   192
  0
VERTEX
  5
6EA
  8
0
 10
0.0000035623347685
 20
179.0311737060547
 30
30.16742897033691
 70
   192
  0
VERTEX
  5
6EB
  8
0
 10
9.30744457244873
 20
186.4815216064453
 30
31.11526107788086
 70
   192
  0
VERTEX
  5
6EC
  8
0
 10
2.674209594726562
 20
210.1722869873047
 30
31.48229598999023
 70
   192
  0
VERTEX
  5
6ED
  8
0
 10
0.0000035622135783
 20
199.8014221191406
 30
30.83417892456055
 70
   192
  0
VERTEX
  5
6EE
  8
0
 10
5.348401546478271
 20
210.1623840332031
 30
31.66388320922852
 70
   192
  0
VERTEX
  5
6EF
  8
0
 10
0.0000173243643076
 20
210.1821899414062
 30
31.30068206787109
 70
   192
  0
VERTEX
  5
6F0
  8
0
 10
-14.68467617034912
 20
146.5304870605469
 30
34.53806304931641
 70
   192
  0
VERTEX
  5
6F1
  8
0
 10
-14.5510311126709
 20
151.4897918701172
 30
35.00318908691406
 70
   192
  0
VERTEX
  5
6F2
  8
0
 10
-13.87437057495117
 20
145.4790649414062
 30
35.00318908691406
 70
   192
  0
VERTEX
  5
6F3
  8
0
 10
-12.70269775390625
 20
141.9317474365234
 30
34.53837203979492
 70
   192
  0
VERTEX
  5
6F4
  8
0
 10
-15.04754447937012
 20
151.5377349853516
 30
34.53748321533203
 70
   192
  0
VERTEX
  5
6F5
  8
0
 10
-10.82250308990479
 20
140.2567596435547
 30
35.00318908691406
 70
   192
  0
VERTEX
  5
6F6
  8
0
 10
-9.347079277038574
 20
138.2060089111328
 30
34.53858184814453
 70
   192
  0
VERTEX
  5
6F7
  8
0
 10
-5.917817115783691
 20
136.7169189453125
 30
35.00318908691406
 70
   192
  0
VERTEX
  5
6F8
  8
0
 10
-4.943167209625244
 20
135.803466796875
 30
34.53879165649414
 70
   192
  0
VERTEX
  5
6F9
  8
0
 10
-11.70725345611572
 20
180.8515625
 30
35.00318908691406
 70
   192
  0
VERTEX
  5
6FA
  8
0
 10
-12.72394371032715
 20
175.3791351318359
 30
34.61701583862305
 70
   192
  0
VERTEX
  5
6FB
  8
0
 10
-12.14313697814941
 20
181.3394775390625
 30
34.63693237304688
 70
   192
  0
VERTEX
  5
6FC
  8
0
 10
-12.27619743347168
 20
174.9792327880859
 30
35.00318908691406
 70
   192
  0
VERTEX
  5
6FD
  8
0
 10
-13.30475044250488
 20
169.4187774658203
 30
34.59709548950195
 70
   192
  0
VERTEX
  5
6FE
  8
0
 10
-12.84476089477539
 20
169.1068572998047
 30
35.00318908691406
 70
   192
  0
VERTEX
  5
6FF
  8
0
 10
-13.88555812835693
 20
163.4584197998047
 30
34.57717514038086
 70
   192
  0
VERTEX
  5
700
  8
0
 10
-13.41348552703857
 20
163.2344970703125
 30
35.00318908691406
 70
   192
  0
VERTEX
  5
701
  8
0
 10
-14.46636486053467
 20
157.4980621337891
 30
34.55725479125977
 70
   192
  0
VERTEX
  5
702
  8
0
 10
-11.13717174530029
 20
186.7237854003906
 30
35.00318908691406
 70
   192
  0
VERTEX
  5
703
  8
0
 10
-13.98221015930176
 20
157.3621368408203
 30
35.00318908691406
 70
   192
  0
VERTEX
  5
704
  8
0
 10
-11.55973529815674
 20
187.2994384765625
 30
34.656005859375
 70
   192
  0
VERTEX
  5
705
  8
0
 10
-10.58021354675293
 20
192.5978698730469
 30
35.00318908691406
 70
   192
  0
VERTEX
  5
706
  8
0
 10
-10.97367477416992
 20
193.2581329345703
 30
34.6739501953125
 70
   192
  0
VERTEX
  5
707
  8
0
 10
-10.18415451049805
 20
198.5484771728516
 30
35.00318908691406
 70
   192
  0
VERTEX
  5
708
  8
0
 10
-8.817486763000488
 20
204.1669158935547
 30
35.00318908691406
 70
   192
  0
VERTEX
  5
709
  8
0
 10
-10.34118843078613
 20
199.2194519042969
 30
34.69753265380859
 70
   192
  0
VERTEX
  5
70A
  8
0
 10
-9.131854057312012
 20
205.0303497314453
 30
34.77077484130859
 70
   192
  0
VERTEX
  5
70B
  8
0
 10
-5.812548160552979
 20
209.2008666992188
 30
35.00318908691406
 70
   192
  0
VERTEX
  5
70C
  8
0
 10
-5.680182933807373
 20
209.6699371337891
 30
34.86594772338867
 70
   192
  0
VERTEX
  5
70D
  8
0
 10
-14.92868423461914
 20
153.8153228759766
 30
31.3853816986084
 70
   192
  0
VERTEX
  5
70E
  8
0
 10
-15.00012111663818
 20
154.0348358154297
 30
31.89680099487305
 70
   192
  0
VERTEX
  5
70F
  8
0
 10
-15.24327087402344
 20
151.2917175292969
 30
32.01612091064453
 70
   192
  0
VERTEX
  5
710
  8
0
 10
-14.69872283935547
 20
156.7680358886719
 30
31.7778377532959
 70
   192
  0
VERTEX
  5
711
  8
0
 10
-14.30999660491943
 20
156.2655181884766
 30
30.83977699279785
 70
   192
  0
VERTEX
  5
712
  8
0
 10
-14.31495189666748
 20
155.8683624267578
 30
29.78708839416504
 70
   192
  0
VERTEX
  5
713
  8
0
 10
-14.96106719970703
 20
153.6010437011719
 30
30.86424446105957
 70
   192
  0
VERTEX
  5
714
  8
0
 10
-4.640584945678711
 20
165.003173828125
 30
26.92536735534668
 70
   192
  0
VERTEX
  5
715
  8
0
 10
-4.707670211791992
 20
165.7769317626953
 30
29.12048530578613
 70
   192
  0
VERTEX
  5
716
  8
0
 10
-8.96090316772461
 20
163.6780700683594
 30
29.49914932250977
 70
   192
  0
VERTEX
  5
717
  8
0
 10
-5.139576435089111
 20
167.8486022949219
 30
30.10661888122559
 70
   192
  0
VERTEX
  5
718
  8
0
 10
-8.834141731262207
 20
162.9303741455078
 30
27.4034538269043
 70
   192
  0
VERTEX
  5
719
  8
0
 10
-9.767438888549805
 20
165.5138092041016
 30
30.52619361877441
 70
   192
  0
VERTEX
  5
71A
  8
0
 10
-13.23061943054199
 20
161.7169799804688
 30
31.20832252502441
 70
   192
  0
VERTEX
  5
71B
  8
0
 10
-12.27958202362061
 20
160.4026641845703
 30
30.08640480041504
 70
   192
  0
VERTEX
  5
71C
  8
0
 10
-12.16175651550293
 20
159.7553100585938
 30
28.2711124420166
 70
   192
  0
VERTEX
  5
71D
  8
0
 10
-12.60714435577393
 20
179.8531188964844
 30
31.81749153137207
 70
   192
  0
VERTEX
  5
71E
  8
0
 10
-12.76249980926514
 20
180.7992401123047
 30
32.05604553222656
 70
   192
  0
VERTEX
  5
71F
  8
0
 10
-13.38955211639404
 20
173.333740234375
 30
32.02770233154297
 70
   192
  0
VERTEX
  5
720
  8
0
 10
-14.70245838165283
 20
157.9024047851562
 30
32.14750289916992
 70
   192
  0
VERTEX
  5
721
  8
0
 10
-14.15667343139648
 20
164.5119476318359
 30
32.2393913269043
 70
   192
  0
VERTEX
  5
722
  8
0
 10
-14.64406967163086
 20
158.4024658203125
 30
31.95814323425293
 70
   192
  0
VERTEX
  5
723
  8
0
 10
-14.01668453216553
 20
165.8679809570312
 30
31.99470710754395
 70
   192
  0
VERTEX
  5
724
  8
0
 10
-14.0011625289917
 20
164.4630279541016
 30
31.79093933105469
 70
   192
  0
VERTEX
  5
725
  8
0
 10
-13.30357360839844
 20
172.1580200195312
 30
31.80406379699707
 70
   192
  0
VERTEX
  5
726
  8
0
 10
-12.13557052612305
 20
188.2669219970703
 30
32.08075714111328
 70
   192
  0
VERTEX
  5
727
  8
0
 10
-11.91969966888428
 20
187.5490264892578
 30
31.83326721191406
 70
   192
  0
VERTEX
  5
728
  8
0
 10
-11.23104381561279
 20
195.2447814941406
 30
31.85103225708008
 70
   192
  0
VERTEX
  5
729
  8
0
 10
-8.321659088134766
 20
210.4005584716797
 30
32.17564392089844
 70
   192
  0
VERTEX
  5
72A
  8
0
 10
-10.20426464080811
 20
202.8515167236328
 30
31.86215782165527
 70
   192
  0
VERTEX
  5
72B
  8
0
 10
-8.022584915161133
 20
210.1524963378906
 30
31.84547805786133
 70
   192
  0
VERTEX
  5
72C
  8
0
 10
-10.79961204528809
 20
203.208251953125
 30
32.13230514526367
 70
   192
  0
VERTEX
  5
72D
  8
0
 10
-11.50833225250244
 20
195.7295989990234
 30
32.10390090942383
 70
   192
  0
VERTEX
  5
72E
  8
0
 10
-10.75572490692139
 20
204.2596588134766
 30
32.57319259643555
 70
   192
  0
VERTEX
  5
72F
  8
0
 10
-8.23937702178955
 20
210.3382568359375
 30
32.67498779296875
 70
   192
  0
VERTEX
  5
730
  8
0
 10
-13.61086177825928
 20
171.0747833251953
 30
32.31229400634766
 70
   192
  0
VERTEX
  5
731
  8
0
 10
-13.0501594543457
 20
177.7720184326172
 30
32.37266540527344
 70
   192
  0
VERTEX
  5
732
  8
0
 10
-12.49545001983643
 20
184.3748016357422
 30
32.42518615722656
 70
   192
  0
VERTEX
  5
733
  8
0
 10
-11.93865776062012
 20
190.9710235595703
 30
32.4702033996582
 70
   192
  0
VERTEX
  5
734
  8
0
 10
-11.36715316772461
 20
197.6306610107422
 30
32.51445388793945
 70
   192
  0
VERTEX
  5
735
  8
0
 10
-4.613397121429443
 20
213.2648315429688
 30
32.19215774536133
 70
   192
  0
VERTEX
  5
736
  8
0
 10
-4.434847354888916
 20
212.9056243896484
 30
31.83602714538574
 70
   192
  0
VERTEX
  5
737
  8
0
 10
-4.542222499847412
 20
213.1303100585938
 30
32.70646667480469
 70
   192
  0
VERTEX
  5
738
  8
0
 10
-5.991479873657227
 20
133.5585174560547
 30
-0.0000000000000183
 70
   192
  0
VERTEX
  5
739
  8
0
 10
-11.25437164306641
 20
136.5995788574219
 30
-0.0000000000000167
 70
   192
  0
VERTEX
  5
73A
  8
0
 10
-17.22738075256348
 20
146.9633941650391
 30
-0.0000013983036524
 70
   192
  0
VERTEX
  5
73B
  8
0
 10
-17.21451950073242
 20
153.0332641601562
 30
0.0000008025772331
 70
   192
  0
VERTEX
  5
73C
  8
0
 10
-15.09608364105225
 20
141.2899475097656
 30
-0.0000000121458719
 70
   192
  0
VERTEX
  5
73D
  8
0
 10
-15.15348339080811
 20
158.7510528564453
 30
0.0000000000000014
 70
   192
  0
VERTEX
  5
73E
  8
0
 10
-11.24721240997314
 20
163.4067687988281
 30
0.0000000000000073
 70
   192
  0
VERTEX
  5
73F
  8
0
 10
-5.982212066650391
 20
166.4449005126953
 30
0.0000000000000101
 70
   192
  0
VERTEX
  5
740
  8
0
 10
-10.66756725311279
 20
174.4231719970703
 30
30.99089241027832
 70
   192
  0
VERTEX
  5
741
  8
0
 10
-9.307515144348145
 20
186.4814605712891
 30
31.11527252197266
 70
   192
  0
VERTEX
  5
742
  8
0
 10
-5.844547271728516
 20
177.6713409423828
 30
30.41136741638184
 70
   192
  0
VERTEX
  5
743
  8
0
 10
-7.950795650482178
 20
198.5375518798828
 30
31.24631881713867
 70
   192
  0
VERTEX
  5
744
  8
0
 10
-5.348401546478271
 20
210.1623840332031
 30
31.66388320922852
 70
   192
  0
VERTEX
  5
745
  8
0
 10
-2.674209594726562
 20
210.1722869873047
 30
31.48229598999023
 70
   192
  0
VERTEX
  5
746
  8
0
 10
-4.125353813171387
 20
199.5502777099609
 30
30.84851264953613
 70
   192
  0
VERTEX
  5
747
  8
0
 10
-4.984126567840576
 20
188.6116180419922
 30
30.62497901916504
 70
   192
  0
VERTEX
  5
748
  8
0
 62
     9
 10
0.0
 20
0.0
 30
0.0
 70
   128
 71
     3
 72
     2
 73
     1
  0
VERTEX
  5
749
  8
0
 62
     9
 10
0.0
 20
0.0
 30
0.0
 70
   128
 71
     6
 72
     5
 73
     4
  0
VERTEX
  5
74A
  8
0
 62
     9
 10
0.0
 20
0.0
 30
0.0
 70
   128
 71
     9
 72
     8
 73
     7
  0
VERTEX
  5
74B
  8
0
 62
     9
 10
0.0
 20
0.0
 30
0.0
 70
   128
 71
    11
 72
    10
 73
     4
  0
VERTEX
  5
74C
  8
0
 62
     9
 10
0.0
 20
0.0
 30
0.0
 70
   128
 71
     6
 72
     4
 73
    10
  0
VERTEX
  5
74D
  8
0
 62
     9
 10
0.0
 20
0.0
 30
0.0
 70
   128
 71
     7
 72
     5
 73
     6
  0
VERTEX
  5
74E
  8
0
 62
     9
 10
0.0
 20
0.0
 30
0.0
 70
   128
 71
     2
 72
     8
 73
     9
  0
VERTEX
  5
74F
  8
0
 62
     9
 10
0.0
 20
0.0
 30
0.0
 70
   128
 71
     8
 72
     5
 73
     7
  0
VERTEX
  5
750
  8
0
 62
     9
 10
0.0
 20
0.0
 30
0.0
 70
   128
 71
     9
 72
     1
 73
     2
  0
VERTEX
  5
751
  8
0
 62
     9
 10
0.0
 20
0.0
 30
0.0
 70
   128
 71
    14
 72
    13
 73
    12
  0
VERTEX
  5
752
  8
0
 62
     9
 10
0.0
 20
0.0
 30
0.0
 70
   128
 71
    17
 72
    16
 73
    15
  0
VERTEX
  5
753
  8
0
 62
     9
 10
0.0
 20
0.0
 30
0.0
 70
   128
 71
    15
 72
    12
 73
    13
  0
VERTEX
  5
754
  8
0
 62
     9
 10
0.0
 20
0.0
 30
0.0
 70
   128
 71
    16
 72
    19
 73
    18
  0
VERTEX
  5
755
  8
0
 62
     9
 10
0.0
 20
0.0
 30
0.0
 70
   128
 71
    21
 72
    18
 73
    20
  0
VERTEX
  5
756
  8
0
 62
     9
 10
0.0
 20
0.0
 30
0.0
 70
   128
 71
    21
 72
    20
 73
    10
  0
VERTEX
  5
757
  8
0
 62
     9
 10
0.0
 20
0.0
 30
0.0
 70
   128
 71
    21
 72
    10
 73
    11
  0
VERTEX
  5
758
  8
0
 62
     9
 10
0.0
 20
0.0
 30
0.0
 70
   128
 71
    17
 72
    19
 73
    16
  0
VERTEX
  5
759
  8
0
 62
     9
 10
0.0
 20
0.0
 30
0.0
 70
   128
 71
    20
 72
    18
 73
    19
  0
VERTEX
  5
75A
  8
0
 62
     9
 10
0.0
 20
0.0
 30
0.0
 70
   128
 71
    12
 72
    22
 73
    14
  0
VERTEX
  5
75B
  8
0
 62
     9
 10
0.0
 20
0.0
 30
0.0
 70
   128
 71
    17
 72
    15
 73
    13
  0
VERTEX
  5
75C
  8
0
 62
     9
 10
0.0
 20
0.0
 30
0.0
 70
   128
 71
    14
 72
    22
 73
    23
  0
VERTEX
  5
75D
  8
0
 62
     9
 10
0.0
 20
0.0
 30
0.0
 70
   128
 71
    25
 72
    24
 73
    23
  0
VERTEX
  5
75E
  8
0
 62
     9
 10
0.0
 20
0.0
 30
0.0
 70
   128
 71
    23
 72
    22
 73
    25
  0
VERTEX
  5
75F
  8
0
 62
     9
 10
0.0
 20
0.0
 30
0.0
 70
   128
 71
    24
 72
    27
 73
    26
  0
VERTEX
  5
760
  8
0
 62
     9
 10
0.0
 20
0.0
 30
0.0
 70
   128
 71
    27
 72
    24
 73
    25
  0
VERTEX
  5
761
  8
0
 62
     9
 10
0.0
 20
0.0
 30
0.0
 70
   128
 71
    29
 72
    26
 73
    28
  0
VERTEX
  5
762
  8
0
 62
     9
 10
0.0
 20
0.0
 30
0.0
 70
   128
 71
    27
 72
    28
 73
    26
  0
VERTEX
  5
763
  8
0
 62
     9
 10
0.0
 20
0.0
 30
0.0
 70
   128
 71
    31
 72
    30
 73
    29
  0
VERTEX
  5
764
  8
0
 62
     9
 10
0.0
 20
0.0
 30
0.0
 70
   128
 71
    29
 72
    28
 73
    31
  0
VERTEX
  5
765
  8
0
 62
     9
 10
0.0
 20
0.0
 30
0.0
 70
   128
 71
    31
 72
    32
 73
    30
  0
VERTEX
  5
766
  8
0
 62
     9
 10
0.0
 20
0.0
 30
0.0
 70
   128
 71
    35
 72
    34
 73
    33
  0
VERTEX
  5
767
  8
0
 62
     9
 10
0.0
 20
0.0
 30
0.0
 70
   128
 71
    37
 72
    36
 73
    34
  0
VERTEX
  5
768
  8
0
 62
     9
 10
0.0
 20
0.0
 30
0.0
 70
   128
 71
    39
 72
    36
 73
    38
  0
VERTEX
  5
769
  8
0
 62
     9
 10
0.0
 20
0.0
 30
0.0
 70
   128
 71
    34
 72
    35
 73
    37
  0
VERTEX
  5
76A
  8
0
 62
     9
 10
0.0
 20
0.0
 30
0.0
 70
   128
 71
    39
 72
    34
 73
    36
  0
VERTEX
  5
76B
  8
0
 62
     9
 10
0.0
 20
0.0
 30
0.0
 70
   128
 71
    34
 72
    39
 73
    33
  0
VERTEX
  5
76C
  8
0
 62
     9
 10
0.0
 20
0.0
 30
0.0
 70
   128
 71
    42
 72
    41
 73
    40
  0
VERTEX
  5
76D
  8
0
 62
     9
 10
0.0
 20
0.0
 30
0.0
 70
   128
 71
    37
 72
    43
 73
    36
  0
VERTEX
  5
76E
  8
0
 62
     9
 10
0.0
 20
0.0
 30
0.0
 70
   128
 71
    46
 72
    45
 73
    44
  0
VERTEX
  5
76F
  8
0
 62
     9
 10
0.0
 20
0.0
 30
0.0
 70
   128
 71
    47
 72
    41
 73
    42
  0
VERTEX
  5
770
  8
0
 62
     9
 10
0.0
 20
0.0
 30
0.0
 70
   128
 71
    45
 72
    46
 73
    48
  0
VERTEX
  5
771
  8
0
 62
     9
 10
0.0
 20
0.0
 30
0.0
 70
   128
 71
    42
 72
    49
 73
    47
  0
VERTEX
  5
772
  8
0
 62
     9
 10
0.0
 20
0.0
 30
0.0
 70
   128
 71
    47
 72
    50
 73
    41
  0
VERTEX
  5
773
  8
0
 62
     9
 10
0.0
 20
0.0
 30
0.0
 70
   128
 71
    48
 72
    41
 73
    45
  0
VERTEX
  5
774
  8
0
 62
     9
 10
0.0
 20
0.0
 30
0.0
 70
   128
 71
    44
 72
    38
 73
    36
  0
VERTEX
  5
775
  8
0
 62
     9
 10
0.0
 20
0.0
 30
0.0
 70
   128
 71
    43
 72
    46
 73
    44
  0
VERTEX
  5
776
  8
0
 62
     9
 10
0.0
 20
0.0
 30
0.0
 70
   128
 71
    50
 72
    45
 73
    41
  0
VERTEX
  5
777
  8
0
 62
     9
 10
0.0
 20
0.0
 30
0.0
 70
   128
 71
    48
 72
    40
 73
    41
  0
VERTEX
  5
778
  8
0
 62
     9
 10
0.0
 20
0.0
 30
0.0
 70
   128
 71
    51
 72
    45
 73
    50
  0
VERTEX
  5
779
  8
0
 62
     9
 10
0.0
 20
0.0
 30
0.0
 70
   128
 71
    44
 72
    51
 73
    38
  0
VERTEX
  5
77A
  8
0
 62
     9
 10
0.0
 20
0.0
 30
0.0
 70
   128
 71
    44
 72
    45
 73
    51
  0
VERTEX
  5
77B
  8
0
 62
     9
 10
0.0
 20
0.0
 30
0.0
 70
   128
 71
    43
 72
    44
 73
    36
  0
VERTEX
  5
77C
  8
0
 62
     9
 10
0.0
 20
0.0
 30
0.0
 70
   128
 71
    54
 72
    53
 73
    52
  0
VERTEX
  5
77D
  8
0
 62
     9
 10
0.0
 20
0.0
 30
0.0
 70
   128
 71
    56
 72
    55
 73
    38
  0
VERTEX
  5
77E
  8
0
 62
     9
 10
0.0
 20
0.0
 30
0.0
 70
   128
 71
    58
 72
    57
 73
    54
  0
VERTEX
  5
77F
  8
0
 62
     9
 10
0.0
 20
0.0
 30
0.0
 70
   128
 71
    58
 72
    54
 73
    59
  0
VERTEX
  5
780
  8
0
 62
     9
 10
0.0
 20
0.0
 30
0.0
 70
   128
 71
    58
 72
    61
 73
    60
  0
VERTEX
  5
781
  8
0
 62
     9
 10
0.0
 20
0.0
 30
0.0
 70
   128
 71
    58
 72
    62
 73
    61
  0
VERTEX
  5
782
  8
0
 62
     9
 10
0.0
 20
0.0
 30
0.0
 70
   128
 71
    63
 72
    54
 73
    52
  0
VERTEX
  5
783
  8
0
 62
     9
 10
0.0
 20
0.0
 30
0.0
 70
   128
 71
    60
 72
    61
 73
    64
  0
VERTEX
  5
784
  8
0
 62
     9
 10
0.0
 20
0.0
 30
0.0
 70
   128
 71
    67
 72
    66
 73
    65
  0
VERTEX
  5
785
  8
0
 62
     9
 10
0.0
 20
0.0
 30
0.0
 70
   128
 71
    68
 72
    63
 73
    52
  0
VERTEX
  5
786
  8
0
 62
     9
 10
0.0
 20
0.0
 30
0.0
 70
   128
 71
    68
 72
    52
 73
    69
  0
VERTEX
  5
787
  8
0
 62
     9
 10
0.0
 20
0.0
 30
0.0
 70
   128
 71
    68
 72
    71
 73
    70
  0
VERTEX
  5
788
  8
0
 62
     9
 10
0.0
 20
0.0
 30
0.0
 70
   128
 71
    72
 72
    71
 73
    68
  0
VERTEX
  5
789
  8
0
 62
     9
 10
0.0
 20
0.0
 30
0.0
 70
   128
 71
    74
 72
    71
 73
    73
  0
VERTEX
  5
78A
  8
0
 62
     9
 10
0.0
 20
0.0
 30
0.0
 70
   128
 71
    71
 72
    75
 73
    73
  0
VERTEX
  5
78B
  8
0
 62
     9
 10
0.0
 20
0.0
 30
0.0
 70
   128
 71
    56
 72
    38
 73
    39
  0
VERTEX
  5
78C
  8
0
 62
     9
 10
0.0
 20
0.0
 30
0.0
 70
   128
 71
    56
 72
    73
 73
    55
  0
VERTEX
  5
78D
  8
0
 62
     9
 10
0.0
 20
0.0
 30
0.0
 70
   128
 71
    38
 72
    76
 73
    56
  0
VERTEX
  5
78E
  8
0
 62
     9
 10
0.0
 20
0.0
 30
0.0
 70
   128
 71
    56
 72
    39
 73
    38
  0
VERTEX
  5
78F
  8
0
 62
     9
 10
0.0
 20
0.0
 30
0.0
 70
   128
 71
    56
 72
    76
 73
    73
  0
VERTEX
  5
790
  8
0
 62
     9
 10
0.0
 20
0.0
 30
0.0
 70
   128
 71
    73
 72
    76
 73
    74
  0
VERTEX
  5
791
  8
0
 62
     9
 10
0.0
 20
0.0
 30
0.0
 70
   128
 71
    55
 72
    73
 73
    75
  0
VERTEX
  5
792
  8
0
 62
     9
 10
0.0
 20
0.0
 30
0.0
 70
   128
 71
    71
 72
    74
 73
    70
  0
VERTEX
  5
793
  8
0
 62
     9
 10
0.0
 20
0.0
 30
0.0
 70
   128
 71
    75
 72
    71
 73
    72
  0
VERTEX
  5
794
  8
0
 62
     9
 10
0.0
 20
0.0
 30
0.0
 70
   128
 71
    68
 72
    70
 73
    63
  0
VERTEX
  5
795
  8
0
 62
     9
 10
0.0
 20
0.0
 30
0.0
 70
   128
 71
    72
 72
    68
 73
    69
  0
VERTEX
  5
796
  8
0
 62
     9
 10
0.0
 20
0.0
 30
0.0
 70
   128
 71
    63
 72
    59
 73
    54
  0
VERTEX
  5
797
  8
0
 62
     9
 10
0.0
 20
0.0
 30
0.0
 70
   128
 71
    69
 72
    52
 73
    53
  0
VERTEX
  5
798
  8
0
 62
     9
 10
0.0
 20
0.0
 30
0.0
 70
   128
 71
    59
 72
    62
 73
    58
  0
VERTEX
  5
799
  8
0
 62
     9
 10
0.0
 20
0.0
 30
0.0
 70
   128
 71
    53
 72
    54
 73
    57
  0
VERTEX
  5
79A
  8
0
 62
     9
 10
0.0
 20
0.0
 30
0.0
 70
   128
 71
    62
 72
    65
 73
    61
  0
VERTEX
  5
79B
  8
0
 62
     9
 10
0.0
 20
0.0
 30
0.0
 70
   128
 71
    57
 72
    58
 73
    60
  0
VERTEX
  5
79C
  8
0
 62
     9
 10
0.0
 20
0.0
 30
0.0
 70
   128
 71
    66
 72
    61
 73
    65
  0
VERTEX
  5
79D
  8
0
 62
     9
 10
0.0
 20
0.0
 30
0.0
 70
   128
 71
    61
 72
    66
 73
    64
  0
VERTEX
  5
79E
  8
0
 62
     9
 10
0.0
 20
0.0
 30
0.0
 70
   128
 71
    78
 72
    64
 73
    77
  0
VERTEX
  5
79F
  8
0
 62
     9
 10
0.0
 20
0.0
 30
0.0
 70
   128
 71
    80
 72
    77
 73
    79
  0
VERTEX
  5
7A0
  8
0
 62
     9
 10
0.0
 20
0.0
 30
0.0
 70
   128
 71
    79
 72
    66
 73
    67
  0
VERTEX
  5
7A1
  8
0
 62
     9
 10
0.0
 20
0.0
 30
0.0
 70
   128
 71
    66
 72
    77
 73
    64
  0
VERTEX
  5
7A2
  8
0
 62
     9
 10
0.0
 20
0.0
 30
0.0
 70
   128
 71
    80
 72
    81
 73
    77
  0
VERTEX
  5
7A3
  8
0
 62
     9
 10
0.0
 20
0.0
 30
0.0
 70
   128
 71
    81
 72
    82
 73
    78
  0
VERTEX
  5
7A4
  8
0
 62
     9
 10
0.0
 20
0.0
 30
0.0
 70
   128
 71
    77
 72
    81
 73
    78
  0
VERTEX
  5
7A5
  8
0
 62
     9
 10
0.0
 20
0.0
 30
0.0
 70
   128
 71
    79
 72
    77
 73
    66
  0
VERTEX
  5
7A6
  8
0
 62
     9
 10
0.0
 20
0.0
 30
0.0
 70
   128
 71
    15
 72
    75
 73
    72
  0
VERTEX
  5
7A7
  8
0
 62
     9
 10
0.0
 20
0.0
 30
0.0
 70
   128
 71
    22
 72
    53
 73
    25
  0
VERTEX
  5
7A8
  8
0
 62
     9
 10
0.0
 20
0.0
 30
0.0
 70
   128
 71
    55
 72
    75
 73
    16
  0
VERTEX
  5
7A9
  8
0
 62
     9
 10
0.0
 20
0.0
 30
0.0
 70
   128
 71
    12
 72
    15
 73
    72
  0
VERTEX
  5
7AA
  8
0
 62
     9
 10
0.0
 20
0.0
 30
0.0
 70
   128
 71
    38
 72
    55
 73
    18
  0
VERTEX
  5
7AB
  8
0
 62
     9
 10
0.0
 20
0.0
 30
0.0
 70
   128
 71
    16
 72
    18
 73
    55
  0
VERTEX
  5
7AC
  8
0
 62
     9
 10
0.0
 20
0.0
 30
0.0
 70
   128
 71
    21
 72
    39
 73
    38
  0
VERTEX
  5
7AD
  8
0
 62
     9
 10
0.0
 20
0.0
 30
0.0
 70
   128
 71
    38
 72
    18
 73
    21
  0
VERTEX
  5
7AE
  8
0
 62
     9
 10
0.0
 20
0.0
 30
0.0
 70
   128
 71
    39
 72
    11
 73
    33
  0
VERTEX
  5
7AF
  8
0
 62
     9
 10
0.0
 20
0.0
 30
0.0
 70
   128
 71
    11
 72
    39
 73
    21
  0
VERTEX
  5
7B0
  8
0
 62
     9
 10
0.0
 20
0.0
 30
0.0
 70
   128
 71
    75
 72
    15
 73
    16
  0
VERTEX
  5
7B1
  8
0
 62
     9
 10
0.0
 20
0.0
 30
0.0
 70
   128
 71
    12
 72
    72
 73
    69
  0
VERTEX
  5
7B2
  8
0
 62
     9
 10
0.0
 20
0.0
 30
0.0
 70
   128
 71
    69
 72
    53
 73
    22
  0
VERTEX
  5
7B3
  8
0
 62
     9
 10
0.0
 20
0.0
 30
0.0
 70
   128
 71
    22
 72
    12
 73
    69
  0
VERTEX
  5
7B4
  8
0
 62
     9
 10
0.0
 20
0.0
 30
0.0
 70
   128
 71
    25
 72
    57
 73
    27
  0
VERTEX
  5
7B5
  8
0
 62
     9
 10
0.0
 20
0.0
 30
0.0
 70
   128
 71
    25
 72
    53
 73
    57
  0
VERTEX
  5
7B6
  8
0
 62
     9
 10
0.0
 20
0.0
 30
0.0
 70
   128
 71
    28
 72
    27
 73
    60
  0
VERTEX
  5
7B7
  8
0
 62
     9
 10
0.0
 20
0.0
 30
0.0
 70
   128
 71
    57
 72
    60
 73
    27
  0
VERTEX
  5
7B8
  8
0
 62
     9
 10
0.0
 20
0.0
 30
0.0
 70
   128
 71
    64
 72
    31
 73
    28
  0
VERTEX
  5
7B9
  8
0
 62
     9
 10
0.0
 20
0.0
 30
0.0
 70
   128
 71
    28
 72
    60
 73
    64
  0
VERTEX
  5
7BA
  8
0
 62
     9
 10
0.0
 20
0.0
 30
0.0
 70
   128
 71
    31
 72
    78
 73
    32
  0
VERTEX
  5
7BB
  8
0
 62
     9
 10
0.0
 20
0.0
 30
0.0
 70
   128
 71
    78
 72
    31
 73
    64
  0
VERTEX
  5
7BC
  8
0
 62
     9
 10
0.0
 20
0.0
 30
0.0
 70
   128
 71
    78
 72
    82
 73
    32
  0
VERTEX
  5
7BD
  8
0
 62
     9
 10
0.0
 20
0.0
 30
0.0
 70
   128
 71
    83
 72
    35
 73
    33
  0
VERTEX
  5
7BE
  8
0
 62
     9
 10
0.0
 20
0.0
 30
0.0
 70
   128
 71
    43
 72
    37
 73
    84
  0
VERTEX
  5
7BF
  8
0
 62
     9
 10
0.0
 20
0.0
 30
0.0
 70
   128
 71
    37
 72
    83
 73
    84
  0
VERTEX
  5
7C0
  8
0
 62
     9
 10
0.0
 20
0.0
 30
0.0
 70
   128
 71
    85
 72
    46
 73
    43
  0
VERTEX
  5
7C1
  8
0
 62
     9
 10
0.0
 20
0.0
 30
0.0
 70
   128
 71
    43
 72
    84
 73
    85
  0
VERTEX
  5
7C2
  8
0
 62
     9
 10
0.0
 20
0.0
 30
0.0
 70
   128
 71
    46
 72
    86
 73
    48
  0
VERTEX
  5
7C3
  8
0
 62
     9
 10
0.0
 20
0.0
 30
0.0
 70
   128
 71
    86
 72
    46
 73
    85
  0
VERTEX
  5
7C4
  8
0
 62
     9
 10
0.0
 20
0.0
 30
0.0
 70
   128
 71
    83
 72
    37
 73
    35
  0
VERTEX
  5
7C5
  8
0
 62
     9
 10
0.0
 20
0.0
 30
0.0
 70
   128
 71
    48
 72
    86
 73
    87
  0
VERTEX
  5
7C6
  8
0
 62
     9
 10
0.0
 20
0.0
 30
0.0
 70
   128
 71
    87
 72
    40
 73
    48
  0
VERTEX
  5
7C7
  8
0
 62
     9
 10
0.0
 20
0.0
 30
0.0
 70
   128
 71
    88
 72
    83
 73
    33
  0
VERTEX
  5
7C8
  8
0
 62
     9
 10
0.0
 20
0.0
 30
0.0
 70
   128
 71
    11
 72
     4
 73
    33
  0
VERTEX
  5
7C9
  8
0
 62
     9
 10
0.0
 20
0.0
 30
0.0
 70
   128
 71
    88
 72
    33
 73
     4
  0
VERTEX
  5
7CA
  8
0
 62
     9
 10
0.0
 20
0.0
 30
0.0
 70
   128
 71
    88
 72
     4
 73
    89
  0
VERTEX
  5
7CB
  8
0
 62
     9
 10
0.0
 20
0.0
 30
0.0
 70
   128
 71
     5
 72
     8
 73
    90
  0
VERTEX
  5
7CC
  8
0
 62
     9
 10
0.0
 20
0.0
 30
0.0
 70
   128
 71
     5
 72
    89
 73
     4
  0
VERTEX
  5
7CD
  8
0
 62
     9
 10
0.0
 20
0.0
 30
0.0
 70
   128
 71
     5
 72
    90
 73
    89
  0
VERTEX
  5
7CE
  8
0
 62
     9
 10
0.0
 20
0.0
 30
0.0
 70
   128
 71
     2
 72
    91
 73
     8
  0
VERTEX
  5
7CF
  8
0
 62
     9
 10
0.0
 20
0.0
 30
0.0
 70
   128
 71
    90
 72
     8
 73
    91
  0
VERTEX
  5
7D0
  8
0
 62
     9
 10
0.0
 20
0.0
 30
0.0
 70
   128
 71
     2
 72
     3
 73
    92
  0
VERTEX
  5
7D1
  8
0
 62
     9
 10
0.0
 20
0.0
 30
0.0
 70
   128
 71
    92
 72
    91
 73
     2
  0
VERTEX
  5
7D2
  8
0
 62
     9
 10
0.0
 20
0.0
 30
0.0
 70
   128
 71
    63
 72
    70
 73
    93
  0
VERTEX
  5
7D3
  8
0
 62
     9
 10
0.0
 20
0.0
 30
0.0
 70
   128
 71
    96
 72
    95
 73
    94
  0
VERTEX
  5
7D4
  8
0
 62
     9
 10
0.0
 20
0.0
 30
0.0
 70
   128
 71
    97
 72
    67
 73
    65
  0
VERTEX
  5
7D5
  8
0
 62
     9
 10
0.0
 20
0.0
 30
0.0
 70
   128
 71
    47
 72
    98
 73
    93
  0
VERTEX
  5
7D6
  8
0
 62
     9
 10
0.0
 20
0.0
 30
0.0
 70
   128
 71
    99
 72
    98
 73
    49
  0
VERTEX
  5
7D7
  8
0
 62
     9
 10
0.0
 20
0.0
 30
0.0
 70
   128
 71
    47
 72
    93
 73
    50
  0
VERTEX
  5
7D8
  8
0
 62
     9
 10
0.0
 20
0.0
 30
0.0
 70
   128
 71
    93
 72
    74
 73
    51
  0
VERTEX
  5
7D9
  8
0
 62
     9
 10
0.0
 20
0.0
 30
0.0
 70
   128
 71
    76
 72
    51
 73
    74
  0
VERTEX
  5
7DA
  8
0
 62
     9
 10
0.0
 20
0.0
 30
0.0
 70
   128
 71
    93
 72
    51
 73
    50
  0
VERTEX
  5
7DB
  8
0
 62
     9
 10
0.0
 20
0.0
 30
0.0
 70
   128
 71
    51
 72
    76
 73
    38
  0
VERTEX
  5
7DC
  8
0
 62
     9
 10
0.0
 20
0.0
 30
0.0
 70
   128
 71
    93
 72
    98
 73
   100
  0
VERTEX
  5
7DD
  8
0
 62
     9
 10
0.0
 20
0.0
 30
0.0
 70
   128
 71
    59
 72
   100
 73
    62
  0
VERTEX
  5
7DE
  8
0
 62
     9
 10
0.0
 20
0.0
 30
0.0
 70
   128
 71
   100
 72
    97
 73
    62
  0
VERTEX
  5
7DF
  8
0
 62
     9
 10
0.0
 20
0.0
 30
0.0
 70
   128
 71
    96
 72
   102
 73
   101
  0
VERTEX
  5
7E0
  8
0
 62
     9
 10
0.0
 20
0.0
 30
0.0
 70
   128
 71
   103
 72
    67
 73
    97
  0
VERTEX
  5
7E1
  8
0
 62
     9
 10
0.0
 20
0.0
 30
0.0
 70
   128
 71
   101
 72
   102
 73
   104
  0
VERTEX
  5
7E2
  8
0
 62
     9
 10
0.0
 20
0.0
 30
0.0
 70
   128
 71
   103
 72
    96
 73
   101
  0
VERTEX
  5
7E3
  8
0
 62
     9
 10
0.0
 20
0.0
 30
0.0
 70
   128
 71
    97
 72
    96
 73
   103
  0
VERTEX
  5
7E4
  8
0
 62
     9
 10
0.0
 20
0.0
 30
0.0
 70
   128
 71
    62
 72
    97
 73
    65
  0
VERTEX
  5
7E5
  8
0
 62
     9
 10
0.0
 20
0.0
 30
0.0
 70
   128
 71
    96
 72
    97
 73
    95
  0
VERTEX
  5
7E6
  8
0
 62
     9
 10
0.0
 20
0.0
 30
0.0
 70
   128
 71
    96
 72
    94
 73
   102
  0
VERTEX
  5
7E7
  8
0
 62
     9
 10
0.0
 20
0.0
 30
0.0
 70
   128
 71
   100
 72
    59
 73
    63
  0
VERTEX
  5
7E8
  8
0
 62
     9
 10
0.0
 20
0.0
 30
0.0
 70
   128
 71
    98
 72
    99
 73
    95
  0
VERTEX
  5
7E9
  8
0
 62
     9
 10
0.0
 20
0.0
 30
0.0
 70
   128
 71
    95
 72
    99
 73
    94
  0
VERTEX
  5
7EA
  8
0
 62
     9
 10
0.0
 20
0.0
 30
0.0
 70
   128
 71
   100
 72
    95
 73
    97
  0
VERTEX
  5
7EB
  8
0
 62
     9
 10
0.0
 20
0.0
 30
0.0
 70
   128
 71
    93
 72
   100
 73
    63
  0
VERTEX
  5
7EC
  8
0
 62
     9
 10
0.0
 20
0.0
 30
0.0
 70
   128
 71
    93
 72
    70
 73
    74
  0
VERTEX
  5
7ED
  8
0
 62
     9
 10
0.0
 20
0.0
 30
0.0
 70
   128
 71
    47
 72
    49
 73
    98
  0
VERTEX
  5
7EE
  8
0
 62
     9
 10
0.0
 20
0.0
 30
0.0
 70
   128
 71
   100
 72
    98
 73
    95
  0
VERTEX
  5
7EF
  8
0
 62
     9
 10
0.0
 20
0.0
 30
0.0
 70
   128
 71
   103
 72
   101
 73
    79
  0
VERTEX
  5
7F0
  8
0
 62
     9
 10
0.0
 20
0.0
 30
0.0
 70
   128
 71
    80
 72
    79
 73
   104
  0
VERTEX
  5
7F1
  8
0
 62
     9
 10
0.0
 20
0.0
 30
0.0
 70
   128
 71
    67
 72
   103
 73
    79
  0
VERTEX
  5
7F2
  8
0
 62
     9
 10
0.0
 20
0.0
 30
0.0
 70
   128
 71
   101
 72
   104
 73
    79
  0
VERTEX
  5
7F3
  8
0
 62
     9
 10
0.0
 20
0.0
 30
0.0
 70
   128
 71
   107
 72
   106
 73
   105
  0
VERTEX
  5
7F4
  8
0
 62
     9
 10
0.0
 20
0.0
 30
0.0
 70
   128
 71
   107
 72
   105
 73
   108
  0
VERTEX
  5
7F5
  8
0
 62
     9
 10
0.0
 20
0.0
 30
0.0
 70
   128
 71
   106
 72
   109
 73
   105
  0
VERTEX
  5
7F6
  8
0
 62
     9
 10
0.0
 20
0.0
 30
0.0
 70
   128
 71
   110
 72
   107
 73
   108
  0
VERTEX
  5
7F7
  8
0
 62
     9
 10
0.0
 20
0.0
 30
0.0
 70
   128
 71
   110
 72
   108
 73
   111
  0
VERTEX
  5
7F8
  8
0
 62
     9
 10
0.0
 20
0.0
 30
0.0
 70
   128
 71
   111
 72
   113
 73
   112
  0
VERTEX
  5
7F9
  8
0
 62
     9
 10
0.0
 20
0.0
 30
0.0
 70
   128
 71
   112
 72
   110
 73
   111
  0
VERTEX
  5
7FA
  8
0
 62
     9
 10
0.0
 20
0.0
 30
0.0
 70
   128
 71
   113
 72
     1
 73
   112
  0
VERTEX
  5
7FB
  8
0
 62
     9
 10
0.0
 20
0.0
 30
0.0
 70
   128
 71
   113
 72
     3
 73
     1
  0
VERTEX
  5
7FC
  8
0
 62
     9
 10
0.0
 20
0.0
 30
0.0
 70
   128
 71
   116
 72
   115
 73
   114
  0
VERTEX
  5
7FD
  8
0
 62
     9
 10
0.0
 20
0.0
 30
0.0
 70
   128
 71
   115
 72
   118
 73
   117
  0
VERTEX
  5
7FE
  8
0
 62
     9
 10
0.0
 20
0.0
 30
0.0
 70
   128
 71
   115
 72
   117
 73
   114
  0
VERTEX
  5
7FF
  8
0
 62
     9
 10
0.0
 20
0.0
 30
0.0
 70
   128
 71
   119
 72
   117
 73
   118
  0
VERTEX
  5
800
  8
0
 62
     9
 10
0.0
 20
0.0
 30
0.0
 70
   128
 71
   118
 72
   120
 73
   119
  0
VERTEX
  5
801
  8
0
 62
     9
 10
0.0
 20
0.0
 30
0.0
 70
   128
 71
   120
 72
   122
 73
   121
  0
VERTEX
  5
802
  8
0
 62
     9
 10
0.0
 20
0.0
 30
0.0
 70
   128
 71
   114
 72
   123
 73
   116
  0
VERTEX
  5
803
  8
0
 62
     9
 10
0.0
 20
0.0
 30
0.0
 70
   128
 71
   106
 72
   124
 73
   122
  0
VERTEX
  5
804
  8
0
 62
     9
 10
0.0
 20
0.0
 30
0.0
 70
   128
 71
   122
 72
   109
 73
   106
  0
VERTEX
  5
805
  8
0
 62
     9
 10
0.0
 20
0.0
 30
0.0
 70
   128
 71
   120
 72
   121
 73
   119
  0
VERTEX
  5
806
  8
0
 62
     9
 10
0.0
 20
0.0
 30
0.0
 70
   128
 71
   121
 72
   122
 73
   124
  0
VERTEX
  5
807
  8
0
 62
     9
 10
0.0
 20
0.0
 30
0.0
 70
   128
 71
   126
 72
   125
 73
   123
  0
VERTEX
  5
808
  8
0
 62
     9
 10
0.0
 20
0.0
 30
0.0
 70
   128
 71
   116
 72
   123
 73
   125
  0
VERTEX
  5
809
  8
0
 62
     9
 10
0.0
 20
0.0
 30
0.0
 70
   128
 71
   126
 72
   128
 73
   127
  0
VERTEX
  5
80A
  8
0
 62
     9
 10
0.0
 20
0.0
 30
0.0
 70
   128
 71
   127
 72
   125
 73
   126
  0
VERTEX
  5
80B
  8
0
 62
     9
 10
0.0
 20
0.0
 30
0.0
 70
   128
 71
   130
 72
   128
 73
   129
  0
VERTEX
  5
80C
  8
0
 62
     9
 10
0.0
 20
0.0
 30
0.0
 70
   128
 71
   128
 72
   130
 73
   127
  0
VERTEX
  5
80D
  8
0
 62
     9
 10
0.0
 20
0.0
 30
0.0
 70
   128
 71
   132
 72
   131
 73
   129
  0
VERTEX
  5
80E
  8
0
 62
     9
 10
0.0
 20
0.0
 30
0.0
 70
   128
 71
   130
 72
   129
 73
   131
  0
VERTEX
  5
80F
  8
0
 62
     9
 10
0.0
 20
0.0
 30
0.0
 70
   128
 71
   133
 72
   132
 73
    32
  0
VERTEX
  5
810
  8
0
 62
     9
 10
0.0
 20
0.0
 30
0.0
 70
   128
 71
   133
 72
   131
 73
   132
  0
VERTEX
  5
811
  8
0
 62
     9
 10
0.0
 20
0.0
 30
0.0
 70
   128
 71
   136
 72
   135
 73
   134
  0
VERTEX
  5
812
  8
0
 62
     9
 10
0.0
 20
0.0
 30
0.0
 70
   128
 71
   138
 72
   135
 73
   137
  0
VERTEX
  5
813
  8
0
 62
     9
 10
0.0
 20
0.0
 30
0.0
 70
   128
 71
   140
 72
   134
 73
   139
  0
VERTEX
  5
814
  8
0
 62
     9
 10
0.0
 20
0.0
 30
0.0
 70
   128
 71
   134
 72
   140
 73
   136
  0
VERTEX
  5
815
  8
0
 62
     9
 10
0.0
 20
0.0
 30
0.0
 70
   128
 71
   138
 72
   134
 73
   135
  0
VERTEX
  5
816
  8
0
 62
     9
 10
0.0
 20
0.0
 30
0.0
 70
   128
 71
   134
 72
   138
 73
   139
  0
VERTEX
  5
817
  8
0
 62
     9
 10
0.0
 20
0.0
 30
0.0
 70
   128
 71
   143
 72
   142
 73
   141
  0
VERTEX
  5
818
  8
0
 62
     9
 10
0.0
 20
0.0
 30
0.0
 70
   128
 71
    40
 72
   142
 73
    42
  0
VERTEX
  5
819
  8
0
 62
     9
 10
0.0
 20
0.0
 30
0.0
 70
   128
 71
   142
 72
    40
 73
   141
  0
VERTEX
  5
81A
  8
0
 62
     9
 10
0.0
 20
0.0
 30
0.0
 70
   128
 71
   144
 72
    49
 73
    42
  0
VERTEX
  5
81B
  8
0
 62
     9
 10
0.0
 20
0.0
 30
0.0
 70
   128
 71
   141
 72
   145
 73
   143
  0
VERTEX
  5
81C
  8
0
 62
     9
 10
0.0
 20
0.0
 30
0.0
 70
   128
 71
   142
 72
   143
 73
   146
  0
VERTEX
  5
81D
  8
0
 62
     9
 10
0.0
 20
0.0
 30
0.0
 70
   128
 71
   143
 72
   148
 73
   147
  0
VERTEX
  5
81E
  8
0
 62
     9
 10
0.0
 20
0.0
 30
0.0
 70
   128
 71
   137
 72
   148
 73
   138
  0
VERTEX
  5
81F
  8
0
 62
     9
 10
0.0
 20
0.0
 30
0.0
 70
   128
 71
   138
 72
   149
 73
   139
  0
VERTEX
  5
820
  8
0
 62
     9
 10
0.0
 20
0.0
 30
0.0
 70
   128
 71
   147
 72
   148
 73
   137
  0
VERTEX
  5
821
  8
0
 62
     9
 10
0.0
 20
0.0
 30
0.0
 70
   128
 71
   144
 72
   142
 73
   146
  0
VERTEX
  5
822
  8
0
 62
     9
 10
0.0
 20
0.0
 30
0.0
 70
   128
 71
   142
 72
   144
 73
    42
  0
VERTEX
  5
823
  8
0
 62
     9
 10
0.0
 20
0.0
 30
0.0
 70
   128
 71
   145
 72
   149
 73
   148
  0
VERTEX
  5
824
  8
0
 62
     9
 10
0.0
 20
0.0
 30
0.0
 70
   128
 71
   146
 72
   143
 73
   147
  0
VERTEX
  5
825
  8
0
 62
     9
 10
0.0
 20
0.0
 30
0.0
 70
   128
 71
   148
 72
   143
 73
   145
  0
VERTEX
  5
826
  8
0
 62
     9
 10
0.0
 20
0.0
 30
0.0
 70
   128
 71
   138
 72
   148
 73
   149
  0
VERTEX
  5
827
  8
0
 62
     9
 10
0.0
 20
0.0
 30
0.0
 70
   128
 71
   152
 72
   151
 73
   150
  0
VERTEX
  5
828
  8
0
 62
     9
 10
0.0
 20
0.0
 30
0.0
 70
   128
 71
   136
 72
   153
 73
   135
  0
VERTEX
  5
829
  8
0
 62
     9
 10
0.0
 20
0.0
 30
0.0
 70
   128
 71
   155
 72
   153
 73
   154
  0
VERTEX
  5
82A
  8
0
 62
     9
 10
0.0
 20
0.0
 30
0.0
 70
   128
 71
   158
 72
   157
 73
   156
  0
VERTEX
  5
82B
  8
0
 62
     9
 10
0.0
 20
0.0
 30
0.0
 70
   128
 71
   137
 72
   155
 73
   157
  0
VERTEX
  5
82C
  8
0
 62
     9
 10
0.0
 20
0.0
 30
0.0
 70
   128
 71
   161
 72
   160
 73
   159
  0
VERTEX
  5
82D
  8
0
 62
     9
 10
0.0
 20
0.0
 30
0.0
 70
   128
 71
   164
 72
   163
 73
   162
  0
VERTEX
  5
82E
  8
0
 62
     9
 10
0.0
 20
0.0
 30
0.0
 70
   128
 71
   161
 72
   166
 73
   165
  0
VERTEX
  5
82F
  8
0
 62
     9
 10
0.0
 20
0.0
 30
0.0
 70
   128
 71
   168
 72
   162
 73
   167
  0
VERTEX
  5
830
  8
0
 62
     9
 10
0.0
 20
0.0
 30
0.0
 70
   128
 71
   165
 72
   163
 73
   161
  0
VERTEX
  5
831
  8
0
 62
     9
 10
0.0
 20
0.0
 30
0.0
 70
   128
 71
   161
 72
   159
 73
   166
  0
VERTEX
  5
832
  8
0
 62
     9
 10
0.0
 20
0.0
 30
0.0
 70
   128
 71
   162
 72
   165
 73
   167
  0
VERTEX
  5
833
  8
0
 62
     9
 10
0.0
 20
0.0
 30
0.0
 70
   128
 71
   160
 72
   151
 73
   159
  0
VERTEX
  5
834
  8
0
 62
     9
 10
0.0
 20
0.0
 30
0.0
 70
   128
 71
   152
 72
   150
 73
   158
  0
VERTEX
  5
835
  8
0
 62
     9
 10
0.0
 20
0.0
 30
0.0
 70
   128
 71
   151
 72
   160
 73
   150
  0
VERTEX
  5
836
  8
0
 62
     9
 10
0.0
 20
0.0
 30
0.0
 70
   128
 71
   156
 72
   152
 73
   158
  0
VERTEX
  5
837
  8
0
 62
     9
 10
0.0
 20
0.0
 30
0.0
 70
   128
 71
   137
 72
   135
 73
   155
  0
VERTEX
  5
838
  8
0
 62
     9
 10
0.0
 20
0.0
 30
0.0
 70
   128
 71
   155
 72
   156
 73
   157
  0
VERTEX
  5
839
  8
0
 62
     9
 10
0.0
 20
0.0
 30
0.0
 70
   128
 71
   155
 72
   135
 73
   153
  0
VERTEX
  5
83A
  8
0
 62
     9
 10
0.0
 20
0.0
 30
0.0
 70
   128
 71
   155
 72
   154
 73
   156
  0
VERTEX
  5
83B
  8
0
 62
     9
 10
0.0
 20
0.0
 30
0.0
 70
   128
 71
   169
 72
   156
 73
   154
  0
VERTEX
  5
83C
  8
0
 62
     9
 10
0.0
 20
0.0
 30
0.0
 70
   128
 71
   169
 72
   152
 73
   156
  0
VERTEX
  5
83D
  8
0
 62
     9
 10
0.0
 20
0.0
 30
0.0
 70
   128
 71
   170
 72
   152
 73
   169
  0
VERTEX
  5
83E
  8
0
 62
     9
 10
0.0
 20
0.0
 30
0.0
 70
   128
 71
   171
 72
   151
 73
   170
  0
VERTEX
  5
83F
  8
0
 62
     9
 10
0.0
 20
0.0
 30
0.0
 70
   128
 71
   151
 72
   152
 73
   170
  0
VERTEX
  5
840
  8
0
 62
     9
 10
0.0
 20
0.0
 30
0.0
 70
   128
 71
   172
 72
   159
 73
   171
  0
VERTEX
  5
841
  8
0
 62
     9
 10
0.0
 20
0.0
 30
0.0
 70
   128
 71
   159
 72
   151
 73
   171
  0
VERTEX
  5
842
  8
0
 62
     9
 10
0.0
 20
0.0
 30
0.0
 70
   128
 71
   173
 72
   166
 73
   172
  0
VERTEX
  5
843
  8
0
 62
     9
 10
0.0
 20
0.0
 30
0.0
 70
   128
 71
   166
 72
   159
 73
   172
  0
VERTEX
  5
844
  8
0
 62
     9
 10
0.0
 20
0.0
 30
0.0
 70
   128
 71
   167
 72
   165
 73
   173
  0
VERTEX
  5
845
  8
0
 62
     9
 10
0.0
 20
0.0
 30
0.0
 70
   128
 71
   166
 72
   173
 73
   165
  0
VERTEX
  5
846
  8
0
 62
     9
 10
0.0
 20
0.0
 30
0.0
 70
   128
 71
   163
 72
   165
 73
   162
  0
VERTEX
  5
847
  8
0
 62
     9
 10
0.0
 20
0.0
 30
0.0
 70
   128
 71
   175
 72
   174
 73
    80
  0
VERTEX
  5
848
  8
0
 62
     9
 10
0.0
 20
0.0
 30
0.0
 70
   128
 71
   164
 72
   162
 73
   175
  0
VERTEX
  5
849
  8
0
 62
     9
 10
0.0
 20
0.0
 30
0.0
 70
   128
 71
   168
 72
   174
 73
   162
  0
VERTEX
  5
84A
  8
0
 62
     9
 10
0.0
 20
0.0
 30
0.0
 70
   128
 71
   174
 72
   168
 73
   176
  0
VERTEX
  5
84B
  8
0
 62
     9
 10
0.0
 20
0.0
 30
0.0
 70
   128
 71
    81
 72
   174
 73
   176
  0
VERTEX
  5
84C
  8
0
 62
     9
 10
0.0
 20
0.0
 30
0.0
 70
   128
 71
    81
 72
   176
 73
    82
  0
VERTEX
  5
84D
  8
0
 62
     9
 10
0.0
 20
0.0
 30
0.0
 70
   128
 71
   174
 72
    81
 73
    80
  0
VERTEX
  5
84E
  8
0
 62
     9
 10
0.0
 20
0.0
 30
0.0
 70
   128
 71
   162
 72
   174
 73
   175
  0
VERTEX
  5
84F
  8
0
 62
     9
 10
0.0
 20
0.0
 30
0.0
 70
   128
 71
    32
 72
    82
 73
   176
  0
VERTEX
  5
850
  8
0
 62
     9
 10
0.0
 20
0.0
 30
0.0
 70
   128
 71
   131
 72
   133
 73
   168
  0
VERTEX
  5
851
  8
0
 62
     9
 10
0.0
 20
0.0
 30
0.0
 70
   128
 71
   127
 72
   172
 73
   125
  0
VERTEX
  5
852
  8
0
 62
     9
 10
0.0
 20
0.0
 30
0.0
 70
   128
 71
   131
 72
   167
 73
   130
  0
VERTEX
  5
853
  8
0
 62
     9
 10
0.0
 20
0.0
 30
0.0
 70
   128
 71
   169
 72
   118
 73
   115
  0
VERTEX
  5
854
  8
0
 62
     9
 10
0.0
 20
0.0
 30
0.0
 70
   128
 71
   170
 72
   116
 73
   171
  0
VERTEX
  5
855
  8
0
 62
     9
 10
0.0
 20
0.0
 30
0.0
 70
   128
 71
   154
 72
   153
 73
   120
  0
VERTEX
  5
856
  8
0
 62
     9
 10
0.0
 20
0.0
 30
0.0
 70
   128
 71
   120
 72
   118
 73
   154
  0
VERTEX
  5
857
  8
0
 62
     9
 10
0.0
 20
0.0
 30
0.0
 70
   128
 71
   122
 72
   153
 73
   136
  0
VERTEX
  5
858
  8
0
 62
     9
 10
0.0
 20
0.0
 30
0.0
 70
   128
 71
   153
 72
   122
 73
   120
  0
VERTEX
  5
859
  8
0
 62
     9
 10
0.0
 20
0.0
 30
0.0
 70
   128
 71
   122
 72
   136
 73
   109
  0
VERTEX
  5
85A
  8
0
 62
     9
 10
0.0
 20
0.0
 30
0.0
 70
   128
 71
   169
 72
   154
 73
   118
  0
VERTEX
  5
85B
  8
0
 62
     9
 10
0.0
 20
0.0
 30
0.0
 70
   128
 71
   133
 72
    32
 73
   176
  0
VERTEX
  5
85C
  8
0
 62
     9
 10
0.0
 20
0.0
 30
0.0
 70
   128
 71
   169
 72
   115
 73
   170
  0
VERTEX
  5
85D
  8
0
 62
     9
 10
0.0
 20
0.0
 30
0.0
 70
   128
 71
   171
 72
   116
 73
   125
  0
VERTEX
  5
85E
  8
0
 62
     9
 10
0.0
 20
0.0
 30
0.0
 70
   128
 71
   170
 72
   115
 73
   116
  0
VERTEX
  5
85F
  8
0
 62
     9
 10
0.0
 20
0.0
 30
0.0
 70
   128
 71
   173
 72
   172
 73
   127
  0
VERTEX
  5
860
  8
0
 62
     9
 10
0.0
 20
0.0
 30
0.0
 70
   128
 71
   172
 72
   171
 73
   125
  0
VERTEX
  5
861
  8
0
 62
     9
 10
0.0
 20
0.0
 30
0.0
 70
   128
 71
   173
 72
   130
 73
   167
  0
VERTEX
  5
862
  8
0
 62
     9
 10
0.0
 20
0.0
 30
0.0
 70
   128
 71
   130
 72
   173
 73
   127
  0
VERTEX
  5
863
  8
0
 62
     9
 10
0.0
 20
0.0
 30
0.0
 70
   128
 71
   176
 72
   168
 73
   133
  0
VERTEX
  5
864
  8
0
 62
     9
 10
0.0
 20
0.0
 30
0.0
 70
   128
 71
   168
 72
   167
 73
   131
  0
VERTEX
  5
865
  8
0
 62
     9
 10
0.0
 20
0.0
 30
0.0
 70
   128
 71
   110
 72
   112
 73
   107
  0
VERTEX
  5
866
  8
0
 62
     9
 10
0.0
 20
0.0
 30
0.0
 70
   128
 71
   123
 72
    23
 73
   126
  0
VERTEX
  5
867
  8
0
 62
     9
 10
0.0
 20
0.0
 30
0.0
 70
   128
 71
   112
 72
     1
 73
   107
  0
VERTEX
  5
868
  8
0
 62
     9
 10
0.0
 20
0.0
 30
0.0
 70
   128
 71
   106
 72
   107
 73
     1
  0
VERTEX
  5
869
  8
0
 62
     9
 10
0.0
 20
0.0
 30
0.0
 70
   128
 71
     9
 72
     7
 73
   106
  0
VERTEX
  5
86A
  8
0
 62
     9
 10
0.0
 20
0.0
 30
0.0
 70
   128
 71
     9
 72
   106
 73
     1
  0
VERTEX
  5
86B
  8
0
 62
     9
 10
0.0
 20
0.0
 30
0.0
 70
   128
 71
     6
 72
    10
 73
   106
  0
VERTEX
  5
86C
  8
0
 62
     9
 10
0.0
 20
0.0
 30
0.0
 70
   128
 71
     6
 72
   106
 73
     7
  0
VERTEX
  5
86D
  8
0
 62
     9
 10
0.0
 20
0.0
 30
0.0
 70
   128
 71
    19
 72
   119
 73
   121
  0
VERTEX
  5
86E
  8
0
 62
     9
 10
0.0
 20
0.0
 30
0.0
 70
   128
 71
    20
 72
   124
 73
    10
  0
VERTEX
  5
86F
  8
0
 62
     9
 10
0.0
 20
0.0
 30
0.0
 70
   128
 71
    14
 72
   114
 73
    13
  0
VERTEX
  5
870
  8
0
 62
     9
 10
0.0
 20
0.0
 30
0.0
 70
   128
 71
   117
 72
   119
 73
    17
  0
VERTEX
  5
871
  8
0
 62
     9
 10
0.0
 20
0.0
 30
0.0
 70
   128
 71
    24
 72
   128
 73
   126
  0
VERTEX
  5
872
  8
0
 62
     9
 10
0.0
 20
0.0
 30
0.0
 70
   128
 71
   132
 72
    29
 73
    32
  0
VERTEX
  5
873
  8
0
 62
     9
 10
0.0
 20
0.0
 30
0.0
 70
   128
 71
    29
 72
   129
 73
    26
  0
VERTEX
  5
874
  8
0
 62
     9
 10
0.0
 20
0.0
 30
0.0
 70
   128
 71
   129
 72
    29
 73
   132
  0
VERTEX
  5
875
  8
0
 62
     9
 10
0.0
 20
0.0
 30
0.0
 70
   128
 71
    32
 72
    29
 73
    30
  0
VERTEX
  5
876
  8
0
 62
     9
 10
0.0
 20
0.0
 30
0.0
 70
   128
 71
    26
 72
   129
 73
   128
  0
VERTEX
  5
877
  8
0
 62
     9
 10
0.0
 20
0.0
 30
0.0
 70
   128
 71
   128
 72
    24
 73
    26
  0
VERTEX
  5
878
  8
0
 62
     9
 10
0.0
 20
0.0
 30
0.0
 70
   128
 71
   117
 72
    17
 73
    13
  0
VERTEX
  5
879
  8
0
 62
     9
 10
0.0
 20
0.0
 30
0.0
 70
   128
 71
   126
 72
    23
 73
    24
  0
VERTEX
  5
87A
  8
0
 62
     9
 10
0.0
 20
0.0
 30
0.0
 70
   128
 71
   123
 72
   114
 73
    14
  0
VERTEX
  5
87B
  8
0
 62
     9
 10
0.0
 20
0.0
 30
0.0
 70
   128
 71
    14
 72
    23
 73
   123
  0
VERTEX
  5
87C
  8
0
 62
     9
 10
0.0
 20
0.0
 30
0.0
 70
   128
 71
    13
 72
   114
 73
   117
  0
VERTEX
  5
87D
  8
0
 62
     9
 10
0.0
 20
0.0
 30
0.0
 70
   128
 71
    19
 72
    17
 73
   119
  0
VERTEX
  5
87E
  8
0
 62
     9
 10
0.0
 20
0.0
 30
0.0
 70
   128
 71
    20
 72
    19
 73
   121
  0
VERTEX
  5
87F
  8
0
 62
     9
 10
0.0
 20
0.0
 30
0.0
 70
   128
 71
   124
 72
   106
 73
    10
  0
VERTEX
  5
880
  8
0
 62
     9
 10
0.0
 20
0.0
 30
0.0
 70
   128
 71
   121
 72
   124
 73
    20
  0
VERTEX
  5
881
  8
0
 62
     9
 10
0.0
 20
0.0
 30
0.0
 70
   128
 71
    92
 72
     3
 73
   113
  0
VERTEX
  5
882
  8
0
 62
     9
 10
0.0
 20
0.0
 30
0.0
 70
   128
 71
   178
 72
   177
 73
   111
  0
VERTEX
  5
883
  8
0
 62
     9
 10
0.0
 20
0.0
 30
0.0
 70
   128
 71
   136
 72
   180
 73
   179
  0
VERTEX
  5
884
  8
0
 62
     9
 10
0.0
 20
0.0
 30
0.0
 70
   128
 71
   181
 72
   108
 73
   105
  0
VERTEX
  5
885
  8
0
 62
     9
 10
0.0
 20
0.0
 30
0.0
 70
   128
 71
   105
 72
   109
 73
   136
  0
VERTEX
  5
886
  8
0
 62
     9
 10
0.0
 20
0.0
 30
0.0
 70
   128
 71
    87
 72
   141
 73
    40
  0
VERTEX
  5
887
  8
0
 62
     9
 10
0.0
 20
0.0
 30
0.0
 70
   128
 71
   139
 72
   149
 73
   182
  0
VERTEX
  5
888
  8
0
 62
     9
 10
0.0
 20
0.0
 30
0.0
 70
   128
 71
   139
 72
   180
 73
   140
  0
VERTEX
  5
889
  8
0
 62
     9
 10
0.0
 20
0.0
 30
0.0
 70
   128
 71
   145
 72
   183
 73
   149
  0
VERTEX
  5
88A
  8
0
 62
     9
 10
0.0
 20
0.0
 30
0.0
 70
   128
 71
   184
 72
   145
 73
   141
  0
VERTEX
  5
88B
  8
0
 62
     9
 10
0.0
 20
0.0
 30
0.0
 70
   128
 71
   145
 72
   184
 73
   183
  0
VERTEX
  5
88C
  8
0
 62
     9
 10
0.0
 20
0.0
 30
0.0
 70
   128
 71
   184
 72
   141
 73
    87
  0
VERTEX
  5
88D
  8
0
 62
     9
 10
0.0
 20
0.0
 30
0.0
 70
   128
 71
   136
 72
   179
 73
   105
  0
VERTEX
  5
88E
  8
0
 62
     9
 10
0.0
 20
0.0
 30
0.0
 70
   128
 71
   178
 72
   108
 73
   181
  0
VERTEX
  5
88F
  8
0
 62
     9
 10
0.0
 20
0.0
 30
0.0
 70
   128
 71
   139
 72
   182
 73
   180
  0
VERTEX
  5
890
  8
0
 62
     9
 10
0.0
 20
0.0
 30
0.0
 70
   128
 71
   149
 72
   183
 73
   182
  0
VERTEX
  5
891
  8
0
 62
     9
 10
0.0
 20
0.0
 30
0.0
 70
   128
 71
   140
 72
   180
 73
   136
  0
VERTEX
  5
892
  8
0
 62
     9
 10
0.0
 20
0.0
 30
0.0
 70
   128
 71
   105
 72
   179
 73
   181
  0
VERTEX
  5
893
  8
0
 62
     9
 10
0.0
 20
0.0
 30
0.0
 70
   128
 71
   113
 72
   111
 73
   177
  0
VERTEX
  5
894
  8
0
 62
     9
 10
0.0
 20
0.0
 30
0.0
 70
   128
 71
   111
 72
   108
 73
   178
  0
VERTEX
  5
895
  8
0
 62
     9
 10
0.0
 20
0.0
 30
0.0
 70
   128
 71
   177
 72
    92
 73
   113
  0
VERTEX
  5
896
  8
0
 62
     9
 10
0.0
 20
0.0
 30
0.0
 70
   128
 71
   160
 72
   186
 73
   185
  0
VERTEX
  5
897
  8
0
 62
     9
 10
0.0
 20
0.0
 30
0.0
 70
   128
 71
   185
 72
   147
 73
   158
  0
VERTEX
  5
898
  8
0
 62
     9
 10
0.0
 20
0.0
 30
0.0
 70
   128
 71
   185
 72
   158
 73
   150
  0
VERTEX
  5
899
  8
0
 62
     9
 10
0.0
 20
0.0
 30
0.0
 70
   128
 71
   144
 72
   187
 73
    49
  0
VERTEX
  5
89A
  8
0
 62
     9
 10
0.0
 20
0.0
 30
0.0
 70
   128
 71
   185
 72
   150
 73
   160
  0
VERTEX
  5
89B
  8
0
 62
     9
 10
0.0
 20
0.0
 30
0.0
 70
   128
 71
   158
 72
   147
 73
   157
  0
VERTEX
  5
89C
  8
0
 62
     9
 10
0.0
 20
0.0
 30
0.0
 70
   128
 71
   146
 72
   185
 73
   144
  0
VERTEX
  5
89D
  8
0
 62
     9
 10
0.0
 20
0.0
 30
0.0
 70
   128
 71
   147
 72
   137
 73
   157
  0
VERTEX
  5
89E
  8
0
 62
     9
 10
0.0
 20
0.0
 30
0.0
 70
   128
 71
   163
 72
   188
 73
   161
  0
VERTEX
  5
89F
  8
0
 62
     9
 10
0.0
 20
0.0
 30
0.0
 70
   128
 71
   186
 72
   161
 73
   188
  0
VERTEX
  5
8A0
  8
0
 62
     9
 10
0.0
 20
0.0
 30
0.0
 70
   128
 71
   164
 72
   189
 73
   188
  0
VERTEX
  5
8A1
  8
0
 62
     9
 10
0.0
 20
0.0
 30
0.0
 70
   128
 71
   161
 72
   186
 73
   160
  0
VERTEX
  5
8A2
  8
0
 62
     9
 10
0.0
 20
0.0
 30
0.0
 70
   128
 71
   104
 72
   102
 73
   190
  0
VERTEX
  5
8A3
  8
0
 62
     9
 10
0.0
 20
0.0
 30
0.0
 70
   128
 71
   188
 72
   163
 73
   164
  0
VERTEX
  5
8A4
  8
0
 62
     9
 10
0.0
 20
0.0
 30
0.0
 70
   128
 71
   190
 72
   102
 73
   191
  0
VERTEX
  5
8A5
  8
0
 62
     9
 10
0.0
 20
0.0
 30
0.0
 70
   128
 71
   102
 72
    94
 73
   191
  0
VERTEX
  5
8A6
  8
0
 62
     9
 10
0.0
 20
0.0
 30
0.0
 70
   128
 71
   192
 72
   191
 73
    94
  0
VERTEX
  5
8A7
  8
0
 62
     9
 10
0.0
 20
0.0
 30
0.0
 70
   128
 71
    94
 72
    99
 73
   192
  0
VERTEX
  5
8A8
  8
0
 62
     9
 10
0.0
 20
0.0
 30
0.0
 70
   128
 71
   188
 72
   191
 73
   192
  0
VERTEX
  5
8A9
  8
0
 62
     9
 10
0.0
 20
0.0
 30
0.0
 70
   128
 71
   192
 72
   187
 73
   186
  0
VERTEX
  5
8AA
  8
0
 62
     9
 10
0.0
 20
0.0
 30
0.0
 70
   128
 71
   186
 72
   187
 73
   185
  0
VERTEX
  5
8AB
  8
0
 62
     9
 10
0.0
 20
0.0
 30
0.0
 70
   128
 71
   146
 72
   147
 73
   185
  0
VERTEX
  5
8AC
  8
0
 62
     9
 10
0.0
 20
0.0
 30
0.0
 70
   128
 71
   189
 72
   191
 73
   188
  0
VERTEX
  5
8AD
  8
0
 62
     9
 10
0.0
 20
0.0
 30
0.0
 70
   128
 71
   189
 72
   190
 73
   191
  0
VERTEX
  5
8AE
  8
0
 62
     9
 10
0.0
 20
0.0
 30
0.0
 70
   128
 71
    49
 72
   187
 73
    99
  0
VERTEX
  5
8AF
  8
0
 62
     9
 10
0.0
 20
0.0
 30
0.0
 70
   128
 71
   188
 72
   192
 73
   186
  0
VERTEX
  5
8B0
  8
0
 62
     9
 10
0.0
 20
0.0
 30
0.0
 70
   128
 71
   187
 72
   192
 73
    99
  0
VERTEX
  5
8B1
  8
0
 62
     9
 10
0.0
 20
0.0
 30
0.0
 70
   128
 71
   187
 72
   144
 73
   185
  0
VERTEX
  5
8B2
  8
0
 62
     9
 10
0.0
 20
0.0
 30
0.0
 70
   128
 71
   190
 72
   175
 73
   104
  0
VERTEX
  5
8B3
  8
0
 62
     9
 10
0.0
 20
0.0
 30
0.0
 70
   128
 71
   190
 72
   189
 73
   175
  0
VERTEX
  5
8B4
  8
0
 62
     9
 10
0.0
 20
0.0
 30
0.0
 70
   128
 71
   175
 72
   189
 73
   164
  0
VERTEX
  5
8B5
  8
0
 62
     9
 10
0.0
 20
0.0
 30
0.0
 70
   128
 71
   104
 72
   175
 73
    80
  0
SEQEND
  5
8B6
  8
0
 62
     9
  0
ENDBLK
  5
8B9
  8
0
  0
BLOCK
  8
0
  2
44
 70
     0
 10
0.0
 20
0.0
 30
0.0
  3
44
  1

  0
POLYLINE
  5
8BB
  8
0
 62
     9
 66
     1
 10
0.0
 20
0.0
 30
0.0
 70
    64
 71
    60
 72
   116
  0
VERTEX
  5
8BC
  8
0
 10
10.60403347015381
 20
25.5002326965332
 30
-3.5
 70
   192
  0
VERTEX
  5
8BD
  8
0
 10
10.5815372467041
 20
25.39478874206543
 30
2.5
 70
   192
  0
VERTEX
  5
8BE
  8
0
 10
15.65276432037354
 20
22.81860733032227
 30
-3.5
 70
   192
  0
VERTEX
  5
8BF
  8
0
 10
5.074244976043701
 20
27.08258438110352
 30
-3.5
 70
   192
  0
VERTEX
  5
8C0
  8
0
 10
5.087427139282227
 20
26.9723072052002
 30
2.5
 70
   192
  0
VERTEX
  5
8C1
  8
0
 10
15.60980224609375
 20
22.72399139404297
 30
2.5
 70
   192
  0
VERTEX
  5
8C2
  8
0
 10
20.06480026245117
 20
19.12375259399414
 30
-3.5
 70
   192
  0
VERTEX
  5
8C3
  8
0
 10
23.62844085693359
 20
14.57037353515625
 30
-3.5
 70
   192
  0
VERTEX
  5
8C4
  8
0
 10
20.00885963439941
 20
19.03464317321777
 30
2.5
 70
   192
  0
VERTEX
  5
8C5
  8
0
 10
23.55062484741211
 20
14.49739456176758
 30
2.5
 70
   192
  0
VERTEX
  5
8C6
  8
0
 10
26.14538764953613
 20
9.414392471313477
 30
-3.5
 70
   192
  0
VERTEX
  5
8C7
  8
0
 10
27.53380012512207
 20
3.862874984741211
 30
-3.5
 70
   192
  0
VERTEX
  5
8C8
  8
0
 10
26.04984092712402
 20
9.370011329650879
 30
2.5
 70
   192
  0
VERTEX
  5
8C9
  8
0
 10
27.74054336547852
 20
-1.910112380981445
 30
-3.5
 70
   192
  0
VERTEX
  5
8CA
  8
0
 10
27.43164825439453
 20
3.843571662902832
 30
2.5
 70
   192
  0
VERTEX
  5
8CB
  8
0
 10
27.63606643676758
 20
-1.902837991714478
 30
2.5
 70
   192
  0
VERTEX
  5
8CC
  8
0
 10
-0.6574838757514954
 20
27.37726020812988
 30
2.5
 70
   192
  0
VERTEX
  5
8CD
  8
0
 10
-6.331508159637451
 20
26.57955551147461
 30
2.5
 70
   192
  0
VERTEX
  5
8CE
  8
0
 10
-0.6933172345161438
 20
27.47918701171875
 30
-3.5
 70
   192
  0
VERTEX
  5
8CF
  8
0
 10
-6.374666213989258
 20
26.67521286010742
 30
-3.5
 70
   192
  0
VERTEX
  5
8D0
  8
0
 10
-11.68269157409668
 20
24.63091468811035
 30
2.5
 70
   192
  0
VERTEX
  5
8D1
  8
0
 10
-11.74499034881592
 20
24.71956443786621
 30
-3.5
 70
   192
  0
VERTEX
  5
8D2
  8
0
 10
-16.54560470581055
 20
21.59474754333496
 30
2.5
 70
   192
  0
VERTEX
  5
8D3
  8
0
 10
-20.69003105163574
 20
17.59445190429688
 30
2.5
 70
   192
  0
VERTEX
  5
8D4
  8
0
 10
-16.6314868927002
 20
21.66380500793457
 30
-3.5
 70
   192
  0
VERTEX
  5
8D5
  8
0
 10
-20.78367042541504
 20
17.64585876464844
 30
-3.5
 70
   192
  0
VERTEX
  5
8D6
  8
0
 10
-23.88500213623047
 20
12.85514354705811
 30
2.5
 70
   192
  0
VERTEX
  5
8D7
  8
0
 10
-23.98151206970215
 20
12.89620685577393
 30
-3.5
 70
   192
  0
VERTEX
  5
8D8
  8
0
 10
-26.02119064331055
 20
7.569806575775146
 30
2.5
 70
   192
  0
VERTEX
  5
8D9
  8
0
 10
-27.02214431762695
 20
1.902837991714478
 30
2.5
 70
   192
  0
VERTEX
  5
8DA
  8
0
 10
-26.12401008605957
 20
7.594394207000732
 30
-3.5
 70
   192
  0
VERTEX
  5
8DB
  8
0
 10
-27.12662124633789
 20
1.910112380981445
 30
-3.5
 70
   192
  0
VERTEX
  5
8DC
  8
0
 10
-22.85525321960449
 20
-14.48267459869385
 30
2.5
 70
   192
  0
VERTEX
  5
8DD
  8
0
 10
-25.43833541870117
 20
-9.382000923156738
 30
2.5
 70
   192
  0
VERTEX
  5
8DE
  8
0
 10
-26.82161521911621
 20
-3.824522018432617
 30
2.5
 70
   192
  0
VERTEX
  5
8DF
  8
0
 10
-19.37965202331543
 20
-19.03667449951172
 30
2.5
 70
   192
  0
VERTEX
  5
8E0
  8
0
 10
-14.99730396270752
 20
-22.72350120544434
 30
2.5
 70
   192
  0
VERTEX
  5
8E1
  8
0
 10
-9.94254207611084
 20
-25.40662574768066
 30
2.5
 70
   192
  0
VERTEX
  5
8E2
  8
0
 10
-4.436570167541504
 20
-26.98135375976562
 30
2.5
 70
   192
  0
VERTEX
  5
8E3
  8
0
 10
1.273846745491028
 20
-27.37746047973633
 30
2.5
 70
   192
  0
VERTEX
  5
8E4
  8
0
 10
26.64290618896484
 20
-7.536257266998291
 30
2.5
 70
   192
  0
VERTEX
  5
8E5
  8
0
 10
6.943283081054688
 20
-26.57696342468262
 30
2.5
 70
   192
  0
VERTEX
  5
8E6
  8
0
 10
12.32240676879883
 20
-24.61790466308594
 30
2.5
 70
   192
  0
VERTEX
  5
8E7
  8
0
 10
24.4917163848877
 20
-12.84879302978516
 30
2.5
 70
   192
  0
VERTEX
  5
8E8
  8
0
 10
17.17204856872559
 20
-21.57837677001953
 30
2.5
 70
   192
  0
VERTEX
  5
8E9
  8
0
 10
21.28474617004395
 20
-17.5872631072998
 30
2.5
 70
   192
  0
VERTEX
  5
8EA
  8
0
 10
26.7379322052002
 20
-7.594394207000732
 30
-3.5
 70
   192
  0
VERTEX
  5
8EB
  8
0
 10
21.3975944519043
 20
-17.64585876464844
 30
-3.5
 70
   192
  0
VERTEX
  5
8EC
  8
0
 10
24.59543418884277
 20
-12.89620685577393
 30
-3.5
 70
   192
  0
VERTEX
  5
8ED
  8
0
 10
6.988589286804199
 20
-26.67521286010742
 30
-3.5
 70
   192
  0
VERTEX
  5
8EE
  8
0
 10
12.35891246795654
 20
-24.71956443786621
 30
-3.5
 70
   192
  0
VERTEX
  5
8EF
  8
0
 10
17.24540901184082
 20
-21.66380500793457
 30
-3.5
 70
   192
  0
VERTEX
  5
8F0
  8
0
 10
-9.990110397338867
 20
-25.5002326965332
 30
-3.5
 70
   192
  0
VERTEX
  5
8F1
  8
0
 10
-4.460322380065918
 20
-27.08258438110352
 30
-3.5
 70
   192
  0
VERTEX
  5
8F2
  8
0
 10
1.307240009307861
 20
-27.47918701171875
 30
-3.5
 70
   192
  0
VERTEX
  5
8F3
  8
0
 10
-23.01451873779297
 20
-14.57037353515625
 30
-3.5
 70
   192
  0
VERTEX
  5
8F4
  8
0
 10
-19.45087623596191
 20
-19.12375259399414
 30
-3.5
 70
   192
  0
VERTEX
  5
8F5
  8
0
 10
-15.03884124755859
 20
-22.81860733032227
 30
-3.5
 70
   192
  0
VERTEX
  5
8F6
  8
0
 10
-25.53146362304688
 20
-9.414392471313477
 30
-3.5
 70
   192
  0
VERTEX
  5
8F7
  8
0
 10
-26.91987800598145
 20
-3.862874984741211
 30
-3.5
 70
   192
  0
VERTEX
  5
8F8
  8
0
 62
     9
 10
0.0
 20
0.0
 30
0.0
 70
   128
 71
     3
 72
     2
 73
     1
  0
VERTEX
  5
8F9
  8
0
 62
     9
 10
0.0
 20
0.0
 30
0.0
 70
   128
 71
     5
 72
     4
 73
     1
  0
VERTEX
  5
8FA
  8
0
 62
     9
 10
0.0
 20
0.0
 30
0.0
 70
   128
 71
     3
 72
     6
 73
     2
  0
VERTEX
  5
8FB
  8
0
 62
     9
 10
0.0
 20
0.0
 30
0.0
 70
   128
 71
     5
 72
     1
 73
     2
  0
VERTEX
  5
8FC
  8
0
 62
     9
 10
0.0
 20
0.0
 30
0.0
 70
   128
 71
     7
 72
     6
 73
     3
  0
VERTEX
  5
8FD
  8
0
 62
     9
 10
0.0
 20
0.0
 30
0.0
 70
   128
 71
     9
 72
     7
 73
     8
  0
VERTEX
  5
8FE
  8
0
 62
     9
 10
0.0
 20
0.0
 30
0.0
 70
   128
 71
     9
 72
     6
 73
     7
  0
VERTEX
  5
8FF
  8
0
 62
     9
 10
0.0
 20
0.0
 30
0.0
 70
   128
 71
    11
 72
    10
 73
     8
  0
VERTEX
  5
900
  8
0
 62
     9
 10
0.0
 20
0.0
 30
0.0
 70
   128
 71
    10
 72
     9
 73
     8
  0
VERTEX
  5
901
  8
0
 62
     9
 10
0.0
 20
0.0
 30
0.0
 70
   128
 71
    13
 72
    11
 73
    12
  0
VERTEX
  5
902
  8
0
 62
     9
 10
0.0
 20
0.0
 30
0.0
 70
   128
 71
    11
 72
    13
 73
    10
  0
VERTEX
  5
903
  8
0
 62
     9
 10
0.0
 20
0.0
 30
0.0
 70
   128
 71
    15
 72
    12
 73
    14
  0
VERTEX
  5
904
  8
0
 62
     9
 10
0.0
 20
0.0
 30
0.0
 70
   128
 71
    12
 72
    15
 73
    13
  0
VERTEX
  5
905
  8
0
 62
     9
 10
0.0
 20
0.0
 30
0.0
 70
   128
 71
    14
 72
    16
 73
    15
  0
VERTEX
  5
906
  8
0
 62
     9
 10
0.0
 20
0.0
 30
0.0
 70
   128
 71
     5
 72
    17
 73
     4
  0
VERTEX
  5
907
  8
0
 62
     9
 10
0.0
 20
0.0
 30
0.0
 70
   128
 71
    19
 72
    17
 73
    18
  0
VERTEX
  5
908
  8
0
 62
     9
 10
0.0
 20
0.0
 30
0.0
 70
   128
 71
    17
 72
    19
 73
     4
  0
VERTEX
  5
909
  8
0
 62
     9
 10
0.0
 20
0.0
 30
0.0
 70
   128
 71
    18
 72
    21
 73
    20
  0
VERTEX
  5
90A
  8
0
 62
     9
 10
0.0
 20
0.0
 30
0.0
 70
   128
 71
    20
 72
    19
 73
    18
  0
VERTEX
  5
90B
  8
0
 62
     9
 10
0.0
 20
0.0
 30
0.0
 70
   128
 71
    23
 72
    22
 73
    21
  0
VERTEX
  5
90C
  8
0
 62
     9
 10
0.0
 20
0.0
 30
0.0
 70
   128
 71
    20
 72
    21
 73
    22
  0
VERTEX
  5
90D
  8
0
 62
     9
 10
0.0
 20
0.0
 30
0.0
 70
   128
 71
    25
 72
    23
 73
    24
  0
VERTEX
  5
90E
  8
0
 62
     9
 10
0.0
 20
0.0
 30
0.0
 70
   128
 71
    23
 72
    25
 73
    22
  0
VERTEX
  5
90F
  8
0
 62
     9
 10
0.0
 20
0.0
 30
0.0
 70
   128
 71
    24
 72
    27
 73
    26
  0
VERTEX
  5
910
  8
0
 62
     9
 10
0.0
 20
0.0
 30
0.0
 70
   128
 71
    26
 72
    25
 73
    24
  0
VERTEX
  5
911
  8
0
 62
     9
 10
0.0
 20
0.0
 30
0.0
 70
   128
 71
    29
 72
    28
 73
    27
  0
VERTEX
  5
912
  8
0
 62
     9
 10
0.0
 20
0.0
 30
0.0
 70
   128
 71
    26
 72
    27
 73
    28
  0
VERTEX
  5
913
  8
0
 62
     9
 10
0.0
 20
0.0
 30
0.0
 70
   128
 71
    31
 72
    29
 73
    30
  0
VERTEX
  5
914
  8
0
 62
     9
 10
0.0
 20
0.0
 30
0.0
 70
   128
 71
    29
 72
    31
 73
    28
  0
VERTEX
  5
915
  8
0
 62
     9
 10
0.0
 20
0.0
 30
0.0
 70
   128
 71
    32
 72
    31
 73
    30
  0
VERTEX
  5
916
  8
0
 62
     9
 10
0.0
 20
0.0
 30
0.0
 70
   128
 71
    33
 72
     2
 73
     6
  0
VERTEX
  5
917
  8
0
 62
     9
 10
0.0
 20
0.0
 30
0.0
 70
   128
 71
    29
 72
    18
 73
    17
  0
VERTEX
  5
918
  8
0
 62
     9
 10
0.0
 20
0.0
 30
0.0
 70
   128
 71
    17
 72
    30
 73
    29
  0
VERTEX
  5
919
  8
0
 62
     9
 10
0.0
 20
0.0
 30
0.0
 70
   128
 71
    35
 72
     5
 73
    34
  0
VERTEX
  5
91A
  8
0
 62
     9
 10
0.0
 20
0.0
 30
0.0
 70
   128
 71
    27
 72
    23
 73
    29
  0
VERTEX
  5
91B
  8
0
 62
     9
 10
0.0
 20
0.0
 30
0.0
 70
   128
 71
    23
 72
    27
 73
    24
  0
VERTEX
  5
91C
  8
0
 62
     9
 10
0.0
 20
0.0
 30
0.0
 70
   128
 71
    18
 72
    29
 73
    21
  0
VERTEX
  5
91D
  8
0
 62
     9
 10
0.0
 20
0.0
 30
0.0
 70
   128
 71
    29
 72
    23
 73
    21
  0
VERTEX
  5
91E
  8
0
 62
     9
 10
0.0
 20
0.0
 30
0.0
 70
   128
 71
    35
 72
    30
 73
    17
  0
VERTEX
  5
91F
  8
0
 62
     9
 10
0.0
 20
0.0
 30
0.0
 70
   128
 71
     2
 72
    34
 73
     5
  0
VERTEX
  5
920
  8
0
 62
     9
 10
0.0
 20
0.0
 30
0.0
 70
   128
 71
     5
 72
    35
 73
    17
  0
VERTEX
  5
921
  8
0
 62
     9
 10
0.0
 20
0.0
 30
0.0
 70
   128
 71
    36
 72
    33
 73
     6
  0
VERTEX
  5
922
  8
0
 62
     9
 10
0.0
 20
0.0
 30
0.0
 70
   128
 71
    33
 72
    34
 73
     2
  0
VERTEX
  5
923
  8
0
 62
     9
 10
0.0
 20
0.0
 30
0.0
 70
   128
 71
    36
 72
     6
 73
     9
  0
VERTEX
  5
924
  8
0
 62
     9
 10
0.0
 20
0.0
 30
0.0
 70
   128
 71
    36
 72
     9
 73
    37
  0
VERTEX
  5
925
  8
0
 62
     9
 10
0.0
 20
0.0
 30
0.0
 70
   128
 71
    38
 72
    37
 73
    10
  0
VERTEX
  5
926
  8
0
 62
     9
 10
0.0
 20
0.0
 30
0.0
 70
   128
 71
     9
 72
    10
 73
    37
  0
VERTEX
  5
927
  8
0
 62
     9
 10
0.0
 20
0.0
 30
0.0
 70
   128
 71
    13
 72
    38
 73
    10
  0
VERTEX
  5
928
  8
0
 62
     9
 10
0.0
 20
0.0
 30
0.0
 70
   128
 71
    15
 72
    39
 73
    13
  0
VERTEX
  5
929
  8
0
 62
     9
 10
0.0
 20
0.0
 30
0.0
 70
   128
 71
    38
 72
    13
 73
    39
  0
VERTEX
  5
92A
  8
0
 62
     9
 10
0.0
 20
0.0
 30
0.0
 70
   128
 71
    40
 72
    15
 73
    16
  0
VERTEX
  5
92B
  8
0
 62
     9
 10
0.0
 20
0.0
 30
0.0
 70
   128
 71
    15
 72
    40
 73
    39
  0
VERTEX
  5
92C
  8
0
 62
     9
 10
0.0
 20
0.0
 30
0.0
 70
   128
 71
    43
 72
    42
 73
    41
  0
VERTEX
  5
92D
  8
0
 62
     9
 10
0.0
 20
0.0
 30
0.0
 70
   128
 71
    41
 72
    42
 73
    40
  0
VERTEX
  5
92E
  8
0
 62
     9
 10
0.0
 20
0.0
 30
0.0
 70
   128
 71
    46
 72
    45
 73
    44
  0
VERTEX
  5
92F
  8
0
 62
     9
 10
0.0
 20
0.0
 30
0.0
 70
   128
 71
    41
 72
    44
 73
    45
  0
VERTEX
  5
930
  8
0
 62
     9
 10
0.0
 20
0.0
 30
0.0
 70
   128
 71
    40
 72
    16
 73
    41
  0
VERTEX
  5
931
  8
0
 62
     9
 10
0.0
 20
0.0
 30
0.0
 70
   128
 71
    41
 72
    45
 73
    43
  0
VERTEX
  5
932
  8
0
 62
     9
 10
0.0
 20
0.0
 30
0.0
 70
   128
 71
    41
 72
    16
 73
    47
  0
VERTEX
  5
933
  8
0
 62
     9
 10
0.0
 20
0.0
 30
0.0
 70
   128
 71
    49
 72
    48
 73
    44
  0
VERTEX
  5
934
  8
0
 62
     9
 10
0.0
 20
0.0
 30
0.0
 70
   128
 71
    50
 72
    42
 73
    43
  0
VERTEX
  5
935
  8
0
 62
     9
 10
0.0
 20
0.0
 30
0.0
 70
   128
 71
    45
 72
    52
 73
    51
  0
VERTEX
  5
936
  8
0
 62
     9
 10
0.0
 20
0.0
 30
0.0
 70
   128
 71
    39
 72
    53
 73
    38
  0
VERTEX
  5
937
  8
0
 62
     9
 10
0.0
 20
0.0
 30
0.0
 70
   128
 71
    40
 72
    55
 73
    54
  0
VERTEX
  5
938
  8
0
 62
     9
 10
0.0
 20
0.0
 30
0.0
 70
   128
 71
    36
 72
    57
 73
    56
  0
VERTEX
  5
939
  8
0
 62
     9
 10
0.0
 20
0.0
 30
0.0
 70
   128
 71
    37
 72
    38
 73
    58
  0
VERTEX
  5
93A
  8
0
 62
     9
 10
0.0
 20
0.0
 30
0.0
 70
   128
 71
    56
 72
    59
 73
    33
  0
VERTEX
  5
93B
  8
0
 62
     9
 10
0.0
 20
0.0
 30
0.0
 70
   128
 71
    33
 72
    36
 73
    56
  0
VERTEX
  5
93C
  8
0
 62
     9
 10
0.0
 20
0.0
 30
0.0
 70
   128
 71
    60
 72
    34
 73
    59
  0
VERTEX
  5
93D
  8
0
 62
     9
 10
0.0
 20
0.0
 30
0.0
 70
   128
 71
    33
 72
    59
 73
    34
  0
VERTEX
  5
93E
  8
0
 62
     9
 10
0.0
 20
0.0
 30
0.0
 70
   128
 71
    35
 72
    60
 73
    32
  0
VERTEX
  5
93F
  8
0
 62
     9
 10
0.0
 20
0.0
 30
0.0
 70
   128
 71
    60
 72
    35
 73
    34
  0
VERTEX
  5
940
  8
0
 62
     9
 10
0.0
 20
0.0
 30
0.0
 70
   128
 71
    37
 72
    57
 73
    36
  0
VERTEX
  5
941
  8
0
 62
     9
 10
0.0
 20
0.0
 30
0.0
 70
   128
 71
    30
 72
    35
 73
    32
  0
VERTEX
  5
942
  8
0
 62
     9
 10
0.0
 20
0.0
 30
0.0
 70
   128
 71
    58
 72
    57
 73
    37
  0
VERTEX
  5
943
  8
0
 62
     9
 10
0.0
 20
0.0
 30
0.0
 70
   128
 71
    53
 72
    58
 73
    38
  0
VERTEX
  5
944
  8
0
 62
     9
 10
0.0
 20
0.0
 30
0.0
 70
   128
 71
    54
 72
    53
 73
    39
  0
VERTEX
  5
945
  8
0
 62
     9
 10
0.0
 20
0.0
 30
0.0
 70
   128
 71
    54
 72
    39
 73
    40
  0
VERTEX
  5
946
  8
0
 62
     9
 10
0.0
 20
0.0
 30
0.0
 70
   128
 71
    42
 72
    50
 73
    55
  0
VERTEX
  5
947
  8
0
 62
     9
 10
0.0
 20
0.0
 30
0.0
 70
   128
 71
    55
 72
    40
 73
    42
  0
VERTEX
  5
948
  8
0
 62
     9
 10
0.0
 20
0.0
 30
0.0
 70
   128
 71
    43
 72
    45
 73
    51
  0
VERTEX
  5
949
  8
0
 62
     9
 10
0.0
 20
0.0
 30
0.0
 70
   128
 71
    51
 72
    50
 73
    43
  0
VERTEX
  5
94A
  8
0
 62
     9
 10
0.0
 20
0.0
 30
0.0
 70
   128
 71
    52
 72
    45
 73
    46
  0
VERTEX
  5
94B
  8
0
 62
     9
 10
0.0
 20
0.0
 30
0.0
 70
   128
 71
    49
 72
    41
 73
    47
  0
VERTEX
  5
94C
  8
0
 62
     9
 10
0.0
 20
0.0
 30
0.0
 70
   128
 71
    48
 72
    46
 73
    44
  0
VERTEX
  5
94D
  8
0
 62
     9
 10
0.0
 20
0.0
 30
0.0
 70
   128
 71
    46
 72
    48
 73
    52
  0
VERTEX
  5
94E
  8
0
 62
     9
 10
0.0
 20
0.0
 30
0.0
 70
   128
 71
    44
 72
    41
 73
    49
  0
VERTEX
  5
94F
  8
0
 62
     9
 10
0.0
 20
0.0
 30
0.0
 70
   128
 71
    16
 72
    14
 73
    47
  0
VERTEX
  5
950
  8
0
 62
     9
 10
0.0
 20
0.0
 30
0.0
 70
   128
 71
    47
 72
    20
 73
    22
  0
VERTEX
  5
951
  8
0
 62
     9
 10
0.0
 20
0.0
 30
0.0
 70
   128
 71
     4
 72
    11
 73
     7
  0
VERTEX
  5
952
  8
0
 62
     9
 10
0.0
 20
0.0
 30
0.0
 70
   128
 71
     1
 72
     4
 73
     7
  0
VERTEX
  5
953
  8
0
 62
     9
 10
0.0
 20
0.0
 30
0.0
 70
   128
 71
    12
 72
    19
 73
    14
  0
VERTEX
  5
954
  8
0
 62
     9
 10
0.0
 20
0.0
 30
0.0
 70
   128
 71
     7
 72
    11
 73
     8
  0
VERTEX
  5
955
  8
0
 62
     9
 10
0.0
 20
0.0
 30
0.0
 70
   128
 71
     1
 72
     7
 73
     3
  0
VERTEX
  5
956
  8
0
 62
     9
 10
0.0
 20
0.0
 30
0.0
 70
   128
 71
    12
 72
    11
 73
     4
  0
VERTEX
  5
957
  8
0
 62
     9
 10
0.0
 20
0.0
 30
0.0
 70
   128
 71
    20
 72
    14
 73
    19
  0
VERTEX
  5
958
  8
0
 62
     9
 10
0.0
 20
0.0
 30
0.0
 70
   128
 71
    19
 72
    12
 73
     4
  0
VERTEX
  5
959
  8
0
 62
     9
 10
0.0
 20
0.0
 30
0.0
 70
   128
 71
    49
 72
    47
 73
    22
  0
VERTEX
  5
95A
  8
0
 62
     9
 10
0.0
 20
0.0
 30
0.0
 70
   128
 71
    47
 72
    14
 73
    20
  0
VERTEX
  5
95B
  8
0
 62
     9
 10
0.0
 20
0.0
 30
0.0
 70
   128
 71
    25
 72
    48
 73
    49
  0
VERTEX
  5
95C
  8
0
 62
     9
 10
0.0
 20
0.0
 30
0.0
 70
   128
 71
    49
 72
    22
 73
    25
  0
VERTEX
  5
95D
  8
0
 62
     9
 10
0.0
 20
0.0
 30
0.0
 70
   128
 71
    25
 72
    26
 73
    48
  0
VERTEX
  5
95E
  8
0
 62
     9
 10
0.0
 20
0.0
 30
0.0
 70
   128
 71
    26
 72
    52
 73
    48
  0
VERTEX
  5
95F
  8
0
 62
     9
 10
0.0
 20
0.0
 30
0.0
 70
   128
 71
    52
 72
    28
 73
    51
  0
VERTEX
  5
960
  8
0
 62
     9
 10
0.0
 20
0.0
 30
0.0
 70
   128
 71
    28
 72
    52
 73
    26
  0
VERTEX
  5
961
  8
0
 62
     9
 10
0.0
 20
0.0
 30
0.0
 70
   128
 71
    28
 72
    31
 73
    51
  0
VERTEX
  5
962
  8
0
 62
     9
 10
0.0
 20
0.0
 30
0.0
 70
   128
 71
    50
 72
    31
 73
    32
  0
VERTEX
  5
963
  8
0
 62
     9
 10
0.0
 20
0.0
 30
0.0
 70
   128
 71
    31
 72
    50
 73
    51
  0
VERTEX
  5
964
  8
0
 62
     9
 10
0.0
 20
0.0
 30
0.0
 70
   128
 71
    54
 72
    55
 73
    60
  0
VERTEX
  5
965
  8
0
 62
     9
 10
0.0
 20
0.0
 30
0.0
 70
   128
 71
    55
 72
    50
 73
    32
  0
VERTEX
  5
966
  8
0
 62
     9
 10
0.0
 20
0.0
 30
0.0
 70
   128
 71
    54
 72
    57
 73
    53
  0
VERTEX
  5
967
  8
0
 62
     9
 10
0.0
 20
0.0
 30
0.0
 70
   128
 71
    57
 72
    58
 73
    53
  0
VERTEX
  5
968
  8
0
 62
     9
 10
0.0
 20
0.0
 30
0.0
 70
   128
 71
    54
 72
    59
 73
    57
  0
VERTEX
  5
969
  8
0
 62
     9
 10
0.0
 20
0.0
 30
0.0
 70
   128
 71
    57
 72
    59
 73
    56
  0
VERTEX
  5
96A
  8
0
 62
     9
 10
0.0
 20
0.0
 30
0.0
 70
   128
 71
    32
 72
    60
 73
    55
  0
VERTEX
  5
96B
  8
0
 62
     9
 10
0.0
 20
0.0
 30
0.0
 70
   128
 71
    54
 72
    60
 73
    59
  0
SEQEND
  5
96C
  8
0
 62
     9
  0
ENDBLK
  5
96F
  8
0
  0
BLOCK
  8
0
  2
45
 70
     0
 10
0.0
 20
0.0
 30
0.0
  3
45
  1

  0
POLYLINE
  5
971
  8
0
 62
     9
 66
     1
 10
0.0
 20
0.0
 30
0.0
 70
    64
 71
   109
 72
   205
  0
VERTEX
  5
972
  8
0
 10
9.505297660827637
 20
20.74465560913086
 30
123.6342926025391
 70
   192
  0
VERTEX
  5
973
  8
0
 10
-6.288347244262695
 20
20.46386909484863
 30
2.5
 70
   192
  0
VERTEX
  5
974
  8
0
 10
14.97757053375244
 20
21.46881294250488
 30
112.4832000732422
 70
   192
  0
VERTEX
  5
975
  8
0
 10
21.96842575073242
 20
-0.0003571950364858
 30
2.5
 70
   192
  0
VERTEX
  5
976
  8
0
 10
29.23150062561035
 20
11.74566173553467
 30
91.22834777832031
 70
   192
  0
VERTEX
  5
977
  8
0
 10
17.4791259765625
 20
12.44242668151855
 30
2.5
 70
   192
  0
VERTEX
  5
978
  8
0
 10
-5.093100070953369
 20
6.954029560089111
 30
125.4267425537109
 70
   192
  0
VERTEX
  5
979
  8
0
 10
-21.3544979095459
 20
-0.0003571950364858
 30
2.5
 70
   192
  0
VERTEX
  5
97A
  8
0
 10
-17.13566970825195
 20
12.73110485076904
 30
2.5
 70
   192
  0
VERTEX
  5
97B
  8
0
 10
-1.781270623207092
 20
13.14048671722412
 30
125.0201034545898
 70
   192
  0
VERTEX
  5
97C
  8
0
 10
3.307524919509888
 20
17.9035701751709
 30
124.3952789306641
 70
   192
  0
VERTEX
  5
97D
  8
0
 10
-6.24365234375
 20
-0.0003571950364858
 30
125.5680160522461
 70
   192
  0
VERTEX
  5
97E
  8
0
 10
16.48000907897949
 20
21.45438385009766
 30
122.7779006958008
 70
   192
  0
VERTEX
  5
97F
  8
0
 10
7.022556781768799
 20
20.43846702575684
 30
2.5
 70
   192
  0
VERTEX
  5
980
  8
0
 10
15.31829357147217
 20
21.44761657714844
 30
111.9517440795898
 70
   192
  0
VERTEX
  5
981
  8
0
 10
23.0372428894043
 20
18.65606307983398
 30
100.3474884033203
 70
   192
  0
VERTEX
  5
982
  8
0
 10
15.94750118255615
 20
21.38728904724121
 30
110.9761581420898
 70
   192
  0
VERTEX
  5
983
  8
0
 10
32.33848190307617
 20
-0.0003571950364858
 30
86.95738983154297
 70
   192
  0
VERTEX
  5
984
  8
0
 10
15.10055732727051
 20
-21.46217918395996
 30
112.4754409790039
 70
   192
  0
VERTEX
  5
985
  8
0
 10
9.614871978759766
 20
-20.7758617401123
 30
123.6208343505859
 70
   192
  0
VERTEX
  5
986
  8
0
 10
16.63122749328613
 20
-20.94776725769043
 30
123.2630920410156
 70
   192
  0
VERTEX
  5
987
  8
0
 10
-5.083356857299805
 20
-6.98320484161377
 30
125.4255523681641
 70
   192
  0
VERTEX
  5
988
  8
0
 10
-16.86519813537598
 20
-12.44314098358154
 30
2.5
 70
   192
  0
VERTEX
  5
989
  8
0
 10
29.03446960449219
 20
-12.03504371643066
 30
91.50950622558594
 70
   192
  0
VERTEX
  5
98A
  8
0
 10
17.74959754943848
 20
-12.73181915283203
 30
2.5
 70
   192
  0
VERTEX
  5
98B
  8
0
 10
6.902275562286377
 20
-20.4645824432373
 30
2.5
 70
   192
  0
VERTEX
  5
98C
  8
0
 10
22.55966186523438
 20
-18.96196365356445
 30
101.0623016357422
 70
   192
  0
VERTEX
  5
98D
  8
0
 10
-6.408628463745117
 20
-20.43918228149414
 30
2.5
 70
   192
  0
VERTEX
  5
98E
  8
0
 10
3.237066268920898
 20
-17.86297798156738
 30
124.4039306640625
 70
   192
  0
VERTEX
  5
98F
  8
0
 10
-1.845110893249512
 20
-13.04719734191895
 30
125.027946472168
 70
   192
  0
VERTEX
  5
990
  8
0
 10
3.564531564712524
 20
-17.44135093688965
 30
124.8674774169922
 70
   192
  0
VERTEX
  5
991
  8
0
 10
-5.686444759368896
 20
-0.0003571950364858
 30
126.0033569335938
 70
   192
  0
VERTEX
  5
992
  8
0
 10
-4.554388999938965
 20
-6.817150115966797
 30
125.8643569946289
 70
   192
  0
VERTEX
  5
993
  8
0
 10
-1.394694209098816
 20
-12.7379035949707
 30
125.4763946533203
 70
   192
  0
VERTEX
  5
994
  8
0
 10
9.791247367858887
 20
-20.28866958618164
 30
124.1029357910156
 70
   192
  0
VERTEX
  5
995
  8
0
 10
3.642621994018555
 20
17.48720550537109
 30
124.8578872680664
 70
   192
  0
VERTEX
  5
996
  8
0
 10
-1.327834129333496
 20
12.8348913192749
 30
125.4681854248047
 70
   192
  0
VERTEX
  5
997
  8
0
 10
9.696266174316406
 20
20.26221656799316
 30
124.1145935058594
 70
   192
  0
VERTEX
  5
998
  8
0
 10
-4.562648296356201
 20
6.792303562164307
 30
125.8653717041016
 70
   192
  0
VERTEX
  5
999
  8
0
 10
31.41220474243164
 20
-12.00369167327881
 30
93.60774993896484
 70
   192
  0
VERTEX
  5
99A
  8
0
 10
35.23979949951172
 20
-0.000359527010005
 30
89.60121154785156
 70
   192
  0
VERTEX
  5
99B
  8
0
 10
23.80739402770996
 20
-18.90077018737793
 30
102.1576995849609
 70
   192
  0
VERTEX
  5
99C
  8
0
 10
23.98324775695801
 20
18.91294097900391
 30
101.9358367919922
 70
   192
  0
VERTEX
  5
99D
  8
0
 10
31.42536163330078
 20
11.70112228393555
 30
93.61932373046875
 70
   192
  0
VERTEX
  5
99E
  8
0
 10
105.8135986328125
 20
15.09081268310547
 30
112.312873840332
 70
   192
  0
VERTEX
  5
99F
  8
0
 10
84.75669860839844
 20
16.50310897827148
 30
114.8983383178711
 70
   192
  0
VERTEX
  5
9A0
  8
0
 10
98.6229476928711
 20
16.31161499023438
 30
113.1957778930664
 70
   192
  0
VERTEX
  5
9A1
  8
0
 10
117.6754608154297
 20
9.407376289367676
 30
110.8564224243164
 70
   192
  0
VERTEX
  5
9A2
  8
0
 10
120.0592193603516
 20
2.293935537338257
 30
110.5637359619141
 70
   192
  0
VERTEX
  5
9A3
  8
0
 10
91.81598663330078
 20
16.77861976623535
 30
114.0315704345703
 70
   192
  0
VERTEX
  5
9A4
  8
0
 10
120.0747680664062
 20
-4.268574714660645
 30
110.5618286132812
 70
   192
  0
VERTEX
  5
9A5
  8
0
 10
84.87979125976562
 20
-16.49758148193359
 30
114.8832244873047
 70
   192
  0
VERTEX
  5
9A6
  8
0
 10
78.05931854248047
 20
-16.94040489196777
 30
115.7206726074219
 70
   192
  0
VERTEX
  5
9A7
  8
0
 10
117.1766967773438
 20
-9.157999992370605
 30
110.9176635742188
 70
   192
  0
VERTEX
  5
9A8
  8
0
 10
91.70166015625
 20
-16.03759574890137
 30
114.0456008911133
 70
   192
  0
VERTEX
  5
9A9
  8
0
 10
98.52415466308594
 20
-15.5635461807251
 30
113.2079086303711
 70
   192
  0
VERTEX
  5
9AA
  8
0
 10
111.3529281616211
 20
-12.37068462371826
 30
111.6327362060547
 70
   192
  0
VERTEX
  5
9AB
  8
0
 10
105.2045745849609
 20
-14.69301795959473
 30
112.3876571655273
 70
   192
  0
VERTEX
  5
9AC
  8
0
 10
112.927604675293
 20
12.99325275421143
 30
111.4393844604492
 70
   192
  0
VERTEX
  5
9AD
  8
0
 10
77.93019104003906
 20
16.93463897705078
 30
115.7365264892578
 70
   192
  0
VERTEX
  5
9AE
  8
0
 10
71.10628509521484
 20
17.3853816986084
 30
116.5743942260742
 70
   192
  0
VERTEX
  5
9AF
  8
0
 10
71.23587036132812
 20
-17.3839111328125
 30
116.5584869384766
 70
   192
  0
VERTEX
  5
9B0
  8
0
 10
64.40569305419922
 20
-17.82842063903809
 30
117.3971252441406
 70
   192
  0
VERTEX
  5
9B1
  8
0
 10
64.28250885009766
 20
17.83745956420898
 30
117.4122543334961
 70
   192
  0
VERTEX
  5
9B2
  8
0
 10
57.45772552490234
 20
18.28269577026367
 30
118.2502288818359
 70
   192
  0
VERTEX
  5
9B3
  8
0
 10
57.5753288269043
 20
-18.27337646484375
 30
118.2357864379883
 70
   192
  0
VERTEX
  5
9B4
  8
0
 10
50.63298797607422
 20
18.72864151000977
 30
119.0882034301758
 70
   192
  0
VERTEX
  5
9B5
  8
0
 10
43.80821228027344
 20
19.17399978637695
 30
119.9261779785156
 70
   192
  0
VERTEX
  5
9B6
  8
0
 10
36.98343658447266
 20
19.61935806274414
 30
120.7641525268555
 70
   192
  0
VERTEX
  5
9B7
  8
0
 10
30.15865898132324
 20
20.0647144317627
 30
121.6021347045898
 70
   192
  0
VERTEX
  5
9B8
  8
0
 10
23.33388328552246
 20
20.51007270812988
 30
122.4401092529297
 70
   192
  0
VERTEX
  5
9B9
  8
0
 10
50.74882888793945
 20
-18.71844291687012
 30
119.073974609375
 70
   192
  0
VERTEX
  5
9BA
  8
0
 10
43.92876815795898
 20
-19.16347885131836
 30
119.911376953125
 70
   192
  0
VERTEX
  5
9BB
  8
0
 10
37.10697937011719
 20
-19.60893058776855
 30
120.7489852905273
 70
   192
  0
VERTEX
  5
9BC
  8
0
 10
30.2834587097168
 20
-20.05479621887207
 30
121.5868072509766
 70
   192
  0
VERTEX
  5
9BD
  8
0
 10
23.45820808410645
 20
-20.50107383728027
 30
122.4248428344727
 70
   192
  0
VERTEX
  5
9BE
  8
0
 10
100.2946472167969
 20
-14.73574924468994
 30
99.80599212646484
 70
   192
  0
VERTEX
  5
9BF
  8
0
 10
42.7384147644043
 20
-19.9664134979248
 30
110.3367614746094
 70
   192
  0
VERTEX
  5
9C0
  8
0
 10
28.91940879821777
 20
-20.71436882019043
 30
111.4050827026367
 70
   192
  0
VERTEX
  5
9C1
  8
0
 10
70.37641906738281
 20
-18.47050094604492
 30
108.2001342773438
 70
   192
  0
VERTEX
  5
9C2
  8
0
 10
56.55741882324219
 20
-19.21845817565918
 30
109.2684478759766
 70
   192
  0
VERTEX
  5
9C3
  8
0
 10
84.19542694091797
 20
-17.7225456237793
 30
107.1318206787109
 70
   192
  0
VERTEX
  5
9C4
  8
0
 10
98.01041412353516
 20
-16.92597579956055
 30
106.0663452148438
 70
   192
  0
VERTEX
  5
9C5
  8
0
 10
102.340202331543
 20
-11.2829532623291
 30
94.40644836425781
 70
   192
  0
VERTEX
  5
9C6
  8
0
 10
103.5036239624023
 20
-5.354253768920898
 30
91.36885070800781
 70
   192
  0
VERTEX
  5
9C7
  8
0
 10
108.2794189453125
 20
7.250002384185791
 30
92.42347717285156
 70
   192
  0
VERTEX
  5
9C8
  8
0
 10
102.402229309082
 20
11.44611358642578
 30
94.24263000488281
 70
   192
  0
VERTEX
  5
9C9
  8
0
 10
100.2946472167969
 20
14.73575019836426
 30
99.80599212646484
 70
   192
  0
VERTEX
  5
9CA
  8
0
 10
70.33527374267578
 20
18.47272872924805
 30
108.2033081054688
 70
   192
  0
VERTEX
  5
9CB
  8
0
 10
84.17485809326172
 20
17.72365951538086
 30
107.1334075927734
 70
   192
  0
VERTEX
  5
9CC
  8
0
 10
42.65608978271484
 20
19.97086906433105
 30
110.3431243896484
 70
   192
  0
VERTEX
  5
9CD
  8
0
 10
28.81649780273438
 20
20.71994018554688
 30
111.4130325317383
 70
   192
  0
VERTEX
  5
9CE
  8
0
 10
56.49567794799805
 20
19.22179985046387
 30
109.2732162475586
 70
   192
  0
VERTEX
  5
9CF
  8
0
 10
98.01069641113281
 20
16.92889213562012
 30
106.0661926269531
 70
   192
  0
VERTEX
  5
9D0
  8
0
 10
106.2725372314453
 20
15.99066066741943
 30
105.4532241821289
 70
   192
  0
VERTEX
  5
9D1
  8
0
 10
121.8129730224609
 20
11.32595920562744
 30
104.3243713378906
 70
   192
  0
VERTEX
  5
9D2
  8
0
 10
125.8453750610352
 20
4.127315521240234
 30
104.0328063964844
 70
   192
  0
VERTEX
  5
9D3
  8
0
 10
114.5941009521484
 20
15.11818313598633
 30
104.8384552001953
 70
   192
  0
VERTEX
  5
9D4
  8
0
 10
125.8434295654297
 20
-4.143679141998291
 30
104.0330047607422
 70
   192
  0
VERTEX
  5
9D5
  8
0
 10
106.2716217041016
 20
-15.98305892944336
 30
105.4534072875977
 70
   192
  0
VERTEX
  5
9D6
  8
0
 10
114.5046005249023
 20
-14.91850090026855
 30
104.845817565918
 70
   192
  0
VERTEX
  5
9D7
  8
0
 10
121.7996215820312
 20
-11.38806056976318
 30
104.3266830444336
 70
   192
  0
VERTEX
  5
9D8
  8
0
 10
119.8959426879883
 20
-4.640700817108154
 30
96.92542266845703
 70
   192
  0
VERTEX
  5
9D9
  8
0
 10
119.8430099487305
 20
4.965056896209717
 30
96.88199615478516
 70
   192
  0
VERTEX
  5
9DA
  8
0
 10
114.8078155517578
 20
12.36655616760254
 30
98.8071060180664
 70
   192
  0
VERTEX
  5
9DB
  8
0
 10
109.3683471679688
 20
11.41077899932861
 30
95.24740600585938
 70
   192
  0
VERTEX
  5
9DC
  8
0
 10
109.4594192504883
 20
-11.33239269256592
 30
95.16557312011719
 70
   192
  0
VERTEX
  5
9DD
  8
0
 10
115.4537887573242
 20
-0.0033422179985791
 30
93.52922058105469
 70
   192
  0
VERTEX
  5
9DE
  8
0
 10
114.9824829101562
 20
-12.29995059967041
 30
98.72506713867188
 70
   192
  0
VERTEX
  5
9DF
  8
0
 62
     9
 10
0.0
 20
0.0
 30
0.0
 70
   128
 71
     3
 72
     2
 73
     1
  0
VERTEX
  5
9E0
  8
0
 62
     9
 10
0.0
 20
0.0
 30
0.0
 70
   128
 71
     6
 72
     5
 73
     4
  0
VERTEX
  5
9E1
  8
0
 62
     9
 10
0.0
 20
0.0
 30
0.0
 70
   128
 71
     9
 72
     8
 73
     7
  0
VERTEX
  5
9E2
  8
0
 62
     9
 10
0.0
 20
0.0
 30
0.0
 70
   128
 71
    10
 72
     9
 73
     7
  0
VERTEX
  5
9E3
  8
0
 62
     9
 10
0.0
 20
0.0
 30
0.0
 70
   128
 71
    10
 72
    11
 73
     9
  0
VERTEX
  5
9E4
  8
0
 62
     9
 10
0.0
 20
0.0
 30
0.0
 70
   128
 71
     8
 72
    12
 73
     7
  0
VERTEX
  5
9E5
  8
0
 62
     9
 10
0.0
 20
0.0
 30
0.0
 70
   128
 71
     9
 72
    11
 73
     2
  0
VERTEX
  5
9E6
  8
0
 62
     9
 10
0.0
 20
0.0
 30
0.0
 70
   128
 71
     3
 72
     1
 73
    13
  0
VERTEX
  5
9E7
  8
0
 62
     9
 10
0.0
 20
0.0
 30
0.0
 70
   128
 71
     2
 72
    11
 73
     1
  0
VERTEX
  5
9E8
  8
0
 62
     9
 10
0.0
 20
0.0
 30
0.0
 70
   128
 71
     2
 72
     3
 73
    14
  0
VERTEX
  5
9E9
  8
0
 62
     9
 10
0.0
 20
0.0
 30
0.0
 70
   128
 71
     3
 72
    15
 73
    14
  0
VERTEX
  5
9EA
  8
0
 62
     9
 10
0.0
 20
0.0
 30
0.0
 70
   128
 71
    17
 72
    16
 73
    14
  0
VERTEX
  5
9EB
  8
0
 62
     9
 10
0.0
 20
0.0
 30
0.0
 70
   128
 71
    17
 72
    14
 73
    15
  0
VERTEX
  5
9EC
  8
0
 62
     9
 10
0.0
 20
0.0
 30
0.0
 70
   128
 71
     6
 72
    16
 73
     5
  0
VERTEX
  5
9ED
  8
0
 62
     9
 10
0.0
 20
0.0
 30
0.0
 70
   128
 71
    16
 72
     6
 73
    14
  0
VERTEX
  5
9EE
  8
0
 62
     9
 10
0.0
 20
0.0
 30
0.0
 70
   128
 71
     5
 72
    18
 73
     4
  0
VERTEX
  5
9EF
  8
0
 62
     9
 10
0.0
 20
0.0
 30
0.0
 70
   128
 71
    21
 72
    20
 73
    19
  0
VERTEX
  5
9F0
  8
0
 62
     9
 10
0.0
 20
0.0
 30
0.0
 70
   128
 71
    23
 72
    22
 73
     8
  0
VERTEX
  5
9F1
  8
0
 62
     9
 10
0.0
 20
0.0
 30
0.0
 70
   128
 71
    25
 72
     4
 73
    24
  0
VERTEX
  5
9F2
  8
0
 62
     9
 10
0.0
 20
0.0
 30
0.0
 70
   128
 71
    27
 72
    26
 73
    25
  0
VERTEX
  5
9F3
  8
0
 62
     9
 10
0.0
 20
0.0
 30
0.0
 70
   128
 71
    24
 72
    27
 73
    25
  0
VERTEX
  5
9F4
  8
0
 62
     9
 10
0.0
 20
0.0
 30
0.0
 70
   128
 71
     4
 72
    18
 73
    24
  0
VERTEX
  5
9F5
  8
0
 62
     9
 10
0.0
 20
0.0
 30
0.0
 70
   128
 71
    26
 72
    19
 73
    28
  0
VERTEX
  5
9F6
  8
0
 62
     9
 10
0.0
 20
0.0
 30
0.0
 70
   128
 71
    26
 72
    27
 73
    19
  0
VERTEX
  5
9F7
  8
0
 62
     9
 10
0.0
 20
0.0
 30
0.0
 70
   128
 71
    29
 72
    28
 73
    20
  0
VERTEX
  5
9F8
  8
0
 62
     9
 10
0.0
 20
0.0
 30
0.0
 70
   128
 71
    20
 72
    28
 73
    19
  0
VERTEX
  5
9F9
  8
0
 62
     9
 10
0.0
 20
0.0
 30
0.0
 70
   128
 71
    23
 72
    29
 73
    30
  0
VERTEX
  5
9FA
  8
0
 62
     9
 10
0.0
 20
0.0
 30
0.0
 70
   128
 71
    29
 72
    23
 73
    28
  0
VERTEX
  5
9FB
  8
0
 62
     9
 10
0.0
 20
0.0
 30
0.0
 70
   128
 71
    22
 72
    12
 73
     8
  0
VERTEX
  5
9FC
  8
0
 62
     9
 10
0.0
 20
0.0
 30
0.0
 70
   128
 71
    30
 72
    22
 73
    23
  0
VERTEX
  5
9FD
  8
0
 62
     9
 10
0.0
 20
0.0
 30
0.0
 70
   128
 71
    29
 72
    20
 73
    31
  0
VERTEX
  5
9FE
  8
0
 62
     9
 10
0.0
 20
0.0
 30
0.0
 70
   128
 71
    33
 72
    32
 73
    22
  0
VERTEX
  5
9FF
  8
0
 62
     9
 10
0.0
 20
0.0
 30
0.0
 70
   128
 71
    30
 72
    34
 73
    33
  0
VERTEX
  5
A00
  8
0
 62
     9
 10
0.0
 20
0.0
 30
0.0
 70
   128
 71
    30
 72
    33
 73
    22
  0
VERTEX
  5
A01
  8
0
 62
     9
 10
0.0
 20
0.0
 30
0.0
 70
   128
 71
    32
 72
    12
 73
    22
  0
VERTEX
  5
A02
  8
0
 62
     9
 10
0.0
 20
0.0
 30
0.0
 70
   128
 71
    30
 72
    29
 73
    34
  0
VERTEX
  5
A03
  8
0
 62
     9
 10
0.0
 20
0.0
 30
0.0
 70
   128
 71
    35
 72
    31
 73
    20
  0
VERTEX
  5
A04
  8
0
 62
     9
 10
0.0
 20
0.0
 30
0.0
 70
   128
 71
    31
 72
    34
 73
    29
  0
VERTEX
  5
A05
  8
0
 62
     9
 10
0.0
 20
0.0
 30
0.0
 70
   128
 71
    20
 72
    21
 73
    35
  0
VERTEX
  5
A06
  8
0
 62
     9
 10
0.0
 20
0.0
 30
0.0
 70
   128
 71
    37
 72
    36
 73
    11
  0
VERTEX
  5
A07
  8
0
 62
     9
 10
0.0
 20
0.0
 30
0.0
 70
   128
 71
     1
 72
    38
 73
    13
  0
VERTEX
  5
A08
  8
0
 62
     9
 10
0.0
 20
0.0
 30
0.0
 70
   128
 71
    39
 72
     7
 73
    32
  0
VERTEX
  5
A09
  8
0
 62
     9
 10
0.0
 20
0.0
 30
0.0
 70
   128
 71
    39
 72
    10
 73
     7
  0
VERTEX
  5
A0A
  8
0
 62
     9
 10
0.0
 20
0.0
 30
0.0
 70
   128
 71
    10
 72
    39
 73
    37
  0
VERTEX
  5
A0B
  8
0
 62
     9
 10
0.0
 20
0.0
 30
0.0
 70
   128
 71
     7
 72
    12
 73
    32
  0
VERTEX
  5
A0C
  8
0
 62
     9
 10
0.0
 20
0.0
 30
0.0
 70
   128
 71
     1
 72
    11
 73
    36
  0
VERTEX
  5
A0D
  8
0
 62
     9
 10
0.0
 20
0.0
 30
0.0
 70
   128
 71
    11
 72
    10
 73
    37
  0
VERTEX
  5
A0E
  8
0
 62
     9
 10
0.0
 20
0.0
 30
0.0
 70
   128
 71
    38
 72
     1
 73
    36
  0
VERTEX
  5
A0F
  8
0
 62
     9
 10
0.0
 20
0.0
 30
0.0
 70
   128
 71
    41
 72
    40
 73
    24
  0
VERTEX
  5
A10
  8
0
 62
     9
 10
0.0
 20
0.0
 30
0.0
 70
   128
 71
    19
 72
    27
 73
    42
  0
VERTEX
  5
A11
  8
0
 62
     9
 10
0.0
 20
0.0
 30
0.0
 70
   128
 71
    27
 72
    40
 73
    42
  0
VERTEX
  5
A12
  8
0
 62
     9
 10
0.0
 20
0.0
 30
0.0
 70
   128
 71
    27
 72
    24
 73
    40
  0
VERTEX
  5
A13
  8
0
 62
     9
 10
0.0
 20
0.0
 30
0.0
 70
   128
 71
    24
 72
    18
 73
    41
  0
VERTEX
  5
A14
  8
0
 62
     9
 10
0.0
 20
0.0
 30
0.0
 70
   128
 71
    15
 72
    43
 73
    17
  0
VERTEX
  5
A15
  8
0
 62
     9
 10
0.0
 20
0.0
 30
0.0
 70
   128
 71
    18
 72
     5
 73
    41
  0
VERTEX
  5
A16
  8
0
 62
     9
 10
0.0
 20
0.0
 30
0.0
 70
   128
 71
    16
 72
    44
 73
     5
  0
VERTEX
  5
A17
  8
0
 62
     9
 10
0.0
 20
0.0
 30
0.0
 70
   128
 71
    16
 72
    17
 73
    43
  0
VERTEX
  5
A18
  8
0
 62
     9
 10
0.0
 20
0.0
 30
0.0
 70
   128
 71
    43
 72
    44
 73
    16
  0
VERTEX
  5
A19
  8
0
 62
     9
 10
0.0
 20
0.0
 30
0.0
 70
   128
 71
     5
 72
    44
 73
    41
  0
VERTEX
  5
A1A
  8
0
 62
     9
 10
0.0
 20
0.0
 30
0.0
 70
   128
 71
    47
 72
    46
 73
    45
  0
VERTEX
  5
A1B
  8
0
 62
     9
 10
0.0
 20
0.0
 30
0.0
 70
   128
 71
    31
 72
    35
 73
    21
  0
VERTEX
  5
A1C
  8
0
 62
     9
 10
0.0
 20
0.0
 30
0.0
 70
   128
 71
    46
 72
    49
 73
    48
  0
VERTEX
  5
A1D
  8
0
 62
     9
 10
0.0
 20
0.0
 30
0.0
 70
   128
 71
    47
 72
    50
 73
    46
  0
VERTEX
  5
A1E
  8
0
 62
     9
 10
0.0
 20
0.0
 30
0.0
 70
   128
 71
    52
 72
    51
 73
    49
  0
VERTEX
  5
A1F
  8
0
 62
     9
 10
0.0
 20
0.0
 30
0.0
 70
   128
 71
    49
 72
    53
 73
    52
  0
VERTEX
  5
A20
  8
0
 62
     9
 10
0.0
 20
0.0
 30
0.0
 70
   128
 71
    51
 72
    55
 73
    54
  0
VERTEX
  5
A21
  8
0
 62
     9
 10
0.0
 20
0.0
 30
0.0
 70
   128
 71
    55
 72
    51
 73
    52
  0
VERTEX
  5
A22
  8
0
 62
     9
 10
0.0
 20
0.0
 30
0.0
 70
   128
 71
    58
 72
    57
 73
    56
  0
VERTEX
  5
A23
  8
0
 62
     9
 10
0.0
 20
0.0
 30
0.0
 70
   128
 71
    55
 72
    57
 73
    54
  0
VERTEX
  5
A24
  8
0
 62
     9
 10
0.0
 20
0.0
 30
0.0
 70
   128
 71
    59
 72
    45
 73
    48
  0
VERTEX
  5
A25
  8
0
 62
     9
 10
0.0
 20
0.0
 30
0.0
 70
   128
 71
    55
 72
    56
 73
    57
  0
VERTEX
  5
A26
  8
0
 62
     9
 10
0.0
 20
0.0
 30
0.0
 70
   128
 71
    46
 72
    60
 73
    49
  0
VERTEX
  5
A27
  8
0
 62
     9
 10
0.0
 20
0.0
 30
0.0
 70
   128
 71
    48
 72
    45
 73
    46
  0
VERTEX
  5
A28
  8
0
 62
     9
 10
0.0
 20
0.0
 30
0.0
 70
   128
 71
    49
 72
    60
 73
    53
  0
VERTEX
  5
A29
  8
0
 62
     9
 10
0.0
 20
0.0
 30
0.0
 70
   128
 71
    62
 72
    60
 73
    61
  0
VERTEX
  5
A2A
  8
0
 62
     9
 10
0.0
 20
0.0
 30
0.0
 70
   128
 71
    60
 72
    62
 73
    53
  0
VERTEX
  5
A2B
  8
0
 62
     9
 10
0.0
 20
0.0
 30
0.0
 70
   128
 71
    64
 72
    63
 73
    61
  0
VERTEX
  5
A2C
  8
0
 62
     9
 10
0.0
 20
0.0
 30
0.0
 70
   128
 71
    62
 72
    61
 73
    63
  0
VERTEX
  5
A2D
  8
0
 62
     9
 10
0.0
 20
0.0
 30
0.0
 70
   128
 71
    65
 72
    32
 73
    64
  0
VERTEX
  5
A2E
  8
0
 62
     9
 10
0.0
 20
0.0
 30
0.0
 70
   128
 71
    66
 72
    63
 73
    64
  0
VERTEX
  5
A2F
  8
0
 62
     9
 10
0.0
 20
0.0
 30
0.0
 70
   128
 71
    65
 72
    67
 73
    32
  0
VERTEX
  5
A30
  8
0
 62
     9
 10
0.0
 20
0.0
 30
0.0
 70
   128
 71
    68
 72
    39
 73
    67
  0
VERTEX
  5
A31
  8
0
 62
     9
 10
0.0
 20
0.0
 30
0.0
 70
   128
 71
    67
 72
    39
 73
    32
  0
VERTEX
  5
A32
  8
0
 62
     9
 10
0.0
 20
0.0
 30
0.0
 70
   128
 71
    69
 72
    37
 73
    39
  0
VERTEX
  5
A33
  8
0
 62
     9
 10
0.0
 20
0.0
 30
0.0
 70
   128
 71
    69
 72
    39
 73
    68
  0
VERTEX
  5
A34
  8
0
 62
     9
 10
0.0
 20
0.0
 30
0.0
 70
   128
 71
    32
 72
    66
 73
    64
  0
VERTEX
  5
A35
  8
0
 62
     9
 10
0.0
 20
0.0
 30
0.0
 70
   128
 71
    69
 72
    70
 73
    37
  0
VERTEX
  5
A36
  8
0
 62
     9
 10
0.0
 20
0.0
 30
0.0
 70
   128
 71
    36
 72
    37
 73
    71
  0
VERTEX
  5
A37
  8
0
 62
     9
 10
0.0
 20
0.0
 30
0.0
 70
   128
 71
    37
 72
    70
 73
    71
  0
VERTEX
  5
A38
  8
0
 62
     9
 10
0.0
 20
0.0
 30
0.0
 70
   128
 71
    66
 72
    32
 73
    72
  0
VERTEX
  5
A39
  8
0
 62
     9
 10
0.0
 20
0.0
 30
0.0
 70
   128
 71
    13
 72
    36
 73
    71
  0
VERTEX
  5
A3A
  8
0
 62
     9
 10
0.0
 20
0.0
 30
0.0
 70
   128
 71
    36
 72
    13
 73
    38
  0
VERTEX
  5
A3B
  8
0
 62
     9
 10
0.0
 20
0.0
 30
0.0
 70
   128
 71
    33
 72
    73
 73
    72
  0
VERTEX
  5
A3C
  8
0
 62
     9
 10
0.0
 20
0.0
 30
0.0
 70
   128
 71
    32
 72
    33
 73
    72
  0
VERTEX
  5
A3D
  8
0
 62
     9
 10
0.0
 20
0.0
 30
0.0
 70
   128
 71
    74
 72
    33
 73
    34
  0
VERTEX
  5
A3E
  8
0
 62
     9
 10
0.0
 20
0.0
 30
0.0
 70
   128
 71
    33
 72
    74
 73
    73
  0
VERTEX
  5
A3F
  8
0
 62
     9
 10
0.0
 20
0.0
 30
0.0
 70
   128
 71
    31
 72
    75
 73
    34
  0
VERTEX
  5
A40
  8
0
 62
     9
 10
0.0
 20
0.0
 30
0.0
 70
   128
 71
    74
 72
    34
 73
    75
  0
VERTEX
  5
A41
  8
0
 62
     9
 10
0.0
 20
0.0
 30
0.0
 70
   128
 71
    76
 72
    31
 73
    21
  0
VERTEX
  5
A42
  8
0
 62
     9
 10
0.0
 20
0.0
 30
0.0
 70
   128
 71
    76
 72
    75
 73
    31
  0
VERTEX
  5
A43
  8
0
 62
     9
 10
0.0
 20
0.0
 30
0.0
 70
   128
 71
    77
 72
    19
 73
    42
  0
VERTEX
  5
A44
  8
0
 62
     9
 10
0.0
 20
0.0
 30
0.0
 70
   128
 71
    79
 72
    19
 73
    78
  0
VERTEX
  5
A45
  8
0
 62
     9
 10
0.0
 20
0.0
 30
0.0
 70
   128
 71
    77
 72
    80
 73
    19
  0
VERTEX
  5
A46
  8
0
 62
     9
 10
0.0
 20
0.0
 30
0.0
 70
   128
 71
    81
 72
    78
 73
    19
  0
VERTEX
  5
A47
  8
0
 62
     9
 10
0.0
 20
0.0
 30
0.0
 70
   128
 71
    19
 72
    80
 73
    81
  0
VERTEX
  5
A48
  8
0
 62
     9
 10
0.0
 20
0.0
 30
0.0
 70
   128
 71
    83
 72
    82
 73
    77
  0
VERTEX
  5
A49
  8
0
 62
     9
 10
0.0
 20
0.0
 30
0.0
 70
   128
 71
    80
 72
    77
 73
    82
  0
VERTEX
  5
A4A
  8
0
 62
     9
 10
0.0
 20
0.0
 30
0.0
 70
   128
 71
    84
 72
    42
 73
    40
  0
VERTEX
  5
A4B
  8
0
 62
     9
 10
0.0
 20
0.0
 30
0.0
 70
   128
 71
    42
 72
    84
 73
    77
  0
VERTEX
  5
A4C
  8
0
 62
     9
 10
0.0
 20
0.0
 30
0.0
 70
   128
 71
    41
 72
    85
 73
    40
  0
VERTEX
  5
A4D
  8
0
 62
     9
 10
0.0
 20
0.0
 30
0.0
 70
   128
 71
    84
 72
    40
 73
    85
  0
VERTEX
  5
A4E
  8
0
 62
     9
 10
0.0
 20
0.0
 30
0.0
 70
   128
 71
    86
 72
    85
 73
    41
  0
VERTEX
  5
A4F
  8
0
 62
     9
 10
0.0
 20
0.0
 30
0.0
 70
   128
 71
    41
 72
    44
 73
    86
  0
VERTEX
  5
A50
  8
0
 62
     9
 10
0.0
 20
0.0
 30
0.0
 70
   128
 71
    86
 72
    44
 73
    87
  0
VERTEX
  5
A51
  8
0
 62
     9
 10
0.0
 20
0.0
 30
0.0
 70
   128
 71
    43
 72
    88
 73
    87
  0
VERTEX
  5
A52
  8
0
 62
     9
 10
0.0
 20
0.0
 30
0.0
 70
   128
 71
    87
 72
    44
 73
    43
  0
VERTEX
  5
A53
  8
0
 62
     9
 10
0.0
 20
0.0
 30
0.0
 70
   128
 71
    15
 72
    88
 73
    43
  0
VERTEX
  5
A54
  8
0
 62
     9
 10
0.0
 20
0.0
 30
0.0
 70
   128
 71
    90
 72
    15
 73
    89
  0
VERTEX
  5
A55
  8
0
 62
     9
 10
0.0
 20
0.0
 30
0.0
 70
   128
 71
    92
 72
    91
 73
    15
  0
VERTEX
  5
A56
  8
0
 62
     9
 10
0.0
 20
0.0
 30
0.0
 70
   128
 71
     3
 72
    92
 73
    15
  0
VERTEX
  5
A57
  8
0
 62
     9
 10
0.0
 20
0.0
 30
0.0
 70
   128
 71
    93
 72
    89
 73
    15
  0
VERTEX
  5
A58
  8
0
 62
     9
 10
0.0
 20
0.0
 30
0.0
 70
   128
 71
    93
 72
    15
 73
    91
  0
VERTEX
  5
A59
  8
0
 62
     9
 10
0.0
 20
0.0
 30
0.0
 70
   128
 71
    88
 72
    90
 73
    94
  0
VERTEX
  5
A5A
  8
0
 62
     9
 10
0.0
 20
0.0
 30
0.0
 70
   128
 71
    15
 72
    90
 73
    88
  0
VERTEX
  5
A5B
  8
0
 62
     9
 10
0.0
 20
0.0
 30
0.0
 70
   128
 71
    13
 72
    71
 73
     3
  0
VERTEX
  5
A5C
  8
0
 62
     9
 10
0.0
 20
0.0
 30
0.0
 70
   128
 71
    91
 72
    68
 73
    67
  0
VERTEX
  5
A5D
  8
0
 62
     9
 10
0.0
 20
0.0
 30
0.0
 70
   128
 71
    92
 72
    71
 73
    70
  0
VERTEX
  5
A5E
  8
0
 62
     9
 10
0.0
 20
0.0
 30
0.0
 70
   128
 71
    65
 72
    93
 73
    67
  0
VERTEX
  5
A5F
  8
0
 62
     9
 10
0.0
 20
0.0
 30
0.0
 70
   128
 71
    92
 72
    69
 73
    91
  0
VERTEX
  5
A60
  8
0
 62
     9
 10
0.0
 20
0.0
 30
0.0
 70
   128
 71
    90
 72
    89
 73
    60
  0
VERTEX
  5
A61
  8
0
 62
     9
 10
0.0
 20
0.0
 30
0.0
 70
   128
 71
    89
 72
    93
 73
    64
  0
VERTEX
  5
A62
  8
0
 62
     9
 10
0.0
 20
0.0
 30
0.0
 70
   128
 71
    94
 72
    47
 73
    95
  0
VERTEX
  5
A63
  8
0
 62
     9
 10
0.0
 20
0.0
 30
0.0
 70
   128
 71
    46
 72
    50
 73
    90
  0
VERTEX
  5
A64
  8
0
 62
     9
 10
0.0
 20
0.0
 30
0.0
 70
   128
 71
    48
 72
    97
 73
    96
  0
VERTEX
  5
A65
  8
0
 62
     9
 10
0.0
 20
0.0
 30
0.0
 70
   128
 71
    59
 72
    98
 73
    45
  0
VERTEX
  5
A66
  8
0
 62
     9
 10
0.0
 20
0.0
 30
0.0
 70
   128
 71
    54
 72
    99
 73
    51
  0
VERTEX
  5
A67
  8
0
 62
     9
 10
0.0
 20
0.0
 30
0.0
 70
   128
 71
    97
 72
    49
 73
    51
  0
VERTEX
  5
A68
  8
0
 62
     9
 10
0.0
 20
0.0
 30
0.0
 70
   128
 71
   100
 72
    58
 73
    56
  0
VERTEX
  5
A69
  8
0
 62
     9
 10
0.0
 20
0.0
 30
0.0
 70
   128
 71
    57
 72
    58
 73
   101
  0
VERTEX
  5
A6A
  8
0
 62
     9
 10
0.0
 20
0.0
 30
0.0
 70
   128
 71
    52
 72
    83
 73
    55
  0
VERTEX
  5
A6B
  8
0
 62
     9
 10
0.0
 20
0.0
 30
0.0
 70
   128
 71
   100
 72
    56
 73
    83
  0
VERTEX
  5
A6C
  8
0
 62
     9
 10
0.0
 20
0.0
 30
0.0
 70
   128
 71
    53
 72
    82
 73
    52
  0
VERTEX
  5
A6D
  8
0
 62
     9
 10
0.0
 20
0.0
 30
0.0
 70
   128
 71
    52
 72
    82
 73
    83
  0
VERTEX
  5
A6E
  8
0
 62
     9
 10
0.0
 20
0.0
 30
0.0
 70
   128
 71
    62
 72
    80
 73
    82
  0
VERTEX
  5
A6F
  8
0
 62
     9
 10
0.0
 20
0.0
 30
0.0
 70
   128
 71
    82
 72
    53
 73
    62
  0
VERTEX
  5
A70
  8
0
 62
     9
 10
0.0
 20
0.0
 30
0.0
 70
   128
 71
    80
 72
    63
 73
    81
  0
VERTEX
  5
A71
  8
0
 62
     9
 10
0.0
 20
0.0
 30
0.0
 70
   128
 71
    63
 72
    80
 73
    62
  0
VERTEX
  5
A72
  8
0
 62
     9
 10
0.0
 20
0.0
 30
0.0
 70
   128
 71
    81
 72
    66
 73
    72
  0
VERTEX
  5
A73
  8
0
 62
     9
 10
0.0
 20
0.0
 30
0.0
 70
   128
 71
    63
 72
    66
 73
    81
  0
VERTEX
  5
A74
  8
0
 62
     9
 10
0.0
 20
0.0
 30
0.0
 70
   128
 71
    73
 72
    78
 73
    72
  0
VERTEX
  5
A75
  8
0
 62
     9
 10
0.0
 20
0.0
 30
0.0
 70
   128
 71
    81
 72
    72
 73
    78
  0
VERTEX
  5
A76
  8
0
 62
     9
 10
0.0
 20
0.0
 30
0.0
 70
   128
 71
    74
 72
    79
 73
    78
  0
VERTEX
  5
A77
  8
0
 62
     9
 10
0.0
 20
0.0
 30
0.0
 70
   128
 71
    78
 72
    73
 73
    74
  0
VERTEX
  5
A78
  8
0
 62
     9
 10
0.0
 20
0.0
 30
0.0
 70
   128
 71
    75
 72
    76
 73
    79
  0
VERTEX
  5
A79
  8
0
 62
     9
 10
0.0
 20
0.0
 30
0.0
 70
   128
 71
    75
 72
    79
 73
    74
  0
VERTEX
  5
A7A
  8
0
 62
     9
 10
0.0
 20
0.0
 30
0.0
 70
   128
 71
    19
 72
    76
 73
    21
  0
VERTEX
  5
A7B
  8
0
 62
     9
 10
0.0
 20
0.0
 30
0.0
 70
   128
 71
    76
 72
    19
 73
    79
  0
VERTEX
  5
A7C
  8
0
 62
     9
 10
0.0
 20
0.0
 30
0.0
 70
   128
 71
    55
 72
    83
 73
    56
  0
VERTEX
  5
A7D
  8
0
 62
     9
 10
0.0
 20
0.0
 30
0.0
 70
   128
 71
   101
 72
    58
 73
   100
  0
VERTEX
  5
A7E
  8
0
 62
     9
 10
0.0
 20
0.0
 30
0.0
 70
   128
 71
    69
 72
    92
 73
    70
  0
VERTEX
  5
A7F
  8
0
 62
     9
 10
0.0
 20
0.0
 30
0.0
 70
   128
 71
   101
 72
   102
 73
    57
  0
VERTEX
  5
A80
  8
0
 62
     9
 10
0.0
 20
0.0
 30
0.0
 70
   128
 71
    91
 72
    67
 73
    93
  0
VERTEX
  5
A81
  8
0
 62
     9
 10
0.0
 20
0.0
 30
0.0
 70
   128
 71
    99
 72
    54
 73
   102
  0
VERTEX
  5
A82
  8
0
 62
     9
 10
0.0
 20
0.0
 30
0.0
 70
   128
 71
    57
 72
   102
 73
    54
  0
VERTEX
  5
A83
  8
0
 62
     9
 10
0.0
 20
0.0
 30
0.0
 70
   128
 71
    51
 72
    99
 73
    97
  0
VERTEX
  5
A84
  8
0
 62
     9
 10
0.0
 20
0.0
 30
0.0
 70
   128
 71
    48
 72
    49
 73
    97
  0
VERTEX
  5
A85
  8
0
 62
     9
 10
0.0
 20
0.0
 30
0.0
 70
   128
 71
    59
 72
    48
 73
    96
  0
VERTEX
  5
A86
  8
0
 62
     9
 10
0.0
 20
0.0
 30
0.0
 70
   128
 71
    94
 72
    90
 73
    50
  0
VERTEX
  5
A87
  8
0
 62
     9
 10
0.0
 20
0.0
 30
0.0
 70
   128
 71
    95
 72
    45
 73
    98
  0
VERTEX
  5
A88
  8
0
 62
     9
 10
0.0
 20
0.0
 30
0.0
 70
   128
 71
    98
 72
    59
 73
    96
  0
VERTEX
  5
A89
  8
0
 62
     9
 10
0.0
 20
0.0
 30
0.0
 70
   128
 71
    50
 72
    47
 73
    94
  0
VERTEX
  5
A8A
  8
0
 62
     9
 10
0.0
 20
0.0
 30
0.0
 70
   128
 71
    95
 72
    47
 73
    45
  0
VERTEX
  5
A8B
  8
0
 62
     9
 10
0.0
 20
0.0
 30
0.0
 70
   128
 71
    89
 72
    61
 73
    60
  0
VERTEX
  5
A8C
  8
0
 62
     9
 10
0.0
 20
0.0
 30
0.0
 70
   128
 71
    60
 72
    46
 73
    90
  0
VERTEX
  5
A8D
  8
0
 62
     9
 10
0.0
 20
0.0
 30
0.0
 70
   128
 71
    64
 72
    61
 73
    89
  0
VERTEX
  5
A8E
  8
0
 62
     9
 10
0.0
 20
0.0
 30
0.0
 70
   128
 71
    93
 72
    65
 73
    64
  0
VERTEX
  5
A8F
  8
0
 62
     9
 10
0.0
 20
0.0
 30
0.0
 70
   128
 71
    68
 72
    91
 73
    69
  0
VERTEX
  5
A90
  8
0
 62
     9
 10
0.0
 20
0.0
 30
0.0
 70
   128
 71
     3
 72
    71
 73
    92
  0
VERTEX
  5
A91
  8
0
 62
     9
 10
0.0
 20
0.0
 30
0.0
 70
   128
 71
   103
 72
    99
 73
   102
  0
VERTEX
  5
A92
  8
0
 62
     9
 10
0.0
 20
0.0
 30
0.0
 70
   128
 71
   104
 72
    99
 73
   103
  0
VERTEX
  5
A93
  8
0
 62
     9
 10
0.0
 20
0.0
 30
0.0
 70
   128
 71
    94
 72
    95
 73
    88
  0
VERTEX
  5
A94
  8
0
 62
     9
 10
0.0
 20
0.0
 30
0.0
 70
   128
 71
   104
 72
   106
 73
   105
  0
VERTEX
  5
A95
  8
0
 62
     9
 10
0.0
 20
0.0
 30
0.0
 70
   128
 71
    88
 72
   106
 73
    87
  0
VERTEX
  5
A96
  8
0
 62
     9
 10
0.0
 20
0.0
 30
0.0
 70
   128
 71
   105
 72
    95
 73
    98
  0
VERTEX
  5
A97
  8
0
 62
     9
 10
0.0
 20
0.0
 30
0.0
 70
   128
 71
    87
 72
   106
 73
    86
  0
VERTEX
  5
A98
  8
0
 62
     9
 10
0.0
 20
0.0
 30
0.0
 70
   128
 71
   107
 72
    85
 73
   103
  0
VERTEX
  5
A99
  8
0
 62
     9
 10
0.0
 20
0.0
 30
0.0
 70
   128
 71
   107
 72
    84
 73
    85
  0
VERTEX
  5
A9A
  8
0
 62
     9
 10
0.0
 20
0.0
 30
0.0
 70
   128
 71
   108
 72
   103
 73
    85
  0
VERTEX
  5
A9B
  8
0
 62
     9
 10
0.0
 20
0.0
 30
0.0
 70
   128
 71
    77
 72
   107
 73
   100
  0
VERTEX
  5
A9C
  8
0
 62
     9
 10
0.0
 20
0.0
 30
0.0
 70
   128
 71
    95
 72
   105
 73
   106
  0
VERTEX
  5
A9D
  8
0
 62
     9
 10
0.0
 20
0.0
 30
0.0
 70
   128
 71
    98
 72
    96
 73
   105
  0
VERTEX
  5
A9E
  8
0
 62
     9
 10
0.0
 20
0.0
 30
0.0
 70
   128
 71
    86
 72
   104
 73
   108
  0
VERTEX
  5
A9F
  8
0
 62
     9
 10
0.0
 20
0.0
 30
0.0
 70
   128
 71
   104
 72
    86
 73
   106
  0
VERTEX
  5
AA0
  8
0
 62
     9
 10
0.0
 20
0.0
 30
0.0
 70
   128
 71
   104
 72
   103
 73
   108
  0
VERTEX
  5
AA1
  8
0
 62
     9
 10
0.0
 20
0.0
 30
0.0
 70
   128
 71
   103
 72
   109
 73
   107
  0
VERTEX
  5
AA2
  8
0
 62
     9
 10
0.0
 20
0.0
 30
0.0
 70
   128
 71
    84
 72
   107
 73
    77
  0
VERTEX
  5
AA3
  8
0
 62
     9
 10
0.0
 20
0.0
 30
0.0
 70
   128
 71
   107
 72
   109
 73
   100
  0
VERTEX
  5
AA4
  8
0
 62
     9
 10
0.0
 20
0.0
 30
0.0
 70
   128
 71
    77
 72
   100
 73
    83
  0
VERTEX
  5
AA5
  8
0
 62
     9
 10
0.0
 20
0.0
 30
0.0
 70
   128
 71
    97
 72
   104
 73
    96
  0
VERTEX
  5
AA6
  8
0
 62
     9
 10
0.0
 20
0.0
 30
0.0
 70
   128
 71
    95
 72
   106
 73
    88
  0
VERTEX
  5
AA7
  8
0
 62
     9
 10
0.0
 20
0.0
 30
0.0
 70
   128
 71
   104
 72
   105
 73
    96
  0
VERTEX
  5
AA8
  8
0
 62
     9
 10
0.0
 20
0.0
 30
0.0
 70
   128
 71
   104
 72
    97
 73
    99
  0
VERTEX
  5
AA9
  8
0
 62
     9
 10
0.0
 20
0.0
 30
0.0
 70
   128
 71
   101
 72
   109
 73
   102
  0
VERTEX
  5
AAA
  8
0
 62
     9
 10
0.0
 20
0.0
 30
0.0
 70
   128
 71
   109
 72
   103
 73
   102
  0
VERTEX
  5
AAB
  8
0
 62
     9
 10
0.0
 20
0.0
 30
0.0
 70
   128
 71
   109
 72
   101
 73
   100
  0
SEQEND
  5
AAC
  8
0
 62
     9
  0
ENDBLK
  5
AAF
  8
0
  0
ENDSEC
  0
SECTION
  2
ENTITIES
  0
INSERT
  5
141
  8
LAYER_1
  2
38
 10
0.0
 20
0.0
 30
0.0
  0
INSERT
  5
277
  8
LAYER_1
  2
39
 10
0.0
 20
0.0
 30
0.0
  0
INSERT
  5
363
  8
LAYER_1
  2
SKIN_580
 10
0.0
 20
0.0
 30
0.0
  0
INSERT
  5
44F
  8
LAYER_1
  2
SKIN_580_1_
 10
0.0
 20
0.0
 30
0.0
  0
INSERT
  5
683
  8
LAYER_1
  2
1
 10
0.0
 20
0.0
 30
0.0
  0
INSERT
  5
8B7
  8
LAYER_1
  2
1_1_
 10
0.0
 20
0.0
 30
0.0
  0
INSERT
  5
96D
  8
LAYER_1
  2
44
 10
0.0
 20
0.0
 30
0.0
  0
INSERT
  5
AAD
  8
LAYER_1
  2
45
 10
0.0
 20
0.0
 30
0.0
  0
ENDSEC
  0
EOF
