  0
SECTION
  2
HEADER
  9
$ACADVER
  1
AC1009
  9
$DWGCODEPAGE
  3
ansi_1252
  9
$INSBASE
 10
0.0
 20
0.0
 30
0.0
  9
$EXTMIN
 10
1.000000000000000E+20
 20
1.000000000000000E+20
 30
1.000000000000000E+20
  9
$EXTMAX
 10
-1.000000000000000E+20
 20
-1.000000000000000E+20
 30
-1.000000000000000E+20
  9
$LIMMIN
 10
0.0
 20
0.0
  9
$LIMMAX
 10
12.0
 20
9.0
  9
$ORTHOMODE
 70
     0
  9
$REGENMODE
 70
     1
  9
$FILLMODE
 70
     1
  9
$QTEXTMODE
 70
     0
  9
$MIRRTEXT
 70
     1
  9
$DRAGMODE
 70
     2
  9
$LTSCALE
 40
1.0
  9
$OSMODE
 70
    37
  9
$ATTMODE
 70
     1
  9
$TEXTSIZE
 40
0.2
  9
$TRACEWID
 40
0.05
  9
$TEXTSTYLE
  7
STANDARD
  9
$CLAYER
  8
0
  9
$CELTYPE
  6
BYLAYER
  9
$CECOLOR
 62
   256
  9
$DIMSCALE
 40
1.0
  9
$DIMASZ
 40
0.18
  9
$DIMEXO
 40
0.0625
  9
$DIMDLI
 40
0.38
  9
$DIMRND
 40
0.0
  9
$DIMDLE
 40
0.0
  9
$DIMEXE
 40
0.18
  9
$DIMTP
 40
0.0
  9
$DIMTM
 40
0.0
  9
$DIMTXT
 40
0.18
  9
$DIMCEN
 40
0.09
  9
$DIMTSZ
 40
0.0
  9
$DIMTOL
 70
     0
  9
$DIMLIM
 70
     0
  9
$DIMTIH
 70
     1
  9
$DIMTOH
 70
     1
  9
$DIMSE1
 70
     0
  9
$DIMSE2
 70
     0
  9
$DIMTAD
 70
     0
  9
$DIMZIN
 70
     0
  9
$DIMBLK
  1

  9
$DIMASO
 70
     1
  9
$DIMSHO
 70
     1
  9
$DIMPOST
  1

  9
$DIMAPOST
  1

  9
$DIMALT
 70
     0
  9
$DIMALTD
 70
     2
  9
$DIMALTF
 40
25.4
  9
$DIMLFAC
 40
1.0
  9
$DIMTOFL
 70
     0
  9
$DIMTVP
 40
0.0
  9
$DIMTIX
 70
     0
  9
$DIMSOXD
 70
     0
  9
$DIMSAH
 70
     0
  9
$DIMBLK1
  1

  9
$DIMBLK2
  1

  9
$DIMSTYLE
  2
STANDARD
  9
$DIMCLRD
 70
     0
  9
$DIMCLRE
 70
     0
  9
$DIMCLRT
 70
     0
  9
$DIMTFAC
 40
1.0
  9
$DIMGAP
 40
0.09
  9
$LUNITS
 70
     2
  9
$LUPREC
 70
     4
  9
$SKETCHINC
 40
0.1
  9
$FILLETRAD
 40
0.5
  9
$AUNITS
 70
     0
  9
$AUPREC
 70
     0
  9
$MENU
  1
.
  9
$ELEVATION
 40
0.0
  9
$PELEVATION
 40
0.0
  9
$THICKNESS
 40
0.0
  9
$LIMCHECK
 70
     0
  9
$CHAMFERA
 40
0.5
  9
$CHAMFERB
 40
0.5
  9
$SKPOLY
 70
     0
  9
$TDCREATE
 40
2455614.485862708
  9
$TDUPDATE
 40
2455614.485862708
  9
$TDINDWG
 40
0.0000000116
  9
$TDUSRTIMER
 40
0.0000000116
  9
$USRTIMER
 70
     1
  9
$ANGBASE
 50
0.0
  9
$ANGDIR
 70
     0
  9
$PDMODE
 70
     0
  9
$PDSIZE
 40
0.0
  9
$PLINEWID
 40
0.0
  9
$COORDS
 70
     1
  9
$SPLFRAME
 70
     0
  9
$SPLINETYPE
 70
     6
  9
$SPLINESEGS
 70
     8
  9
$ATTDIA
 70
     0
  9
$ATTREQ
 70
     1
  9
$HANDLING
 70
     1
  9
$HANDSEED
  5
7DC
  9
$SURFTAB1
 70
     6
  9
$SURFTAB2
 70
     6
  9
$SURFTYPE
 70
     6
  9
$SURFU
 70
     6
  9
$SURFV
 70
     6
  9
$UCSNAME
  2

  9
$UCSORG
 10
0.0
 20
0.0
 30
0.0
  9
$UCSXDIR
 10
1.0
 20
0.0
 30
0.0
  9
$UCSYDIR
 10
0.0
 20
1.0
 30
0.0
  9
$PUCSNAME
  2

  9
$PUCSORG
 10
0.0
 20
0.0
 30
0.0
  9
$PUCSXDIR
 10
1.0
 20
0.0
 30
0.0
  9
$PUCSYDIR
 10
0.0
 20
1.0
 30
0.0
  9
$USERI1
 70
     0
  9
$USERI2
 70
     0
  9
$USERI3
 70
     0
  9
$USERI4
 70
     0
  9
$USERI5
 70
     0
  9
$USERR1
 40
0.0
  9
$USERR2
 40
0.0
  9
$USERR3
 40
0.0
  9
$USERR4
 40
0.0
  9
$USERR5
 40
0.0
  9
$WORLDVIEW
 70
     1
  9
$SHADEDGE
 70
     3
  9
$SHADEDIF
 70
    70
  9
$TILEMODE
 70
     1
  9
$MAXACTVP
 70
    64
  9
$PLIMCHECK
 70
     0
  9
$PEXTMIN
 10
1.000000000000000E+20
 20
1.000000000000000E+20
 30
1.000000000000000E+20
  9
$PEXTMAX
 10
-1.000000000000000E+20
 20
-1.000000000000000E+20
 30
-1.000000000000000E+20
  9
$PLIMMIN
 10
0.0
 20
0.0
  9
$PLIMMAX
 10
12.0
 20
9.0
  9
$UNITMODE
 70
     0
  9
$VISRETAIN
 70
     1
  9
$PLINEGEN
 70
     0
  9
$PSLTSCALE
 70
     1
  0
ENDSEC
  0
SECTION
  2
TABLES
  0
TABLE
  2
VPORT
 70
     1
  0
VPORT
  2
*ACTIVE
 70
     0
 10
0.0
 20
0.0
 11
1.0
 21
1.0
 12
0.0
 22
0.0
 13
0.0
 23
0.0
 14
0.5
 24
0.5
 15
0.5
 25
0.5
 16
335.8287353515625
 26
-313.1653747558594
 36
131.6699981689453
 17
0.0
 27
0.0
 37
4.051498413085938
 40
282.4690041913602
 41
1.972972972850329
 42
50.0
 43
0.0
 44
0.0
 50
0.0
 51
0.0
 71
     0
 72
   100
 73
     1
 74
     3
 75
     0
 76
     0
 77
     0
 78
     0
  0
ENDTAB
  0
TABLE
  2
LTYPE
 70
     1
  0
LTYPE
  2
CONTINUOUS
 70
     0
  3
Solid line
 72
    65
 73
     0
 40
0.0
  0
ENDTAB
  0
TABLE
  2
LAYER
 70
     2
  0
LAYER
  2
0
 70
     0
 62
     7
  6
CONTINUOUS
  0
LAYER
  2
LAYER_1
 70
     0
 62
     7
  6
CONTINUOUS
  0
ENDTAB
  0
TABLE
  2
STYLE
 70
     1
  0
STYLE
  2
STANDARD
 70
     0
 40
0.0
 41
1.0
 50
0.0
 71
     0
 42
0.2
  3
txt
  4

  0
ENDTAB
  0
TABLE
  2
VIEW
 70
     0
  0
ENDTAB
  0
TABLE
  2
UCS
 70
     0
  0
ENDTAB
  0
TABLE
  2
APPID
 70
     1
  0
APPID
  2
ACAD
 70
     0
  0
ENDTAB
  0
TABLE
  2
DIMSTYLE
 70
     1
  0
DIMSTYLE
  2
STANDARD
 70
     0
  3

  4

  5

  6

  7

 40
1.0
 41
0.18
 42
0.0625
 43
0.38
 44
0.18
 45
0.0
 46
0.0
 47
0.0
 48
0.0
140
0.18
141
0.09
142
0.0
143
25.4
144
1.0
145
0.0
146
1.0
147
0.09
 71
     0
 72
     0
 73
     1
 74
     1
 75
     0
 76
     0
 77
     0
 78
     0
170
     0
171
     2
172
     0
173
     0
174
     0
175
     0
176
     0
177
     0
178
     0
  0
ENDTAB
  0
ENDSEC
  0
SECTION
  2
BLOCKS
  0
BLOCK
  8
0
  2
$MODEL_SPACE
 70
     0
 10
0.0
 20
0.0
 30
0.0
  3
$MODEL_SPACE
  1

  0
ENDBLK
  5
21
  8
0
  0
BLOCK
 67
     1
  8
0
  2
$PAPER_SPACE
 70
     0
 10
0.0
 20
0.0
 30
0.0
  3
$PAPER_SPACE
  1

  0
ENDBLK
  5
1D
 67
     1
  8
0
  0
BLOCK
  8
0
  2
TASTEN_BREP_
 70
     0
 10
0.0
 20
0.0
 30
0.0
  3
TASTEN_BREP_
  1

  0
POLYLINE
  5
3C
  8
0
 62
    23
 66
     1
 10
0.0
 20
0.0
 30
0.0
 70
    64
 71
    13
 72
    20
  0
VERTEX
  5
3D
  8
0
 10
0.0000001239434511
 20
15.0
 30
8.103005409240723
 70
   192
  0
VERTEX
  5
3E
  8
0
 10
35.0
 20
-20.0
 30
7.703012943267822
 70
   192
  0
VERTEX
  5
3F
  8
0
 10
-0.0002543216687627
 20
-20.0
 30
7.703014373779297
 70
   192
  0
VERTEX
  5
40
  8
0
 10
35.0
 20
14.99974536895752
 30
7.703014373779297
 70
   192
  0
VERTEX
  5
41
  8
0
 10
-35.0
 20
15.0
 30
7.703012943267822
 70
   192
  0
VERTEX
  5
42
  8
0
 10
-35.0
 20
-20.0
 30
7.703012943267822
 70
   192
  0
VERTEX
  5
43
  8
0
 10
0.0002545754541643
 20
50.0
 30
7.703014373779297
 70
   192
  0
VERTEX
  5
44
  8
0
 10
-35.0
 20
50.0
 30
7.703012943267822
 70
   192
  0
VERTEX
  5
45
  8
0
 10
35.0
 20
50.0
 30
7.703012943267822
 70
   192
  0
VERTEX
  5
46
  8
0
 10
-35.0
 20
50.0
 30
1.159999966621399
 70
   192
  0
VERTEX
  5
47
  8
0
 10
35.0
 20
50.0
 30
1.159999966621399
 70
   192
  0
VERTEX
  5
48
  8
0
 10
35.0
 20
-20.0
 30
1.159999966621399
 70
   192
  0
VERTEX
  5
49
  8
0
 10
-35.0
 20
-20.0
 30
1.159999966621399
 70
   192
  0
VERTEX
  5
4A
  8
0
 62
    23
 10
0.0
 20
0.0
 30
0.0
 70
   128
 71
     3
 72
     2
 73
     1
  0
VERTEX
  5
4B
  8
0
 62
    23
 10
0.0
 20
0.0
 30
0.0
 70
   128
 71
     4
 72
     1
 73
     2
  0
VERTEX
  5
4C
  8
0
 62
    23
 10
0.0
 20
0.0
 30
0.0
 70
   128
 71
     6
 72
     3
 73
     5
  0
VERTEX
  5
4D
  8
0
 62
    23
 10
0.0
 20
0.0
 30
0.0
 70
   128
 71
     1
 72
     4
 73
     7
  0
VERTEX
  5
4E
  8
0
 62
    23
 10
0.0
 20
0.0
 30
0.0
 70
   128
 71
     5
 72
     1
 73
     8
  0
VERTEX
  5
4F
  8
0
 62
    23
 10
0.0
 20
0.0
 30
0.0
 70
   128
 71
     9
 72
     7
 73
     4
  0
VERTEX
  5
50
  8
0
 62
    23
 10
0.0
 20
0.0
 30
0.0
 70
   128
 71
     3
 72
     1
 73
     5
  0
VERTEX
  5
51
  8
0
 62
    23
 10
0.0
 20
0.0
 30
0.0
 70
   128
 71
     1
 72
     7
 73
     8
  0
VERTEX
  5
52
  8
0
 62
    23
 10
0.0
 20
0.0
 30
0.0
 70
   128
 71
     7
 72
    11
 73
    10
  0
VERTEX
  5
53
  8
0
 62
    23
 10
0.0
 20
0.0
 30
0.0
 70
   128
 71
     9
 72
    11
 73
     7
  0
VERTEX
  5
54
  8
0
 62
    23
 10
0.0
 20
0.0
 30
0.0
 70
   128
 71
    10
 72
     8
 73
     7
  0
VERTEX
  5
55
  8
0
 62
    23
 10
0.0
 20
0.0
 30
0.0
 70
   128
 71
    12
 72
     2
 73
     3
  0
VERTEX
  5
56
  8
0
 62
    23
 10
0.0
 20
0.0
 30
0.0
 70
   128
 71
    13
 72
    12
 73
     3
  0
VERTEX
  5
57
  8
0
 62
    23
 10
0.0
 20
0.0
 30
0.0
 70
   128
 71
     3
 72
     6
 73
    13
  0
VERTEX
  5
58
  8
0
 62
    23
 10
0.0
 20
0.0
 30
0.0
 70
   128
 71
    10
 72
    13
 73
     5
  0
VERTEX
  5
59
  8
0
 62
    23
 10
0.0
 20
0.0
 30
0.0
 70
   128
 71
    10
 72
     5
 73
     8
  0
VERTEX
  5
5A
  8
0
 62
    23
 10
0.0
 20
0.0
 30
0.0
 70
   128
 71
     6
 72
     5
 73
    13
  0
VERTEX
  5
5B
  8
0
 62
    23
 10
0.0
 20
0.0
 30
0.0
 70
   128
 71
     2
 72
    12
 73
     4
  0
VERTEX
  5
5C
  8
0
 62
    23
 10
0.0
 20
0.0
 30
0.0
 70
   128
 71
    12
 72
    11
 73
     4
  0
VERTEX
  5
5D
  8
0
 62
    23
 10
0.0
 20
0.0
 30
0.0
 70
   128
 71
    11
 72
     9
 73
     4
  0
SEQEND
  5
5E
  8
0
 62
    23
  0
ENDBLK
  5
62
  8
0
  0
BLOCK
  8
0
  2
TASTEN_BREP_0
 70
     0
 10
0.0
 20
0.0
 30
0.0
  3
TASTEN_BREP_0
  1

  0
POLYLINE
  5
64
  8
0
 62
     7
 66
     1
 10
0.0
 20
0.0
 30
0.0
 70
    64
 71
     8
 72
    10
  0
VERTEX
  5
65
  8
0
 10
35.0
 20
-49.84999847412109
 30
7.23819637298584
 70
   192
  0
VERTEX
  5
66
  8
0
 10
-35.0
 20
-20.35000038146973
 30
7.696677684783936
 70
   192
  0
VERTEX
  5
67
  8
0
 10
35.0
 20
-20.35000038146973
 30
7.696677684783936
 70
   192
  0
VERTEX
  5
68
  8
0
 10
-35.0
 20
-49.84999847412109
 30
7.23819637298584
 70
   192
  0
VERTEX
  5
69
  8
0
 10
35.0
 20
-20.35000038146973
 30
1.159999966621399
 70
   192
  0
VERTEX
  5
6A
  8
0
 10
35.0
 20
-49.84999847412109
 30
1.159999966621399
 70
   192
  0
VERTEX
  5
6B
  8
0
 10
-35.0
 20
-20.35000038146973
 30
1.159999966621399
 70
   192
  0
VERTEX
  5
6C
  8
0
 10
-35.0
 20
-49.84999847412109
 30
1.159999966621399
 70
   192
  0
VERTEX
  5
6D
  8
0
 62
     7
 10
0.0
 20
0.0
 30
0.0
 70
   128
 71
     3
 72
     2
 73
     1
  0
VERTEX
  5
6E
  8
0
 62
     7
 10
0.0
 20
0.0
 30
0.0
 70
   128
 71
     2
 72
     4
 73
     1
  0
VERTEX
  5
6F
  8
0
 62
     7
 10
0.0
 20
0.0
 30
0.0
 70
   128
 71
     6
 72
     5
 73
     3
  0
VERTEX
  5
70
  8
0
 62
     7
 10
0.0
 20
0.0
 30
0.0
 70
   128
 71
     3
 72
     1
 73
     6
  0
VERTEX
  5
71
  8
0
 62
     7
 10
0.0
 20
0.0
 30
0.0
 70
   128
 71
     8
 72
     4
 73
     7
  0
VERTEX
  5
72
  8
0
 62
     7
 10
0.0
 20
0.0
 30
0.0
 70
   128
 71
     4
 72
     2
 73
     7
  0
VERTEX
  5
73
  8
0
 62
     7
 10
0.0
 20
0.0
 30
0.0
 70
   128
 71
     2
 72
     3
 73
     5
  0
VERTEX
  5
74
  8
0
 62
     7
 10
0.0
 20
0.0
 30
0.0
 70
   128
 71
     5
 72
     7
 73
     2
  0
VERTEX
  5
75
  8
0
 62
     7
 10
0.0
 20
0.0
 30
0.0
 70
   128
 71
     6
 72
     1
 73
     8
  0
VERTEX
  5
76
  8
0
 62
     7
 10
0.0
 20
0.0
 30
0.0
 70
   128
 71
     1
 72
     4
 73
     8
  0
SEQEND
  5
77
  8
0
 62
     7
  0
ENDBLK
  5
7A
  8
0
  0
BLOCK
  8
0
  2
40
 70
     0
 10
0.0
 20
0.0
 30
0.0
  3
40
  1

  0
POLYLINE
  5
7C
  8
0
 62
     9
 66
     1
 10
0.0
 20
0.0
 30
0.0
 70
    64
 71
   120
 72
   230
  0
VERTEX
  5
7D
  8
0
 10
-40.51891326904297
 20
51.69507217407227
 30
6.199999809265137
 70
   192
  0
VERTEX
  5
7E
  8
0
 10
-39.00468063354492
 20
54.0003547668457
 30
6.199999809265137
 70
   192
  0
VERTEX
  5
7F
  8
0
 10
-38.55659484863281
 20
51.64022827148438
 30
6.199999809265137
 70
   192
  0
VERTEX
  5
80
  8
0
 10
39.19635391235352
 20
-49.1920280456543
 30
6.199999809265137
 70
   192
  0
VERTEX
  5
81
  8
0
 10
40.99635314941406
 20
-49.1920280456543
 30
6.199999809265137
 70
   192
  0
VERTEX
  5
82
  8
0
 10
40.51891326904297
 20
-51.69507217407227
 30
6.199999809265137
 70
   192
  0
VERTEX
  5
83
  8
0
 10
38.55659484863281
 20
-51.64022827148438
 30
6.199999809265137
 70
   192
  0
VERTEX
  5
84
  8
0
 10
39.19635391235352
 20
49.1920280456543
 30
6.199999809265137
 70
   192
  0
VERTEX
  5
85
  8
0
 10
40.99635314941406
 20
-16.39734268188477
 30
6.199999809265137
 70
   192
  0
VERTEX
  5
86
  8
0
 10
34.19635391235352
 20
54.1920280456543
 30
6.199999809265137
 70
   192
  0
VERTEX
  5
87
  8
0
 10
36.69939804077148
 20
55.51459121704102
 30
6.199999809265137
 70
   192
  0
VERTEX
  5
88
  8
0
 10
36.64455413818359
 20
53.55226898193359
 30
6.199999809265137
 70
   192
  0
VERTEX
  5
89
  8
0
 10
34.19635391235352
 20
55.99202728271484
 30
6.199999809265137
 70
   192
  0
VERTEX
  5
8A
  8
0
 10
39.00468063354492
 20
54.0003547668457
 30
6.199999809265137
 70
   192
  0
VERTEX
  5
8B
  8
0
 10
40.51891326904297
 20
51.69507217407227
 30
6.199999809265137
 70
   192
  0
VERTEX
  5
8C
  8
0
 10
38.55780792236328
 20
51.63344955444336
 30
6.199999809265137
 70
   192
  0
VERTEX
  5
8D
  8
0
 10
-39.19635391235352
 20
49.1920280456543
 30
6.199999809265137
 70
   192
  0
VERTEX
  5
8E
  8
0
 10
-40.99635314941406
 20
49.1920280456543
 30
6.199999809265137
 70
   192
  0
VERTEX
  5
8F
  8
0
 10
-34.19635391235352
 20
55.99202728271484
 30
6.199999809265137
 70
   192
  0
VERTEX
  5
90
  8
0
 10
-34.19635391235352
 20
54.1920280456543
 30
6.199999809265137
 70
   192
  0
VERTEX
  5
91
  8
0
 10
-36.69939804077148
 20
55.51459121704102
 30
6.199999809265137
 70
   192
  0
VERTEX
  5
92
  8
0
 10
-40.99635314941406
 20
-16.39734268188477
 30
6.199999809265137
 70
   192
  0
VERTEX
  5
93
  8
0
 10
-40.99635314941406
 20
16.39734268188477
 30
6.199999809265137
 70
   192
  0
VERTEX
  5
94
  8
0
 10
-39.19635391235352
 20
-49.1920280456543
 30
6.199999809265137
 70
   192
  0
VERTEX
  5
95
  8
0
 10
40.99635314941406
 20
16.39734268188477
 30
6.199999809265137
 70
   192
  0
VERTEX
  5
96
  8
0
 10
-34.19635391235352
 20
-55.99202728271484
 30
6.199999809265137
 70
   192
  0
VERTEX
  5
97
  8
0
 10
-36.69939804077148
 20
-55.51459121704102
 30
6.199999809265137
 70
   192
  0
VERTEX
  5
98
  8
0
 10
-34.19635391235352
 20
-54.1920280456543
 30
6.199999809265137
 70
   192
  0
VERTEX
  5
99
  8
0
 10
-36.64455413818359
 20
-53.55226898193359
 30
6.199999809265137
 70
   192
  0
VERTEX
  5
9A
  8
0
 10
-38.55780792236328
 20
-51.63344955444336
 30
6.199999809265137
 70
   192
  0
VERTEX
  5
9B
  8
0
 10
-39.00468063354492
 20
-54.0003547668457
 30
6.199999809265137
 70
   192
  0
VERTEX
  5
9C
  8
0
 10
-40.51891326904297
 20
-51.69507217407227
 30
6.199999809265137
 70
   192
  0
VERTEX
  5
9D
  8
0
 10
34.19635391235352
 20
-55.99202728271484
 30
6.199999809265137
 70
   192
  0
VERTEX
  5
9E
  8
0
 10
0.0
 20
-55.99202728271484
 30
6.199999809265137
 70
   192
  0
VERTEX
  5
9F
  8
0
 10
34.19635391235352
 20
-54.1920280456543
 30
6.199999809265137
 70
   192
  0
VERTEX
  5
A0
  8
0
 10
-40.99635314941406
 20
-49.1920280456543
 30
6.199999809265137
 70
   192
  0
VERTEX
  5
A1
  8
0
 10
-0.0000000000000284
 20
55.99202728271484
 30
6.199999809265137
 70
   192
  0
VERTEX
  5
A2
  8
0
 10
40.99635314941406
 20
49.1920280456543
 30
6.199999809265137
 70
   192
  0
VERTEX
  5
A3
  8
0
 10
36.69939804077148
 20
-55.51459121704102
 30
6.199999809265137
 70
   192
  0
VERTEX
  5
A4
  8
0
 10
36.63777542114258
 20
-53.55348205566406
 30
6.199999809265137
 70
   192
  0
VERTEX
  5
A5
  8
0
 10
39.00468063354492
 20
-54.0003547668457
 30
6.199999809265137
 70
   192
  0
VERTEX
  5
A6
  8
0
 10
-36.63777542114258
 20
53.55348205566406
 30
6.199999809265137
 70
   192
  0
VERTEX
  5
A7
  8
0
 10
-35.72012329101562
 20
49.1920280456543
 30
2.723769903182983
 70
   192
  0
VERTEX
  5
A8
  8
0
 10
-35.72012329101562
 20
-49.1920280456543
 30
2.723769903182983
 70
   192
  0
VERTEX
  5
A9
  8
0
 10
-34.93436050415039
 20
50.52152252197266
 30
2.723769903182983
 70
   192
  0
VERTEX
  5
AA
  8
0
 10
-35.51972961425781
 20
49.94480895996094
 30
2.723769903182983
 70
   192
  0
VERTEX
  5
AB
  8
0
 10
-34.19635391235352
 20
50.71579742431641
 30
2.723769903182983
 70
   192
  0
VERTEX
  5
AC
  8
0
 10
-34.94913482666016
 20
-50.51540374755859
 30
2.723769903182983
 70
   192
  0
VERTEX
  5
AD
  8
0
 10
-34.19635391235352
 20
-50.71579742431641
 30
2.723769903182983
 70
   192
  0
VERTEX
  5
AE
  8
0
 10
-35.52584838867188
 20
-49.93003845214844
 30
2.723769903182983
 70
   192
  0
VERTEX
  5
AF
  8
0
 10
34.19635391235352
 20
50.71579742431641
 30
2.723769903182983
 70
   192
  0
VERTEX
  5
B0
  8
0
 10
34.19635391235352
 20
-50.71579742431641
 30
2.723769903182983
 70
   192
  0
VERTEX
  5
B1
  8
0
 10
35.52584838867188
 20
49.93003845214844
 30
2.723769903182983
 70
   192
  0
VERTEX
  5
B2
  8
0
 10
34.94913482666016
 20
50.51540374755859
 30
2.723769903182983
 70
   192
  0
VERTEX
  5
B3
  8
0
 10
35.72012329101562
 20
49.1920280456543
 30
2.723769903182983
 70
   192
  0
VERTEX
  5
B4
  8
0
 10
35.51972961425781
 20
-49.94480895996094
 30
2.723769903182983
 70
   192
  0
VERTEX
  5
B5
  8
0
 10
35.72012329101562
 20
-49.1920280456543
 30
2.723769903182983
 70
   192
  0
VERTEX
  5
B6
  8
0
 10
34.93436050415039
 20
-50.52152252197266
 30
2.723769903182983
 70
   192
  0
VERTEX
  5
B7
  8
0
 10
41.19635391235352
 20
49.1920280456543
 30
2.0
 70
   192
  0
VERTEX
  5
B8
  8
0
 10
41.19635391235352
 20
-49.1920280456543
 30
2.0
 70
   192
  0
VERTEX
  5
B9
  8
0
 10
41.19635391235352
 20
16.39734268188477
 30
6.0
 70
   192
  0
VERTEX
  5
BA
  8
0
 10
41.19635391235352
 20
49.1920280456543
 30
6.0
 70
   192
  0
VERTEX
  5
BB
  8
0
 10
41.19635391235352
 20
-16.39734268188477
 30
6.0
 70
   192
  0
VERTEX
  5
BC
  8
0
 10
41.19635391235352
 20
-49.1920280456543
 30
6.0
 70
   192
  0
VERTEX
  5
BD
  8
0
 10
36.8751335144043
 20
55.65917205810547
 30
2.0
 70
   192
  0
VERTEX
  5
BE
  8
0
 10
39.14610290527344
 20
54.14177703857422
 30
2.0
 70
   192
  0
VERTEX
  5
BF
  8
0
 10
39.14610290527344
 20
54.14177703857422
 30
6.0
 70
   192
  0
VERTEX
  5
C0
  8
0
 10
36.77301788330078
 20
55.70054626464844
 30
6.0
 70
   192
  0
VERTEX
  5
C1
  8
0
 10
34.19635391235352
 20
56.1920280456543
 30
2.0
 70
   192
  0
VERTEX
  5
C2
  8
0
 10
34.19635391235352
 20
56.1920280456543
 30
6.0
 70
   192
  0
VERTEX
  5
C3
  8
0
 10
40.70487213134766
 20
51.76869201660156
 30
6.0
 70
   192
  0
VERTEX
  5
C4
  8
0
 10
40.66349792480469
 20
51.87080764770508
 30
2.0
 70
   192
  0
VERTEX
  5
C5
  8
0
 10
-34.19635391235352
 20
56.1920280456543
 30
2.0
 70
   192
  0
VERTEX
  5
C6
  8
0
 10
-0.0000000000000284
 20
56.1920280456543
 30
6.0
 70
   192
  0
VERTEX
  5
C7
  8
0
 10
-34.19635391235352
 20
56.1920280456543
 30
6.0
 70
   192
  0
VERTEX
  5
C8
  8
0
 10
-40.66349792480469
 20
51.87080764770508
 30
2.0
 70
   192
  0
VERTEX
  5
C9
  8
0
 10
-39.14610290527344
 20
54.14177703857422
 30
2.0
 70
   192
  0
VERTEX
  5
CA
  8
0
 10
-39.14610290527344
 20
54.14177703857422
 30
6.0
 70
   192
  0
VERTEX
  5
CB
  8
0
 10
-40.70487213134766
 20
51.76869201660156
 30
6.0
 70
   192
  0
VERTEX
  5
CC
  8
0
 10
-41.19635391235352
 20
49.1920280456543
 30
2.0
 70
   192
  0
VERTEX
  5
CD
  8
0
 10
-41.19635391235352
 20
49.1920280456543
 30
6.0
 70
   192
  0
VERTEX
  5
CE
  8
0
 10
-36.77301788330078
 20
55.70054626464844
 30
6.0
 70
   192
  0
VERTEX
  5
CF
  8
0
 10
-36.8751335144043
 20
55.65917205810547
 30
2.0
 70
   192
  0
VERTEX
  5
D0
  8
0
 10
-41.19635391235352
 20
-49.1920280456543
 30
2.0
 70
   192
  0
VERTEX
  5
D1
  8
0
 10
-41.19635391235352
 20
-16.39734268188477
 30
6.0
 70
   192
  0
VERTEX
  5
D2
  8
0
 10
-41.19635391235352
 20
-49.1920280456543
 30
6.0
 70
   192
  0
VERTEX
  5
D3
  8
0
 10
-41.19635391235352
 20
16.39734268188477
 30
6.0
 70
   192
  0
VERTEX
  5
D4
  8
0
 10
-36.8751335144043
 20
-55.65917205810547
 30
2.0
 70
   192
  0
VERTEX
  5
D5
  8
0
 10
-39.14610290527344
 20
-54.14177703857422
 30
2.0
 70
   192
  0
VERTEX
  5
D6
  8
0
 10
-39.14610290527344
 20
-54.14177703857422
 30
6.0
 70
   192
  0
VERTEX
  5
D7
  8
0
 10
-36.77301788330078
 20
-55.70054626464844
 30
6.0
 70
   192
  0
VERTEX
  5
D8
  8
0
 10
-34.19635391235352
 20
-56.1920280456543
 30
2.0
 70
   192
  0
VERTEX
  5
D9
  8
0
 10
-34.19635391235352
 20
-56.1920280456543
 30
6.0
 70
   192
  0
VERTEX
  5
DA
  8
0
 10
-40.70487213134766
 20
-51.76869201660156
 30
6.0
 70
   192
  0
VERTEX
  5
DB
  8
0
 10
-40.66349792480469
 20
-51.87080764770508
 30
2.0
 70
   192
  0
VERTEX
  5
DC
  8
0
 10
34.19635391235352
 20
-56.1920280456543
 30
2.0
 70
   192
  0
VERTEX
  5
DD
  8
0
 10
0.0
 20
-56.1920280456543
 30
6.0
 70
   192
  0
VERTEX
  5
DE
  8
0
 10
34.19635391235352
 20
-56.1920280456543
 30
6.0
 70
   192
  0
VERTEX
  5
DF
  8
0
 10
40.66349792480469
 20
-51.87080764770508
 30
2.0
 70
   192
  0
VERTEX
  5
E0
  8
0
 10
39.14610290527344
 20
-54.14177703857422
 30
2.0
 70
   192
  0
VERTEX
  5
E1
  8
0
 10
39.14610290527344
 20
-54.14177703857422
 30
6.0
 70
   192
  0
VERTEX
  5
E2
  8
0
 10
40.70487213134766
 20
-51.76869201660156
 30
6.0
 70
   192
  0
VERTEX
  5
E3
  8
0
 10
36.77301788330078
 20
-55.70054626464844
 30
6.0
 70
   192
  0
VERTEX
  5
E4
  8
0
 10
36.8751335144043
 20
-55.65917205810547
 30
2.0
 70
   192
  0
VERTEX
  5
E5
  8
0
 10
34.19635391235352
 20
50.7094841003418
 30
2.0
 70
   192
  0
VERTEX
  5
E6
  8
0
 10
-34.19635391235352
 20
50.7094841003418
 30
2.0
 70
   192
  0
VERTEX
  5
E7
  8
0
 10
34.19635391235352
 20
-50.7094841003418
 30
2.0
 70
   192
  0
VERTEX
  5
E8
  8
0
 10
-34.19635391235352
 20
-50.7094841003418
 30
2.0
 70
   192
  0
VERTEX
  5
E9
  8
0
 10
-35.71380996704102
 20
-49.1920280456543
 30
2.0
 70
   192
  0
VERTEX
  5
EA
  8
0
 10
-35.26935577392578
 20
-50.26502990722656
 30
2.0
 70
   192
  0
VERTEX
  5
EB
  8
0
 10
35.26935577392578
 20
-50.26502990722656
 30
2.0
 70
   192
  0
VERTEX
  5
EC
  8
0
 10
35.71380996704102
 20
-49.1920280456543
 30
2.0
 70
   192
  0
VERTEX
  5
ED
  8
0
 10
35.71380996704102
 20
49.1920280456543
 30
2.0
 70
   192
  0
VERTEX
  5
EE
  8
0
 10
35.26935577392578
 20
50.26502990722656
 30
2.0
 70
   192
  0
VERTEX
  5
EF
  8
0
 10
-35.26935577392578
 20
50.26502990722656
 30
2.0
 70
   192
  0
VERTEX
  5
F0
  8
0
 10
-35.71380996704102
 20
49.1920280456543
 30
2.0
 70
   192
  0
VERTEX
  5
F1
  8
0
 10
70.51750183105469
 20
90.96435546875
 30
2.0
 70
   192
  0
VERTEX
  5
F2
  8
0
 10
-72.771484375
 20
90.96435546875
 30
2.0
 70
   192
  0
VERTEX
  5
F3
  8
0
 10
70.51750183105469
 20
-92.57434844970703
 30
2.0
 70
   192
  0
VERTEX
  5
F4
  8
0
 10
-72.771484375
 20
-92.57434844970703
 30
2.0
 70
   192
  0
VERTEX
  5
F5
  8
0
 62
     9
 10
0.0
 20
0.0
 30
0.0
 70
   128
 71
     3
 72
     2
 73
     1
  0
VERTEX
  5
F6
  8
0
 62
     9
 10
0.0
 20
0.0
 30
0.0
 70
   128
 71
     6
 72
     5
 73
     4
  0
VERTEX
  5
F7
  8
0
 62
     9
 10
0.0
 20
0.0
 30
0.0
 70
   128
 71
     4
 72
     7
 73
     6
  0
VERTEX
  5
F8
  8
0
 62
     9
 10
0.0
 20
0.0
 30
0.0
 70
   128
 71
     4
 72
     9
 73
     8
  0
VERTEX
  5
F9
  8
0
 62
     9
 10
0.0
 20
0.0
 30
0.0
 70
   128
 71
    12
 72
    11
 73
    10
  0
VERTEX
  5
FA
  8
0
 62
     9
 10
0.0
 20
0.0
 30
0.0
 70
   128
 71
    10
 72
    11
 73
    13
  0
VERTEX
  5
FB
  8
0
 62
     9
 10
0.0
 20
0.0
 30
0.0
 70
   128
 71
    16
 72
    15
 73
    14
  0
VERTEX
  5
FC
  8
0
 62
     9
 10
0.0
 20
0.0
 30
0.0
 70
   128
 71
    18
 72
    17
 73
     1
  0
VERTEX
  5
FD
  8
0
 62
     9
 10
0.0
 20
0.0
 30
0.0
 70
   128
 71
    21
 72
    20
 73
    19
  0
VERTEX
  5
FE
  8
0
 62
     9
 10
0.0
 20
0.0
 30
0.0
 70
   128
 71
     3
 72
     1
 73
    17
  0
VERTEX
  5
FF
  8
0
 62
     9
 10
0.0
 20
0.0
 30
0.0
 70
   128
 71
    24
 72
    23
 73
    22
  0
VERTEX
  5
100
  8
0
 62
     9
 10
0.0
 20
0.0
 30
0.0
 70
   128
 71
    23
 72
    17
 73
    18
  0
VERTEX
  5
101
  8
0
 62
     9
 10
0.0
 20
0.0
 30
0.0
 70
   128
 71
     8
 72
     9
 73
    25
  0
VERTEX
  5
102
  8
0
 62
     9
 10
0.0
 20
0.0
 30
0.0
 70
   128
 71
    28
 72
    27
 73
    26
  0
VERTEX
  5
103
  8
0
 62
     9
 10
0.0
 20
0.0
 30
0.0
 70
   128
 71
    28
 72
    29
 73
    27
  0
VERTEX
  5
104
  8
0
 62
     9
 10
0.0
 20
0.0
 30
0.0
 70
   128
 71
    32
 72
    31
 73
    30
  0
VERTEX
  5
105
  8
0
 62
     9
 10
0.0
 20
0.0
 30
0.0
 70
   128
 71
    35
 72
    34
 73
    33
  0
VERTEX
  5
106
  8
0
 62
     9
 10
0.0
 20
0.0
 30
0.0
 70
   128
 71
    36
 72
    32
 73
    24
  0
VERTEX
  5
107
  8
0
 62
     9
 10
0.0
 20
0.0
 30
0.0
 70
   128
 71
    20
 72
    10
 73
    37
  0
VERTEX
  5
108
  8
0
 62
     9
 10
0.0
 20
0.0
 30
0.0
 70
   128
 71
    37
 72
    10
 73
    13
  0
VERTEX
  5
109
  8
0
 62
     9
 10
0.0
 20
0.0
 30
0.0
 70
   128
 71
    12
 72
    16
 73
    14
  0
VERTEX
  5
10A
  8
0
 62
     9
 10
0.0
 20
0.0
 30
0.0
 70
   128
 71
    12
 72
    14
 73
    11
  0
VERTEX
  5
10B
  8
0
 62
     9
 10
0.0
 20
0.0
 30
0.0
 70
   128
 71
    16
 72
     8
 73
    15
  0
VERTEX
  5
10C
  8
0
 62
     9
 10
0.0
 20
0.0
 30
0.0
 70
   128
 71
    38
 72
     8
 73
    25
  0
VERTEX
  5
10D
  8
0
 62
     9
 10
0.0
 20
0.0
 30
0.0
 70
   128
 71
    38
 72
    15
 73
     8
  0
VERTEX
  5
10E
  8
0
 62
     9
 10
0.0
 20
0.0
 30
0.0
 70
   128
 71
    41
 72
    40
 73
    39
  0
VERTEX
  5
10F
  8
0
 62
     9
 10
0.0
 20
0.0
 30
0.0
 70
   128
 71
     9
 72
     4
 73
     5
  0
VERTEX
  5
110
  8
0
 62
     9
 10
0.0
 20
0.0
 30
0.0
 70
   128
 71
     7
 72
    40
 73
    41
  0
VERTEX
  5
111
  8
0
 62
     9
 10
0.0
 20
0.0
 30
0.0
 70
   128
 71
     7
 72
    41
 73
     6
  0
VERTEX
  5
112
  8
0
 62
     9
 10
0.0
 20
0.0
 30
0.0
 70
   128
 71
    40
 72
    35
 73
    39
  0
VERTEX
  5
113
  8
0
 62
     9
 10
0.0
 20
0.0
 30
0.0
 70
   128
 71
    33
 72
    39
 73
    35
  0
VERTEX
  5
114
  8
0
 62
     9
 10
0.0
 20
0.0
 30
0.0
 70
   128
 71
    34
 72
    28
 73
    26
  0
VERTEX
  5
115
  8
0
 62
     9
 10
0.0
 20
0.0
 30
0.0
 70
   128
 71
    28
 72
    34
 73
    35
  0
VERTEX
  5
116
  8
0
 62
     9
 10
0.0
 20
0.0
 30
0.0
 70
   128
 71
    29
 72
    30
 73
    31
  0
VERTEX
  5
117
  8
0
 62
     9
 10
0.0
 20
0.0
 30
0.0
 70
   128
 71
    29
 72
    31
 73
    27
  0
VERTEX
  5
118
  8
0
 62
     9
 10
0.0
 20
0.0
 30
0.0
 70
   128
 71
    30
 72
    24
 73
    32
  0
VERTEX
  5
119
  8
0
 62
     9
 10
0.0
 20
0.0
 30
0.0
 70
   128
 71
    36
 72
    24
 73
    22
  0
VERTEX
  5
11A
  8
0
 62
     9
 10
0.0
 20
0.0
 30
0.0
 70
   128
 71
    23
 72
    24
 73
    17
  0
VERTEX
  5
11B
  8
0
 62
     9
 10
0.0
 20
0.0
 30
0.0
 70
   128
 71
     2
 72
    42
 73
    21
  0
VERTEX
  5
11C
  8
0
 62
     9
 10
0.0
 20
0.0
 30
0.0
 70
   128
 71
     3
 72
    42
 73
     2
  0
VERTEX
  5
11D
  8
0
 62
     9
 10
0.0
 20
0.0
 30
0.0
 70
   128
 71
    42
 72
    20
 73
    21
  0
VERTEX
  5
11E
  8
0
 62
     9
 10
0.0
 20
0.0
 30
0.0
 70
   128
 71
    19
 72
    20
 73
    37
  0
VERTEX
  5
11F
  8
0
 62
     9
 10
0.0
 20
0.0
 30
0.0
 70
   128
 71
    44
 72
    43
 73
    17
  0
VERTEX
  5
120
  8
0
 62
     9
 10
0.0
 20
0.0
 30
0.0
 70
   128
 71
    17
 72
    24
 73
    44
  0
VERTEX
  5
121
  8
0
 62
     9
 10
0.0
 20
0.0
 30
0.0
 70
   128
 71
    42
 72
     3
 73
    45
  0
VERTEX
  5
122
  8
0
 62
     9
 10
0.0
 20
0.0
 30
0.0
 70
   128
 71
    43
 72
    46
 73
    17
  0
VERTEX
  5
123
  8
0
 62
     9
 10
0.0
 20
0.0
 30
0.0
 70
   128
 71
    45
 72
     3
 73
    46
  0
VERTEX
  5
124
  8
0
 62
     9
 10
0.0
 20
0.0
 30
0.0
 70
   128
 71
    20
 72
    42
 73
    47
  0
VERTEX
  5
125
  8
0
 62
     9
 10
0.0
 20
0.0
 30
0.0
 70
   128
 71
    42
 72
    45
 73
    47
  0
VERTEX
  5
126
  8
0
 62
     9
 10
0.0
 20
0.0
 30
0.0
 70
   128
 71
    46
 72
     3
 73
    17
  0
VERTEX
  5
127
  8
0
 62
     9
 10
0.0
 20
0.0
 30
0.0
 70
   128
 71
    44
 72
    24
 73
    30
  0
VERTEX
  5
128
  8
0
 62
     9
 10
0.0
 20
0.0
 30
0.0
 70
   128
 71
    49
 72
    48
 73
    28
  0
VERTEX
  5
129
  8
0
 62
     9
 10
0.0
 20
0.0
 30
0.0
 70
   128
 71
    48
 72
    50
 73
    29
  0
VERTEX
  5
12A
  8
0
 62
     9
 10
0.0
 20
0.0
 30
0.0
 70
   128
 71
    29
 72
    50
 73
    30
  0
VERTEX
  5
12B
  8
0
 62
     9
 10
0.0
 20
0.0
 30
0.0
 70
   128
 71
    48
 72
    29
 73
    28
  0
VERTEX
  5
12C
  8
0
 62
     9
 10
0.0
 20
0.0
 30
0.0
 70
   128
 71
    30
 72
    50
 73
    44
  0
VERTEX
  5
12D
  8
0
 62
     9
 10
0.0
 20
0.0
 30
0.0
 70
   128
 71
    47
 72
    51
 73
    10
  0
VERTEX
  5
12E
  8
0
 62
     9
 10
0.0
 20
0.0
 30
0.0
 70
   128
 71
    10
 72
    20
 73
    47
  0
VERTEX
  5
12F
  8
0
 62
     9
 10
0.0
 20
0.0
 30
0.0
 70
   128
 71
    52
 72
    49
 73
    28
  0
VERTEX
  5
130
  8
0
 62
     9
 10
0.0
 20
0.0
 30
0.0
 70
   128
 71
    28
 72
    35
 73
    52
  0
VERTEX
  5
131
  8
0
 62
     9
 10
0.0
 20
0.0
 30
0.0
 70
   128
 71
    16
 72
    12
 73
    53
  0
VERTEX
  5
132
  8
0
 62
     9
 10
0.0
 20
0.0
 30
0.0
 70
   128
 71
    51
 72
    54
 73
    10
  0
VERTEX
  5
133
  8
0
 62
     9
 10
0.0
 20
0.0
 30
0.0
 70
   128
 71
    53
 72
    12
 73
    54
  0
VERTEX
  5
134
  8
0
 62
     9
 10
0.0
 20
0.0
 30
0.0
 70
   128
 71
     8
 72
    16
 73
    55
  0
VERTEX
  5
135
  8
0
 62
     9
 10
0.0
 20
0.0
 30
0.0
 70
   128
 71
    16
 72
    53
 73
    55
  0
VERTEX
  5
136
  8
0
 62
     9
 10
0.0
 20
0.0
 30
0.0
 70
   128
 71
    54
 72
    12
 73
    10
  0
VERTEX
  5
137
  8
0
 62
     9
 10
0.0
 20
0.0
 30
0.0
 70
   128
 71
    52
 72
    35
 73
    40
  0
VERTEX
  5
138
  8
0
 62
     9
 10
0.0
 20
0.0
 30
0.0
 70
   128
 71
    57
 72
    56
 73
     4
  0
VERTEX
  5
139
  8
0
 62
     9
 10
0.0
 20
0.0
 30
0.0
 70
   128
 71
    56
 72
    58
 73
     7
  0
VERTEX
  5
13A
  8
0
 62
     9
 10
0.0
 20
0.0
 30
0.0
 70
   128
 71
     7
 72
    58
 73
    40
  0
VERTEX
  5
13B
  8
0
 62
     9
 10
0.0
 20
0.0
 30
0.0
 70
   128
 71
    56
 72
     7
 73
     4
  0
VERTEX
  5
13C
  8
0
 62
     9
 10
0.0
 20
0.0
 30
0.0
 70
   128
 71
    40
 72
    58
 73
    52
  0
VERTEX
  5
13D
  8
0
 62
     9
 10
0.0
 20
0.0
 30
0.0
 70
   128
 71
    57
 72
     4
 73
    55
  0
VERTEX
  5
13E
  8
0
 62
     9
 10
0.0
 20
0.0
 30
0.0
 70
   128
 71
     4
 72
     8
 73
    55
  0
VERTEX
  5
13F
  8
0
 62
     9
 10
0.0
 20
0.0
 30
0.0
 70
   128
 71
    61
 72
    60
 73
    59
  0
VERTEX
  5
140
  8
0
 62
     9
 10
0.0
 20
0.0
 30
0.0
 70
   128
 71
    59
 72
    62
 73
    61
  0
VERTEX
  5
141
  8
0
 62
     9
 10
0.0
 20
0.0
 30
0.0
 70
   128
 71
    63
 72
    60
 73
    61
  0
VERTEX
  5
142
  8
0
 62
     9
 10
0.0
 20
0.0
 30
0.0
 70
   128
 71
    64
 72
    60
 73
    63
  0
VERTEX
  5
143
  8
0
 62
     9
 10
0.0
 20
0.0
 30
0.0
 70
   128
 71
    67
 72
    66
 73
    65
  0
VERTEX
  5
144
  8
0
 62
     9
 10
0.0
 20
0.0
 30
0.0
 70
   128
 71
    69
 72
    68
 73
    65
  0
VERTEX
  5
145
  8
0
 62
     9
 10
0.0
 20
0.0
 30
0.0
 70
   128
 71
    67
 72
    65
 73
    68
  0
VERTEX
  5
146
  8
0
 62
     9
 10
0.0
 20
0.0
 30
0.0
 70
   128
 71
    70
 72
    68
 73
    69
  0
VERTEX
  5
147
  8
0
 62
     9
 10
0.0
 20
0.0
 30
0.0
 70
   128
 71
    66
 72
    67
 73
    71
  0
VERTEX
  5
148
  8
0
 62
     9
 10
0.0
 20
0.0
 30
0.0
 70
   128
 71
    71
 72
    62
 73
    72
  0
VERTEX
  5
149
  8
0
 62
     9
 10
0.0
 20
0.0
 30
0.0
 70
   128
 71
    72
 72
    66
 73
    71
  0
VERTEX
  5
14A
  8
0
 62
     9
 10
0.0
 20
0.0
 30
0.0
 70
   128
 71
    62
 72
    59
 73
    72
  0
VERTEX
  5
14B
  8
0
 62
     9
 10
0.0
 20
0.0
 30
0.0
 70
   128
 71
    75
 72
    74
 73
    73
  0
VERTEX
  5
14C
  8
0
 62
     9
 10
0.0
 20
0.0
 30
0.0
 70
   128
 71
    74
 72
    69
 73
    73
  0
VERTEX
  5
14D
  8
0
 62
     9
 10
0.0
 20
0.0
 30
0.0
 70
   128
 71
    74
 72
    70
 73
    69
  0
VERTEX
  5
14E
  8
0
 62
     9
 10
0.0
 20
0.0
 30
0.0
 70
   128
 71
    78
 72
    77
 73
    76
  0
VERTEX
  5
14F
  8
0
 62
     9
 10
0.0
 20
0.0
 30
0.0
 70
   128
 71
    80
 72
    79
 73
    76
  0
VERTEX
  5
150
  8
0
 62
     9
 10
0.0
 20
0.0
 30
0.0
 70
   128
 71
    78
 72
    76
 73
    79
  0
VERTEX
  5
151
  8
0
 62
     9
 10
0.0
 20
0.0
 30
0.0
 70
   128
 71
    81
 72
    79
 73
    80
  0
VERTEX
  5
152
  8
0
 62
     9
 10
0.0
 20
0.0
 30
0.0
 70
   128
 71
    77
 72
    78
 73
    82
  0
VERTEX
  5
153
  8
0
 62
     9
 10
0.0
 20
0.0
 30
0.0
 70
   128
 71
    82
 72
    75
 73
    83
  0
VERTEX
  5
154
  8
0
 62
     9
 10
0.0
 20
0.0
 30
0.0
 70
   128
 71
    83
 72
    77
 73
    82
  0
VERTEX
  5
155
  8
0
 62
     9
 10
0.0
 20
0.0
 30
0.0
 70
   128
 71
    75
 72
    73
 73
    83
  0
VERTEX
  5
156
  8
0
 62
     9
 10
0.0
 20
0.0
 30
0.0
 70
   128
 71
    85
 72
    80
 73
    84
  0
VERTEX
  5
157
  8
0
 62
     9
 10
0.0
 20
0.0
 30
0.0
 70
   128
 71
    84
 72
    86
 73
    85
  0
VERTEX
  5
158
  8
0
 62
     9
 10
0.0
 20
0.0
 30
0.0
 70
   128
 71
    87
 72
    80
 73
    85
  0
VERTEX
  5
159
  8
0
 62
     9
 10
0.0
 20
0.0
 30
0.0
 70
   128
 71
    81
 72
    80
 73
    87
  0
VERTEX
  5
15A
  8
0
 62
     9
 10
0.0
 20
0.0
 30
0.0
 70
   128
 71
    90
 72
    89
 73
    88
  0
VERTEX
  5
15B
  8
0
 62
     9
 10
0.0
 20
0.0
 30
0.0
 70
   128
 71
    92
 72
    91
 73
    88
  0
VERTEX
  5
15C
  8
0
 62
     9
 10
0.0
 20
0.0
 30
0.0
 70
   128
 71
    90
 72
    88
 73
    91
  0
VERTEX
  5
15D
  8
0
 62
     9
 10
0.0
 20
0.0
 30
0.0
 70
   128
 71
    93
 72
    91
 73
    92
  0
VERTEX
  5
15E
  8
0
 62
     9
 10
0.0
 20
0.0
 30
0.0
 70
   128
 71
    89
 72
    90
 73
    94
  0
VERTEX
  5
15F
  8
0
 62
     9
 10
0.0
 20
0.0
 30
0.0
 70
   128
 71
    94
 72
    86
 73
    95
  0
VERTEX
  5
160
  8
0
 62
     9
 10
0.0
 20
0.0
 30
0.0
 70
   128
 71
    95
 72
    89
 73
    94
  0
VERTEX
  5
161
  8
0
 62
     9
 10
0.0
 20
0.0
 30
0.0
 70
   128
 71
    86
 72
    84
 73
    95
  0
VERTEX
  5
162
  8
0
 62
     9
 10
0.0
 20
0.0
 30
0.0
 70
   128
 71
    98
 72
    97
 73
    96
  0
VERTEX
  5
163
  8
0
 62
     9
 10
0.0
 20
0.0
 30
0.0
 70
   128
 71
    97
 72
    92
 73
    96
  0
VERTEX
  5
164
  8
0
 62
     9
 10
0.0
 20
0.0
 30
0.0
 70
   128
 71
    97
 72
    93
 73
    92
  0
VERTEX
  5
165
  8
0
 62
     9
 10
0.0
 20
0.0
 30
0.0
 70
   128
 71
   101
 72
   100
 73
    99
  0
VERTEX
  5
166
  8
0
 62
     9
 10
0.0
 20
0.0
 30
0.0
 70
   128
 71
    60
 72
   102
 73
    99
  0
VERTEX
  5
167
  8
0
 62
     9
 10
0.0
 20
0.0
 30
0.0
 70
   128
 71
   101
 72
    99
 73
   102
  0
VERTEX
  5
168
  8
0
 62
     9
 10
0.0
 20
0.0
 30
0.0
 70
   128
 71
    64
 72
   102
 73
    60
  0
VERTEX
  5
169
  8
0
 62
     9
 10
0.0
 20
0.0
 30
0.0
 70
   128
 71
   100
 72
   101
 73
   103
  0
VERTEX
  5
16A
  8
0
 62
     9
 10
0.0
 20
0.0
 30
0.0
 70
   128
 71
   103
 72
    98
 73
   104
  0
VERTEX
  5
16B
  8
0
 62
     9
 10
0.0
 20
0.0
 30
0.0
 70
   128
 71
   104
 72
   100
 73
   103
  0
VERTEX
  5
16C
  8
0
 62
     9
 10
0.0
 20
0.0
 30
0.0
 70
   128
 71
    98
 72
    96
 73
   104
  0
VERTEX
  5
16D
  8
0
 62
     9
 10
0.0
 20
0.0
 30
0.0
 70
   128
 71
    36
 72
    22
 73
    85
  0
VERTEX
  5
16E
  8
0
 62
     9
 10
0.0
 20
0.0
 30
0.0
 70
   128
 71
    81
 72
    87
 73
    23
  0
VERTEX
  5
16F
  8
0
 62
     9
 10
0.0
 20
0.0
 30
0.0
 70
   128
 71
    18
 72
    81
 73
    23
  0
VERTEX
  5
170
  8
0
 62
     9
 10
0.0
 20
0.0
 30
0.0
 70
   128
 71
    85
 72
    86
 73
    36
  0
VERTEX
  5
171
  8
0
 62
     9
 10
0.0
 20
0.0
 30
0.0
 70
   128
 71
    87
 72
    22
 73
    23
  0
VERTEX
  5
172
  8
0
 62
     9
 10
0.0
 20
0.0
 30
0.0
 70
   128
 71
    87
 72
    85
 73
    22
  0
VERTEX
  5
173
  8
0
 62
     9
 10
0.0
 20
0.0
 30
0.0
 70
   128
 71
    18
 72
     1
 73
    79
  0
VERTEX
  5
174
  8
0
 62
     9
 10
0.0
 20
0.0
 30
0.0
 70
   128
 71
    82
 72
    78
 73
     2
  0
VERTEX
  5
175
  8
0
 62
     9
 10
0.0
 20
0.0
 30
0.0
 70
   128
 71
    75
 72
    21
 73
    19
  0
VERTEX
  5
176
  8
0
 62
     9
 10
0.0
 20
0.0
 30
0.0
 70
   128
 71
    75
 72
    82
 73
    21
  0
VERTEX
  5
177
  8
0
 62
     9
 10
0.0
 20
0.0
 30
0.0
 70
   128
 71
     2
 72
    21
 73
    82
  0
VERTEX
  5
178
  8
0
 62
     9
 10
0.0
 20
0.0
 30
0.0
 70
   128
 71
     1
 72
     2
 73
    78
  0
VERTEX
  5
179
  8
0
 62
     9
 10
0.0
 20
0.0
 30
0.0
 70
   128
 71
    79
 72
    81
 73
    18
  0
VERTEX
  5
17A
  8
0
 62
     9
 10
0.0
 20
0.0
 30
0.0
 70
   128
 71
    78
 72
    79
 73
     1
  0
VERTEX
  5
17B
  8
0
 62
     9
 10
0.0
 20
0.0
 30
0.0
 70
   128
 71
    94
 72
    32
 73
    86
  0
VERTEX
  5
17C
  8
0
 62
     9
 10
0.0
 20
0.0
 30
0.0
 70
   128
 71
    26
 72
    27
 73
    91
  0
VERTEX
  5
17D
  8
0
 62
     9
 10
0.0
 20
0.0
 30
0.0
 70
   128
 71
    31
 72
    90
 73
    27
  0
VERTEX
  5
17E
  8
0
 62
     9
 10
0.0
 20
0.0
 30
0.0
 70
   128
 71
    26
 72
    91
 73
    93
  0
VERTEX
  5
17F
  8
0
 62
     9
 10
0.0
 20
0.0
 30
0.0
 70
   128
 71
    91
 72
    27
 73
    90
  0
VERTEX
  5
180
  8
0
 62
     9
 10
0.0
 20
0.0
 30
0.0
 70
   128
 71
    94
 72
    90
 73
    31
  0
VERTEX
  5
181
  8
0
 62
     9
 10
0.0
 20
0.0
 30
0.0
 70
   128
 71
    32
 72
    36
 73
    86
  0
VERTEX
  5
182
  8
0
 62
     9
 10
0.0
 20
0.0
 30
0.0
 70
   128
 71
    31
 72
    32
 73
    94
  0
VERTEX
  5
183
  8
0
 62
     9
 10
0.0
 20
0.0
 30
0.0
 70
   128
 71
    19
 72
    37
 73
    74
  0
VERTEX
  5
184
  8
0
 62
     9
 10
0.0
 20
0.0
 30
0.0
 70
   128
 71
    13
 72
    70
 73
    37
  0
VERTEX
  5
185
  8
0
 62
     9
 10
0.0
 20
0.0
 30
0.0
 70
   128
 71
    70
 72
    74
 73
    37
  0
VERTEX
  5
186
  8
0
 62
     9
 10
0.0
 20
0.0
 30
0.0
 70
   128
 71
    74
 72
    75
 73
    19
  0
VERTEX
  5
187
  8
0
 62
     9
 10
0.0
 20
0.0
 30
0.0
 70
   128
 71
    97
 72
    34
 73
    93
  0
VERTEX
  5
188
  8
0
 62
     9
 10
0.0
 20
0.0
 30
0.0
 70
   128
 71
    33
 72
    97
 73
    98
  0
VERTEX
  5
189
  8
0
 62
     9
 10
0.0
 20
0.0
 30
0.0
 70
   128
 71
    34
 72
    26
 73
    93
  0
VERTEX
  5
18A
  8
0
 62
     9
 10
0.0
 20
0.0
 30
0.0
 70
   128
 71
    33
 72
    34
 73
    97
  0
VERTEX
  5
18B
  8
0
 62
     9
 10
0.0
 20
0.0
 30
0.0
 70
   128
 71
    13
 72
    11
 73
    68
  0
VERTEX
  5
18C
  8
0
 62
     9
 10
0.0
 20
0.0
 30
0.0
 70
   128
 71
    71
 72
    67
 73
    14
  0
VERTEX
  5
18D
  8
0
 62
     9
 10
0.0
 20
0.0
 30
0.0
 70
   128
 71
    62
 72
    15
 73
    38
  0
VERTEX
  5
18E
  8
0
 62
     9
 10
0.0
 20
0.0
 30
0.0
 70
   128
 71
    62
 72
    71
 73
    15
  0
VERTEX
  5
18F
  8
0
 62
     9
 10
0.0
 20
0.0
 30
0.0
 70
   128
 71
    14
 72
    15
 73
    71
  0
VERTEX
  5
190
  8
0
 62
     9
 10
0.0
 20
0.0
 30
0.0
 70
   128
 71
    11
 72
    14
 73
    67
  0
VERTEX
  5
191
  8
0
 62
     9
 10
0.0
 20
0.0
 30
0.0
 70
   128
 71
    68
 72
    70
 73
    13
  0
VERTEX
  5
192
  8
0
 62
     9
 10
0.0
 20
0.0
 30
0.0
 70
   128
 71
    67
 72
    68
 73
    11
  0
VERTEX
  5
193
  8
0
 62
     9
 10
0.0
 20
0.0
 30
0.0
 70
   128
 71
   103
 72
    39
 73
    98
  0
VERTEX
  5
194
  8
0
 62
     9
 10
0.0
 20
0.0
 30
0.0
 70
   128
 71
     5
 72
     6
 73
   102
  0
VERTEX
  5
195
  8
0
 62
     9
 10
0.0
 20
0.0
 30
0.0
 70
   128
 71
    41
 72
   101
 73
     6
  0
VERTEX
  5
196
  8
0
 62
     9
 10
0.0
 20
0.0
 30
0.0
 70
   128
 71
     5
 72
   102
 73
    64
  0
VERTEX
  5
197
  8
0
 62
     9
 10
0.0
 20
0.0
 30
0.0
 70
   128
 71
   102
 72
     6
 73
   101
  0
VERTEX
  5
198
  8
0
 62
     9
 10
0.0
 20
0.0
 30
0.0
 70
   128
 71
   103
 72
   101
 73
    41
  0
VERTEX
  5
199
  8
0
 62
     9
 10
0.0
 20
0.0
 30
0.0
 70
   128
 71
    39
 72
    33
 73
    98
  0
VERTEX
  5
19A
  8
0
 62
     9
 10
0.0
 20
0.0
 30
0.0
 70
   128
 71
    41
 72
    39
 73
   103
  0
VERTEX
  5
19B
  8
0
 62
     9
 10
0.0
 20
0.0
 30
0.0
 70
   128
 71
    38
 72
    25
 73
    61
  0
VERTEX
  5
19C
  8
0
 62
     9
 10
0.0
 20
0.0
 30
0.0
 70
   128
 71
    64
 72
    63
 73
     9
  0
VERTEX
  5
19D
  8
0
 62
     9
 10
0.0
 20
0.0
 30
0.0
 70
   128
 71
     5
 72
    64
 73
     9
  0
VERTEX
  5
19E
  8
0
 62
     9
 10
0.0
 20
0.0
 30
0.0
 70
   128
 71
    61
 72
    62
 73
    38
  0
VERTEX
  5
19F
  8
0
 62
     9
 10
0.0
 20
0.0
 30
0.0
 70
   128
 71
    63
 72
    25
 73
     9
  0
VERTEX
  5
1A0
  8
0
 62
     9
 10
0.0
 20
0.0
 30
0.0
 70
   128
 71
    63
 72
    61
 73
    25
  0
VERTEX
  5
1A1
  8
0
 62
     9
 10
0.0
 20
0.0
 30
0.0
 70
   128
 71
   106
 72
   105
 73
    51
  0
VERTEX
  5
1A2
  8
0
 62
     9
 10
0.0
 20
0.0
 30
0.0
 70
   128
 71
    51
 72
    47
 73
   106
  0
VERTEX
  5
1A3
  8
0
 62
     9
 10
0.0
 20
0.0
 30
0.0
 70
   128
 71
   108
 72
    49
 73
   107
  0
VERTEX
  5
1A4
  8
0
 62
     9
 10
0.0
 20
0.0
 30
0.0
 70
   128
 71
    49
 72
    52
 73
   107
  0
VERTEX
  5
1A5
  8
0
 62
     9
 10
0.0
 20
0.0
 30
0.0
 70
   128
 71
    50
 72
   110
 73
   109
  0
VERTEX
  5
1A6
  8
0
 62
     9
 10
0.0
 20
0.0
 30
0.0
 70
   128
 71
    50
 72
   109
 73
    44
  0
VERTEX
  5
1A7
  8
0
 62
     9
 10
0.0
 20
0.0
 30
0.0
 70
   128
 71
   110
 72
    50
 73
    48
  0
VERTEX
  5
1A8
  8
0
 62
     9
 10
0.0
 20
0.0
 30
0.0
 70
   128
 71
    48
 72
   108
 73
   110
  0
VERTEX
  5
1A9
  8
0
 62
     9
 10
0.0
 20
0.0
 30
0.0
 70
   128
 71
    48
 72
    49
 73
   108
  0
VERTEX
  5
1AA
  8
0
 62
     9
 10
0.0
 20
0.0
 30
0.0
 70
   128
 71
    58
 72
   111
 73
   107
  0
VERTEX
  5
1AB
  8
0
 62
     9
 10
0.0
 20
0.0
 30
0.0
 70
   128
 71
    58
 72
   107
 73
    52
  0
VERTEX
  5
1AC
  8
0
 62
     9
 10
0.0
 20
0.0
 30
0.0
 70
   128
 71
   111
 72
    58
 73
    56
  0
VERTEX
  5
1AD
  8
0
 62
     9
 10
0.0
 20
0.0
 30
0.0
 70
   128
 71
    56
 72
   112
 73
   111
  0
VERTEX
  5
1AE
  8
0
 62
     9
 10
0.0
 20
0.0
 30
0.0
 70
   128
 71
    56
 72
    57
 73
   112
  0
VERTEX
  5
1AF
  8
0
 62
     9
 10
0.0
 20
0.0
 30
0.0
 70
   128
 71
    53
 72
   114
 73
   113
  0
VERTEX
  5
1B0
  8
0
 62
     9
 10
0.0
 20
0.0
 30
0.0
 70
   128
 71
    53
 72
   113
 73
    55
  0
VERTEX
  5
1B1
  8
0
 62
     9
 10
0.0
 20
0.0
 30
0.0
 70
   128
 71
   114
 72
    53
 73
    54
  0
VERTEX
  5
1B2
  8
0
 62
     9
 10
0.0
 20
0.0
 30
0.0
 70
   128
 71
    54
 72
   105
 73
   114
  0
VERTEX
  5
1B3
  8
0
 62
     9
 10
0.0
 20
0.0
 30
0.0
 70
   128
 71
    54
 72
    51
 73
   105
  0
VERTEX
  5
1B4
  8
0
 62
     9
 10
0.0
 20
0.0
 30
0.0
 70
   128
 71
    45
 72
   115
 73
   106
  0
VERTEX
  5
1B5
  8
0
 62
     9
 10
0.0
 20
0.0
 30
0.0
 70
   128
 71
    45
 72
   106
 73
    47
  0
VERTEX
  5
1B6
  8
0
 62
     9
 10
0.0
 20
0.0
 30
0.0
 70
   128
 71
   115
 72
    45
 73
    46
  0
VERTEX
  5
1B7
  8
0
 62
     9
 10
0.0
 20
0.0
 30
0.0
 70
   128
 71
    46
 72
   116
 73
   115
  0
VERTEX
  5
1B8
  8
0
 62
     9
 10
0.0
 20
0.0
 30
0.0
 70
   128
 71
    46
 72
    43
 73
   116
  0
VERTEX
  5
1B9
  8
0
 62
     9
 10
0.0
 20
0.0
 30
0.0
 70
   128
 71
    60
 72
   117
 73
    59
  0
VERTEX
  5
1BA
  8
0
 62
     9
 10
0.0
 20
0.0
 30
0.0
 70
   128
 71
   117
 72
   118
 73
    73
  0
VERTEX
  5
1BB
  8
0
 62
     9
 10
0.0
 20
0.0
 30
0.0
 70
   128
 71
   117
 72
    65
 73
    66
  0
VERTEX
  5
1BC
  8
0
 62
     9
 10
0.0
 20
0.0
 30
0.0
 70
   128
 71
    69
 72
    65
 73
   117
  0
VERTEX
  5
1BD
  8
0
 62
     9
 10
0.0
 20
0.0
 30
0.0
 70
   128
 71
    72
 72
    59
 73
   117
  0
VERTEX
  5
1BE
  8
0
 62
     9
 10
0.0
 20
0.0
 30
0.0
 70
   128
 71
    66
 72
    72
 73
   117
  0
VERTEX
  5
1BF
  8
0
 62
     9
 10
0.0
 20
0.0
 30
0.0
 70
   128
 71
    60
 72
   119
 73
   117
  0
VERTEX
  5
1C0
  8
0
 62
     9
 10
0.0
 20
0.0
 30
0.0
 70
   128
 71
   119
 72
    99
 73
   100
  0
VERTEX
  5
1C1
  8
0
 62
     9
 10
0.0
 20
0.0
 30
0.0
 70
   128
 71
    60
 72
    99
 73
   119
  0
VERTEX
  5
1C2
  8
0
 62
     9
 10
0.0
 20
0.0
 30
0.0
 70
   128
 71
   104
 72
    96
 73
   119
  0
VERTEX
  5
1C3
  8
0
 62
     9
 10
0.0
 20
0.0
 30
0.0
 70
   128
 71
   100
 72
   104
 73
   119
  0
VERTEX
  5
1C4
  8
0
 62
     9
 10
0.0
 20
0.0
 30
0.0
 70
   128
 71
    92
 72
   119
 73
    96
  0
VERTEX
  5
1C5
  8
0
 62
     9
 10
0.0
 20
0.0
 30
0.0
 70
   128
 71
   120
 72
    92
 73
    88
  0
VERTEX
  5
1C6
  8
0
 62
     9
 10
0.0
 20
0.0
 30
0.0
 70
   128
 71
    92
 72
   120
 73
   119
  0
VERTEX
  5
1C7
  8
0
 62
     9
 10
0.0
 20
0.0
 30
0.0
 70
   128
 71
   120
 72
    89
 73
    95
  0
VERTEX
  5
1C8
  8
0
 62
     9
 10
0.0
 20
0.0
 30
0.0
 70
   128
 71
    88
 72
    89
 73
   120
  0
VERTEX
  5
1C9
  8
0
 62
     9
 10
0.0
 20
0.0
 30
0.0
 70
   128
 71
    95
 72
    84
 73
   120
  0
VERTEX
  5
1CA
  8
0
 62
     9
 10
0.0
 20
0.0
 30
0.0
 70
   128
 71
    84
 72
   118
 73
   120
  0
VERTEX
  5
1CB
  8
0
 62
     9
 10
0.0
 20
0.0
 30
0.0
 70
   128
 71
    84
 72
    80
 73
   118
  0
VERTEX
  5
1CC
  8
0
 62
     9
 10
0.0
 20
0.0
 30
0.0
 70
   128
 71
   118
 72
    76
 73
    77
  0
VERTEX
  5
1CD
  8
0
 62
     9
 10
0.0
 20
0.0
 30
0.0
 70
   128
 71
    80
 72
    76
 73
   118
  0
VERTEX
  5
1CE
  8
0
 62
     9
 10
0.0
 20
0.0
 30
0.0
 70
   128
 71
    73
 72
    69
 73
   117
  0
VERTEX
  5
1CF
  8
0
 62
     9
 10
0.0
 20
0.0
 30
0.0
 70
   128
 71
    77
 72
    83
 73
   118
  0
VERTEX
  5
1D0
  8
0
 62
     9
 10
0.0
 20
0.0
 30
0.0
 70
   128
 71
    83
 72
    73
 73
   118
  0
VERTEX
  5
1D1
  8
0
 62
     9
 10
0.0
 20
0.0
 30
0.0
 70
   128
 71
   111
 72
   112
 73
   107
  0
VERTEX
  5
1D2
  8
0
 62
     9
 10
0.0
 20
0.0
 30
0.0
 70
   128
 71
   112
 72
   116
 73
   109
  0
VERTEX
  5
1D3
  8
0
 62
     9
 10
0.0
 20
0.0
 30
0.0
 70
   128
 71
   112
 72
   109
 73
   107
  0
VERTEX
  5
1D4
  8
0
 62
     9
 10
0.0
 20
0.0
 30
0.0
 70
   128
 71
   116
 72
   113
 73
   106
  0
VERTEX
  5
1D5
  8
0
 62
     9
 10
0.0
 20
0.0
 30
0.0
 70
   128
 71
   105
 72
   113
 73
   114
  0
VERTEX
  5
1D6
  8
0
 62
     9
 10
0.0
 20
0.0
 30
0.0
 70
   128
 71
   106
 72
   113
 73
   105
  0
VERTEX
  5
1D7
  8
0
 62
     9
 10
0.0
 20
0.0
 30
0.0
 70
   128
 71
   106
 72
   115
 73
   116
  0
VERTEX
  5
1D8
  8
0
 62
     9
 10
0.0
 20
0.0
 30
0.0
 70
   128
 71
   113
 72
   116
 73
   112
  0
VERTEX
  5
1D9
  8
0
 62
     9
 10
0.0
 20
0.0
 30
0.0
 70
   128
 71
   107
 72
   109
 73
   108
  0
VERTEX
  5
1DA
  8
0
 62
     9
 10
0.0
 20
0.0
 30
0.0
 70
   128
 71
   109
 72
   110
 73
   108
  0
SEQEND
  5
1DB
  8
0
 62
     9
  0
ENDBLK
  5
1DE
  8
0
  0
BLOCK
  8
0
  2
41
 70
     0
 10
0.0
 20
0.0
 30
0.0
  3
41
  1

  0
POLYLINE
  5
1E0
  8
0
 62
     9
 66
     1
 10
0.0
 20
0.0
 30
0.0
 70
    64
 71
   276
 72
   546
  0
VERTEX
  5
1E1
  8
0
 10
-58.81990814208984
 20
96.40120697021484
 30
1.100000023841858
 70
   192
  0
VERTEX
  5
1E2
  8
0
 10
-71.89099884033203
 20
96.40120697021484
 30
1.100000023841858
 70
   192
  0
VERTEX
  5
1E3
  8
0
 10
-71.89099884033203
 20
96.6009292602539
 30
1.289532780647278
 70
   192
  0
VERTEX
  5
1E4
  8
0
 10
-19.60663604736328
 20
96.40120697021484
 30
1.100000023841858
 70
   192
  0
VERTEX
  5
1E5
  8
0
 10
-32.67772674560547
 20
96.40120697021484
 30
1.100000023841858
 70
   192
  0
VERTEX
  5
1E6
  8
0
 10
-32.67772674560547
 20
96.6009292602539
 30
1.289532780647278
 70
   192
  0
VERTEX
  5
1E7
  8
0
 10
-45.74881744384766
 20
96.40120697021484
 30
1.100000023841858
 70
   192
  0
VERTEX
  5
1E8
  8
0
 10
-58.81990814208984
 20
96.6009292602539
 30
1.289532780647278
 70
   192
  0
VERTEX
  5
1E9
  8
0
 10
-45.74881744384766
 20
96.6009292602539
 30
1.289532780647278
 70
   192
  0
VERTEX
  5
1EA
  8
0
 10
6.535545349121094
 20
96.6009292602539
 30
1.289532780647278
 70
   192
  0
VERTEX
  5
1EB
  8
0
 10
19.60663604736328
 20
96.40120697021484
 30
1.100000023841858
 70
   192
  0
VERTEX
  5
1EC
  8
0
 10
6.535545349121094
 20
96.40120697021484
 30
1.100000023841858
 70
   192
  0
VERTEX
  5
1ED
  8
0
 10
-19.60663604736328
 20
96.6009292602539
 30
1.289532780647278
 70
   192
  0
VERTEX
  5
1EE
  8
0
 10
-6.535545349121094
 20
96.6009292602539
 30
1.289532780647278
 70
   192
  0
VERTEX
  5
1EF
  8
0
 10
-6.535545349121094
 20
96.40120697021484
 30
1.100000023841858
 70
   192
  0
VERTEX
  5
1F0
  8
0
 10
32.67772674560547
 20
96.6009292602539
 30
1.289532780647278
 70
   192
  0
VERTEX
  5
1F1
  8
0
 10
45.74881744384766
 20
96.6009292602539
 30
1.289532780647278
 70
   192
  0
VERTEX
  5
1F2
  8
0
 10
45.74881744384766
 20
96.40120697021484
 30
1.100000023841858
 70
   192
  0
VERTEX
  5
1F3
  8
0
 10
32.67772674560547
 20
96.40120697021484
 30
1.100000023841858
 70
   192
  0
VERTEX
  5
1F4
  8
0
 10
19.60663604736328
 20
96.6009292602539
 30
1.289532780647278
 70
   192
  0
VERTEX
  5
1F5
  8
0
 10
58.81990814208984
 20
96.6009292602539
 30
1.289532780647278
 70
   192
  0
VERTEX
  5
1F6
  8
0
 10
58.81990814208984
 20
96.40120697021484
 30
1.100000023841858
 70
   192
  0
VERTEX
  5
1F7
  8
0
 10
71.89099884033203
 20
96.40120697021484
 30
1.100000023841858
 70
   192
  0
VERTEX
  5
1F8
  8
0
 10
71.89099884033203
 20
96.6009292602539
 30
1.289532780647278
 70
   192
  0
VERTEX
  5
1F9
  8
0
 10
74.86787414550781
 20
95.36787414550781
 30
1.289532780647278
 70
   192
  0
VERTEX
  5
1FA
  8
0
 10
76.1009292602539
 20
92.39099884033203
 30
1.289532780647278
 70
   192
  0
VERTEX
  5
1FB
  8
0
 10
74.72664642333984
 20
95.22664642333984
 30
1.100000023841858
 70
   192
  0
VERTEX
  5
1FC
  8
0
 10
75.90120697021484
 20
92.39099884033203
 30
1.100000023841858
 70
   192
  0
VERTEX
  5
1FD
  8
0
 10
-75.90120697021484
 20
92.39099884033203
 30
1.100000023841858
 70
   192
  0
VERTEX
  5
1FE
  8
0
 10
-74.86787414550781
 20
95.36787414550781
 30
1.289532780647278
 70
   192
  0
VERTEX
  5
1FF
  8
0
 10
-74.72664642333984
 20
95.22664642333984
 30
1.100000023841858
 70
   192
  0
VERTEX
  5
200
  8
0
 10
-76.1009292602539
 20
92.39099884033203
 30
1.289532780647278
 70
   192
  0
VERTEX
  5
201
  8
0
 10
76.1009292602539
 20
-65.99356842041016
 30
1.289532780647278
 70
   192
  0
VERTEX
  5
202
  8
0
 10
75.90120697021484
 20
-79.1922836303711
 30
1.100000023841858
 70
   192
  0
VERTEX
  5
203
  8
0
 10
75.90120697021484
 20
-65.99356842041016
 30
1.100000023841858
 70
   192
  0
VERTEX
  5
204
  8
0
 10
75.90120697021484
 20
-92.39099884033203
 30
1.100000023841858
 70
   192
  0
VERTEX
  5
205
  8
0
 10
76.1009292602539
 20
-79.1922836303711
 30
1.289532780647278
 70
   192
  0
VERTEX
  5
206
  8
0
 10
76.1009292602539
 20
-92.39099884033203
 30
1.289532780647278
 70
   192
  0
VERTEX
  5
207
  8
0
 10
75.90120697021484
 20
-39.59614181518555
 30
1.100000023841858
 70
   192
  0
VERTEX
  5
208
  8
0
 10
75.90120697021484
 20
-26.39742851257324
 30
1.100000023841858
 70
   192
  0
VERTEX
  5
209
  8
0
 10
76.1009292602539
 20
-26.39742851257324
 30
1.289532780647278
 70
   192
  0
VERTEX
  5
20A
  8
0
 10
76.1009292602539
 20
-39.59614181518555
 30
1.289532780647278
 70
   192
  0
VERTEX
  5
20B
  8
0
 10
76.1009292602539
 20
-52.79485702514648
 30
1.289532780647278
 70
   192
  0
VERTEX
  5
20C
  8
0
 10
75.90120697021484
 20
-52.79485702514648
 30
1.100000023841858
 70
   192
  0
VERTEX
  5
20D
  8
0
 10
76.1009292602539
 20
13.19871425628662
 30
1.289532780647278
 70
   192
  0
VERTEX
  5
20E
  8
0
 10
75.90120697021484
 20
-0.0000000000000213
 30
1.100000023841858
 70
   192
  0
VERTEX
  5
20F
  8
0
 10
75.90120697021484
 20
13.19871425628662
 30
1.100000023841858
 70
   192
  0
VERTEX
  5
210
  8
0
 10
76.1009292602539
 20
0.0000000000000142
 30
1.289532780647278
 70
   192
  0
VERTEX
  5
211
  8
0
 10
76.1009292602539
 20
-13.19871425628662
 30
1.289532780647278
 70
   192
  0
VERTEX
  5
212
  8
0
 10
75.90120697021484
 20
-13.19871425628662
 30
1.100000023841858
 70
   192
  0
VERTEX
  5
213
  8
0
 10
75.90120697021484
 20
52.79485702514648
 30
1.100000023841858
 70
   192
  0
VERTEX
  5
214
  8
0
 10
76.1009292602539
 20
52.79485702514648
 30
1.289532780647278
 70
   192
  0
VERTEX
  5
215
  8
0
 10
75.90120697021484
 20
39.59614181518555
 30
1.100000023841858
 70
   192
  0
VERTEX
  5
216
  8
0
 10
75.90120697021484
 20
26.39742851257324
 30
1.100000023841858
 70
   192
  0
VERTEX
  5
217
  8
0
 10
76.1009292602539
 20
39.59614181518555
 30
1.289532780647278
 70
   192
  0
VERTEX
  5
218
  8
0
 10
76.1009292602539
 20
26.39742851257324
 30
1.289532780647278
 70
   192
  0
VERTEX
  5
219
  8
0
 10
76.1009292602539
 20
65.99356842041016
 30
1.289532780647278
 70
   192
  0
VERTEX
  5
21A
  8
0
 10
75.90120697021484
 20
65.99356842041016
 30
1.100000023841858
 70
   192
  0
VERTEX
  5
21B
  8
0
 10
75.90120697021484
 20
79.1922836303711
 30
1.100000023841858
 70
   192
  0
VERTEX
  5
21C
  8
0
 10
76.1009292602539
 20
79.1922836303711
 30
1.289532780647278
 70
   192
  0
VERTEX
  5
21D
  8
0
 10
-75.90120697021484
 20
-79.1922836303711
 30
1.100000023841858
 70
   192
  0
VERTEX
  5
21E
  8
0
 10
-75.90120697021484
 20
-92.39099884033203
 30
1.100000023841858
 70
   192
  0
VERTEX
  5
21F
  8
0
 10
-76.1009292602539
 20
-92.39099884033203
 30
1.289532780647278
 70
   192
  0
VERTEX
  5
220
  8
0
 10
-75.90120697021484
 20
-39.59614181518555
 30
1.100000023841858
 70
   192
  0
VERTEX
  5
221
  8
0
 10
-75.90120697021484
 20
-52.79485702514648
 30
1.100000023841858
 70
   192
  0
VERTEX
  5
222
  8
0
 10
-76.1009292602539
 20
-52.79485702514648
 30
1.289532780647278
 70
   192
  0
VERTEX
  5
223
  8
0
 10
-75.90120697021484
 20
-65.99356842041016
 30
1.100000023841858
 70
   192
  0
VERTEX
  5
224
  8
0
 10
-76.1009292602539
 20
-79.1922836303711
 30
1.289532780647278
 70
   192
  0
VERTEX
  5
225
  8
0
 10
-76.1009292602539
 20
-65.99356842041016
 30
1.289532780647278
 70
   192
  0
VERTEX
  5
226
  8
0
 10
-76.1009292602539
 20
-13.19871425628662
 30
1.289532780647278
 70
   192
  0
VERTEX
  5
227
  8
0
 10
-75.90120697021484
 20
0.0000000000000142
 30
1.100000023841858
 70
   192
  0
VERTEX
  5
228
  8
0
 10
-75.90120697021484
 20
-13.19871425628662
 30
1.100000023841858
 70
   192
  0
VERTEX
  5
229
  8
0
 10
-76.1009292602539
 20
-39.59614181518555
 30
1.289532780647278
 70
   192
  0
VERTEX
  5
22A
  8
0
 10
-76.1009292602539
 20
-26.39742851257324
 30
1.289532780647278
 70
   192
  0
VERTEX
  5
22B
  8
0
 10
-75.90120697021484
 20
-26.39742851257324
 30
1.100000023841858
 70
   192
  0
VERTEX
  5
22C
  8
0
 10
-75.90120697021484
 20
26.39742851257324
 30
1.100000023841858
 70
   192
  0
VERTEX
  5
22D
  8
0
 10
-76.1009292602539
 20
26.39742851257324
 30
1.289532780647278
 70
   192
  0
VERTEX
  5
22E
  8
0
 10
-75.90120697021484
 20
39.59614181518555
 30
1.100000023841858
 70
   192
  0
VERTEX
  5
22F
  8
0
 10
-75.90120697021484
 20
13.19871425628662
 30
1.100000023841858
 70
   192
  0
VERTEX
  5
230
  8
0
 10
-76.1009292602539
 20
-0.0000000000000213
 30
1.289532780647278
 70
   192
  0
VERTEX
  5
231
  8
0
 10
-76.1009292602539
 20
13.19871425628662
 30
1.289532780647278
 70
   192
  0
VERTEX
  5
232
  8
0
 10
-75.90120697021484
 20
52.79485702514648
 30
1.100000023841858
 70
   192
  0
VERTEX
  5
233
  8
0
 10
-76.1009292602539
 20
52.79485702514648
 30
1.289532780647278
 70
   192
  0
VERTEX
  5
234
  8
0
 10
-75.90120697021484
 20
65.99356842041016
 30
1.100000023841858
 70
   192
  0
VERTEX
  5
235
  8
0
 10
-76.1009292602539
 20
39.59614181518555
 30
1.289532780647278
 70
   192
  0
VERTEX
  5
236
  8
0
 10
-76.1009292602539
 20
65.99356842041016
 30
1.289532780647278
 70
   192
  0
VERTEX
  5
237
  8
0
 10
-75.90120697021484
 20
79.1922836303711
 30
1.100000023841858
 70
   192
  0
VERTEX
  5
238
  8
0
 10
-76.1009292602539
 20
79.1922836303711
 30
1.289532780647278
 70
   192
  0
VERTEX
  5
239
  8
0
 10
74.86787414550781
 20
-95.36787414550781
 30
1.289532780647278
 70
   192
  0
VERTEX
  5
23A
  8
0
 10
71.89099884033203
 20
-96.6009292602539
 30
1.289532780647278
 70
   192
  0
VERTEX
  5
23B
  8
0
 10
74.72664642333984
 20
-95.22664642333984
 30
1.100000023841858
 70
   192
  0
VERTEX
  5
23C
  8
0
 10
71.89099884033203
 20
-96.40120697021484
 30
1.100000023841858
 70
   192
  0
VERTEX
  5
23D
  8
0
 10
-71.89099884033203
 20
-96.40120697021484
 30
1.100000023841858
 70
   192
  0
VERTEX
  5
23E
  8
0
 10
-74.86787414550781
 20
-95.36787414550781
 30
1.289532780647278
 70
   192
  0
VERTEX
  5
23F
  8
0
 10
-74.72664642333984
 20
-95.22664642333984
 30
1.100000023841858
 70
   192
  0
VERTEX
  5
240
  8
0
 10
-71.89099884033203
 20
-96.6009292602539
 30
1.289532780647278
 70
   192
  0
VERTEX
  5
241
  8
0
 10
58.81990814208984
 20
-96.40120697021484
 30
1.100000023841858
 70
   192
  0
VERTEX
  5
242
  8
0
 10
19.60663604736328
 20
-96.40120697021484
 30
1.100000023841858
 70
   192
  0
VERTEX
  5
243
  8
0
 10
32.67772674560547
 20
-96.40120697021484
 30
1.100000023841858
 70
   192
  0
VERTEX
  5
244
  8
0
 10
32.67772674560547
 20
-96.6009292602539
 30
1.289532780647278
 70
   192
  0
VERTEX
  5
245
  8
0
 10
45.74881744384766
 20
-96.40120697021484
 30
1.100000023841858
 70
   192
  0
VERTEX
  5
246
  8
0
 10
58.81990814208984
 20
-96.6009292602539
 30
1.289532780647278
 70
   192
  0
VERTEX
  5
247
  8
0
 10
45.74881744384766
 20
-96.6009292602539
 30
1.289532780647278
 70
   192
  0
VERTEX
  5
248
  8
0
 10
-6.535545349121094
 20
-96.6009292602539
 30
1.289532780647278
 70
   192
  0
VERTEX
  5
249
  8
0
 10
-19.60663604736328
 20
-96.40120697021484
 30
1.100000023841858
 70
   192
  0
VERTEX
  5
24A
  8
0
 10
-6.535545349121094
 20
-96.40120697021484
 30
1.100000023841858
 70
   192
  0
VERTEX
  5
24B
  8
0
 10
19.60663604736328
 20
-96.6009292602539
 30
1.289532780647278
 70
   192
  0
VERTEX
  5
24C
  8
0
 10
6.535545349121094
 20
-96.6009292602539
 30
1.289532780647278
 70
   192
  0
VERTEX
  5
24D
  8
0
 10
6.535545349121094
 20
-96.40120697021484
 30
1.100000023841858
 70
   192
  0
VERTEX
  5
24E
  8
0
 10
-32.67772674560547
 20
-96.6009292602539
 30
1.289532780647278
 70
   192
  0
VERTEX
  5
24F
  8
0
 10
-45.74881744384766
 20
-96.6009292602539
 30
1.289532780647278
 70
   192
  0
VERTEX
  5
250
  8
0
 10
-45.74881744384766
 20
-96.40120697021484
 30
1.100000023841858
 70
   192
  0
VERTEX
  5
251
  8
0
 10
-32.67772674560547
 20
-96.40120697021484
 30
1.100000023841858
 70
   192
  0
VERTEX
  5
252
  8
0
 10
-19.60663604736328
 20
-96.6009292602539
 30
1.289532780647278
 70
   192
  0
VERTEX
  5
253
  8
0
 10
-58.81990814208984
 20
-96.6009292602539
 30
1.289532780647278
 70
   192
  0
VERTEX
  5
254
  8
0
 10
-58.81990814208984
 20
-96.40120697021484
 30
1.100000023841858
 70
   192
  0
VERTEX
  5
255
  8
0
 10
-74.20694732666016
 20
-96.42984008789062
 30
6.199999809265137
 70
   192
  0
VERTEX
  5
256
  8
0
 10
-74.0930404663086
 20
-96.26214599609375
 30
6.010467052459717
 70
   192
  0
VERTEX
  5
257
  8
0
 10
-71.89099884033203
 20
-96.84834289550781
 30
6.010467052459717
 70
   192
  0
VERTEX
  5
258
  8
0
 10
-75.78004455566406
 20
-94.5498275756836
 30
6.010467052459717
 70
   192
  0
VERTEX
  5
259
  8
0
 10
-75.91276550292969
 20
-94.73250579833984
 30
6.199999809265137
 70
   192
  0
VERTEX
  5
25A
  8
0
 10
-76.5480728149414
 20
-92.39099884033203
 30
6.199999809265137
 70
   192
  0
VERTEX
  5
25B
  8
0
 10
-76.34834289550781
 20
-92.39099884033203
 30
6.010467052459717
 70
   192
  0
VERTEX
  5
25C
  8
0
 10
-71.89099884033203
 20
-97.0480728149414
 30
6.199999809265137
 70
   192
  0
VERTEX
  5
25D
  8
0
 10
-76.34834289550781
 20
79.1922836303711
 30
6.010467052459717
 70
   192
  0
VERTEX
  5
25E
  8
0
 10
-76.5480728149414
 20
79.1922836303711
 30
6.199999809265137
 70
   192
  0
VERTEX
  5
25F
  8
0
 10
-76.5480728149414
 20
92.39099884033203
 30
6.199999809265137
 70
   192
  0
VERTEX
  5
260
  8
0
 10
-76.5480728149414
 20
65.99356842041016
 30
6.199999809265137
 70
   192
  0
VERTEX
  5
261
  8
0
 10
-76.34834289550781
 20
65.99356842041016
 30
6.010467052459717
 70
   192
  0
VERTEX
  5
262
  8
0
 10
-76.34834289550781
 20
52.79485702514648
 30
6.010467052459717
 70
   192
  0
VERTEX
  5
263
  8
0
 10
-76.34834289550781
 20
26.39742851257324
 30
6.010467052459717
 70
   192
  0
VERTEX
  5
264
  8
0
 10
-76.34834289550781
 20
13.19871425628662
 30
6.010467052459717
 70
   192
  0
VERTEX
  5
265
  8
0
 10
-76.5480728149414
 20
26.39742851257324
 30
6.199999809265137
 70
   192
  0
VERTEX
  5
266
  8
0
 10
-76.5480728149414
 20
39.59614181518555
 30
6.199999809265137
 70
   192
  0
VERTEX
  5
267
  8
0
 10
-76.5480728149414
 20
52.79485702514648
 30
6.199999809265137
 70
   192
  0
VERTEX
  5
268
  8
0
 10
-76.34834289550781
 20
39.59614181518555
 30
6.010467052459717
 70
   192
  0
VERTEX
  5
269
  8
0
 10
-76.5480728149414
 20
-13.19871425628662
 30
6.199999809265137
 70
   192
  0
VERTEX
  5
26A
  8
0
 10
-76.34834289550781
 20
-13.19871425628662
 30
6.010467052459717
 70
   192
  0
VERTEX
  5
26B
  8
0
 10
-76.34834289550781
 20
-26.39742851257324
 30
6.010467052459717
 70
   192
  0
VERTEX
  5
26C
  8
0
 10
-76.5480728149414
 20
-0.0000000000000213
 30
6.199999809265137
 70
   192
  0
VERTEX
  5
26D
  8
0
 10
-76.5480728149414
 20
13.19871425628662
 30
6.199999809265137
 70
   192
  0
VERTEX
  5
26E
  8
0
 10
-76.34834289550781
 20
0.0000000000000071
 30
6.010467052459717
 70
   192
  0
VERTEX
  5
26F
  8
0
 10
-76.5480728149414
 20
-52.79485702514648
 30
6.199999809265137
 70
   192
  0
VERTEX
  5
270
  8
0
 10
-76.5480728149414
 20
-39.59614181518555
 30
6.199999809265137
 70
   192
  0
VERTEX
  5
271
  8
0
 10
-76.34834289550781
 20
-52.79485702514648
 30
6.010467052459717
 70
   192
  0
VERTEX
  5
272
  8
0
 10
-76.34834289550781
 20
-39.59614181518555
 30
6.010467052459717
 70
   192
  0
VERTEX
  5
273
  8
0
 10
-76.5480728149414
 20
-26.39742851257324
 30
6.199999809265137
 70
   192
  0
VERTEX
  5
274
  8
0
 10
-76.34834289550781
 20
-65.99356842041016
 30
6.010467052459717
 70
   192
  0
VERTEX
  5
275
  8
0
 10
-76.5480728149414
 20
-65.99356842041016
 30
6.199999809265137
 70
   192
  0
VERTEX
  5
276
  8
0
 10
-76.34834289550781
 20
-79.1922836303711
 30
6.010467052459717
 70
   192
  0
VERTEX
  5
277
  8
0
 10
-76.5480728149414
 20
-79.1922836303711
 30
6.199999809265137
 70
   192
  0
VERTEX
  5
278
  8
0
 10
-76.34834289550781
 20
92.39099884033203
 30
6.010467052459717
 70
   192
  0
VERTEX
  5
279
  8
0
 10
71.89099884033203
 20
-96.84834289550781
 30
6.010467052459717
 70
   192
  0
VERTEX
  5
27A
  8
0
 10
58.81990814208984
 20
-97.0480728149414
 30
6.199999809265137
 70
   192
  0
VERTEX
  5
27B
  8
0
 10
58.81990814208984
 20
-96.84834289550781
 30
6.010467052459717
 70
   192
  0
VERTEX
  5
27C
  8
0
 10
19.60663604736328
 20
-96.84834289550781
 30
6.010467052459717
 70
   192
  0
VERTEX
  5
27D
  8
0
 10
32.67772674560547
 20
-96.84834289550781
 30
6.010467052459717
 70
   192
  0
VERTEX
  5
27E
  8
0
 10
19.60663604736328
 20
-97.0480728149414
 30
6.199999809265137
 70
   192
  0
VERTEX
  5
27F
  8
0
 10
32.67772674560547
 20
-97.0480728149414
 30
6.199999809265137
 70
   192
  0
VERTEX
  5
280
  8
0
 10
45.74881744384766
 20
-96.84834289550781
 30
6.010467052459717
 70
   192
  0
VERTEX
  5
281
  8
0
 10
45.74881744384766
 20
-97.0480728149414
 30
6.199999809265137
 70
   192
  0
VERTEX
  5
282
  8
0
 10
-19.60663604736328
 20
-97.0480728149414
 30
6.199999809265137
 70
   192
  0
VERTEX
  5
283
  8
0
 10
-19.60663604736328
 20
-96.84834289550781
 30
6.010467052459717
 70
   192
  0
VERTEX
  5
284
  8
0
 10
-6.535545349121094
 20
-96.84834289550781
 30
6.010467052459717
 70
   192
  0
VERTEX
  5
285
  8
0
 10
6.535545349121094
 20
-97.0480728149414
 30
6.199999809265137
 70
   192
  0
VERTEX
  5
286
  8
0
 10
-6.535545349121094
 20
-97.0480728149414
 30
6.199999809265137
 70
   192
  0
VERTEX
  5
287
  8
0
 10
6.535545349121094
 20
-96.84834289550781
 30
6.010467052459717
 70
   192
  0
VERTEX
  5
288
  8
0
 10
-45.74881744384766
 20
-97.0480728149414
 30
6.199999809265137
 70
   192
  0
VERTEX
  5
289
  8
0
 10
-45.74881744384766
 20
-96.84834289550781
 30
6.010467052459717
 70
   192
  0
VERTEX
  5
28A
  8
0
 10
-32.67772674560547
 20
-96.84834289550781
 30
6.010467052459717
 70
   192
  0
VERTEX
  5
28B
  8
0
 10
-32.67772674560547
 20
-97.0480728149414
 30
6.199999809265137
 70
   192
  0
VERTEX
  5
28C
  8
0
 10
-58.81990814208984
 20
-96.84834289550781
 30
6.010467052459717
 70
   192
  0
VERTEX
  5
28D
  8
0
 10
-58.81990814208984
 20
-97.0480728149414
 30
6.199999809265137
 70
   192
  0
VERTEX
  5
28E
  8
0
 10
71.89099884033203
 20
-97.0480728149414
 30
6.199999809265137
 70
   192
  0
VERTEX
  5
28F
  8
0
 10
-71.89099884033203
 20
97.0480728149414
 30
6.199999809265137
 70
   192
  0
VERTEX
  5
290
  8
0
 10
-74.0498275756836
 20
96.28004455566406
 30
6.010467052459717
 70
   192
  0
VERTEX
  5
291
  8
0
 10
-74.23250579833984
 20
96.41276550292969
 30
6.199999809265137
 70
   192
  0
VERTEX
  5
292
  8
0
 10
-75.92984008789062
 20
94.70694732666016
 30
6.199999809265137
 70
   192
  0
VERTEX
  5
293
  8
0
 10
-75.76214599609375
 20
94.5930404663086
 30
6.010467052459717
 70
   192
  0
VERTEX
  5
294
  8
0
 10
-71.89099884033203
 20
96.84834289550781
 30
6.010467052459717
 70
   192
  0
VERTEX
  5
295
  8
0
 10
75.92984008789062
 20
-94.70694732666016
 30
6.199999809265137
 70
   192
  0
VERTEX
  5
296
  8
0
 10
75.76214599609375
 20
-94.5930404663086
 30
6.010467052459717
 70
   192
  0
VERTEX
  5
297
  8
0
 10
76.34834289550781
 20
-92.39099884033203
 30
6.010467052459717
 70
   192
  0
VERTEX
  5
298
  8
0
 10
74.0498275756836
 20
-96.28004455566406
 30
6.010467052459717
 70
   192
  0
VERTEX
  5
299
  8
0
 10
74.23250579833984
 20
-96.41276550292969
 30
6.199999809265137
 70
   192
  0
VERTEX
  5
29A
  8
0
 10
76.5480728149414
 20
-92.39099884033203
 30
6.199999809265137
 70
   192
  0
VERTEX
  5
29B
  8
0
 10
58.81990814208984
 20
96.84834289550781
 30
6.010467052459717
 70
   192
  0
VERTEX
  5
29C
  8
0
 10
58.81990814208984
 20
97.0480728149414
 30
6.199999809265137
 70
   192
  0
VERTEX
  5
29D
  8
0
 10
71.89099884033203
 20
97.0480728149414
 30
6.199999809265137
 70
   192
  0
VERTEX
  5
29E
  8
0
 10
45.74881744384766
 20
97.0480728149414
 30
6.199999809265137
 70
   192
  0
VERTEX
  5
29F
  8
0
 10
45.74881744384766
 20
96.84834289550781
 30
6.010467052459717
 70
   192
  0
VERTEX
  5
2A0
  8
0
 10
32.67772674560547
 20
96.84834289550781
 30
6.010467052459717
 70
   192
  0
VERTEX
  5
2A1
  8
0
 10
6.535545349121094
 20
96.84834289550781
 30
6.010467052459717
 70
   192
  0
VERTEX
  5
2A2
  8
0
 10
-6.535545349121094
 20
96.84834289550781
 30
6.010467052459717
 70
   192
  0
VERTEX
  5
2A3
  8
0
 10
6.535545349121094
 20
97.0480728149414
 30
6.199999809265137
 70
   192
  0
VERTEX
  5
2A4
  8
0
 10
19.60663604736328
 20
97.0480728149414
 30
6.199999809265137
 70
   192
  0
VERTEX
  5
2A5
  8
0
 10
32.67772674560547
 20
97.0480728149414
 30
6.199999809265137
 70
   192
  0
VERTEX
  5
2A6
  8
0
 10
19.60663604736328
 20
96.84834289550781
 30
6.010467052459717
 70
   192
  0
VERTEX
  5
2A7
  8
0
 10
-32.67772674560547
 20
97.0480728149414
 30
6.199999809265137
 70
   192
  0
VERTEX
  5
2A8
  8
0
 10
-32.67772674560547
 20
96.84834289550781
 30
6.010467052459717
 70
   192
  0
VERTEX
  5
2A9
  8
0
 10
-45.74881744384766
 20
96.84834289550781
 30
6.010467052459717
 70
   192
  0
VERTEX
  5
2AA
  8
0
 10
-19.60663604736328
 20
97.0480728149414
 30
6.199999809265137
 70
   192
  0
VERTEX
  5
2AB
  8
0
 10
-6.535545349121094
 20
97.0480728149414
 30
6.199999809265137
 70
   192
  0
VERTEX
  5
2AC
  8
0
 10
-19.60663604736328
 20
96.84834289550781
 30
6.010467052459717
 70
   192
  0
VERTEX
  5
2AD
  8
0
 10
-58.81990814208984
 20
96.84834289550781
 30
6.010467052459717
 70
   192
  0
VERTEX
  5
2AE
  8
0
 10
-45.74881744384766
 20
97.0480728149414
 30
6.199999809265137
 70
   192
  0
VERTEX
  5
2AF
  8
0
 10
-58.81990814208984
 20
97.0480728149414
 30
6.199999809265137
 70
   192
  0
VERTEX
  5
2B0
  8
0
 10
71.89099884033203
 20
96.84834289550781
 30
6.010467052459717
 70
   192
  0
VERTEX
  5
2B1
  8
0
 10
76.34834289550781
 20
92.39099884033203
 30
6.010467052459717
 70
   192
  0
VERTEX
  5
2B2
  8
0
 10
76.5480728149414
 20
79.1922836303711
 30
6.199999809265137
 70
   192
  0
VERTEX
  5
2B3
  8
0
 10
76.34834289550781
 20
79.1922836303711
 30
6.010467052459717
 70
   192
  0
VERTEX
  5
2B4
  8
0
 10
76.34834289550781
 20
39.59614181518555
 30
6.010467052459717
 70
   192
  0
VERTEX
  5
2B5
  8
0
 10
76.34834289550781
 20
52.79485702514648
 30
6.010467052459717
 70
   192
  0
VERTEX
  5
2B6
  8
0
 10
76.5480728149414
 20
39.59614181518555
 30
6.199999809265137
 70
   192
  0
VERTEX
  5
2B7
  8
0
 10
76.5480728149414
 20
52.79485702514648
 30
6.199999809265137
 70
   192
  0
VERTEX
  5
2B8
  8
0
 10
76.34834289550781
 20
65.99356842041016
 30
6.010467052459717
 70
   192
  0
VERTEX
  5
2B9
  8
0
 10
76.5480728149414
 20
65.99356842041016
 30
6.199999809265137
 70
   192
  0
VERTEX
  5
2BA
  8
0
 10
76.5480728149414
 20
0.0000000000000071
 30
6.199999809265137
 70
   192
  0
VERTEX
  5
2BB
  8
0
 10
76.34834289550781
 20
-0.0000000000000142
 30
6.010467052459717
 70
   192
  0
VERTEX
  5
2BC
  8
0
 10
76.34834289550781
 20
13.19871425628662
 30
6.010467052459717
 70
   192
  0
VERTEX
  5
2BD
  8
0
 10
76.5480728149414
 20
26.39742851257324
 30
6.199999809265137
 70
   192
  0
VERTEX
  5
2BE
  8
0
 10
76.5480728149414
 20
13.19871425628662
 30
6.199999809265137
 70
   192
  0
VERTEX
  5
2BF
  8
0
 10
76.34834289550781
 20
26.39742851257324
 30
6.010467052459717
 70
   192
  0
VERTEX
  5
2C0
  8
0
 10
76.34834289550781
 20
-26.39742851257324
 30
6.010467052459717
 70
   192
  0
VERTEX
  5
2C1
  8
0
 10
76.5480728149414
 20
-39.59614181518555
 30
6.199999809265137
 70
   192
  0
VERTEX
  5
2C2
  8
0
 10
76.34834289550781
 20
-39.59614181518555
 30
6.010467052459717
 70
   192
  0
VERTEX
  5
2C3
  8
0
 10
76.34834289550781
 20
-13.19871425628662
 30
6.010467052459717
 70
   192
  0
VERTEX
  5
2C4
  8
0
 10
76.5480728149414
 20
-13.19871425628662
 30
6.199999809265137
 70
   192
  0
VERTEX
  5
2C5
  8
0
 10
76.5480728149414
 20
-26.39742851257324
 30
6.199999809265137
 70
   192
  0
VERTEX
  5
2C6
  8
0
 10
76.5480728149414
 20
-52.79485702514648
 30
6.199999809265137
 70
   192
  0
VERTEX
  5
2C7
  8
0
 10
76.5480728149414
 20
-65.99356842041016
 30
6.199999809265137
 70
   192
  0
VERTEX
  5
2C8
  8
0
 10
76.34834289550781
 20
-52.79485702514648
 30
6.010467052459717
 70
   192
  0
VERTEX
  5
2C9
  8
0
 10
76.5480728149414
 20
-79.1922836303711
 30
6.199999809265137
 70
   192
  0
VERTEX
  5
2CA
  8
0
 10
76.34834289550781
 20
-65.99356842041016
 30
6.010467052459717
 70
   192
  0
VERTEX
  5
2CB
  8
0
 10
76.34834289550781
 20
-79.1922836303711
 30
6.010467052459717
 70
   192
  0
VERTEX
  5
2CC
  8
0
 10
76.5480728149414
 20
92.39099884033203
 30
6.199999809265137
 70
   192
  0
VERTEX
  5
2CD
  8
0
 10
74.20694732666016
 20
96.42984008789062
 30
6.199999809265137
 70
   192
  0
VERTEX
  5
2CE
  8
0
 10
74.0930404663086
 20
96.26214599609375
 30
6.010467052459717
 70
   192
  0
VERTEX
  5
2CF
  8
0
 10
75.78004455566406
 20
94.5498275756836
 30
6.010467052459717
 70
   192
  0
VERTEX
  5
2D0
  8
0
 10
75.91276550292969
 20
94.73250579833984
 30
6.199999809265137
 70
   192
  0
VERTEX
  5
2D1
  8
0
 10
70.59100341796875
 20
91.78753662109375
 30
1.100000023841858
 70
   192
  0
VERTEX
  5
2D2
  8
0
 10
-72.771484375
 20
90.96435546875
 30
1.100000023841858
 70
   192
  0
VERTEX
  5
2D3
  8
0
 10
-72.771484375
 20
-92.57434844970703
 30
1.100000023841858
 70
   192
  0
VERTEX
  5
2D4
  8
0
 10
71.28753662109375
 20
-91.09100341796875
 30
1.100000023841858
 70
   192
  0
VERTEX
  5
2D5
  8
0
 10
74.9843978881836
 20
-97.70367431640625
 30
-0.0000000000000065
 70
   192
  0
VERTEX
  5
2D6
  8
0
 10
77.18168640136719
 20
-95.51730346679688
 30
-0.0000000000000073
 70
   192
  0
VERTEX
  5
2D7
  8
0
 10
78.0
 20
-92.50091552734375
 30
0.0000000000000339
 70
   192
  0
VERTEX
  5
2D8
  8
0
 10
-78.0
 20
92.50091552734375
 30
0.0000000000000048
 70
   192
  0
VERTEX
  5
2D9
  8
0
 10
-78.0
 20
-92.50091552734375
 30
0.0000000000000382
 70
   192
  0
VERTEX
  5
2DA
  8
0
 10
-72.00091552734375
 20
-98.5
 30
0.0000000000000391
 70
   192
  0
VERTEX
  5
2DB
  8
0
 10
72.00091552734375
 20
-98.5
 30
0.0000000000000351
 70
   192
  0
VERTEX
  5
2DC
  8
0
 10
-77.20367431640625
 20
-95.4843978881836
 30
-0.0000000000000007
 70
   192
  0
VERTEX
  5
2DD
  8
0
 10
-75.01730346679688
 20
-97.68168640136719
 30
-0.0000000000000013
 70
   192
  0
VERTEX
  5
2DE
  8
0
 10
78.0
 20
92.50091552734375
 30
0.0000000000000005
 70
   192
  0
VERTEX
  5
2DF
  8
0
 10
-77.18168640136719
 20
95.51730346679688
 30
0.0000000000000044
 70
   192
  0
VERTEX
  5
2E0
  8
0
 10
-74.9843978881836
 20
97.70367431640625
 30
0.0000000000000035
 70
   192
  0
VERTEX
  5
2E1
  8
0
 10
-72.00091552734375
 20
98.5
 30
0.0000000000000036
 70
   192
  0
VERTEX
  5
2E2
  8
0
 10
77.20367431640625
 20
95.4843978881836
 30
-0.0000000000000006
 70
   192
  0
VERTEX
  5
2E3
  8
0
 10
75.01730346679688
 20
97.68168640136719
 30
0.0000000000000002
 70
   192
  0
VERTEX
  5
2E4
  8
0
 10
72.00091552734375
 20
98.5
 30
-0.0000000000000004
 70
   192
  0
VERTEX
  5
2E5
  8
0
 10
77.07347106933594
 20
-95.4090805053711
 30
6.199999809265137
 70
   192
  0
VERTEX
  5
2E6
  8
0
 10
74.87617492675781
 20
-97.595458984375
 30
6.199999809265137
 70
   192
  0
VERTEX
  5
2E7
  8
0
 10
71.89269256591797
 20
-98.39177703857422
 30
6.199999809265137
 70
   192
  0
VERTEX
  5
2E8
  8
0
 10
77.89177703857422
 20
-92.39269256591797
 30
6.199999809265137
 70
   192
  0
VERTEX
  5
2E9
  8
0
 10
74.9090805053711
 20
97.57347106933594
 30
6.199999809265137
 70
   192
  0
VERTEX
  5
2EA
  8
0
 10
77.095458984375
 20
95.37617492675781
 30
6.199999809265137
 70
   192
  0
VERTEX
  5
2EB
  8
0
 10
77.89177703857422
 20
92.39269256591797
 30
6.199999809265137
 70
   192
  0
VERTEX
  5
2EC
  8
0
 10
71.89269256591797
 20
98.39177703857422
 30
6.199999809265137
 70
   192
  0
VERTEX
  5
2ED
  8
0
 10
-77.07347106933594
 20
95.4090805053711
 30
6.199999809265137
 70
   192
  0
VERTEX
  5
2EE
  8
0
 10
-74.87617492675781
 20
97.595458984375
 30
6.199999809265137
 70
   192
  0
VERTEX
  5
2EF
  8
0
 10
-71.89269256591797
 20
98.39177703857422
 30
6.199999809265137
 70
   192
  0
VERTEX
  5
2F0
  8
0
 10
-77.89177703857422
 20
92.39269256591797
 30
6.199999809265137
 70
   192
  0
VERTEX
  5
2F1
  8
0
 10
-74.9090805053711
 20
-97.57347106933594
 30
6.199999809265137
 70
   192
  0
VERTEX
  5
2F2
  8
0
 10
-77.095458984375
 20
-95.37617492675781
 30
6.199999809265137
 70
   192
  0
VERTEX
  5
2F3
  8
0
 10
-77.89177703857422
 20
-92.39269256591797
 30
6.199999809265137
 70
   192
  0
VERTEX
  5
2F4
  8
0
 10
-71.89269256591797
 20
-98.39177703857422
 30
6.199999809265137
 70
   192
  0
VERTEX
  5
2F5
  8
0
 62
     9
 10
0.0
 20
0.0
 30
0.0
 70
   128
 71
     3
 72
     2
 73
     1
  0
VERTEX
  5
2F6
  8
0
 62
     9
 10
0.0
 20
0.0
 30
0.0
 70
   128
 71
     6
 72
     5
 73
     4
  0
VERTEX
  5
2F7
  8
0
 62
     9
 10
0.0
 20
0.0
 30
0.0
 70
   128
 71
     9
 72
     8
 73
     7
  0
VERTEX
  5
2F8
  8
0
 62
     9
 10
0.0
 20
0.0
 30
0.0
 70
   128
 71
    12
 72
    11
 73
    10
  0
VERTEX
  5
2F9
  8
0
 62
     9
 10
0.0
 20
0.0
 30
0.0
 70
   128
 71
    15
 72
    14
 73
    13
  0
VERTEX
  5
2FA
  8
0
 62
     9
 10
0.0
 20
0.0
 30
0.0
 70
   128
 71
    18
 72
    17
 73
    16
  0
VERTEX
  5
2FB
  8
0
 62
     9
 10
0.0
 20
0.0
 30
0.0
 70
   128
 71
    16
 72
    20
 73
    19
  0
VERTEX
  5
2FC
  8
0
 62
     9
 10
0.0
 20
0.0
 30
0.0
 70
   128
 71
    17
 72
    22
 73
    21
  0
VERTEX
  5
2FD
  8
0
 62
     9
 10
0.0
 20
0.0
 30
0.0
 70
   128
 71
    22
 72
    17
 73
    18
  0
VERTEX
  5
2FE
  8
0
 62
     9
 10
0.0
 20
0.0
 30
0.0
 70
   128
 71
    24
 72
    21
 73
    23
  0
VERTEX
  5
2FF
  8
0
 62
     9
 10
0.0
 20
0.0
 30
0.0
 70
   128
 71
    22
 72
    23
 73
    21
  0
VERTEX
  5
300
  8
0
 62
     9
 10
0.0
 20
0.0
 30
0.0
 70
   128
 71
    19
 72
    20
 73
    11
  0
VERTEX
  5
301
  8
0
 62
     9
 10
0.0
 20
0.0
 30
0.0
 70
   128
 71
    18
 72
    16
 73
    19
  0
VERTEX
  5
302
  8
0
 62
     9
 10
0.0
 20
0.0
 30
0.0
 70
   128
 71
    12
 72
    10
 73
    14
  0
VERTEX
  5
303
  8
0
 62
     9
 10
0.0
 20
0.0
 30
0.0
 70
   128
 71
    11
 72
    20
 73
    10
  0
VERTEX
  5
304
  8
0
 62
     9
 10
0.0
 20
0.0
 30
0.0
 70
   128
 71
     4
 72
    15
 73
    13
  0
VERTEX
  5
305
  8
0
 62
     9
 10
0.0
 20
0.0
 30
0.0
 70
   128
 71
    15
 72
    12
 73
    14
  0
VERTEX
  5
306
  8
0
 62
     9
 10
0.0
 20
0.0
 30
0.0
 70
   128
 71
     9
 72
     5
 73
     6
  0
VERTEX
  5
307
  8
0
 62
     9
 10
0.0
 20
0.0
 30
0.0
 70
   128
 71
     6
 72
     4
 73
    13
  0
VERTEX
  5
308
  8
0
 62
     9
 10
0.0
 20
0.0
 30
0.0
 70
   128
 71
     8
 72
     1
 73
     7
  0
VERTEX
  5
309
  8
0
 62
     9
 10
0.0
 20
0.0
 30
0.0
 70
   128
 71
     9
 72
     7
 73
     5
  0
VERTEX
  5
30A
  8
0
 62
     9
 10
0.0
 20
0.0
 30
0.0
 70
   128
 71
     1
 72
     8
 73
     3
  0
VERTEX
  5
30B
  8
0
 62
     9
 10
0.0
 20
0.0
 30
0.0
 70
   128
 71
    24
 72
    23
 73
    25
  0
VERTEX
  5
30C
  8
0
 62
     9
 10
0.0
 20
0.0
 30
0.0
 70
   128
 71
    25
 72
    27
 73
    26
  0
VERTEX
  5
30D
  8
0
 62
     9
 10
0.0
 20
0.0
 30
0.0
 70
   128
 71
    23
 72
    27
 73
    25
  0
VERTEX
  5
30E
  8
0
 62
     9
 10
0.0
 20
0.0
 30
0.0
 70
   128
 71
    27
 72
    28
 73
    26
  0
VERTEX
  5
30F
  8
0
 62
     9
 10
0.0
 20
0.0
 30
0.0
 70
   128
 71
    31
 72
    30
 73
    29
  0
VERTEX
  5
310
  8
0
 62
     9
 10
0.0
 20
0.0
 30
0.0
 70
   128
 71
     3
 72
    31
 73
     2
  0
VERTEX
  5
311
  8
0
 62
     9
 10
0.0
 20
0.0
 30
0.0
 70
   128
 71
     3
 72
    30
 73
    31
  0
VERTEX
  5
312
  8
0
 62
     9
 10
0.0
 20
0.0
 30
0.0
 70
   128
 71
    30
 72
    32
 73
    29
  0
VERTEX
  5
313
  8
0
 62
     9
 10
0.0
 20
0.0
 30
0.0
 70
   128
 71
    35
 72
    34
 73
    33
  0
VERTEX
  5
314
  8
0
 62
     9
 10
0.0
 20
0.0
 30
0.0
 70
   128
 71
    38
 72
    37
 73
    36
  0
VERTEX
  5
315
  8
0
 62
     9
 10
0.0
 20
0.0
 30
0.0
 70
   128
 71
    41
 72
    40
 73
    39
  0
VERTEX
  5
316
  8
0
 62
     9
 10
0.0
 20
0.0
 30
0.0
 70
   128
 71
    44
 72
    43
 73
    42
  0
VERTEX
  5
317
  8
0
 62
     9
 10
0.0
 20
0.0
 30
0.0
 70
   128
 71
    47
 72
    46
 73
    45
  0
VERTEX
  5
318
  8
0
 62
     9
 10
0.0
 20
0.0
 30
0.0
 70
   128
 71
    50
 72
    49
 73
    48
  0
VERTEX
  5
319
  8
0
 62
     9
 10
0.0
 20
0.0
 30
0.0
 70
   128
 71
    53
 72
    52
 73
    51
  0
VERTEX
  5
31A
  8
0
 62
     9
 10
0.0
 20
0.0
 30
0.0
 70
   128
 71
    56
 72
    55
 73
    54
  0
VERTEX
  5
31B
  8
0
 62
     9
 10
0.0
 20
0.0
 30
0.0
 70
   128
 71
    58
 72
    51
 73
    57
  0
VERTEX
  5
31C
  8
0
 62
     9
 10
0.0
 20
0.0
 30
0.0
 70
   128
 71
    52
 72
    57
 73
    51
  0
VERTEX
  5
31D
  8
0
 62
     9
 10
0.0
 20
0.0
 30
0.0
 70
   128
 71
    60
 72
    59
 73
    58
  0
VERTEX
  5
31E
  8
0
 62
     9
 10
0.0
 20
0.0
 30
0.0
 70
   128
 71
    58
 72
    57
 73
    60
  0
VERTEX
  5
31F
  8
0
 62
     9
 10
0.0
 20
0.0
 30
0.0
 70
   128
 71
    59
 72
    26
 73
    28
  0
VERTEX
  5
320
  8
0
 62
     9
 10
0.0
 20
0.0
 30
0.0
 70
   128
 71
    26
 72
    59
 73
    60
  0
VERTEX
  5
321
  8
0
 62
     9
 10
0.0
 20
0.0
 30
0.0
 70
   128
 71
    55
 72
    53
 73
    54
  0
VERTEX
  5
322
  8
0
 62
     9
 10
0.0
 20
0.0
 30
0.0
 70
   128
 71
    53
 72
    55
 73
    52
  0
VERTEX
  5
323
  8
0
 62
     9
 10
0.0
 20
0.0
 30
0.0
 70
   128
 71
    56
 72
    47
 73
    45
  0
VERTEX
  5
324
  8
0
 62
     9
 10
0.0
 20
0.0
 30
0.0
 70
   128
 71
    54
 72
    47
 73
    56
  0
VERTEX
  5
325
  8
0
 62
     9
 10
0.0
 20
0.0
 30
0.0
 70
   128
 71
    48
 72
    46
 73
    50
  0
VERTEX
  5
326
  8
0
 62
     9
 10
0.0
 20
0.0
 30
0.0
 70
   128
 71
    45
 72
    46
 73
    48
  0
VERTEX
  5
327
  8
0
 62
     9
 10
0.0
 20
0.0
 30
0.0
 70
   128
 71
    41
 72
    49
 73
    40
  0
VERTEX
  5
328
  8
0
 62
     9
 10
0.0
 20
0.0
 30
0.0
 70
   128
 71
    49
 72
    50
 73
    40
  0
VERTEX
  5
329
  8
0
 62
     9
 10
0.0
 20
0.0
 30
0.0
 70
   128
 71
    44
 72
    42
 73
    39
  0
VERTEX
  5
32A
  8
0
 62
     9
 10
0.0
 20
0.0
 30
0.0
 70
   128
 71
    42
 72
    41
 73
    39
  0
VERTEX
  5
32B
  8
0
 62
     9
 10
0.0
 20
0.0
 30
0.0
 70
   128
 71
    35
 72
    33
 73
    43
  0
VERTEX
  5
32C
  8
0
 62
     9
 10
0.0
 20
0.0
 30
0.0
 70
   128
 71
    35
 72
    43
 73
    44
  0
VERTEX
  5
32D
  8
0
 62
     9
 10
0.0
 20
0.0
 30
0.0
 70
   128
 71
    34
 72
    36
 73
    37
  0
VERTEX
  5
32E
  8
0
 62
     9
 10
0.0
 20
0.0
 30
0.0
 70
   128
 71
    34
 72
    37
 73
    33
  0
VERTEX
  5
32F
  8
0
 62
     9
 10
0.0
 20
0.0
 30
0.0
 70
   128
 71
    63
 72
    62
 73
    61
  0
VERTEX
  5
330
  8
0
 62
     9
 10
0.0
 20
0.0
 30
0.0
 70
   128
 71
    66
 72
    65
 73
    64
  0
VERTEX
  5
331
  8
0
 62
     9
 10
0.0
 20
0.0
 30
0.0
 70
   128
 71
    69
 72
    68
 73
    67
  0
VERTEX
  5
332
  8
0
 62
     9
 10
0.0
 20
0.0
 30
0.0
 70
   128
 71
    72
 72
    71
 73
    70
  0
VERTEX
  5
333
  8
0
 62
     9
 10
0.0
 20
0.0
 30
0.0
 70
   128
 71
    75
 72
    74
 73
    73
  0
VERTEX
  5
334
  8
0
 62
     9
 10
0.0
 20
0.0
 30
0.0
 70
   128
 71
    78
 72
    77
 73
    76
  0
VERTEX
  5
335
  8
0
 62
     9
 10
0.0
 20
0.0
 30
0.0
 70
   128
 71
    81
 72
    80
 73
    79
  0
VERTEX
  5
336
  8
0
 62
     9
 10
0.0
 20
0.0
 30
0.0
 70
   128
 71
    84
 72
    83
 73
    82
  0
VERTEX
  5
337
  8
0
 62
     9
 10
0.0
 20
0.0
 30
0.0
 70
   128
 71
    85
 72
    82
 73
    83
  0
VERTEX
  5
338
  8
0
 62
     9
 10
0.0
 20
0.0
 30
0.0
 70
   128
 71
    84
 72
    87
 73
    86
  0
VERTEX
  5
339
  8
0
 62
     9
 10
0.0
 20
0.0
 30
0.0
 70
   128
 71
    86
 72
    83
 73
    84
  0
VERTEX
  5
33A
  8
0
 62
     9
 10
0.0
 20
0.0
 30
0.0
 70
   128
 71
    88
 72
    87
 73
    29
  0
VERTEX
  5
33B
  8
0
 62
     9
 10
0.0
 20
0.0
 30
0.0
 70
   128
 71
    87
 72
    88
 73
    86
  0
VERTEX
  5
33C
  8
0
 62
     9
 10
0.0
 20
0.0
 30
0.0
 70
   128
 71
    88
 72
    29
 73
    32
  0
VERTEX
  5
33D
  8
0
 62
     9
 10
0.0
 20
0.0
 30
0.0
 70
   128
 71
    77
 72
    78
 73
    85
  0
VERTEX
  5
33E
  8
0
 62
     9
 10
0.0
 20
0.0
 30
0.0
 70
   128
 71
    85
 72
    78
 73
    82
  0
VERTEX
  5
33F
  8
0
 62
     9
 10
0.0
 20
0.0
 30
0.0
 70
   128
 71
    76
 72
    81
 73
    79
  0
VERTEX
  5
340
  8
0
 62
     9
 10
0.0
 20
0.0
 30
0.0
 70
   128
 71
    77
 72
    81
 73
    76
  0
VERTEX
  5
341
  8
0
 62
     9
 10
0.0
 20
0.0
 30
0.0
 70
   128
 71
    71
 72
    80
 73
    70
  0
VERTEX
  5
342
  8
0
 62
     9
 10
0.0
 20
0.0
 30
0.0
 70
   128
 71
    79
 72
    80
 73
    71
  0
VERTEX
  5
343
  8
0
 62
     9
 10
0.0
 20
0.0
 30
0.0
 70
   128
 71
    75
 72
    72
 73
    74
  0
VERTEX
  5
344
  8
0
 62
     9
 10
0.0
 20
0.0
 30
0.0
 70
   128
 71
    72
 72
    70
 73
    74
  0
VERTEX
  5
345
  8
0
 62
     9
 10
0.0
 20
0.0
 30
0.0
 70
   128
 71
    66
 72
    64
 73
    73
  0
VERTEX
  5
346
  8
0
 62
     9
 10
0.0
 20
0.0
 30
0.0
 70
   128
 71
    64
 72
    75
 73
    73
  0
VERTEX
  5
347
  8
0
 62
     9
 10
0.0
 20
0.0
 30
0.0
 70
   128
 71
    69
 72
    67
 73
    65
  0
VERTEX
  5
348
  8
0
 62
     9
 10
0.0
 20
0.0
 30
0.0
 70
   128
 71
    69
 72
    65
 73
    66
  0
VERTEX
  5
349
  8
0
 62
     9
 10
0.0
 20
0.0
 30
0.0
 70
   128
 71
    68
 72
    63
 73
    61
  0
VERTEX
  5
34A
  8
0
 62
     9
 10
0.0
 20
0.0
 30
0.0
 70
   128
 71
    68
 72
    61
 73
    67
  0
VERTEX
  5
34B
  8
0
 62
     9
 10
0.0
 20
0.0
 30
0.0
 70
   128
 71
    38
 72
    36
 73
    89
  0
VERTEX
  5
34C
  8
0
 62
     9
 10
0.0
 20
0.0
 30
0.0
 70
   128
 71
    89
 72
    91
 73
    90
  0
VERTEX
  5
34D
  8
0
 62
     9
 10
0.0
 20
0.0
 30
0.0
 70
   128
 71
    36
 72
    91
 73
    89
  0
VERTEX
  5
34E
  8
0
 62
     9
 10
0.0
 20
0.0
 30
0.0
 70
   128
 71
    91
 72
    92
 73
    90
  0
VERTEX
  5
34F
  8
0
 62
     9
 10
0.0
 20
0.0
 30
0.0
 70
   128
 71
    95
 72
    94
 73
    93
  0
VERTEX
  5
350
  8
0
 62
     9
 10
0.0
 20
0.0
 30
0.0
 70
   128
 71
    63
 72
    95
 73
    62
  0
VERTEX
  5
351
  8
0
 62
     9
 10
0.0
 20
0.0
 30
0.0
 70
   128
 71
    63
 72
    94
 73
    95
  0
VERTEX
  5
352
  8
0
 62
     9
 10
0.0
 20
0.0
 30
0.0
 70
   128
 71
    94
 72
    96
 73
    93
  0
VERTEX
  5
353
  8
0
 62
     9
 10
0.0
 20
0.0
 30
0.0
 70
   128
 71
    90
 72
    92
 73
    97
  0
VERTEX
  5
354
  8
0
 62
     9
 10
0.0
 20
0.0
 30
0.0
 70
   128
 71
   100
 72
    99
 73
    98
  0
VERTEX
  5
355
  8
0
 62
     9
 10
0.0
 20
0.0
 30
0.0
 70
   128
 71
   103
 72
   102
 73
   101
  0
VERTEX
  5
356
  8
0
 62
     9
 10
0.0
 20
0.0
 30
0.0
 70
   128
 71
   106
 72
   105
 73
   104
  0
VERTEX
  5
357
  8
0
 62
     9
 10
0.0
 20
0.0
 30
0.0
 70
   128
 71
   109
 72
   108
 73
   107
  0
VERTEX
  5
358
  8
0
 62
     9
 10
0.0
 20
0.0
 30
0.0
 70
   128
 71
   112
 72
   111
 73
   110
  0
VERTEX
  5
359
  8
0
 62
     9
 10
0.0
 20
0.0
 30
0.0
 70
   128
 71
   110
 72
   114
 73
   113
  0
VERTEX
  5
35A
  8
0
 62
     9
 10
0.0
 20
0.0
 30
0.0
 70
   128
 71
   111
 72
   116
 73
   115
  0
VERTEX
  5
35B
  8
0
 62
     9
 10
0.0
 20
0.0
 30
0.0
 70
   128
 71
   116
 72
   111
 73
   112
  0
VERTEX
  5
35C
  8
0
 62
     9
 10
0.0
 20
0.0
 30
0.0
 70
   128
 71
    96
 72
   115
 73
    93
  0
VERTEX
  5
35D
  8
0
 62
     9
 10
0.0
 20
0.0
 30
0.0
 70
   128
 71
   116
 72
    93
 73
   115
  0
VERTEX
  5
35E
  8
0
 62
     9
 10
0.0
 20
0.0
 30
0.0
 70
   128
 71
   113
 72
   114
 73
   105
  0
VERTEX
  5
35F
  8
0
 62
     9
 10
0.0
 20
0.0
 30
0.0
 70
   128
 71
   112
 72
   110
 73
   113
  0
VERTEX
  5
360
  8
0
 62
     9
 10
0.0
 20
0.0
 30
0.0
 70
   128
 71
   106
 72
   104
 73
   108
  0
VERTEX
  5
361
  8
0
 62
     9
 10
0.0
 20
0.0
 30
0.0
 70
   128
 71
   105
 72
   114
 73
   104
  0
VERTEX
  5
362
  8
0
 62
     9
 10
0.0
 20
0.0
 30
0.0
 70
   128
 71
    98
 72
   109
 73
   107
  0
VERTEX
  5
363
  8
0
 62
     9
 10
0.0
 20
0.0
 30
0.0
 70
   128
 71
   109
 72
   106
 73
   108
  0
VERTEX
  5
364
  8
0
 62
     9
 10
0.0
 20
0.0
 30
0.0
 70
   128
 71
   103
 72
    99
 73
   100
  0
VERTEX
  5
365
  8
0
 62
     9
 10
0.0
 20
0.0
 30
0.0
 70
   128
 71
   100
 72
    98
 73
   107
  0
VERTEX
  5
366
  8
0
 62
     9
 10
0.0
 20
0.0
 30
0.0
 70
   128
 71
   102
 72
    97
 73
   101
  0
VERTEX
  5
367
  8
0
 62
     9
 10
0.0
 20
0.0
 30
0.0
 70
   128
 71
   103
 72
   101
 73
    99
  0
VERTEX
  5
368
  8
0
 62
     9
 10
0.0
 20
0.0
 30
0.0
 70
   128
 71
    97
 72
   102
 73
    90
  0
VERTEX
  5
369
  8
0
 62
     9
 10
0.0
 20
0.0
 30
0.0
 70
   128
 71
   119
 72
   118
 73
   117
  0
VERTEX
  5
36A
  8
0
 62
     9
 10
0.0
 20
0.0
 30
0.0
 70
   128
 71
   122
 72
   121
 73
   120
  0
VERTEX
  5
36B
  8
0
 62
     9
 10
0.0
 20
0.0
 30
0.0
 70
   128
 71
   121
 72
   118
 73
   120
  0
VERTEX
  5
36C
  8
0
 62
     9
 10
0.0
 20
0.0
 30
0.0
 70
   128
 71
   123
 72
   122
 73
   120
  0
VERTEX
  5
36D
  8
0
 62
     9
 10
0.0
 20
0.0
 30
0.0
 70
   128
 71
   124
 72
   119
 73
   117
  0
VERTEX
  5
36E
  8
0
 62
     9
 10
0.0
 20
0.0
 30
0.0
 70
   128
 71
   121
 72
   117
 73
   118
  0
VERTEX
  5
36F
  8
0
 62
     9
 10
0.0
 20
0.0
 30
0.0
 70
   128
 71
   127
 72
   126
 73
   125
  0
VERTEX
  5
370
  8
0
 62
     9
 10
0.0
 20
0.0
 30
0.0
 70
   128
 71
   130
 72
   129
 73
   128
  0
VERTEX
  5
371
  8
0
 62
     9
 10
0.0
 20
0.0
 30
0.0
 70
   128
 71
   133
 72
   132
 73
   131
  0
VERTEX
  5
372
  8
0
 62
     9
 10
0.0
 20
0.0
 30
0.0
 70
   128
 71
   136
 72
   135
 73
   134
  0
VERTEX
  5
373
  8
0
 62
     9
 10
0.0
 20
0.0
 30
0.0
 70
   128
 71
   139
 72
   138
 73
   137
  0
VERTEX
  5
374
  8
0
 62
     9
 10
0.0
 20
0.0
 30
0.0
 70
   128
 71
   142
 72
   141
 73
   140
  0
VERTEX
  5
375
  8
0
 62
     9
 10
0.0
 20
0.0
 30
0.0
 70
   128
 71
   145
 72
   144
 73
   143
  0
VERTEX
  5
376
  8
0
 62
     9
 10
0.0
 20
0.0
 30
0.0
 70
   128
 71
   147
 72
   144
 73
   146
  0
VERTEX
  5
377
  8
0
 62
     9
 10
0.0
 20
0.0
 30
0.0
 70
   128
 71
   149
 72
   148
 73
   143
  0
VERTEX
  5
378
  8
0
 62
     9
 10
0.0
 20
0.0
 30
0.0
 70
   128
 71
   145
 72
   143
 73
   148
  0
VERTEX
  5
379
  8
0
 62
     9
 10
0.0
 20
0.0
 30
0.0
 70
   128
 71
   149
 72
   151
 73
   150
  0
VERTEX
  5
37A
  8
0
 62
     9
 10
0.0
 20
0.0
 30
0.0
 70
   128
 71
   150
 72
   148
 73
   149
  0
VERTEX
  5
37B
  8
0
 62
     9
 10
0.0
 20
0.0
 30
0.0
 70
   128
 71
   123
 72
   151
 73
   122
  0
VERTEX
  5
37C
  8
0
 62
     9
 10
0.0
 20
0.0
 30
0.0
 70
   128
 71
   151
 72
   123
 73
   150
  0
VERTEX
  5
37D
  8
0
 62
     9
 10
0.0
 20
0.0
 30
0.0
 70
   128
 71
   139
 72
   147
 73
   146
  0
VERTEX
  5
37E
  8
0
 62
     9
 10
0.0
 20
0.0
 30
0.0
 70
   128
 71
   145
 72
   146
 73
   144
  0
VERTEX
  5
37F
  8
0
 62
     9
 10
0.0
 20
0.0
 30
0.0
 70
   128
 71
   138
 72
   140
 73
   137
  0
VERTEX
  5
380
  8
0
 62
     9
 10
0.0
 20
0.0
 30
0.0
 70
   128
 71
   147
 72
   139
 73
   137
  0
VERTEX
  5
381
  8
0
 62
     9
 10
0.0
 20
0.0
 30
0.0
 70
   128
 71
   142
 72
   132
 73
   141
  0
VERTEX
  5
382
  8
0
 62
     9
 10
0.0
 20
0.0
 30
0.0
 70
   128
 71
   140
 72
   138
 73
   142
  0
VERTEX
  5
383
  8
0
 62
     9
 10
0.0
 20
0.0
 30
0.0
 70
   128
 71
   133
 72
   131
 73
   134
  0
VERTEX
  5
384
  8
0
 62
     9
 10
0.0
 20
0.0
 30
0.0
 70
   128
 71
   133
 72
   141
 73
   132
  0
VERTEX
  5
385
  8
0
 62
     9
 10
0.0
 20
0.0
 30
0.0
 70
   128
 71
   125
 72
   126
 73
   129
  0
VERTEX
  5
386
  8
0
 62
     9
 10
0.0
 20
0.0
 30
0.0
 70
   128
 71
   135
 72
   136
 73
   130
  0
VERTEX
  5
387
  8
0
 62
     9
 10
0.0
 20
0.0
 30
0.0
 70
   128
 71
   136
 72
   134
 73
   131
  0
VERTEX
  5
388
  8
0
 62
     9
 10
0.0
 20
0.0
 30
0.0
 70
   128
 71
   126
 72
   128
 73
   129
  0
VERTEX
  5
389
  8
0
 62
     9
 10
0.0
 20
0.0
 30
0.0
 70
   128
 71
   130
 72
   128
 73
   135
  0
VERTEX
  5
38A
  8
0
 62
     9
 10
0.0
 20
0.0
 30
0.0
 70
   128
 71
   125
 72
   152
 73
   127
  0
VERTEX
  5
38B
  8
0
 62
     9
 10
0.0
 20
0.0
 30
0.0
 70
   128
 71
   155
 72
   154
 73
   153
  0
VERTEX
  5
38C
  8
0
 62
     9
 10
0.0
 20
0.0
 30
0.0
 70
   128
 71
   158
 72
   157
 73
   156
  0
VERTEX
  5
38D
  8
0
 62
     9
 10
0.0
 20
0.0
 30
0.0
 70
   128
 71
   161
 72
   160
 73
   159
  0
VERTEX
  5
38E
  8
0
 62
     9
 10
0.0
 20
0.0
 30
0.0
 70
   128
 71
   164
 72
   163
 73
   162
  0
VERTEX
  5
38F
  8
0
 62
     9
 10
0.0
 20
0.0
 30
0.0
 70
   128
 71
   167
 72
   166
 73
   165
  0
VERTEX
  5
390
  8
0
 62
     9
 10
0.0
 20
0.0
 30
0.0
 70
   128
 71
   170
 72
   169
 73
   168
  0
VERTEX
  5
391
  8
0
 62
     9
 10
0.0
 20
0.0
 30
0.0
 70
   128
 71
   168
 72
   171
 73
   170
  0
VERTEX
  5
392
  8
0
 62
     9
 10
0.0
 20
0.0
 30
0.0
 70
   128
 71
   173
 72
   169
 73
   172
  0
VERTEX
  5
393
  8
0
 62
     9
 10
0.0
 20
0.0
 30
0.0
 70
   128
 71
   169
 72
   173
 73
   168
  0
VERTEX
  5
394
  8
0
 62
     9
 10
0.0
 20
0.0
 30
0.0
 70
   128
 71
   119
 72
   124
 73
   172
  0
VERTEX
  5
395
  8
0
 62
     9
 10
0.0
 20
0.0
 30
0.0
 70
   128
 71
   173
 72
   172
 73
   124
  0
VERTEX
  5
396
  8
0
 62
     9
 10
0.0
 20
0.0
 30
0.0
 70
   128
 71
   170
 72
   171
 73
   163
  0
VERTEX
  5
397
  8
0
 62
     9
 10
0.0
 20
0.0
 30
0.0
 70
   128
 71
   163
 72
   171
 73
   162
  0
VERTEX
  5
398
  8
0
 62
     9
 10
0.0
 20
0.0
 30
0.0
 70
   128
 71
   162
 72
   166
 73
   164
  0
VERTEX
  5
399
  8
0
 62
     9
 10
0.0
 20
0.0
 30
0.0
 70
   128
 71
   167
 72
   165
 73
   156
  0
VERTEX
  5
39A
  8
0
 62
     9
 10
0.0
 20
0.0
 30
0.0
 70
   128
 71
   167
 72
   164
 73
   166
  0
VERTEX
  5
39B
  8
0
 62
     9
 10
0.0
 20
0.0
 30
0.0
 70
   128
 71
   157
 72
   158
 73
   159
  0
VERTEX
  5
39C
  8
0
 62
     9
 10
0.0
 20
0.0
 30
0.0
 70
   128
 71
   158
 72
   156
 73
   165
  0
VERTEX
  5
39D
  8
0
 62
     9
 10
0.0
 20
0.0
 30
0.0
 70
   128
 71
   174
 72
   153
 73
   154
  0
VERTEX
  5
39E
  8
0
 62
     9
 10
0.0
 20
0.0
 30
0.0
 70
   128
 71
   161
 72
   155
 73
   160
  0
VERTEX
  5
39F
  8
0
 62
     9
 10
0.0
 20
0.0
 30
0.0
 70
   128
 71
   159
 72
   160
 73
   157
  0
VERTEX
  5
3A0
  8
0
 62
     9
 10
0.0
 20
0.0
 30
0.0
 70
   128
 71
   161
 72
   154
 73
   155
  0
VERTEX
  5
3A1
  8
0
 62
     9
 10
0.0
 20
0.0
 30
0.0
 70
   128
 71
   177
 72
   176
 73
   175
  0
VERTEX
  5
3A2
  8
0
 62
     9
 10
0.0
 20
0.0
 30
0.0
 70
   128
 71
   127
 72
   152
 73
   178
  0
VERTEX
  5
3A3
  8
0
 62
     9
 10
0.0
 20
0.0
 30
0.0
 70
   128
 71
   179
 72
   178
 73
   152
  0
VERTEX
  5
3A4
  8
0
 62
     9
 10
0.0
 20
0.0
 30
0.0
 70
   128
 71
   177
 72
   179
 73
   176
  0
VERTEX
  5
3A5
  8
0
 62
     9
 10
0.0
 20
0.0
 30
0.0
 70
   128
 71
   179
 72
   177
 73
   178
  0
VERTEX
  5
3A6
  8
0
 62
     9
 10
0.0
 20
0.0
 30
0.0
 70
   128
 71
   176
 72
   180
 73
   175
  0
VERTEX
  5
3A7
  8
0
 62
     9
 10
0.0
 20
0.0
 30
0.0
 70
   128
 71
   183
 72
   182
 73
   181
  0
VERTEX
  5
3A8
  8
0
 62
     9
 10
0.0
 20
0.0
 30
0.0
 70
   128
 71
   174
 72
   185
 73
   184
  0
VERTEX
  5
3A9
  8
0
 62
     9
 10
0.0
 20
0.0
 30
0.0
 70
   128
 71
   185
 72
   182
 73
   184
  0
VERTEX
  5
3AA
  8
0
 62
     9
 10
0.0
 20
0.0
 30
0.0
 70
   128
 71
   153
 72
   174
 73
   184
  0
VERTEX
  5
3AB
  8
0
 62
     9
 10
0.0
 20
0.0
 30
0.0
 70
   128
 71
   186
 72
   183
 73
   181
  0
VERTEX
  5
3AC
  8
0
 62
     9
 10
0.0
 20
0.0
 30
0.0
 70
   128
 71
   185
 72
   181
 73
   182
  0
VERTEX
  5
3AD
  8
0
 62
     9
 10
0.0
 20
0.0
 30
0.0
 70
   128
 71
   189
 72
   188
 73
   187
  0
VERTEX
  5
3AE
  8
0
 62
     9
 10
0.0
 20
0.0
 30
0.0
 70
   128
 71
   192
 72
   191
 73
   190
  0
VERTEX
  5
3AF
  8
0
 62
     9
 10
0.0
 20
0.0
 30
0.0
 70
   128
 71
   195
 72
   194
 73
   193
  0
VERTEX
  5
3B0
  8
0
 62
     9
 10
0.0
 20
0.0
 30
0.0
 70
   128
 71
   198
 72
   197
 73
   196
  0
VERTEX
  5
3B1
  8
0
 62
     9
 10
0.0
 20
0.0
 30
0.0
 70
   128
 71
   201
 72
   200
 73
   199
  0
VERTEX
  5
3B2
  8
0
 62
     9
 10
0.0
 20
0.0
 30
0.0
 70
   128
 71
   204
 72
   203
 73
   202
  0
VERTEX
  5
3B3
  8
0
 62
     9
 10
0.0
 20
0.0
 30
0.0
 70
   128
 71
   206
 72
   205
 73
   201
  0
VERTEX
  5
3B4
  8
0
 62
     9
 10
0.0
 20
0.0
 30
0.0
 70
   128
 71
   201
 72
   199
 73
   206
  0
VERTEX
  5
3B5
  8
0
 62
     9
 10
0.0
 20
0.0
 30
0.0
 70
   128
 71
   205
 72
   207
 73
   180
  0
VERTEX
  5
3B6
  8
0
 62
     9
 10
0.0
 20
0.0
 30
0.0
 70
   128
 71
   207
 72
   205
 73
   206
  0
VERTEX
  5
3B7
  8
0
 62
     9
 10
0.0
 20
0.0
 30
0.0
 70
   128
 71
   200
 72
   202
 73
   199
  0
VERTEX
  5
3B8
  8
0
 62
     9
 10
0.0
 20
0.0
 30
0.0
 70
   128
 71
   207
 72
   175
 73
   180
  0
VERTEX
  5
3B9
  8
0
 62
     9
 10
0.0
 20
0.0
 30
0.0
 70
   128
 71
   202
 72
   200
 73
   204
  0
VERTEX
  5
3BA
  8
0
 62
     9
 10
0.0
 20
0.0
 30
0.0
 70
   128
 71
   193
 72
   198
 73
   196
  0
VERTEX
  5
3BB
  8
0
 62
     9
 10
0.0
 20
0.0
 30
0.0
 70
   128
 71
   203
 72
   204
 73
   194
  0
VERTEX
  5
3BC
  8
0
 62
     9
 10
0.0
 20
0.0
 30
0.0
 70
   128
 71
   195
 72
   193
 73
   196
  0
VERTEX
  5
3BD
  8
0
 62
     9
 10
0.0
 20
0.0
 30
0.0
 70
   128
 71
   195
 72
   203
 73
   194
  0
VERTEX
  5
3BE
  8
0
 62
     9
 10
0.0
 20
0.0
 30
0.0
 70
   128
 71
   192
 72
   190
 73
   197
  0
VERTEX
  5
3BF
  8
0
 62
     9
 10
0.0
 20
0.0
 30
0.0
 70
   128
 71
   192
 72
   197
 73
   198
  0
VERTEX
  5
3C0
  8
0
 62
     9
 10
0.0
 20
0.0
 30
0.0
 70
   128
 71
   187
 72
   208
 73
   189
  0
VERTEX
  5
3C1
  8
0
 62
     9
 10
0.0
 20
0.0
 30
0.0
 70
   128
 71
   191
 72
   188
 73
   190
  0
VERTEX
  5
3C2
  8
0
 62
     9
 10
0.0
 20
0.0
 30
0.0
 70
   128
 71
   191
 72
   187
 73
   188
  0
VERTEX
  5
3C3
  8
0
 62
     9
 10
0.0
 20
0.0
 30
0.0
 70
   128
 71
   211
 72
   210
 73
   209
  0
VERTEX
  5
3C4
  8
0
 62
     9
 10
0.0
 20
0.0
 30
0.0
 70
   128
 71
   214
 72
   213
 73
   212
  0
VERTEX
  5
3C5
  8
0
 62
     9
 10
0.0
 20
0.0
 30
0.0
 70
   128
 71
   217
 72
   216
 73
   215
  0
VERTEX
  5
3C6
  8
0
 62
     9
 10
0.0
 20
0.0
 30
0.0
 70
   128
 71
   220
 72
   219
 73
   218
  0
VERTEX
  5
3C7
  8
0
 62
     9
 10
0.0
 20
0.0
 30
0.0
 70
   128
 71
   223
 72
   222
 73
   221
  0
VERTEX
  5
3C8
  8
0
 62
     9
 10
0.0
 20
0.0
 30
0.0
 70
   128
 71
   226
 72
   225
 73
   224
  0
VERTEX
  5
3C9
  8
0
 62
     9
 10
0.0
 20
0.0
 30
0.0
 70
   128
 71
   229
 72
   228
 73
   227
  0
VERTEX
  5
3CA
  8
0
 62
     9
 10
0.0
 20
0.0
 30
0.0
 70
   128
 71
   232
 72
   231
 73
   230
  0
VERTEX
  5
3CB
  8
0
 62
     9
 10
0.0
 20
0.0
 30
0.0
 70
   128
 71
   230
 72
   226
 73
   232
  0
VERTEX
  5
3CC
  8
0
 62
     9
 10
0.0
 20
0.0
 30
0.0
 70
   128
 71
   231
 72
   234
 73
   233
  0
VERTEX
  5
3CD
  8
0
 62
     9
 10
0.0
 20
0.0
 30
0.0
 70
   128
 71
   234
 72
   231
 73
   232
  0
VERTEX
  5
3CE
  8
0
 62
     9
 10
0.0
 20
0.0
 30
0.0
 70
   128
 71
   186
 72
   233
 73
   235
  0
VERTEX
  5
3CF
  8
0
 62
     9
 10
0.0
 20
0.0
 30
0.0
 70
   128
 71
   234
 72
   235
 73
   233
  0
VERTEX
  5
3D0
  8
0
 62
     9
 10
0.0
 20
0.0
 30
0.0
 70
   128
 71
   186
 72
   235
 73
   183
  0
VERTEX
  5
3D1
  8
0
 62
     9
 10
0.0
 20
0.0
 30
0.0
 70
   128
 71
   229
 72
   224
 73
   225
  0
VERTEX
  5
3D2
  8
0
 62
     9
 10
0.0
 20
0.0
 30
0.0
 70
   128
 71
   230
 72
   225
 73
   226
  0
VERTEX
  5
3D3
  8
0
 62
     9
 10
0.0
 20
0.0
 30
0.0
 70
   128
 71
   227
 72
   228
 73
   219
  0
VERTEX
  5
3D4
  8
0
 62
     9
 10
0.0
 20
0.0
 30
0.0
 70
   128
 71
   224
 72
   229
 73
   227
  0
VERTEX
  5
3D5
  8
0
 62
     9
 10
0.0
 20
0.0
 30
0.0
 70
   128
 71
   219
 72
   228
 73
   218
  0
VERTEX
  5
3D6
  8
0
 62
     9
 10
0.0
 20
0.0
 30
0.0
 70
   128
 71
   222
 72
   223
 73
   220
  0
VERTEX
  5
3D7
  8
0
 62
     9
 10
0.0
 20
0.0
 30
0.0
 70
   128
 71
   220
 72
   218
 73
   222
  0
VERTEX
  5
3D8
  8
0
 62
     9
 10
0.0
 20
0.0
 30
0.0
 70
   128
 71
   212
 72
   223
 73
   221
  0
VERTEX
  5
3D9
  8
0
 62
     9
 10
0.0
 20
0.0
 30
0.0
 70
   128
 71
   213
 72
   214
 73
   215
  0
VERTEX
  5
3DA
  8
0
 62
     9
 10
0.0
 20
0.0
 30
0.0
 70
   128
 71
   214
 72
   212
 73
   221
  0
VERTEX
  5
3DB
  8
0
 62
     9
 10
0.0
 20
0.0
 30
0.0
 70
   128
 71
   217
 72
   211
 73
   216
  0
VERTEX
  5
3DC
  8
0
 62
     9
 10
0.0
 20
0.0
 30
0.0
 70
   128
 71
   215
 72
   216
 73
   213
  0
VERTEX
  5
3DD
  8
0
 62
     9
 10
0.0
 20
0.0
 30
0.0
 70
   128
 71
   210
 72
   236
 73
   209
  0
VERTEX
  5
3DE
  8
0
 62
     9
 10
0.0
 20
0.0
 30
0.0
 70
   128
 71
   217
 72
   210
 73
   211
  0
VERTEX
  5
3DF
  8
0
 62
     9
 10
0.0
 20
0.0
 30
0.0
 70
   128
 71
   208
 72
   238
 73
   237
  0
VERTEX
  5
3E0
  8
0
 62
     9
 10
0.0
 20
0.0
 30
0.0
 70
   128
 71
   236
 72
   240
 73
   239
  0
VERTEX
  5
3E1
  8
0
 62
     9
 10
0.0
 20
0.0
 30
0.0
 70
   128
 71
   240
 72
   238
 73
   239
  0
VERTEX
  5
3E2
  8
0
 62
     9
 10
0.0
 20
0.0
 30
0.0
 70
   128
 71
   209
 72
   236
 73
   239
  0
VERTEX
  5
3E3
  8
0
 62
     9
 10
0.0
 20
0.0
 30
0.0
 70
   128
 71
   189
 72
   208
 73
   237
  0
VERTEX
  5
3E4
  8
0
 62
     9
 10
0.0
 20
0.0
 30
0.0
 70
   128
 71
   240
 72
   237
 73
   238
  0
VERTEX
  5
3E5
  8
0
 62
     9
 10
0.0
 20
0.0
 30
0.0
 70
   128
 71
    23
 72
   241
 73
    27
  0
VERTEX
  5
3E6
  8
0
 62
     9
 10
0.0
 20
0.0
 30
0.0
 70
   128
 71
   241
 72
    23
 73
    22
  0
VERTEX
  5
3E7
  8
0
 62
     9
 10
0.0
 20
0.0
 30
0.0
 70
   128
 71
   241
 72
    46
 73
    47
  0
VERTEX
  5
3E8
  8
0
 62
     9
 10
0.0
 20
0.0
 30
0.0
 70
   128
 71
   242
 72
   241
 73
    15
  0
VERTEX
  5
3E9
  8
0
 62
     9
 10
0.0
 20
0.0
 30
0.0
 70
   128
 71
    76
 72
   242
 73
    78
  0
VERTEX
  5
3EA
  8
0
 62
     9
 10
0.0
 20
0.0
 30
0.0
 70
   128
 71
   242
 72
    76
 73
    79
  0
VERTEX
  5
3EB
  8
0
 62
     9
 10
0.0
 20
0.0
 30
0.0
 70
   128
 71
     7
 72
     1
 73
   242
  0
VERTEX
  5
3EC
  8
0
 62
     9
 10
0.0
 20
0.0
 30
0.0
 70
   128
 71
   105
 72
   243
 73
   113
  0
VERTEX
  5
3ED
  8
0
 62
     9
 10
0.0
 20
0.0
 30
0.0
 70
   128
 71
   242
 72
    87
 73
    84
  0
VERTEX
  5
3EE
  8
0
 62
     9
 10
0.0
 20
0.0
 30
0.0
 70
   128
 71
   243
 72
   112
 73
   113
  0
VERTEX
  5
3EF
  8
0
 62
     9
 10
0.0
 20
0.0
 30
0.0
 70
   128
 71
    29
 72
   242
 73
    31
  0
VERTEX
  5
3F0
  8
0
 62
     9
 10
0.0
 20
0.0
 30
0.0
 70
   128
 71
    31
 72
   242
 73
     2
  0
VERTEX
  5
3F1
  8
0
 62
     9
 10
0.0
 20
0.0
 30
0.0
 70
   128
 71
    82
 72
    78
 73
   242
  0
VERTEX
  5
3F2
  8
0
 62
     9
 10
0.0
 20
0.0
 30
0.0
 70
   128
 71
    84
 72
    82
 73
   242
  0
VERTEX
  5
3F3
  8
0
 62
     9
 10
0.0
 20
0.0
 30
0.0
 70
   128
 71
     5
 72
     7
 73
   242
  0
VERTEX
  5
3F4
  8
0
 62
     9
 10
0.0
 20
0.0
 30
0.0
 70
   128
 71
   106
 72
   243
 73
   105
  0
VERTEX
  5
3F5
  8
0
 62
     9
 10
0.0
 20
0.0
 30
0.0
 70
   128
 71
     4
 72
   242
 73
    15
  0
VERTEX
  5
3F6
  8
0
 62
     9
 10
0.0
 20
0.0
 30
0.0
 70
   128
 71
    98
 72
   244
 73
   109
  0
VERTEX
  5
3F7
  8
0
 62
     9
 10
0.0
 20
0.0
 30
0.0
 70
   128
 71
    54
 72
   241
 73
    47
  0
VERTEX
  5
3F8
  8
0
 62
     9
 10
0.0
 20
0.0
 30
0.0
 70
   128
 71
   243
 72
    72
 73
    75
  0
VERTEX
  5
3F9
  8
0
 62
     9
 10
0.0
 20
0.0
 30
0.0
 70
   128
 71
   243
 72
    64
 73
    65
  0
VERTEX
  5
3FA
  8
0
 62
     9
 10
0.0
 20
0.0
 30
0.0
 70
   128
 71
    98
 72
    99
 73
   244
  0
VERTEX
  5
3FB
  8
0
 62
     9
 10
0.0
 20
0.0
 30
0.0
 70
   128
 71
    67
 72
   243
 73
    65
  0
VERTEX
  5
3FC
  8
0
 62
     9
 10
0.0
 20
0.0
 30
0.0
 70
   128
 71
    75
 72
    64
 73
   243
  0
VERTEX
  5
3FD
  8
0
 62
     9
 10
0.0
 20
0.0
 30
0.0
 70
   128
 71
    95
 72
   243
 73
    62
  0
VERTEX
  5
3FE
  8
0
 62
     9
 10
0.0
 20
0.0
 30
0.0
 70
   128
 71
    67
 72
    61
 73
   243
  0
VERTEX
  5
3FF
  8
0
 62
     9
 10
0.0
 20
0.0
 30
0.0
 70
   128
 71
   116
 72
   243
 73
    93
  0
VERTEX
  5
400
  8
0
 62
     9
 10
0.0
 20
0.0
 30
0.0
 70
   128
 71
    95
 72
    93
 73
   243
  0
VERTEX
  5
401
  8
0
 62
     9
 10
0.0
 20
0.0
 30
0.0
 70
   128
 71
   244
 72
    46
 73
   241
  0
VERTEX
  5
402
  8
0
 62
     9
 10
0.0
 20
0.0
 30
0.0
 70
   128
 71
   243
 72
   106
 73
   244
  0
VERTEX
  5
403
  8
0
 62
     9
 10
0.0
 20
0.0
 30
0.0
 70
   128
 71
   244
 72
    50
 73
    46
  0
VERTEX
  5
404
  8
0
 62
     9
 10
0.0
 20
0.0
 30
0.0
 70
   128
 71
    39
 72
   244
 73
    44
  0
VERTEX
  5
405
  8
0
 62
     9
 10
0.0
 20
0.0
 30
0.0
 70
   128
 71
    40
 72
   244
 73
    39
  0
VERTEX
  5
406
  8
0
 62
     9
 10
0.0
 20
0.0
 30
0.0
 70
   128
 71
   244
 72
    99
 73
   101
  0
VERTEX
  5
407
  8
0
 62
     9
 10
0.0
 20
0.0
 30
0.0
 70
   128
 71
   101
 72
    97
 73
   244
  0
VERTEX
  5
408
  8
0
 62
     9
 10
0.0
 20
0.0
 30
0.0
 70
   128
 71
    40
 72
    50
 73
   244
  0
VERTEX
  5
409
  8
0
 62
     9
 10
0.0
 20
0.0
 30
0.0
 70
   128
 71
   244
 72
    35
 73
    44
  0
VERTEX
  5
40A
  8
0
 62
     9
 10
0.0
 20
0.0
 30
0.0
 70
   128
 71
   244
 72
    97
 73
    92
  0
VERTEX
  5
40B
  8
0
 62
     9
 10
0.0
 20
0.0
 30
0.0
 70
   128
 71
   244
 72
    91
 73
    36
  0
VERTEX
  5
40C
  8
0
 62
     9
 10
0.0
 20
0.0
 30
0.0
 70
   128
 71
   244
 72
    92
 73
    91
  0
VERTEX
  5
40D
  8
0
 62
     9
 10
0.0
 20
0.0
 30
0.0
 70
   128
 71
   242
 72
    72
 73
   243
  0
VERTEX
  5
40E
  8
0
 62
     9
 10
0.0
 20
0.0
 30
0.0
 70
   128
 71
   242
 72
    71
 73
    72
  0
VERTEX
  5
40F
  8
0
 62
     9
 10
0.0
 20
0.0
 30
0.0
 70
   128
 71
   242
 72
     4
 73
     5
  0
VERTEX
  5
410
  8
0
 62
     9
 10
0.0
 20
0.0
 30
0.0
 70
   128
 71
   241
 72
    18
 73
    19
  0
VERTEX
  5
411
  8
0
 62
     9
 10
0.0
 20
0.0
 30
0.0
 70
   128
 71
   241
 72
    54
 73
    53
  0
VERTEX
  5
412
  8
0
 62
     9
 10
0.0
 20
0.0
 30
0.0
 70
   128
 71
    79
 72
    71
 73
   242
  0
VERTEX
  5
413
  8
0
 62
     9
 10
0.0
 20
0.0
 30
0.0
 70
   128
 71
    15
 72
   241
 73
    12
  0
VERTEX
  5
414
  8
0
 62
     9
 10
0.0
 20
0.0
 30
0.0
 70
   128
 71
    51
 72
   241
 73
    53
  0
VERTEX
  5
415
  8
0
 62
     9
 10
0.0
 20
0.0
 30
0.0
 70
   128
 71
   241
 72
    11
 73
    12
  0
VERTEX
  5
416
  8
0
 62
     9
 10
0.0
 20
0.0
 30
0.0
 70
   128
 71
    51
 72
    58
 73
   241
  0
VERTEX
  5
417
  8
0
 62
     9
 10
0.0
 20
0.0
 30
0.0
 70
   128
 71
   241
 72
    58
 73
    59
  0
VERTEX
  5
418
  8
0
 62
     9
 10
0.0
 20
0.0
 30
0.0
 70
   128
 71
   109
 72
   244
 73
   106
  0
VERTEX
  5
419
  8
0
 62
     9
 10
0.0
 20
0.0
 30
0.0
 70
   128
 71
   241
 72
    19
 73
    11
  0
VERTEX
  5
41A
  8
0
 62
     9
 10
0.0
 20
0.0
 30
0.0
 70
   128
 71
   241
 72
    59
 73
    28
  0
VERTEX
  5
41B
  8
0
 62
     9
 10
0.0
 20
0.0
 30
0.0
 70
   128
 71
   243
 72
   116
 73
   112
  0
VERTEX
  5
41C
  8
0
 62
     9
 10
0.0
 20
0.0
 30
0.0
 70
   128
 71
    62
 72
   243
 73
    61
  0
VERTEX
  5
41D
  8
0
 62
     9
 10
0.0
 20
0.0
 30
0.0
 70
   128
 71
   242
 72
     1
 73
     2
  0
VERTEX
  5
41E
  8
0
 62
     9
 10
0.0
 20
0.0
 30
0.0
 70
   128
 71
    87
 72
   242
 73
    29
  0
VERTEX
  5
41F
  8
0
 62
     9
 10
0.0
 20
0.0
 30
0.0
 70
   128
 71
    28
 72
    27
 73
   241
  0
VERTEX
  5
420
  8
0
 62
     9
 10
0.0
 20
0.0
 30
0.0
 70
   128
 71
    22
 72
    18
 73
   241
  0
VERTEX
  5
421
  8
0
 62
     9
 10
0.0
 20
0.0
 30
0.0
 70
   128
 71
    34
 72
   244
 73
    36
  0
VERTEX
  5
422
  8
0
 62
     9
 10
0.0
 20
0.0
 30
0.0
 70
   128
 71
    34
 72
    35
 73
   244
  0
VERTEX
  5
423
  8
0
 62
     9
 10
0.0
 20
0.0
 30
0.0
 70
   128
 71
   247
 72
   246
 73
   245
  0
VERTEX
  5
424
  8
0
 62
     9
 10
0.0
 20
0.0
 30
0.0
 70
   128
 71
   247
 72
   249
 73
   248
  0
VERTEX
  5
425
  8
0
 62
     9
 10
0.0
 20
0.0
 30
0.0
 70
   128
 71
   249
 72
   251
 73
   250
  0
VERTEX
  5
426
  8
0
 62
     9
 10
0.0
 20
0.0
 30
0.0
 70
   128
 71
   247
 72
   245
 73
   251
  0
VERTEX
  5
427
  8
0
 62
     9
 10
0.0
 20
0.0
 30
0.0
 70
   128
 71
   251
 72
   249
 73
   247
  0
VERTEX
  5
428
  8
0
 62
     9
 10
0.0
 20
0.0
 30
0.0
 70
   128
 71
   252
 72
   249
 73
   250
  0
VERTEX
  5
429
  8
0
 62
     9
 10
0.0
 20
0.0
 30
0.0
 70
   128
 71
   253
 72
   252
 73
   250
  0
VERTEX
  5
42A
  8
0
 62
     9
 10
0.0
 20
0.0
 30
0.0
 70
   128
 71
   254
 72
   247
 73
   248
  0
VERTEX
  5
42B
  8
0
 62
     9
 10
0.0
 20
0.0
 30
0.0
 70
   128
 71
   256
 72
   248
 73
   255
  0
VERTEX
  5
42C
  8
0
 62
     9
 10
0.0
 20
0.0
 30
0.0
 70
   128
 71
   257
 72
   248
 73
   256
  0
VERTEX
  5
42D
  8
0
 62
     9
 10
0.0
 20
0.0
 30
0.0
 70
   128
 71
   257
 72
   254
 73
   248
  0
VERTEX
  5
42E
  8
0
 62
     9
 10
0.0
 20
0.0
 30
0.0
 70
   128
 71
   260
 72
   259
 73
   258
  0
VERTEX
  5
42F
  8
0
 62
     9
 10
0.0
 20
0.0
 30
0.0
 70
   128
 71
   257
 72
   260
 73
   254
  0
VERTEX
  5
430
  8
0
 62
     9
 10
0.0
 20
0.0
 30
0.0
 70
   128
 71
   258
 72
   254
 73
   260
  0
VERTEX
  5
431
  8
0
 62
     9
 10
0.0
 20
0.0
 30
0.0
 70
   128
 71
   262
 72
   245
 73
   261
  0
VERTEX
  5
432
  8
0
 62
     9
 10
0.0
 20
0.0
 30
0.0
 70
   128
 71
   251
 72
   245
 73
   262
  0
VERTEX
  5
433
  8
0
 62
     9
 10
0.0
 20
0.0
 30
0.0
 70
   128
 71
   263
 72
   251
 73
   262
  0
VERTEX
  5
434
  8
0
 62
     9
 10
0.0
 20
0.0
 30
0.0
 70
   128
 71
   245
 72
   246
 73
   261
  0
VERTEX
  5
435
  8
0
 62
     9
 10
0.0
 20
0.0
 30
0.0
 70
   128
 71
   246
 72
   264
 73
   261
  0
VERTEX
  5
436
  8
0
 62
     9
 10
0.0
 20
0.0
 30
0.0
 70
   128
 71
   246
 72
   247
 73
   264
  0
VERTEX
  5
437
  8
0
 62
     9
 10
0.0
 20
0.0
 30
0.0
 70
   128
 71
   266
 72
   258
 73
   265
  0
VERTEX
  5
438
  8
0
 62
     9
 10
0.0
 20
0.0
 30
0.0
 70
   128
 71
   254
 72
   258
 73
   266
  0
VERTEX
  5
439
  8
0
 62
     9
 10
0.0
 20
0.0
 30
0.0
 70
   128
 71
   267
 72
   254
 73
   266
  0
VERTEX
  5
43A
  8
0
 62
     9
 10
0.0
 20
0.0
 30
0.0
 70
   128
 71
   258
 72
   259
 73
   265
  0
VERTEX
  5
43B
  8
0
 62
     9
 10
0.0
 20
0.0
 30
0.0
 70
   128
 71
   259
 72
   268
 73
   265
  0
VERTEX
  5
43C
  8
0
 62
     9
 10
0.0
 20
0.0
 30
0.0
 70
   128
 71
   259
 72
   260
 73
   268
  0
VERTEX
  5
43D
  8
0
 62
     9
 10
0.0
 20
0.0
 30
0.0
 70
   128
 71
   270
 72
   256
 73
   269
  0
VERTEX
  5
43E
  8
0
 62
     9
 10
0.0
 20
0.0
 30
0.0
 70
   128
 71
   257
 72
   256
 73
   270
  0
VERTEX
  5
43F
  8
0
 62
     9
 10
0.0
 20
0.0
 30
0.0
 70
   128
 71
   271
 72
   257
 73
   270
  0
VERTEX
  5
440
  8
0
 62
     9
 10
0.0
 20
0.0
 30
0.0
 70
   128
 71
   256
 72
   255
 73
   269
  0
VERTEX
  5
441
  8
0
 62
     9
 10
0.0
 20
0.0
 30
0.0
 70
   128
 71
   255
 72
   272
 73
   269
  0
VERTEX
  5
442
  8
0
 62
     9
 10
0.0
 20
0.0
 30
0.0
 70
   128
 71
   255
 72
   248
 73
   272
  0
VERTEX
  5
443
  8
0
 62
     9
 10
0.0
 20
0.0
 30
0.0
 70
   128
 71
   274
 72
   252
 73
   273
  0
VERTEX
  5
444
  8
0
 62
     9
 10
0.0
 20
0.0
 30
0.0
 70
   128
 71
   249
 72
   252
 73
   274
  0
VERTEX
  5
445
  8
0
 62
     9
 10
0.0
 20
0.0
 30
0.0
 70
   128
 71
   275
 72
   249
 73
   274
  0
VERTEX
  5
446
  8
0
 62
     9
 10
0.0
 20
0.0
 30
0.0
 70
   128
 71
   252
 72
   253
 73
   273
  0
VERTEX
  5
447
  8
0
 62
     9
 10
0.0
 20
0.0
 30
0.0
 70
   128
 71
   253
 72
   276
 73
   273
  0
VERTEX
  5
448
  8
0
 62
     9
 10
0.0
 20
0.0
 30
0.0
 70
   128
 71
   253
 72
   250
 73
   276
  0
VERTEX
  5
449
  8
0
 62
     9
 10
0.0
 20
0.0
 30
0.0
 70
   128
 71
   180
 72
   176
 73
     3
  0
VERTEX
  5
44A
  8
0
 62
     9
 10
0.0
 20
0.0
 30
0.0
 70
   128
 71
    30
 72
   179
 73
    32
  0
VERTEX
  5
44B
  8
0
 62
     9
 10
0.0
 20
0.0
 30
0.0
 70
   128
 71
   176
 72
   179
 73
    30
  0
VERTEX
  5
44C
  8
0
 62
     9
 10
0.0
 20
0.0
 30
0.0
 70
   128
 71
   176
 72
    30
 73
     3
  0
VERTEX
  5
44D
  8
0
 62
     9
 10
0.0
 20
0.0
 30
0.0
 70
   128
 71
   179
 72
   152
 73
    32
  0
VERTEX
  5
44E
  8
0
 62
     9
 10
0.0
 20
0.0
 30
0.0
 70
   128
 71
   123
 72
   120
 73
    63
  0
VERTEX
  5
44F
  8
0
 62
     9
 10
0.0
 20
0.0
 30
0.0
 70
   128
 71
    94
 72
   118
 73
    96
  0
VERTEX
  5
450
  8
0
 62
     9
 10
0.0
 20
0.0
 30
0.0
 70
   128
 71
   120
 72
   118
 73
    94
  0
VERTEX
  5
451
  8
0
 62
     9
 10
0.0
 20
0.0
 30
0.0
 70
   128
 71
   120
 72
    94
 73
    63
  0
VERTEX
  5
452
  8
0
 62
     9
 10
0.0
 20
0.0
 30
0.0
 70
   128
 71
   118
 72
   119
 73
    96
  0
VERTEX
  5
453
  8
0
 62
     9
 10
0.0
 20
0.0
 30
0.0
 70
   128
 71
   153
 72
   184
 73
    90
  0
VERTEX
  5
454
  8
0
 62
     9
 10
0.0
 20
0.0
 30
0.0
 70
   128
 71
    89
 72
   182
 73
    38
  0
VERTEX
  5
455
  8
0
 62
     9
 10
0.0
 20
0.0
 30
0.0
 70
   128
 71
   184
 72
   182
 73
    89
  0
VERTEX
  5
456
  8
0
 62
     9
 10
0.0
 20
0.0
 30
0.0
 70
   128
 71
   184
 72
    89
 73
    90
  0
VERTEX
  5
457
  8
0
 62
     9
 10
0.0
 20
0.0
 30
0.0
 70
   128
 71
   182
 72
   183
 73
    38
  0
VERTEX
  5
458
  8
0
 62
     9
 10
0.0
 20
0.0
 30
0.0
 70
   128
 71
   209
 72
   239
 73
    26
  0
VERTEX
  5
459
  8
0
 62
     9
 10
0.0
 20
0.0
 30
0.0
 70
   128
 71
    25
 72
   238
 73
    24
  0
VERTEX
  5
45A
  8
0
 62
     9
 10
0.0
 20
0.0
 30
0.0
 70
   128
 71
   239
 72
   238
 73
    25
  0
VERTEX
  5
45B
  8
0
 62
     9
 10
0.0
 20
0.0
 30
0.0
 70
   128
 71
   239
 72
    25
 73
    26
  0
VERTEX
  5
45C
  8
0
 62
     9
 10
0.0
 20
0.0
 30
0.0
 70
   128
 71
   238
 72
   208
 73
    24
  0
VERTEX
  5
45D
  8
0
 62
     9
 10
0.0
 20
0.0
 30
0.0
 70
   128
 71
     3
 72
     8
 73
   205
  0
VERTEX
  5
45E
  8
0
 62
     9
 10
0.0
 20
0.0
 30
0.0
 70
   128
 71
   200
 72
   201
 73
     9
  0
VERTEX
  5
45F
  8
0
 62
     9
 10
0.0
 20
0.0
 30
0.0
 70
   128
 71
    14
 72
   193
 73
   194
  0
VERTEX
  5
460
  8
0
 62
     9
 10
0.0
 20
0.0
 30
0.0
 70
   128
 71
   204
 72
     6
 73
    13
  0
VERTEX
  5
461
  8
0
 62
     9
 10
0.0
 20
0.0
 30
0.0
 70
   128
 71
   191
 72
   192
 73
    16
  0
VERTEX
  5
462
  8
0
 62
     9
 10
0.0
 20
0.0
 30
0.0
 70
   128
 71
   198
 72
    10
 73
    20
  0
VERTEX
  5
463
  8
0
 62
     9
 10
0.0
 20
0.0
 30
0.0
 70
   128
 71
    17
 72
   187
 73
   191
  0
VERTEX
  5
464
  8
0
 62
     9
 10
0.0
 20
0.0
 30
0.0
 70
   128
 71
   191
 72
    16
 73
    17
  0
VERTEX
  5
465
  8
0
 62
     9
 10
0.0
 20
0.0
 30
0.0
 70
   128
 71
   187
 72
    21
 73
   208
  0
VERTEX
  5
466
  8
0
 62
     9
 10
0.0
 20
0.0
 30
0.0
 70
   128
 71
    21
 72
   187
 73
    17
  0
VERTEX
  5
467
  8
0
 62
     9
 10
0.0
 20
0.0
 30
0.0
 70
   128
 71
   192
 72
    20
 73
    16
  0
VERTEX
  5
468
  8
0
 62
     9
 10
0.0
 20
0.0
 30
0.0
 70
   128
 71
    21
 72
    24
 73
   208
  0
VERTEX
  5
469
  8
0
 62
     9
 10
0.0
 20
0.0
 30
0.0
 70
   128
 71
    20
 72
   192
 73
   198
  0
VERTEX
  5
46A
  8
0
 62
     9
 10
0.0
 20
0.0
 30
0.0
 70
   128
 71
   198
 72
   193
 73
    10
  0
VERTEX
  5
46B
  8
0
 62
     9
 10
0.0
 20
0.0
 30
0.0
 70
   128
 71
   205
 72
     8
 73
   201
  0
VERTEX
  5
46C
  8
0
 62
     9
 10
0.0
 20
0.0
 30
0.0
 70
   128
 71
    13
 72
    14
 73
   194
  0
VERTEX
  5
46D
  8
0
 62
     9
 10
0.0
 20
0.0
 30
0.0
 70
   128
 71
    14
 72
    10
 73
   193
  0
VERTEX
  5
46E
  8
0
 62
     9
 10
0.0
 20
0.0
 30
0.0
 70
   128
 71
   204
 72
    13
 73
   194
  0
VERTEX
  5
46F
  8
0
 62
     9
 10
0.0
 20
0.0
 30
0.0
 70
   128
 71
     6
 72
   200
 73
     9
  0
VERTEX
  5
470
  8
0
 62
     9
 10
0.0
 20
0.0
 30
0.0
 70
   128
 71
   200
 72
     6
 73
   204
  0
VERTEX
  5
471
  8
0
 62
     9
 10
0.0
 20
0.0
 30
0.0
 70
   128
 71
     8
 72
     9
 73
   201
  0
VERTEX
  5
472
  8
0
 62
     9
 10
0.0
 20
0.0
 30
0.0
 70
   128
 71
   205
 72
   180
 73
     3
  0
VERTEX
  5
473
  8
0
 62
     9
 10
0.0
 20
0.0
 30
0.0
 70
   128
 71
    68
 72
   150
 73
    63
  0
VERTEX
  5
474
  8
0
 62
     9
 10
0.0
 20
0.0
 30
0.0
 70
   128
 71
   146
 72
    66
 73
    73
  0
VERTEX
  5
475
  8
0
 62
     9
 10
0.0
 20
0.0
 30
0.0
 70
   128
 71
   148
 72
    69
 73
   145
  0
VERTEX
  5
476
  8
0
 62
     9
 10
0.0
 20
0.0
 30
0.0
 70
   128
 71
    70
 72
    80
 73
   142
  0
VERTEX
  5
477
  8
0
 62
     9
 10
0.0
 20
0.0
 30
0.0
 70
   128
 71
    74
 72
   138
 73
   139
  0
VERTEX
  5
478
  8
0
 62
     9
 10
0.0
 20
0.0
 30
0.0
 70
   128
 71
    85
 72
   136
 73
    77
  0
VERTEX
  5
479
  8
0
 62
     9
 10
0.0
 20
0.0
 30
0.0
 70
   128
 71
   131
 72
   132
 73
    81
  0
VERTEX
  5
47A
  8
0
 62
     9
 10
0.0
 20
0.0
 30
0.0
 70
   128
 71
    83
 72
   129
 73
   130
  0
VERTEX
  5
47B
  8
0
 62
     9
 10
0.0
 20
0.0
 30
0.0
 70
   128
 71
   130
 72
    85
 73
    83
  0
VERTEX
  5
47C
  8
0
 62
     9
 10
0.0
 20
0.0
 30
0.0
 70
   128
 71
   129
 72
    86
 73
   125
  0
VERTEX
  5
47D
  8
0
 62
     9
 10
0.0
 20
0.0
 30
0.0
 70
   128
 71
    86
 72
   129
 73
    83
  0
VERTEX
  5
47E
  8
0
 62
     9
 10
0.0
 20
0.0
 30
0.0
 70
   128
 71
   152
 72
   125
 73
    88
  0
VERTEX
  5
47F
  8
0
 62
     9
 10
0.0
 20
0.0
 30
0.0
 70
   128
 71
    86
 72
    88
 73
   125
  0
VERTEX
  5
480
  8
0
 62
     9
 10
0.0
 20
0.0
 30
0.0
 70
   128
 71
   152
 72
    88
 73
    32
  0
VERTEX
  5
481
  8
0
 62
     9
 10
0.0
 20
0.0
 30
0.0
 70
   128
 71
   136
 72
    85
 73
   130
  0
VERTEX
  5
482
  8
0
 62
     9
 10
0.0
 20
0.0
 30
0.0
 70
   128
 71
    77
 72
   136
 73
   131
  0
VERTEX
  5
483
  8
0
 62
     9
 10
0.0
 20
0.0
 30
0.0
 70
   128
 71
   138
 72
    74
 73
    70
  0
VERTEX
  5
484
  8
0
 62
     9
 10
0.0
 20
0.0
 30
0.0
 70
   128
 71
   132
 72
    80
 73
    81
  0
VERTEX
  5
485
  8
0
 62
     9
 10
0.0
 20
0.0
 30
0.0
 70
   128
 71
    77
 72
   131
 73
    81
  0
VERTEX
  5
486
  8
0
 62
     9
 10
0.0
 20
0.0
 30
0.0
 70
   128
 71
   142
 72
   138
 73
    70
  0
VERTEX
  5
487
  8
0
 62
     9
 10
0.0
 20
0.0
 30
0.0
 70
   128
 71
    80
 72
   132
 73
   142
  0
VERTEX
  5
488
  8
0
 62
     9
 10
0.0
 20
0.0
 30
0.0
 70
   128
 71
   139
 72
    73
 73
    74
  0
VERTEX
  5
489
  8
0
 62
     9
 10
0.0
 20
0.0
 30
0.0
 70
   128
 71
   145
 72
    69
 73
    66
  0
VERTEX
  5
48A
  8
0
 62
     9
 10
0.0
 20
0.0
 30
0.0
 70
   128
 71
   146
 72
    73
 73
   139
  0
VERTEX
  5
48B
  8
0
 62
     9
 10
0.0
 20
0.0
 30
0.0
 70
   128
 71
   145
 72
    66
 73
   146
  0
VERTEX
  5
48C
  8
0
 62
     9
 10
0.0
 20
0.0
 30
0.0
 70
   128
 71
   148
 72
   150
 73
    68
  0
VERTEX
  5
48D
  8
0
 62
     9
 10
0.0
 20
0.0
 30
0.0
 70
   128
 71
   148
 72
    68
 73
    69
  0
VERTEX
  5
48E
  8
0
 62
     9
 10
0.0
 20
0.0
 30
0.0
 70
   128
 71
   150
 72
   123
 73
    63
  0
VERTEX
  5
48F
  8
0
 62
     9
 10
0.0
 20
0.0
 30
0.0
 70
   128
 71
   102
 72
   155
 73
    90
  0
VERTEX
  5
490
  8
0
 62
     9
 10
0.0
 20
0.0
 30
0.0
 70
   128
 71
   156
 72
   100
 73
   107
  0
VERTEX
  5
491
  8
0
 62
     9
 10
0.0
 20
0.0
 30
0.0
 70
   128
 71
   160
 72
   103
 73
   157
  0
VERTEX
  5
492
  8
0
 62
     9
 10
0.0
 20
0.0
 30
0.0
 70
   128
 71
   104
 72
   114
 73
   163
  0
VERTEX
  5
493
  8
0
 62
     9
 10
0.0
 20
0.0
 30
0.0
 70
   128
 71
   108
 72
   164
 73
   167
  0
VERTEX
  5
494
  8
0
 62
     9
 10
0.0
 20
0.0
 30
0.0
 70
   128
 71
   110
 72
   111
 73
   169
  0
VERTEX
  5
495
  8
0
 62
     9
 10
0.0
 20
0.0
 30
0.0
 70
   128
 71
   169
 72
   170
 73
   110
  0
VERTEX
  5
496
  8
0
 62
     9
 10
0.0
 20
0.0
 30
0.0
 70
   128
 71
   172
 72
   111
 73
   115
  0
VERTEX
  5
497
  8
0
 62
     9
 10
0.0
 20
0.0
 30
0.0
 70
   128
 71
   111
 72
   172
 73
   169
  0
VERTEX
  5
498
  8
0
 62
     9
 10
0.0
 20
0.0
 30
0.0
 70
   128
 71
    96
 72
   119
 73
   115
  0
VERTEX
  5
499
  8
0
 62
     9
 10
0.0
 20
0.0
 30
0.0
 70
   128
 71
   172
 72
   115
 73
   119
  0
VERTEX
  5
49A
  8
0
 62
     9
 10
0.0
 20
0.0
 30
0.0
 70
   128
 71
   164
 72
   104
 73
   163
  0
VERTEX
  5
49B
  8
0
 62
     9
 10
0.0
 20
0.0
 30
0.0
 70
   128
 71
   157
 72
   103
 73
   100
  0
VERTEX
  5
49C
  8
0
 62
     9
 10
0.0
 20
0.0
 30
0.0
 70
   128
 71
   114
 72
   170
 73
   163
  0
VERTEX
  5
49D
  8
0
 62
     9
 10
0.0
 20
0.0
 30
0.0
 70
   128
 71
   110
 72
   170
 73
   114
  0
VERTEX
  5
49E
  8
0
 62
     9
 10
0.0
 20
0.0
 30
0.0
 70
   128
 71
   108
 72
   167
 73
   107
  0
VERTEX
  5
49F
  8
0
 62
     9
 10
0.0
 20
0.0
 30
0.0
 70
   128
 71
   108
 72
   104
 73
   164
  0
VERTEX
  5
4A0
  8
0
 62
     9
 10
0.0
 20
0.0
 30
0.0
 70
   128
 71
   102
 72
   103
 73
   160
  0
VERTEX
  5
4A1
  8
0
 62
     9
 10
0.0
 20
0.0
 30
0.0
 70
   128
 71
   100
 72
   156
 73
   157
  0
VERTEX
  5
4A2
  8
0
 62
     9
 10
0.0
 20
0.0
 30
0.0
 70
   128
 71
   156
 72
   107
 73
   167
  0
VERTEX
  5
4A3
  8
0
 62
     9
 10
0.0
 20
0.0
 30
0.0
 70
   128
 71
   155
 72
   153
 73
    90
  0
VERTEX
  5
4A4
  8
0
 62
     9
 10
0.0
 20
0.0
 30
0.0
 70
   128
 71
   160
 72
   155
 73
   102
  0
VERTEX
  5
4A5
  8
0
 62
     9
 10
0.0
 20
0.0
 30
0.0
 70
   128
 71
    26
 72
    60
 73
   211
  0
VERTEX
  5
4A6
  8
0
 62
     9
 10
0.0
 20
0.0
 30
0.0
 70
   128
 71
   213
 72
   216
 73
    57
  0
VERTEX
  5
4A7
  8
0
 62
     9
 10
0.0
 20
0.0
 30
0.0
 70
   128
 71
    56
 72
   220
 73
   223
  0
VERTEX
  5
4A8
  8
0
 62
     9
 10
0.0
 20
0.0
 30
0.0
 70
   128
 71
   212
 72
    52
 73
    55
  0
VERTEX
  5
4A9
  8
0
 62
     9
 10
0.0
 20
0.0
 30
0.0
 70
   128
 71
   224
 72
   227
 73
    49
  0
VERTEX
  5
4AA
  8
0
 62
     9
 10
0.0
 20
0.0
 30
0.0
 70
   128
 71
   219
 72
    45
 73
    48
  0
VERTEX
  5
4AB
  8
0
 62
     9
 10
0.0
 20
0.0
 30
0.0
 70
   128
 71
   232
 72
    42
 73
    43
  0
VERTEX
  5
4AC
  8
0
 62
     9
 10
0.0
 20
0.0
 30
0.0
 70
   128
 71
    41
 72
    42
 73
   226
  0
VERTEX
  5
4AD
  8
0
 62
     9
 10
0.0
 20
0.0
 30
0.0
 70
   128
 71
    33
 72
   234
 73
    43
  0
VERTEX
  5
4AE
  8
0
 62
     9
 10
0.0
 20
0.0
 30
0.0
 70
   128
 71
   232
 72
    43
 73
   234
  0
VERTEX
  5
4AF
  8
0
 62
     9
 10
0.0
 20
0.0
 30
0.0
 70
   128
 71
    33
 72
    37
 73
   235
  0
VERTEX
  5
4B0
  8
0
 62
     9
 10
0.0
 20
0.0
 30
0.0
 70
   128
 71
   235
 72
   234
 73
    33
  0
VERTEX
  5
4B1
  8
0
 62
     9
 10
0.0
 20
0.0
 30
0.0
 70
   128
 71
   183
 72
    37
 73
    38
  0
VERTEX
  5
4B2
  8
0
 62
     9
 10
0.0
 20
0.0
 30
0.0
 70
   128
 71
    37
 72
   183
 73
   235
  0
VERTEX
  5
4B3
  8
0
 62
     9
 10
0.0
 20
0.0
 30
0.0
 70
   128
 71
   232
 72
   226
 73
    42
  0
VERTEX
  5
4B4
  8
0
 62
     9
 10
0.0
 20
0.0
 30
0.0
 70
   128
 71
    41
 72
   226
 73
   224
  0
VERTEX
  5
4B5
  8
0
 62
     9
 10
0.0
 20
0.0
 30
0.0
 70
   128
 71
    55
 72
   223
 73
   212
  0
VERTEX
  5
4B6
  8
0
 62
     9
 10
0.0
 20
0.0
 30
0.0
 70
   128
 71
   227
 72
    48
 73
    49
  0
VERTEX
  5
4B7
  8
0
 62
     9
 10
0.0
 20
0.0
 30
0.0
 70
   128
 71
    41
 72
   224
 73
    49
  0
VERTEX
  5
4B8
  8
0
 62
     9
 10
0.0
 20
0.0
 30
0.0
 70
   128
 71
    26
 72
   211
 73
   209
  0
VERTEX
  5
4B9
  8
0
 62
     9
 10
0.0
 20
0.0
 30
0.0
 70
   128
 71
    45
 72
   219
 73
   220
  0
VERTEX
  5
4BA
  8
0
 62
     9
 10
0.0
 20
0.0
 30
0.0
 70
   128
 71
    48
 72
   227
 73
   219
  0
VERTEX
  5
4BB
  8
0
 62
     9
 10
0.0
 20
0.0
 30
0.0
 70
   128
 71
    56
 72
   223
 73
    55
  0
VERTEX
  5
4BC
  8
0
 62
     9
 10
0.0
 20
0.0
 30
0.0
 70
   128
 71
    56
 72
    45
 73
   220
  0
VERTEX
  5
4BD
  8
0
 62
     9
 10
0.0
 20
0.0
 30
0.0
 70
   128
 71
   213
 72
    57
 73
    52
  0
VERTEX
  5
4BE
  8
0
 62
     9
 10
0.0
 20
0.0
 30
0.0
 70
   128
 71
   213
 72
    52
 73
   212
  0
VERTEX
  5
4BF
  8
0
 62
     9
 10
0.0
 20
0.0
 30
0.0
 70
   128
 71
   216
 72
   211
 73
    60
  0
VERTEX
  5
4C0
  8
0
 62
     9
 10
0.0
 20
0.0
 30
0.0
 70
   128
 71
   216
 72
    60
 73
    57
  0
VERTEX
  5
4C1
  8
0
 62
     9
 10
0.0
 20
0.0
 30
0.0
 70
   128
 71
   185
 72
   261
 73
   181
  0
VERTEX
  5
4C2
  8
0
 62
     9
 10
0.0
 20
0.0
 30
0.0
 70
   128
 71
   178
 72
   272
 73
   127
  0
VERTEX
  5
4C3
  8
0
 62
     9
 10
0.0
 20
0.0
 30
0.0
 70
   128
 71
   181
 72
   264
 73
   186
  0
VERTEX
  5
4C4
  8
0
 62
     9
 10
0.0
 20
0.0
 30
0.0
 70
   128
 71
   137
 72
   275
 73
   147
  0
VERTEX
  5
4C5
  8
0
 62
     9
 10
0.0
 20
0.0
 30
0.0
 70
   128
 71
   237
 72
   268
 73
   189
  0
VERTEX
  5
4C6
  8
0
 62
     9
 10
0.0
 20
0.0
 30
0.0
 70
   128
 71
   270
 72
   175
 73
   271
  0
VERTEX
  5
4C7
  8
0
 62
     9
 10
0.0
 20
0.0
 30
0.0
 70
   128
 71
   269
 72
   272
 73
   178
  0
VERTEX
  5
4C8
  8
0
 62
     9
 10
0.0
 20
0.0
 30
0.0
 70
   128
 71
   274
 72
   122
 73
   275
  0
VERTEX
  5
4C9
  8
0
 62
     9
 10
0.0
 20
0.0
 30
0.0
 70
   128
 71
   154
 72
   263
 73
   174
  0
VERTEX
  5
4CA
  8
0
 62
     9
 10
0.0
 20
0.0
 30
0.0
 70
   128
 71
   276
 72
   124
 73
   117
  0
VERTEX
  5
4CB
  8
0
 62
     9
 10
0.0
 20
0.0
 30
0.0
 70
   128
 71
   263
 72
   262
 73
   174
  0
VERTEX
  5
4CC
  8
0
 62
     9
 10
0.0
 20
0.0
 30
0.0
 70
   128
 71
   161
 72
   159
 73
   263
  0
VERTEX
  5
4CD
  8
0
 62
     9
 10
0.0
 20
0.0
 30
0.0
 70
   128
 71
   161
 72
   263
 73
   154
  0
VERTEX
  5
4CE
  8
0
 62
     9
 10
0.0
 20
0.0
 30
0.0
 70
   128
 71
   218
 72
   267
 73
   222
  0
VERTEX
  5
4CF
  8
0
 62
     9
 10
0.0
 20
0.0
 30
0.0
 70
   128
 71
   267
 72
   217
 73
   215
  0
VERTEX
  5
4D0
  8
0
 62
     9
 10
0.0
 20
0.0
 30
0.0
 70
   128
 71
   158
 72
   165
 73
   263
  0
VERTEX
  5
4D1
  8
0
 62
     9
 10
0.0
 20
0.0
 30
0.0
 70
   128
 71
   158
 72
   263
 73
   159
  0
VERTEX
  5
4D2
  8
0
 62
     9
 10
0.0
 20
0.0
 30
0.0
 70
   128
 71
   263
 72
   166
 73
   276
  0
VERTEX
  5
4D3
  8
0
 62
     9
 10
0.0
 20
0.0
 30
0.0
 70
   128
 71
   166
 72
   263
 73
   165
  0
VERTEX
  5
4D4
  8
0
 62
     9
 10
0.0
 20
0.0
 30
0.0
 70
   128
 71
   275
 72
   143
 73
   144
  0
VERTEX
  5
4D5
  8
0
 62
     9
 10
0.0
 20
0.0
 30
0.0
 70
   128
 71
   276
 72
   162
 73
   171
  0
VERTEX
  5
4D6
  8
0
 62
     9
 10
0.0
 20
0.0
 30
0.0
 70
   128
 71
   166
 72
   162
 73
   276
  0
VERTEX
  5
4D7
  8
0
 62
     9
 10
0.0
 20
0.0
 30
0.0
 70
   128
 71
   276
 72
   168
 73
   173
  0
VERTEX
  5
4D8
  8
0
 62
     9
 10
0.0
 20
0.0
 30
0.0
 70
   128
 71
   171
 72
   168
 73
   276
  0
VERTEX
  5
4D9
  8
0
 62
     9
 10
0.0
 20
0.0
 30
0.0
 70
   128
 71
   173
 72
   124
 73
   276
  0
VERTEX
  5
4DA
  8
0
 62
     9
 10
0.0
 20
0.0
 30
0.0
 70
   128
 71
   117
 72
   121
 73
   273
  0
VERTEX
  5
4DB
  8
0
 62
     9
 10
0.0
 20
0.0
 30
0.0
 70
   128
 71
   117
 72
   273
 73
   276
  0
VERTEX
  5
4DC
  8
0
 62
     9
 10
0.0
 20
0.0
 30
0.0
 70
   128
 71
   121
 72
   122
 73
   274
  0
VERTEX
  5
4DD
  8
0
 62
     9
 10
0.0
 20
0.0
 30
0.0
 70
   128
 71
   121
 72
   274
 73
   273
  0
VERTEX
  5
4DE
  8
0
 62
     9
 10
0.0
 20
0.0
 30
0.0
 70
   128
 71
   151
 72
   149
 73
   275
  0
VERTEX
  5
4DF
  8
0
 62
     9
 10
0.0
 20
0.0
 30
0.0
 70
   128
 71
   122
 72
   151
 73
   275
  0
VERTEX
  5
4E0
  8
0
 62
     9
 10
0.0
 20
0.0
 30
0.0
 70
   128
 71
   143
 72
   275
 73
   149
  0
VERTEX
  5
4E1
  8
0
 62
     9
 10
0.0
 20
0.0
 30
0.0
 70
   128
 71
   199
 72
   202
 73
   271
  0
VERTEX
  5
4E2
  8
0
 62
     9
 10
0.0
 20
0.0
 30
0.0
 70
   128
 71
   147
 72
   275
 73
   144
  0
VERTEX
  5
4E3
  8
0
 62
     9
 10
0.0
 20
0.0
 30
0.0
 70
   128
 71
   275
 72
   140
 73
   272
  0
VERTEX
  5
4E4
  8
0
 62
     9
 10
0.0
 20
0.0
 30
0.0
 70
   128
 71
   140
 72
   275
 73
   137
  0
VERTEX
  5
4E5
  8
0
 62
     9
 10
0.0
 20
0.0
 30
0.0
 70
   128
 71
   272
 72
   141
 73
   133
  0
VERTEX
  5
4E6
  8
0
 62
     9
 10
0.0
 20
0.0
 30
0.0
 70
   128
 71
   140
 72
   141
 73
   272
  0
VERTEX
  5
4E7
  8
0
 62
     9
 10
0.0
 20
0.0
 30
0.0
 70
   128
 71
   272
 72
   134
 73
   135
  0
VERTEX
  5
4E8
  8
0
 62
     9
 10
0.0
 20
0.0
 30
0.0
 70
   128
 71
   133
 72
   134
 73
   272
  0
VERTEX
  5
4E9
  8
0
 62
     9
 10
0.0
 20
0.0
 30
0.0
 70
   128
 71
   272
 72
   128
 73
   126
  0
VERTEX
  5
4EA
  8
0
 62
     9
 10
0.0
 20
0.0
 30
0.0
 70
   128
 71
   135
 72
   128
 73
   272
  0
VERTEX
  5
4EB
  8
0
 62
     9
 10
0.0
 20
0.0
 30
0.0
 70
   128
 71
   272
 72
   126
 73
   127
  0
VERTEX
  5
4EC
  8
0
 62
     9
 10
0.0
 20
0.0
 30
0.0
 70
   128
 71
   269
 72
   177
 73
   270
  0
VERTEX
  5
4ED
  8
0
 62
     9
 10
0.0
 20
0.0
 30
0.0
 70
   128
 71
   178
 72
   177
 73
   269
  0
VERTEX
  5
4EE
  8
0
 62
     9
 10
0.0
 20
0.0
 30
0.0
 70
   128
 71
   177
 72
   175
 73
   270
  0
VERTEX
  5
4EF
  8
0
 62
     9
 10
0.0
 20
0.0
 30
0.0
 70
   128
 71
   207
 72
   206
 73
   271
  0
VERTEX
  5
4F0
  8
0
 62
     9
 10
0.0
 20
0.0
 30
0.0
 70
   128
 71
   175
 72
   207
 73
   271
  0
VERTEX
  5
4F1
  8
0
 62
     9
 10
0.0
 20
0.0
 30
0.0
 70
   128
 71
   199
 72
   271
 73
   206
  0
VERTEX
  5
4F2
  8
0
 62
     9
 10
0.0
 20
0.0
 30
0.0
 70
   128
 71
   203
 72
   195
 73
   271
  0
VERTEX
  5
4F3
  8
0
 62
     9
 10
0.0
 20
0.0
 30
0.0
 70
   128
 71
   203
 72
   271
 73
   202
  0
VERTEX
  5
4F4
  8
0
 62
     9
 10
0.0
 20
0.0
 30
0.0
 70
   128
 71
   268
 72
   195
 73
   196
  0
VERTEX
  5
4F5
  8
0
 62
     9
 10
0.0
 20
0.0
 30
0.0
 70
   128
 71
   195
 72
   268
 73
   271
  0
VERTEX
  5
4F6
  8
0
 62
     9
 10
0.0
 20
0.0
 30
0.0
 70
   128
 71
   268
 72
   197
 73
   190
  0
VERTEX
  5
4F7
  8
0
 62
     9
 10
0.0
 20
0.0
 30
0.0
 70
   128
 71
   196
 72
   197
 73
   268
  0
VERTEX
  5
4F8
  8
0
 62
     9
 10
0.0
 20
0.0
 30
0.0
 70
   128
 71
   190
 72
   188
 73
   268
  0
VERTEX
  5
4F9
  8
0
 62
     9
 10
0.0
 20
0.0
 30
0.0
 70
   128
 71
   188
 72
   189
 73
   268
  0
VERTEX
  5
4FA
  8
0
 62
     9
 10
0.0
 20
0.0
 30
0.0
 70
   128
 71
   237
 72
   240
 73
   265
  0
VERTEX
  5
4FB
  8
0
 62
     9
 10
0.0
 20
0.0
 30
0.0
 70
   128
 71
   237
 72
   265
 73
   268
  0
VERTEX
  5
4FC
  8
0
 62
     9
 10
0.0
 20
0.0
 30
0.0
 70
   128
 71
   240
 72
   236
 73
   266
  0
VERTEX
  5
4FD
  8
0
 62
     9
 10
0.0
 20
0.0
 30
0.0
 70
   128
 71
   240
 72
   266
 73
   265
  0
VERTEX
  5
4FE
  8
0
 62
     9
 10
0.0
 20
0.0
 30
0.0
 70
   128
 71
   236
 72
   210
 73
   267
  0
VERTEX
  5
4FF
  8
0
 62
     9
 10
0.0
 20
0.0
 30
0.0
 70
   128
 71
   236
 72
   267
 73
   266
  0
VERTEX
  5
500
  8
0
 62
     9
 10
0.0
 20
0.0
 30
0.0
 70
   128
 71
   217
 72
   267
 73
   210
  0
VERTEX
  5
501
  8
0
 62
     9
 10
0.0
 20
0.0
 30
0.0
 70
   128
 71
   214
 72
   221
 73
   267
  0
VERTEX
  5
502
  8
0
 62
     9
 10
0.0
 20
0.0
 30
0.0
 70
   128
 71
   214
 72
   267
 73
   215
  0
VERTEX
  5
503
  8
0
 62
     9
 10
0.0
 20
0.0
 30
0.0
 70
   128
 71
   222
 72
   267
 73
   221
  0
VERTEX
  5
504
  8
0
 62
     9
 10
0.0
 20
0.0
 30
0.0
 70
   128
 71
   264
 72
   218
 73
   228
  0
VERTEX
  5
505
  8
0
 62
     9
 10
0.0
 20
0.0
 30
0.0
 70
   128
 71
   218
 72
   264
 73
   267
  0
VERTEX
  5
506
  8
0
 62
     9
 10
0.0
 20
0.0
 30
0.0
 70
   128
 71
   264
 72
   229
 73
   225
  0
VERTEX
  5
507
  8
0
 62
     9
 10
0.0
 20
0.0
 30
0.0
 70
   128
 71
   228
 72
   229
 73
   264
  0
VERTEX
  5
508
  8
0
 62
     9
 10
0.0
 20
0.0
 30
0.0
 70
   128
 71
   264
 72
   230
 73
   231
  0
VERTEX
  5
509
  8
0
 62
     9
 10
0.0
 20
0.0
 30
0.0
 70
   128
 71
   225
 72
   230
 73
   264
  0
VERTEX
  5
50A
  8
0
 62
     9
 10
0.0
 20
0.0
 30
0.0
 70
   128
 71
   231
 72
   233
 73
   264
  0
VERTEX
  5
50B
  8
0
 62
     9
 10
0.0
 20
0.0
 30
0.0
 70
   128
 71
   233
 72
   186
 73
   264
  0
VERTEX
  5
50C
  8
0
 62
     9
 10
0.0
 20
0.0
 30
0.0
 70
   128
 71
   181
 72
   261
 73
   264
  0
VERTEX
  5
50D
  8
0
 62
     9
 10
0.0
 20
0.0
 30
0.0
 70
   128
 71
   262
 72
   185
 73
   174
  0
VERTEX
  5
50E
  8
0
 62
     9
 10
0.0
 20
0.0
 30
0.0
 70
   128
 71
   185
 72
   262
 73
   261
  0
VERTEX
  5
50F
  8
0
 62
     9
 10
0.0
 20
0.0
 30
0.0
 70
   128
 71
   264
 72
   247
 73
   267
  0
VERTEX
  5
510
  8
0
 62
     9
 10
0.0
 20
0.0
 30
0.0
 70
   128
 71
   247
 72
   254
 73
   267
  0
VERTEX
  5
511
  8
0
 62
     9
 10
0.0
 20
0.0
 30
0.0
 70
   128
 71
   251
 72
   263
 73
   250
  0
VERTEX
  5
512
  8
0
 62
     9
 10
0.0
 20
0.0
 30
0.0
 70
   128
 71
   263
 72
   276
 73
   250
  0
VERTEX
  5
513
  8
0
 62
     9
 10
0.0
 20
0.0
 30
0.0
 70
   128
 71
   248
 72
   249
 73
   275
  0
VERTEX
  5
514
  8
0
 62
     9
 10
0.0
 20
0.0
 30
0.0
 70
   128
 71
   275
 72
   272
 73
   248
  0
VERTEX
  5
515
  8
0
 62
     9
 10
0.0
 20
0.0
 30
0.0
 70
   128
 71
   268
 72
   260
 73
   271
  0
VERTEX
  5
516
  8
0
 62
     9
 10
0.0
 20
0.0
 30
0.0
 70
   128
 71
   260
 72
   257
 73
   271
  0
SEQEND
  5
517
  8
0
 62
     9
  0
ENDBLK
  5
51A
  8
0
  0
BLOCK
  8
0
  2
42
 70
     0
 10
0.0
 20
0.0
 30
0.0
  3
42
  1

  0
POLYLINE
  5
51C
  8
0
 62
     9
 66
     1
 10
0.0
 20
0.0
 30
0.0
 70
    64
 71
   252
 72
   444
  0
VERTEX
  5
51D
  8
0
 10
38.6746711730957
 20
-57.03945922851562
 30
3.900000095367432
 70
   192
  0
VERTEX
  5
51E
  8
0
 10
36.69726943969727
 20
-57.58627319335938
 30
5.599999904632568
 70
   192
  0
VERTEX
  5
51F
  8
0
 10
36.37881088256836
 20
-57.9903678894043
 30
3.900000095367432
 70
   192
  0
VERTEX
  5
520
  8
0
 10
38.69732284545898
 20
-56.67718124389648
 30
5.599999904632568
 70
   192
  0
VERTEX
  5
521
  8
0
 10
40.57592010498047
 20
-55.57592010498047
 30
3.900000095367432
 70
   192
  0
VERTEX
  5
522
  8
0
 10
40.15685272216797
 20
-55.15685272216797
 30
5.599999904632568
 70
   192
  0
VERTEX
  5
523
  8
0
 10
34.52875137329102
 20
-57.98465728759766
 30
5.599999904632568
 70
   192
  0
VERTEX
  5
524
  8
0
 10
31.6162223815918
 20
-57.5
 30
6.099999904632568
 70
   192
  0
VERTEX
  5
525
  8
0
 10
33.9130973815918
 20
-58.29935073852539
 30
3.900000095367432
 70
   192
  0
VERTEX
  5
526
  8
0
 10
31.53682708740234
 20
-57.96762084960938
 30
3.900000095367432
 70
   192
  0
VERTEX
  5
527
  8
0
 10
42.03945922851562
 20
53.6746711730957
 30
3.900000095367432
 70
   192
  0
VERTEX
  5
528
  8
0
 10
42.58627319335938
 20
51.69726943969727
 30
5.599999904632568
 70
   192
  0
VERTEX
  5
529
  8
0
 10
42.9903678894043
 20
51.37881088256836
 30
3.900000095367432
 70
   192
  0
VERTEX
  5
52A
  8
0
 10
41.67718124389648
 20
53.69732284545898
 30
5.599999904632568
 70
   192
  0
VERTEX
  5
52B
  8
0
 10
40.57592010498047
 20
55.57592010498047
 30
3.900000095367432
 70
   192
  0
VERTEX
  5
52C
  8
0
 10
40.15685272216797
 20
55.15685272216797
 30
6.099999904632568
 70
   192
  0
VERTEX
  5
52D
  8
0
 10
42.98465728759766
 20
49.52875137329102
 30
5.599999904632568
 70
   192
  0
VERTEX
  5
52E
  8
0
 10
42.5
 20
46.6162223815918
 30
6.099999904632568
 70
   192
  0
VERTEX
  5
52F
  8
0
 10
43.29935073852539
 20
48.9130973815918
 30
3.900000095367432
 70
   192
  0
VERTEX
  5
530
  8
0
 10
42.96762084960938
 20
46.53682708740234
 30
3.900000095367432
 70
   192
  0
VERTEX
  5
531
  8
0
 10
0.0
 20
95.33582305908203
 30
6.674025058746338
 70
   192
  0
VERTEX
  5
532
  8
0
 10
71.94999694824219
 20
95.33582305908203
 30
6.674025058746338
 70
   192
  0
VERTEX
  5
533
  8
0
 10
0.0
 20
95.01065826416016
 30
7.160660266876221
 70
   192
  0
VERTEX
  5
534
  8
0
 10
0.0000000000000071
 20
95.44999694824219
 30
6.099999904632568
 70
   192
  0
VERTEX
  5
535
  8
0
 10
71.94999694824219
 20
95.44999694824219
 30
6.099999904632568
 70
   192
  0
VERTEX
  5
536
  8
0
 10
71.94999694824219
 20
95.01065826416016
 30
7.160660266876221
 70
   192
  0
VERTEX
  5
537
  8
0
 10
-71.94999694824219
 20
95.01065826416016
 30
7.160660266876221
 70
   192
  0
VERTEX
  5
538
  8
0
 10
-71.94999694824219
 20
95.33582305908203
 30
6.674025058746338
 70
   192
  0
VERTEX
  5
539
  8
0
 10
-71.94999694824219
 20
95.44999694824219
 30
6.099999904632568
 70
   192
  0
VERTEX
  5
53A
  8
0
 10
-74.0240249633789
 20
0.0
 30
7.485819339752197
 70
   192
  0
VERTEX
  5
53B
  8
0
 10
-74.0240249633789
 20
-92.44999694824219
 30
7.485819339752197
 70
   192
  0
VERTEX
  5
53C
  8
0
 10
-74.51065826416016
 20
0.0
 30
7.160660266876221
 70
   192
  0
VERTEX
  5
53D
  8
0
 10
-73.44999694824219
 20
0.0000000000000213
 30
7.599999904632568
 70
   192
  0
VERTEX
  5
53E
  8
0
 10
-73.44999694824219
 20
-92.44999694824219
 30
7.599999904632568
 70
   192
  0
VERTEX
  5
53F
  8
0
 10
-74.51065826416016
 20
-92.44999694824219
 30
7.160660266876221
 70
   192
  0
VERTEX
  5
540
  8
0
 10
-74.51065826416016
 20
92.44999694824219
 30
7.160660266876221
 70
   192
  0
VERTEX
  5
541
  8
0
 10
-74.0240249633789
 20
92.44999694824219
 30
7.485819339752197
 70
   192
  0
VERTEX
  5
542
  8
0
 10
-73.44999694824219
 20
92.44999694824219
 30
7.599999904632568
 70
   192
  0
VERTEX
  5
543
  8
0
 10
36.45829391479492
 20
-57.25864410400391
 30
6.099999904632568
 70
   192
  0
VERTEX
  5
544
  8
0
 10
38.41712188720703
 20
-56.47638702392578
 30
6.099999904632568
 70
   192
  0
VERTEX
  5
545
  8
0
 10
-34.5
 20
-57.61251449584961
 30
6.667552471160889
 70
   192
  0
VERTEX
  5
546
  8
0
 10
34.5
 20
-57.61117935180664
 30
6.66825532913208
 70
   192
  0
VERTEX
  5
547
  8
0
 10
-34.5
 20
-57.93933868408203
 30
7.160660266876221
 70
   192
  0
VERTEX
  5
548
  8
0
 10
34.5
 20
-57.93933868408203
 30
7.160660266876221
 70
   192
  0
VERTEX
  5
549
  8
0
 10
-31.6162223815918
 20
-57.5
 30
6.099999904632568
 70
   192
  0
VERTEX
  5
54A
  8
0
 10
-34.52843856811523
 20
-57.98549270629883
 30
5.599999904632568
 70
   192
  0
VERTEX
  5
54B
  8
0
 10
-36.98940277099609
 20
-57.56666564941406
 30
7.160660266876221
 70
   192
  0
VERTEX
  5
54C
  8
0
 10
-39.15271759033203
 20
-56.00734710693359
 30
6.099999904632568
 70
   192
  0
VERTEX
  5
54D
  8
0
 10
-36.85587310791016
 20
-57.14726638793945
 30
6.099999904632568
 70
   192
  0
VERTEX
  5
54E
  8
0
 10
-41.36951065063477
 20
-54.396728515625
 30
7.160660266876221
 70
   192
  0
VERTEX
  5
54F
  8
0
 10
-42.56439590454102
 20
-51.97201156616211
 30
7.160660266876221
 70
   192
  0
VERTEX
  5
550
  8
0
 10
-42.1449089050293
 20
-51.84513473510742
 30
6.099999904632568
 70
   192
  0
VERTEX
  5
551
  8
0
 10
-41.01188278198242
 20
-54.14581298828125
 30
6.099999904632568
 70
   192
  0
VERTEX
  5
552
  8
0
 10
-39.40871429443359
 20
-56.36551284790039
 30
7.160660266876221
 70
   192
  0
VERTEX
  5
553
  8
0
 10
-42.98345565795898
 20
-49.52833557128906
 30
5.599999904632568
 70
   192
  0
VERTEX
  5
554
  8
0
 10
-42.93933868408203
 20
-49.5
 30
7.160660266876221
 70
   192
  0
VERTEX
  5
555
  8
0
 10
-43.53357315063477
 20
-52.43940353393555
 30
7.599999904632568
 70
   192
  0
VERTEX
  5
556
  8
0
 10
-44.0
 20
-49.5
 30
7.599999904632568
 70
   192
  0
VERTEX
  5
557
  8
0
 10
-42.18332290649414
 20
-55.08648681640625
 30
7.599999904632568
 70
   192
  0
VERTEX
  5
558
  8
0
 10
-34.5
 20
-58.43174362182617
 30
7.48882007598877
 70
   192
  0
VERTEX
  5
559
  8
0
 10
-34.5
 20
-59.0
 30
7.599999904632568
 70
   192
  0
VERTEX
  5
55A
  8
0
 10
-37.43118667602539
 20
-58.53606414794922
 30
7.599999904632568
 70
   192
  0
VERTEX
  5
55B
  8
0
 10
-40.08206176757812
 20
-57.18695449829102
 30
7.599999904632568
 70
   192
  0
VERTEX
  5
55C
  8
0
 10
-73.33807373046875
 20
-94.85420989990234
 30
6.876142501831055
 70
   192
  0
VERTEX
  5
55D
  8
0
 10
-71.94999694824219
 20
-94.67649841308594
 30
7.408753395080566
 70
   192
  0
VERTEX
  5
55E
  8
0
 10
-71.94999694824219
 20
-95.25273132324219
 30
6.841036319732666
 70
   192
  0
VERTEX
  5
55F
  8
0
 10
-74.55545806884766
 20
-93.93207550048828
 30
6.099999904632568
 70
   192
  0
VERTEX
  5
560
  8
0
 10
-74.94999694824219
 20
-92.44999694824219
 30
6.099999904632568
 70
   192
  0
VERTEX
  5
561
  8
0
 10
-74.35420989990234
 20
-93.83807373046875
 30
6.876142501831055
 70
   192
  0
VERTEX
  5
562
  8
0
 10
-74.83582305908203
 20
-92.44999694824219
 30
6.674025058746338
 70
   192
  0
VERTEX
  5
563
  8
0
 10
-73.40299224853516
 20
-95.0675048828125
 30
6.099999904632568
 70
   192
  0
VERTEX
  5
564
  8
0
 10
-73.92119598388672
 20
-93.58807373046875
 30
7.376142501831055
 70
   192
  0
VERTEX
  5
565
  8
0
 10
-72.70417785644531
 20
-93.74537658691406
 30
7.599999904632568
 70
   192
  0
VERTEX
  5
566
  8
0
 10
-73.08807373046875
 20
-94.42119598388672
 30
7.376142501831055
 70
   192
  0
VERTEX
  5
567
  8
0
 10
-71.94999694824219
 20
-95.44999694824219
 30
6.099999904632568
 70
   192
  0
VERTEX
  5
568
  8
0
 10
-71.94999694824219
 20
-93.94999694824219
 30
7.599999904632568
 70
   192
  0
VERTEX
  5
569
  8
0
 10
-73.2508773803711
 20
-93.1959457397461
 30
7.599999904632568
 70
   192
  0
VERTEX
  5
56A
  8
0
 10
-71.94999694824219
 20
-95.44999694824219
 30
5.599999904632568
 70
   192
  0
VERTEX
  5
56B
  8
0
 10
-74.55545806884766
 20
-93.93207550048828
 30
5.599999904632568
 70
   192
  0
VERTEX
  5
56C
  8
0
 10
-74.94999694824219
 20
-92.44999694824219
 30
5.599999904632568
 70
   192
  0
VERTEX
  5
56D
  8
0
 10
-73.40299224853516
 20
-95.0675048828125
 30
5.599999904632568
 70
   192
  0
VERTEX
  5
56E
  8
0
 10
36.97201156616211
 20
-57.56439590454102
 30
7.160660266876221
 70
   192
  0
VERTEX
  5
56F
  8
0
 10
39.396728515625
 20
-56.36951065063477
 30
7.160660266876221
 70
   192
  0
VERTEX
  5
570
  8
0
 10
42.93933868408203
 20
-49.5
 30
7.160660266876221
 70
   192
  0
VERTEX
  5
571
  8
0
 10
42.56666564941406
 20
-51.98940277099609
 30
7.160660266876221
 70
   192
  0
VERTEX
  5
572
  8
0
 10
42.22868728637695
 20
-51.56430053710938
 30
6.099999904632568
 70
   192
  0
VERTEX
  5
573
  8
0
 10
37.44269180297852
 20
-58.53249359130859
 30
7.599999904632568
 70
   192
  0
VERTEX
  5
574
  8
0
 10
34.5
 20
-58.43244934082031
 30
7.487486362457275
 70
   192
  0
VERTEX
  5
575
  8
0
 10
40.08084106445312
 20
-57.18743896484375
 30
7.599999904632568
 70
   192
  0
VERTEX
  5
576
  8
0
 10
34.5
 20
-59.0
 30
7.599999904632568
 70
   192
  0
VERTEX
  5
577
  8
0
 10
41.41902542114258
 20
-53.51379776000977
 30
6.099999904632568
 70
   192
  0
VERTEX
  5
578
  8
0
 10
44.0
 20
-49.5
 30
7.599999904632568
 70
   192
  0
VERTEX
  5
579
  8
0
 10
41.36551284790039
 20
-54.40871429443359
 30
7.160660266876221
 70
   192
  0
VERTEX
  5
57A
  8
0
 10
42.98465728759766
 20
-49.52875137329102
 30
5.599999904632568
 70
   192
  0
VERTEX
  5
57B
  8
0
 10
42.19166564941406
 20
-55.07505416870117
 30
7.599999904632568
 70
   192
  0
VERTEX
  5
57C
  8
0
 10
43.53497314453125
 20
-52.43670654296875
 30
7.599999904632568
 70
   192
  0
VERTEX
  5
57D
  8
0
 10
41.67543792724609
 20
-53.69864273071289
 30
5.599999904632568
 70
   192
  0
VERTEX
  5
57E
  8
0
 10
42.58486938476562
 20
-51.70065307617188
 30
5.599999904632568
 70
   192
  0
VERTEX
  5
57F
  8
0
 10
71.94999694824219
 20
-94.6959457397461
 30
7.400875091552734
 70
   192
  0
VERTEX
  5
580
  8
0
 10
71.94999694824219
 20
-93.94999694824219
 30
7.599999904632568
 70
   192
  0
VERTEX
  5
581
  8
0
 10
71.94999694824219
 20
-95.24537658691406
 30
6.854178428649902
 70
   192
  0
VERTEX
  5
582
  8
0
 10
71.94999694824219
 20
-95.44999694824219
 30
6.099999904632568
 70
   192
  0
VERTEX
  5
583
  8
0
 10
73.43207550048828
 20
-95.05545806884766
 30
6.099999904632568
 70
   192
  0
VERTEX
  5
584
  8
0
 10
73.33807373046875
 20
-94.85420989990234
 30
6.876142501831055
 70
   192
  0
VERTEX
  5
585
  8
0
 10
73.92119598388672
 20
-93.58807373046875
 30
7.376142501831055
 70
   192
  0
VERTEX
  5
586
  8
0
 10
73.24537658691406
 20
-93.20417785644531
 30
7.599999904632568
 70
   192
  0
VERTEX
  5
587
  8
0
 10
73.44999694824219
 20
-92.44999694824219
 30
7.599999904632568
 70
   192
  0
VERTEX
  5
588
  8
0
 10
73.08807373046875
 20
-94.42119598388672
 30
7.376142501831055
 70
   192
  0
VERTEX
  5
589
  8
0
 10
72.6959457397461
 20
-93.75086975097656
 30
7.599999904632568
 70
   192
  0
VERTEX
  5
58A
  8
0
 10
74.35420989990234
 20
-93.83807373046875
 30
6.876142501831055
 70
   192
  0
VERTEX
  5
58B
  8
0
 10
74.17649841308594
 20
-92.44999694824219
 30
7.408753395080566
 70
   192
  0
VERTEX
  5
58C
  8
0
 10
74.75273132324219
 20
-92.44999694824219
 30
6.841036319732666
 70
   192
  0
VERTEX
  5
58D
  8
0
 10
74.94999694824219
 20
-92.44999694824219
 30
6.099999904632568
 70
   192
  0
VERTEX
  5
58E
  8
0
 10
74.5675048828125
 20
-93.90299224853516
 30
6.099999904632568
 70
   192
  0
VERTEX
  5
58F
  8
0
 10
74.5675048828125
 20
-93.90299224853516
 30
5.599999904632568
 70
   192
  0
VERTEX
  5
590
  8
0
 10
73.43207550048828
 20
-95.05545806884766
 30
5.599999904632568
 70
   192
  0
VERTEX
  5
591
  8
0
 10
71.94999694824219
 20
-95.44999694824219
 30
5.599999904632568
 70
   192
  0
VERTEX
  5
592
  8
0
 10
74.94999694824219
 20
-92.44999694824219
 30
5.599999904632568
 70
   192
  0
VERTEX
  5
593
  8
0
 10
-30.29190063476562
 20
-57.5
 30
5.599999904632568
 70
   192
  0
VERTEX
  5
594
  8
0
 10
30.29190063476562
 20
-57.5
 30
5.599999904632568
 70
   192
  0
VERTEX
  5
595
  8
0
 10
-42.93933868408203
 20
49.5
 30
7.160660266876221
 70
   192
  0
VERTEX
  5
596
  8
0
 10
-44.0
 20
49.5
 30
7.599999904632568
 70
   192
  0
VERTEX
  5
597
  8
0
 10
-42.5
 20
-46.6162223815918
 30
6.099999904632568
 70
   192
  0
VERTEX
  5
598
  8
0
 10
-42.5
 20
46.6162223815918
 30
6.099999904632568
 70
   192
  0
VERTEX
  5
599
  8
0
 10
-42.98549270629883
 20
49.52843856811523
 30
5.599999904632568
 70
   192
  0
VERTEX
  5
59A
  8
0
 10
-37.44269180297852
 20
58.53249359130859
 30
7.599999904632568
 70
   192
  0
VERTEX
  5
59B
  8
0
 10
-36.97201156616211
 20
57.56439590454102
 30
7.160660266876221
 70
   192
  0
VERTEX
  5
59C
  8
0
 10
-40.08084106445312
 20
57.18743896484375
 30
7.599999904632568
 70
   192
  0
VERTEX
  5
59D
  8
0
 10
-41.00734710693359
 20
54.15271759033203
 30
6.099999904632568
 70
   192
  0
VERTEX
  5
59E
  8
0
 10
-42.14726638793945
 20
51.85587310791016
 30
6.099999904632568
 70
   192
  0
VERTEX
  5
59F
  8
0
 10
-42.56666564941406
 20
51.98940277099609
 30
7.160660266876221
 70
   192
  0
VERTEX
  5
5A0
  8
0
 10
-36.84513473510742
 20
57.1449089050293
 30
6.099999904632568
 70
   192
  0
VERTEX
  5
5A1
  8
0
 10
-39.396728515625
 20
56.36951065063477
 30
7.160660266876221
 70
   192
  0
VERTEX
  5
5A2
  8
0
 10
-34.5
 20
57.93933868408203
 30
7.160660266876221
 70
   192
  0
VERTEX
  5
5A3
  8
0
 10
-34.5
 20
59.0
 30
7.599999904632568
 70
   192
  0
VERTEX
  5
5A4
  8
0
 10
-41.36551284790039
 20
54.40871429443359
 30
7.160660266876221
 70
   192
  0
VERTEX
  5
5A5
  8
0
 10
-39.14581298828125
 20
56.01188278198242
 30
6.099999904632568
 70
   192
  0
VERTEX
  5
5A6
  8
0
 10
-34.52833557128906
 20
57.98345565795898
 30
5.599999904632568
 70
   192
  0
VERTEX
  5
5A7
  8
0
 10
-42.19166564941406
 20
55.07505416870117
 30
7.599999904632568
 70
   192
  0
VERTEX
  5
5A8
  8
0
 10
-43.53497314453125
 20
52.43670654296875
 30
7.599999904632568
 70
   192
  0
VERTEX
  5
5A9
  8
0
 10
-74.35420989990234
 20
93.83807373046875
 30
6.876142501831055
 70
   192
  0
VERTEX
  5
5AA
  8
0
 10
-73.92119598388672
 20
93.58807373046875
 30
7.376142501831055
 70
   192
  0
VERTEX
  5
5AB
  8
0
 10
-73.08807373046875
 20
94.42119598388672
 30
7.376142501831055
 70
   192
  0
VERTEX
  5
5AC
  8
0
 10
-73.33807373046875
 20
94.85420989990234
 30
6.876142501831055
 70
   192
  0
VERTEX
  5
5AD
  8
0
 10
-71.94999694824219
 20
94.5240249633789
 30
7.485819339752197
 70
   192
  0
VERTEX
  5
5AE
  8
0
 10
-73.24537658691406
 20
93.20417785644531
 30
7.599999904632568
 70
   192
  0
VERTEX
  5
5AF
  8
0
 10
-72.6959457397461
 20
93.75086975097656
 30
7.599999904632568
 70
   192
  0
VERTEX
  5
5B0
  8
0
 10
-71.94999694824219
 20
93.94999694824219
 30
7.599999904632568
 70
   192
  0
VERTEX
  5
5B1
  8
0
 10
-73.43207550048828
 20
95.05545806884766
 30
6.099999904632568
 70
   192
  0
VERTEX
  5
5B2
  8
0
 10
-74.83582305908203
 20
92.44999694824219
 30
6.674025058746338
 70
   192
  0
VERTEX
  5
5B3
  8
0
 10
-74.94999694824219
 20
92.44999694824219
 30
6.099999904632568
 70
   192
  0
VERTEX
  5
5B4
  8
0
 10
-74.5675048828125
 20
93.90299224853516
 30
6.099999904632568
 70
   192
  0
VERTEX
  5
5B5
  8
0
 10
-74.83582305908203
 20
0.0
 30
6.674025058746338
 70
   192
  0
VERTEX
  5
5B6
  8
0
 10
-74.94999694824219
 20
0.0
 30
6.099999904632568
 70
   192
  0
VERTEX
  5
5B7
  8
0
 10
-74.5675048828125
 20
93.90299224853516
 30
5.599999904632568
 70
   192
  0
VERTEX
  5
5B8
  8
0
 10
-73.43207550048828
 20
95.05545806884766
 30
5.599999904632568
 70
   192
  0
VERTEX
  5
5B9
  8
0
 10
-71.94999694824219
 20
95.44999694824219
 30
5.599999904632568
 70
   192
  0
VERTEX
  5
5BA
  8
0
 10
-74.94999694824219
 20
92.44999694824219
 30
5.599999904632568
 70
   192
  0
VERTEX
  5
5BB
  8
0
 10
-42.5
 20
45.29190063476562
 30
5.599999904632568
 70
   192
  0
VERTEX
  5
5BC
  8
0
 10
-42.5
 20
-45.29190063476562
 30
5.599999904632568
 70
   192
  0
VERTEX
  5
5BD
  8
0
 10
42.5
 20
-46.6162223815918
 30
6.099999904632568
 70
   192
  0
VERTEX
  5
5BE
  8
0
 10
42.93933868408203
 20
49.5
 30
7.160660266876221
 70
   192
  0
VERTEX
  5
5BF
  8
0
 10
44.0
 20
49.5
 30
7.599999904632568
 70
   192
  0
VERTEX
  5
5C0
  8
0
 10
39.40871429443359
 20
56.36551284790039
 30
7.160660266876221
 70
   192
  0
VERTEX
  5
5C1
  8
0
 10
38.69864273071289
 20
56.67543792724609
 30
5.599999904632568
 70
   192
  0
VERTEX
  5
5C2
  8
0
 10
36.98940277099609
 20
57.56666564941406
 30
7.160660266876221
 70
   192
  0
VERTEX
  5
5C3
  8
0
 10
34.52875137329102
 20
57.98465728759766
 30
5.599999904632568
 70
   192
  0
VERTEX
  5
5C4
  8
0
 10
34.5
 20
57.93933868408203
 30
7.160660266876221
 70
   192
  0
VERTEX
  5
5C5
  8
0
 10
36.70065307617188
 20
57.58486938476562
 30
5.599999904632568
 70
   192
  0
VERTEX
  5
5C6
  8
0
 10
43.53357315063477
 20
52.43940353393555
 30
7.599999904632568
 70
   192
  0
VERTEX
  5
5C7
  8
0
 10
42.56439590454102
 20
51.97201156616211
 30
7.160660266876221
 70
   192
  0
VERTEX
  5
5C8
  8
0
 10
42.18332290649414
 20
55.08648681640625
 30
7.599999904632568
 70
   192
  0
VERTEX
  5
5C9
  8
0
 10
41.36951065063477
 20
54.396728515625
 30
7.160660266876221
 70
   192
  0
VERTEX
  5
5CA
  8
0
 10
34.5
 20
59.0
 30
7.599999904632568
 70
   192
  0
VERTEX
  5
5CB
  8
0
 10
40.08206176757812
 20
57.18695449829102
 30
7.599999904632568
 70
   192
  0
VERTEX
  5
5CC
  8
0
 10
37.43118667602539
 20
58.53606414794922
 30
7.599999904632568
 70
   192
  0
VERTEX
  5
5CD
  8
0
 10
-31.6162223815918
 20
57.5
 30
6.099999904632568
 70
   192
  0
VERTEX
  5
5CE
  8
0
 10
31.6162223815918
 20
57.5
 30
6.099999904632568
 70
   192
  0
VERTEX
  5
5CF
  8
0
 10
0.0
 20
94.5240249633789
 30
7.485819339752197
 70
   192
  0
VERTEX
  5
5D0
  8
0
 10
0.0000000000000071
 20
93.94999694824219
 30
7.599999904632568
 70
   192
  0
VERTEX
  5
5D1
  8
0
 10
71.94999694824219
 20
94.5240249633789
 30
7.485819339752197
 70
   192
  0
VERTEX
  5
5D2
  8
0
 10
71.94999694824219
 20
93.94999694824219
 30
7.599999904632568
 70
   192
  0
VERTEX
  5
5D3
  8
0
 10
73.08807373046875
 20
94.42119598388672
 30
7.376142501831055
 70
   192
  0
VERTEX
  5
5D4
  8
0
 10
73.33807373046875
 20
94.85420989990234
 30
6.876142501831055
 70
   192
  0
VERTEX
  5
5D5
  8
0
 10
74.35420989990234
 20
93.83807373046875
 30
6.876142501831055
 70
   192
  0
VERTEX
  5
5D6
  8
0
 10
74.55545806884766
 20
93.93207550048828
 30
6.099999904632568
 70
   192
  0
VERTEX
  5
5D7
  8
0
 10
74.94999694824219
 20
92.44999694824219
 30
6.099999904632568
 70
   192
  0
VERTEX
  5
5D8
  8
0
 10
73.40299224853516
 20
95.0675048828125
 30
6.099999904632568
 70
   192
  0
VERTEX
  5
5D9
  8
0
 10
73.92119598388672
 20
93.58807373046875
 30
7.376142501831055
 70
   192
  0
VERTEX
  5
5DA
  8
0
 10
72.70417785644531
 20
93.74537658691406
 30
7.599999904632568
 70
   192
  0
VERTEX
  5
5DB
  8
0
 10
74.1910400390625
 20
92.44999694824219
 30
7.402729988098145
 70
   192
  0
VERTEX
  5
5DC
  8
0
 10
74.75875091552734
 20
92.44999694824219
 30
6.826495170593262
 70
   192
  0
VERTEX
  5
5DD
  8
0
 10
73.44999694824219
 20
92.44999694824219
 30
7.599999904632568
 70
   192
  0
VERTEX
  5
5DE
  8
0
 10
73.2508773803711
 20
93.1959457397461
 30
7.599999904632568
 70
   192
  0
VERTEX
  5
5DF
  8
0
 10
71.94999694824219
 20
95.44999694824219
 30
5.599999904632568
 70
   192
  0
VERTEX
  5
5E0
  8
0
 10
74.55545806884766
 20
93.93207550048828
 30
5.599999904632568
 70
   192
  0
VERTEX
  5
5E1
  8
0
 10
74.94999694824219
 20
92.44999694824219
 30
5.599999904632568
 70
   192
  0
VERTEX
  5
5E2
  8
0
 10
73.40299224853516
 20
95.0675048828125
 30
5.599999904632568
 70
   192
  0
VERTEX
  5
5E3
  8
0
 10
42.5
 20
-45.29190063476562
 30
5.599999904632568
 70
   192
  0
VERTEX
  5
5E4
  8
0
 10
42.5
 20
45.29190063476562
 30
5.599999904632568
 70
   192
  0
VERTEX
  5
5E5
  8
0
 10
30.29190063476562
 20
57.5
 30
5.599999904632568
 70
   192
  0
VERTEX
  5
5E6
  8
0
 10
-30.29190063476562
 20
57.5
 30
5.599999904632568
 70
   192
  0
VERTEX
  5
5E7
  8
0
 10
-73.28398895263672
 20
-94.79512786865234
 30
3.900000095367432
 70
   192
  0
VERTEX
  5
5E8
  8
0
 10
-74.30596923828125
 20
-93.7578125
 30
3.900000095367432
 70
   192
  0
VERTEX
  5
5E9
  8
0
 10
-71.94999694824219
 20
-95.1502456665039
 30
3.900000095367432
 70
   192
  0
VERTEX
  5
5EA
  8
0
 10
-74.6502456665039
 20
-92.44999694824219
 30
3.900000095367432
 70
   192
  0
VERTEX
  5
5EB
  8
0
 10
-74.29512786865234
 20
93.78398895263672
 30
3.900000095367432
 70
   192
  0
VERTEX
  5
5EC
  8
0
 10
-73.2578125
 20
94.80596923828125
 30
3.900000095367432
 70
   192
  0
VERTEX
  5
5ED
  8
0
 10
-74.6502456665039
 20
92.44999694824219
 30
3.900000095367432
 70
   192
  0
VERTEX
  5
5EE
  8
0
 10
-71.94999694824219
 20
95.1502456665039
 30
3.900000095367432
 70
   192
  0
VERTEX
  5
5EF
  8
0
 10
74.29512786865234
 20
-93.78398895263672
 30
3.900000095367432
 70
   192
  0
VERTEX
  5
5F0
  8
0
 10
73.2578125
 20
-94.80596923828125
 30
3.900000095367432
 70
   192
  0
VERTEX
  5
5F1
  8
0
 10
74.6502456665039
 20
-92.44999694824219
 30
3.900000095367432
 70
   192
  0
VERTEX
  5
5F2
  8
0
 10
71.94999694824219
 20
-95.1502456665039
 30
3.900000095367432
 70
   192
  0
VERTEX
  5
5F3
  8
0
 10
73.28398895263672
 20
94.79512786865234
 30
3.900000095367432
 70
   192
  0
VERTEX
  5
5F4
  8
0
 10
74.30596923828125
 20
93.7578125
 30
3.900000095367432
 70
   192
  0
VERTEX
  5
5F5
  8
0
 10
71.94999694824219
 20
95.1502456665039
 30
3.900000095367432
 70
   192
  0
VERTEX
  5
5F6
  8
0
 10
74.6502456665039
 20
92.44999694824219
 30
3.900000095367432
 70
   192
  0
VERTEX
  5
5F7
  8
0
 10
42.79975509643555
 20
45.29190063476562
 30
3.900000095367432
 70
   192
  0
VERTEX
  5
5F8
  8
0
 10
42.79975509643555
 20
-45.29190063476562
 30
3.900000095367432
 70
   192
  0
VERTEX
  5
5F9
  8
0
 10
-30.29190063476562
 20
57.79975509643555
 30
3.900000095367432
 70
   192
  0
VERTEX
  5
5FA
  8
0
 10
30.29190063476562
 20
57.79975509643555
 30
3.900000095367432
 70
   192
  0
VERTEX
  5
5FB
  8
0
 10
38.6746711730957
 20
57.03945922851562
 30
3.900000095367432
 70
   192
  0
VERTEX
  5
5FC
  8
0
 10
36.37881088256836
 20
57.9903678894043
 30
3.900000095367432
 70
   192
  0
VERTEX
  5
5FD
  8
0
 10
31.53682708740234
 20
57.96762084960938
 30
3.900000095367432
 70
   192
  0
VERTEX
  5
5FE
  8
0
 10
33.9130973815918
 20
58.29935073852539
 30
3.900000095367432
 70
   192
  0
VERTEX
  5
5FF
  8
0
 10
30.29190063476562
 20
-57.79975509643555
 30
3.900000095367432
 70
   192
  0
VERTEX
  5
600
  8
0
 10
-30.29190063476562
 20
-57.79975509643555
 30
3.900000095367432
 70
   192
  0
VERTEX
  5
601
  8
0
 10
42.03945922851562
 20
-53.6746711730957
 30
3.900000095367432
 70
   192
  0
VERTEX
  5
602
  8
0
 10
42.9903678894043
 20
-51.37881088256836
 30
3.900000095367432
 70
   192
  0
VERTEX
  5
603
  8
0
 10
42.96762084960938
 20
-46.53682708740234
 30
3.900000095367432
 70
   192
  0
VERTEX
  5
604
  8
0
 10
43.29935073852539
 20
-48.9130973815918
 30
3.900000095367432
 70
   192
  0
VERTEX
  5
605
  8
0
 10
-42.79975509643555
 20
-45.29190063476562
 30
3.900000095367432
 70
   192
  0
VERTEX
  5
606
  8
0
 10
-42.79975509643555
 20
45.29190063476562
 30
3.900000095367432
 70
   192
  0
VERTEX
  5
607
  8
0
 10
-43.29872894287109
 20
48.95564270019531
 30
3.900000095367432
 70
   192
  0
VERTEX
  5
608
  8
0
 10
-42.96762084960938
 20
46.53682708740234
 30
3.900000095367432
 70
   192
  0
VERTEX
  5
609
  8
0
 10
-40.57592010498047
 20
55.57592010498047
 30
3.900000095367432
 70
   192
  0
VERTEX
  5
60A
  8
0
 10
-42.06106185913086
 20
53.63662338256836
 30
3.900000095367432
 70
   192
  0
VERTEX
  5
60B
  8
0
 10
-42.98970794677734
 20
51.37781143188477
 30
3.900000095367432
 70
   192
  0
VERTEX
  5
60C
  8
0
 10
-36.37889862060547
 20
57.99120712280273
 30
3.900000095367432
 70
   192
  0
VERTEX
  5
60D
  8
0
 10
-38.63733291625977
 20
57.06123733520508
 30
3.900000095367432
 70
   192
  0
VERTEX
  5
60E
  8
0
 10
-33.95615386962891
 20
58.30075836181641
 30
3.900000095367432
 70
   192
  0
VERTEX
  5
60F
  8
0
 10
-31.53682708740234
 20
57.96762084960938
 30
3.900000095367432
 70
   192
  0
VERTEX
  5
610
  8
0
 10
-33.95564270019531
 20
-58.29872894287109
 30
3.900000095367432
 70
   192
  0
VERTEX
  5
611
  8
0
 10
-31.53682708740234
 20
-57.96762084960938
 30
3.900000095367432
 70
   192
  0
VERTEX
  5
612
  8
0
 10
-40.57592010498047
 20
-55.57592010498047
 30
3.900000095367432
 70
   192
  0
VERTEX
  5
613
  8
0
 10
-38.63662338256836
 20
-57.06106185913086
 30
3.900000095367432
 70
   192
  0
VERTEX
  5
614
  8
0
 10
-36.37781143188477
 20
-57.98970794677734
 30
3.900000095367432
 70
   192
  0
VERTEX
  5
615
  8
0
 10
-42.99120712280273
 20
-51.37889862060547
 30
3.900000095367432
 70
   192
  0
VERTEX
  5
616
  8
0
 10
-42.06123733520508
 20
-53.63733291625977
 30
3.900000095367432
 70
   192
  0
VERTEX
  5
617
  8
0
 10
-43.30075836181641
 20
-48.95615386962891
 30
3.900000095367432
 70
   192
  0
VERTEX
  5
618
  8
0
 10
-42.96762084960938
 20
-46.53682708740234
 30
3.900000095367432
 70
   192
  0
VERTEX
  5
619
  8
0
 62
     9
 10
0.0
 20
0.0
 30
0.0
 70
   128
 71
     3
 72
     2
 73
     1
  0
VERTEX
  5
61A
  8
0
 62
     9
 10
0.0
 20
0.0
 30
0.0
 70
   128
 71
     2
 72
     4
 73
     1
  0
VERTEX
  5
61B
  8
0
 62
     9
 10
0.0
 20
0.0
 30
0.0
 70
   128
 71
     6
 72
     5
 73
     4
  0
VERTEX
  5
61C
  8
0
 62
     9
 10
0.0
 20
0.0
 30
0.0
 70
   128
 71
     1
 72
     4
 73
     5
  0
VERTEX
  5
61D
  8
0
 62
     9
 10
0.0
 20
0.0
 30
0.0
 70
   128
 71
     7
 72
     2
 73
     3
  0
VERTEX
  5
61E
  8
0
 62
     9
 10
0.0
 20
0.0
 30
0.0
 70
   128
 71
     7
 72
     9
 73
     8
  0
VERTEX
  5
61F
  8
0
 62
     9
 10
0.0
 20
0.0
 30
0.0
 70
   128
 71
     9
 72
     7
 73
     3
  0
VERTEX
  5
620
  8
0
 62
     9
 10
0.0
 20
0.0
 30
0.0
 70
   128
 71
     9
 72
    10
 73
     8
  0
VERTEX
  5
621
  8
0
 62
     9
 10
0.0
 20
0.0
 30
0.0
 70
   128
 71
    13
 72
    12
 73
    11
  0
VERTEX
  5
622
  8
0
 62
     9
 10
0.0
 20
0.0
 30
0.0
 70
   128
 71
    12
 72
    14
 73
    11
  0
VERTEX
  5
623
  8
0
 62
     9
 10
0.0
 20
0.0
 30
0.0
 70
   128
 71
    16
 72
    15
 73
    14
  0
VERTEX
  5
624
  8
0
 62
     9
 10
0.0
 20
0.0
 30
0.0
 70
   128
 71
    11
 72
    14
 73
    15
  0
VERTEX
  5
625
  8
0
 62
     9
 10
0.0
 20
0.0
 30
0.0
 70
   128
 71
    17
 72
    12
 73
    13
  0
VERTEX
  5
626
  8
0
 62
     9
 10
0.0
 20
0.0
 30
0.0
 70
   128
 71
    17
 72
    19
 73
    18
  0
VERTEX
  5
627
  8
0
 62
     9
 10
0.0
 20
0.0
 30
0.0
 70
   128
 71
    19
 72
    17
 73
    13
  0
VERTEX
  5
628
  8
0
 62
     9
 10
0.0
 20
0.0
 30
0.0
 70
   128
 71
    19
 72
    20
 73
    18
  0
VERTEX
  5
629
  8
0
 62
     9
 10
0.0
 20
0.0
 30
0.0
 70
   128
 71
    23
 72
    22
 73
    21
  0
VERTEX
  5
62A
  8
0
 62
     9
 10
0.0
 20
0.0
 30
0.0
 70
   128
 71
    25
 72
    24
 73
    21
  0
VERTEX
  5
62B
  8
0
 62
     9
 10
0.0
 20
0.0
 30
0.0
 70
   128
 71
    22
 72
    23
 73
    26
  0
VERTEX
  5
62C
  8
0
 62
     9
 10
0.0
 20
0.0
 30
0.0
 70
   128
 71
    23
 72
    21
 73
    27
  0
VERTEX
  5
62D
  8
0
 62
     9
 10
0.0
 20
0.0
 30
0.0
 70
   128
 71
    28
 72
    27
 73
    21
  0
VERTEX
  5
62E
  8
0
 62
     9
 10
0.0
 20
0.0
 30
0.0
 70
   128
 71
    28
 72
    24
 73
    29
  0
VERTEX
  5
62F
  8
0
 62
     9
 10
0.0
 20
0.0
 30
0.0
 70
   128
 71
    28
 72
    21
 73
    24
  0
VERTEX
  5
630
  8
0
 62
     9
 10
0.0
 20
0.0
 30
0.0
 70
   128
 71
    21
 72
    22
 73
    25
  0
VERTEX
  5
631
  8
0
 62
     9
 10
0.0
 20
0.0
 30
0.0
 70
   128
 71
    32
 72
    31
 73
    30
  0
VERTEX
  5
632
  8
0
 62
     9
 10
0.0
 20
0.0
 30
0.0
 70
   128
 71
    34
 72
    33
 73
    30
  0
VERTEX
  5
633
  8
0
 62
     9
 10
0.0
 20
0.0
 30
0.0
 70
   128
 71
    31
 72
    32
 73
    35
  0
VERTEX
  5
634
  8
0
 62
     9
 10
0.0
 20
0.0
 30
0.0
 70
   128
 71
    32
 72
    30
 73
    36
  0
VERTEX
  5
635
  8
0
 62
     9
 10
0.0
 20
0.0
 30
0.0
 70
   128
 71
    37
 72
    36
 73
    30
  0
VERTEX
  5
636
  8
0
 62
     9
 10
0.0
 20
0.0
 30
0.0
 70
   128
 71
    37
 72
    33
 73
    38
  0
VERTEX
  5
637
  8
0
 62
     9
 10
0.0
 20
0.0
 30
0.0
 70
   128
 71
    37
 72
    30
 73
    33
  0
VERTEX
  5
638
  8
0
 62
     9
 10
0.0
 20
0.0
 30
0.0
 70
   128
 71
    30
 72
    31
 73
    34
  0
VERTEX
  5
639
  8
0
 62
     9
 10
0.0
 20
0.0
 30
0.0
 70
   128
 71
     2
 72
    39
 73
     4
  0
VERTEX
  5
63A
  8
0
 62
     9
 10
0.0
 20
0.0
 30
0.0
 70
   128
 71
     6
 72
     4
 73
    40
  0
VERTEX
  5
63B
  8
0
 62
     9
 10
0.0
 20
0.0
 30
0.0
 70
   128
 71
    40
 72
     4
 73
    39
  0
VERTEX
  5
63C
  8
0
 62
     9
 10
0.0
 20
0.0
 30
0.0
 70
   128
 71
     7
 72
    39
 73
     2
  0
VERTEX
  5
63D
  8
0
 62
     9
 10
0.0
 20
0.0
 30
0.0
 70
   128
 71
    43
 72
    42
 73
    41
  0
VERTEX
  5
63E
  8
0
 62
     9
 10
0.0
 20
0.0
 30
0.0
 70
   128
 71
    44
 72
    42
 73
    43
  0
VERTEX
  5
63F
  8
0
 62
     9
 10
0.0
 20
0.0
 30
0.0
 70
   128
 71
    42
 72
     7
 73
     8
  0
VERTEX
  5
640
  8
0
 62
     9
 10
0.0
 20
0.0
 30
0.0
 70
   128
 71
    41
 72
    42
 73
     8
  0
VERTEX
  5
641
  8
0
 62
     9
 10
0.0
 20
0.0
 30
0.0
 70
   128
 71
    45
 72
    41
 73
     8
  0
VERTEX
  5
642
  8
0
 62
     9
 10
0.0
 20
0.0
 30
0.0
 70
   128
 71
    45
 72
    46
 73
    41
  0
VERTEX
  5
643
  8
0
 62
     9
 10
0.0
 20
0.0
 30
0.0
 70
   128
 71
    49
 72
    48
 73
    47
  0
VERTEX
  5
644
  8
0
 62
     9
 10
0.0
 20
0.0
 30
0.0
 70
   128
 71
    49
 72
    47
 73
    41
  0
VERTEX
  5
645
  8
0
 62
     9
 10
0.0
 20
0.0
 30
0.0
 70
   128
 71
    43
 72
    41
 73
    47
  0
VERTEX
  5
646
  8
0
 62
     9
 10
0.0
 20
0.0
 30
0.0
 70
   128
 71
    49
 72
    41
 73
    46
  0
VERTEX
  5
647
  8
0
 62
     9
 10
0.0
 20
0.0
 30
0.0
 70
   128
 71
    52
 72
    51
 73
    50
  0
VERTEX
  5
648
  8
0
 62
     9
 10
0.0
 20
0.0
 30
0.0
 70
   128
 71
    54
 72
    53
 73
    50
  0
VERTEX
  5
649
  8
0
 62
     9
 10
0.0
 20
0.0
 30
0.0
 70
   128
 71
    56
 72
    51
 73
    55
  0
VERTEX
  5
64A
  8
0
 62
     9
 10
0.0
 20
0.0
 30
0.0
 70
   128
 71
    57
 72
    51
 73
    56
  0
VERTEX
  5
64B
  8
0
 62
     9
 10
0.0
 20
0.0
 30
0.0
 70
   128
 71
    56
 72
    58
 73
    57
  0
VERTEX
  5
64C
  8
0
 62
     9
 10
0.0
 20
0.0
 30
0.0
 70
   128
 71
    51
 72
    57
 73
    59
  0
VERTEX
  5
64D
  8
0
 62
     9
 10
0.0
 20
0.0
 30
0.0
 70
   128
 71
    54
 72
    48
 73
    53
  0
VERTEX
  5
64E
  8
0
 62
     9
 10
0.0
 20
0.0
 30
0.0
 70
   128
 71
    60
 72
    43
 73
    47
  0
VERTEX
  5
64F
  8
0
 62
     9
 10
0.0
 20
0.0
 30
0.0
 70
   128
 71
    47
 72
    48
 73
    54
  0
VERTEX
  5
650
  8
0
 62
     9
 10
0.0
 20
0.0
 30
0.0
 70
   128
 71
    60
 72
    62
 73
    61
  0
VERTEX
  5
651
  8
0
 62
     9
 10
0.0
 20
0.0
 30
0.0
 70
   128
 71
    51
 72
    52
 73
    55
  0
VERTEX
  5
652
  8
0
 62
     9
 10
0.0
 20
0.0
 30
0.0
 70
   128
 71
    50
 72
    53
 73
    52
  0
VERTEX
  5
653
  8
0
 62
     9
 10
0.0
 20
0.0
 30
0.0
 70
   128
 71
    63
 72
    50
 73
    59
  0
VERTEX
  5
654
  8
0
 62
     9
 10
0.0
 20
0.0
 30
0.0
 70
   128
 71
    59
 72
    50
 73
    51
  0
VERTEX
  5
655
  8
0
 62
     9
 10
0.0
 20
0.0
 30
0.0
 70
   128
 71
    62
 72
    54
 73
    63
  0
VERTEX
  5
656
  8
0
 62
     9
 10
0.0
 20
0.0
 30
0.0
 70
   128
 71
    63
 72
    54
 73
    50
  0
VERTEX
  5
657
  8
0
 62
     9
 10
0.0
 20
0.0
 30
0.0
 70
   128
 71
    47
 72
    62
 73
    60
  0
VERTEX
  5
658
  8
0
 62
     9
 10
0.0
 20
0.0
 30
0.0
 70
   128
 71
    62
 72
    47
 73
    54
  0
VERTEX
  5
659
  8
0
 62
     9
 10
0.0
 20
0.0
 30
0.0
 70
   128
 71
    66
 72
    65
 73
    64
  0
VERTEX
  5
65A
  8
0
 62
     9
 10
0.0
 20
0.0
 30
0.0
 70
   128
 71
    69
 72
    68
 73
    67
  0
VERTEX
  5
65B
  8
0
 62
     9
 10
0.0
 20
0.0
 30
0.0
 70
   128
 71
    70
 72
    68
 73
    69
  0
VERTEX
  5
65C
  8
0
 62
     9
 10
0.0
 20
0.0
 30
0.0
 70
   128
 71
    64
 72
    71
 73
    66
  0
VERTEX
  5
65D
  8
0
 62
     9
 10
0.0
 20
0.0
 30
0.0
 70
   128
 71
    74
 72
    73
 73
    72
  0
VERTEX
  5
65E
  8
0
 62
     9
 10
0.0
 20
0.0
 30
0.0
 70
   128
 71
    75
 72
    66
 73
    71
  0
VERTEX
  5
65F
  8
0
 62
     9
 10
0.0
 20
0.0
 30
0.0
 70
   128
 71
    76
 72
    73
 73
    74
  0
VERTEX
  5
660
  8
0
 62
     9
 10
0.0
 20
0.0
 30
0.0
 70
   128
 71
    64
 72
    67
 73
    71
  0
VERTEX
  5
661
  8
0
 62
     9
 10
0.0
 20
0.0
 30
0.0
 70
   128
 71
    31
 72
    35
 73
    72
  0
VERTEX
  5
662
  8
0
 62
     9
 10
0.0
 20
0.0
 30
0.0
 70
   128
 71
    69
 72
    72
 73
    35
  0
VERTEX
  5
663
  8
0
 62
     9
 10
0.0
 20
0.0
 30
0.0
 70
   128
 71
    31
 72
    77
 73
    34
  0
VERTEX
  5
664
  8
0
 62
     9
 10
0.0
 20
0.0
 30
0.0
 70
   128
 71
    77
 72
    31
 73
    72
  0
VERTEX
  5
665
  8
0
 62
     9
 10
0.0
 20
0.0
 30
0.0
 70
   128
 71
    69
 72
    35
 73
    70
  0
VERTEX
  5
666
  8
0
 62
     9
 10
0.0
 20
0.0
 30
0.0
 70
   128
 71
    64
 72
    74
 73
    69
  0
VERTEX
  5
667
  8
0
 62
     9
 10
0.0
 20
0.0
 30
0.0
 70
   128
 71
    77
 72
    72
 73
    73
  0
VERTEX
  5
668
  8
0
 62
     9
 10
0.0
 20
0.0
 30
0.0
 70
   128
 71
    64
 72
    69
 73
    67
  0
VERTEX
  5
669
  8
0
 62
     9
 10
0.0
 20
0.0
 30
0.0
 70
   128
 71
    74
 72
    72
 73
    69
  0
VERTEX
  5
66A
  8
0
 62
     9
 10
0.0
 20
0.0
 30
0.0
 70
   128
 71
    74
 72
    65
 73
    76
  0
VERTEX
  5
66B
  8
0
 62
     9
 10
0.0
 20
0.0
 30
0.0
 70
   128
 71
    65
 72
    74
 73
    64
  0
VERTEX
  5
66C
  8
0
 62
     9
 10
0.0
 20
0.0
 30
0.0
 70
   128
 71
    78
 72
    75
 73
    71
  0
VERTEX
  5
66D
  8
0
 62
     9
 10
0.0
 20
0.0
 30
0.0
 70
   128
 71
    80
 72
    79
 73
    68
  0
VERTEX
  5
66E
  8
0
 62
     9
 10
0.0
 20
0.0
 30
0.0
 70
   128
 71
    79
 72
    81
 73
    67
  0
VERTEX
  5
66F
  8
0
 62
     9
 10
0.0
 20
0.0
 30
0.0
 70
   128
 71
    67
 72
    81
 73
    71
  0
VERTEX
  5
670
  8
0
 62
     9
 10
0.0
 20
0.0
 30
0.0
 70
   128
 71
    79
 72
    67
 73
    68
  0
VERTEX
  5
671
  8
0
 62
     9
 10
0.0
 20
0.0
 30
0.0
 70
   128
 71
    71
 72
    81
 73
    78
  0
VERTEX
  5
672
  8
0
 62
     9
 10
0.0
 20
0.0
 30
0.0
 70
   128
 71
    83
 72
    40
 73
    82
  0
VERTEX
  5
673
  8
0
 62
     9
 10
0.0
 20
0.0
 30
0.0
 70
   128
 71
    86
 72
    85
 73
    84
  0
VERTEX
  5
674
  8
0
 62
     9
 10
0.0
 20
0.0
 30
0.0
 70
   128
 71
    88
 72
    87
 73
    82
  0
VERTEX
  5
675
  8
0
 62
     9
 10
0.0
 20
0.0
 30
0.0
 70
   128
 71
    40
 72
    39
 73
    82
  0
VERTEX
  5
676
  8
0
 62
     9
 10
0.0
 20
0.0
 30
0.0
 70
   128
 71
    83
 72
    82
 73
    89
  0
VERTEX
  5
677
  8
0
 62
     9
 10
0.0
 20
0.0
 30
0.0
 70
   128
 71
    90
 72
    87
 73
    88
  0
VERTEX
  5
678
  8
0
 62
     9
 10
0.0
 20
0.0
 30
0.0
 70
   128
 71
    86
 72
    91
 73
    85
  0
VERTEX
  5
679
  8
0
 62
     9
 10
0.0
 20
0.0
 30
0.0
 70
   128
 71
    85
 72
    92
 73
    84
  0
VERTEX
  5
67A
  8
0
 62
     9
 10
0.0
 20
0.0
 30
0.0
 70
   128
 71
    91
 72
    93
 73
    85
  0
VERTEX
  5
67B
  8
0
 62
     9
 10
0.0
 20
0.0
 30
0.0
 70
   128
 71
    94
 72
    86
 73
    84
  0
VERTEX
  5
67C
  8
0
 62
     9
 10
0.0
 20
0.0
 30
0.0
 70
   128
 71
    93
 72
     6
 73
    83
  0
VERTEX
  5
67D
  8
0
 62
     9
 10
0.0
 20
0.0
 30
0.0
 70
   128
 71
    91
 72
     6
 73
    93
  0
VERTEX
  5
67E
  8
0
 62
     9
 10
0.0
 20
0.0
 30
0.0
 70
   128
 71
    88
 72
    82
 73
    44
  0
VERTEX
  5
67F
  8
0
 62
     9
 10
0.0
 20
0.0
 30
0.0
 70
   128
 71
    42
 72
    39
 73
     7
  0
VERTEX
  5
680
  8
0
 62
     9
 10
0.0
 20
0.0
 30
0.0
 70
   128
 71
    42
 72
    44
 73
    82
  0
VERTEX
  5
681
  8
0
 62
     9
 10
0.0
 20
0.0
 30
0.0
 70
   128
 71
    39
 72
    42
 73
    82
  0
VERTEX
  5
682
  8
0
 62
     9
 10
0.0
 20
0.0
 30
0.0
 70
   128
 71
    82
 72
    87
 73
    89
  0
VERTEX
  5
683
  8
0
 62
     9
 10
0.0
 20
0.0
 30
0.0
 70
   128
 71
    83
 72
    89
 73
    95
  0
VERTEX
  5
684
  8
0
 62
     9
 10
0.0
 20
0.0
 30
0.0
 70
   128
 71
    40
 72
    83
 73
     6
  0
VERTEX
  5
685
  8
0
 62
     9
 10
0.0
 20
0.0
 30
0.0
 70
   128
 71
    95
 72
    93
 73
    83
  0
VERTEX
  5
686
  8
0
 62
     9
 10
0.0
 20
0.0
 30
0.0
 70
   128
 71
    93
 72
    95
 73
    96
  0
VERTEX
  5
687
  8
0
 62
     9
 10
0.0
 20
0.0
 30
0.0
 70
   128
 71
    96
 72
    85
 73
    93
  0
VERTEX
  5
688
  8
0
 62
     9
 10
0.0
 20
0.0
 30
0.0
 70
   128
 71
    85
 72
    96
 73
    92
  0
VERTEX
  5
689
  8
0
 62
     9
 10
0.0
 20
0.0
 30
0.0
 70
   128
 71
    44
 72
    43
 73
    60
  0
VERTEX
  5
68A
  8
0
 62
     9
 10
0.0
 20
0.0
 30
0.0
 70
   128
 71
    90
 72
    88
 73
    61
  0
VERTEX
  5
68B
  8
0
 62
     9
 10
0.0
 20
0.0
 30
0.0
 70
   128
 71
    44
 72
    60
 73
    88
  0
VERTEX
  5
68C
  8
0
 62
     9
 10
0.0
 20
0.0
 30
0.0
 70
   128
 71
    88
 72
    60
 73
    61
  0
VERTEX
  5
68D
  8
0
 62
     9
 10
0.0
 20
0.0
 30
0.0
 70
   128
 71
    91
 72
    97
 73
     6
  0
VERTEX
  5
68E
  8
0
 62
     9
 10
0.0
 20
0.0
 30
0.0
 70
   128
 71
    98
 72
    86
 73
    94
  0
VERTEX
  5
68F
  8
0
 62
     9
 10
0.0
 20
0.0
 30
0.0
 70
   128
 71
    91
 72
    98
 73
    97
  0
VERTEX
  5
690
  8
0
 62
     9
 10
0.0
 20
0.0
 30
0.0
 70
   128
 71
    98
 72
    91
 73
    86
  0
VERTEX
  5
691
  8
0
 62
     9
 10
0.0
 20
0.0
 30
0.0
 70
   128
 71
    66
 72
    99
 73
    65
  0
VERTEX
  5
692
  8
0
 62
     9
 10
0.0
 20
0.0
 30
0.0
 70
   128
 71
    76
 72
    65
 73
   100
  0
VERTEX
  5
693
  8
0
 62
     9
 10
0.0
 20
0.0
 30
0.0
 70
   128
 71
    99
 72
   100
 73
    65
  0
VERTEX
  5
694
  8
0
 62
     9
 10
0.0
 20
0.0
 30
0.0
 70
   128
 71
    66
 72
   101
 73
    99
  0
VERTEX
  5
695
  8
0
 62
     9
 10
0.0
 20
0.0
 30
0.0
 70
   128
 71
    75
 72
   101
 73
    66
  0
VERTEX
  5
696
  8
0
 62
     9
 10
0.0
 20
0.0
 30
0.0
 70
   128
 71
    75
 72
   102
 73
   101
  0
VERTEX
  5
697
  8
0
 62
     9
 10
0.0
 20
0.0
 30
0.0
 70
   128
 71
   104
 72
   102
 73
   103
  0
VERTEX
  5
698
  8
0
 62
     9
 10
0.0
 20
0.0
 30
0.0
 70
   128
 71
   107
 72
   106
 73
   105
  0
VERTEX
  5
699
  8
0
 62
     9
 10
0.0
 20
0.0
 30
0.0
 70
   128
 71
   108
 72
    99
 73
   101
  0
VERTEX
  5
69A
  8
0
 62
     9
 10
0.0
 20
0.0
 30
0.0
 70
   128
 71
   109
 72
   100
 73
    99
  0
VERTEX
  5
69B
  8
0
 62
     9
 10
0.0
 20
0.0
 30
0.0
 70
   128
 71
   101
 72
   104
 73
   108
  0
VERTEX
  5
69C
  8
0
 62
     9
 10
0.0
 20
0.0
 30
0.0
 70
   128
 71
   102
 72
   104
 73
   101
  0
VERTEX
  5
69D
  8
0
 62
     9
 10
0.0
 20
0.0
 30
0.0
 70
   128
 71
   105
 72
   106
 73
   108
  0
VERTEX
  5
69E
  8
0
 62
     9
 10
0.0
 20
0.0
 30
0.0
 70
   128
 71
   112
 72
   111
 73
   110
  0
VERTEX
  5
69F
  8
0
 62
     9
 10
0.0
 20
0.0
 30
0.0
 70
   128
 71
   112
 72
   114
 73
   113
  0
VERTEX
  5
6A0
  8
0
 62
     9
 10
0.0
 20
0.0
 30
0.0
 70
   128
 71
   112
 72
   110
 73
   114
  0
VERTEX
  5
6A1
  8
0
 62
     9
 10
0.0
 20
0.0
 30
0.0
 70
   128
 71
   110
 72
   103
 73
   114
  0
VERTEX
  5
6A2
  8
0
 62
     9
 10
0.0
 20
0.0
 30
0.0
 70
   128
 71
   109
 72
    99
 73
   108
  0
VERTEX
  5
6A3
  8
0
 62
     9
 10
0.0
 20
0.0
 30
0.0
 70
   128
 71
   110
 72
   105
 73
   104
  0
VERTEX
  5
6A4
  8
0
 62
     9
 10
0.0
 20
0.0
 30
0.0
 70
   128
 71
   109
 72
   108
 73
   106
  0
VERTEX
  5
6A5
  8
0
 62
     9
 10
0.0
 20
0.0
 30
0.0
 70
   128
 71
   110
 72
   104
 73
   103
  0
VERTEX
  5
6A6
  8
0
 62
     9
 10
0.0
 20
0.0
 30
0.0
 70
   128
 71
   105
 72
   108
 73
   104
  0
VERTEX
  5
6A7
  8
0
 62
     9
 10
0.0
 20
0.0
 30
0.0
 70
   128
 71
   105
 72
   111
 73
   107
  0
VERTEX
  5
6A8
  8
0
 62
     9
 10
0.0
 20
0.0
 30
0.0
 70
   128
 71
   111
 72
   105
 73
   110
  0
VERTEX
  5
6A9
  8
0
 62
     9
 10
0.0
 20
0.0
 30
0.0
 70
   128
 71
   114
 72
   103
 73
   115
  0
VERTEX
  5
6AA
  8
0
 62
     9
 10
0.0
 20
0.0
 30
0.0
 70
   128
 71
   117
 72
   116
 73
   102
  0
VERTEX
  5
6AB
  8
0
 62
     9
 10
0.0
 20
0.0
 30
0.0
 70
   128
 71
   115
 72
   103
 73
   116
  0
VERTEX
  5
6AC
  8
0
 62
     9
 10
0.0
 20
0.0
 30
0.0
 70
   128
 71
   113
 72
   114
 73
   118
  0
VERTEX
  5
6AD
  8
0
 62
     9
 10
0.0
 20
0.0
 30
0.0
 70
   128
 71
   114
 72
   115
 73
   118
  0
VERTEX
  5
6AE
  8
0
 62
     9
 10
0.0
 20
0.0
 30
0.0
 70
   128
 71
   116
 72
   103
 73
   102
  0
VERTEX
  5
6AF
  8
0
 62
     9
 10
0.0
 20
0.0
 30
0.0
 70
   128
 71
   120
 72
   119
 73
     8
  0
VERTEX
  5
6B0
  8
0
 62
     9
 10
0.0
 20
0.0
 30
0.0
 70
   128
 71
   119
 72
    45
 73
     8
  0
VERTEX
  5
6B1
  8
0
 62
     9
 10
0.0
 20
0.0
 30
0.0
 70
   128
 71
   117
 72
   102
 73
    78
  0
VERTEX
  5
6B2
  8
0
 62
     9
 10
0.0
 20
0.0
 30
0.0
 70
   128
 71
   102
 72
    75
 73
    78
  0
VERTEX
  5
6B3
  8
0
 62
     9
 10
0.0
 20
0.0
 30
0.0
 70
   128
 71
   122
 72
    56
 73
   121
  0
VERTEX
  5
6B4
  8
0
 62
     9
 10
0.0
 20
0.0
 30
0.0
 70
   128
 71
    58
 72
    56
 73
   122
  0
VERTEX
  5
6B5
  8
0
 62
     9
 10
0.0
 20
0.0
 30
0.0
 70
   128
 71
    56
 72
    55
 73
   123
  0
VERTEX
  5
6B6
  8
0
 62
     9
 10
0.0
 20
0.0
 30
0.0
 70
   128
 71
   121
 72
    56
 73
   123
  0
VERTEX
  5
6B7
  8
0
 62
     9
 10
0.0
 20
0.0
 30
0.0
 70
   128
 71
   124
 72
   121
 73
   123
  0
VERTEX
  5
6B8
  8
0
 62
     9
 10
0.0
 20
0.0
 30
0.0
 70
   128
 71
   124
 72
   125
 73
   121
  0
VERTEX
  5
6B9
  8
0
 62
     9
 10
0.0
 20
0.0
 30
0.0
 70
   128
 71
   128
 72
   127
 73
   126
  0
VERTEX
  5
6BA
  8
0
 62
     9
 10
0.0
 20
0.0
 30
0.0
 70
   128
 71
   131
 72
   130
 73
   129
  0
VERTEX
  5
6BB
  8
0
 62
     9
 10
0.0
 20
0.0
 30
0.0
 70
   128
 71
   127
 72
   133
 73
   132
  0
VERTEX
  5
6BC
  8
0
 62
     9
 10
0.0
 20
0.0
 30
0.0
 70
   128
 71
   135
 72
   126
 73
   134
  0
VERTEX
  5
6BD
  8
0
 62
     9
 10
0.0
 20
0.0
 30
0.0
 70
   128
 71
   130
 72
   131
 73
   121
  0
VERTEX
  5
6BE
  8
0
 62
     9
 10
0.0
 20
0.0
 30
0.0
 70
   128
 71
   131
 72
   122
 73
   121
  0
VERTEX
  5
6BF
  8
0
 62
     9
 10
0.0
 20
0.0
 30
0.0
 70
   128
 71
   129
 72
   136
 73
   131
  0
VERTEX
  5
6C0
  8
0
 62
     9
 10
0.0
 20
0.0
 30
0.0
 70
   128
 71
   125
 72
   130
 73
   121
  0
VERTEX
  5
6C1
  8
0
 62
     9
 10
0.0
 20
0.0
 30
0.0
 70
   128
 71
   137
 72
   133
 73
   136
  0
VERTEX
  5
6C2
  8
0
 62
     9
 10
0.0
 20
0.0
 30
0.0
 70
   128
 71
   134
 72
   127
 73
   138
  0
VERTEX
  5
6C3
  8
0
 62
     9
 10
0.0
 20
0.0
 30
0.0
 70
   128
 71
   136
 72
   129
 73
   137
  0
VERTEX
  5
6C4
  8
0
 62
     9
 10
0.0
 20
0.0
 30
0.0
 70
   128
 71
   127
 72
   134
 73
   126
  0
VERTEX
  5
6C5
  8
0
 62
     9
 10
0.0
 20
0.0
 30
0.0
 70
   128
 71
   127
 72
   132
 73
   138
  0
VERTEX
  5
6C6
  8
0
 62
     9
 10
0.0
 20
0.0
 30
0.0
 70
   128
 71
   133
 72
   137
 73
   132
  0
VERTEX
  5
6C7
  8
0
 62
     9
 10
0.0
 20
0.0
 30
0.0
 70
   128
 71
   139
 72
   133
 73
   128
  0
VERTEX
  5
6C8
  8
0
 62
     9
 10
0.0
 20
0.0
 30
0.0
 70
   128
 71
   128
 72
   133
 73
   127
  0
VERTEX
  5
6C9
  8
0
 62
     9
 10
0.0
 20
0.0
 30
0.0
 70
   128
 71
   140
 72
   136
 73
   139
  0
VERTEX
  5
6CA
  8
0
 62
     9
 10
0.0
 20
0.0
 30
0.0
 70
   128
 71
   139
 72
   136
 73
   133
  0
VERTEX
  5
6CB
  8
0
 62
     9
 10
0.0
 20
0.0
 30
0.0
 70
   128
 71
   131
 72
   140
 73
   122
  0
VERTEX
  5
6CC
  8
0
 62
     9
 10
0.0
 20
0.0
 30
0.0
 70
   128
 71
   140
 72
   131
 73
   136
  0
VERTEX
  5
6CD
  8
0
 62
     9
 10
0.0
 20
0.0
 30
0.0
 70
   128
 71
    36
 72
   142
 73
   141
  0
VERTEX
  5
6CE
  8
0
 62
     9
 10
0.0
 20
0.0
 30
0.0
 70
   128
 71
   144
 72
   143
 73
    27
  0
VERTEX
  5
6CF
  8
0
 62
     9
 10
0.0
 20
0.0
 30
0.0
 70
   128
 71
   143
 72
   145
 73
    27
  0
VERTEX
  5
6D0
  8
0
 62
     9
 10
0.0
 20
0.0
 30
0.0
 70
   128
 71
   142
 72
   146
 73
   143
  0
VERTEX
  5
6D1
  8
0
 62
     9
 10
0.0
 20
0.0
 30
0.0
 70
   128
 71
   148
 72
   145
 73
   147
  0
VERTEX
  5
6D2
  8
0
 62
     9
 10
0.0
 20
0.0
 30
0.0
 70
   128
 71
   146
 72
   142
 73
    38
  0
VERTEX
  5
6D3
  8
0
 62
     9
 10
0.0
 20
0.0
 30
0.0
 70
   128
 71
    27
 72
    28
 73
   144
  0
VERTEX
  5
6D4
  8
0
 62
     9
 10
0.0
 20
0.0
 30
0.0
 70
   128
 71
    29
 72
   144
 73
    28
  0
VERTEX
  5
6D5
  8
0
 62
     9
 10
0.0
 20
0.0
 30
0.0
 70
   128
 71
    29
 72
   149
 73
   144
  0
VERTEX
  5
6D6
  8
0
 62
     9
 10
0.0
 20
0.0
 30
0.0
 70
   128
 71
   141
 72
   150
 73
    36
  0
VERTEX
  5
6D7
  8
0
 62
     9
 10
0.0
 20
0.0
 30
0.0
 70
   128
 71
    36
 72
    37
 73
   142
  0
VERTEX
  5
6D8
  8
0
 62
     9
 10
0.0
 20
0.0
 30
0.0
 70
   128
 71
   150
 72
   152
 73
   151
  0
VERTEX
  5
6D9
  8
0
 62
     9
 10
0.0
 20
0.0
 30
0.0
 70
   128
 71
   152
 72
   141
 73
   149
  0
VERTEX
  5
6DA
  8
0
 62
     9
 10
0.0
 20
0.0
 30
0.0
 70
   128
 71
   147
 72
   145
 73
   143
  0
VERTEX
  5
6DB
  8
0
 62
     9
 10
0.0
 20
0.0
 30
0.0
 70
   128
 71
   141
 72
   142
 73
   144
  0
VERTEX
  5
6DC
  8
0
 62
     9
 10
0.0
 20
0.0
 30
0.0
 70
   128
 71
   147
 72
   143
 73
   146
  0
VERTEX
  5
6DD
  8
0
 62
     9
 10
0.0
 20
0.0
 30
0.0
 70
   128
 71
   141
 72
   144
 73
   149
  0
VERTEX
  5
6DE
  8
0
 62
     9
 10
0.0
 20
0.0
 30
0.0
 70
   128
 71
   141
 72
   152
 73
   150
  0
VERTEX
  5
6DF
  8
0
 62
     9
 10
0.0
 20
0.0
 30
0.0
 70
   128
 71
    37
 72
    38
 73
   142
  0
VERTEX
  5
6E0
  8
0
 62
     9
 10
0.0
 20
0.0
 30
0.0
 70
   128
 71
   142
 72
   143
 73
   144
  0
VERTEX
  5
6E1
  8
0
 62
     9
 10
0.0
 20
0.0
 30
0.0
 70
   128
 71
   150
 72
   151
 73
   153
  0
VERTEX
  5
6E2
  8
0
 62
     9
 10
0.0
 20
0.0
 30
0.0
 70
   128
 71
   154
 72
   153
 73
   151
  0
VERTEX
  5
6E3
  8
0
 62
     9
 10
0.0
 20
0.0
 30
0.0
 70
   128
 71
    36
 72
   150
 73
    32
  0
VERTEX
  5
6E4
  8
0
 62
     9
 10
0.0
 20
0.0
 30
0.0
 70
   128
 71
   153
 72
   154
 73
    70
  0
VERTEX
  5
6E5
  8
0
 62
     9
 10
0.0
 20
0.0
 30
0.0
 70
   128
 71
    32
 72
   153
 73
    35
  0
VERTEX
  5
6E6
  8
0
 62
     9
 10
0.0
 20
0.0
 30
0.0
 70
   128
 71
    68
 72
    70
 73
   154
  0
VERTEX
  5
6E7
  8
0
 62
     9
 10
0.0
 20
0.0
 30
0.0
 70
   128
 71
   150
 72
   153
 73
    32
  0
VERTEX
  5
6E8
  8
0
 62
     9
 10
0.0
 20
0.0
 30
0.0
 70
   128
 71
   153
 72
    70
 73
    35
  0
VERTEX
  5
6E9
  8
0
 62
     9
 10
0.0
 20
0.0
 30
0.0
 70
   128
 71
   152
 72
   149
 73
   155
  0
VERTEX
  5
6EA
  8
0
 62
     9
 10
0.0
 20
0.0
 30
0.0
 70
   128
 71
   157
 72
   156
 73
    29
  0
VERTEX
  5
6EB
  8
0
 62
     9
 10
0.0
 20
0.0
 30
0.0
 70
   128
 71
   155
 72
   149
 73
   156
  0
VERTEX
  5
6EC
  8
0
 62
     9
 10
0.0
 20
0.0
 30
0.0
 70
   128
 71
   151
 72
   152
 73
   158
  0
VERTEX
  5
6ED
  8
0
 62
     9
 10
0.0
 20
0.0
 30
0.0
 70
   128
 71
   152
 72
   155
 73
   158
  0
VERTEX
  5
6EE
  8
0
 62
     9
 10
0.0
 20
0.0
 30
0.0
 70
   128
 71
   156
 72
   149
 73
    29
  0
VERTEX
  5
6EF
  8
0
 62
     9
 10
0.0
 20
0.0
 30
0.0
 70
   128
 71
   123
 72
   160
 73
   159
  0
VERTEX
  5
6F0
  8
0
 62
     9
 10
0.0
 20
0.0
 30
0.0
 70
   128
 71
   124
 72
   123
 73
   159
  0
VERTEX
  5
6F1
  8
0
 62
     9
 10
0.0
 20
0.0
 30
0.0
 70
   128
 71
    68
 72
   154
 73
    80
  0
VERTEX
  5
6F2
  8
0
 62
     9
 10
0.0
 20
0.0
 30
0.0
 70
   128
 71
   154
 72
   158
 73
    80
  0
VERTEX
  5
6F3
  8
0
 62
     9
 10
0.0
 20
0.0
 30
0.0
 70
   128
 71
   158
 72
   154
 73
   151
  0
VERTEX
  5
6F4
  8
0
 62
     9
 10
0.0
 20
0.0
 30
0.0
 70
   128
 71
    18
 72
   161
 73
    84
  0
VERTEX
  5
6F5
  8
0
 62
     9
 10
0.0
 20
0.0
 30
0.0
 70
   128
 71
    17
 72
    18
 73
   162
  0
VERTEX
  5
6F6
  8
0
 62
     9
 10
0.0
 20
0.0
 30
0.0
 70
   128
 71
    94
 72
    84
 73
   161
  0
VERTEX
  5
6F7
  8
0
 62
     9
 10
0.0
 20
0.0
 30
0.0
 70
   128
 71
    84
 72
   162
 73
    18
  0
VERTEX
  5
6F8
  8
0
 62
     9
 10
0.0
 20
0.0
 30
0.0
 70
   128
 71
    92
 72
   162
 73
    84
  0
VERTEX
  5
6F9
  8
0
 62
     9
 10
0.0
 20
0.0
 30
0.0
 70
   128
 71
    92
 72
   163
 73
   162
  0
VERTEX
  5
6FA
  8
0
 62
     9
 10
0.0
 20
0.0
 30
0.0
 70
   128
 71
   166
 72
   165
 73
   164
  0
VERTEX
  5
6FB
  8
0
 62
     9
 10
0.0
 20
0.0
 30
0.0
 70
   128
 71
   169
 72
   168
 73
   167
  0
VERTEX
  5
6FC
  8
0
 62
     9
 10
0.0
 20
0.0
 30
0.0
 70
   128
 71
    16
 72
   164
 73
   165
  0
VERTEX
  5
6FD
  8
0
 62
     9
 10
0.0
 20
0.0
 30
0.0
 70
   128
 71
   166
 72
   168
 73
   169
  0
VERTEX
  5
6FE
  8
0
 62
     9
 10
0.0
 20
0.0
 30
0.0
 70
   128
 71
   170
 72
   162
 73
   163
  0
VERTEX
  5
6FF
  8
0
 62
     9
 10
0.0
 20
0.0
 30
0.0
 70
   128
 71
    17
 72
   162
 73
    12
  0
VERTEX
  5
700
  8
0
 62
     9
 10
0.0
 20
0.0
 30
0.0
 70
   128
 71
   171
 72
   162
 73
   170
  0
VERTEX
  5
701
  8
0
 62
     9
 10
0.0
 20
0.0
 30
0.0
 70
   128
 71
   170
 72
   172
 73
   171
  0
VERTEX
  5
702
  8
0
 62
     9
 10
0.0
 20
0.0
 30
0.0
 70
   128
 71
   171
 72
   172
 73
   173
  0
VERTEX
  5
703
  8
0
 62
     9
 10
0.0
 20
0.0
 30
0.0
 70
   128
 71
   173
 72
    14
 73
   171
  0
VERTEX
  5
704
  8
0
 62
     9
 10
0.0
 20
0.0
 30
0.0
 70
   128
 71
   166
 72
   169
 73
   165
  0
VERTEX
  5
705
  8
0
 62
     9
 10
0.0
 20
0.0
 30
0.0
 70
   128
 71
    16
 72
   173
 73
   164
  0
VERTEX
  5
706
  8
0
 62
     9
 10
0.0
 20
0.0
 30
0.0
 70
   128
 71
   166
 72
   174
 73
   168
  0
VERTEX
  5
707
  8
0
 62
     9
 10
0.0
 20
0.0
 30
0.0
 70
   128
 71
    12
 72
   171
 73
    14
  0
VERTEX
  5
708
  8
0
 62
     9
 10
0.0
 20
0.0
 30
0.0
 70
   128
 71
   171
 72
    12
 73
   162
  0
VERTEX
  5
709
  8
0
 62
     9
 10
0.0
 20
0.0
 30
0.0
 70
   128
 71
   173
 72
   172
 73
   175
  0
VERTEX
  5
70A
  8
0
 62
     9
 10
0.0
 20
0.0
 30
0.0
 70
   128
 71
    14
 72
   173
 73
    16
  0
VERTEX
  5
70B
  8
0
 62
     9
 10
0.0
 20
0.0
 30
0.0
 70
   128
 71
   175
 72
   164
 73
   173
  0
VERTEX
  5
70C
  8
0
 62
     9
 10
0.0
 20
0.0
 30
0.0
 70
   128
 71
   164
 72
   175
 73
   176
  0
VERTEX
  5
70D
  8
0
 62
     9
 10
0.0
 20
0.0
 30
0.0
 70
   128
 71
   176
 72
   166
 73
   164
  0
VERTEX
  5
70E
  8
0
 62
     9
 10
0.0
 20
0.0
 30
0.0
 70
   128
 71
   166
 72
   176
 73
   174
  0
VERTEX
  5
70F
  8
0
 62
     9
 10
0.0
 20
0.0
 30
0.0
 70
   128
 71
   174
 72
   135
 73
   134
  0
VERTEX
  5
710
  8
0
 62
     9
 10
0.0
 20
0.0
 30
0.0
 70
   128
 71
   138
 72
   177
 73
   134
  0
VERTEX
  5
711
  8
0
 62
     9
 10
0.0
 20
0.0
 30
0.0
 70
   128
 71
   177
 72
   178
 73
   168
  0
VERTEX
  5
712
  8
0
 62
     9
 10
0.0
 20
0.0
 30
0.0
 70
   128
 71
   178
 72
   167
 73
   168
  0
VERTEX
  5
713
  8
0
 62
     9
 10
0.0
 20
0.0
 30
0.0
 70
   128
 71
   174
 72
   134
 73
   168
  0
VERTEX
  5
714
  8
0
 62
     9
 10
0.0
 20
0.0
 30
0.0
 70
   128
 71
   134
 72
   177
 73
   168
  0
VERTEX
  5
715
  8
0
 62
     9
 10
0.0
 20
0.0
 30
0.0
 70
   128
 71
   145
 72
   148
 73
   179
  0
VERTEX
  5
716
  8
0
 62
     9
 10
0.0
 20
0.0
 30
0.0
 70
   128
 71
   180
 72
   179
 73
   148
  0
VERTEX
  5
717
  8
0
 62
     9
 10
0.0
 20
0.0
 30
0.0
 70
   128
 71
    27
 72
   145
 73
    23
  0
VERTEX
  5
718
  8
0
 62
     9
 10
0.0
 20
0.0
 30
0.0
 70
   128
 71
   179
 72
   180
 73
   181
  0
VERTEX
  5
719
  8
0
 62
     9
 10
0.0
 20
0.0
 30
0.0
 70
   128
 71
    23
 72
   179
 73
    26
  0
VERTEX
  5
71A
  8
0
 62
     9
 10
0.0
 20
0.0
 30
0.0
 70
   128
 71
   182
 72
   181
 73
   180
  0
VERTEX
  5
71B
  8
0
 62
     9
 10
0.0
 20
0.0
 30
0.0
 70
   128
 71
   145
 72
   179
 73
    23
  0
VERTEX
  5
71C
  8
0
 62
     9
 10
0.0
 20
0.0
 30
0.0
 70
   128
 71
   179
 72
   181
 73
    26
  0
VERTEX
  5
71D
  8
0
 62
     9
 10
0.0
 20
0.0
 30
0.0
 70
   128
 71
    26
 72
   181
 73
   183
  0
VERTEX
  5
71E
  8
0
 62
     9
 10
0.0
 20
0.0
 30
0.0
 70
   128
 71
    26
 72
   184
 73
    22
  0
VERTEX
  5
71F
  8
0
 62
     9
 10
0.0
 20
0.0
 30
0.0
 70
   128
 71
   187
 72
   186
 73
   185
  0
VERTEX
  5
720
  8
0
 62
     9
 10
0.0
 20
0.0
 30
0.0
 70
   128
 71
    25
 72
    22
 73
   188
  0
VERTEX
  5
721
  8
0
 62
     9
 10
0.0
 20
0.0
 30
0.0
 70
   128
 71
    26
 72
   183
 73
   184
  0
VERTEX
  5
722
  8
0
 62
     9
 10
0.0
 20
0.0
 30
0.0
 70
   128
 71
   183
 72
   190
 73
   189
  0
VERTEX
  5
723
  8
0
 62
     9
 10
0.0
 20
0.0
 30
0.0
 70
   128
 71
   190
 72
   183
 73
   182
  0
VERTEX
  5
724
  8
0
 62
     9
 10
0.0
 20
0.0
 30
0.0
 70
   128
 71
   188
 72
   184
 73
   186
  0
VERTEX
  5
725
  8
0
 62
     9
 10
0.0
 20
0.0
 30
0.0
 70
   128
 71
   192
 72
   189
 73
   191
  0
VERTEX
  5
726
  8
0
 62
     9
 10
0.0
 20
0.0
 30
0.0
 70
   128
 71
   185
 72
   189
 73
   192
  0
VERTEX
  5
727
  8
0
 62
     9
 10
0.0
 20
0.0
 30
0.0
 70
   128
 71
   191
 72
   194
 73
   193
  0
VERTEX
  5
728
  8
0
 62
     9
 10
0.0
 20
0.0
 30
0.0
 70
   128
 71
   194
 72
   191
 73
   189
  0
VERTEX
  5
729
  8
0
 62
     9
 10
0.0
 20
0.0
 30
0.0
 70
   128
 71
   185
 72
   192
 73
   187
  0
VERTEX
  5
72A
  8
0
 62
     9
 10
0.0
 20
0.0
 30
0.0
 70
   128
 71
   184
 72
   183
 73
   185
  0
VERTEX
  5
72B
  8
0
 62
     9
 10
0.0
 20
0.0
 30
0.0
 70
   128
 71
   194
 72
   189
 73
   190
  0
VERTEX
  5
72C
  8
0
 62
     9
 10
0.0
 20
0.0
 30
0.0
 70
   128
 71
   184
 72
   185
 73
   186
  0
VERTEX
  5
72D
  8
0
 62
     9
 10
0.0
 20
0.0
 30
0.0
 70
   128
 71
   184
 72
   188
 73
    22
  0
VERTEX
  5
72E
  8
0
 62
     9
 10
0.0
 20
0.0
 30
0.0
 70
   128
 71
   181
 72
   182
 73
   183
  0
VERTEX
  5
72F
  8
0
 62
     9
 10
0.0
 20
0.0
 30
0.0
 70
   128
 71
   183
 72
   189
 73
   185
  0
VERTEX
  5
730
  8
0
 62
     9
 10
0.0
 20
0.0
 30
0.0
 70
   128
 71
   192
 72
   191
 73
   112
  0
VERTEX
  5
731
  8
0
 62
     9
 10
0.0
 20
0.0
 30
0.0
 70
   128
 71
   107
 72
   111
 73
   193
  0
VERTEX
  5
732
  8
0
 62
     9
 10
0.0
 20
0.0
 30
0.0
 70
   128
 71
   112
 72
   191
 73
   111
  0
VERTEX
  5
733
  8
0
 62
     9
 10
0.0
 20
0.0
 30
0.0
 70
   128
 71
   187
 72
   192
 73
   113
  0
VERTEX
  5
734
  8
0
 62
     9
 10
0.0
 20
0.0
 30
0.0
 70
   128
 71
   192
 72
   112
 73
   113
  0
VERTEX
  5
735
  8
0
 62
     9
 10
0.0
 20
0.0
 30
0.0
 70
   128
 71
   111
 72
   191
 73
   193
  0
VERTEX
  5
736
  8
0
 62
     9
 10
0.0
 20
0.0
 30
0.0
 70
   128
 71
   195
 72
    25
 73
   188
  0
VERTEX
  5
737
  8
0
 62
     9
 10
0.0
 20
0.0
 30
0.0
 70
   128
 71
   197
 72
   196
 73
   187
  0
VERTEX
  5
738
  8
0
 62
     9
 10
0.0
 20
0.0
 30
0.0
 70
   128
 71
   196
 72
   198
 73
   186
  0
VERTEX
  5
739
  8
0
 62
     9
 10
0.0
 20
0.0
 30
0.0
 70
   128
 71
   186
 72
   198
 73
   188
  0
VERTEX
  5
73A
  8
0
 62
     9
 10
0.0
 20
0.0
 30
0.0
 70
   128
 71
   196
 72
   186
 73
   187
  0
VERTEX
  5
73B
  8
0
 62
     9
 10
0.0
 20
0.0
 30
0.0
 70
   128
 71
   188
 72
   198
 73
   195
  0
VERTEX
  5
73C
  8
0
 62
     9
 10
0.0
 20
0.0
 30
0.0
 70
   128
 71
   161
 72
    18
 73
   199
  0
VERTEX
  5
73D
  8
0
 62
     9
 10
0.0
 20
0.0
 30
0.0
 70
   128
 71
   200
 72
   199
 73
    18
  0
VERTEX
  5
73E
  8
0
 62
     9
 10
0.0
 20
0.0
 30
0.0
 70
   128
 71
   202
 72
   201
 73
   177
  0
VERTEX
  5
73F
  8
0
 62
     9
 10
0.0
 20
0.0
 30
0.0
 70
   128
 71
   201
 72
   178
 73
   177
  0
VERTEX
  5
740
  8
0
 62
     9
 10
0.0
 20
0.0
 30
0.0
 70
   128
 71
   100
 72
   109
 73
   106
  0
VERTEX
  5
741
  8
0
 62
     9
 10
0.0
 20
0.0
 30
0.0
 70
   128
 71
   180
 72
   174
 73
   182
  0
VERTEX
  5
742
  8
0
 62
     9
 10
0.0
 20
0.0
 30
0.0
 70
   128
 71
   107
 72
   100
 73
   106
  0
VERTEX
  5
743
  8
0
 62
     9
 10
0.0
 20
0.0
 30
0.0
 70
   128
 71
   194
 72
   190
 73
   193
  0
VERTEX
  5
744
  8
0
 62
     9
 10
0.0
 20
0.0
 30
0.0
 70
   128
 71
   135
 72
   148
 73
   126
  0
VERTEX
  5
745
  8
0
 62
     9
 10
0.0
 20
0.0
 30
0.0
 70
   128
 71
   193
 72
   190
 73
   182
  0
VERTEX
  5
746
  8
0
 62
     9
 10
0.0
 20
0.0
 30
0.0
 70
   128
 71
   146
 72
    38
 73
   148
  0
VERTEX
  5
747
  8
0
 62
     9
 10
0.0
 20
0.0
 30
0.0
 70
   128
 71
   146
 72
   148
 73
   147
  0
VERTEX
  5
748
  8
0
 62
     9
 10
0.0
 20
0.0
 30
0.0
 70
   128
 71
   122
 72
   140
 73
    38
  0
VERTEX
  5
749
  8
0
 62
     9
 10
0.0
 20
0.0
 30
0.0
 70
   128
 71
   107
 72
   163
 73
    92
  0
VERTEX
  5
74A
  8
0
 62
     9
 10
0.0
 20
0.0
 30
0.0
 70
   128
 71
    33
 72
   122
 73
    38
  0
VERTEX
  5
74B
  8
0
 62
     9
 10
0.0
 20
0.0
 30
0.0
 70
   128
 71
    34
 72
    77
 73
    73
  0
VERTEX
  5
74C
  8
0
 62
     9
 10
0.0
 20
0.0
 30
0.0
 70
   128
 71
    61
 72
   100
 73
    90
  0
VERTEX
  5
74D
  8
0
 62
     9
 10
0.0
 20
0.0
 30
0.0
 70
   128
 71
    76
 72
    34
 73
    73
  0
VERTEX
  5
74E
  8
0
 62
     9
 10
0.0
 20
0.0
 30
0.0
 70
   128
 71
   176
 72
   175
 73
   182
  0
VERTEX
  5
74F
  8
0
 62
     9
 10
0.0
 20
0.0
 30
0.0
 70
   128
 71
   176
 72
   182
 73
   174
  0
VERTEX
  5
750
  8
0
 62
     9
 10
0.0
 20
0.0
 30
0.0
 70
   128
 71
   193
 72
   175
 73
   172
  0
VERTEX
  5
751
  8
0
 62
     9
 10
0.0
 20
0.0
 30
0.0
 70
   128
 71
   175
 72
   193
 73
   182
  0
VERTEX
  5
752
  8
0
 62
     9
 10
0.0
 20
0.0
 30
0.0
 70
   128
 71
   170
 72
   163
 73
   193
  0
VERTEX
  5
753
  8
0
 62
     9
 10
0.0
 20
0.0
 30
0.0
 70
   128
 71
   172
 72
   170
 73
   193
  0
VERTEX
  5
754
  8
0
 62
     9
 10
0.0
 20
0.0
 30
0.0
 70
   128
 71
    58
 72
    34
 73
    57
  0
VERTEX
  5
755
  8
0
 62
     9
 10
0.0
 20
0.0
 30
0.0
 70
   128
 71
   163
 72
   107
 73
   193
  0
VERTEX
  5
756
  8
0
 62
     9
 10
0.0
 20
0.0
 30
0.0
 70
   128
 71
    96
 72
   107
 73
    92
  0
VERTEX
  5
757
  8
0
 62
     9
 10
0.0
 20
0.0
 30
0.0
 70
   128
 71
    33
 72
    34
 73
    58
  0
VERTEX
  5
758
  8
0
 62
     9
 10
0.0
 20
0.0
 30
0.0
 70
   128
 71
    95
 72
    89
 73
   107
  0
VERTEX
  5
759
  8
0
 62
     9
 10
0.0
 20
0.0
 30
0.0
 70
   128
 71
    95
 72
   107
 73
    96
  0
VERTEX
  5
75A
  8
0
 62
     9
 10
0.0
 20
0.0
 30
0.0
 70
   128
 71
   100
 72
    89
 73
    87
  0
VERTEX
  5
75B
  8
0
 62
     9
 10
0.0
 20
0.0
 30
0.0
 70
   128
 71
    89
 72
   100
 73
   107
  0
VERTEX
  5
75C
  8
0
 62
     9
 10
0.0
 20
0.0
 30
0.0
 70
   128
 71
    87
 72
    90
 73
   100
  0
VERTEX
  5
75D
  8
0
 62
     9
 10
0.0
 20
0.0
 30
0.0
 70
   128
 71
    76
 72
   100
 73
    61
  0
VERTEX
  5
75E
  8
0
 62
     9
 10
0.0
 20
0.0
 30
0.0
 70
   128
 71
    62
 72
    76
 73
    61
  0
VERTEX
  5
75F
  8
0
 62
     9
 10
0.0
 20
0.0
 30
0.0
 70
   128
 71
    76
 72
    63
 73
    34
  0
VERTEX
  5
760
  8
0
 62
     9
 10
0.0
 20
0.0
 30
0.0
 70
   128
 71
    63
 72
    76
 73
    62
  0
VERTEX
  5
761
  8
0
 62
     9
 10
0.0
 20
0.0
 30
0.0
 70
   128
 71
    59
 72
    57
 73
    34
  0
VERTEX
  5
762
  8
0
 62
     9
 10
0.0
 20
0.0
 30
0.0
 70
   128
 71
    63
 72
    59
 73
    34
  0
VERTEX
  5
763
  8
0
 62
     9
 10
0.0
 20
0.0
 30
0.0
 70
   128
 71
    58
 72
   122
 73
    33
  0
VERTEX
  5
764
  8
0
 62
     9
 10
0.0
 20
0.0
 30
0.0
 70
   128
 71
   139
 72
    38
 73
   140
  0
VERTEX
  5
765
  8
0
 62
     9
 10
0.0
 20
0.0
 30
0.0
 70
   128
 71
    38
 72
   128
 73
   148
  0
VERTEX
  5
766
  8
0
 62
     9
 10
0.0
 20
0.0
 30
0.0
 70
   128
 71
   128
 72
    38
 73
   139
  0
VERTEX
  5
767
  8
0
 62
     9
 10
0.0
 20
0.0
 30
0.0
 70
   128
 71
   128
 72
   126
 73
   148
  0
VERTEX
  5
768
  8
0
 62
     9
 10
0.0
 20
0.0
 30
0.0
 70
   128
 71
   148
 72
   135
 73
   180
  0
VERTEX
  5
769
  8
0
 62
     9
 10
0.0
 20
0.0
 30
0.0
 70
   128
 71
   180
 72
   135
 73
   174
  0
VERTEX
  5
76A
  8
0
 62
     9
 10
0.0
 20
0.0
 30
0.0
 70
   128
 71
    29
 72
    24
 73
   157
  0
VERTEX
  5
76B
  8
0
 62
     9
 10
0.0
 20
0.0
 30
0.0
 70
   128
 71
    24
 72
   195
 73
   157
  0
VERTEX
  5
76C
  8
0
 62
     9
 10
0.0
 20
0.0
 30
0.0
 70
   128
 71
    24
 72
    25
 73
   195
  0
VERTEX
  5
76D
  8
0
 62
     9
 10
0.0
 20
0.0
 30
0.0
 70
   128
 71
   187
 72
   113
 73
   118
  0
VERTEX
  5
76E
  8
0
 62
     9
 10
0.0
 20
0.0
 30
0.0
 70
   128
 71
   118
 72
   197
 73
   187
  0
VERTEX
  5
76F
  8
0
 62
     9
 10
0.0
 20
0.0
 30
0.0
 70
   128
 71
    78
 72
    81
 73
   203
  0
VERTEX
  5
770
  8
0
 62
     9
 10
0.0
 20
0.0
 30
0.0
 70
   128
 71
    81
 72
   204
 73
   203
  0
VERTEX
  5
771
  8
0
 62
     9
 10
0.0
 20
0.0
 30
0.0
 70
   128
 71
    78
 72
   203
 73
   205
  0
VERTEX
  5
772
  8
0
 62
     9
 10
0.0
 20
0.0
 30
0.0
 70
   128
 71
   204
 72
    79
 73
   206
  0
VERTEX
  5
773
  8
0
 62
     9
 10
0.0
 20
0.0
 30
0.0
 70
   128
 71
    79
 72
   204
 73
    81
  0
VERTEX
  5
774
  8
0
 62
     9
 10
0.0
 20
0.0
 30
0.0
 70
   128
 71
    79
 72
    80
 73
   206
  0
VERTEX
  5
775
  8
0
 62
     9
 10
0.0
 20
0.0
 30
0.0
 70
   128
 71
   158
 72
   155
 73
   207
  0
VERTEX
  5
776
  8
0
 62
     9
 10
0.0
 20
0.0
 30
0.0
 70
   128
 71
   155
 72
   208
 73
   207
  0
VERTEX
  5
777
  8
0
 62
     9
 10
0.0
 20
0.0
 30
0.0
 70
   128
 71
   158
 72
   207
 73
   209
  0
VERTEX
  5
778
  8
0
 62
     9
 10
0.0
 20
0.0
 30
0.0
 70
   128
 71
   208
 72
   156
 73
   210
  0
VERTEX
  5
779
  8
0
 62
     9
 10
0.0
 20
0.0
 30
0.0
 70
   128
 71
   156
 72
   208
 73
   155
  0
VERTEX
  5
77A
  8
0
 62
     9
 10
0.0
 20
0.0
 30
0.0
 70
   128
 71
   156
 72
   157
 73
   210
  0
VERTEX
  5
77B
  8
0
 62
     9
 10
0.0
 20
0.0
 30
0.0
 70
   128
 71
   209
 72
   206
 73
    80
  0
VERTEX
  5
77C
  8
0
 62
     9
 10
0.0
 20
0.0
 30
0.0
 70
   128
 71
    80
 72
   158
 73
   209
  0
VERTEX
  5
77D
  8
0
 62
     9
 10
0.0
 20
0.0
 30
0.0
 70
   128
 71
   118
 72
   115
 73
   211
  0
VERTEX
  5
77E
  8
0
 62
     9
 10
0.0
 20
0.0
 30
0.0
 70
   128
 71
   115
 72
   212
 73
   211
  0
VERTEX
  5
77F
  8
0
 62
     9
 10
0.0
 20
0.0
 30
0.0
 70
   128
 71
   118
 72
   211
 73
   213
  0
VERTEX
  5
780
  8
0
 62
     9
 10
0.0
 20
0.0
 30
0.0
 70
   128
 71
   212
 72
   116
 73
   214
  0
VERTEX
  5
781
  8
0
 62
     9
 10
0.0
 20
0.0
 30
0.0
 70
   128
 71
   116
 72
   212
 73
   115
  0
VERTEX
  5
782
  8
0
 62
     9
 10
0.0
 20
0.0
 30
0.0
 70
   128
 71
   116
 72
   117
 73
   214
  0
VERTEX
  5
783
  8
0
 62
     9
 10
0.0
 20
0.0
 30
0.0
 70
   128
 71
   205
 72
   214
 73
   117
  0
VERTEX
  5
784
  8
0
 62
     9
 10
0.0
 20
0.0
 30
0.0
 70
   128
 71
   117
 72
    78
 73
   205
  0
VERTEX
  5
785
  8
0
 62
     9
 10
0.0
 20
0.0
 30
0.0
 70
   128
 71
   195
 72
   198
 73
   215
  0
VERTEX
  5
786
  8
0
 62
     9
 10
0.0
 20
0.0
 30
0.0
 70
   128
 71
   198
 72
   216
 73
   215
  0
VERTEX
  5
787
  8
0
 62
     9
 10
0.0
 20
0.0
 30
0.0
 70
   128
 71
   195
 72
   215
 73
   217
  0
VERTEX
  5
788
  8
0
 62
     9
 10
0.0
 20
0.0
 30
0.0
 70
   128
 71
   216
 72
   196
 73
   218
  0
VERTEX
  5
789
  8
0
 62
     9
 10
0.0
 20
0.0
 30
0.0
 70
   128
 71
   196
 72
   216
 73
   198
  0
VERTEX
  5
78A
  8
0
 62
     9
 10
0.0
 20
0.0
 30
0.0
 70
   128
 71
   196
 72
   197
 73
   218
  0
VERTEX
  5
78B
  8
0
 62
     9
 10
0.0
 20
0.0
 30
0.0
 70
   128
 71
   218
 72
   197
 73
   213
  0
VERTEX
  5
78C
  8
0
 62
     9
 10
0.0
 20
0.0
 30
0.0
 70
   128
 71
   197
 72
   118
 73
   213
  0
VERTEX
  5
78D
  8
0
 62
     9
 10
0.0
 20
0.0
 30
0.0
 70
   128
 71
   210
 72
   157
 73
   217
  0
VERTEX
  5
78E
  8
0
 62
     9
 10
0.0
 20
0.0
 30
0.0
 70
   128
 71
   157
 72
   195
 73
   217
  0
VERTEX
  5
78F
  8
0
 62
     9
 10
0.0
 20
0.0
 30
0.0
 70
   128
 71
   220
 72
   199
 73
   219
  0
VERTEX
  5
790
  8
0
 62
     9
 10
0.0
 20
0.0
 30
0.0
 70
   128
 71
   199
 72
   200
 73
   219
  0
VERTEX
  5
791
  8
0
 62
     9
 10
0.0
 20
0.0
 30
0.0
 70
   128
 71
   222
 72
   201
 73
   221
  0
VERTEX
  5
792
  8
0
 62
     9
 10
0.0
 20
0.0
 30
0.0
 70
   128
 71
   201
 72
   202
 73
   221
  0
VERTEX
  5
793
  8
0
 62
     9
 10
0.0
 20
0.0
 30
0.0
 70
   128
 71
   224
 72
   223
 73
   169
  0
VERTEX
  5
794
  8
0
 62
     9
 10
0.0
 20
0.0
 30
0.0
 70
   128
 71
    16
 72
   165
 73
    15
  0
VERTEX
  5
795
  8
0
 62
     9
 10
0.0
 20
0.0
 30
0.0
 70
   128
 71
   226
 72
   178
 73
   225
  0
VERTEX
  5
796
  8
0
 62
     9
 10
0.0
 20
0.0
 30
0.0
 70
   128
 71
   226
 72
   167
 73
   178
  0
VERTEX
  5
797
  8
0
 62
     9
 10
0.0
 20
0.0
 30
0.0
 70
   128
 71
   167
 72
   224
 73
   169
  0
VERTEX
  5
798
  8
0
 62
     9
 10
0.0
 20
0.0
 30
0.0
 70
   128
 71
   224
 72
   167
 73
   226
  0
VERTEX
  5
799
  8
0
 62
     9
 10
0.0
 20
0.0
 30
0.0
 70
   128
 71
   223
 72
    15
 73
   165
  0
VERTEX
  5
79A
  8
0
 62
     9
 10
0.0
 20
0.0
 30
0.0
 70
   128
 71
   223
 72
   165
 73
   169
  0
VERTEX
  5
79B
  8
0
 62
     9
 10
0.0
 20
0.0
 30
0.0
 70
   128
 71
    20
 72
   219
 73
   200
  0
VERTEX
  5
79C
  8
0
 62
     9
 10
0.0
 20
0.0
 30
0.0
 70
   128
 71
   200
 72
    18
 73
    20
  0
VERTEX
  5
79D
  8
0
 62
     9
 10
0.0
 20
0.0
 30
0.0
 70
   128
 71
   222
 72
   225
 73
   178
  0
VERTEX
  5
79E
  8
0
 62
     9
 10
0.0
 20
0.0
 30
0.0
 70
   128
 71
   178
 72
   201
 73
   222
  0
VERTEX
  5
79F
  8
0
 62
     9
 10
0.0
 20
0.0
 30
0.0
 70
   128
 71
   119
 72
   120
 73
   227
  0
VERTEX
  5
7A0
  8
0
 62
     9
 10
0.0
 20
0.0
 30
0.0
 70
   128
 71
   227
 72
   228
 73
   119
  0
VERTEX
  5
7A1
  8
0
 62
     9
 10
0.0
 20
0.0
 30
0.0
 70
   128
 71
   230
 72
   229
 73
    98
  0
VERTEX
  5
7A2
  8
0
 62
     9
 10
0.0
 20
0.0
 30
0.0
 70
   128
 71
     6
 72
    97
 73
     5
  0
VERTEX
  5
7A3
  8
0
 62
     9
 10
0.0
 20
0.0
 30
0.0
 70
   128
 71
   232
 72
   161
 73
   231
  0
VERTEX
  5
7A4
  8
0
 62
     9
 10
0.0
 20
0.0
 30
0.0
 70
   128
 71
   232
 72
    94
 73
   161
  0
VERTEX
  5
7A5
  8
0
 62
     9
 10
0.0
 20
0.0
 30
0.0
 70
   128
 71
    94
 72
   230
 73
    98
  0
VERTEX
  5
7A6
  8
0
 62
     9
 10
0.0
 20
0.0
 30
0.0
 70
   128
 71
   230
 72
    94
 73
   232
  0
VERTEX
  5
7A7
  8
0
 62
     9
 10
0.0
 20
0.0
 30
0.0
 70
   128
 71
   229
 72
     5
 73
    97
  0
VERTEX
  5
7A8
  8
0
 62
     9
 10
0.0
 20
0.0
 30
0.0
 70
   128
 71
   229
 72
    97
 73
    98
  0
VERTEX
  5
7A9
  8
0
 62
     9
 10
0.0
 20
0.0
 30
0.0
 70
   128
 71
   220
 72
   231
 73
   161
  0
VERTEX
  5
7AA
  8
0
 62
     9
 10
0.0
 20
0.0
 30
0.0
 70
   128
 71
   161
 72
   199
 73
   220
  0
VERTEX
  5
7AB
  8
0
 62
     9
 10
0.0
 20
0.0
 30
0.0
 70
   128
 71
    10
 72
   227
 73
   120
  0
VERTEX
  5
7AC
  8
0
 62
     9
 10
0.0
 20
0.0
 30
0.0
 70
   128
 71
   120
 72
     8
 73
    10
  0
VERTEX
  5
7AD
  8
0
 62
     9
 10
0.0
 20
0.0
 30
0.0
 70
   128
 71
   159
 72
   160
 73
   233
  0
VERTEX
  5
7AE
  8
0
 62
     9
 10
0.0
 20
0.0
 30
0.0
 70
   128
 71
   233
 72
   234
 73
   159
  0
VERTEX
  5
7AF
  8
0
 62
     9
 10
0.0
 20
0.0
 30
0.0
 70
   128
 71
   124
 72
   236
 73
   235
  0
VERTEX
  5
7B0
  8
0
 62
     9
 10
0.0
 20
0.0
 30
0.0
 70
   128
 71
   129
 72
   238
 73
   237
  0
VERTEX
  5
7B1
  8
0
 62
     9
 10
0.0
 20
0.0
 30
0.0
 70
   128
 71
   130
 72
   125
 73
   239
  0
VERTEX
  5
7B2
  8
0
 62
     9
 10
0.0
 20
0.0
 30
0.0
 70
   128
 71
   132
 72
   240
 73
   138
  0
VERTEX
  5
7B3
  8
0
 62
     9
 10
0.0
 20
0.0
 30
0.0
 70
   128
 71
   241
 72
   132
 73
   137
  0
VERTEX
  5
7B4
  8
0
 62
     9
 10
0.0
 20
0.0
 30
0.0
 70
   128
 71
   177
 72
   138
 73
   242
  0
VERTEX
  5
7B5
  8
0
 62
     9
 10
0.0
 20
0.0
 30
0.0
 70
   128
 71
   240
 72
   242
 73
   138
  0
VERTEX
  5
7B6
  8
0
 62
     9
 10
0.0
 20
0.0
 30
0.0
 70
   128
 71
   177
 72
   242
 73
   243
  0
VERTEX
  5
7B7
  8
0
 62
     9
 10
0.0
 20
0.0
 30
0.0
 70
   128
 71
   240
 72
   132
 73
   241
  0
VERTEX
  5
7B8
  8
0
 62
     9
 10
0.0
 20
0.0
 30
0.0
 70
   128
 71
   129
 72
   237
 73
   137
  0
VERTEX
  5
7B9
  8
0
 62
     9
 10
0.0
 20
0.0
 30
0.0
 70
   128
 71
   237
 72
   241
 73
   137
  0
VERTEX
  5
7BA
  8
0
 62
     9
 10
0.0
 20
0.0
 30
0.0
 70
   128
 71
   130
 72
   239
 73
   238
  0
VERTEX
  5
7BB
  8
0
 62
     9
 10
0.0
 20
0.0
 30
0.0
 70
   128
 71
   130
 72
   238
 73
   129
  0
VERTEX
  5
7BC
  8
0
 62
     9
 10
0.0
 20
0.0
 30
0.0
 70
   128
 71
   125
 72
   235
 73
   239
  0
VERTEX
  5
7BD
  8
0
 62
     9
 10
0.0
 20
0.0
 30
0.0
 70
   128
 71
   235
 72
   125
 73
   124
  0
VERTEX
  5
7BE
  8
0
 62
     9
 10
0.0
 20
0.0
 30
0.0
 70
   128
 71
   234
 72
   236
 73
   124
  0
VERTEX
  5
7BF
  8
0
 62
     9
 10
0.0
 20
0.0
 30
0.0
 70
   128
 71
   124
 72
   159
 73
   234
  0
VERTEX
  5
7C0
  8
0
 62
     9
 10
0.0
 20
0.0
 30
0.0
 70
   128
 71
   243
 72
   221
 73
   202
  0
VERTEX
  5
7C1
  8
0
 62
     9
 10
0.0
 20
0.0
 30
0.0
 70
   128
 71
   202
 72
   177
 73
   243
  0
VERTEX
  5
7C2
  8
0
 62
     9
 10
0.0
 20
0.0
 30
0.0
 70
   128
 71
    45
 72
   245
 73
   244
  0
VERTEX
  5
7C3
  8
0
 62
     9
 10
0.0
 20
0.0
 30
0.0
 70
   128
 71
    48
 72
   247
 73
   246
  0
VERTEX
  5
7C4
  8
0
 62
     9
 10
0.0
 20
0.0
 30
0.0
 70
   128
 71
    49
 72
    46
 73
   248
  0
VERTEX
  5
7C5
  8
0
 62
     9
 10
0.0
 20
0.0
 30
0.0
 70
   128
 71
    52
 72
   249
 73
    55
  0
VERTEX
  5
7C6
  8
0
 62
     9
 10
0.0
 20
0.0
 30
0.0
 70
   128
 71
   250
 72
    52
 73
    53
  0
VERTEX
  5
7C7
  8
0
 62
     9
 10
0.0
 20
0.0
 30
0.0
 70
   128
 71
   123
 72
    55
 73
   251
  0
VERTEX
  5
7C8
  8
0
 62
     9
 10
0.0
 20
0.0
 30
0.0
 70
   128
 71
   249
 72
   251
 73
    55
  0
VERTEX
  5
7C9
  8
0
 62
     9
 10
0.0
 20
0.0
 30
0.0
 70
   128
 71
   123
 72
   251
 73
   252
  0
VERTEX
  5
7CA
  8
0
 62
     9
 10
0.0
 20
0.0
 30
0.0
 70
   128
 71
   249
 72
    52
 73
   250
  0
VERTEX
  5
7CB
  8
0
 62
     9
 10
0.0
 20
0.0
 30
0.0
 70
   128
 71
    48
 72
   246
 73
    53
  0
VERTEX
  5
7CC
  8
0
 62
     9
 10
0.0
 20
0.0
 30
0.0
 70
   128
 71
   246
 72
   250
 73
    53
  0
VERTEX
  5
7CD
  8
0
 62
     9
 10
0.0
 20
0.0
 30
0.0
 70
   128
 71
    49
 72
   248
 73
   247
  0
VERTEX
  5
7CE
  8
0
 62
     9
 10
0.0
 20
0.0
 30
0.0
 70
   128
 71
    49
 72
   247
 73
    48
  0
VERTEX
  5
7CF
  8
0
 62
     9
 10
0.0
 20
0.0
 30
0.0
 70
   128
 71
    46
 72
   244
 73
   248
  0
VERTEX
  5
7D0
  8
0
 62
     9
 10
0.0
 20
0.0
 30
0.0
 70
   128
 71
   244
 72
    46
 73
    45
  0
VERTEX
  5
7D1
  8
0
 62
     9
 10
0.0
 20
0.0
 30
0.0
 70
   128
 71
   252
 72
   233
 73
   160
  0
VERTEX
  5
7D2
  8
0
 62
     9
 10
0.0
 20
0.0
 30
0.0
 70
   128
 71
   160
 72
   123
 73
   252
  0
VERTEX
  5
7D3
  8
0
 62
     9
 10
0.0
 20
0.0
 30
0.0
 70
   128
 71
   228
 72
   245
 73
    45
  0
VERTEX
  5
7D4
  8
0
 62
     9
 10
0.0
 20
0.0
 30
0.0
 70
   128
 71
    45
 72
   119
 73
   228
  0
SEQEND
  5
7D5
  8
0
 62
     9
  0
ENDBLK
  5
7D8
  8
0
  0
ENDSEC
  0
SECTION
  2
ENTITIES
  0
INSERT
  5
5F
  8
LAYER_1
  2
TASTEN_BREP_
 10
0.0
 20
0.0
 30
0.0
  0
INSERT
  5
78
  8
LAYER_1
  2
TASTEN_BREP_0
 10
0.0
 20
0.0
 30
0.0
  0
INSERT
  5
1DC
  8
LAYER_1
  2
40
 10
0.0
 20
0.0
 30
0.0
  0
INSERT
  5
518
  8
LAYER_1
  2
41
 10
0.0
 20
0.0
 30
0.0
  0
INSERT
  5
7D6
  8
LAYER_1
  2
42
 10
0.0
 20
0.0
 30
0.0
  0
ENDSEC
  0
EOF
