  0
SECTION
  2
HEADER
  9
$ACADVER
  1
AC1015
  9
$ACADMAINTVER
 70
     6
  9
$DWGCODEPAGE
  3
ANSI_1252
  9
$INSBASE
 10
0.0
 20
0.0
 30
0.0
  9
$EXTMIN
 10
0.0
 20
0.0
 30
0.0
  9
$EXTMAX
 10
1682.0
 20
2378.0
 30
0.0
  9
$LIMMIN
 10
0.0
 20
0.0
  9
$LIMMAX
 10
1682.0
 20
2378.0
  9
$ORTHOMODE
 70
     0
  9
$REGENMODE
 70
     1
  9
$FILLMODE
 70
     1
  9
$QTEXTMODE
 70
     0
  9
$MIRRTEXT
 70
     1
  9
$LTSCALE
 40
1.0
  9
$ATTMODE
 70
     1
  9
$TEXTSIZE
 40
2.5
  9
$TRACEWID
 40
1.0
  9
$TEXTSTYLE
  7
Standard
  9
$CLAYER
  8
0
  9
$CELTYPE
  6
ByLayer
  9
$CECOLOR
 62
   256
  9
$CELTSCALE
 40
1.0
  9
$DISPSILH
 70
     0
  9
$DIMSCALE
 40
1.0
  9
$DIMASZ
 40
2.5
  9
$DIMEXO
 40
0.625
  9
$DIMDLI
 40
3.75
  9
$DIMRND
 40
0.0
  9
$DIMDLE
 40
0.0
  9
$DIMEXE
 40
1.25
  9
$DIMTP
 40
0.0
  9
$DIMTM
 40
0.0
  9
$DIMTXT
 40
2.5
  9
$DIMCEN
 40
2.5
  9
$DIMTSZ
 40
0.0
  9
$DIMTOL
 70
     0
  9
$DIMLIM
 70
     0
  9
$DIMTIH
 70
     0
  9
$DIMTOH
 70
     0
  9
$DIMSE1
 70
     0
  9
$DIMSE2
 70
     0
  9
$DIMTAD
 70
     1
  9
$DIMZIN
 70
     8
  9
$DIMBLK
  1

  9
$DIMASO
 70
     1
  9
$DIMSHO
 70
     1
  9
$DIMPOST
  1

  9
$DIMAPOST
  1

  9
$DIMALT
 70
     0
  9
$DIMALTD
 70
     3
  9
$DIMALTF
 40
0.0393700787
  9
$DIMLFAC
 40
1.0
  9
$DIMTOFL
 70
     1
  9
$DIMTVP
 40
0.0
  9
$DIMTIX
 70
     0
  9
$DIMSOXD
 70
     0
  9
$DIMSAH
 70
     0
  9
$DIMBLK1
  1

  9
$DIMBLK2
  1

  9
$DIMSTYLE
  2
ISO-25
  9
$DIMCLRD
 70
     0
  9
$DIMCLRE
 70
     0
  9
$DIMCLRT
 70
     0
  9
$DIMTFAC
 40
1.0
  9
$DIMGAP
 40
0.625
  9
$DIMJUST
 70
     0
  9
$DIMSD1
 70
     0
  9
$DIMSD2
 70
     0
  9
$DIMTOLJ
 70
     0
  9
$DIMTZIN
 70
     8
  9
$DIMALTZ
 70
     0
  9
$DIMALTTZ
 70
     0
  9
$DIMUPT
 70
     0
  9
$DIMDEC
 70
     2
  9
$DIMTDEC
 70
     2
  9
$DIMALTU
 70
     2
  9
$DIMALTTD
 70
     3
  9
$DIMTXSTY
  7
Standard
  9
$DIMAUNIT
 70
     0
  9
$DIMADEC
 70
     0
  9
$DIMALTRND
 40
0.0
  9
$DIMAZIN
 70
     0
  9
$DIMDSEP
 70
    44
  9
$DIMATFIT
 70
     3
  9
$DIMFRAC
 70
     0
  9
$DIMLDRBLK
  1

  9
$DIMLUNIT
 70
     2
  9
$DIMLWD
 70
    -2
  9
$DIMLWE
 70
    -2
  9
$DIMTMOVE
 70
     0
  9
$LUNITS
 70
     2
  9
$LUPREC
 70
     4
  9
$SKETCHINC
 40
1.0
  9
$FILLETRAD
 40
10.0
  9
$AUNITS
 70
     0
  9
$AUPREC
 70
     0
  9
$MENU
  1
.
  9
$ELEVATION
 40
0.0
  9
$PELEVATION
 40
0.0
  9
$THICKNESS
 40
0.0
  9
$LIMCHECK
 70
     0
  9
$CHAMFERA
 40
10.0
  9
$CHAMFERB
 40
10.0
  9
$CHAMFERC
 40
20.0
  9
$CHAMFERD
 40
0.0
  9
$SKPOLY
 70
     0
  9
$TDCREATE
 40
2455614.57334272
  9
$TDUCREATE
 40
2455614.531676053
  9
$TDUPDATE
 40
2455614.573342732
  9
$TDUUPDATE
 40
2455614.531676065
  9
$TDINDWG
 40
0.0000000116
  9
$TDUSRTIMER
 40
0.0000000116
  9
$USRTIMER
 70
     1
  9
$ANGBASE
 50
0.0
  9
$ANGDIR
 70
     0
  9
$PDMODE
 70
     0
  9
$PDSIZE
 40
0.0
  9
$PLINEWID
 40
0.0
  9
$SPLFRAME
 70
     0
  9
$SPLINETYPE
 70
     6
  9
$SPLINESEGS
 70
     8
  9
$HANDSEED
  5
570
  9
$SURFTAB1
 70
     6
  9
$SURFTAB2
 70
     6
  9
$SURFTYPE
 70
     6
  9
$SURFU
 70
     6
  9
$SURFV
 70
     6
  9
$UCSBASE
  2

  9
$UCSNAME
  2

  9
$UCSORG
 10
0.0
 20
0.0
 30
0.0
  9
$UCSXDIR
 10
1.0
 20
0.0
 30
0.0
  9
$UCSYDIR
 10
0.0
 20
1.0
 30
0.0
  9
$UCSORTHOREF
  2

  9
$UCSORTHOVIEW
 70
     0
  9
$UCSORGTOP
 10
0.0
 20
0.0
 30
0.0
  9
$UCSORGBOTTOM
 10
0.0
 20
0.0
 30
0.0
  9
$UCSORGLEFT
 10
0.0
 20
0.0
 30
0.0
  9
$UCSORGRIGHT
 10
0.0
 20
0.0
 30
0.0
  9
$UCSORGFRONT
 10
0.0
 20
0.0
 30
0.0
  9
$UCSORGBACK
 10
0.0
 20
0.0
 30
0.0
  9
$PUCSBASE
  2

  9
$PUCSNAME
  2

  9
$PUCSORG
 10
0.0
 20
0.0
 30
0.0
  9
$PUCSXDIR
 10
1.0
 20
0.0
 30
0.0
  9
$PUCSYDIR
 10
0.0
 20
1.0
 30
0.0
  9
$PUCSORTHOREF
  2

  9
$PUCSORTHOVIEW
 70
     0
  9
$PUCSORGTOP
 10
0.0
 20
0.0
 30
0.0
  9
$PUCSORGBOTTOM
 10
0.0
 20
0.0
 30
0.0
  9
$PUCSORGLEFT
 10
0.0
 20
0.0
 30
0.0
  9
$PUCSORGRIGHT
 10
0.0
 20
0.0
 30
0.0
  9
$PUCSORGFRONT
 10
0.0
 20
0.0
 30
0.0
  9
$PUCSORGBACK
 10
0.0
 20
0.0
 30
0.0
  9
$USERI1
 70
     0
  9
$USERI2
 70
     0
  9
$USERI3
 70
     0
  9
$USERI4
 70
     0
  9
$USERI5
 70
     0
  9
$USERR1
 40
0.0
  9
$USERR2
 40
0.0
  9
$USERR3
 40
0.0
  9
$USERR4
 40
0.0
  9
$USERR5
 40
0.0
  9
$WORLDVIEW
 70
     1
  9
$SHADEDGE
 70
     3
  9
$SHADEDIF
 70
    70
  9
$TILEMODE
 70
     1
  9
$MAXACTVP
 70
    64
  9
$PINSBASE
 10
0.0
 20
0.0
 30
0.0
  9
$PLIMCHECK
 70
     0
  9
$PEXTMIN
 10
0.0
 20
0.0
 30
0.0
  9
$PEXTMAX
 10
1682.0
 20
2378.0
 30
0.0
  9
$PLIMMIN
 10
0.0
 20
0.0
  9
$PLIMMAX
 10
1682.0
 20
2378.0
  9
$UNITMODE
 70
     0
  9
$VISRETAIN
 70
     1
  9
$PLINEGEN
 70
     0
  9
$PSLTSCALE
 70
     1
  9
$TREEDEPTH
 70
  3020
  9
$CMLSTYLE
  2
Standard
  9
$CMLJUST
 70
     0
  9
$CMLSCALE
 40
20.0
  9
$PROXYGRAPHICS
 70
     1
  9
$MEASUREMENT
 70
     1
  9
$CELWEIGHT
370
    -1
  9
$ENDCAPS
280
     0
  9
$JOINSTYLE
280
     0
  9
$LWDISPLAY
290
     0
  9
$INSUNITS
 70
     4
  9
$HYPERLINKBASE
  1

  9
$STYLESHEET
  1

  9
$XEDIT
290
     1
  9
$CEPSNTYPE
380
     0
  9
$PSTYLEMODE
290
     1
  9
$FINGERPRINTGUID
  2
{FA8E79AE-9B55-4C4B-8F6D-FDDD15ED6980}
  9
$VERSIONGUID
  2
{FAEB1C32-E019-11D5-929B-00C0DF256EC4}
  9
$EXTNAMES
290
     1
  9
$PSVPSCALE
 40
0.0
  9
$OLESTARTUP
290
     0
  0
ENDSEC
  0
SECTION
  2
CLASSES
  0
CLASS
  1
ACDBDICTIONARYWDFLT
  2
AcDbDictionaryWithDefault
  3
ObjectDBX Classes
 90
        0
280
     0
281
     0
  0
CLASS
  1
VISUALSTYLE
  2
AcDbVisualStyle
  3
ObjectDBX Classes
 90
     4095
280
     0
281
     0
  0
CLASS
  1
SCALE
  2
AcDbScale
  3
ObjectDBX Classes
 90
     1153
280
     0
281
     0
  0
CLASS
  1
DICTIONARYVAR
  2
AcDbDictionaryVar
  3
ObjectDBX Classes
 90
        0
280
     0
281
     0
  0
CLASS
  1
ACDBPLACEHOLDER
  2
AcDbPlaceHolder
  3
ObjectDBX Classes
 90
        0
280
     0
281
     0
  0
CLASS
  1
LAYOUT
  2
AcDbLayout
  3
ObjectDBX Classes
 90
        0
280
     0
281
     0
  0
ENDSEC
  0
SECTION
  2
TABLES
  0
TABLE
  2
VPORT
  5
8
330
0
100
AcDbSymbolTable
 70
     1
  0
VPORT
  5
29
330
8
100
AcDbSymbolTableRecord
100
AcDbViewportTableRecord
  2
*Active
 70
     0
 10
0.0
 20
0.0
 11
1.0
 21
1.0
 12
344.1869158879
 22
148.5
 13
0.0
 23
0.0
 14
10.0
 24
10.0
 15
10.0
 25
10.0
 16
0.0
 26
0.0
 36
1.0
 17
0.0
 27
0.0
 37
0.0
 40
297.0
 41
1.9729729729
 42
50.0
 43
0.0
 44
0.0
 50
0.0
 51
0.0
 71
     0
 72
   100
 73
     1
 74
     3
 75
     0
 76
     0
 77
     0
 78
     0
281
     0
 65
     1
110
0.0
120
0.0
130
0.0
111
1.0
121
0.0
131
0.0
112
0.0
122
1.0
132
0.0
 79
     0
146
0.0
  0
ENDTAB
  0
TABLE
  2
LTYPE
  5
5
330
0
100
AcDbSymbolTable
 70
     2
  0
LTYPE
  5
14
330
5
100
AcDbSymbolTableRecord
100
AcDbLinetypeTableRecord
  2
ByBlock
 70
     0
  3

 72
    65
 73
     0
 40
0.0
  0
LTYPE
  5
15
330
5
100
AcDbSymbolTableRecord
100
AcDbLinetypeTableRecord
  2
ByLayer
 70
     0
  3

 72
    65
 73
     0
 40
0.0
  0
LTYPE
  5
16
330
5
100
AcDbSymbolTableRecord
100
AcDbLinetypeTableRecord
  2
Continuous
 70
     0
  3
Solid line
 72
    65
 73
     0
 40
0.0
  0
LTYPE
  5
60
330
5
100
AcDbSymbolTableRecord
100
AcDbLinetypeTableRecord
  2
CENTER2
 70
     0
  3
Center (.5x) ___ _ ___ _ ___ _ ___ _ ___ _ ___
 72
    65
 73
     4
 40
28.575
 49
19.05
 74
     4
 75
     0
340
0
 46
0.0
 50
0.0
 44
0.0
 45
0.0
 49
-3.175
 74
     4
 75
     0
340
0
 46
0.0
 50
0.0
 44
0.0
 45
0.0
 49
3.175
 74
     4
 75
     0
340
0
 46
0.0
 50
0.0
 44
0.0
 45
0.0
 49
-3.175
 74
     4
 75
     0
340
0
 46
0.0
 50
0.0
 44
0.0
 45
0.0
  0
ENDTAB
  0
TABLE
  2
LAYER
  5
2
330
0
100
AcDbSymbolTable
 70
    10
  0
LAYER
  5
10
330
2
100
AcDbSymbolTableRecord
100
AcDbLayerTableRecord
  2
0
 70
     0
 62
     7
  6
Continuous
370
    -3
390
F
  0
LAYER
  5
5D
330
2
100
AcDbSymbolTableRecord
100
AcDbLayerTableRecord
  2
Default
 70
     0
 62
     7
  6
Continuous
370
    -3
390
F
  0
LAYER
  5
BB
330
2
100
AcDbSymbolTableRecord
100
AcDbLayerTableRecord
  2
$DDT_AUDIT_GENERATED_(BB)
 70
     0
 62
     7
  6
Continuous
370
    -3
390
F
  0
LAYER
  5
CC
330
2
100
AcDbSymbolTableRecord
100
AcDbLayerTableRecord
  2
$DDT_AUDIT_GENERATED_(CC)
 70
     0
 62
     7
  6
Continuous
370
    -3
390
F
  0
LAYER
  5
DD
330
2
100
AcDbSymbolTableRecord
100
AcDbLayerTableRecord
  2
$DDT_AUDIT_GENERATED_(DD)
 70
     0
 62
     7
  6
Continuous
370
    -3
390
F
  0
LAYER
  5
FC
330
2
100
AcDbSymbolTableRecord
100
AcDbLayerTableRecord
  2
$DDT_AUDIT_GENERATED_(FC)
 70
     0
 62
     7
  6
Continuous
370
    -3
390
F
  0
LAYER
  5
17B
330
2
100
AcDbSymbolTableRecord
100
AcDbLayerTableRecord
  2
$DDT_AUDIT_GENERATED_(17B)
 70
     0
 62
     7
  6
Continuous
370
    -3
390
F
  0
LAYER
  5
1BC
330
2
100
AcDbSymbolTableRecord
100
AcDbLayerTableRecord
  2
$DDT_AUDIT_GENERATED_(1BC)
 70
     0
 62
     7
  6
Continuous
370
    -3
390
F
  0
LAYER
  5
1C5
330
2
100
AcDbSymbolTableRecord
100
AcDbLayerTableRecord
  2
490147031_RAHMEN
 70
     0
 62
     7
  6
Continuous
370
    -3
390
F
  0
LAYER
  5
212
330
2
100
AcDbSymbolTableRecord
100
AcDbLayerTableRecord
  2
490656XXX_VM_ABD
 70
     0
 62
     7
  6
Continuous
370
    -3
390
F
  0
ENDTAB
  0
TABLE
  2
STYLE
  5
3
330
0
100
AcDbSymbolTable
 70
     2
  0
STYLE
  5
11
330
3
100
AcDbSymbolTableRecord
100
AcDbTextStyleTableRecord
  2
Standard
 70
     0
 40
0.0
 41
1.0
 50
0.0
 71
     0
 42
2.5
  3
txt
  4

  0
STYLE
  5
55F
330
3
100
AcDbSymbolTableRecord
100
AcDbTextStyleTableRecord
  2
SEACAD_seiso_ttf
 70
     0
 40
0.0
 41
1.0
 50
0.0
 71
     0
 42
0.2
  3
seiso.ttf
  4

  0
ENDTAB
  0
TABLE
  2
VIEW
  5
6
330
0
100
AcDbSymbolTable
 70
     0
  0
ENDTAB
  0
TABLE
  2
UCS
  5
7
330
0
100
AcDbSymbolTable
 70
     0
  0
ENDTAB
  0
TABLE
  2
APPID
  5
9
330
0
100
AcDbSymbolTable
 70
     1
  0
APPID
  5
12
330
9
100
AcDbSymbolTableRecord
100
AcDbRegAppTableRecord
  2
ACAD
 70
     0
  0
ENDTAB
  0
TABLE
  2
DIMSTYLE
  5
A
330
0
100
AcDbSymbolTable
 70
     1
100
AcDbDimStyleTable
  0
DIMSTYLE
105
27
330
A
100
AcDbSymbolTableRecord
100
AcDbDimStyleTableRecord
  2
ISO-25
 70
     0
 41
2.5
 42
0.625
 43
3.75
 44
1.25
 73
     0
 74
     0
 77
     1
 78
     8
140
2.5
141
2.5
143
0.0393700787
147
0.625
171
     3
172
     1
271
     2
272
     2
274
     3
278
    44
283
     0
284
     8
340
11
  0
ENDTAB
  0
TABLE
  2
BLOCK_RECORD
  5
1
330
0
100
AcDbSymbolTable
 70
    28
  0
BLOCK_RECORD
  5
1F
330
1
100
AcDbSymbolTableRecord
100
AcDbBlockTableRecord
  2
*Model_Space
340
22
  0
BLOCK_RECORD
  5
1B
330
1
100
AcDbSymbolTableRecord
100
AcDbBlockTableRecord
  2
*Paper_Space
340
1E
  0
BLOCK_RECORD
  5
5E
330
1
100
AcDbSymbolTableRecord
100
AcDbBlockTableRecord
  2
SEANNOT_GROUP
340
0
102
{BLKREFS
331
5F
102
}
  0
BLOCK_RECORD
  5
64
330
1
100
AcDbSymbolTableRecord
100
AcDbBlockTableRecord
  2
SEANNOT_GROUP1
340
0
102
{BLKREFS
331
65
102
}
  0
BLOCK_RECORD
  5
69
330
1
100
AcDbSymbolTableRecord
100
AcDbBlockTableRecord
  2
SEANNOT_GROUP2
340
0
102
{BLKREFS
331
6A
102
}
  0
BLOCK_RECORD
  5
6E
330
1
100
AcDbSymbolTableRecord
100
AcDbBlockTableRecord
  2
SEANNOT_GROUP3
340
0
102
{BLKREFS
331
6F
102
}
  0
BLOCK_RECORD
  5
73
330
1
100
AcDbSymbolTableRecord
100
AcDbBlockTableRecord
  2
SEANNOT_GROUP4
340
0
102
{BLKREFS
331
74
102
}
  0
BLOCK_RECORD
  5
78
330
1
100
AcDbSymbolTableRecord
100
AcDbBlockTableRecord
  2
SEANNOT_GROUP5
340
0
102
{BLKREFS
331
79
102
}
  0
BLOCK_RECORD
  5
7D
330
1
100
AcDbSymbolTableRecord
100
AcDbBlockTableRecord
  2
SEANNOT_GROUP6
340
0
102
{BLKREFS
331
7E
102
}
  0
BLOCK_RECORD
  5
82
330
1
100
AcDbSymbolTableRecord
100
AcDbBlockTableRecord
  2
SEANNOT_GROUP7
340
0
102
{BLKREFS
331
83
102
}
  0
BLOCK_RECORD
  5
87
330
1
100
AcDbSymbolTableRecord
100
AcDbBlockTableRecord
  2
SEANNOT_GROUP8
340
0
102
{BLKREFS
331
88
102
}
  0
BLOCK_RECORD
  5
8C
330
1
100
AcDbSymbolTableRecord
100
AcDbBlockTableRecord
  2
SEANNOT_GROUP9
340
0
102
{BLKREFS
331
8D
102
}
  0
BLOCK_RECORD
  5
91
330
1
100
AcDbSymbolTableRecord
100
AcDbBlockTableRecord
  2
SEANNOT_GROUP10
340
0
102
{BLKREFS
331
92
102
}
  0
BLOCK_RECORD
  5
96
330
1
100
AcDbSymbolTableRecord
100
AcDbBlockTableRecord
  2
SEANNOT_GROUP11
340
0
102
{BLKREFS
331
97
102
}
  0
BLOCK_RECORD
  5
9B
330
1
100
AcDbSymbolTableRecord
100
AcDbBlockTableRecord
  2
SEANNOT_GROUP12
340
0
102
{BLKREFS
331
9C
102
}
  0
BLOCK_RECORD
  5
A0
330
1
100
AcDbSymbolTableRecord
100
AcDbBlockTableRecord
  2
SEANNOT_GROUP13
340
0
102
{BLKREFS
331
A1
102
}
  0
BLOCK_RECORD
  5
A5
330
1
100
AcDbSymbolTableRecord
100
AcDbBlockTableRecord
  2
SEANNOT_GROUP14
340
0
102
{BLKREFS
331
A6
102
}
  0
BLOCK_RECORD
  5
AA
330
1
100
AcDbSymbolTableRecord
100
AcDbBlockTableRecord
  2
SEANNOT_GROUP15
340
0
102
{BLKREFS
331
AB
102
}
  0
BLOCK_RECORD
  5
AF
330
1
100
AcDbSymbolTableRecord
100
AcDbBlockTableRecord
  2
SEANNOT_GROUP16
340
0
102
{BLKREFS
331
B0
102
}
  0
BLOCK_RECORD
  5
B4
330
1
100
AcDbSymbolTableRecord
100
AcDbBlockTableRecord
  2
SEANNOT_GROUP17
340
0
102
{BLKREFS
331
B5
102
}
  0
BLOCK_RECORD
  5
B9
330
1
100
AcDbSymbolTableRecord
100
AcDbBlockTableRecord
  2
SE
340
0
102
{BLKREFS
331
BA
102
}
  0
BLOCK_RECORD
  5
225
330
1
100
AcDbSymbolTableRecord
100
AcDbBlockTableRecord
  2
SE1
340
0
102
{BLKREFS
331
226
102
}
  0
BLOCK_RECORD
  5
238
330
1
100
AcDbSymbolTableRecord
100
AcDbBlockTableRecord
  2
SE2
340
0
102
{BLKREFS
331
239
102
}
  0
BLOCK_RECORD
  5
24B
330
1
100
AcDbSymbolTableRecord
100
AcDbBlockTableRecord
  2
SE3
340
0
102
{BLKREFS
331
24C
102
}
  0
BLOCK_RECORD
  5
3AF
330
1
100
AcDbSymbolTableRecord
100
AcDbBlockTableRecord
  2
SE4
340
0
102
{BLKREFS
331
3B0
102
}
  0
BLOCK_RECORD
  5
3C2
330
1
100
AcDbSymbolTableRecord
100
AcDbBlockTableRecord
  2
SE5
340
0
102
{BLKREFS
331
3C3
102
}
  0
BLOCK_RECORD
  5
3D5
330
1
100
AcDbSymbolTableRecord
100
AcDbBlockTableRecord
  2
SE6
340
0
102
{BLKREFS
331
3D6
102
}
  0
BLOCK_RECORD
  5
3E8
330
1
100
AcDbSymbolTableRecord
100
AcDbBlockTableRecord
  2
SE7
340
0
102
{BLKREFS
331
3E9
102
}
  0
BLOCK_RECORD
  5
54C
330
1
100
AcDbSymbolTableRecord
100
AcDbBlockTableRecord
  2
SE8
340
0
102
{BLKREFS
331
54D
102
}
  0
ENDTAB
  0
ENDSEC
  0
SECTION
  2
BLOCKS
  0
BLOCK
  5
20
330
1F
100
AcDbEntity
  8
0
100
AcDbBlockBegin
  2
*Model_Space
 70
     0
 10
0.0
 20
0.0
 30
0.0
  3
*Model_Space
  1

  0
ENDBLK
  5
21
330
1F
100
AcDbEntity
  8
0
100
AcDbBlockEnd
  0
BLOCK
  5
1C
330
1B
100
AcDbEntity
 67
     1
  8
0
100
AcDbBlockBegin
  2
*Paper_Space
 70
     0
 10
0.0
 20
0.0
 30
0.0
  3
*Paper_Space
  1

  0
ENDBLK
  5
1D
330
1B
100
AcDbEntity
 67
     1
  8
0
100
AcDbBlockEnd
  0
BLOCK
  5
62
330
5E
100
AcDbEntity
  8
0
100
AcDbBlockBegin
  2
SEANNOT_GROUP
 70
     0
 10
0.0
 20
0.0
 30
0.0
  3
SEANNOT_GROUP
  1

  0
LINE
  5
61
330
5E
100
AcDbEntity
  8
Default
  6
CENTER2
 62
     7
100
AcDbLine
 10
138.5876083057
 20
2122.5668664592
 30
0.0
 11
138.5876083057
 21
2088.9134796393
 31
0.0
  0
ENDBLK
  5
63
330
5E
100
AcDbEntity
  8
0
100
AcDbBlockEnd
  0
BLOCK
  5
67
330
64
100
AcDbEntity
  8
0
100
AcDbBlockBegin
  2
SEANNOT_GROUP1
 70
     0
 10
0.0
 20
0.0
 30
0.0
  3
SEANNOT_GROUP1
  1

  0
LINE
  5
66
330
64
100
AcDbEntity
  8
Default
  6
CENTER2
 62
     7
100
AcDbLine
 10
416.1732913334
 20
2122.5668664592
 30
0.0
 11
416.1732913334
 21
2083.5016788349
 31
0.0
  0
ENDBLK
  5
68
330
64
100
AcDbEntity
  8
0
100
AcDbBlockEnd
  0
BLOCK
  5
6C
330
69
100
AcDbEntity
  8
0
100
AcDbBlockBegin
  2
SEANNOT_GROUP2
 70
     0
 10
0.0
 20
0.0
 30
0.0
  3
SEANNOT_GROUP2
  1

  0
LINE
  5
6B
330
69
100
AcDbEntity
  8
Default
  6
CENTER2
 62
     7
100
AcDbLine
 10
138.5876083057
 20
1938.3669378413
 30
0.0
 11
138.5876083057
 21
1972.043372339
 31
0.0
  0
ENDBLK
  5
6D
330
69
100
AcDbEntity
  8
0
100
AcDbBlockEnd
  0
BLOCK
  5
71
330
6E
100
AcDbEntity
  8
0
100
AcDbBlockBegin
  2
SEANNOT_GROUP3
 70
     0
 10
0.0
 20
0.0
 30
0.0
  3
SEANNOT_GROUP3
  1

  0
LINE
  5
70
330
6E
100
AcDbEntity
  8
Default
  6
CENTER2
 62
     7
100
AcDbLine
 10
233.5876083057
 20
1863.8669378413
 30
0.0
 11
269.2036315894
 21
1863.8669378413
 31
0.0
  0
ENDBLK
  5
72
330
6E
100
AcDbEntity
  8
0
100
AcDbBlockEnd
  0
BLOCK
  5
76
330
73
100
AcDbEntity
  8
0
100
AcDbBlockBegin
  2
SEANNOT_GROUP4
 70
     0
 10
0.0
 20
0.0
 30
0.0
  3
SEANNOT_GROUP4
  1

  0
LINE
  5
75
330
73
100
AcDbEntity
  8
Default
  6
CENTER2
 62
     7
100
AcDbLine
 10
138.5876083057
 20
1789.3669378413
 30
0.0
 11
138.5876083057
 21
1750.9765849656
 31
0.0
  0
ENDBLK
  5
77
330
73
100
AcDbEntity
  8
0
100
AcDbBlockEnd
  0
BLOCK
  5
7B
330
78
100
AcDbEntity
  8
0
100
AcDbBlockBegin
  2
SEANNOT_GROUP5
 70
     0
 10
0.0
 20
0.0
 30
0.0
  3
SEANNOT_GROUP5
  1

  0
LINE
  5
7A
330
78
100
AcDbEntity
  8
Default
  6
CENTER2
 62
     7
100
AcDbLine
 10
43.5876083057
 20
1863.8669378413
 30
0.0
 11
13.2607945878
 21
1863.8669378413
 31
0.0
  0
ENDBLK
  5
7C
330
78
100
AcDbEntity
  8
0
100
AcDbBlockEnd
  0
BLOCK
  5
80
330
7D
100
AcDbEntity
  8
0
100
AcDbBlockBegin
  2
SEANNOT_GROUP6
 70
     0
 10
0.0
 20
0.0
 30
0.0
  3
SEANNOT_GROUP6
  1

  0
LINE
  5
7F
330
7D
100
AcDbEntity
  8
Default
  6
CENTER2
 62
     7
100
AcDbLine
 10
148.0805475997
 20
1092.782368838
 30
0.0
 11
148.0805475997
 21
1127.2211793615
 31
0.0
  0
ENDBLK
  5
81
330
7D
100
AcDbEntity
  8
0
100
AcDbBlockEnd
  0
BLOCK
  5
85
330
82
100
AcDbEntity
  8
0
100
AcDbBlockBegin
  2
SEANNOT_GROUP7
 70
     0
 10
0.0
 20
0.0
 30
0.0
  3
SEANNOT_GROUP7
  1

  0
LINE
  5
84
330
82
100
AcDbEntity
  8
Default
  6
CENTER2
 62
     7
100
AcDbLine
 10
427.2804762175
 20
1339.255587492
 30
0.0
 11
393.4798885091
 21
1339.255587492
 31
0.0
  0
ENDBLK
  5
86
330
82
100
AcDbEntity
  8
0
100
AcDbBlockEnd
  0
BLOCK
  5
8A
330
87
100
AcDbEntity
  8
0
100
AcDbBlockBegin
  2
SEANNOT_GROUP8
 70
     0
 10
0.0
 20
0.0
 30
0.0
  3
SEANNOT_GROUP8
  1

  0
LINE
  5
89
330
87
100
AcDbEntity
  8
Default
  6
CENTER2
 62
     7
100
AcDbLine
 10
148.0805475997
 20
1413.755587492
 30
0.0
 11
148.0805475997
 21
1449.5640702359
 31
0.0
  0
ENDBLK
  5
8B
330
87
100
AcDbEntity
  8
0
100
AcDbBlockEnd
  0
BLOCK
  5
8F
330
8C
100
AcDbEntity
  8
0
100
AcDbBlockBegin
  2
SEANNOT_GROUP9
 70
     0
 10
0.0
 20
0.0
 30
0.0
  3
SEANNOT_GROUP9
  1

  0
LINE
  5
8E
330
8C
100
AcDbEntity
  8
Default
  6
CENTER2
 62
     7
100
AcDbLine
 10
243.0805475997
 20
1339.255587492
 30
0.0
 11
280.9659467945
 21
1339.255587492
 31
0.0
  0
ENDBLK
  5
90
330
8C
100
AcDbEntity
  8
0
100
AcDbBlockEnd
  0
BLOCK
  5
94
330
91
100
AcDbEntity
  8
0
100
AcDbBlockBegin
  2
SEANNOT_GROUP10
 70
     0
 10
0.0
 20
0.0
 30
0.0
  3
SEANNOT_GROUP10
  1

  0
LINE
  5
93
330
91
100
AcDbEntity
  8
Default
  6
CENTER2
 62
     7
100
AcDbLine
 10
148.0805475997
 20
1264.755587492
 30
0.0
 11
148.0805475997
 21
1228.2433959112
 31
0.0
  0
ENDBLK
  5
95
330
91
100
AcDbEntity
  8
0
100
AcDbBlockEnd
  0
BLOCK
  5
99
330
96
100
AcDbEntity
  8
0
100
AcDbBlockBegin
  2
SEANNOT_GROUP11
 70
     0
 10
0.0
 20
0.0
 30
0.0
  3
SEANNOT_GROUP11
  1

  0
LINE
  5
98
330
96
100
AcDbEntity
  8
Default
  6
CENTER2
 62
     7
100
AcDbLine
 10
53.0805475997
 20
1339.255587492
 30
0.0
 11
22.8717519423
 21
1339.255587492
 31
0.0
  0
ENDBLK
  5
9A
330
96
100
AcDbEntity
  8
0
100
AcDbBlockEnd
  0
BLOCK
  5
9E
330
9B
100
AcDbEntity
  8
0
100
AcDbBlockBegin
  2
SEANNOT_GROUP12
 70
     0
 10
0.0
 20
0.0
 30
0.0
  3
SEANNOT_GROUP12
  1

  0
LINE
  5
9D
330
9B
100
AcDbEntity
  8
Default
  6
CENTER2
 62
     7
100
AcDbLine
 10
133.5989695213
 20
719.6795835452
 30
0.0
 11
133.5989695213
 21
756.2689591633
 31
0.0
  0
ENDBLK
  5
9F
330
9B
100
AcDbEntity
  8
0
100
AcDbBlockEnd
  0
BLOCK
  5
A3
330
A0
100
AcDbEntity
  8
0
100
AcDbBlockBegin
  2
SEANNOT_GROUP13
 70
     0
 10
0.0
 20
0.0
 30
0.0
  3
SEANNOT_GROUP13
  1

  0
LINE
  5
A2
330
A0
100
AcDbEntity
  8
Default
  6
CENTER2
 62
     7
100
AcDbLine
 10
208.0989695213
 20
624.6795835452
 30
0.0
 11
242.7058513546
 21
624.6795835452
 31
0.0
  0
ENDBLK
  5
A4
330
A0
100
AcDbEntity
  8
0
100
AcDbBlockEnd
  0
BLOCK
  5
A8
330
A5
100
AcDbEntity
  8
0
100
AcDbBlockBegin
  2
SEANNOT_GROUP14
 70
     0
 10
0.0
 20
0.0
 30
0.0
  3
SEANNOT_GROUP14
  1

  0
LINE
  5
A7
330
A5
100
AcDbEntity
  8
Default
  6
CENTER2
 62
     7
100
AcDbLine
 10
133.5989695213
 20
529.6795835452
 30
0.0
 11
133.5989695213
 21
497.292841217
 31
0.0
  0
ENDBLK
  5
A9
330
A5
100
AcDbEntity
  8
0
100
AcDbBlockEnd
  0
BLOCK
  5
AD
330
AA
100
AcDbEntity
  8
0
100
AcDbBlockBegin
  2
SEANNOT_GROUP15
 70
     0
 10
0.0
 20
0.0
 30
0.0
  3
SEANNOT_GROUP15
  1

  0
LINE
  5
AC
330
AA
100
AcDbEntity
  8
Default
  6
CENTER2
 62
     7
100
AcDbLine
 10
59.0989695213
 20
624.6795835452
 30
0.0
 11
23.606687854
 21
624.6795835452
 31
0.0
  0
ENDBLK
  5
AE
330
AA
100
AcDbEntity
  8
0
100
AcDbBlockEnd
  0
BLOCK
  5
B2
330
AF
100
AcDbEntity
  8
0
100
AcDbBlockBegin
  2
SEANNOT_GROUP16
 70
     0
 10
0.0
 20
0.0
 30
0.0
  3
SEANNOT_GROUP16
  1

  0
LINE
  5
B1
330
AF
100
AcDbEntity
  8
Default
  6
CENTER2
 62
     7
100
AcDbLine
 10
392.2988981391
 20
624.6795835452
 30
0.0
 11
357.0704953196
 21
624.6795835452
 31
0.0
  0
ENDBLK
  5
B3
330
AF
100
AcDbEntity
  8
0
100
AcDbBlockEnd
  0
BLOCK
  5
B7
330
B4
100
AcDbEntity
  8
0
100
AcDbBlockBegin
  2
SEANNOT_GROUP17
 70
     0
 10
0.0
 20
0.0
 30
0.0
  3
SEANNOT_GROUP17
  1

  0
LINE
  5
B6
330
B4
100
AcDbEntity
  8
Default
  6
CENTER2
 62
     7
100
AcDbLine
 10
133.5989695213
 20
345.4796549273
 30
0.0
 11
133.5989695213
 21
377.1489284918
 31
0.0
  0
ENDBLK
  5
B8
330
B4
100
AcDbEntity
  8
0
100
AcDbBlockEnd
  0
BLOCK
  5
223
330
B9
100
AcDbEntity
  8
0
100
AcDbBlockBegin
  2
SE
 70
     0
 10
0.0
 20
0.0
 30
0.0
  3
SE
  1

  0
LINE
  5
BC
330
B9
100
AcDbEntity
  8
$DDT_AUDIT_GENERATED_(BB)
  6
Continuous
 62
     7
100
AcDbLine
 10
197.8805475997
 20
1305.4554351872
 30
0.0
 11
197.8805475997
 21
1337.2661109349
 31
0.0
  0
ELLIPSE
  5
BD
330
B9
100
AcDbEntity
  8
$DDT_AUDIT_GENERATED_(BB)
  6
Continuous
 62
     7
100
AcDbEllipse
 10
196.8803952716
 20
1305.4557398201
 30
0.0
 11
-0.7073221891695811
 21
0.7073221891695809
 31
0.0
210
0.0
220
0.0
230
0.9999999999999999
 40
0.9996954599
 41
2.35634678343986
 42
3.92683852373947
  0
LINE
  5
BE
330
B9
100
AcDbEntity
  8
$DDT_AUDIT_GENERATED_(BB)
  6
Continuous
 62
     7
100
AcDbLine
 10
129.2803952948
 20
1304.455587492
 30
0.0
 11
196.8806999045
 21
1304.455587492
 31
0.0
  0
ELLIPSE
  5
BF
330
B9
100
AcDbEntity
  8
$DDT_AUDIT_GENERATED_(BB)
  6
Continuous
 62
     7
100
AcDbEllipse
 10
129.2806999277
 20
1305.4557398201
 30
0.0
 11
0.7073221891695809
 21
0.7073221891695811
 31
0.0
210
0.0
220
0.0
230
0.9999999999999999
 40
0.9996954599
 41
2.356346783440116
 42
3.926838523739754
  0
LINE
  5
C0
330
B9
100
AcDbEntity
  8
$DDT_AUDIT_GENERATED_(BB)
  6
Continuous
 62
     7
100
AcDbLine
 10
128.2805475997
 20
1373.0557397969
 30
0.0
 11
128.2805475997
 21
1305.4554351872
 31
0.0
  0
ELLIPSE
  5
C1
330
B9
100
AcDbEntity
  8
$DDT_AUDIT_GENERATED_(BB)
  6
Continuous
 62
     7
100
AcDbEllipse
 10
129.2806999277
 20
1373.055435164
 30
0.0
 11
0.7073221891695811
 21
-0.7073221891695809
 31
0.0
210
0.0
220
0.0
230
0.9999999999999999
 40
0.9996954599
 41
2.35634678343986
 42
3.926838523739697
  0
LINE
  5
C2
330
B9
100
AcDbEntity
  8
$DDT_AUDIT_GENERATED_(BB)
  6
Continuous
 62
     7
100
AcDbLine
 10
196.8806999045
 20
1374.055587492
 30
0.0
 11
129.2803952948
 21
1374.055587492
 31
0.0
  0
ELLIPSE
  5
C3
330
B9
100
AcDbEntity
  8
$DDT_AUDIT_GENERATED_(BB)
  6
Continuous
 62
     7
100
AcDbEllipse
 10
196.8803952716
 20
1373.055435164
 30
0.0
 11
-0.7073221891695809
 21
-0.7073221891695811
 31
0.0
210
0.0
220
0.0
230
0.9999999999999999
 40
0.9996954599
 41
2.356346783439889
 42
3.926838523739725
  0
LINE
  5
C4
330
B9
100
AcDbEntity
  8
$DDT_AUDIT_GENERATED_(BB)
  6
Continuous
 62
     7
100
AcDbLine
 10
197.8837343508
 20
1337.4653498745
 30
0.0
 11
197.933673449
 21
1337.71565573
 31
0.0
  0
ELLIPSE
  5
C5
330
B9
100
AcDbEntity
  8
$DDT_AUDIT_GENERATED_(BB)
  6
Continuous
 62
     7
100
AcDbEllipse
 10
197.8840386126
 20
1337.2661109349
 30
0.0
 11
0.0
 21
0.1992391719402994
 31
0.0
210
0.0
220
0.0
230
1.0
 40
1.0
 41
0.001527119115373
 42
1.570796326794897
  0
LINE
  5
C6
330
B9
100
AcDbEntity
  8
$DDT_AUDIT_GENERATED_(BB)
  6
Continuous
 62
     7
100
AcDbLine
 10
197.8805475997
 20
1341.2450640492
 30
0.0
 11
197.8805475997
 21
1373.0557397969
 31
0.0
  0
ELLIPSE
  5
C7
330
B9
100
AcDbEntity
  8
$DDT_AUDIT_GENERATED_(BB)
  6
Continuous
 62
     7
100
AcDbEllipse
 10
197.8840386126
 20
1341.2450640492
 30
0.0
 11
-6.919281201940717E-15
 21
-0.2000000000000001
 31
0.0
210
0.0
220
0.0
230
1.0
 40
0.0174550649
 41
4.71238898038469
 42
6.195918844585855
  0
LINE
  5
C8
330
B9
100
AcDbEntity
  8
$DDT_AUDIT_GENERATED_(BB)
  6
Continuous
 62
     7
100
AcDbLine
 10
197.9416403269
 20
1338.2137530791
 30
0.0
 11
197.9416403269
 21
1340.297421905
 31
0.0
  0
ELLIPSE
  5
C9
330
B9
100
AcDbEntity
  8
$DDT_AUDIT_GENERATED_(BB)
  6
Continuous
 62
     7
100
AcDbEllipse
 10
197.9329127944
 20
1338.2137530791
 30
0.0
 11
4.903175491628035E-17
 21
-0.5000000000000004
 31
0.0
210
0.0
220
0.0
230
1.0
 40
0.0174550649
 41
0.0872664625963458
 42
1.570796326794897
  0
LINE
  5
CA
330
B9
100
AcDbEntity
  8
$DDT_AUDIT_GENERATED_(BB)
  6
Continuous
 62
     7
100
AcDbLine
 10
197.933673449
 20
1340.7955192541
 30
0.0
 11
197.8837343508
 21
1341.0458251096
 31
0.0
  0
ELLIPSE
  5
CB
330
B9
100
AcDbEntity
  8
$DDT_AUDIT_GENERATED_(BB)
  6
Continuous
 62
     7
100
AcDbEllipse
 10
197.9329127944
 20
1340.297421905
 30
0.0
 11
4.903175491628028E-17
 21
-0.4999999999999998
 31
0.0
210
0.0
220
0.0
230
1.0
 40
0.0174550649
 41
1.570796326794897
 42
3.054326190988245
  0
LINE
  5
CD
330
B9
100
AcDbEntity
  8
$DDT_AUDIT_GENERATED_(CC)
  6
Continuous
 62
     7
100
AcDbLine
 10
98.3305475997
 20
1373.0557397969
 30
0.0
 11
98.3305475997
 21
1341.2450640492
 31
0.0
  0
ELLIPSE
  5
CE
330
B9
100
AcDbEntity
  8
$DDT_AUDIT_GENERATED_(CC)
  6
Continuous
 62
     7
100
AcDbEllipse
 10
99.3306999277
 20
1373.055435164
 30
0.0
 11
0.7073221891695811
 21
-0.7073221891695809
 31
0.0
210
0.0
220
0.0
230
0.9999999999999999
 40
0.9996954599
 41
2.356346783439846
 42
3.926838523739683
  0
LINE
  5
CF
330
B9
100
AcDbEntity
  8
$DDT_AUDIT_GENERATED_(CC)
  6
Continuous
 62
     7
100
AcDbLine
 10
99.3303952948
 20
1304.455587492
 30
0.0
 11
126.6306999045
 21
1304.455587492
 31
0.0
  0
ELLIPSE
  5
D0
330
B9
100
AcDbEntity
  8
$DDT_AUDIT_GENERATED_(CC)
  6
Continuous
 62
     7
100
AcDbEllipse
 10
99.3306999277
 20
1305.4557398201
 30
0.0
 11
0.7073221891695809
 21
0.7073221891695811
 31
0.0
210
0.0
220
0.0
230
0.9999999999999999
 40
0.9996954599
 41
2.356346783440145
 42
3.926838523739725
  0
LINE
  5
D1
330
B9
100
AcDbEntity
  8
$DDT_AUDIT_GENERATED_(CC)
  6
Continuous
 62
     7
100
AcDbLine
 10
127.6305475997
 20
1305.4554351872
 30
0.0
 11
127.6305475997
 21
1373.0557397969
 31
0.0
  0
ELLIPSE
  5
D2
330
B9
100
AcDbEntity
  8
$DDT_AUDIT_GENERATED_(CC)
  6
Continuous
 62
     7
100
AcDbEllipse
 10
126.6303952716
 20
1305.4557398201
 30
0.0
 11
-0.7073221891695811
 21
0.7073221891695809
 31
0.0
210
0.0
220
0.0
230
0.9999999999999999
 40
0.9996954599
 41
2.356346783439875
 42
3.926838523739427
  0
LINE
  5
D3
330
B9
100
AcDbEntity
  8
$DDT_AUDIT_GENERATED_(CC)
  6
Continuous
 62
     7
100
AcDbLine
 10
126.6306999045
 20
1374.055587492
 30
0.0
 11
99.3303952948
 21
1374.055587492
 31
0.0
  0
ELLIPSE
  5
D4
330
B9
100
AcDbEntity
  8
$DDT_AUDIT_GENERATED_(CC)
  6
Continuous
 62
     7
100
AcDbEllipse
 10
126.6303952716
 20
1373.055435164
 30
0.0
 11
-0.7073221891695809
 21
-0.7073221891695811
 31
0.0
210
0.0
220
0.0
230
0.9999999999999999
 40
0.9996954599
 41
2.356346783439903
 42
3.926838523739711
  0
LINE
  5
D5
330
B9
100
AcDbEntity
  8
$DDT_AUDIT_GENERATED_(CC)
  6
Continuous
 62
     7
100
AcDbLine
 10
98.2774217503
 20
1340.7955192541
 30
0.0
 11
98.3273608485
 21
1341.0458251096
 31
0.0
  0
ELLIPSE
  5
D6
330
B9
100
AcDbEntity
  8
$DDT_AUDIT_GENERATED_(CC)
  6
Continuous
 62
     7
100
AcDbEllipse
 10
98.2781824049
 20
1340.297421905
 30
0.0
 11
0.0
 21
0.4980979298509758
 31
0.0
210
0.0
220
0.0
230
1.0
 40
1.0
 41
0.0015271191152297
 42
1.570796326794897
  0
LINE
  5
D7
330
B9
100
AcDbEntity
  8
$DDT_AUDIT_GENERATED_(CC)
  6
Continuous
 62
     7
100
AcDbLine
 10
98.2694548724
 20
1338.2137530791
 30
0.0
 11
98.2694548724
 21
1340.297421905
 31
0.0
  0
ELLIPSE
  5
D8
330
B9
100
AcDbEntity
  8
$DDT_AUDIT_GENERATED_(CC)
  6
Continuous
 62
     7
100
AcDbEllipse
 10
98.2781824049
 20
1338.2137530791
 30
0.0
 11
0.0
 21
0.008727532464106957
 31
0.0
210
0.0
220
0.0
230
1.0
 40
1.0
 41
1.570796326794897
 42
3.140065534474649
  0
ELLIPSE
  5
D9
330
B9
100
AcDbEntity
  8
$DDT_AUDIT_GENERATED_(CC)
  6
Continuous
 62
     7
100
AcDbEllipse
 10
98.3270565867
 20
1341.2450640492
 30
0.0
 11
-6.919281201940717E-15
 21
-0.2000000000000001
 31
0.0
210
0.0
220
0.0
230
1.0
 40
0.0174550649
 41
0.0872664625937306
 42
1.570796326794897
  0
LINE
  5
DA
330
B9
100
AcDbEntity
  8
$DDT_AUDIT_GENERATED_(CC)
  6
Continuous
 62
     7
100
AcDbLine
 10
98.3305475997
 20
1337.2661109349
 30
0.0
 11
98.3305475997
 21
1305.4554351872
 31
0.0
  0
LINE
  5
DB
330
B9
100
AcDbEntity
  8
$DDT_AUDIT_GENERATED_(CC)
  6
Continuous
 62
     7
100
AcDbLine
 10
98.3273608485
 20
1337.4653498745
 30
0.0
 11
98.2774217503
 21
1337.71565573
 31
0.0
  0
ELLIPSE
  5
DC
330
B9
100
AcDbEntity
  8
$DDT_AUDIT_GENERATED_(CC)
  6
Continuous
 62
     7
100
AcDbEllipse
 10
98.3270565867
 20
1337.2661109349
 30
0.0
 11
0.0
 21
0.003491012985648467
 31
0.0
210
0.0
220
0.0
230
1.0
 40
1.0
 41
-1.570796326794897
 42
-0.0015271191153017
  0
LINE
  5
DE
330
B9
100
AcDbEntity
  8
$DDT_AUDIT_GENERATED_(DD)
  6
Continuous
 62
     7
100
AcDbLine
 10
128.2805475997
 20
1370.655587492
 30
0.0
 11
127.6305475997
 21
1370.655587492
 31
0.0
  0
LINE
  5
DF
330
B9
100
AcDbEntity
  8
$DDT_AUDIT_GENERATED_(DD)
  6
Continuous
 62
     7
100
AcDbLine
 10
127.6305475997
 20
1366.855587492
 30
0.0
 11
128.2805475997
 21
1366.855587492
 31
0.0
  0
LINE
  5
E0
330
B9
100
AcDbEntity
  8
$DDT_AUDIT_GENERATED_(DD)
  6
Continuous
 62
     7
100
AcDbLine
 10
128.2805475997
 20
1307.855587492
 30
0.0
 11
127.6305475997
 21
1307.855587492
 31
0.0
  0
LINE
  5
E1
330
B9
100
AcDbEntity
  8
$DDT_AUDIT_GENERATED_(DD)
  6
Continuous
 62
     7
100
AcDbLine
 10
127.6305475997
 20
1311.655587492
 30
0.0
 11
128.2805475997
 21
1311.655587492
 31
0.0
  0
LINE
  5
E2
330
B9
100
AcDbEntity
  8
$DDT_AUDIT_GENERATED_(DD)
  6
Continuous
 62
     7
100
AcDbLine
 10
136.7630049516
 20
1374.6709913537
 30
0.0
 11
134.0783261999
 21
1374.7521574056
 31
0.0
  0
ELLIPSE
  5
E3
330
B9
100
AcDbEntity
  8
$DDT_AUDIT_GENERATED_(DD)
  6
Continuous
 62
     7
100
AcDbEllipse
 10
97.8591258574
 20
1328.3306179577
 30
0.0
 11
0.1414644378339161
 21
0.1414644378339162
 31
0.0
210
0.0
220
0.0
230
1.0
 40
0.9996954599
 41
2.356346783440329
 42
3.926838523740393
  0
LINE
  5
E4
330
B9
100
AcDbEntity
  8
$DDT_AUDIT_GENERATED_(DD)
  6
Continuous
 62
     7
100
AcDbLine
 10
97.6590953918
 20
1350.180617953
 30
0.0
 11
97.6590953918
 21
1328.3305570311
 31
0.0
  0
LINE
  5
E5
330
B9
100
AcDbEntity
  8
$DDT_AUDIT_GENERATED_(DD)
  6
Continuous
 62
     7
100
AcDbLine
 10
97.6469177094
 20
1350.3050768163
 30
0.0
 11
97.6156072184
 21
1352.0988536475
 31
0.0
  0
LINE
  5
E6
330
B9
100
AcDbEntity
  8
$DDT_AUDIT_GENERATED_(DD)
  6
Continuous
 62
     7
100
AcDbLine
 10
97.6156072184
 20
1352.0988536475
 30
0.0
 11
97.5839776861
 21
1352.9438286274
 31
0.0
  0
ELLIPSE
  5
E7
330
B9
100
AcDbEntity
  8
$DDT_AUDIT_GENERATED_(DD)
  6
Continuous
 62
     7
100
AcDbEllipse
 10
97.8591258574
 20
1350.1805570264
 30
0.0
 11
0.1414644378339162
 21
-0.1414644378339162
 31
0.0
210
0.0
220
0.0
230
1.0
 40
0.9996954599
 41
2.35634678344033
 42
3.926838523739257
  0
LINE
  5
E8
330
B9
100
AcDbEntity
  8
$DDT_AUDIT_GENERATED_(DD)
  6
Continuous
 62
     7
100
AcDbLine
 10
198.3239581452
 20
1348.8079310564
 30
0.0
 11
198.3239581452
 21
1329.7032439277
 31
0.0
  0
LINE
  5
E9
330
B9
100
AcDbEntity
  8
$DDT_AUDIT_GENERATED_(DD)
  6
Continuous
 62
     7
100
AcDbLine
 10
198.3611111115
 20
1351.7359098731
 30
0.0
 11
198.3361358276
 21
1350.3050768163
 31
0.0
  0
ELLIPSE
  5
EA
330
B9
100
AcDbEntity
  8
$DDT_AUDIT_GENERATED_(DD)
  6
Continuous
 62
     7
100
AcDbEllipse
 10
198.1239276796
 20
1350.1805570264
 30
0.0
 11
-0.1414644378339161
 21
-0.1414644378339162
 31
0.0
210
0.0
220
0.0
230
1.0
 40
0.9996954599
 41
2.3563467834404
 42
3.027700465480845
  0
LINE
  5
EB
330
B9
100
AcDbEntity
  8
$DDT_AUDIT_GENERATED_(DD)
  6
Continuous
 62
     7
100
AcDbLine
 10
198.3361358276
 20
1328.2060981678
 30
0.0
 11
198.3611111115
 21
1326.775265111
 31
0.0
  0
ELLIPSE
  5
EC
330
B9
100
AcDbEntity
  8
$DDT_AUDIT_GENERATED_(DD)
  6
Continuous
 62
     7
100
AcDbEllipse
 10
198.1239276796
 20
1328.3306179577
 30
0.0
 11
-0.1414644378339162
 21
0.1414644378339161
 31
0.0
210
0.0
220
0.0
230
1.0
 40
0.9996954599
 41
3.255484841705811
 42
3.926838523739185
  0
LINE
  5
ED
330
B9
100
AcDbEntity
  8
$DDT_AUDIT_GENERATED_(DD)
  6
Continuous
 62
     7
100
AcDbLine
 10
165.3123124856
 20
1304.0121769465
 30
0.0
 11
160.8487827138
 21
1304.0121769465
 31
0.0
  0
LINE
  5
EE
330
B9
100
AcDbEntity
  8
$DDT_AUDIT_GENERATED_(DD)
  6
Continuous
 62
     7
100
AcDbLine
 10
165.3123124856
 20
1374.4989980376
 30
0.0
 11
160.8487827138
 21
1374.4989980376
 31
0.0
  0
LINE
  5
EF
330
B9
100
AcDbEntity
  8
$DDT_AUDIT_GENERATED_(DD)
  6
Continuous
 62
     7
100
AcDbLine
 10
97.5839776861
 20
1325.5673463567
 30
0.0
 11
97.6156072184
 21
1326.4123213366
 31
0.0
  0
LINE
  5
F0
330
B9
100
AcDbEntity
  8
$DDT_AUDIT_GENERATED_(DD)
  6
Continuous
 62
     7
100
AcDbLine
 10
198.4805475997
 20
1307.205313399
 30
0.0
 11
198.4805475997
 21
1321.2058615851
 31
0.0
  0
ELLIPSE
  5
F1
330
B9
100
AcDbEntity
  8
$DDT_AUDIT_GENERATED_(DD)
  6
Continuous
 62
     7
100
AcDbEllipse
 10
198.6808220689
 20
1307.2058619612
 30
0.0
 11
0.1418092486870134
 21
0.1418092486870134
 31
0.0
210
0.0
220
0.0
230
1.0
 40
0.9972646886
 41
2.357564018061808
 42
3.38670950608949
  0
ELLIPSE
  5
F2
330
B9
100
AcDbEntity
  8
$DDT_AUDIT_GENERATED_(DD)
  6
Continuous
 62
     7
100
AcDbEllipse
 10
198.6808220689
 20
1321.2053130228
 30
0.0
 11
0.1418092486870133
 21
-0.1418092486870134
 31
0.0
210
0.0
220
0.0
230
1.0
 40
0.9972646886
 41
2.898935184941862
 42
3.925621289116786
  0
LINE
  5
F3
330
B9
100
AcDbEntity
  8
$DDT_AUDIT_GENERATED_(DD)
  6
Continuous
 62
     7
100
AcDbLine
 10
198.4805475997
 20
1357.305313399
 30
0.0
 11
198.4805475997
 21
1371.3058615851
 31
0.0
  0
ELLIPSE
  5
F4
330
B9
100
AcDbEntity
  8
$DDT_AUDIT_GENERATED_(DD)
  6
Continuous
 62
     7
100
AcDbEllipse
 10
198.6808220689
 20
1357.3058619612
 30
0.0
 11
0.1418092486870133
 21
0.1418092486870134
 31
0.0
210
0.0
220
0.0
230
1.0
 40
0.9972646886
 41
2.357564018061807
 42
3.384250122799078
  0
ELLIPSE
  5
F5
330
B9
100
AcDbEntity
  8
$DDT_AUDIT_GENERATED_(DD)
  6
Continuous
 62
     7
100
AcDbEllipse
 10
198.6808220689
 20
1371.3053130228
 30
0.0
 11
0.1418092486870134
 21
-0.1418092486870134
 31
0.0
210
0.0
220
0.0
230
1.0
 40
0.9972646886
 41
2.896475801162363
 42
3.925621289116643
  0
ELLIPSE
  5
F6
330
B9
100
AcDbEntity
  8
$DDT_AUDIT_GENERATED_(DD)
  6
Continuous
 62
     7
100
AcDbEllipse
 10
97.4802731305
 20
1307.2058619612
 30
0.0
 11
-0.1418092486870134
 21
0.1418092486870134
 31
0.0
210
0.0
220
0.0
230
1.0
 40
0.9972646886
 41
2.896475801967621
 42
3.925621289117779
  0
LINE
  5
F7
330
B9
100
AcDbEntity
  8
$DDT_AUDIT_GENERATED_(DD)
  6
Continuous
 62
     7
100
AcDbLine
 10
97.6805475997
 20
1321.2058615851
 30
0.0
 11
97.6805475997
 21
1307.205313399
 31
0.0
  0
ELLIPSE
  5
F8
330
B9
100
AcDbEntity
  8
$DDT_AUDIT_GENERATED_(DD)
  6
Continuous
 62
     7
100
AcDbEllipse
 10
97.4802731305
 20
1321.2053130228
 30
0.0
 11
-0.1418092486870133
 21
-0.1418092486870134
 31
0.0
210
0.0
220
0.0
230
1.0
 40
0.9972646886
 41
2.357564018064007
 42
3.384250122568656
  0
ELLIPSE
  5
F9
330
B9
100
AcDbEntity
  8
$DDT_AUDIT_GENERATED_(DD)
  6
Continuous
 62
     7
100
AcDbEllipse
 10
97.4802731305
 20
1357.3058619612
 30
0.0
 11
-0.1418092486870133
 21
0.1418092486870134
 31
0.0
210
0.0
220
0.0
230
1.0
 40
0.9972646886
 41
2.89893518603934
 42
3.92562128911785
  0
LINE
  5
FA
330
B9
100
AcDbEntity
  8
$DDT_AUDIT_GENERATED_(DD)
  6
Continuous
 62
     7
100
AcDbLine
 10
97.6805475997
 20
1371.3058615851
 30
0.0
 11
97.6805475997
 21
1357.305313399
 31
0.0
  0
ELLIPSE
  5
FB
330
B9
100
AcDbEntity
  8
$DDT_AUDIT_GENERATED_(DD)
  6
Continuous
 62
     7
100
AcDbEllipse
 10
97.4802731305
 20
1371.3053130228
 30
0.0
 11
-0.1418092486870134
 21
-0.1418092486870134
 31
0.0
210
0.0
220
0.0
230
1.0
 40
0.9972646886
 41
2.357564018062872
 42
3.386709505817354
  0
LINE
  5
FD
330
B9
100
AcDbEntity
  8
$DDT_AUDIT_GENERATED_(FC)
  6
Continuous
 62
     7
100
AcDbLine
 10
128.2805475997
 20
1305.4554351872
 30
0.0
 11
128.2805475997
 21
1304.7012207635
 31
0.0
  0
LINE
  5
FE
330
B9
100
AcDbEntity
  8
$DDT_AUDIT_GENERATED_(FC)
  6
Continuous
 62
     7
100
AcDbLine
 10
159.8142617715
 20
1374.505587492
 30
0.0
 11
153.5805475997
 21
1374.505587492
 31
0.0
  0
LINE
  5
FF
330
B9
100
AcDbEntity
  8
$DDT_AUDIT_GENERATED_(FC)
  6
Continuous
 62
     7
100
AcDbLine
 10
159.8142617715
 20
1374.505587492
 30
0.0
 11
160.8104564696
 21
1374.505587492
 31
0.0
  0
LINE
  5
100
330
B9
100
AcDbEntity
  8
$DDT_AUDIT_GENERATED_(FC)
  6
Continuous
 62
     7
100
AcDbLine
 10
165.3506387297
 20
1374.505587492
 30
0.0
 11
165.3167669912
 21
1374.505587492
 31
0.0
  0
LINE
  5
101
330
B9
100
AcDbEntity
  8
$DDT_AUDIT_GENERATED_(FC)
  6
Continuous
 62
     7
100
AcDbLine
 10
165.3506387297
 20
1374.505587492
 30
0.0
 11
166.3468334278
 21
1374.505587492
 31
0.0
  0
LINE
  5
102
330
B9
100
AcDbEntity
  8
$DDT_AUDIT_GENERATED_(FC)
  6
Continuous
 62
     7
100
AcDbLine
 10
198.2805475997
 20
1342.5218733202
 30
0.0
 11
198.2805475997
 21
1348.755587492
 31
0.0
  0
LINE
  5
103
330
B9
100
AcDbEntity
  8
$DDT_AUDIT_GENERATED_(FC)
  6
Continuous
 62
     7
100
AcDbLine
 10
198.2805475997
 20
1342.5218733202
 30
0.0
 11
198.2805475997
 21
1341.5256786221
 31
0.0
  0
LINE
  5
104
330
B9
100
AcDbEntity
  8
$DDT_AUDIT_GENERATED_(FC)
  6
Continuous
 62
     7
100
AcDbLine
 10
198.2805475997
 20
1336.985496362
 30
0.0
 11
198.2805475997
 21
1337.0193681005
 31
0.0
  0
LINE
  5
105
330
B9
100
AcDbEntity
  8
$DDT_AUDIT_GENERATED_(FC)
  6
Continuous
 62
     7
100
AcDbLine
 10
198.2805475997
 20
1336.985496362
 30
0.0
 11
198.2805475997
 21
1335.9893016639
 31
0.0
  0
LINE
  5
106
330
B9
100
AcDbEntity
  8
$DDT_AUDIT_GENERATED_(FC)
  6
Continuous
 62
     7
100
AcDbLine
 10
166.3468334278
 20
1304.005587492
 30
0.0
 11
172.5805475997
 21
1304.005587492
 31
0.0
  0
LINE
  5
107
330
B9
100
AcDbEntity
  8
$DDT_AUDIT_GENERATED_(FC)
  6
Continuous
 62
     7
100
AcDbLine
 10
166.3468334278
 20
1304.005587492
 30
0.0
 11
165.3506387297
 21
1304.005587492
 31
0.0
  0
LINE
  5
108
330
B9
100
AcDbEntity
  8
$DDT_AUDIT_GENERATED_(FC)
  6
Continuous
 62
     7
100
AcDbLine
 10
160.8104564696
 20
1304.005587492
 30
0.0
 11
160.8443282081
 21
1304.005587492
 31
0.0
  0
LINE
  5
109
330
B9
100
AcDbEntity
  8
$DDT_AUDIT_GENERATED_(FC)
  6
Continuous
 62
     7
100
AcDbLine
 10
160.8104564696
 20
1304.005587492
 30
0.0
 11
159.8142617715
 21
1304.005587492
 31
0.0
  0
LINE
  5
10A
330
B9
100
AcDbEntity
  8
$DDT_AUDIT_GENERATED_(FC)
  6
Continuous
 62
     7
100
AcDbLine
 10
128.2805475997
 20
1367.7573480967
 30
0.0
 11
128.1805475997
 21
1367.7573480967
 31
0.0
  0
LINE
  5
10B
330
B9
100
AcDbEntity
  8
$DDT_AUDIT_GENERATED_(FC)
  6
Continuous
 62
     7
100
AcDbLine
 10
127.9805475997
 20
1367.9573404813
 30
0.0
 11
127.9805475997
 21
1369.5538345028
 31
0.0
  0
LINE
  5
10C
330
B9
100
AcDbEntity
  8
$DDT_AUDIT_GENERATED_(FC)
  6
Continuous
 62
     7
100
AcDbLine
 10
128.1805475997
 20
1369.7538268874
 30
0.0
 11
128.2805475997
 21
1369.7538268874
 31
0.0
  0
ARC
  5
10D
330
B9
100
AcDbEntity
  8
$DDT_AUDIT_GENERATED_(FC)
  6
Continuous
 62
     7
100
AcDbCircle
 10
128.1805475997
 20
1369.5538345028
 30
0.0
 40
0.1999923846128342
100
AcDbArc
 50
90.0
 51
180.0
  0
ARC
  5
10E
330
B9
100
AcDbEntity
  8
$DDT_AUDIT_GENERATED_(FC)
  6
Continuous
 62
     7
100
AcDbCircle
 10
128.1805475997
 20
1367.9573404813
 30
0.0
 40
0.1999999999999988
100
AcDbArc
 50
180.0
 51
270.0
  0
LINE
  5
10F
330
B9
100
AcDbEntity
  8
$DDT_AUDIT_GENERATED_(FC)
  6
Continuous
 62
     7
100
AcDbLine
 10
127.9805475997
 20
1308.9573404813
 30
0.0
 11
127.9805475997
 21
1310.5538345028
 31
0.0
  0
LINE
  5
110
330
B9
100
AcDbEntity
  8
$DDT_AUDIT_GENERATED_(FC)
  6
Continuous
 62
     7
100
AcDbLine
 10
128.1805475997
 20
1310.7538268874
 30
0.0
 11
128.2805475997
 21
1310.7538268874
 31
0.0
  0
LINE
  5
111
330
B9
100
AcDbEntity
  8
$DDT_AUDIT_GENERATED_(FC)
  6
Continuous
 62
     7
100
AcDbLine
 10
128.2805475997
 20
1308.7573480967
 30
0.0
 11
128.1805475997
 21
1308.7573480967
 31
0.0
  0
ARC
  5
112
330
B9
100
AcDbEntity
  8
$DDT_AUDIT_GENERATED_(FC)
  6
Continuous
 62
     7
100
AcDbCircle
 10
128.1805475997
 20
1308.9573404813
 30
0.0
 40
0.1999999999999988
100
AcDbArc
 50
180.0
 51
270.0
  0
ARC
  5
113
330
B9
100
AcDbEntity
  8
$DDT_AUDIT_GENERATED_(FC)
  6
Continuous
 62
     7
100
AcDbCircle
 10
128.1805475997
 20
1310.5538345028
 30
0.0
 40
0.1999999999999988
100
AcDbArc
 50
90.0
 51
180.0
  0
LINE
  5
114
330
B9
100
AcDbEntity
  8
$DDT_AUDIT_GENERATED_(FC)
  6
Continuous
 62
     7
100
AcDbLine
 10
127.9805475997
 20
1325.4573404813
 30
0.0
 11
127.9805475997
 21
1327.0538345028
 31
0.0
  0
LINE
  5
115
330
B9
100
AcDbEntity
  8
$DDT_AUDIT_GENERATED_(FC)
  6
Continuous
 62
     7
100
AcDbLine
 10
128.1805475997
 20
1327.2538268874
 30
0.0
 11
128.2805475997
 21
1327.2538268874
 31
0.0
  0
LINE
  5
116
330
B9
100
AcDbEntity
  8
$DDT_AUDIT_GENERATED_(FC)
  6
Continuous
 62
     7
100
AcDbLine
 10
128.2805475997
 20
1325.2573480967
 30
0.0
 11
128.1805475997
 21
1325.2573480967
 31
0.0
  0
ARC
  5
117
330
B9
100
AcDbEntity
  8
$DDT_AUDIT_GENERATED_(FC)
  6
Continuous
 62
     7
100
AcDbCircle
 10
128.1805475997
 20
1325.4573404813
 30
0.0
 40
0.1999999999999988
100
AcDbArc
 50
180.0
 51
270.0
  0
ARC
  5
118
330
B9
100
AcDbEntity
  8
$DDT_AUDIT_GENERATED_(FC)
  6
Continuous
 62
     7
100
AcDbCircle
 10
128.1805475997
 20
1327.0538345028
 30
0.0
 40
0.1999999999999988
100
AcDbArc
 50
90.0
 51
180.0
  0
LINE
  5
119
330
B9
100
AcDbEntity
  8
$DDT_AUDIT_GENERATED_(FC)
  6
Continuous
 62
     7
100
AcDbLine
 10
127.9805475997
 20
1351.4573404813
 30
0.0
 11
127.9805475997
 21
1353.0538345028
 31
0.0
  0
LINE
  5
11A
330
B9
100
AcDbEntity
  8
$DDT_AUDIT_GENERATED_(FC)
  6
Continuous
 62
     7
100
AcDbLine
 10
128.1805475997
 20
1353.2538268874
 30
0.0
 11
128.2805475997
 21
1353.2538268874
 31
0.0
  0
LINE
  5
11B
330
B9
100
AcDbEntity
  8
$DDT_AUDIT_GENERATED_(FC)
  6
Continuous
 62
     7
100
AcDbLine
 10
128.2805475997
 20
1351.2573480967
 30
0.0
 11
128.1805475997
 21
1351.2573480967
 31
0.0
  0
ARC
  5
11C
330
B9
100
AcDbEntity
  8
$DDT_AUDIT_GENERATED_(FC)
  6
Continuous
 62
     7
100
AcDbCircle
 10
128.1805475997
 20
1351.4573404813
 30
0.0
 40
0.2000000000000023
100
AcDbArc
 50
180.0
 51
270.0
  0
ARC
  5
11D
330
B9
100
AcDbEntity
  8
$DDT_AUDIT_GENERATED_(FC)
  6
Continuous
 62
     7
100
AcDbCircle
 10
128.1805475997
 20
1353.0538345028
 30
0.0
 40
0.1999999999999988
100
AcDbArc
 50
90.0
 51
180.0
  0
LINE
  5
11E
330
B9
100
AcDbEntity
  8
$DDT_AUDIT_GENERATED_(FC)
  6
Continuous
 62
     7
100
AcDbLine
 10
198.2805475997
 20
1327.255587492
 30
0.0
 11
198.2805475997
 21
1328.255587492
 31
0.0
  0
LINE
  5
11F
330
B9
100
AcDbEntity
  8
$DDT_AUDIT_GENERATED_(FC)
  6
Continuous
 62
     7
100
AcDbLine
 10
151.0805475997
 20
1304.005587492
 30
0.0
 11
152.0805475997
 21
1304.005587492
 31
0.0
  0
ARC
  5
120
330
B9
100
AcDbEntity
  8
$DDT_AUDIT_GENERATED_(FC)
  6
Continuous
 62
     7
100
AcDbCircle
 10
195.6019592768
 20
1306.6841290663
 30
0.0
 40
2.499999999999998
100
AcDbArc
 50
335.7044631048
 51
359.5028690524
  0
ARC
  5
121
330
B9
100
AcDbEntity
  8
$DDT_AUDIT_GENERATED_(FC)
  6
Continuous
 62
     7
100
AcDbCircle
 10
195.6019592768
 20
1306.6841290663
 30
0.0
 40
2.499999999999998
100
AcDbArc
 50
270.4982116126
 51
296.9481967487
  0
LINE
  5
122
330
B9
100
AcDbEntity
  8
$DDT_AUDIT_GENERATED_(FC)
  6
Continuous
 62
     7
100
AcDbLine
 10
195.6236975854
 20
1304.1842235789
 30
0.0
 11
193.3305475997
 21
1304.1642831442
 31
0.0
  0
ARC
  5
123
330
B9
100
AcDbEntity
  8
$DDT_AUDIT_GENERATED_(FC)
  6
Continuous
 62
     7
100
AcDbCircle
 10
128.7805475997
 20
1304.7012207635
 30
0.0
 40
0.5000000000000026
100
AcDbArc
 50
180.0
 51
269.4974183333
  0
LINE
  5
124
330
B9
100
AcDbEntity
  8
$DDT_AUDIT_GENERATED_(FC)
  6
Continuous
 62
     7
100
AcDbLine
 10
151.0805475997
 20
1304.005587492
 30
0.0
 11
134.3305475997
 21
1304.1525173166
 31
0.0
  0
LINE
  5
125
330
B9
100
AcDbEntity
  8
$DDT_AUDIT_GENERATED_(FC)
  6
Continuous
 62
     7
100
AcDbLine
 10
198.2805475997
 20
1327.255587492
 30
0.0
 11
198.1352113741
 21
1310.505587492
 31
0.0
  0
LINE
  5
126
330
B9
100
AcDbEntity
  8
$DDT_AUDIT_GENERATED_(FC)
  6
Continuous
 62
     7
100
AcDbLine
 10
175.0805475996
 20
1374.505587492
 30
0.0
 11
174.0805475997
 21
1374.505587492
 31
0.0
  0
LINE
  5
127
330
B9
100
AcDbEntity
  8
$DDT_AUDIT_GENERATED_(FC)
  6
Continuous
 62
     7
100
AcDbLine
 10
128.2805475997
 20
1373.8099542206
 30
0.0
 11
128.2805475997
 21
1373.0557397969
 31
0.0
  0
LINE
  5
128
330
B9
100
AcDbEntity
  8
$DDT_AUDIT_GENERATED_(FC)
  6
Continuous
 62
     7
100
AcDbLine
 10
128.7761618035
 20
1374.3099349851
 30
0.0
 11
132.8305475997
 21
1374.3454997727
 31
0.0
  0
ARC
  5
129
330
B9
100
AcDbEntity
  8
$DDT_AUDIT_GENERATED_(FC)
  6
Continuous
 62
     7
100
AcDbCircle
 10
195.6019592768
 20
1371.8270459178
 30
0.0
 40
2.499999999999999
100
AcDbArc
 50
63.0518032513
 51
89.5017883874
  0
ARC
  5
12A
330
B9
100
AcDbEntity
  8
$DDT_AUDIT_GENERATED_(FC)
  6
Continuous
 62
     7
100
AcDbCircle
 10
195.6019592768
 20
1371.8270459178
 30
0.0
 40
2.499999999999999
100
AcDbArc
 50
0.4971309476
 51
24.2955368952
  0
LINE
  5
12B
330
B9
100
AcDbEntity
  8
$DDT_AUDIT_GENERATED_(FC)
  6
Continuous
 62
     7
100
AcDbLine
 10
198.1018651738
 20
1371.8487370753
 30
0.0
 11
198.1221961897
 21
1369.505587492
 31
0.0
  0
LINE
  5
12C
330
B9
100
AcDbEntity
  8
$DDT_AUDIT_GENERATED_(FC)
  6
Continuous
 62
     7
100
AcDbLine
 10
175.0805475996
 20
1374.505587492
 30
0.0
 11
191.8305475997
 21
1374.3599353181
 31
0.0
  0
ARC
  5
12D
330
B9
100
AcDbEntity
  8
$DDT_AUDIT_GENERATED_(FC)
  6
Continuous
 62
     7
100
AcDbCircle
 10
128.7805475997
 20
1373.8099542206
 30
0.0
 40
0.5000000000000004
100
AcDbArc
 50
90.5025816667
 51
180.0
  0
ELLIPSE
  5
12E
330
B9
100
AcDbEntity
  8
$DDT_AUDIT_GENERATED_(FC)
  6
Continuous
 62
     7
100
AcDbEllipse
 10
160.8443282081
 20
1304.205587492
 30
0.0
 11
1.754336177943319E-15
 21
-0.1999999999999988
 31
0.0
210
0.0
220
0.0
230
1.0
 40
0.0874886635
 41
0.0
 42
1.570796326794896
  0
ELLIPSE
  5
12F
330
B9
100
AcDbEntity
  8
$DDT_AUDIT_GENERATED_(FC)
  6
Continuous
 62
     7
100
AcDbEllipse
 10
165.3167669912
 20
1374.305587492
 30
0.0
 11
0.0
 21
0.2000000000000455
 31
0.0
210
0.0
220
0.0
230
1.0
 40
1.0
 41
0.0
 42
1.570796326794897
  0
LINE
  5
130
330
B9
100
AcDbEntity
  8
$DDT_AUDIT_GENERATED_(FC)
  6
Continuous
 62
     7
100
AcDbLine
 10
198.0805475997
 20
1341.4743091509
 30
0.0
 11
197.9364529445
 21
1341.4743091509
 31
0.0
  0
LINE
  5
131
330
B9
100
AcDbEntity
  8
$DDT_AUDIT_GENERATED_(FC)
  6
Continuous
 62
     7
100
AcDbLine
 10
198.2805475997
 20
1341.4918068836
 30
0.0
 11
198.2805475997
 21
1341.5256786221
 31
0.0
  0
ELLIPSE
  5
132
330
B9
100
AcDbEntity
  8
$DDT_AUDIT_GENERATED_(FC)
  6
Continuous
 62
     7
100
AcDbEllipse
 10
198.0805475997
 20
1341.4918068836
 30
0.0
 11
-0.1999999999999988
 21
-1.961270196651199E-17
 31
0.0
210
0.0
220
0.0
230
1.0
 40
0.0874886635
 41
1.570796326794897
 42
3.141592653589792
  0
ELLIPSE
  5
133
330
B9
100
AcDbEntity
  8
$DDT_AUDIT_GENERATED_(FC)
  6
Continuous
 62
     7
100
AcDbEllipse
 10
198.0805475997
 20
1337.0193681005
 30
0.0
 11
0.1999999999999988
 21
1.961270196651199E-17
 31
0.0
210
0.0
220
0.0
230
1.0
 40
0.0874886635
 41
0.0
 42
1.570796326794897
  0
LINE
  5
134
330
B9
100
AcDbEntity
  8
$DDT_AUDIT_GENERATED_(FC)
  6
Continuous
 62
     7
100
AcDbLine
 10
165.2992692585
 20
1304.205587492
 30
0.0
 11
165.2992692585
 21
1304.4496821472
 31
0.0
  0
LINE
  5
135
330
B9
100
AcDbEntity
  8
$DDT_AUDIT_GENERATED_(FC)
  6
Continuous
 62
     7
100
AcDbLine
 10
165.3167669912
 20
1304.005587492
 30
0.0
 11
165.3506387297
 21
1304.005587492
 31
0.0
  0
ELLIPSE
  5
136
330
B9
100
AcDbEntity
  8
$DDT_AUDIT_GENERATED_(FC)
  6
Continuous
 62
     7
100
AcDbEllipse
 10
165.3167669912
 20
1304.205587492
 30
0.0
 11
0.0
 21
0.01749773270518062
 31
0.0
210
0.0
220
0.0
230
1.0
 40
1.0
 41
1.570796326794897
 42
3.141592653589793
  0
LINE
  5
137
330
B9
100
AcDbEntity
  8
$DDT_AUDIT_GENERATED_(FC)
  6
Continuous
 62
     7
100
AcDbLine
 10
160.8443282081
 20
1374.505587492
 30
0.0
 11
160.8104564696
 21
1374.505587492
 31
0.0
  0
LINE
  5
138
330
B9
100
AcDbEntity
  8
$DDT_AUDIT_GENERATED_(FC)
  6
Continuous
 62
     7
100
AcDbLine
 10
160.8618259408
 20
1374.305587492
 30
0.0
 11
160.8618259408
 21
1374.0614928369
 31
0.0
  0
ELLIPSE
  5
139
330
B9
100
AcDbEntity
  8
$DDT_AUDIT_GENERATED_(FC)
  6
Continuous
 62
     7
100
AcDbEllipse
 10
160.8443282081
 20
1374.305587492
 30
0.0
 11
1.961270196651200E-17
 21
-0.1999999999999988
 31
0.0
210
0.0
220
0.0
230
1.0
 40
0.0874886635
 41
1.570796326794897
 42
3.141592653589792
  0
LINE
  5
13A
330
B9
100
AcDbEntity
  8
$DDT_AUDIT_GENERATED_(FC)
  6
Continuous
 62
     7
100
AcDbLine
 10
160.8618259408
 20
1304.4496821472
 30
0.0
 11
160.8618259408
 21
1304.205587492
 31
0.0
  0
LINE
  5
13B
330
B9
100
AcDbEntity
  8
$DDT_AUDIT_GENERATED_(FC)
  6
Continuous
 62
     7
100
AcDbLine
 10
165.2992692585
 20
1374.0614928369
 30
0.0
 11
165.2992692585
 21
1374.305587492
 31
0.0
  0
ARC
  5
13C
330
B9
100
AcDbEntity
  8
$DDT_AUDIT_GENERATED_(FC)
  6
Continuous
 62
     7
100
AcDbCircle
 10
197.9563349714
 20
1337.7634198068
 30
0.0
 40
3.710942605191546
100
AcDbArc
 50
90.3069736723
 51
91.1847822732
  0
LINE
  5
13D
330
B9
100
AcDbEntity
  8
$DDT_AUDIT_GENERATED_(FC)
  6
Continuous
 62
     7
100
AcDbLine
 10
197.9364529445
 20
1337.0368658332
 30
0.0
 11
198.0805475997
 21
1337.0368658332
 31
0.0
  0
ARC
  5
13E
330
B9
100
AcDbEntity
  8
$DDT_AUDIT_GENERATED_(FC)
  6
Continuous
 62
     7
100
AcDbCircle
 10
197.9563349714
 20
1340.7477551773
 30
0.0
 40
3.710942605191031
100
AcDbArc
 50
268.8152177268
 51
269.6930263277
  0
LINE
  5
13F
330
B9
100
AcDbEntity
  8
$DDT_AUDIT_GENERATED_(FC)
  6
Continuous
 62
     7
100
AcDbLine
 10
174.0805475997
 20
1304.005587492
 30
0.0
 11
175.0805475996
 21
1304.005587492
 31
0.0
  0
LINE
  5
140
330
B9
100
AcDbEntity
  8
$DDT_AUDIT_GENERATED_(FC)
  6
Continuous
 62
     7
100
AcDbLine
 10
191.8305475997
 20
1304.151239666
 30
0.0
 11
175.0805475996
 21
1304.005587492
 31
0.0
  0
LINE
  5
141
330
B9
100
AcDbEntity
  8
$DDT_AUDIT_GENERATED_(FC)
  6
Continuous
 62
     7
100
AcDbLine
 10
172.7537526804
 20
1303.905587492
 30
0.0
 11
173.9073425189
 21
1303.905587492
 31
0.0
  0
ARC
  5
142
330
B9
100
AcDbEntity
  8
$DDT_AUDIT_GENERATED_(FC)
  6
Continuous
 62
     7
100
AcDbCircle
 10
173.9073425189
 20
1304.105587492
 30
0.0
 40
0.1999999999999988
100
AcDbArc
 50
270.0
 51
330.0
  0
ARC
  5
143
330
B9
100
AcDbEntity
  8
$DDT_AUDIT_GENERATED_(FC)
  6
Continuous
 62
     7
100
AcDbCircle
 10
172.7537526804
 20
1304.105587492
 30
0.0
 40
0.1999999999999999
100
AcDbArc
 50
210.0
 51
270.0
  0
LINE
  5
144
330
B9
100
AcDbEntity
  8
$DDT_AUDIT_GENERATED_(FC)
  6
Continuous
 62
     7
100
AcDbLine
 10
191.8305475997
 20
1304.105587492
 30
0.0
 11
191.8305475997
 21
1304.151239666
 31
0.0
  0
LINE
  5
145
330
B9
100
AcDbEntity
  8
$DDT_AUDIT_GENERATED_(FC)
  6
Continuous
 62
     7
100
AcDbLine
 10
192.0305475997
 20
1303.905587492
 30
0.0
 11
193.1305475997
 21
1303.905587492
 31
0.0
  0
LINE
  5
146
330
B9
100
AcDbEntity
  8
$DDT_AUDIT_GENERATED_(FC)
  6
Continuous
 62
     7
100
AcDbLine
 10
193.3305475997
 20
1304.105587492
 30
0.0
 11
193.3305475997
 21
1304.1642831442
 31
0.0
  0
ARC
  5
147
330
B9
100
AcDbEntity
  8
$DDT_AUDIT_GENERATED_(FC)
  6
Continuous
 62
     7
100
AcDbCircle
 10
193.1305475997
 20
1304.105587492
 30
0.0
 40
0.1999999999999988
100
AcDbArc
 50
270.0
 51
0.0
  0
ARC
  5
148
330
B9
100
AcDbEntity
  8
$DDT_AUDIT_GENERATED_(FC)
  6
Continuous
 62
     7
100
AcDbCircle
 10
192.0305475997
 20
1304.105587492
 30
0.0
 40
0.1999999999999988
100
AcDbArc
 50
180.0
 51
270.0
  0
LINE
  5
149
330
B9
100
AcDbEntity
  8
$DDT_AUDIT_GENERATED_(FC)
  6
Continuous
 62
     7
100
AcDbLine
 10
153.5805475997
 20
1304.005587492
 30
0.0
 11
159.8142617715
 21
1304.005587492
 31
0.0
  0
LINE
  5
14A
330
B9
100
AcDbEntity
  8
$DDT_AUDIT_GENERATED_(FC)
  6
Continuous
 62
     7
100
AcDbLine
 10
132.8305475997
 20
1304.1656752113
 30
0.0
 11
128.7761618035
 21
1304.201239999
 31
0.0
  0
LINE
  5
14B
330
B9
100
AcDbEntity
  8
$DDT_AUDIT_GENERATED_(FC)
  6
Continuous
 62
     7
100
AcDbLine
 10
152.2537526804
 20
1303.905587492
 30
0.0
 11
153.4073425189
 21
1303.905587492
 31
0.0
  0
ARC
  5
14C
330
B9
100
AcDbEntity
  8
$DDT_AUDIT_GENERATED_(FC)
  6
Continuous
 62
     7
100
AcDbCircle
 10
153.4073425189
 20
1304.105587492
 30
0.0
 40
0.1999999999999988
100
AcDbArc
 50
270.0
 51
330.0
  0
ARC
  5
14D
330
B9
100
AcDbEntity
  8
$DDT_AUDIT_GENERATED_(FC)
  6
Continuous
 62
     7
100
AcDbCircle
 10
152.2537526804
 20
1304.105587492
 30
0.0
 40
0.1999999999999994
100
AcDbArc
 50
210.0
 51
270.0
  0
LINE
  5
14E
330
B9
100
AcDbEntity
  8
$DDT_AUDIT_GENERATED_(FC)
  6
Continuous
 62
     7
100
AcDbLine
 10
132.8305475997
 20
1304.105587492
 30
0.0
 11
132.8305475997
 21
1304.1656752113
 31
0.0
  0
LINE
  5
14F
330
B9
100
AcDbEntity
  8
$DDT_AUDIT_GENERATED_(FC)
  6
Continuous
 62
     7
100
AcDbLine
 10
133.0305475997
 20
1303.905587492
 30
0.0
 11
134.1305475997
 21
1303.905587492
 31
0.0
  0
LINE
  5
150
330
B9
100
AcDbEntity
  8
$DDT_AUDIT_GENERATED_(FC)
  6
Continuous
 62
     7
100
AcDbLine
 10
134.3305475997
 20
1304.105587492
 30
0.0
 11
134.3305475997
 21
1304.1525173166
 31
0.0
  0
ARC
  5
151
330
B9
100
AcDbEntity
  8
$DDT_AUDIT_GENERATED_(FC)
  6
Continuous
 62
     7
100
AcDbCircle
 10
134.1305475997
 20
1304.105587492
 30
0.0
 40
0.1999999999999988
100
AcDbArc
 50
270.0
 51
0.0
  0
ARC
  5
152
330
B9
100
AcDbEntity
  8
$DDT_AUDIT_GENERATED_(FC)
  6
Continuous
 62
     7
100
AcDbCircle
 10
133.0305475997
 20
1304.105587492
 30
0.0
 40
0.1999999999999988
100
AcDbArc
 50
180.0
 51
270.0
  0
LINE
  5
153
330
B9
100
AcDbEntity
  8
$DDT_AUDIT_GENERATED_(FC)
  6
Continuous
 62
     7
100
AcDbLine
 10
172.5805475997
 20
1374.505587492
 30
0.0
 11
166.3468334278
 21
1374.505587492
 31
0.0
  0
LINE
  5
154
330
B9
100
AcDbEntity
  8
$DDT_AUDIT_GENERATED_(FC)
  6
Continuous
 62
     7
100
AcDbLine
 10
193.3305475997
 20
1374.3468918399
 30
0.0
 11
195.6236975854
 21
1374.3269514052
 31
0.0
  0
LINE
  5
155
330
B9
100
AcDbEntity
  8
$DDT_AUDIT_GENERATED_(FC)
  6
Continuous
 62
     7
100
AcDbLine
 10
173.9073425189
 20
1374.605587492
 30
0.0
 11
172.7537526804
 21
1374.605587492
 31
0.0
  0
ARC
  5
156
330
B9
100
AcDbEntity
  8
$DDT_AUDIT_GENERATED_(FC)
  6
Continuous
 62
     7
100
AcDbCircle
 10
172.7537526804
 20
1374.405587492
 30
0.0
 40
0.1999999999999988
100
AcDbArc
 50
90.0
 51
150.0
  0
ARC
  5
157
330
B9
100
AcDbEntity
  8
$DDT_AUDIT_GENERATED_(FC)
  6
Continuous
 62
     7
100
AcDbCircle
 10
173.9073425189
 20
1374.405587492
 30
0.0
 40
0.200000000000002
100
AcDbArc
 50
30.0
 51
90.0
  0
LINE
  5
158
330
B9
100
AcDbEntity
  8
$DDT_AUDIT_GENERATED_(FC)
  6
Continuous
 62
     7
100
AcDbLine
 10
193.3305475997
 20
1374.405587492
 30
0.0
 11
193.3305475997
 21
1374.3468918399
 31
0.0
  0
LINE
  5
159
330
B9
100
AcDbEntity
  8
$DDT_AUDIT_GENERATED_(FC)
  6
Continuous
 62
     7
100
AcDbLine
 10
193.1305475997
 20
1374.605587492
 30
0.0
 11
192.0305475997
 21
1374.605587492
 31
0.0
  0
LINE
  5
15A
330
B9
100
AcDbEntity
  8
$DDT_AUDIT_GENERATED_(FC)
  6
Continuous
 62
     7
100
AcDbLine
 10
191.8305475997
 20
1374.405587492
 30
0.0
 11
191.8305475997
 21
1374.3599353181
 31
0.0
  0
ARC
  5
15B
330
B9
100
AcDbEntity
  8
$DDT_AUDIT_GENERATED_(FC)
  6
Continuous
 62
     7
100
AcDbCircle
 10
192.0305475997
 20
1374.405587492
 30
0.0
 40
0.1999999999999988
100
AcDbArc
 50
90.0
 51
180.0
  0
ARC
  5
15C
330
B9
100
AcDbEntity
  8
$DDT_AUDIT_GENERATED_(FC)
  6
Continuous
 62
     7
100
AcDbCircle
 10
193.1305475997
 20
1374.405587492
 30
0.0
 40
0.1999999999999988
100
AcDbArc
 50
0.0
 51
90.0
  0
LINE
  5
15D
330
B9
100
AcDbEntity
  8
$DDT_AUDIT_GENERATED_(FC)
  6
Continuous
 62
     7
100
AcDbLine
 10
152.0805475997
 20
1374.505587492
 30
0.0
 11
151.0805475997
 21
1374.505587492
 31
0.0
  0
LINE
  5
15E
330
B9
100
AcDbEntity
  8
$DDT_AUDIT_GENERATED_(FC)
  6
Continuous
 62
     7
100
AcDbLine
 10
134.3305475997
 20
1374.3586576675
 30
0.0
 11
151.0805475997
 21
1374.505587492
 31
0.0
  0
LINE
  5
15F
330
B9
100
AcDbEntity
  8
$DDT_AUDIT_GENERATED_(FC)
  6
Continuous
 62
     7
100
AcDbLine
 10
153.4073425189
 20
1374.605587492
 30
0.0
 11
152.2537526804
 21
1374.605587492
 31
0.0
  0
ARC
  5
160
330
B9
100
AcDbEntity
  8
$DDT_AUDIT_GENERATED_(FC)
  6
Continuous
 62
     7
100
AcDbCircle
 10
152.2537526804
 20
1374.405587492
 30
0.0
 40
0.1999999999999988
100
AcDbArc
 50
90.0
 51
150.0
  0
ARC
  5
161
330
B9
100
AcDbEntity
  8
$DDT_AUDIT_GENERATED_(FC)
  6
Continuous
 62
     7
100
AcDbCircle
 10
153.4073425189
 20
1374.405587492
 30
0.0
 40
0.1999999999999994
100
AcDbArc
 50
30.0
 51
90.0
  0
LINE
  5
162
330
B9
100
AcDbEntity
  8
$DDT_AUDIT_GENERATED_(FC)
  6
Continuous
 62
     7
100
AcDbLine
 10
134.3305475997
 20
1374.405587492
 30
0.0
 11
134.3305475997
 21
1374.3586576675
 31
0.0
  0
LINE
  5
163
330
B9
100
AcDbEntity
  8
$DDT_AUDIT_GENERATED_(FC)
  6
Continuous
 62
     7
100
AcDbLine
 10
134.1305475997
 20
1374.605587492
 30
0.0
 11
133.0305475997
 21
1374.605587492
 31
0.0
  0
LINE
  5
164
330
B9
100
AcDbEntity
  8
$DDT_AUDIT_GENERATED_(FC)
  6
Continuous
 62
     7
100
AcDbLine
 10
132.8305475997
 20
1374.405587492
 30
0.0
 11
132.8305475997
 21
1374.3454997727
 31
0.0
  0
ARC
  5
165
330
B9
100
AcDbEntity
  8
$DDT_AUDIT_GENERATED_(FC)
  6
Continuous
 62
     7
100
AcDbCircle
 10
133.0305475997
 20
1374.405587492
 30
0.0
 40
0.1999999999999988
100
AcDbArc
 50
90.0
 51
180.0
  0
ARC
  5
166
330
B9
100
AcDbEntity
  8
$DDT_AUDIT_GENERATED_(FC)
  6
Continuous
 62
     7
100
AcDbCircle
 10
134.1305475997
 20
1374.405587492
 30
0.0
 40
0.1999999999999988
100
AcDbArc
 50
0.0
 51
90.0
  0
LINE
  5
167
330
B9
100
AcDbEntity
  8
$DDT_AUDIT_GENERATED_(FC)
  6
Continuous
 62
     7
100
AcDbLine
 10
198.2805475997
 20
1350.255587492
 30
0.0
 11
198.2805475997
 21
1351.255587492
 31
0.0
  0
LINE
  5
168
330
B9
100
AcDbEntity
  8
$DDT_AUDIT_GENERATED_(FC)
  6
Continuous
 62
     7
100
AcDbLine
 10
198.1352113741
 20
1368.005587492
 30
0.0
 11
198.2805475997
 21
1351.255587492
 31
0.0
  0
LINE
  5
169
330
B9
100
AcDbEntity
  8
$DDT_AUDIT_GENERATED_(FC)
  6
Continuous
 62
     7
100
AcDbLine
 10
198.3505475997
 20
1348.9075743336
 30
0.0
 11
198.3505475997
 21
1350.1036006505
 31
0.0
  0
ARC
  5
16A
330
B9
100
AcDbEntity
  8
$DDT_AUDIT_GENERATED_(FC)
  6
Continuous
 62
     7
100
AcDbCircle
 10
198.1505475997
 20
1350.1036006505
 30
0.0
 40
0.1999999999999988
100
AcDbArc
 50
0.0
 51
49.4583981264
  0
ARC
  5
16B
330
B9
100
AcDbEntity
  8
$DDT_AUDIT_GENERATED_(FC)
  6
Continuous
 62
     7
100
AcDbCircle
 10
198.1505475997
 20
1348.9075743336
 30
0.0
 40
0.2000000000000006
100
AcDbArc
 50
310.5416018735
 51
0.0
  0
LINE
  5
16C
330
B9
100
AcDbEntity
  8
$DDT_AUDIT_GENERATED_(FC)
  6
Continuous
 62
     7
100
AcDbLine
 10
198.1505475997
 20
1368.005587492
 30
0.0
 11
198.1352113741
 21
1368.005587492
 31
0.0
  0
LINE
  5
16D
330
B9
100
AcDbEntity
  8
$DDT_AUDIT_GENERATED_(FC)
  6
Continuous
 62
     7
100
AcDbLine
 10
198.3505475997
 20
1368.205587492
 30
0.0
 11
198.3505475997
 21
1369.305587492
 31
0.0
  0
LINE
  5
16E
330
B9
100
AcDbEntity
  8
$DDT_AUDIT_GENERATED_(FC)
  6
Continuous
 62
     7
100
AcDbLine
 10
198.1505475997
 20
1369.505587492
 30
0.0
 11
198.1221961897
 21
1369.505587492
 31
0.0
  0
ARC
  5
16F
330
B9
100
AcDbEntity
  8
$DDT_AUDIT_GENERATED_(FC)
  6
Continuous
 62
     7
100
AcDbCircle
 10
198.1505475997
 20
1369.305587492
 30
0.0
 40
0.1999999999999988
100
AcDbArc
 50
0.0
 51
90.0
  0
ARC
  5
170
330
B9
100
AcDbEntity
  8
$DDT_AUDIT_GENERATED_(FC)
  6
Continuous
 62
     7
100
AcDbCircle
 10
198.1505475997
 20
1368.205587492
 30
0.0
 40
0.1999999999999988
100
AcDbArc
 50
270.0
 51
0.0
  0
LINE
  5
171
330
B9
100
AcDbEntity
  8
$DDT_AUDIT_GENERATED_(FC)
  6
Continuous
 62
     7
100
AcDbLine
 10
198.2805475997
 20
1329.755587492
 30
0.0
 11
198.2805475997
 21
1335.9893016639
 31
0.0
  0
LINE
  5
172
330
B9
100
AcDbEntity
  8
$DDT_AUDIT_GENERATED_(FC)
  6
Continuous
 62
     7
100
AcDbLine
 10
198.1221961897
 20
1309.005587492
 30
0.0
 11
198.1018651738
 21
1306.6624379088
 31
0.0
  0
LINE
  5
173
330
B9
100
AcDbEntity
  8
$DDT_AUDIT_GENERATED_(FC)
  6
Continuous
 62
     7
100
AcDbLine
 10
198.3505475997
 20
1328.4075743336
 30
0.0
 11
198.3505475997
 21
1329.6036006505
 31
0.0
  0
ARC
  5
174
330
B9
100
AcDbEntity
  8
$DDT_AUDIT_GENERATED_(FC)
  6
Continuous
 62
     7
100
AcDbCircle
 10
198.1505475997
 20
1329.6036006505
 30
0.0
 40
0.1999999999999988
100
AcDbArc
 50
0.0
 51
49.4583981265
  0
ARC
  5
175
330
B9
100
AcDbEntity
  8
$DDT_AUDIT_GENERATED_(FC)
  6
Continuous
 62
     7
100
AcDbCircle
 10
198.1505475997
 20
1328.4075743336
 30
0.0
 40
0.2
100
AcDbArc
 50
310.5416018734
 51
0.0
  0
LINE
  5
176
330
B9
100
AcDbEntity
  8
$DDT_AUDIT_GENERATED_(FC)
  6
Continuous
 62
     7
100
AcDbLine
 10
198.1505475997
 20
1309.005587492
 30
0.0
 11
198.1221961897
 21
1309.005587492
 31
0.0
  0
LINE
  5
177
330
B9
100
AcDbEntity
  8
$DDT_AUDIT_GENERATED_(FC)
  6
Continuous
 62
     7
100
AcDbLine
 10
198.3505475997
 20
1309.205587492
 30
0.0
 11
198.3505475997
 21
1310.305587492
 31
0.0
  0
LINE
  5
178
330
B9
100
AcDbEntity
  8
$DDT_AUDIT_GENERATED_(FC)
  6
Continuous
 62
     7
100
AcDbLine
 10
198.1505475997
 20
1310.505587492
 30
0.0
 11
198.1352113741
 21
1310.505587492
 31
0.0
  0
ARC
  5
179
330
B9
100
AcDbEntity
  8
$DDT_AUDIT_GENERATED_(FC)
  6
Continuous
 62
     7
100
AcDbCircle
 10
198.1505475997
 20
1310.305587492
 30
0.0
 40
0.1999999999999988
100
AcDbArc
 50
0.0
 51
90.0
  0
ARC
  5
17A
330
B9
100
AcDbEntity
  8
$DDT_AUDIT_GENERATED_(FC)
  6
Continuous
 62
     7
100
AcDbCircle
 10
198.1505475997
 20
1309.205587492
 30
0.0
 40
0.1999999999999988
100
AcDbArc
 50
270.0
 51
0.0
  0
LINE
  5
17C
330
B9
100
AcDbEntity
  8
$DDT_AUDIT_GENERATED_(17B)
  6
Continuous
 62
     7
100
AcDbLine
 10
100.3305475997
 20
1303.975587492
 30
0.0
 11
106.0805475997
 21
1303.975587492
 31
0.0
  0
ARC
  5
17D
330
B9
100
AcDbEntity
  8
$DDT_AUDIT_GENERATED_(17B)
  6
Continuous
 62
     7
100
AcDbCircle
 10
100.3305475997
 20
1306.475587492
 30
0.0
 40
2.500000000000002
100
AcDbArc
 50
180.0
 51
270.0
  0
LINE
  5
17E
330
B9
100
AcDbEntity
  8
$DDT_AUDIT_GENERATED_(17B)
  6
Continuous
 62
     7
100
AcDbLine
 10
97.8305475997
 20
1372.035587492
 30
0.0
 11
97.8305475997
 21
1350.255587492
 31
0.0
  0
ARC
  5
17F
330
B9
100
AcDbEntity
  8
$DDT_AUDIT_GENERATED_(17B)
  6
Continuous
 62
     7
100
AcDbCircle
 10
100.3305475997
 20
1372.035587492
 30
0.0
 40
2.500000000000002
100
AcDbArc
 50
90.0
 51
180.0
  0
LINE
  5
180
330
B9
100
AcDbEntity
  8
$DDT_AUDIT_GENERATED_(17B)
  6
Continuous
 62
     7
100
AcDbLine
 10
127.1305475997
 20
1374.535587492
 30
0.0
 11
122.8805475997
 21
1374.535587492
 31
0.0
  0
ARC
  5
181
330
B9
100
AcDbEntity
  8
$DDT_AUDIT_GENERATED_(17B)
  6
Continuous
 62
     7
100
AcDbCircle
 10
127.1305475997
 20
1374.035587492
 30
0.0
 40
0.5000000000000004
100
AcDbArc
 50
0.0
 51
90.0
  0
LINE
  5
182
330
B9
100
AcDbEntity
  8
$DDT_AUDIT_GENERATED_(17B)
  6
Continuous
 62
     7
100
AcDbLine
 10
127.6305475997
 20
1304.475587492
 30
0.0
 11
127.6305475997
 21
1305.4554351872
 31
0.0
  0
ARC
  5
183
330
B9
100
AcDbEntity
  8
$DDT_AUDIT_GENERATED_(17B)
  6
Continuous
 62
     7
100
AcDbCircle
 10
127.1305475997
 20
1304.475587492
 30
0.0
 40
0.5000000000000004
100
AcDbArc
 50
270.0
 51
0.0
  0
LINE
  5
184
330
B9
100
AcDbEntity
  8
$DDT_AUDIT_GENERATED_(17B)
  6
Continuous
 62
     7
100
AcDbLine
 10
127.6305475997
 20
1373.0557397969
 30
0.0
 11
127.6305475997
 21
1374.035587492
 31
0.0
  0
LINE
  5
185
330
B9
100
AcDbEntity
  8
$DDT_AUDIT_GENERATED_(17B)
  6
Continuous
 62
     7
100
AcDbLine
 10
97.8305475997
 20
1341.5256786221
 30
0.0
 11
97.8305475997
 21
1341.4918068836
 31
0.0
  0
LINE
  5
186
330
B9
100
AcDbEntity
  8
$DDT_AUDIT_GENERATED_(17B)
  6
Continuous
 62
     7
100
AcDbLine
 10
97.8305475997
 20
1341.5256786221
 30
0.0
 11
97.8305475997
 21
1342.5218733202
 31
0.0
  0
LINE
  5
187
330
B9
100
AcDbEntity
  8
$DDT_AUDIT_GENERATED_(17B)
  6
Continuous
 62
     7
100
AcDbLine
 10
97.8305475997
 20
1335.9893016639
 30
0.0
 11
97.8305475997
 21
1329.755587492
 31
0.0
  0
LINE
  5
188
330
B9
100
AcDbEntity
  8
$DDT_AUDIT_GENERATED_(17B)
  6
Continuous
 62
     7
100
AcDbLine
 10
97.8305475997
 20
1335.9893016639
 30
0.0
 11
97.8305475997
 21
1336.985496362
 31
0.0
  0
LINE
  5
189
330
B9
100
AcDbEntity
  8
$DDT_AUDIT_GENERATED_(17B)
  6
Continuous
 62
     7
100
AcDbLine
 10
98.0305475997
 20
1341.4743091509
 30
0.0
 11
98.2305475997
 21
1341.4743091509
 31
0.0
  0
ELLIPSE
  5
18A
330
B9
100
AcDbEntity
  8
$DDT_AUDIT_GENERATED_(17B)
  6
Continuous
 62
     7
100
AcDbEllipse
 10
98.0305475997
 20
1341.4918068836
 30
0.0
 11
-0.2000000000000057
 21
-4.532935709607144E-16
 31
0.0
210
0.0
220
0.0
230
1.0
 40
0.0874886635
 41
0.0
 42
1.570796326794896
  0
LINE
  5
18B
330
B9
100
AcDbEntity
  8
$DDT_AUDIT_GENERATED_(17B)
  6
Continuous
 62
     7
100
AcDbLine
 10
97.8305475997
 20
1337.0193681005
 30
0.0
 11
97.8305475997
 21
1336.985496362
 31
0.0
  0
ELLIPSE
  5
18C
330
B9
100
AcDbEntity
  8
$DDT_AUDIT_GENERATED_(17B)
  6
Continuous
 62
     7
100
AcDbEllipse
 10
98.0305475997
 20
1337.0193681005
 30
0.0
 11
0.1999999999999919
 21
4.532935709607130E-16
 31
0.0
210
0.0
220
0.0
230
1.0
 40
0.0874886635
 41
1.570796326794825
 42
3.141592653589793
  0
LINE
  5
18D
330
B9
100
AcDbEntity
  8
$DDT_AUDIT_GENERATED_(17B)
  6
Continuous
 62
     7
100
AcDbLine
 10
98.2305475997
 20
1337.0368658332
 30
0.0
 11
98.0305475997
 21
1337.0368658332
 31
0.0
  0
ELLIPSE
  5
18E
330
B9
100
AcDbEntity
  8
$DDT_AUDIT_GENERATED_(17B)
  6
Continuous
 62
     7
100
AcDbEllipse
 10
98.2305475997
 20
1337.0543635659
 30
0.0
 11
0.1999999999999988
 21
1.961270196651199E-17
 31
0.0
210
0.0
220
0.0
230
1.0
 40
0.0874886635
 41
4.71238898038469
 42
5.235987755982877
  0
ELLIPSE
  5
18F
330
B9
100
AcDbEntity
  8
$DDT_AUDIT_GENERATED_(17B)
  6
Continuous
 62
     7
100
AcDbEllipse
 10
98.2305475997
 20
1341.4568114182
 30
0.0
 11
-0.2000000000000057
 21
-4.532935709607144E-16
 31
0.0
210
0.0
220
0.0
230
1.0
 40
0.0874886635
 41
4.188790204786522
 42
4.71238898038469
  0
LINE
  5
190
330
B9
100
AcDbEntity
  8
$DDT_AUDIT_GENERATED_(17B)
  6
Continuous
 62
     7
100
AcDbLine
 10
127.7340380809
 20
1308.7521574056
 30
0.0
 11
127.6305475997
 21
1308.7503509726
 31
0.0
  0
LINE
  5
191
330
B9
100
AcDbEntity
  8
$DDT_AUDIT_GENERATED_(17B)
  6
Continuous
 62
     7
100
AcDbLine
 10
127.6305475997
 20
1310.7608240115
 30
0.0
 11
127.7340380809
 21
1310.7590175785
 31
0.0
  0
ARC
  5
192
330
B9
100
AcDbEntity
  8
$DDT_AUDIT_GENERATED_(17B)
  6
Continuous
 62
     7
100
AcDbCircle
 10
127.7305475997
 20
1308.9521269447
 30
0.0
 40
0.1999999999999988
100
AcDbArc
 50
271.0
 51
0.0
  0
ARC
  5
193
330
B9
100
AcDbEntity
  8
$DDT_AUDIT_GENERATED_(17B)
  6
Continuous
 62
     7
100
AcDbCircle
 10
127.7305475997
 20
1310.5590480394
 30
0.0
 40
0.2000000000000009
100
AcDbArc
 50
0.0
 51
89.0
  0
LINE
  5
194
330
B9
100
AcDbEntity
  8
$DDT_AUDIT_GENERATED_(17B)
  6
Continuous
 62
     7
100
AcDbLine
 10
127.9305475997
 20
1310.5590480394
 30
0.0
 11
127.9305475997
 21
1308.9521269447
 31
0.0
  0
LINE
  5
195
330
B9
100
AcDbEntity
  8
$DDT_AUDIT_GENERATED_(17B)
  6
Continuous
 62
     7
100
AcDbLine
 10
127.6305475997
 20
1369.7608240115
 30
0.0
 11
127.7340380809
 21
1369.7590175785
 31
0.0
  0
ARC
  5
196
330
B9
100
AcDbEntity
  8
$DDT_AUDIT_GENERATED_(17B)
  6
Continuous
 62
     7
100
AcDbCircle
 10
127.7305475997
 20
1369.5590480394
 30
0.0
 40
0.2000000000000009
100
AcDbArc
 50
0.0
 51
89.0
  0
LINE
  5
197
330
B9
100
AcDbEntity
  8
$DDT_AUDIT_GENERATED_(17B)
  6
Continuous
 62
     7
100
AcDbLine
 10
127.9305475997
 20
1369.5590480394
 30
0.0
 11
127.9305475997
 21
1367.9521269447
 31
0.0
  0
ARC
  5
198
330
B9
100
AcDbEntity
  8
$DDT_AUDIT_GENERATED_(17B)
  6
Continuous
 62
     7
100
AcDbCircle
 10
127.7305475997
 20
1367.9521269447
 30
0.0
 40
0.1999999999999988
100
AcDbArc
 50
271.0
 51
0.0
  0
LINE
  5
199
330
B9
100
AcDbEntity
  8
$DDT_AUDIT_GENERATED_(17B)
  6
Continuous
 62
     7
100
AcDbLine
 10
127.7340380809
 20
1367.7521574056
 30
0.0
 11
127.6305475997
 21
1367.7503509726
 31
0.0
  0
LINE
  5
19A
330
B9
100
AcDbEntity
  8
$DDT_AUDIT_GENERATED_(17B)
  6
Continuous
 62
     7
100
AcDbLine
 10
127.7340380809
 20
1351.2521574056
 30
0.0
 11
127.6305475997
 21
1351.2503509726
 31
0.0
  0
ARC
  5
19B
330
B9
100
AcDbEntity
  8
$DDT_AUDIT_GENERATED_(17B)
  6
Continuous
 62
     7
100
AcDbCircle
 10
127.7305475997
 20
1351.4521269447
 30
0.0
 40
0.1999999999999988
100
AcDbArc
 50
271.0
 51
0.0
  0
LINE
  5
19C
330
B9
100
AcDbEntity
  8
$DDT_AUDIT_GENERATED_(17B)
  6
Continuous
 62
     7
100
AcDbLine
 10
127.9305475997
 20
1353.0590480394
 30
0.0
 11
127.9305475997
 21
1351.4521269447
 31
0.0
  0
ARC
  5
19D
330
B9
100
AcDbEntity
  8
$DDT_AUDIT_GENERATED_(17B)
  6
Continuous
 62
     7
100
AcDbCircle
 10
127.7305475997
 20
1353.0590480394
 30
0.0
 40
0.1999999999999992
100
AcDbArc
 50
0.0
 51
89.0
  0
LINE
  5
19E
330
B9
100
AcDbEntity
  8
$DDT_AUDIT_GENERATED_(17B)
  6
Continuous
 62
     7
100
AcDbLine
 10
127.6305475997
 20
1353.2608240115
 30
0.0
 11
127.7340380809
 21
1353.2590175785
 31
0.0
  0
LINE
  5
19F
330
B9
100
AcDbEntity
  8
$DDT_AUDIT_GENERATED_(17B)
  6
Continuous
 62
     7
100
AcDbLine
 10
127.7340380809
 20
1325.2521574056
 30
0.0
 11
127.6305475997
 21
1325.2503509726
 31
0.0
  0
ARC
  5
1A0
330
B9
100
AcDbEntity
  8
$DDT_AUDIT_GENERATED_(17B)
  6
Continuous
 62
     7
100
AcDbCircle
 10
127.7305475997
 20
1325.4521269447
 30
0.0
 40
0.1999999999999988
100
AcDbArc
 50
271.0
 51
0.0
  0
LINE
  5
1A1
330
B9
100
AcDbEntity
  8
$DDT_AUDIT_GENERATED_(17B)
  6
Continuous
 62
     7
100
AcDbLine
 10
127.9305475997
 20
1327.0590480394
 30
0.0
 11
127.9305475997
 21
1325.4521269447
 31
0.0
  0
ARC
  5
1A2
330
B9
100
AcDbEntity
  8
$DDT_AUDIT_GENERATED_(17B)
  6
Continuous
 62
     7
100
AcDbCircle
 10
127.7305475997
 20
1327.0590480394
 30
0.0
 40
0.1999999999999992
100
AcDbArc
 50
0.0
 51
89.0
  0
LINE
  5
1A3
330
B9
100
AcDbEntity
  8
$DDT_AUDIT_GENERATED_(17B)
  6
Continuous
 62
     7
100
AcDbLine
 10
127.6305475997
 20
1327.2608240115
 30
0.0
 11
127.7340380809
 21
1327.2590175785
 31
0.0
  0
LINE
  5
1A4
330
B9
100
AcDbEntity
  8
$DDT_AUDIT_GENERATED_(17B)
  6
Continuous
 62
     7
100
AcDbLine
 10
121.7805475997
 20
1374.535587492
 30
0.0
 11
107.1805475997
 21
1374.535587492
 31
0.0
  0
LINE
  5
1A5
330
B9
100
AcDbEntity
  8
$DDT_AUDIT_GENERATED_(17B)
  6
Continuous
 62
     7
100
AcDbLine
 10
106.0805475997
 20
1374.535587492
 30
0.0
 11
100.3305475997
 21
1374.535587492
 31
0.0
  0
LINE
  5
1A6
330
B9
100
AcDbEntity
  8
$DDT_AUDIT_GENERATED_(17B)
  6
Continuous
 62
     7
100
AcDbLine
 10
107.0285607581
 20
1374.605587492
 30
0.0
 11
106.2325344412
 21
1374.605587492
 31
0.0
  0
ARC
  5
1A7
330
B9
100
AcDbEntity
  8
$DDT_AUDIT_GENERATED_(17B)
  6
Continuous
 62
     7
100
AcDbCircle
 10
106.2325344412
 20
1374.405587492
 30
0.0
 40
0.1999999999999988
100
AcDbArc
 50
90.0
 51
139.4583981265
  0
ARC
  5
1A8
330
B9
100
AcDbEntity
  8
$DDT_AUDIT_GENERATED_(17B)
  6
Continuous
 62
     7
100
AcDbCircle
 10
107.0285607581
 20
1374.405587492
 30
0.0
 40
0.2000000000000006
100
AcDbArc
 50
40.5416018735
 51
90.0
  0
LINE
  5
1A9
330
B9
100
AcDbEntity
  8
$DDT_AUDIT_GENERATED_(17B)
  6
Continuous
 62
     7
100
AcDbLine
 10
122.7285607581
 20
1374.605587492
 30
0.0
 11
121.9325344412
 21
1374.605587492
 31
0.0
  0
ARC
  5
1AA
330
B9
100
AcDbEntity
  8
$DDT_AUDIT_GENERATED_(17B)
  6
Continuous
 62
     7
100
AcDbCircle
 10
121.9325344412
 20
1374.405587492
 30
0.0
 40
0.1999999999999988
100
AcDbArc
 50
90.0
 51
139.4583981265
  0
ARC
  5
1AB
330
B9
100
AcDbEntity
  8
$DDT_AUDIT_GENERATED_(17B)
  6
Continuous
 62
     7
100
AcDbCircle
 10
122.7285607581
 20
1374.405587492
 30
0.0
 40
0.2000000000000006
100
AcDbArc
 50
40.5416018735
 51
90.0
  0
LINE
  5
1AC
330
B9
100
AcDbEntity
  8
$DDT_AUDIT_GENERATED_(17B)
  6
Continuous
 62
     7
100
AcDbLine
 10
122.8805475997
 20
1303.975587492
 30
0.0
 11
127.1305475997
 21
1303.975587492
 31
0.0
  0
LINE
  5
1AD
330
B9
100
AcDbEntity
  8
$DDT_AUDIT_GENERATED_(17B)
  6
Continuous
 62
     7
100
AcDbLine
 10
107.1805475997
 20
1303.975587492
 30
0.0
 11
121.7805475997
 21
1303.975587492
 31
0.0
  0
LINE
  5
1AE
330
B9
100
AcDbEntity
  8
$DDT_AUDIT_GENERATED_(17B)
  6
Continuous
 62
     7
100
AcDbLine
 10
106.2325344412
 20
1303.905587492
 30
0.0
 11
107.0285607581
 21
1303.905587492
 31
0.0
  0
ARC
  5
1AF
330
B9
100
AcDbEntity
  8
$DDT_AUDIT_GENERATED_(17B)
  6
Continuous
 62
     7
100
AcDbCircle
 10
107.0285607581
 20
1304.105587492
 30
0.0
 40
0.2000000000000057
100
AcDbArc
 50
270.0
 51
319.4583981265
  0
ARC
  5
1B0
330
B9
100
AcDbEntity
  8
$DDT_AUDIT_GENERATED_(17B)
  6
Continuous
 62
     7
100
AcDbCircle
 10
106.2325344412
 20
1304.105587492
 30
0.0
 40
0.2000000000000014
100
AcDbArc
 50
220.5416018735
 51
270.0
  0
LINE
  5
1B1
330
B9
100
AcDbEntity
  8
$DDT_AUDIT_GENERATED_(17B)
  6
Continuous
 62
     7
100
AcDbLine
 10
121.9325344412
 20
1303.905587492
 30
0.0
 11
122.7285607581
 21
1303.905587492
 31
0.0
  0
ARC
  5
1B2
330
B9
100
AcDbEntity
  8
$DDT_AUDIT_GENERATED_(17B)
  6
Continuous
 62
     7
100
AcDbCircle
 10
122.7285607581
 20
1304.105587492
 30
0.0
 40
0.1999999999999988
100
AcDbArc
 50
270.0
 51
319.4583981265
  0
ARC
  5
1B3
330
B9
100
AcDbEntity
  8
$DDT_AUDIT_GENERATED_(17B)
  6
Continuous
 62
     7
100
AcDbCircle
 10
121.9325344412
 20
1304.105587492
 30
0.0
 40
0.2000000000000006
100
AcDbArc
 50
220.5416018735
 51
270.0
  0
LINE
  5
1B4
330
B9
100
AcDbEntity
  8
$DDT_AUDIT_GENERATED_(17B)
  6
Continuous
 62
     7
100
AcDbLine
 10
97.8305475997
 20
1328.255587492
 30
0.0
 11
97.8305475997
 21
1306.475587492
 31
0.0
  0
LINE
  5
1B5
330
B9
100
AcDbEntity
  8
$DDT_AUDIT_GENERATED_(17B)
  6
Continuous
 62
     7
100
AcDbLine
 10
97.7605475997
 20
1329.6036006505
 30
0.0
 11
97.7605475997
 21
1328.4075743336
 31
0.0
  0
ARC
  5
1B6
330
B9
100
AcDbEntity
  8
$DDT_AUDIT_GENERATED_(17B)
  6
Continuous
 62
     7
100
AcDbCircle
 10
97.9605475997
 20
1328.4075743336
 30
0.0
 40
0.2000000000000057
100
AcDbArc
 50
180.0
 51
229.4583981266
  0
ARC
  5
1B7
330
B9
100
AcDbEntity
  8
$DDT_AUDIT_GENERATED_(17B)
  6
Continuous
 62
     7
100
AcDbCircle
 10
97.9605475997
 20
1329.6036006505
 30
0.0
 40
0.2000000000000019
100
AcDbArc
 50
130.5416018735
 51
180.0
  0
LINE
  5
1B8
330
B9
100
AcDbEntity
  8
$DDT_AUDIT_GENERATED_(17B)
  6
Continuous
 62
     7
100
AcDbLine
 10
97.8305475997
 20
1348.755587492
 30
0.0
 11
97.8305475997
 21
1342.5218733202
 31
0.0
  0
LINE
  5
1B9
330
B9
100
AcDbEntity
  8
$DDT_AUDIT_GENERATED_(17B)
  6
Continuous
 62
     7
100
AcDbLine
 10
97.7605475997
 20
1350.1036006505
 30
0.0
 11
97.7605475997
 21
1348.9075743336
 31
0.0
  0
ARC
  5
1BA
330
B9
100
AcDbEntity
  8
$DDT_AUDIT_GENERATED_(17B)
  6
Continuous
 62
     7
100
AcDbCircle
 10
97.9605475997
 20
1350.1036006505
 30
0.0
 40
0.2000000000000006
100
AcDbArc
 50
130.5416018736
 51
180.0
  0
ARC
  5
1BB
330
B9
100
AcDbEntity
  8
$DDT_AUDIT_GENERATED_(17B)
  6
Continuous
 62
     7
100
AcDbCircle
 10
97.9605475997
 20
1348.9075743336
 30
0.0
 40
0.2000000000000057
100
AcDbArc
 50
180.0
 51
229.4583981265
  0
ARC
  5
1BD
330
B9
100
AcDbEntity
  8
$DDT_AUDIT_GENERATED_(1BC)
  6
Continuous
 62
     7
100
AcDbCircle
 10
129.2871695732
 20
1331.6953735619
 30
0.0
 40
2.000000000000001
100
AcDbArc
 50
237.638246322
 51
239.7807040472
  0
ARC
  5
1BE
330
B9
100
AcDbEntity
  8
$DDT_AUDIT_GENERATED_(1BC)
  6
Continuous
 62
     7
100
AcDbCircle
 10
129.2871695732
 20
1346.8158014222
 30
0.0
 40
1.999999999999998
100
AcDbArc
 50
120.2192959524
 51
122.3617536777
  0
ARC
  5
1BF
330
B9
100
AcDbEntity
  8
$DDT_AUDIT_GENERATED_(1BC)
  6
Continuous
 62
     7
100
AcDbCircle
 10
118.0805475997
 20
1339.255587492
 30
0.0
 40
13.75000000000002
100
AcDbArc
 50
313.9910068718
 51
317.6397375278
  0
ARC
  5
1C0
330
B9
100
AcDbEntity
  8
$DDT_AUDIT_GENERATED_(1BC)
  6
Continuous
 62
     7
100
AcDbCircle
 10
118.0805475997
 20
1339.255587492
 30
0.0
 40
13.72207189611486
100
AcDbArc
 50
314.1036897453
 51
317.618323372
  0
ARC
  5
1C1
330
B9
100
AcDbEntity
  8
$DDT_AUDIT_GENERATED_(1BC)
  6
Continuous
 62
     7
100
AcDbCircle
 10
118.0805475997
 20
1339.255587492
 30
0.0
 40
13.75
100
AcDbArc
 50
42.3602624722
 51
46.0089931282
  0
ARC
  5
1C2
330
B9
100
AcDbEntity
  8
$DDT_AUDIT_GENERATED_(1BC)
  6
Continuous
 62
     7
100
AcDbCircle
 10
118.0805475997
 20
1339.255587492
 30
0.0
 40
13.72207189611485
100
AcDbArc
 50
42.381676628
 51
45.8963102547
  0
ARC
  5
1C3
330
B9
100
AcDbEntity
  8
$DDT_AUDIT_GENERATED_(1BC)
  6
Continuous
 62
     7
100
AcDbCircle
 10
118.0805475997
 20
1339.255587492
 30
0.0
 40
12.79999999999998
100
AcDbArc
 50
37.1672854613
 51
41.7468700231
  0
ARC
  5
1C4
330
B9
100
AcDbEntity
  8
$DDT_AUDIT_GENERATED_(1BC)
  6
Continuous
 62
     7
100
AcDbCircle
 10
118.0805475997
 20
1339.255587492
 30
0.0
 40
12.79999999999998
100
AcDbArc
 50
318.2531299769
 51
322.8327145387
  0
LINE
  5
1C6
330
B9
100
AcDbEntity
  8
490147031_RAHMEN
  6
Continuous
 62
     7
100
AcDbLine
 10
55.5796337706
 20
1417.255587492
 30
0.0
 11
240.5814614287
 21
1417.255587492
 31
0.0
  0
ELLIPSE
  5
1C7
330
B9
100
AcDbEntity
  8
490147031_RAHMEN
  6
Continuous
 62
     7
100
AcDbEllipse
 10
55.5814615679
 20
1411.2546735238
 30
0.0
 11
4.243933135017486
 21
-4.243933135017486
 31
0.0
210
0.0
220
0.0
230
0.9999999999999998
 40
0.9996954599
 41
2.356346783439926
 42
3.926838523739685
  0
LINE
  5
1C8
330
B9
100
AcDbEntity
  8
490147031_RAHMEN
  6
Continuous
 62
     7
100
AcDbLine
 10
246.5805475997
 20
1411.2565013211
 30
0.0
 11
246.5805475997
 21
1267.254673663
 31
0.0
  0
ELLIPSE
  5
1C9
330
B9
100
AcDbEntity
  8
490147031_RAHMEN
  6
Continuous
 62
     7
100
AcDbEllipse
 10
240.5796336314
 20
1411.2546735238
 30
0.0
 11
-4.243933135017485
 21
-4.243933135017486
 31
0.0
210
0.0
220
0.0
230
0.9999999999999999
 40
0.9996954599
 41
2.356346783439899
 42
3.926838523739659
  0
LINE
  5
1CA
330
B9
100
AcDbEntity
  8
490147031_RAHMEN
  6
Continuous
 62
     7
100
AcDbLine
 10
240.5814614287
 20
1261.255587492
 30
0.0
 11
55.5796337706
 21
1261.255587492
 31
0.0
  0
ELLIPSE
  5
1CB
330
B9
100
AcDbEntity
  8
490147031_RAHMEN
  6
Continuous
 62
     7
100
AcDbEllipse
 10
240.5796336314
 20
1267.2565014603
 30
0.0
 11
-4.243933135017486
 21
4.243933135017485
 31
0.0
210
0.0
220
0.0
230
0.9999999999999999
 40
0.9996954599
 41
2.356346783439927
 42
3.926838523739683
  0
LINE
  5
1CC
330
B9
100
AcDbEntity
  8
490147031_RAHMEN
  6
Continuous
 62
     7
100
AcDbLine
 10
49.5805475997
 20
1267.254673663
 30
0.0
 11
49.5805475997
 21
1411.2565013211
 31
0.0
  0
ELLIPSE
  5
1CD
330
B9
100
AcDbEntity
  8
490147031_RAHMEN
  6
Continuous
 62
     7
100
AcDbEllipse
 10
55.5814615679
 20
1267.2565014603
 30
0.0
 11
4.243933135017486
 21
4.243933135017486
 31
0.0
210
0.0
220
0.0
230
0.9999999999999998
 40
0.9996954599
 41
2.356346783439901
 42
3.92683852373966
  0
LINE
  5
1CE
330
B9
100
AcDbEntity
  8
490147031_RAHMEN
  6
Continuous
 62
     7
100
AcDbLine
 10
137.089376133
 20
1303.7555874673
 30
0.0
 11
151.0717190663
 21
1303.7555874673
 31
0.0
  0
LINE
  5
1CF
330
B9
100
AcDbEntity
  8
490147031_RAHMEN
  6
Continuous
 62
     7
100
AcDbLine
 10
151.0717190663
 20
1303.7555874673
 30
0.0
 11
151.0783702617
 21
1303.7555089528
 31
0.0
  0
LINE
  5
1D0
330
B9
100
AcDbEntity
  8
490147031_RAHMEN
  6
Continuous
 62
     7
100
AcDbLine
 10
137.0827249376
 20
1303.7555089528
 30
0.0
 11
137.089376133
 21
1303.7555874673
 31
0.0
  0
ELLIPSE
  5
1D1
330
B9
100
AcDbEntity
  8
490147031_RAHMEN
  6
Continuous
 62
     7
100
AcDbEllipse
 10
151.5633919871
 20
1303.7599356702
 30
0.0
 11
-0.7000000000000057
 21
-6.864445688279296E-17
 31
0.0
210
0.0
220
0.0
230
1.0
 40
0.0087268678
 41
0.7920468062636097
 42
1.570796326794897
  0
LINE
  5
1D2
330
B9
100
AcDbEntity
  8
490147031_RAHMEN
  6
Continuous
 62
     7
100
AcDbLine
 10
197.2725767497
 20
1303.7538268627
 30
0.0
 11
151.5633919871
 21
1303.7538268627
 31
0.0
  0
LINE
  5
1D3
330
B9
100
AcDbEntity
  8
490147031_RAHMEN
  6
Continuous
 62
     7
100
AcDbLine
 10
136.5977032123
 20
1303.7538268627
 30
0.0
 11
98.8885184497
 21
1303.7538268627
 31
0.0
  0
ELLIPSE
  5
1D4
330
B9
100
AcDbEntity
  8
490147031_RAHMEN
  6
Continuous
 62
     7
100
AcDbEllipse
 10
136.5977032123
 20
1303.7599356702
 30
0.0
 11
0.6999999999999941
 21
6.864445688278782E-17
 31
0.0
210
0.0
220
0.0
230
1.0
 40
0.0087268678
 41
4.71238898038469
 42
5.491138500915993
  0
ARC
  5
1D5
330
B9
100
AcDbEntity
  8
490147031_RAHMEN
  6
Continuous
 62
     7
100
AcDbCircle
 10
98.8885184497
 20
1305.059232942
 30
0.0
 40
1.305406079330391
100
AcDbArc
 50
180.0
 51
270.0
  0
LINE
  5
1D6
330
B9
100
AcDbEntity
  8
490147031_RAHMEN
  6
Continuous
 62
     7
100
AcDbLine
 10
97.604253503
 20
1370.9284847562
 30
0.0
 11
97.604253503
 21
1357.5826902279
 31
0.0
  0
LINE
  5
1D7
330
B9
100
AcDbEntity
  8
490147031_RAHMEN
  6
Continuous
 62
     7
100
AcDbLine
 10
97.604253503
 20
1307.5826902279
 30
0.0
 11
97.604253503
 21
1320.9284847562
 31
0.0
  0
LINE
  5
1D8
330
B9
100
AcDbEntity
  8
490147031_RAHMEN
  6
Continuous
 62
     7
100
AcDbLine
 10
97.5831123703
 20
1371.7300697754
 30
0.0
 11
97.5831123703
 21
1373.451942042
 31
0.0
  0
ELLIPSE
  5
1D9
330
B9
100
AcDbEntity
  8
490147031_RAHMEN
  6
Continuous
 62
     7
100
AcDbEllipse
 10
97.5892211778
 20
1371.7300697754
 30
0.0
 11
6.864445688279235E-17
 21
-0.6999999999999993
 31
0.0
210
0.0
220
0.0
230
1.0
 40
0.0087268678
 41
4.71238898038469
 42
6.230825429613973
  0
ELLIPSE
  5
1DA
330
B9
100
AcDbEntity
  8
490147031_RAHMEN
  6
Continuous
 62
     7
100
AcDbEllipse
 10
97.5892211778
 20
1356.7811052087
 30
0.0
 11
7.007538360790020E-15
 21
-0.6999999999999993
 31
0.0
210
0.0
220
0.0
230
1.0
 40
0.0087268678
 41
3.193952531149199
 42
4.71238898038469
  0
LINE
  5
1DB
330
B9
100
AcDbEntity
  8
490147031_RAHMEN
  6
Continuous
 62
     7
100
AcDbLine
 10
97.5831123703
 20
1321.7300697754
 30
0.0
 11
97.5831123703
 21
1356.7811052087
 31
0.0
  0
ELLIPSE
  5
1DC
330
B9
100
AcDbEntity
  8
490147031_RAHMEN
  6
Continuous
 62
     7
100
AcDbEllipse
 10
97.5892211778
 20
1321.7300697754
 30
0.0
 11
6.864445688279235E-17
 21
-0.6999999999999993
 31
0.0
210
0.0
220
0.0
230
1.0
 40
0.0087268678
 41
4.71238898038469
 42
6.230825429613973
  0
ELLIPSE
  5
1DD
330
B9
100
AcDbEntity
  8
490147031_RAHMEN
  6
Continuous
 62
     7
100
AcDbEllipse
 10
97.5892211778
 20
1306.7811052087
 30
0.0
 11
0.0
 21
0.6990407474388818
 31
0.0
210
0.0
220
0.0
230
1.0
 40
1.0
 41
0.0004573557291201
 42
1.570796326794897
  0
LINE
  5
1DE
330
B9
100
AcDbEntity
  8
490147031_RAHMEN
  6
Continuous
 62
     7
100
AcDbLine
 10
97.5831123703
 20
1305.059232942
 30
0.0
 11
97.5831123703
 21
1306.7811052087
 31
0.0
  0
ARC
  5
1DF
330
B9
100
AcDbEntity
  8
490147031_RAHMEN
  6
Continuous
 62
     7
100
AcDbCircle
 10
197.2725767497
 20
1305.059232942
 30
0.0
 40
1.305406079330391
100
AcDbArc
 50
270.0
 51
0.0
  0
LINE
  5
1E0
330
B9
100
AcDbEntity
  8
490147031_RAHMEN
  6
Continuous
 62
     7
100
AcDbLine
 10
198.5568416963
 20
1307.5826902279
 30
0.0
 11
198.5568416963
 21
1320.9284847562
 31
0.0
  0
LINE
  5
1E1
330
B9
100
AcDbEntity
  8
490147031_RAHMEN
  6
Continuous
 62
     7
100
AcDbLine
 10
198.5568416963
 20
1370.9284847562
 30
0.0
 11
198.5568416963
 21
1357.5826902279
 31
0.0
  0
LINE
  5
1E2
330
B9
100
AcDbEntity
  8
490147031_RAHMEN
  6
Continuous
 62
     7
100
AcDbLine
 10
198.577982829
 20
1373.451942042
 30
0.0
 11
198.577982829
 21
1371.7300697754
 31
0.0
  0
ELLIPSE
  5
1E3
330
B9
100
AcDbEntity
  8
490147031_RAHMEN
  6
Continuous
 62
     7
100
AcDbEllipse
 10
198.5718740215
 20
1371.7300697754
 30
0.0
 11
6.864445688279235E-17
 21
-0.6999999999999993
 31
0.0
210
0.0
220
0.0
230
1.0
 40
0.0087268678
 41
0.0523598775656134
 42
1.570796326794897
  0
ELLIPSE
  5
1E4
330
B9
100
AcDbEntity
  8
490147031_RAHMEN
  6
Continuous
 62
     7
100
AcDbEllipse
 10
198.5718740215
 20
1356.7811052087
 30
0.0
 11
0.0
 21
0.006108807453529153
 31
0.0
210
0.0
220
0.0
230
1.0
 40
1.0
 41
-1.570796326794897
 42
-0.0004573557290999
  0
LINE
  5
1E5
330
B9
100
AcDbEntity
  8
490147031_RAHMEN
  6
Continuous
 62
     7
100
AcDbLine
 10
198.577982829
 20
1356.7811052087
 30
0.0
 11
198.577982829
 21
1321.7300697754
 31
0.0
  0
ELLIPSE
  5
1E6
330
B9
100
AcDbEntity
  8
490147031_RAHMEN
  6
Continuous
 62
     7
100
AcDbEllipse
 10
198.5718740215
 20
1321.7300697754
 30
0.0
 11
0.0
 21
0.6990407474386544
 31
0.0
210
0.0
220
0.0
230
1.0
 40
1.0
 41
3.142050009318974
 42
4.71238898038469
  0
ELLIPSE
  5
1E7
330
B9
100
AcDbEntity
  8
490147031_RAHMEN
  6
Continuous
 62
     7
100
AcDbEllipse
 10
198.5718740215
 20
1306.7811052087
 30
0.0
 11
0.0
 21
0.006108807453529153
 31
0.0
210
0.0
220
0.0
230
1.0
 40
1.0
 41
-1.570796326794897
 42
-0.0004573557290999
  0
LINE
  5
1E8
330
B9
100
AcDbEntity
  8
490147031_RAHMEN
  6
Continuous
 62
     7
100
AcDbLine
 10
198.577982829
 20
1306.7811052087
 30
0.0
 11
198.577982829
 21
1305.059232942
 31
0.0
  0
ARC
  5
1E9
330
B9
100
AcDbEntity
  8
490147031_RAHMEN
  6
Continuous
 62
     7
100
AcDbCircle
 10
98.8885184497
 20
1373.451942042
 30
0.0
 40
1.305406079330391
100
AcDbArc
 50
90.0
 51
180.0
  0
LINE
  5
1EA
330
B9
100
AcDbEntity
  8
490147031_RAHMEN
  6
Continuous
 62
     7
100
AcDbLine
 10
137.089376133
 20
1374.7555875168
 30
0.0
 11
151.0717190663
 21
1374.7555875168
 31
0.0
  0
LINE
  5
1EB
330
B9
100
AcDbEntity
  8
490147031_RAHMEN
  6
Continuous
 62
     7
100
AcDbLine
 10
151.5633919871
 20
1374.7573481214
 30
0.0
 11
197.2725767497
 21
1374.7573481214
 31
0.0
  0
ELLIPSE
  5
1EC
330
B9
100
AcDbEntity
  8
490147031_RAHMEN
  6
Continuous
 62
     7
100
AcDbEllipse
 10
151.5633919871
 20
1374.7512393139
 30
0.0
 11
-0.6999999999999932
 21
-6.864445688279173E-17
 31
0.0
210
0.0
220
0.0
230
1.0
 40
0.0087268678
 41
4.71238898038469
 42
5.491138500918618
  0
ELLIPSE
  5
1ED
330
B9
100
AcDbEntity
  8
490147031_RAHMEN
  6
Continuous
 62
     7
100
AcDbEllipse
 10
136.5977032123
 20
1374.7512393139
 30
0.0
 11
0.700000000000001
 21
-1.380914335093166E-14
 31
0.0
210
0.0
220
0.0
230
1.0
 40
0.0087268678
 41
0.7920468062613214
 42
1.570796326794856
  0
LINE
  5
1EE
330
B9
100
AcDbEntity
  8
490147031_RAHMEN
  6
Continuous
 62
     7
100
AcDbLine
 10
98.8885184497
 20
1374.7573481214
 30
0.0
 11
136.5977032123
 21
1374.7573481214
 31
0.0
  0
LINE
  5
1EF
330
B9
100
AcDbEntity
  8
490147031_RAHMEN
  6
Continuous
 62
     7
100
AcDbLine
 10
151.0783702617
 20
1374.7556660312
 30
0.0
 11
151.0717190663
 21
1374.7555875168
 31
0.0
  0
LINE
  5
1F0
330
B9
100
AcDbEntity
  8
490147031_RAHMEN
  6
Continuous
 62
     7
100
AcDbLine
 10
137.089376133
 20
1374.7555875168
 30
0.0
 11
137.0827249376
 21
1374.7556660312
 31
0.0
  0
ARC
  5
1F1
330
B9
100
AcDbEntity
  8
490147031_RAHMEN
  6
Continuous
 62
     7
100
AcDbCircle
 10
197.2725767497
 20
1373.451942042
 30
0.0
 40
1.305406079330385
100
AcDbArc
 50
0.0
 51
90.0
  0
LINE
  5
1F2
330
B9
100
AcDbEntity
  8
490147031_RAHMEN
  6
Continuous
 62
     7
100
AcDbLine
 10
97.6042558426
 20
1307.5723540749
 30
0.0
 11
97.604253503
 21
1307.5826902279
 31
0.0
  0
LINE
  5
1F3
330
B9
100
AcDbEntity
  8
490147031_RAHMEN
  6
Continuous
 62
     7
100
AcDbLine
 10
198.5568416963
 20
1307.5826902279
 30
0.0
 11
198.5568393567
 21
1307.5723540749
 31
0.0
  0
LINE
  5
1F4
330
B9
100
AcDbEntity
  8
490147031_RAHMEN
  6
Continuous
 62
     7
100
AcDbLine
 10
97.604253503
 20
1320.9284847562
 30
0.0
 11
97.6042558426
 21
1320.9388209092
 31
0.0
  0
LINE
  5
1F5
330
B9
100
AcDbEntity
  8
490147031_RAHMEN
  6
Continuous
 62
     7
100
AcDbLine
 10
198.5568393567
 20
1320.9388209092
 30
0.0
 11
198.5568416963
 21
1320.9284847562
 31
0.0
  0
LINE
  5
1F6
330
B9
100
AcDbEntity
  8
490147031_RAHMEN
  6
Continuous
 62
     7
100
AcDbLine
 10
97.6042558426
 20
1357.5723540749
 30
0.0
 11
97.604253503
 21
1357.5826902279
 31
0.0
  0
LINE
  5
1F7
330
B9
100
AcDbEntity
  8
490147031_RAHMEN
  6
Continuous
 62
     7
100
AcDbLine
 10
198.5568416963
 20
1357.5826902279
 30
0.0
 11
198.5568393567
 21
1357.5723540749
 31
0.0
  0
LINE
  5
1F8
330
B9
100
AcDbEntity
  8
490147031_RAHMEN
  6
Continuous
 62
     7
100
AcDbLine
 10
97.604253503
 20
1370.9284847562
 30
0.0
 11
97.6042558426
 21
1370.9388209092
 31
0.0
  0
LINE
  5
1F9
330
B9
100
AcDbEntity
  8
490147031_RAHMEN
  6
Continuous
 62
     7
100
AcDbLine
 10
198.5568393567
 20
1370.9388209092
 30
0.0
 11
198.5568416963
 21
1370.9284847562
 31
0.0
  0
ELLIPSE
  5
1FA
330
B9
100
AcDbEntity
  8
490147031_RAHMEN
  6
Continuous
 62
     7
100
AcDbEllipse
 10
198.7721861164
 20
1371.0310291011
 30
0.0
 11
0.1972835210251322
 21
-0.0328513672763833
 31
0.0
210
0.0
220
0.0
230
1.0
 40
0.9985916141
 41
3.194835332846178
 42
3.306825729050741
  0
ELLIPSE
  5
1FB
330
B9
100
AcDbEntity
  8
490147031_RAHMEN
  6
Continuous
 62
     7
100
AcDbEllipse
 10
97.3889090829
 20
1371.0310291011
 30
0.0
 11
-0.1972835210255139
 21
-0.03285136727406576
 31
0.0
210
0.0
220
0.0
230
1.0
 40
0.9985916141
 41
2.976359578140982
 42
3.088349974291671
  0
ELLIPSE
  5
1FC
330
B9
100
AcDbEntity
  8
490147031_RAHMEN
  6
Continuous
 62
     7
100
AcDbEllipse
 10
198.7721861164
 20
1357.480145883
 30
0.0
 11
0.1972835210252294
 21
0.03285136727576579
 31
0.0
210
0.0
220
0.0
230
0.9999999999999997
 40
0.9985916141
 41
2.976359578132417
 42
3.088349968247875
  0
ELLIPSE
  5
1FD
330
B9
100
AcDbEntity
  8
490147031_RAHMEN
  6
Continuous
 62
     7
100
AcDbEllipse
 10
198.7721861164
 20
1321.0310291011
 30
0.0
 11
0.1972835210252294
 21
-0.03285136727576574
 31
0.0
210
0.0
220
0.0
230
1.0
 40
0.9985916141
 41
3.194835338915938
 42
3.306825729047167
  0
ELLIPSE
  5
1FE
330
B9
100
AcDbEntity
  8
490147031_RAHMEN
  6
Continuous
 62
     7
100
AcDbEllipse
 10
97.3889090829
 20
1357.480145883
 30
0.0
 11
-0.1972835210255555
 21
0.03285136727377428
 31
0.0
210
0.0
220
0.0
230
1.0
 40
0.9985916141
 41
3.194835347238358
 42
3.306825729037357
  0
ELLIPSE
  5
1FF
330
B9
100
AcDbEntity
  8
490147031_RAHMEN
  6
Continuous
 62
     7
100
AcDbEllipse
 10
97.3889090829
 20
1321.0310291011
 30
0.0
 11
-0.1972835210255555
 21
-0.03285136727377433
 31
0.0
210
0.0
220
0.0
230
0.9999999999999997
 40
0.9985916141
 41
2.976359578142229
 42
3.088349959923281
  0
ELLIPSE
  5
200
330
B9
100
AcDbEntity
  8
490147031_RAHMEN
  6
Continuous
 62
     7
100
AcDbEllipse
 10
198.7721861164
 20
1307.480145883
 30
0.0
 11
0.1972835210251322
 21
0.03285136727640416
 31
0.0
210
0.0
220
0.0
230
1.0
 40
0.9985916141
 41
2.976359578128923
 42
3.088349974336481
  0
ELLIPSE
  5
201
330
B9
100
AcDbEntity
  8
490147031_RAHMEN
  6
Continuous
 62
     7
100
AcDbEllipse
 10
97.3889090829
 20
1307.480145883
 30
0.0
 11
-0.1972835210254167
 21
0.03285136727461389
 31
0.0
210
0.0
220
0.0
230
1.0
 40
0.9985916141
 41
3.194835332901536
 42
3.306825729041636
  0
LINE
  5
202
330
B9
100
AcDbEntity
  8
490147031_RAHMEN
  6
Continuous
 62
     7
100
AcDbLine
 10
198.5735052934
 20
1371.0554891995
 30
0.0
 11
198.5595226785
 21
1370.9715188893
 31
0.0
  0
LINE
  5
203
330
B9
100
AcDbEntity
  8
490147031_RAHMEN
  6
Continuous
 62
     7
100
AcDbLine
 10
198.5749950411
 20
1371.1283237005
 30
0.0
 11
198.4805475997
 21
1371.1287567502
 31
0.0
  0
LINE
  5
204
330
B9
100
AcDbEntity
  8
490147031_RAHMEN
  6
Continuous
 62
     7
100
AcDbLine
 10
97.6015725208
 20
1370.9715188893
 30
0.0
 11
97.5875899059
 21
1371.0554891995
 31
0.0
  0
LINE
  5
205
330
B9
100
AcDbEntity
  8
490147031_RAHMEN
  6
Continuous
 62
     7
100
AcDbLine
 10
97.6805475997
 20
1371.1287567502
 30
0.0
 11
97.5861001582
 21
1371.1283237005
 31
0.0
  0
LINE
  5
206
330
B9
100
AcDbEntity
  8
490147031_RAHMEN
  6
Continuous
 62
     7
100
AcDbLine
 10
198.4805475997
 20
1357.3824182339
 30
0.0
 11
198.5749950411
 21
1357.3828512836
 31
0.0
  0
LINE
  5
207
330
B9
100
AcDbEntity
  8
490147031_RAHMEN
  6
Continuous
 62
     7
100
AcDbLine
 10
198.5595226785
 20
1357.5396560948
 30
0.0
 11
198.5735052934
 21
1357.4556857846
 31
0.0
  0
LINE
  5
208
330
B9
100
AcDbEntity
  8
490147031_RAHMEN
  6
Continuous
 62
     7
100
AcDbLine
 10
97.5861001582
 20
1357.3828512836
 30
0.0
 11
97.6805475997
 21
1357.3824182339
 31
0.0
  0
LINE
  5
209
330
B9
100
AcDbEntity
  8
490147031_RAHMEN
  6
Continuous
 62
     7
100
AcDbLine
 10
198.5735052934
 20
1321.0554891995
 30
0.0
 11
198.5595226785
 21
1320.9715188893
 31
0.0
  0
LINE
  5
20A
330
B9
100
AcDbEntity
  8
490147031_RAHMEN
  6
Continuous
 62
     7
100
AcDbLine
 10
97.5875899059
 20
1357.4556857846
 30
0.0
 11
97.6015725208
 21
1357.5396560948
 31
0.0
  0
LINE
  5
20B
330
B9
100
AcDbEntity
  8
490147031_RAHMEN
  6
Continuous
 62
     7
100
AcDbLine
 10
198.5749950411
 20
1321.1283237005
 30
0.0
 11
198.4805475997
 21
1321.1287567502
 31
0.0
  0
LINE
  5
20C
330
B9
100
AcDbEntity
  8
490147031_RAHMEN
  6
Continuous
 62
     7
100
AcDbLine
 10
97.6015725208
 20
1320.9715188893
 30
0.0
 11
97.5875899059
 21
1321.0554891995
 31
0.0
  0
LINE
  5
20D
330
B9
100
AcDbEntity
  8
490147031_RAHMEN
  6
Continuous
 62
     7
100
AcDbLine
 10
97.6805475997
 20
1321.1287567502
 30
0.0
 11
97.5861001582
 21
1321.1283237005
 31
0.0
  0
LINE
  5
20E
330
B9
100
AcDbEntity
  8
490147031_RAHMEN
  6
Continuous
 62
     7
100
AcDbLine
 10
198.4805475997
 20
1307.3824182339
 30
0.0
 11
198.5749950411
 21
1307.3828512836
 31
0.0
  0
LINE
  5
20F
330
B9
100
AcDbEntity
  8
490147031_RAHMEN
  6
Continuous
 62
     7
100
AcDbLine
 10
198.5595226785
 20
1307.5396560948
 30
0.0
 11
198.5735052934
 21
1307.4556857846
 31
0.0
  0
LINE
  5
210
330
B9
100
AcDbEntity
  8
490147031_RAHMEN
  6
Continuous
 62
     7
100
AcDbLine
 10
97.5861001582
 20
1307.3828512836
 30
0.0
 11
97.6805475997
 21
1307.3824182339
 31
0.0
  0
LINE
  5
211
330
B9
100
AcDbEntity
  8
490147031_RAHMEN
  6
Continuous
 62
     7
100
AcDbLine
 10
97.5875899059
 20
1307.4556857846
 30
0.0
 11
97.6015725208
 21
1307.5396560948
 31
0.0
  0
LINE
  5
213
330
B9
100
AcDbEntity
  8
490656XXX_VM_ABD
  6
Continuous
 62
     7
100
AcDbLine
 10
56.1305475997
 20
1415.205587492
 30
0.0
 11
240.0305475997
 21
1415.205587492
 31
0.0
  0
ARC
  5
214
330
B9
100
AcDbEntity
  8
490656XXX_VM_ABD
  6
Continuous
 62
     7
100
AcDbCircle
 10
240.0305475997
 20
1410.705587492
 30
0.0
 40
4.49999999999999
100
AcDbArc
 50
0.0
 51
90.0
  0
LINE
  5
215
330
B9
100
AcDbEntity
  8
490656XXX_VM_ABD
  6
Continuous
 62
     7
100
AcDbLine
 10
244.5305475997
 20
1410.705587492
 30
0.0
 11
244.5305475997
 21
1267.805587492
 31
0.0
  0
LINE
  5
216
330
B9
100
AcDbEntity
  8
490656XXX_VM_ABD
  6
Continuous
 62
     7
100
AcDbLine
 10
197.5805475997
 20
1380.755587492
 30
0.0
 11
98.5805475997
 21
1380.755587492
 31
0.0
  0
ARC
  5
217
330
B9
100
AcDbEntity
  8
490656XXX_VM_ABD
  6
Continuous
 62
     7
100
AcDbCircle
 10
197.5805475997
 20
1373.755587492
 30
0.0
 40
6.999999999999999
100
AcDbArc
 50
0.0
 51
90.0
  0
LINE
  5
218
330
B9
100
AcDbEntity
  8
490656XXX_VM_ABD
  6
Continuous
 62
     7
100
AcDbLine
 10
204.5805475997
 20
1304.755587492
 30
0.0
 11
204.5805475997
 21
1373.755587492
 31
0.0
  0
ARC
  5
219
330
B9
100
AcDbEntity
  8
490656XXX_VM_ABD
  6
Continuous
 62
     7
100
AcDbCircle
 10
240.0305475997
 20
1267.805587492
 30
0.0
 40
4.49999999999999
100
AcDbArc
 50
270.0
 51
0.0
  0
LINE
  5
21A
330
B9
100
AcDbEntity
  8
490656XXX_VM_ABD
  6
Continuous
 62
     7
100
AcDbLine
 10
56.1305475997
 20
1263.305587492
 30
0.0
 11
240.0305475997
 21
1263.305587492
 31
0.0
  0
ARC
  5
21B
330
B9
100
AcDbEntity
  8
490656XXX_VM_ABD
  6
Continuous
 62
     7
100
AcDbCircle
 10
197.5805475997
 20
1304.755587492
 30
0.0
 40
6.999999999999999
100
AcDbArc
 50
270.0
 51
0.0
  0
LINE
  5
21C
330
B9
100
AcDbEntity
  8
490656XXX_VM_ABD
  6
Continuous
 62
     7
100
AcDbLine
 10
197.5805475997
 20
1297.755587492
 30
0.0
 11
98.5805475997
 21
1297.755587492
 31
0.0
  0
LINE
  5
21D
330
B9
100
AcDbEntity
  8
490656XXX_VM_ABD
  6
Continuous
 62
     7
100
AcDbLine
 10
51.6305475997
 20
1410.705587492
 30
0.0
 11
51.6305475997
 21
1267.805587492
 31
0.0
  0
ARC
  5
21E
330
B9
100
AcDbEntity
  8
490656XXX_VM_ABD
  6
Continuous
 62
     7
100
AcDbCircle
 10
56.1305475997
 20
1410.705587492
 30
0.0
 40
4.49999999999999
100
AcDbArc
 50
90.0
 51
180.0
  0
LINE
  5
21F
330
B9
100
AcDbEntity
  8
490656XXX_VM_ABD
  6
Continuous
 62
     7
100
AcDbLine
 10
91.5805475997
 20
1304.755587492
 30
0.0
 11
91.5805475997
 21
1373.755587492
 31
0.0
  0
ARC
  5
220
330
B9
100
AcDbEntity
  8
490656XXX_VM_ABD
  6
Continuous
 62
     7
100
AcDbCircle
 10
98.5805475997
 20
1373.755587492
 30
0.0
 40
6.999999999999999
100
AcDbArc
 50
90.0
 51
180.0
  0
ARC
  5
221
330
B9
100
AcDbEntity
  8
490656XXX_VM_ABD
  6
Continuous
 62
     7
100
AcDbCircle
 10
56.1305475997
 20
1267.805587492
 30
0.0
 40
4.49999999999999
100
AcDbArc
 50
180.0
 51
270.0
  0
ARC
  5
222
330
B9
100
AcDbEntity
  8
490656XXX_VM_ABD
  6
Continuous
 62
     7
100
AcDbCircle
 10
98.5805475997
 20
1304.755587492
 30
0.0
 40
6.999999999999999
100
AcDbArc
 50
180.0
 51
270.0
  0
ENDBLK
  5
224
330
B9
100
AcDbEntity
  8
0
100
AcDbBlockEnd
  0
BLOCK
  5
236
330
225
100
AcDbEntity
  8
0
100
AcDbBlockBegin
  2
SE1
 70
     0
 10
0.0
 20
0.0
 30
0.0
  3
SE1
  1

  0
LINE
  5
227
330
225
100
AcDbEntity
  8
490147031_RAHMEN
  6
Continuous
 62
     7
100
AcDbLine
 10
55.5796337706
 20
1096.282368838
 30
0.0
 11
240.5814614287
 21
1096.282368838
 31
0.0
  0
LINE
  5
228
330
225
100
AcDbEntity
  8
490147031_RAHMEN
  6
Continuous
 62
     7
100
AcDbLine
 10
49.5805475997
 20
1096.282368838
 30
0.0
 11
55.5796337706
 21
1096.282368838
 31
0.0
  0
LINE
  5
229
330
225
100
AcDbEntity
  8
490147031_RAHMEN
  6
Continuous
 62
     7
100
AcDbLine
 10
240.5814614287
 20
1096.282368838
 30
0.0
 11
246.5805475997
 21
1096.282368838
 31
0.0
  0
LINE
  5
22A
330
225
100
AcDbEntity
  8
490147031_RAHMEN
  6
Continuous
 62
     7
100
AcDbLine
 10
246.5805475997
 20
1096.282368838
 30
0.0
 11
246.4757562835
 21
1090.2788783567
 31
0.0
  0
LINE
  5
22B
330
225
100
AcDbEntity
  8
490147031_RAHMEN
  6
Continuous
 62
     7
100
AcDbLine
 10
49.6853389158
 20
1090.2788783567
 30
0.0
 11
49.5805475997
 21
1096.282368838
 31
0.0
  0
LINE
  5
22C
330
225
100
AcDbEntity
  8
490147031_RAHMEN
  6
Continuous
 62
     7
100
AcDbLine
 10
246.2757867445
 20
1090.082368838
 30
0.0
 11
240.4766701126
 21
1090.082368838
 31
0.0
  0
LINE
  5
22D
330
225
100
AcDbEntity
  8
490147031_RAHMEN
  6
Continuous
 62
     7
100
AcDbLine
 10
240.4766701126
 20
1090.082368838
 30
0.0
 11
55.6844250867
 21
1090.082368838
 31
0.0
  0
LINE
  5
22E
330
225
100
AcDbEntity
  8
490147031_RAHMEN
  6
Continuous
 62
     7
100
AcDbLine
 10
55.6844250867
 20
1090.082368838
 30
0.0
 11
49.8853084548
 21
1090.082368838
 31
0.0
  0
ARC
  5
22F
330
225
100
AcDbEntity
  8
490147031_RAHMEN
  6
Continuous
 62
     7
100
AcDbCircle
 10
246.2757867445
 20
1090.282368838
 30
0.0
 40
0.1999999999999997
100
AcDbArc
 50
270.0
 51
359.0
  0
ARC
  5
230
330
225
100
AcDbEntity
  8
490147031_RAHMEN
  6
Continuous
 62
     7
100
AcDbCircle
 10
49.8853084548
 20
1090.282368838
 30
0.0
 40
0.1999999999999997
100
AcDbArc
 50
181.0
 51
270.0
  0
LINE
  5
231
330
225
100
AcDbEntity
  8
490656XXX_VM_ABD
  6
Continuous
 62
     7
100
AcDbLine
 10
242.0305475997
 20
1087.682368838
 30
0.0
 11
240.0305475997
 21
1087.682368838
 31
0.0
  0
LINE
  5
232
330
225
100
AcDbEntity
  8
490656XXX_VM_ABD
  6
Continuous
 62
     7
100
AcDbLine
 10
240.0305475997
 20
1087.682368838
 30
0.0
 11
56.1305475997
 21
1087.682368838
 31
0.0
  0
ARC
  5
233
330
225
100
AcDbEntity
  8
490656XXX_VM_ABD
  6
Continuous
 62
     7
100
AcDbCircle
 10
242.0305475997
 20
1090.182368838
 30
0.0
 40
2.5
100
AcDbArc
 50
270.0
 51
357.707557224
  0
ARC
  5
234
330
225
100
AcDbEntity
  8
490656XXX_VM_ABD
  6
Continuous
 62
     7
100
AcDbCircle
 10
54.1305475997
 20
1090.182368838
 30
0.0
 40
2.5
100
AcDbArc
 50
182.292442776
 51
270.0
  0
LINE
  5
235
330
225
100
AcDbEntity
  8
490656XXX_VM_ABD
  6
Continuous
 62
     7
100
AcDbLine
 10
54.1305475997
 20
1087.682368838
 30
0.0
 11
56.1305475997
 21
1087.682368838
 31
0.0
  0
ENDBLK
  5
237
330
225
100
AcDbEntity
  8
0
100
AcDbBlockEnd
  0
BLOCK
  5
249
330
238
100
AcDbEntity
  8
0
100
AcDbBlockBegin
  2
SE2
 70
     0
 10
0.0
 20
0.0
 30
0.0
  3
SE2
  1

  0
LINE
  5
23A
330
238
100
AcDbEntity
  8
490147031_RAHMEN
  6
Continuous
 62
     7
100
AcDbLine
 10
423.7804762175
 20
1411.2565013211
 30
0.0
 11
423.7804762175
 21
1417.255587492
 31
0.0
  0
LINE
  5
23B
330
238
100
AcDbEntity
  8
490147031_RAHMEN
  6
Continuous
 62
     7
100
AcDbLine
 10
423.7804762175
 20
1417.255587492
 30
0.0
 11
429.7839666988
 21
1417.1507961759
 31
0.0
  0
LINE
  5
23C
330
238
100
AcDbEntity
  8
490147031_RAHMEN
  6
Continuous
 62
     7
100
AcDbLine
 10
423.7804762175
 20
1267.254673663
 30
0.0
 11
423.7804762175
 21
1411.2565013211
 31
0.0
  0
LINE
  5
23D
330
238
100
AcDbEntity
  8
490147031_RAHMEN
  6
Continuous
 62
     7
100
AcDbLine
 10
423.7804762175
 20
1261.255587492
 30
0.0
 11
423.7804762175
 21
1267.254673663
 31
0.0
  0
LINE
  5
23E
330
238
100
AcDbEntity
  8
490147031_RAHMEN
  6
Continuous
 62
     7
100
AcDbLine
 10
429.9804762175
 20
1416.9508266369
 30
0.0
 11
429.9804762175
 21
1411.151710005
 31
0.0
  0
LINE
  5
23F
330
238
100
AcDbEntity
  8
490147031_RAHMEN
  6
Continuous
 62
     7
100
AcDbLine
 10
429.9804762175
 20
1267.3594649791
 30
0.0
 11
429.9804762175
 21
1261.5603483472
 31
0.0
  0
LINE
  5
240
330
238
100
AcDbEntity
  8
490147031_RAHMEN
  6
Continuous
 62
     7
100
AcDbLine
 10
429.9804762175
 20
1411.151710005
 30
0.0
 11
429.9804762175
 21
1267.3594649791
 31
0.0
  0
LINE
  5
241
330
238
100
AcDbEntity
  8
490147031_RAHMEN
  6
Continuous
 62
     7
100
AcDbLine
 10
429.7839666988
 20
1261.3603788082
 30
0.0
 11
423.7804762175
 21
1261.255587492
 31
0.0
  0
ARC
  5
242
330
238
100
AcDbEntity
  8
490147031_RAHMEN
  6
Continuous
 62
     7
100
AcDbCircle
 10
429.7804762175
 20
1261.5603483472
 30
0.0
 40
0.199999999999994
100
AcDbArc
 50
271.0
 51
0.0
  0
ARC
  5
243
330
238
100
AcDbEntity
  8
490147031_RAHMEN
  6
Continuous
 62
     7
100
AcDbCircle
 10
429.7804762175
 20
1416.9508266369
 30
0.0
 40
0.1999999999999997
100
AcDbArc
 50
0.0
 51
89.0
  0
LINE
  5
244
330
238
100
AcDbEntity
  8
490656XXX_VM_ABD
  6
Continuous
 62
     7
100
AcDbLine
 10
432.3804762175
 20
1267.805587492
 30
0.0
 11
432.3804762175
 21
1265.805587492
 31
0.0
  0
LINE
  5
245
330
238
100
AcDbEntity
  8
490656XXX_VM_ABD
  6
Continuous
 62
     7
100
AcDbLine
 10
432.3804762175
 20
1267.805587492
 30
0.0
 11
432.3804762175
 21
1410.705587492
 31
0.0
  0
LINE
  5
246
330
238
100
AcDbEntity
  8
490656XXX_VM_ABD
  6
Continuous
 62
     7
100
AcDbLine
 10
432.3804762175
 20
1410.705587492
 30
0.0
 11
432.3804762175
 21
1412.705587492
 31
0.0
  0
ARC
  5
247
330
238
100
AcDbEntity
  8
490656XXX_VM_ABD
  6
Continuous
 62
     7
100
AcDbCircle
 10
429.8804762175
 20
1412.705587492
 30
0.0
 40
2.499999999999999
100
AcDbArc
 50
0.0
 51
87.707557224
  0
ARC
  5
248
330
238
100
AcDbEntity
  8
490656XXX_VM_ABD
  6
Continuous
 62
     7
100
AcDbCircle
 10
429.8804762175
 20
1265.805587492
 30
0.0
 40
2.5
100
AcDbArc
 50
272.292442776
 51
0.0
  0
ENDBLK
  5
24A
330
238
100
AcDbEntity
  8
0
100
AcDbBlockEnd
  0
BLOCK
  5
3AD
330
24B
100
AcDbEntity
  8
0
100
AcDbBlockBegin
  2
SE3
 70
     0
 10
0.0
 20
0.0
 30
0.0
  3
SE3
  1

  0
LINE
  5
24D
330
24B
100
AcDbEntity
  8
$DDT_AUDIT_GENERATED_(BB)
  6
Continuous
 62
     7
100
AcDbLine
 10
99.7988172164
 20
574.8795835452
 30
0.0
 11
131.6094929641
 21
574.8795835452
 31
0.0
  0
ELLIPSE
  5
24E
330
24B
100
AcDbEntity
  8
$DDT_AUDIT_GENERATED_(BB)
  6
Continuous
 62
     7
100
AcDbEllipse
 10
99.7991218493
 20
575.8797358732
 30
0.0
 11
0.707322189169581
 21
0.707322189169581
 31
0.0
210
0.0
220
0.0
230
0.9999999999999998
 40
0.9996954599
 41
2.356346783439789
 42
3.926838523739712
  0
LINE
  5
24F
330
24B
100
AcDbEntity
  8
$DDT_AUDIT_GENERATED_(BB)
  6
Continuous
 62
     7
100
AcDbLine
 10
98.7989695213
 20
643.47973585
 30
0.0
 11
98.7989695213
 21
575.8794312403
 31
0.0
  0
ELLIPSE
  5
250
330
24B
100
AcDbEntity
  8
$DDT_AUDIT_GENERATED_(BB)
  6
Continuous
 62
     7
100
AcDbEllipse
 10
99.7991218493
 20
643.4794312171
 30
0.0
 11
0.707322189169581
 21
-0.707322189169581
 31
0.0
210
0.0
220
0.0
230
0.9999999999999998
 40
0.9996954599
 41
2.35634678343996
 42
3.92683852373957
  0
LINE
  5
251
330
24B
100
AcDbEntity
  8
$DDT_AUDIT_GENERATED_(BB)
  6
Continuous
 62
     7
100
AcDbLine
 10
167.3991218261
 20
644.4795835452
 30
0.0
 11
99.7988172164
 21
644.4795835452
 31
0.0
  0
ELLIPSE
  5
252
330
24B
100
AcDbEntity
  8
$DDT_AUDIT_GENERATED_(BB)
  6
Continuous
 62
     7
100
AcDbEllipse
 10
167.3988171932
 20
643.4794312171
 30
0.0
 11
-0.707322189169581
 21
-0.707322189169581
 31
0.0
210
0.0
220
0.0
230
0.9999999999999998
 40
0.9996954599
 41
2.356346783440031
 42
3.926838523739612
  0
LINE
  5
253
330
24B
100
AcDbEntity
  8
$DDT_AUDIT_GENERATED_(BB)
  6
Continuous
 62
     7
100
AcDbLine
 10
168.3989695213
 20
575.8794312403
 30
0.0
 11
168.3989695213
 21
643.47973585
 31
0.0
  0
ELLIPSE
  5
254
330
24B
100
AcDbEntity
  8
$DDT_AUDIT_GENERATED_(BB)
  6
Continuous
 62
     7
100
AcDbEllipse
 10
167.3988171932
 20
575.8797358732
 30
0.0
 11
-0.707322189169581
 21
0.707322189169581
 31
0.0
210
0.0
220
0.0
230
0.9999999999999998
 40
0.9996954599
 41
2.356346783439832
 42
3.926838523739811
  0
LINE
  5
255
330
24B
100
AcDbEntity
  8
$DDT_AUDIT_GENERATED_(BB)
  6
Continuous
 62
     7
100
AcDbLine
 10
131.8087319037
 20
574.876396794
 30
0.0
 11
132.0590377592
 21
574.8264576958
 31
0.0
  0
ELLIPSE
  5
256
330
24B
100
AcDbEntity
  8
$DDT_AUDIT_GENERATED_(BB)
  6
Continuous
 62
     7
100
AcDbEllipse
 10
131.6094929641
 20
574.8760925322
 30
0.0
 11
0.1999999999999999
 21
6.942896496145292E-15
 31
0.0
210
0.0
220
0.0
230
1.0
 40
0.0174550649
 41
0.0872664625986119
 42
1.570796326794754
  0
LINE
  5
257
330
24B
100
AcDbEntity
  8
$DDT_AUDIT_GENERATED_(BB)
  6
Continuous
 62
     7
100
AcDbLine
 10
135.5884460784
 20
574.8795835452
 30
0.0
 11
167.3991218261
 21
574.8795835452
 31
0.0
  0
ELLIPSE
  5
258
330
24B
100
AcDbEntity
  8
$DDT_AUDIT_GENERATED_(BB)
  6
Continuous
 62
     7
100
AcDbEllipse
 10
135.5884460784
 20
574.8760925322
 30
0.0
 11
-0.2000000000000005
 21
-6.942896496145293E-15
 31
0.0
210
0.0
220
0.0
230
1.0
 40
0.0174550649
 41
4.712388980384689
 42
6.195918844579309
  0
LINE
  5
259
330
24B
100
AcDbEntity
  8
$DDT_AUDIT_GENERATED_(BB)
  6
Continuous
 62
     7
100
AcDbLine
 10
132.5571351083
 20
574.8184908179
 30
0.0
 11
134.6408039343
 21
574.8184908179
 31
0.0
  0
ELLIPSE
  5
25A
330
24B
100
AcDbEntity
  8
$DDT_AUDIT_GENERATED_(BB)
  6
Continuous
 62
     7
100
AcDbEllipse
 10
132.5571351083
 20
574.8272183504
 30
0.0
 11
-0.5000000000000004
 21
-1.000648059515924E-17
 31
0.0
210
0.0
220
0.0
230
1.0
 40
0.0174550649
 41
0.087266462600259
 42
1.570796326794897
  0
LINE
  5
25B
330
24B
100
AcDbEntity
  8
$DDT_AUDIT_GENERATED_(BB)
  6
Continuous
 62
     7
100
AcDbLine
 10
135.1389012833
 20
574.8264576958
 30
0.0
 11
135.3892071388
 21
574.876396794
 31
0.0
  0
ELLIPSE
  5
25C
330
24B
100
AcDbEntity
  8
$DDT_AUDIT_GENERATED_(BB)
  6
Continuous
 62
     7
100
AcDbEllipse
 10
134.6408039343
 20
574.8272183504
 30
0.0
 11
-0.4999999999999998
 21
-1.000648059515923E-17
 31
0.0
210
0.0
220
0.0
230
1.0
 40
0.0174550649
 41
1.570796326794897
 42
3.054326190990202
  0
LINE
  5
25D
330
24B
100
AcDbEntity
  8
$DDT_AUDIT_GENERATED_(CC)
  6
Continuous
 62
     7
100
AcDbLine
 10
167.3991218261
 20
674.4295835452
 30
0.0
 11
135.5884460784
 21
674.4295835452
 31
0.0
  0
ELLIPSE
  5
25E
330
24B
100
AcDbEntity
  8
$DDT_AUDIT_GENERATED_(CC)
  6
Continuous
 62
     7
100
AcDbEllipse
 10
167.3988171932
 20
673.4294312171
 30
0.0
 11
-0.707322189169581
 21
-0.707322189169581
 31
0.0
210
0.0
220
0.0
230
0.9999999999999998
 40
0.9996954599
 41
2.356346783439889
 42
3.926838523739612
  0
LINE
  5
25F
330
24B
100
AcDbEntity
  8
$DDT_AUDIT_GENERATED_(CC)
  6
Continuous
 62
     7
100
AcDbLine
 10
98.7989695213
 20
673.42973585
 30
0.0
 11
98.7989695213
 21
646.1294312403
 31
0.0
  0
ELLIPSE
  5
260
330
24B
100
AcDbEntity
  8
$DDT_AUDIT_GENERATED_(CC)
  6
Continuous
 62
     7
100
AcDbEllipse
 10
99.7991218493
 20
673.4294312171
 30
0.0
 11
0.707322189169581
 21
-0.707322189169581
 31
0.0
210
0.0
220
0.0
230
0.9999999999999998
 40
0.9996954599
 41
2.356346783439975
 42
3.926838523739669
  0
LINE
  5
261
330
24B
100
AcDbEntity
  8
$DDT_AUDIT_GENERATED_(CC)
  6
Continuous
 62
     7
100
AcDbLine
 10
99.7988172164
 20
645.1295835452
 30
0.0
 11
167.3991218261
 21
645.1295835452
 31
0.0
  0
ELLIPSE
  5
262
330
24B
100
AcDbEntity
  8
$DDT_AUDIT_GENERATED_(CC)
  6
Continuous
 62
     7
100
AcDbEllipse
 10
99.7991218493
 20
646.1297358732
 30
0.0
 11
0.707322189169581
 21
0.707322189169581
 31
0.0
210
0.0
220
0.0
230
0.9999999999999998
 40
0.9996954599
 41
2.356346783439917
 42
3.926838523739612
  0
LINE
  5
263
330
24B
100
AcDbEntity
  8
$DDT_AUDIT_GENERATED_(CC)
  6
Continuous
 62
     7
100
AcDbLine
 10
168.3989695213
 20
646.1294312403
 30
0.0
 11
168.3989695213
 21
673.42973585
 31
0.0
  0
ELLIPSE
  5
264
330
24B
100
AcDbEntity
  8
$DDT_AUDIT_GENERATED_(CC)
  6
Continuous
 62
     7
100
AcDbEllipse
 10
167.3988171932
 20
646.1297358732
 30
0.0
 11
-0.707322189169581
 21
0.707322189169581
 31
0.0
210
0.0
220
0.0
230
0.9999999999999998
 40
0.9996954599
 41
2.356346783439974
 42
3.926838523739697
  0
LINE
  5
265
330
24B
100
AcDbEntity
  8
$DDT_AUDIT_GENERATED_(CC)
  6
Continuous
 62
     7
100
AcDbLine
 10
135.1389012833
 20
674.4827093945
 30
0.0
 11
135.3892071388
 21
674.4327702963
 31
0.0
  0
ELLIPSE
  5
266
330
24B
100
AcDbEntity
  8
$DDT_AUDIT_GENERATED_(CC)
  6
Continuous
 62
     7
100
AcDbEllipse
 10
134.6408039343
 20
674.48194874
 30
0.0
 11
0.4999999999999998
 21
1.000648059515923E-17
 31
0.0
210
0.0
220
0.0
230
1.0
 40
0.0174550649
 41
0.0872664626002437
 42
1.570796326794897
  0
LINE
  5
267
330
24B
100
AcDbEntity
  8
$DDT_AUDIT_GENERATED_(CC)
  6
Continuous
 62
     7
100
AcDbLine
 10
132.5571351083
 20
674.4906762724
 30
0.0
 11
134.6408039343
 21
674.4906762724
 31
0.0
  0
ELLIPSE
  5
268
330
24B
100
AcDbEntity
  8
$DDT_AUDIT_GENERATED_(CC)
  6
Continuous
 62
     7
100
AcDbEllipse
 10
132.5571351083
 20
674.48194874
 30
0.0
 11
0.5000000000000006
 21
1.000648059515925E-17
 31
0.0
210
0.0
220
0.0
230
1.0
 40
0.0174550649
 41
1.570796326794897
 42
3.054326190989532
  0
ELLIPSE
  5
269
330
24B
100
AcDbEntity
  8
$DDT_AUDIT_GENERATED_(CC)
  6
Continuous
 62
     7
100
AcDbEllipse
 10
135.5884460784
 20
674.4330745582
 30
0.0
 11
-0.2000000000000003
 21
-6.942896496145293E-15
 31
0.0
210
0.0
220
0.0
230
1.0
 40
0.0174550649
 41
0.0872664626018971
 42
1.570796326794896
  0
LINE
  5
26A
330
24B
100
AcDbEntity
  8
$DDT_AUDIT_GENERATED_(CC)
  6
Continuous
 62
     7
100
AcDbLine
 10
131.6094929641
 20
674.4295835452
 30
0.0
 11
99.7988172164
 21
674.4295835452
 31
0.0
  0
LINE
  5
26B
330
24B
100
AcDbEntity
  8
$DDT_AUDIT_GENERATED_(CC)
  6
Continuous
 62
     7
100
AcDbLine
 10
131.8087319037
 20
674.4327702963
 30
0.0
 11
132.0590377592
 21
674.4827093945
 31
0.0
  0
ELLIPSE
  5
26C
330
24B
100
AcDbEntity
  8
$DDT_AUDIT_GENERATED_(CC)
  6
Continuous
 62
     7
100
AcDbEllipse
 10
131.6094929641
 20
674.4330745582
 30
0.0
 11
0.1999999999999999
 21
-6.934891311669165E-15
 31
0.0
210
0.0
220
0.0
230
1.0
 40
0.0174550649
 41
4.71238898038469
 42
6.195918844580975
  0
LINE
  5
26D
330
24B
100
AcDbEntity
  8
$DDT_AUDIT_GENERATED_(DD)
  6
Continuous
 62
     7
100
AcDbLine
 10
164.9989695213
 20
644.4795835452
 30
0.0
 11
164.9989695213
 21
645.1295835452
 31
0.0
  0
LINE
  5
26E
330
24B
100
AcDbEntity
  8
$DDT_AUDIT_GENERATED_(DD)
  6
Continuous
 62
     7
100
AcDbLine
 10
161.1989695213
 20
645.1295835452
 30
0.0
 11
161.1989695213
 21
644.4795835452
 31
0.0
  0
LINE
  5
26F
330
24B
100
AcDbEntity
  8
$DDT_AUDIT_GENERATED_(DD)
  6
Continuous
 62
     7
100
AcDbLine
 10
102.1989695213
 20
644.4795835452
 30
0.0
 11
102.1989695213
 21
645.1295835452
 31
0.0
  0
LINE
  5
270
330
24B
100
AcDbEntity
  8
$DDT_AUDIT_GENERATED_(DD)
  6
Continuous
 62
     7
100
AcDbLine
 10
105.9989695213
 20
645.1295835452
 30
0.0
 11
105.9989695213
 21
644.4795835452
 31
0.0
  0
LINE
  5
271
330
24B
100
AcDbEntity
  8
$DDT_AUDIT_GENERATED_(DD)
  6
Continuous
 62
     7
100
AcDbLine
 10
169.0143733829
 20
635.9971261932
 30
0.0
 11
169.0955394349
 21
638.681804945
 31
0.0
  0
ELLIPSE
  5
272
330
24B
100
AcDbEntity
  8
$DDT_AUDIT_GENERATED_(DD)
  6
Continuous
 62
     7
100
AcDbEllipse
 10
122.6739999869
 20
674.9010052874
 30
0.0
 11
0.1414644378339162
 21
-0.1414644378339162
 31
0.0
210
0.0
220
0.0
230
1.0
 40
0.9996954599
 41
2.356346783439761
 42
3.926838523740393
  0
LINE
  5
273
330
24B
100
AcDbEntity
  8
$DDT_AUDIT_GENERATED_(DD)
  6
Continuous
 62
     7
100
AcDbLine
 10
144.5239999822
 20
675.101035753
 30
0.0
 11
122.6739390603
 21
675.101035753
 31
0.0
  0
LINE
  5
274
330
24B
100
AcDbEntity
  8
$DDT_AUDIT_GENERATED_(DD)
  6
Continuous
 62
     7
100
AcDbLine
 10
144.6484588455
 20
675.1132134354
 30
0.0
 11
146.4422356767
 21
675.1445239265
 31
0.0
  0
LINE
  5
275
330
24B
100
AcDbEntity
  8
$DDT_AUDIT_GENERATED_(DD)
  6
Continuous
 62
     7
100
AcDbLine
 10
146.4422356767
 20
675.1445239265
 30
0.0
 11
147.2872106566
 21
675.1761534588
 31
0.0
  0
ELLIPSE
  5
276
330
24B
100
AcDbEntity
  8
$DDT_AUDIT_GENERATED_(DD)
  6
Continuous
 62
     7
100
AcDbEllipse
 10
144.5239390557
 20
674.9010052874
 30
0.0
 11
-0.1414644378339162
 21
-0.1414644378339162
 31
0.0
210
0.0
220
0.0
230
1.0
 40
0.9996954599
 41
2.356346783439975
 42
3.926838523739754
  0
LINE
  5
277
330
24B
100
AcDbEntity
  8
$DDT_AUDIT_GENERATED_(DD)
  6
Continuous
 62
     7
100
AcDbLine
 10
143.1513130856
 20
574.4361729996
 30
0.0
 11
124.0466259569
 21
574.4361729996
 31
0.0
  0
LINE
  5
278
330
24B
100
AcDbEntity
  8
$DDT_AUDIT_GENERATED_(DD)
  6
Continuous
 62
     7
100
AcDbLine
 10
146.0792919023
 20
574.3990200333
 30
0.0
 11
144.6484588455
 21
574.4239953172
 31
0.0
  0
ELLIPSE
  5
279
330
24B
100
AcDbEntity
  8
$DDT_AUDIT_GENERATED_(DD)
  6
Continuous
 62
     7
100
AcDbEllipse
 10
144.5239390557
 20
574.6362034652
 30
0.0
 11
-0.1414644378339162
 21
0.1414644378339162
 31
0.0
210
0.0
220
0.0
230
1.0
 40
0.9996954599
 41
2.35634678343969
 42
3.027700465471124
  0
LINE
  5
27A
330
24B
100
AcDbEntity
  8
$DDT_AUDIT_GENERATED_(DD)
  6
Continuous
 62
     7
100
AcDbLine
 10
122.549480197
 20
574.4239953172
 30
0.0
 11
121.1186471402
 21
574.3990200333
 31
0.0
  0
ELLIPSE
  5
27B
330
24B
100
AcDbEntity
  8
$DDT_AUDIT_GENERATED_(DD)
  6
Continuous
 62
     7
100
AcDbEllipse
 10
122.6739999869
 20
574.6362034652
 30
0.0
 11
0.1414644378339162
 21
0.1414644378339162
 31
0.0
210
0.0
220
0.0
230
1.0
 40
0.9996954599
 41
3.255484841706252
 42
3.926838523739754
  0
LINE
  5
27C
330
24B
100
AcDbEntity
  8
$DDT_AUDIT_GENERATED_(DD)
  6
Continuous
 62
     7
100
AcDbLine
 10
98.3555589757
 20
607.4478186593
 30
0.0
 11
98.3555589757
 21
611.9113484311
 31
0.0
  0
LINE
  5
27D
330
24B
100
AcDbEntity
  8
$DDT_AUDIT_GENERATED_(DD)
  6
Continuous
 62
     7
100
AcDbLine
 10
168.8423800668
 20
607.4478186593
 30
0.0
 11
168.8423800668
 21
611.9113484311
 31
0.0
  0
LINE
  5
27E
330
24B
100
AcDbEntity
  8
$DDT_AUDIT_GENERATED_(DD)
  6
Continuous
 62
     7
100
AcDbLine
 10
119.9107283859
 20
675.1761534588
 30
0.0
 11
120.7557033658
 21
675.1445239265
 31
0.0
  0
LINE
  5
27F
330
24B
100
AcDbEntity
  8
$DDT_AUDIT_GENERATED_(DD)
  6
Continuous
 62
     7
100
AcDbLine
 10
101.5486954282
 20
574.2795835452
 30
0.0
 11
115.5492436143
 21
574.2795835452
 31
0.0
  0
ELLIPSE
  5
280
330
24B
100
AcDbEntity
  8
$DDT_AUDIT_GENERATED_(DD)
  6
Continuous
 62
     7
100
AcDbEllipse
 10
101.5492439905
 20
574.079309076
 30
0.0
 11
0.1418092486870134
 21
-0.1418092486870134
 31
0.0
210
0.0
220
0.0
230
0.9999999999999998
 40
0.9972646886
 41
2.357564018063227
 42
3.386709506088664
  0
ELLIPSE
  5
281
330
24B
100
AcDbEntity
  8
$DDT_AUDIT_GENERATED_(DD)
  6
Continuous
 62
     7
100
AcDbEllipse
 10
115.5486950521
 20
574.079309076
 30
0.0
 11
-0.1418092486870134
 21
-0.1418092486870133
 31
0.0
210
0.0
220
0.0
230
1.0
 40
0.9972646886
 41
2.898935184941028
 42
3.925621289116715
  0
LINE
  5
282
330
24B
100
AcDbEntity
  8
$DDT_AUDIT_GENERATED_(DD)
  6
Continuous
 62
     7
100
AcDbLine
 10
151.6486954282
 20
574.2795835452
 30
0.0
 11
165.6492436143
 21
574.2795835452
 31
0.0
  0
ELLIPSE
  5
283
330
24B
100
AcDbEntity
  8
$DDT_AUDIT_GENERATED_(DD)
  6
Continuous
 62
     7
100
AcDbEllipse
 10
151.6492439905
 20
574.079309076
 30
0.0
 11
0.1418092486870134
 21
-0.1418092486870133
 31
0.0
210
0.0
220
0.0
230
1.0
 40
0.9972646886
 41
2.357564018063368
 42
3.384250122798244
  0
ELLIPSE
  5
284
330
24B
100
AcDbEntity
  8
$DDT_AUDIT_GENERATED_(DD)
  6
Continuous
 62
     7
100
AcDbEllipse
 10
165.6486950521
 20
574.079309076
 30
0.0
 11
-0.1418092486870134
 21
-0.1418092486870134
 31
0.0
210
0.0
220
0.0
230
0.9999999999999998
 40
0.9972646886
 41
2.896475801160298
 42
3.925621289116359
  0
ELLIPSE
  5
285
330
24B
100
AcDbEntity
  8
$DDT_AUDIT_GENERATED_(DD)
  6
Continuous
 62
     7
100
AcDbEllipse
 10
101.5492439905
 20
675.2798580144
 30
0.0
 11
0.1418092486870134
 21
0.1418092486870134
 31
0.0
210
0.0
220
0.0
230
0.9999999999999998
 40
0.9972646886
 41
2.896475801968653
 42
3.925621289116359
  0
LINE
  5
286
330
24B
100
AcDbEntity
  8
$DDT_AUDIT_GENERATED_(DD)
  6
Continuous
 62
     7
100
AcDbLine
 10
115.5492436143
 20
675.0795835452
 30
0.0
 11
101.5486954282
 21
675.0795835452
 31
0.0
  0
ELLIPSE
  5
287
330
24B
100
AcDbEntity
  8
$DDT_AUDIT_GENERATED_(DD)
  6
Continuous
 62
     7
100
AcDbEllipse
 10
115.5486950521
 20
675.2798580144
 30
0.0
 11
-0.1418092486870134
 21
0.1418092486870133
 31
0.0
210
0.0
220
0.0
230
1.0
 40
0.9972646886
 41
2.35756401806273
 42
3.384250122575329
  0
ELLIPSE
  5
288
330
24B
100
AcDbEntity
  8
$DDT_AUDIT_GENERATED_(DD)
  6
Continuous
 62
     7
100
AcDbEllipse
 10
151.6492439905
 20
675.2798580144
 30
0.0
 11
0.1418092486870134
 21
0.1418092486870133
 31
0.0
210
0.0
220
0.0
230
1.0
 40
0.9972646886
 41
2.898935186048725
 42
3.925621289116218
  0
LINE
  5
289
330
24B
100
AcDbEntity
  8
$DDT_AUDIT_GENERATED_(DD)
  6
Continuous
 62
     7
100
AcDbLine
 10
165.6492436143
 20
675.0795835452
 30
0.0
 11
151.6486954282
 21
675.0795835452
 31
0.0
  0
ELLIPSE
  5
28A
330
24B
100
AcDbEntity
  8
$DDT_AUDIT_GENERATED_(DD)
  6
Continuous
 62
     7
100
AcDbEllipse
 10
165.6486950521
 20
675.2798580144
 30
0.0
 11
-0.1418092486870134
 21
0.1418092486870134
 31
0.0
210
0.0
220
0.0
230
0.9999999999999998
 40
0.9972646886
 41
2.357564018063227
 42
3.386709505817354
  0
LINE
  5
28B
330
24B
100
AcDbEntity
  8
$DDT_AUDIT_GENERATED_(FC)
  6
Continuous
 62
     7
100
AcDbLine
 10
99.7988172164
 20
644.4795835452
 30
0.0
 11
99.0446027927
 21
644.4795835452
 31
0.0
  0
LINE
  5
28C
330
24B
100
AcDbEntity
  8
$DDT_AUDIT_GENERATED_(FC)
  6
Continuous
 62
     7
100
AcDbLine
 10
168.8489695213
 20
612.9458693733
 30
0.0
 11
168.8489695213
 21
619.1795835452
 31
0.0
  0
LINE
  5
28D
330
24B
100
AcDbEntity
  8
$DDT_AUDIT_GENERATED_(FC)
  6
Continuous
 62
     7
100
AcDbLine
 10
168.8489695213
 20
612.9458693733
 30
0.0
 11
168.8489695213
 21
611.9496746752
 31
0.0
  0
LINE
  5
28E
330
24B
100
AcDbEntity
  8
$DDT_AUDIT_GENERATED_(FC)
  6
Continuous
 62
     7
100
AcDbLine
 10
168.8489695213
 20
607.4094924151
 30
0.0
 11
168.8489695213
 21
607.4433641537
 31
0.0
  0
LINE
  5
28F
330
24B
100
AcDbEntity
  8
$DDT_AUDIT_GENERATED_(FC)
  6
Continuous
 62
     7
100
AcDbLine
 10
168.8489695213
 20
607.4094924151
 30
0.0
 11
168.8489695213
 21
606.4132977171
 31
0.0
  0
LINE
  5
290
330
24B
100
AcDbEntity
  8
$DDT_AUDIT_GENERATED_(FC)
  6
Continuous
 62
     7
100
AcDbLine
 10
136.8652553494
 20
574.4795835452
 30
0.0
 11
143.0989695213
 21
574.4795835452
 31
0.0
  0
LINE
  5
291
330
24B
100
AcDbEntity
  8
$DDT_AUDIT_GENERATED_(FC)
  6
Continuous
 62
     7
100
AcDbLine
 10
136.8652553494
 20
574.4795835452
 30
0.0
 11
135.8690606513
 21
574.4795835452
 31
0.0
  0
LINE
  5
292
330
24B
100
AcDbEntity
  8
$DDT_AUDIT_GENERATED_(FC)
  6
Continuous
 62
     7
100
AcDbLine
 10
131.3288783912
 20
574.4795835452
 30
0.0
 11
131.3627501297
 21
574.4795835452
 31
0.0
  0
LINE
  5
293
330
24B
100
AcDbEntity
  8
$DDT_AUDIT_GENERATED_(FC)
  6
Continuous
 62
     7
100
AcDbLine
 10
131.3288783912
 20
574.4795835452
 30
0.0
 11
130.3326836931
 21
574.4795835452
 31
0.0
  0
LINE
  5
294
330
24B
100
AcDbEntity
  8
$DDT_AUDIT_GENERATED_(FC)
  6
Continuous
 62
     7
100
AcDbLine
 10
98.3489695213
 20
606.4132977171
 30
0.0
 11
98.3489695213
 21
600.1795835452
 31
0.0
  0
LINE
  5
295
330
24B
100
AcDbEntity
  8
$DDT_AUDIT_GENERATED_(FC)
  6
Continuous
 62
     7
100
AcDbLine
 10
98.3489695213
 20
606.4132977171
 30
0.0
 11
98.3489695213
 21
607.4094924151
 31
0.0
  0
LINE
  5
296
330
24B
100
AcDbEntity
  8
$DDT_AUDIT_GENERATED_(FC)
  6
Continuous
 62
     7
100
AcDbLine
 10
98.3489695213
 20
611.9496746752
 30
0.0
 11
98.3489695213
 21
611.9158029367
 31
0.0
  0
LINE
  5
297
330
24B
100
AcDbEntity
  8
$DDT_AUDIT_GENERATED_(FC)
  6
Continuous
 62
     7
100
AcDbLine
 10
98.3489695213
 20
611.9496746752
 30
0.0
 11
98.3489695213
 21
612.9458693733
 31
0.0
  0
LINE
  5
298
330
24B
100
AcDbEntity
  8
$DDT_AUDIT_GENERATED_(FC)
  6
Continuous
 62
     7
100
AcDbLine
 10
162.1007301259
 20
644.4795835452
 30
0.0
 11
162.1007301259
 21
644.5795835452
 31
0.0
  0
LINE
  5
299
330
24B
100
AcDbEntity
  8
$DDT_AUDIT_GENERATED_(FC)
  6
Continuous
 62
     7
100
AcDbLine
 10
162.3007225105
 20
644.7795835452
 30
0.0
 11
163.897216532
 21
644.7795835452
 31
0.0
  0
LINE
  5
29A
330
24B
100
AcDbEntity
  8
$DDT_AUDIT_GENERATED_(FC)
  6
Continuous
 62
     7
100
AcDbLine
 10
164.0972089166
 20
644.5795835452
 30
0.0
 11
164.0972089166
 21
644.4795835452
 31
0.0
  0
ARC
  5
29B
330
24B
100
AcDbEntity
  8
$DDT_AUDIT_GENERATED_(FC)
  6
Continuous
 62
     7
100
AcDbCircle
 10
163.897216532
 20
644.5795835452
 30
0.0
 40
0.1999923846128342
100
AcDbArc
 50
0.0
 51
90.0
  0
ARC
  5
29C
330
24B
100
AcDbEntity
  8
$DDT_AUDIT_GENERATED_(FC)
  6
Continuous
 62
     7
100
AcDbCircle
 10
162.3007225105
 20
644.5795835452
 30
0.0
 40
0.1999999999999988
100
AcDbArc
 50
90.0
 51
180.0
  0
LINE
  5
29D
330
24B
100
AcDbEntity
  8
$DDT_AUDIT_GENERATED_(FC)
  6
Continuous
 62
     7
100
AcDbLine
 10
103.3007225105
 20
644.7795835452
 30
0.0
 11
104.897216532
 21
644.7795835452
 31
0.0
  0
LINE
  5
29E
330
24B
100
AcDbEntity
  8
$DDT_AUDIT_GENERATED_(FC)
  6
Continuous
 62
     7
100
AcDbLine
 10
105.0972089166
 20
644.5795835452
 30
0.0
 11
105.0972089166
 21
644.4795835452
 31
0.0
  0
LINE
  5
29F
330
24B
100
AcDbEntity
  8
$DDT_AUDIT_GENERATED_(FC)
  6
Continuous
 62
     7
100
AcDbLine
 10
103.1007301259
 20
644.4795835452
 30
0.0
 11
103.1007301259
 21
644.5795835452
 31
0.0
  0
ARC
  5
2A0
330
24B
100
AcDbEntity
  8
$DDT_AUDIT_GENERATED_(FC)
  6
Continuous
 62
     7
100
AcDbCircle
 10
103.3007225105
 20
644.5795835452
 30
0.0
 40
0.1999999999999988
100
AcDbArc
 50
90.0
 51
180.0
  0
ARC
  5
2A1
330
24B
100
AcDbEntity
  8
$DDT_AUDIT_GENERATED_(FC)
  6
Continuous
 62
     7
100
AcDbCircle
 10
104.897216532
 20
644.5795835452
 30
0.0
 40
0.1999999999999988
100
AcDbArc
 50
0.0
 51
90.0
  0
LINE
  5
2A2
330
24B
100
AcDbEntity
  8
$DDT_AUDIT_GENERATED_(FC)
  6
Continuous
 62
     7
100
AcDbLine
 10
119.8007225105
 20
644.7795835452
 30
0.0
 11
121.397216532
 21
644.7795835452
 31
0.0
  0
LINE
  5
2A3
330
24B
100
AcDbEntity
  8
$DDT_AUDIT_GENERATED_(FC)
  6
Continuous
 62
     7
100
AcDbLine
 10
121.5972089166
 20
644.5795835452
 30
0.0
 11
121.5972089166
 21
644.4795835452
 31
0.0
  0
LINE
  5
2A4
330
24B
100
AcDbEntity
  8
$DDT_AUDIT_GENERATED_(FC)
  6
Continuous
 62
     7
100
AcDbLine
 10
119.6007301259
 20
644.4795835452
 30
0.0
 11
119.6007301259
 21
644.5795835452
 31
0.0
  0
ARC
  5
2A5
330
24B
100
AcDbEntity
  8
$DDT_AUDIT_GENERATED_(FC)
  6
Continuous
 62
     7
100
AcDbCircle
 10
119.8007225105
 20
644.5795835452
 30
0.0
 40
0.1999999999999988
100
AcDbArc
 50
90.0
 51
180.0
  0
ARC
  5
2A6
330
24B
100
AcDbEntity
  8
$DDT_AUDIT_GENERATED_(FC)
  6
Continuous
 62
     7
100
AcDbCircle
 10
121.397216532
 20
644.5795835452
 30
0.0
 40
0.1999999999999988
100
AcDbArc
 50
0.0
 51
90.0
  0
LINE
  5
2A7
330
24B
100
AcDbEntity
  8
$DDT_AUDIT_GENERATED_(FC)
  6
Continuous
 62
     7
100
AcDbLine
 10
145.8007225105
 20
644.7795835452
 30
0.0
 11
147.397216532
 21
644.7795835452
 31
0.0
  0
LINE
  5
2A8
330
24B
100
AcDbEntity
  8
$DDT_AUDIT_GENERATED_(FC)
  6
Continuous
 62
     7
100
AcDbLine
 10
147.5972089166
 20
644.5795835452
 30
0.0
 11
147.5972089166
 21
644.4795835452
 31
0.0
  0
LINE
  5
2A9
330
24B
100
AcDbEntity
  8
$DDT_AUDIT_GENERATED_(FC)
  6
Continuous
 62
     7
100
AcDbLine
 10
145.6007301259
 20
644.4795835452
 30
0.0
 11
145.6007301259
 21
644.5795835452
 31
0.0
  0
ARC
  5
2AA
330
24B
100
AcDbEntity
  8
$DDT_AUDIT_GENERATED_(FC)
  6
Continuous
 62
     7
100
AcDbCircle
 10
145.8007225105
 20
644.5795835452
 30
0.0
 40
0.1999999999999988
100
AcDbArc
 50
90.0
 51
180.0
  0
ARC
  5
2AB
330
24B
100
AcDbEntity
  8
$DDT_AUDIT_GENERATED_(FC)
  6
Continuous
 62
     7
100
AcDbCircle
 10
147.397216532
 20
644.5795835452
 30
0.0
 40
0.1999999999999988
100
AcDbArc
 50
0.0
 51
90.0
  0
LINE
  5
2AC
330
24B
100
AcDbEntity
  8
$DDT_AUDIT_GENERATED_(FC)
  6
Continuous
 62
     7
100
AcDbLine
 10
121.5989695213
 20
574.4795835452
 30
0.0
 11
122.5989695213
 21
574.4795835452
 31
0.0
  0
LINE
  5
2AD
330
24B
100
AcDbEntity
  8
$DDT_AUDIT_GENERATED_(FC)
  6
Continuous
 62
     7
100
AcDbLine
 10
98.3489695213
 20
621.6795835452
 30
0.0
 11
98.3489695213
 21
620.6795835452
 31
0.0
  0
ARC
  5
2AE
330
24B
100
AcDbEntity
  8
$DDT_AUDIT_GENERATED_(FC)
  6
Continuous
 62
     7
100
AcDbCircle
 10
101.0275110955
 20
577.158171868
 30
0.0
 40
2.499999999999998
100
AcDbArc
 50
245.7044631048
 51
269.5028690524
  0
ARC
  5
2AF
330
24B
100
AcDbEntity
  8
$DDT_AUDIT_GENERATED_(FC)
  6
Continuous
 62
     7
100
AcDbCircle
 10
101.0275110955
 20
577.158171868
 30
0.0
 40
2.499999999999998
100
AcDbArc
 50
180.4982116126
 51
206.9481967487
  0
LINE
  5
2B0
330
24B
100
AcDbEntity
  8
$DDT_AUDIT_GENERATED_(FC)
  6
Continuous
 62
     7
100
AcDbLine
 10
98.5276056081
 20
577.1364335594
 30
0.0
 11
98.5076651734
 21
579.4295835452
 31
0.0
  0
ARC
  5
2B1
330
24B
100
AcDbEntity
  8
$DDT_AUDIT_GENERATED_(FC)
  6
Continuous
 62
     7
100
AcDbCircle
 10
99.0446027927
 20
643.9795835452
 30
0.0
 40
0.5000000000000026
100
AcDbArc
 50
90.0
 51
179.4974183333
  0
LINE
  5
2B2
330
24B
100
AcDbEntity
  8
$DDT_AUDIT_GENERATED_(FC)
  6
Continuous
 62
     7
100
AcDbLine
 10
98.3489695213
 20
621.6795835452
 30
0.0
 11
98.4958993458
 21
638.4295835452
 31
0.0
  0
LINE
  5
2B3
330
24B
100
AcDbEntity
  8
$DDT_AUDIT_GENERATED_(FC)
  6
Continuous
 62
     7
100
AcDbLine
 10
121.5989695213
 20
574.4795835452
 30
0.0
 11
104.8489695213
 21
574.6249197708
 31
0.0
  0
LINE
  5
2B4
330
24B
100
AcDbEntity
  8
$DDT_AUDIT_GENERATED_(FC)
  6
Continuous
 62
     7
100
AcDbLine
 10
168.8489695213
 20
597.6795835452
 30
0.0
 11
168.8489695213
 21
598.6795835452
 31
0.0
  0
LINE
  5
2B5
330
24B
100
AcDbEntity
  8
$DDT_AUDIT_GENERATED_(FC)
  6
Continuous
 62
     7
100
AcDbLine
 10
168.1533362499
 20
644.4795835452
 30
0.0
 11
167.3991218261
 21
644.4795835452
 31
0.0
  0
LINE
  5
2B6
330
24B
100
AcDbEntity
  8
$DDT_AUDIT_GENERATED_(FC)
  6
Continuous
 62
     7
100
AcDbLine
 10
168.6533170143
 20
643.9839693414
 30
0.0
 11
168.688881802
 21
639.9295835452
 31
0.0
  0
ARC
  5
2B7
330
24B
100
AcDbEntity
  8
$DDT_AUDIT_GENERATED_(FC)
  6
Continuous
 62
     7
100
AcDbCircle
 10
166.170427947
 20
577.158171868
 30
0.0
 40
2.499999999999999
100
AcDbArc
 50
333.0518032513
 51
359.5017883874
  0
ARC
  5
2B8
330
24B
100
AcDbEntity
  8
$DDT_AUDIT_GENERATED_(FC)
  6
Continuous
 62
     7
100
AcDbCircle
 10
166.170427947
 20
577.158171868
 30
0.0
 40
2.499999999999999
100
AcDbArc
 50
270.4971309476
 51
294.2955368952
  0
LINE
  5
2B9
330
24B
100
AcDbEntity
  8
$DDT_AUDIT_GENERATED_(FC)
  6
Continuous
 62
     7
100
AcDbLine
 10
166.1921191045
 20
574.6582659711
 30
0.0
 11
163.8489695213
 21
574.6379349552
 31
0.0
  0
LINE
  5
2BA
330
24B
100
AcDbEntity
  8
$DDT_AUDIT_GENERATED_(FC)
  6
Continuous
 62
     7
100
AcDbLine
 10
168.8489695213
 20
597.6795835452
 30
0.0
 11
168.7033173473
 21
580.9295835452
 31
0.0
  0
ARC
  5
2BB
330
24B
100
AcDbEntity
  8
$DDT_AUDIT_GENERATED_(FC)
  6
Continuous
 62
     7
100
AcDbCircle
 10
168.1533362499
 20
643.9795835452
 30
0.0
 40
0.5000000000000004
100
AcDbArc
 50
0.5025816667
 51
90.0
  0
ELLIPSE
  5
2BC
330
24B
100
AcDbEntity
  8
$DDT_AUDIT_GENERATED_(FC)
  6
Continuous
 62
     7
100
AcDbEllipse
 10
98.5489695213
 20
611.9158029367
 30
0.0
 11
-0.1999999999999988
 21
-4.002592238063670E-18
 31
0.0
210
0.0
220
0.0
230
1.0
 40
0.0874886635
 41
0.0
 42
1.570796326794897
  0
ELLIPSE
  5
2BD
330
24B
100
AcDbEntity
  8
$DDT_AUDIT_GENERATED_(FC)
  6
Continuous
 62
     7
100
AcDbEllipse
 10
168.6489695213
 20
607.4433641537
 30
0.0
 11
0.1999999999999988
 21
4.002592238063670E-18
 31
0.0
210
0.0
220
0.0
230
1.0
 40
0.0874886635
 41
0.0
 42
1.570796326794897
  0
LINE
  5
2BE
330
24B
100
AcDbEntity
  8
$DDT_AUDIT_GENERATED_(FC)
  6
Continuous
 62
     7
100
AcDbLine
 10
135.8176911801
 20
574.6795835452
 30
0.0
 11
135.8176911801
 21
574.8236782003
 31
0.0
  0
LINE
  5
2BF
330
24B
100
AcDbEntity
  8
$DDT_AUDIT_GENERATED_(FC)
  6
Continuous
 62
     7
100
AcDbLine
 10
135.8351889128
 20
574.4795835452
 30
0.0
 11
135.8690606513
 21
574.4795835452
 31
0.0
  0
ELLIPSE
  5
2C0
330
24B
100
AcDbEntity
  8
$DDT_AUDIT_GENERATED_(FC)
  6
Continuous
 62
     7
100
AcDbEllipse
 10
135.8351889128
 20
574.6795835452
 30
0.0
 11
0.0
 21
0.01749773270518062
 31
0.0
210
0.0
220
0.0
230
1.0
 40
1.0
 41
1.570796326794897
 42
3.141592653589793
  0
ELLIPSE
  5
2C1
330
24B
100
AcDbEntity
  8
$DDT_AUDIT_GENERATED_(FC)
  6
Continuous
 62
     7
100
AcDbEllipse
 10
131.3627501297
 20
574.6795835452
 30
0.0
 11
4.002592238063680E-18
 21
-0.1999999999999988
 31
0.0
210
0.0
220
0.0
230
1.0
 40
0.0874886635
 41
0.0
 42
1.570796326794897
  0
LINE
  5
2C2
330
24B
100
AcDbEntity
  8
$DDT_AUDIT_GENERATED_(FC)
  6
Continuous
 62
     7
100
AcDbLine
 10
98.5489695213
 20
607.4608618864
 30
0.0
 11
98.7930641764
 21
607.4608618864
 31
0.0
  0
LINE
  5
2C3
330
24B
100
AcDbEntity
  8
$DDT_AUDIT_GENERATED_(FC)
  6
Continuous
 62
     7
100
AcDbLine
 10
98.3489695213
 20
607.4433641537
 30
0.0
 11
98.3489695213
 21
607.4094924151
 31
0.0
  0
ELLIPSE
  5
2C4
330
24B
100
AcDbEntity
  8
$DDT_AUDIT_GENERATED_(FC)
  6
Continuous
 62
     7
100
AcDbEllipse
 10
98.5489695213
 20
607.4433641537
 30
0.0
 11
0.1999999999999988
 21
4.002592238063670E-18
 31
0.0
210
0.0
220
0.0
230
1.0
 40
0.0874886635
 41
1.570796326794897
 42
3.141592653589793
  0
LINE
  5
2C5
330
24B
100
AcDbEntity
  8
$DDT_AUDIT_GENERATED_(FC)
  6
Continuous
 62
     7
100
AcDbLine
 10
168.8489695213
 20
611.9158029367
 30
0.0
 11
168.8489695213
 21
611.9496746752
 31
0.0
  0
LINE
  5
2C6
330
24B
100
AcDbEntity
  8
$DDT_AUDIT_GENERATED_(FC)
  6
Continuous
 62
     7
100
AcDbLine
 10
168.6489695213
 20
611.898305204
 30
0.0
 11
168.4048748661
 21
611.898305204
 31
0.0
  0
ELLIPSE
  5
2C7
330
24B
100
AcDbEntity
  8
$DDT_AUDIT_GENERATED_(FC)
  6
Continuous
 62
     7
100
AcDbEllipse
 10
168.6489695213
 20
611.9158029367
 30
0.0
 11
-0.1999999999999988
 21
-4.002592238063670E-18
 31
0.0
210
0.0
220
0.0
230
1.0
 40
0.0874886635
 41
1.570796326794897
 42
3.141592653589793
  0
LINE
  5
2C8
330
24B
100
AcDbEntity
  8
$DDT_AUDIT_GENERATED_(FC)
  6
Continuous
 62
     7
100
AcDbLine
 10
98.7930641764
 20
611.898305204
 30
0.0
 11
98.5489695213
 21
611.898305204
 31
0.0
  0
LINE
  5
2C9
330
24B
100
AcDbEntity
  8
$DDT_AUDIT_GENERATED_(FC)
  6
Continuous
 62
     7
100
AcDbLine
 10
168.4048748661
 20
607.4608618864
 30
0.0
 11
168.6489695213
 21
607.4608618864
 31
0.0
  0
ARC
  5
2CA
330
24B
100
AcDbEntity
  8
$DDT_AUDIT_GENERATED_(FC)
  6
Continuous
 62
     7
100
AcDbCircle
 10
132.106801836
 20
574.8037961735
 30
0.0
 40
3.710942605191546
100
AcDbArc
 50
0.3069736723
 51
1.1847822732
  0
LINE
  5
2CB
330
24B
100
AcDbEntity
  8
$DDT_AUDIT_GENERATED_(FC)
  6
Continuous
 62
     7
100
AcDbLine
 10
131.3802478624
 20
574.8236782003
 30
0.0
 11
131.3802478624
 21
574.6795835452
 31
0.0
  0
ARC
  5
2CC
330
24B
100
AcDbEntity
  8
$DDT_AUDIT_GENERATED_(FC)
  6
Continuous
 62
     7
100
AcDbCircle
 10
135.0911372065
 20
574.8037961735
 30
0.0
 40
3.710942605191031
100
AcDbArc
 50
178.8152177268
 51
179.6930263277
  0
LINE
  5
2CD
330
24B
100
AcDbEntity
  8
$DDT_AUDIT_GENERATED_(FC)
  6
Continuous
 62
     7
100
AcDbLine
 10
98.3489695213
 20
598.6795835452
 30
0.0
 11
98.3489695213
 21
597.6795835452
 31
0.0
  0
LINE
  5
2CE
330
24B
100
AcDbEntity
  8
$DDT_AUDIT_GENERATED_(FC)
  6
Continuous
 62
     7
100
AcDbLine
 10
98.4946216952
 20
580.9295835452
 30
0.0
 11
98.3489695213
 21
597.6795835452
 31
0.0
  0
LINE
  5
2CF
330
24B
100
AcDbEntity
  8
$DDT_AUDIT_GENERATED_(FC)
  6
Continuous
 62
     7
100
AcDbLine
 10
98.2489695213
 20
600.0063784644
 30
0.0
 11
98.2489695213
 21
598.8527886259
 31
0.0
  0
ARC
  5
2D0
330
24B
100
AcDbEntity
  8
$DDT_AUDIT_GENERATED_(FC)
  6
Continuous
 62
     7
100
AcDbCircle
 10
98.4489695213
 20
598.8527886259
 30
0.0
 40
0.1999999999999988
100
AcDbArc
 50
180.0
 51
240.0
  0
ARC
  5
2D1
330
24B
100
AcDbEntity
  8
$DDT_AUDIT_GENERATED_(FC)
  6
Continuous
 62
     7
100
AcDbCircle
 10
98.4489695213
 20
600.0063784644
 30
0.0
 40
0.1999999999999999
100
AcDbArc
 50
120.0
 51
180.0
  0
LINE
  5
2D2
330
24B
100
AcDbEntity
  8
$DDT_AUDIT_GENERATED_(FC)
  6
Continuous
 62
     7
100
AcDbLine
 10
98.4489695213
 20
580.9295835452
 30
0.0
 11
98.4946216952
 21
580.9295835452
 31
0.0
  0
LINE
  5
2D3
330
24B
100
AcDbEntity
  8
$DDT_AUDIT_GENERATED_(FC)
  6
Continuous
 62
     7
100
AcDbLine
 10
98.2489695213
 20
580.7295835452
 30
0.0
 11
98.2489695213
 21
579.6295835452
 31
0.0
  0
LINE
  5
2D4
330
24B
100
AcDbEntity
  8
$DDT_AUDIT_GENERATED_(FC)
  6
Continuous
 62
     7
100
AcDbLine
 10
98.4489695213
 20
579.4295835452
 30
0.0
 11
98.5076651734
 21
579.4295835452
 31
0.0
  0
ARC
  5
2D5
330
24B
100
AcDbEntity
  8
$DDT_AUDIT_GENERATED_(FC)
  6
Continuous
 62
     7
100
AcDbCircle
 10
98.4489695213
 20
579.6295835452
 30
0.0
 40
0.1999999999999988
100
AcDbArc
 50
180.0
 51
270.0
  0
ARC
  5
2D6
330
24B
100
AcDbEntity
  8
$DDT_AUDIT_GENERATED_(FC)
  6
Continuous
 62
     7
100
AcDbCircle
 10
98.4489695213
 20
580.7295835452
 30
0.0
 40
0.1999999999999988
100
AcDbArc
 50
90.0
 51
180.0
  0
LINE
  5
2D7
330
24B
100
AcDbEntity
  8
$DDT_AUDIT_GENERATED_(FC)
  6
Continuous
 62
     7
100
AcDbLine
 10
98.3489695213
 20
619.1795835452
 30
0.0
 11
98.3489695213
 21
612.9458693733
 31
0.0
  0
LINE
  5
2D8
330
24B
100
AcDbEntity
  8
$DDT_AUDIT_GENERATED_(FC)
  6
Continuous
 62
     7
100
AcDbLine
 10
98.5090572406
 20
639.9295835452
 30
0.0
 11
98.5446220282
 21
643.9839693414
 31
0.0
  0
LINE
  5
2D9
330
24B
100
AcDbEntity
  8
$DDT_AUDIT_GENERATED_(FC)
  6
Continuous
 62
     7
100
AcDbLine
 10
98.2489695213
 20
620.5063784644
 30
0.0
 11
98.2489695213
 21
619.3527886259
 31
0.0
  0
ARC
  5
2DA
330
24B
100
AcDbEntity
  8
$DDT_AUDIT_GENERATED_(FC)
  6
Continuous
 62
     7
100
AcDbCircle
 10
98.4489695213
 20
619.3527886259
 30
0.0
 40
0.1999999999999988
100
AcDbArc
 50
180.0
 51
240.0
  0
ARC
  5
2DB
330
24B
100
AcDbEntity
  8
$DDT_AUDIT_GENERATED_(FC)
  6
Continuous
 62
     7
100
AcDbCircle
 10
98.4489695213
 20
620.5063784644
 30
0.0
 40
0.1999999999999994
100
AcDbArc
 50
120.0
 51
180.0
  0
LINE
  5
2DC
330
24B
100
AcDbEntity
  8
$DDT_AUDIT_GENERATED_(FC)
  6
Continuous
 62
     7
100
AcDbLine
 10
98.4489695213
 20
639.9295835452
 30
0.0
 11
98.5090572406
 21
639.9295835452
 31
0.0
  0
LINE
  5
2DD
330
24B
100
AcDbEntity
  8
$DDT_AUDIT_GENERATED_(FC)
  6
Continuous
 62
     7
100
AcDbLine
 10
98.2489695213
 20
639.7295835452
 30
0.0
 11
98.2489695213
 21
638.6295835452
 31
0.0
  0
LINE
  5
2DE
330
24B
100
AcDbEntity
  8
$DDT_AUDIT_GENERATED_(FC)
  6
Continuous
 62
     7
100
AcDbLine
 10
98.4489695213
 20
638.4295835452
 30
0.0
 11
98.4958993458
 21
638.4295835452
 31
0.0
  0
ARC
  5
2DF
330
24B
100
AcDbEntity
  8
$DDT_AUDIT_GENERATED_(FC)
  6
Continuous
 62
     7
100
AcDbCircle
 10
98.4489695213
 20
638.6295835452
 30
0.0
 40
0.1999999999999988
100
AcDbArc
 50
180.0
 51
270.0
  0
ARC
  5
2E0
330
24B
100
AcDbEntity
  8
$DDT_AUDIT_GENERATED_(FC)
  6
Continuous
 62
     7
100
AcDbCircle
 10
98.4489695213
 20
639.7295835452
 30
0.0
 40
0.1999999999999988
100
AcDbArc
 50
90.0
 51
180.0
  0
LINE
  5
2E1
330
24B
100
AcDbEntity
  8
$DDT_AUDIT_GENERATED_(FC)
  6
Continuous
 62
     7
100
AcDbLine
 10
168.8489695213
 20
600.1795835452
 30
0.0
 11
168.8489695213
 21
606.4132977171
 31
0.0
  0
LINE
  5
2E2
330
24B
100
AcDbEntity
  8
$DDT_AUDIT_GENERATED_(FC)
  6
Continuous
 62
     7
100
AcDbLine
 10
168.6902738691
 20
579.4295835452
 30
0.0
 11
168.6703334344
 21
577.1364335594
 31
0.0
  0
LINE
  5
2E3
330
24B
100
AcDbEntity
  8
$DDT_AUDIT_GENERATED_(FC)
  6
Continuous
 62
     7
100
AcDbLine
 10
168.9489695213
 20
598.8527886259
 30
0.0
 11
168.9489695213
 21
600.0063784644
 31
0.0
  0
ARC
  5
2E4
330
24B
100
AcDbEntity
  8
$DDT_AUDIT_GENERATED_(FC)
  6
Continuous
 62
     7
100
AcDbCircle
 10
168.7489695213
 20
600.0063784644
 30
0.0
 40
0.1999999999999988
100
AcDbArc
 50
0.0
 51
60.0
  0
ARC
  5
2E5
330
24B
100
AcDbEntity
  8
$DDT_AUDIT_GENERATED_(FC)
  6
Continuous
 62
     7
100
AcDbCircle
 10
168.7489695213
 20
598.8527886259
 30
0.0
 40
0.200000000000002
100
AcDbArc
 50
300.0
 51
0.0
  0
LINE
  5
2E6
330
24B
100
AcDbEntity
  8
$DDT_AUDIT_GENERATED_(FC)
  6
Continuous
 62
     7
100
AcDbLine
 10
168.7489695213
 20
579.4295835452
 30
0.0
 11
168.6902738691
 21
579.4295835452
 31
0.0
  0
LINE
  5
2E7
330
24B
100
AcDbEntity
  8
$DDT_AUDIT_GENERATED_(FC)
  6
Continuous
 62
     7
100
AcDbLine
 10
168.9489695213
 20
579.6295835452
 30
0.0
 11
168.9489695213
 21
580.7295835452
 31
0.0
  0
LINE
  5
2E8
330
24B
100
AcDbEntity
  8
$DDT_AUDIT_GENERATED_(FC)
  6
Continuous
 62
     7
100
AcDbLine
 10
168.7489695213
 20
580.9295835452
 30
0.0
 11
168.7033173473
 21
580.9295835452
 31
0.0
  0
ARC
  5
2E9
330
24B
100
AcDbEntity
  8
$DDT_AUDIT_GENERATED_(FC)
  6
Continuous
 62
     7
100
AcDbCircle
 10
168.7489695213
 20
580.7295835452
 30
0.0
 40
0.1999999999999988
100
AcDbArc
 50
0.0
 51
90.0
  0
ARC
  5
2EA
330
24B
100
AcDbEntity
  8
$DDT_AUDIT_GENERATED_(FC)
  6
Continuous
 62
     7
100
AcDbCircle
 10
168.7489695213
 20
579.6295835452
 30
0.0
 40
0.1999999999999988
100
AcDbArc
 50
270.0
 51
0.0
  0
LINE
  5
2EB
330
24B
100
AcDbEntity
  8
$DDT_AUDIT_GENERATED_(FC)
  6
Continuous
 62
     7
100
AcDbLine
 10
168.8489695213
 20
620.6795835452
 30
0.0
 11
168.8489695213
 21
621.6795835452
 31
0.0
  0
LINE
  5
2EC
330
24B
100
AcDbEntity
  8
$DDT_AUDIT_GENERATED_(FC)
  6
Continuous
 62
     7
100
AcDbLine
 10
168.7020396967
 20
638.4295835452
 30
0.0
 11
168.8489695213
 21
621.6795835452
 31
0.0
  0
LINE
  5
2ED
330
24B
100
AcDbEntity
  8
$DDT_AUDIT_GENERATED_(FC)
  6
Continuous
 62
     7
100
AcDbLine
 10
168.9489695213
 20
619.3527886259
 30
0.0
 11
168.9489695213
 21
620.5063784644
 31
0.0
  0
ARC
  5
2EE
330
24B
100
AcDbEntity
  8
$DDT_AUDIT_GENERATED_(FC)
  6
Continuous
 62
     7
100
AcDbCircle
 10
168.7489695213
 20
620.5063784644
 30
0.0
 40
0.1999999999999988
100
AcDbArc
 50
0.0
 51
60.0
  0
ARC
  5
2EF
330
24B
100
AcDbEntity
  8
$DDT_AUDIT_GENERATED_(FC)
  6
Continuous
 62
     7
100
AcDbCircle
 10
168.7489695213
 20
619.3527886259
 30
0.0
 40
0.1999999999999994
100
AcDbArc
 50
300.0
 51
0.0
  0
LINE
  5
2F0
330
24B
100
AcDbEntity
  8
$DDT_AUDIT_GENERATED_(FC)
  6
Continuous
 62
     7
100
AcDbLine
 10
168.7489695213
 20
638.4295835452
 30
0.0
 11
168.7020396967
 21
638.4295835452
 31
0.0
  0
LINE
  5
2F1
330
24B
100
AcDbEntity
  8
$DDT_AUDIT_GENERATED_(FC)
  6
Continuous
 62
     7
100
AcDbLine
 10
168.9489695213
 20
638.6295835452
 30
0.0
 11
168.9489695213
 21
639.7295835452
 31
0.0
  0
LINE
  5
2F2
330
24B
100
AcDbEntity
  8
$DDT_AUDIT_GENERATED_(FC)
  6
Continuous
 62
     7
100
AcDbLine
 10
168.7489695213
 20
639.9295835452
 30
0.0
 11
168.688881802
 21
639.9295835452
 31
0.0
  0
ARC
  5
2F3
330
24B
100
AcDbEntity
  8
$DDT_AUDIT_GENERATED_(FC)
  6
Continuous
 62
     7
100
AcDbCircle
 10
168.7489695213
 20
639.7295835452
 30
0.0
 40
0.1999999999999988
100
AcDbArc
 50
0.0
 51
90.0
  0
ARC
  5
2F4
330
24B
100
AcDbEntity
  8
$DDT_AUDIT_GENERATED_(FC)
  6
Continuous
 62
     7
100
AcDbCircle
 10
168.7489695213
 20
638.6295835452
 30
0.0
 40
0.1999999999999988
100
AcDbArc
 50
270.0
 51
0.0
  0
LINE
  5
2F5
330
24B
100
AcDbEntity
  8
$DDT_AUDIT_GENERATED_(FC)
  6
Continuous
 62
     7
100
AcDbLine
 10
144.5989695213
 20
574.4795835452
 30
0.0
 11
145.5989695213
 21
574.4795835452
 31
0.0
  0
LINE
  5
2F6
330
24B
100
AcDbEntity
  8
$DDT_AUDIT_GENERATED_(FC)
  6
Continuous
 62
     7
100
AcDbLine
 10
162.3489695213
 20
574.6249197708
 30
0.0
 11
145.5989695213
 21
574.4795835452
 31
0.0
  0
LINE
  5
2F7
330
24B
100
AcDbEntity
  8
$DDT_AUDIT_GENERATED_(FC)
  6
Continuous
 62
     7
100
AcDbLine
 10
143.2509563628
 20
574.4095835452
 30
0.0
 11
144.4469826797
 21
574.4095835452
 31
0.0
  0
ARC
  5
2F8
330
24B
100
AcDbEntity
  8
$DDT_AUDIT_GENERATED_(FC)
  6
Continuous
 62
     7
100
AcDbCircle
 10
144.4469826797
 20
574.6095835452
 30
0.0
 40
0.1999999999999988
100
AcDbArc
 50
270.0
 51
319.4583981265
  0
ARC
  5
2F9
330
24B
100
AcDbEntity
  8
$DDT_AUDIT_GENERATED_(FC)
  6
Continuous
 62
     7
100
AcDbCircle
 10
143.2509563628
 20
574.6095835452
 30
0.0
 40
0.2000000000000006
100
AcDbArc
 50
220.5416018735
 51
270.0
  0
LINE
  5
2FA
330
24B
100
AcDbEntity
  8
$DDT_AUDIT_GENERATED_(FC)
  6
Continuous
 62
     7
100
AcDbLine
 10
162.3489695213
 20
574.6095835452
 30
0.0
 11
162.3489695213
 21
574.6249197708
 31
0.0
  0
LINE
  5
2FB
330
24B
100
AcDbEntity
  8
$DDT_AUDIT_GENERATED_(FC)
  6
Continuous
 62
     7
100
AcDbLine
 10
162.5489695213
 20
574.4095835452
 30
0.0
 11
163.6489695213
 21
574.4095835452
 31
0.0
  0
LINE
  5
2FC
330
24B
100
AcDbEntity
  8
$DDT_AUDIT_GENERATED_(FC)
  6
Continuous
 62
     7
100
AcDbLine
 10
163.8489695213
 20
574.6095835452
 30
0.0
 11
163.8489695213
 21
574.6379349552
 31
0.0
  0
ARC
  5
2FD
330
24B
100
AcDbEntity
  8
$DDT_AUDIT_GENERATED_(FC)
  6
Continuous
 62
     7
100
AcDbCircle
 10
163.6489695213
 20
574.6095835452
 30
0.0
 40
0.1999999999999988
100
AcDbArc
 50
270.0
 51
0.0
  0
ARC
  5
2FE
330
24B
100
AcDbEntity
  8
$DDT_AUDIT_GENERATED_(FC)
  6
Continuous
 62
     7
100
AcDbCircle
 10
162.5489695213
 20
574.6095835452
 30
0.0
 40
0.1999999999999988
100
AcDbArc
 50
180.0
 51
270.0
  0
LINE
  5
2FF
330
24B
100
AcDbEntity
  8
$DDT_AUDIT_GENERATED_(FC)
  6
Continuous
 62
     7
100
AcDbLine
 10
124.0989695213
 20
574.4795835452
 30
0.0
 11
130.3326836931
 21
574.4795835452
 31
0.0
  0
LINE
  5
300
330
24B
100
AcDbEntity
  8
$DDT_AUDIT_GENERATED_(FC)
  6
Continuous
 62
     7
100
AcDbLine
 10
103.3489695213
 20
574.6379349552
 30
0.0
 11
101.005819938
 21
574.6582659711
 31
0.0
  0
LINE
  5
301
330
24B
100
AcDbEntity
  8
$DDT_AUDIT_GENERATED_(FC)
  6
Continuous
 62
     7
100
AcDbLine
 10
122.7509563628
 20
574.4095835452
 30
0.0
 11
123.9469826797
 21
574.4095835452
 31
0.0
  0
ARC
  5
302
330
24B
100
AcDbEntity
  8
$DDT_AUDIT_GENERATED_(FC)
  6
Continuous
 62
     7
100
AcDbCircle
 10
123.9469826797
 20
574.6095835452
 30
0.0
 40
0.1999999999999988
100
AcDbArc
 50
270.0
 51
319.4583981265
  0
ARC
  5
303
330
24B
100
AcDbEntity
  8
$DDT_AUDIT_GENERATED_(FC)
  6
Continuous
 62
     7
100
AcDbCircle
 10
122.7509563628
 20
574.6095835452
 30
0.0
 40
0.2
100
AcDbArc
 50
220.5416018735
 51
270.0
  0
LINE
  5
304
330
24B
100
AcDbEntity
  8
$DDT_AUDIT_GENERATED_(FC)
  6
Continuous
 62
     7
100
AcDbLine
 10
103.3489695213
 20
574.6095835452
 30
0.0
 11
103.3489695213
 21
574.6379349552
 31
0.0
  0
LINE
  5
305
330
24B
100
AcDbEntity
  8
$DDT_AUDIT_GENERATED_(FC)
  6
Continuous
 62
     7
100
AcDbLine
 10
103.5489695213
 20
574.4095835452
 30
0.0
 11
104.6489695213
 21
574.4095835452
 31
0.0
  0
LINE
  5
306
330
24B
100
AcDbEntity
  8
$DDT_AUDIT_GENERATED_(FC)
  6
Continuous
 62
     7
100
AcDbLine
 10
104.8489695213
 20
574.6095835452
 30
0.0
 11
104.8489695213
 21
574.6249197708
 31
0.0
  0
ARC
  5
307
330
24B
100
AcDbEntity
  8
$DDT_AUDIT_GENERATED_(FC)
  6
Continuous
 62
     7
100
AcDbCircle
 10
104.6489695213
 20
574.6095835452
 30
0.0
 40
0.1999999999999988
100
AcDbArc
 50
270.0
 51
0.0
  0
ARC
  5
308
330
24B
100
AcDbEntity
  8
$DDT_AUDIT_GENERATED_(FC)
  6
Continuous
 62
     7
100
AcDbCircle
 10
103.5489695213
 20
574.6095835452
 30
0.0
 40
0.1999999999999988
100
AcDbArc
 50
180.0
 51
270.0
  0
LINE
  5
309
330
24B
100
AcDbEntity
  8
$DDT_AUDIT_GENERATED_(17B)
  6
Continuous
 62
     7
100
AcDbLine
 10
98.3189695213
 20
672.4295835452
 30
0.0
 11
98.3189695213
 21
666.6795835452
 31
0.0
  0
ARC
  5
30A
330
24B
100
AcDbEntity
  8
$DDT_AUDIT_GENERATED_(17B)
  6
Continuous
 62
     7
100
AcDbCircle
 10
100.8189695213
 20
672.4295835452
 30
0.0
 40
2.500000000000002
100
AcDbArc
 50
90.0
 51
180.0
  0
LINE
  5
30B
330
24B
100
AcDbEntity
  8
$DDT_AUDIT_GENERATED_(17B)
  6
Continuous
 62
     7
100
AcDbLine
 10
166.3789695213
 20
674.9295835452
 30
0.0
 11
144.5989695213
 21
674.9295835452
 31
0.0
  0
ARC
  5
30C
330
24B
100
AcDbEntity
  8
$DDT_AUDIT_GENERATED_(17B)
  6
Continuous
 62
     7
100
AcDbCircle
 10
166.3789695213
 20
672.4295835452
 30
0.0
 40
2.500000000000002
100
AcDbArc
 50
0.0
 51
90.0
  0
LINE
  5
30D
330
24B
100
AcDbEntity
  8
$DDT_AUDIT_GENERATED_(17B)
  6
Continuous
 62
     7
100
AcDbLine
 10
168.8789695213
 20
645.6295835452
 30
0.0
 11
168.8789695213
 21
649.8795835452
 31
0.0
  0
ARC
  5
30E
330
24B
100
AcDbEntity
  8
$DDT_AUDIT_GENERATED_(17B)
  6
Continuous
 62
     7
100
AcDbCircle
 10
168.3789695213
 20
645.6295835452
 30
0.0
 40
0.5000000000000004
100
AcDbArc
 50
270.0
 51
0.0
  0
LINE
  5
30F
330
24B
100
AcDbEntity
  8
$DDT_AUDIT_GENERATED_(17B)
  6
Continuous
 62
     7
100
AcDbLine
 10
98.8189695213
 20
645.1295835452
 30
0.0
 11
99.7988172164
 21
645.1295835452
 31
0.0
  0
ARC
  5
310
330
24B
100
AcDbEntity
  8
$DDT_AUDIT_GENERATED_(17B)
  6
Continuous
 62
     7
100
AcDbCircle
 10
98.8189695213
 20
645.6295835452
 30
0.0
 40
0.5000000000000004
100
AcDbArc
 50
180.0
 51
270.0
  0
LINE
  5
311
330
24B
100
AcDbEntity
  8
$DDT_AUDIT_GENERATED_(17B)
  6
Continuous
 62
     7
100
AcDbLine
 10
167.3991218261
 20
645.1295835452
 30
0.0
 11
168.3789695213
 21
645.1295835452
 31
0.0
  0
LINE
  5
312
330
24B
100
AcDbEntity
  8
$DDT_AUDIT_GENERATED_(17B)
  6
Continuous
 62
     7
100
AcDbLine
 10
135.8690606513
 20
674.9295835452
 30
0.0
 11
135.8351889128
 21
674.9295835452
 31
0.0
  0
LINE
  5
313
330
24B
100
AcDbEntity
  8
$DDT_AUDIT_GENERATED_(17B)
  6
Continuous
 62
     7
100
AcDbLine
 10
135.8690606513
 20
674.9295835452
 30
0.0
 11
136.8652553494
 21
674.9295835452
 31
0.0
  0
LINE
  5
314
330
24B
100
AcDbEntity
  8
$DDT_AUDIT_GENERATED_(17B)
  6
Continuous
 62
     7
100
AcDbLine
 10
130.3326836931
 20
674.9295835452
 30
0.0
 11
124.0989695213
 21
674.9295835452
 31
0.0
  0
LINE
  5
315
330
24B
100
AcDbEntity
  8
$DDT_AUDIT_GENERATED_(17B)
  6
Continuous
 62
     7
100
AcDbLine
 10
130.3326836931
 20
674.9295835452
 30
0.0
 11
131.3288783912
 21
674.9295835452
 31
0.0
  0
LINE
  5
316
330
24B
100
AcDbEntity
  8
$DDT_AUDIT_GENERATED_(17B)
  6
Continuous
 62
     7
100
AcDbLine
 10
135.8176911801
 20
674.7295835452
 30
0.0
 11
135.8176911801
 21
674.5295835452
 31
0.0
  0
ELLIPSE
  5
317
330
24B
100
AcDbEntity
  8
$DDT_AUDIT_GENERATED_(17B)
  6
Continuous
 62
     7
100
AcDbEllipse
 10
135.8351889128
 20
674.7295835452
 30
0.0
 11
0.0
 21
0.2000000000000455
 31
0.0
210
0.0
220
0.0
230
1.0
 40
1.0
 41
0.0
 42
1.570796326794897
  0
LINE
  5
318
330
24B
100
AcDbEntity
  8
$DDT_AUDIT_GENERATED_(17B)
  6
Continuous
 62
     7
100
AcDbLine
 10
131.3627501297
 20
674.9295835452
 30
0.0
 11
131.3288783912
 21
674.9295835452
 31
0.0
  0
ELLIPSE
  5
319
330
24B
100
AcDbEntity
  8
$DDT_AUDIT_GENERATED_(17B)
  6
Continuous
 62
     7
100
AcDbEllipse
 10
131.3627501297
 20
674.7295835452
 30
0.0
 11
4.002592238063680E-18
 21
-0.1999999999999988
 31
0.0
210
0.0
220
0.0
230
1.0
 40
0.0874886635
 41
1.570796326794897
 42
3.141592653589793
  0
LINE
  5
31A
330
24B
100
AcDbEntity
  8
$DDT_AUDIT_GENERATED_(17B)
  6
Continuous
 62
     7
100
AcDbLine
 10
131.3802478624
 20
674.5295835452
 30
0.0
 11
131.3802478624
 21
674.7295835452
 31
0.0
  0
ELLIPSE
  5
31B
330
24B
100
AcDbEntity
  8
$DDT_AUDIT_GENERATED_(17B)
  6
Continuous
 62
     7
100
AcDbEllipse
 10
131.3977455952
 20
674.5295835452
 30
0.0
 11
4.002592238063680E-18
 21
-0.1999999999999988
 31
0.0
210
0.0
220
0.0
230
1.0
 40
0.0874886635
 41
4.71238898038469
 42
5.235987755983123
  0
ELLIPSE
  5
31C
330
24B
100
AcDbEntity
  8
$DDT_AUDIT_GENERATED_(17B)
  6
Continuous
 62
     7
100
AcDbEllipse
 10
135.8001934474
 20
674.5295835452
 30
0.0
 11
0.0
 21
0.1011416234167274
 31
0.0
210
0.0
220
0.0
230
1.0
 40
1.0
 41
3.291983299163078
 42
4.71238898038469
  0
LINE
  5
31D
330
24B
100
AcDbEntity
  8
$DDT_AUDIT_GENERATED_(17B)
  6
Continuous
 62
     7
100
AcDbLine
 10
103.0955394349
 20
645.0260930639
 30
0.0
 11
103.0937330018
 21
645.1295835452
 31
0.0
  0
LINE
  5
31E
330
24B
100
AcDbEntity
  8
$DDT_AUDIT_GENERATED_(17B)
  6
Continuous
 62
     7
100
AcDbLine
 10
105.1042060407
 20
645.1295835452
 30
0.0
 11
105.1023996077
 21
645.0260930639
 31
0.0
  0
ARC
  5
31F
330
24B
100
AcDbEntity
  8
$DDT_AUDIT_GENERATED_(17B)
  6
Continuous
 62
     7
100
AcDbCircle
 10
103.2955089739
 20
645.0295835452
 30
0.0
 40
0.1999999999999988
100
AcDbArc
 50
181.0
 51
270.0
  0
ARC
  5
320
330
24B
100
AcDbEntity
  8
$DDT_AUDIT_GENERATED_(17B)
  6
Continuous
 62
     7
100
AcDbCircle
 10
104.9024300686
 20
645.0295835452
 30
0.0
 40
0.2000000000000009
100
AcDbArc
 50
270.0
 51
359.0
  0
LINE
  5
321
330
24B
100
AcDbEntity
  8
$DDT_AUDIT_GENERATED_(17B)
  6
Continuous
 62
     7
100
AcDbLine
 10
104.9024300686
 20
644.8295835452
 30
0.0
 11
103.2955089739
 21
644.8295835452
 31
0.0
  0
LINE
  5
322
330
24B
100
AcDbEntity
  8
$DDT_AUDIT_GENERATED_(17B)
  6
Continuous
 62
     7
100
AcDbLine
 10
164.1042060407
 20
645.1295835452
 30
0.0
 11
164.1023996077
 21
645.0260930639
 31
0.0
  0
ARC
  5
323
330
24B
100
AcDbEntity
  8
$DDT_AUDIT_GENERATED_(17B)
  6
Continuous
 62
     7
100
AcDbCircle
 10
163.9024300686
 20
645.0295835452
 30
0.0
 40
0.2000000000000009
100
AcDbArc
 50
270.0
 51
359.0
  0
LINE
  5
324
330
24B
100
AcDbEntity
  8
$DDT_AUDIT_GENERATED_(17B)
  6
Continuous
 62
     7
100
AcDbLine
 10
163.9024300686
 20
644.8295835452
 30
0.0
 11
162.2955089739
 21
644.8295835452
 31
0.0
  0
ARC
  5
325
330
24B
100
AcDbEntity
  8
$DDT_AUDIT_GENERATED_(17B)
  6
Continuous
 62
     7
100
AcDbCircle
 10
162.2955089739
 20
645.0295835452
 30
0.0
 40
0.1999999999999988
100
AcDbArc
 50
181.0
 51
270.0
  0
LINE
  5
326
330
24B
100
AcDbEntity
  8
$DDT_AUDIT_GENERATED_(17B)
  6
Continuous
 62
     7
100
AcDbLine
 10
162.0955394349
 20
645.0260930639
 30
0.0
 11
162.0937330018
 21
645.1295835452
 31
0.0
  0
LINE
  5
327
330
24B
100
AcDbEntity
  8
$DDT_AUDIT_GENERATED_(17B)
  6
Continuous
 62
     7
100
AcDbLine
 10
145.5955394349
 20
645.0260930639
 30
0.0
 11
145.5937330018
 21
645.1295835452
 31
0.0
  0
ARC
  5
328
330
24B
100
AcDbEntity
  8
$DDT_AUDIT_GENERATED_(17B)
  6
Continuous
 62
     7
100
AcDbCircle
 10
145.7955089739
 20
645.0295835452
 30
0.0
 40
0.1999999999999988
100
AcDbArc
 50
181.0
 51
270.0
  0
LINE
  5
329
330
24B
100
AcDbEntity
  8
$DDT_AUDIT_GENERATED_(17B)
  6
Continuous
 62
     7
100
AcDbLine
 10
147.4024300686
 20
644.8295835452
 30
0.0
 11
145.7955089739
 21
644.8295835452
 31
0.0
  0
ARC
  5
32A
330
24B
100
AcDbEntity
  8
$DDT_AUDIT_GENERATED_(17B)
  6
Continuous
 62
     7
100
AcDbCircle
 10
147.4024300686
 20
645.0295835452
 30
0.0
 40
0.1999999999999992
100
AcDbArc
 50
270.0
 51
359.0
  0
LINE
  5
32B
330
24B
100
AcDbEntity
  8
$DDT_AUDIT_GENERATED_(17B)
  6
Continuous
 62
     7
100
AcDbLine
 10
147.6042060407
 20
645.1295835452
 30
0.0
 11
147.6023996077
 21
645.0260930639
 31
0.0
  0
LINE
  5
32C
330
24B
100
AcDbEntity
  8
$DDT_AUDIT_GENERATED_(17B)
  6
Continuous
 62
     7
100
AcDbLine
 10
119.5955394349
 20
645.0260930639
 30
0.0
 11
119.5937330018
 21
645.1295835452
 31
0.0
  0
ARC
  5
32D
330
24B
100
AcDbEntity
  8
$DDT_AUDIT_GENERATED_(17B)
  6
Continuous
 62
     7
100
AcDbCircle
 10
119.7955089739
 20
645.0295835452
 30
0.0
 40
0.1999999999999988
100
AcDbArc
 50
181.0
 51
270.0
  0
LINE
  5
32E
330
24B
100
AcDbEntity
  8
$DDT_AUDIT_GENERATED_(17B)
  6
Continuous
 62
     7
100
AcDbLine
 10
121.4024300686
 20
644.8295835452
 30
0.0
 11
119.7955089739
 21
644.8295835452
 31
0.0
  0
ARC
  5
32F
330
24B
100
AcDbEntity
  8
$DDT_AUDIT_GENERATED_(17B)
  6
Continuous
 62
     7
100
AcDbCircle
 10
121.4024300686
 20
645.0295835452
 30
0.0
 40
0.1999999999999992
100
AcDbArc
 50
270.0
 51
359.0
  0
LINE
  5
330
330
24B
100
AcDbEntity
  8
$DDT_AUDIT_GENERATED_(17B)
  6
Continuous
 62
     7
100
AcDbLine
 10
121.6042060407
 20
645.1295835452
 30
0.0
 11
121.6023996077
 21
645.0260930639
 31
0.0
  0
LINE
  5
331
330
24B
100
AcDbEntity
  8
$DDT_AUDIT_GENERATED_(17B)
  6
Continuous
 62
     7
100
AcDbLine
 10
168.8789695213
 20
650.9795835452
 30
0.0
 11
168.8789695213
 21
665.5795835452
 31
0.0
  0
LINE
  5
332
330
24B
100
AcDbEntity
  8
$DDT_AUDIT_GENERATED_(17B)
  6
Continuous
 62
     7
100
AcDbLine
 10
168.8789695213
 20
666.6795835452
 30
0.0
 11
168.8789695213
 21
672.4295835452
 31
0.0
  0
LINE
  5
333
330
24B
100
AcDbEntity
  8
$DDT_AUDIT_GENERATED_(17B)
  6
Continuous
 62
     7
100
AcDbLine
 10
168.9489695213
 20
665.7315703867
 30
0.0
 11
168.9489695213
 21
666.5275967036
 31
0.0
  0
ARC
  5
334
330
24B
100
AcDbEntity
  8
$DDT_AUDIT_GENERATED_(17B)
  6
Continuous
 62
     7
100
AcDbCircle
 10
168.7489695213
 20
666.5275967036
 30
0.0
 40
0.1999999999999988
100
AcDbArc
 50
0.0
 51
49.4583981265
  0
ARC
  5
335
330
24B
100
AcDbEntity
  8
$DDT_AUDIT_GENERATED_(17B)
  6
Continuous
 62
     7
100
AcDbCircle
 10
168.7489695213
 20
665.7315703867
 30
0.0
 40
0.2000000000000006
100
AcDbArc
 50
310.5416018735
 51
0.0
  0
LINE
  5
336
330
24B
100
AcDbEntity
  8
$DDT_AUDIT_GENERATED_(17B)
  6
Continuous
 62
     7
100
AcDbLine
 10
168.9489695213
 20
650.0315703867
 30
0.0
 11
168.9489695213
 21
650.8275967036
 31
0.0
  0
ARC
  5
337
330
24B
100
AcDbEntity
  8
$DDT_AUDIT_GENERATED_(17B)
  6
Continuous
 62
     7
100
AcDbCircle
 10
168.7489695213
 20
650.8275967036
 30
0.0
 40
0.1999999999999988
100
AcDbArc
 50
0.0
 51
49.4583981265
  0
ARC
  5
338
330
24B
100
AcDbEntity
  8
$DDT_AUDIT_GENERATED_(17B)
  6
Continuous
 62
     7
100
AcDbCircle
 10
168.7489695213
 20
650.0315703867
 30
0.0
 40
0.2000000000000006
100
AcDbArc
 50
310.5416018735
 51
0.0
  0
LINE
  5
339
330
24B
100
AcDbEntity
  8
$DDT_AUDIT_GENERATED_(17B)
  6
Continuous
 62
     7
100
AcDbLine
 10
98.3189695213
 20
649.8795835452
 30
0.0
 11
98.3189695213
 21
645.6295835452
 31
0.0
  0
LINE
  5
33A
330
24B
100
AcDbEntity
  8
$DDT_AUDIT_GENERATED_(17B)
  6
Continuous
 62
     7
100
AcDbLine
 10
98.3189695213
 20
665.5795835452
 30
0.0
 11
98.3189695213
 21
650.9795835452
 31
0.0
  0
LINE
  5
33B
330
24B
100
AcDbEntity
  8
$DDT_AUDIT_GENERATED_(17B)
  6
Continuous
 62
     7
100
AcDbLine
 10
98.2489695213
 20
666.5275967036
 30
0.0
 11
98.2489695213
 21
665.7315703867
 31
0.0
  0
ARC
  5
33C
330
24B
100
AcDbEntity
  8
$DDT_AUDIT_GENERATED_(17B)
  6
Continuous
 62
     7
100
AcDbCircle
 10
98.4489695213
 20
665.7315703867
 30
0.0
 40
0.2000000000000057
100
AcDbArc
 50
180.0
 51
229.4583981265
  0
ARC
  5
33D
330
24B
100
AcDbEntity
  8
$DDT_AUDIT_GENERATED_(17B)
  6
Continuous
 62
     7
100
AcDbCircle
 10
98.4489695213
 20
666.5275967036
 30
0.0
 40
0.2000000000000013
100
AcDbArc
 50
130.5416018735
 51
180.0
  0
LINE
  5
33E
330
24B
100
AcDbEntity
  8
$DDT_AUDIT_GENERATED_(17B)
  6
Continuous
 62
     7
100
AcDbLine
 10
98.2489695213
 20
650.8275967036
 30
0.0
 11
98.2489695213
 21
650.0315703867
 31
0.0
  0
ARC
  5
33F
330
24B
100
AcDbEntity
  8
$DDT_AUDIT_GENERATED_(17B)
  6
Continuous
 62
     7
100
AcDbCircle
 10
98.4489695213
 20
650.0315703867
 30
0.0
 40
0.1999999999999988
100
AcDbArc
 50
180.0
 51
229.4583981265
  0
ARC
  5
340
330
24B
100
AcDbEntity
  8
$DDT_AUDIT_GENERATED_(17B)
  6
Continuous
 62
     7
100
AcDbCircle
 10
98.4489695213
 20
650.8275967036
 30
0.0
 40
0.2000000000000006
100
AcDbArc
 50
130.5416018735
 51
180.0
  0
LINE
  5
341
330
24B
100
AcDbEntity
  8
$DDT_AUDIT_GENERATED_(17B)
  6
Continuous
 62
     7
100
AcDbLine
 10
122.5989695213
 20
674.9295835452
 30
0.0
 11
100.8189695213
 21
674.9295835452
 31
0.0
  0
LINE
  5
342
330
24B
100
AcDbEntity
  8
$DDT_AUDIT_GENERATED_(17B)
  6
Continuous
 62
     7
100
AcDbLine
 10
123.9469826797
 20
674.9995835452
 30
0.0
 11
122.7509563628
 21
674.9995835452
 31
0.0
  0
ARC
  5
343
330
24B
100
AcDbEntity
  8
$DDT_AUDIT_GENERATED_(17B)
  6
Continuous
 62
     7
100
AcDbCircle
 10
122.7509563628
 20
674.7995835452
 30
0.0
 40
0.2000000000000057
100
AcDbArc
 50
90.0
 51
139.4583981265
  0
ARC
  5
344
330
24B
100
AcDbEntity
  8
$DDT_AUDIT_GENERATED_(17B)
  6
Continuous
 62
     7
100
AcDbCircle
 10
123.9469826797
 20
674.7995835452
 30
0.0
 40
0.2000000000000019
100
AcDbArc
 50
40.5416018735
 51
90.0
  0
LINE
  5
345
330
24B
100
AcDbEntity
  8
$DDT_AUDIT_GENERATED_(17B)
  6
Continuous
 62
     7
100
AcDbLine
 10
143.0989695213
 20
674.9295835452
 30
0.0
 11
136.8652553494
 21
674.9295835452
 31
0.0
  0
LINE
  5
346
330
24B
100
AcDbEntity
  8
$DDT_AUDIT_GENERATED_(17B)
  6
Continuous
 62
     7
100
AcDbLine
 10
144.4469826797
 20
674.9995835452
 30
0.0
 11
143.2509563628
 21
674.9995835452
 31
0.0
  0
ARC
  5
347
330
24B
100
AcDbEntity
  8
$DDT_AUDIT_GENERATED_(17B)
  6
Continuous
 62
     7
100
AcDbCircle
 10
144.4469826797
 20
674.7995835452
 30
0.0
 40
0.2000000000000006
100
AcDbArc
 50
40.5416018735
 51
90.0
  0
ARC
  5
348
330
24B
100
AcDbEntity
  8
$DDT_AUDIT_GENERATED_(17B)
  6
Continuous
 62
     7
100
AcDbCircle
 10
143.2509563628
 20
674.7995835452
 30
0.0
 40
0.2000000000000057
100
AcDbArc
 50
90.0
 51
139.4583981265
  0
ARC
  5
349
330
24B
100
AcDbEntity
  8
$DDT_AUDIT_GENERATED_(1BC)
  6
Continuous
 62
     7
100
AcDbCircle
 10
126.0387555911
 20
643.4729615717
 30
0.0
 40
2.000000000000001
100
AcDbArc
 50
147.638246322
 51
149.7807040472
  0
ARC
  5
34A
330
24B
100
AcDbEntity
  8
$DDT_AUDIT_GENERATED_(1BC)
  6
Continuous
 62
     7
100
AcDbCircle
 10
141.1591834514
 20
643.4729615717
 30
0.0
 40
1.999999999999998
100
AcDbArc
 50
30.2192959524
 51
32.3617536777
  0
ARC
  5
34B
330
24B
100
AcDbEntity
  8
$DDT_AUDIT_GENERATED_(1BC)
  6
Continuous
 62
     7
100
AcDbCircle
 10
133.5989695213
 20
654.6795835452
 30
0.0
 40
13.75000000000002
100
AcDbArc
 50
223.9910068718
 51
227.6397375278
  0
ARC
  5
34C
330
24B
100
AcDbEntity
  8
$DDT_AUDIT_GENERATED_(1BC)
  6
Continuous
 62
     7
100
AcDbCircle
 10
133.5989695213
 20
654.6795835452
 30
0.0
 40
13.72207189611486
100
AcDbArc
 50
224.1036897453
 51
227.618323372
  0
ARC
  5
34D
330
24B
100
AcDbEntity
  8
$DDT_AUDIT_GENERATED_(1BC)
  6
Continuous
 62
     7
100
AcDbCircle
 10
133.5989695213
 20
654.6795835452
 30
0.0
 40
13.75
100
AcDbArc
 50
312.3602624722
 51
316.0089931282
  0
ARC
  5
34E
330
24B
100
AcDbEntity
  8
$DDT_AUDIT_GENERATED_(1BC)
  6
Continuous
 62
     7
100
AcDbCircle
 10
133.5989695213
 20
654.6795835452
 30
0.0
 40
13.72207189611485
100
AcDbArc
 50
312.381676628
 51
315.8963102547
  0
ARC
  5
34F
330
24B
100
AcDbEntity
  8
$DDT_AUDIT_GENERATED_(1BC)
  6
Continuous
 62
     7
100
AcDbCircle
 10
133.5989695213
 20
654.6795835452
 30
0.0
 40
12.79999999999998
100
AcDbArc
 50
307.1672854613
 51
311.7468700231
  0
ARC
  5
350
330
24B
100
AcDbEntity
  8
$DDT_AUDIT_GENERATED_(1BC)
  6
Continuous
 62
     7
100
AcDbCircle
 10
133.5989695213
 20
654.6795835452
 30
0.0
 40
12.79999999999998
100
AcDbArc
 50
228.2531299769
 51
232.8327145387
  0
LINE
  5
351
330
24B
100
AcDbEntity
  8
490147031_RAHMEN
  6
Continuous
 62
     7
100
AcDbLine
 10
211.5989695213
 20
717.1804973742
 30
0.0
 11
211.5989695213
 21
532.1786697161
 31
0.0
  0
ELLIPSE
  5
352
330
24B
100
AcDbEntity
  8
490147031_RAHMEN
  6
Continuous
 62
     7
100
AcDbEllipse
 10
205.598055553
 20
717.1786695769
 30
0.0
 11
-4.243933135017486
 21
-4.243933135017486
 31
0.0
210
0.0
220
0.0
230
0.9999999999999998
 40
0.9996954599
 41
2.356346783439941
 42
3.926838523739664
  0
LINE
  5
353
330
24B
100
AcDbEntity
  8
490147031_RAHMEN
  6
Continuous
 62
     7
100
AcDbLine
 10
205.5998833503
 20
526.1795835452
 30
0.0
 11
61.5980556922
 21
526.1795835452
 31
0.0
  0
ELLIPSE
  5
354
330
24B
100
AcDbEntity
  8
490147031_RAHMEN
  6
Continuous
 62
     7
100
AcDbEllipse
 10
205.598055553
 20
532.1804975134
 30
0.0
 11
-4.243933135017486
 21
4.243933135017485
 31
0.0
210
0.0
220
0.0
230
0.9999999999999999
 40
0.9996954599
 41
2.356346783439918
 42
3.92683852373965
  0
LINE
  5
355
330
24B
100
AcDbEntity
  8
490147031_RAHMEN
  6
Continuous
 62
     7
100
AcDbLine
 10
55.5989695213
 20
532.1786697161
 30
0.0
 11
55.5989695213
 21
717.1804973742
 31
0.0
  0
ELLIPSE
  5
356
330
24B
100
AcDbEntity
  8
490147031_RAHMEN
  6
Continuous
 62
     7
100
AcDbEllipse
 10
61.5998834895
 20
532.1804975134
 30
0.0
 11
4.243933135017485
 21
4.243933135017486
 31
0.0
210
0.0
220
0.0
230
0.9999999999999999
 40
0.9996954599
 41
2.356346783439939
 42
3.92683852373966
  0
LINE
  5
357
330
24B
100
AcDbEntity
  8
490147031_RAHMEN
  6
Continuous
 62
     7
100
AcDbLine
 10
61.5980556922
 20
723.1795835452
 30
0.0
 11
205.5998833503
 21
723.1795835452
 31
0.0
  0
ELLIPSE
  5
358
330
24B
100
AcDbEntity
  8
490147031_RAHMEN
  6
Continuous
 62
     7
100
AcDbEllipse
 10
61.5998834895
 20
717.1786695769
 30
0.0
 11
4.243933135017486
 21
-4.243933135017486
 31
0.0
210
0.0
220
0.0
230
0.9999999999999998
 40
0.9996954599
 41
2.356346783439926
 42
3.926838523739647
  0
LINE
  5
359
330
24B
100
AcDbEntity
  8
490147031_RAHMEN
  6
Continuous
 62
     7
100
AcDbLine
 10
98.0989694966
 20
635.6707550118
 30
0.0
 11
98.0989694966
 21
621.6884120785
 31
0.0
  0
LINE
  5
35A
330
24B
100
AcDbEntity
  8
490147031_RAHMEN
  6
Continuous
 62
     7
100
AcDbLine
 10
98.0989694966
 20
621.6884120785
 30
0.0
 11
98.0988909821
 21
621.6817608831
 31
0.0
  0
LINE
  5
35B
330
24B
100
AcDbEntity
  8
490147031_RAHMEN
  6
Continuous
 62
     7
100
AcDbLine
 10
98.0988909821
 20
635.6774062073
 30
0.0
 11
98.0989694966
 21
635.6707550118
 31
0.0
  0
ELLIPSE
  5
35C
330
24B
100
AcDbEntity
  8
490147031_RAHMEN
  6
Continuous
 62
     7
100
AcDbEllipse
 10
98.1033176994
 20
621.1967391578
 30
0.0
 11
0.0
 21
0.491692147455966
 31
0.0
210
0.0
220
0.0
230
1.0
 40
1.0
 41
0.0088434593282973
 42
1.570796326794897
  0
LINE
  5
35D
330
24B
100
AcDbEntity
  8
490147031_RAHMEN
  6
Continuous
 62
     7
100
AcDbLine
 10
98.0972088919
 20
575.4875543952
 30
0.0
 11
98.0972088919
 21
621.1967391578
 31
0.0
  0
LINE
  5
35E
330
24B
100
AcDbEntity
  8
490147031_RAHMEN
  6
Continuous
 62
     7
100
AcDbLine
 10
98.0972088919
 20
636.1624279326
 30
0.0
 11
98.0972088919
 21
673.8716126952
 31
0.0
  0
ELLIPSE
  5
35F
330
24B
100
AcDbEntity
  8
490147031_RAHMEN
  6
Continuous
 62
     7
100
AcDbEllipse
 10
98.1033176994
 20
636.1624279326
 30
0.0
 11
1.389179688064768E-14
 21
-0.6999999999999905
 31
0.0
210
0.0
220
0.0
230
1.0
 40
0.0087268678
 41
4.71238898038469
 42
5.49113850091634
  0
ARC
  5
360
330
24B
100
AcDbEntity
  8
490147031_RAHMEN
  6
Continuous
 62
     7
100
AcDbCircle
 10
99.4026149713
 20
673.8716126952
 30
0.0
 40
1.305406079330391
100
AcDbArc
 50
90.0
 51
180.0
  0
LINE
  5
361
330
24B
100
AcDbEntity
  8
490147031_RAHMEN
  6
Continuous
 62
     7
100
AcDbLine
 10
165.2718667854
 20
675.1558776418
 30
0.0
 11
151.9260722571
 21
675.1558776418
 31
0.0
  0
LINE
  5
362
330
24B
100
AcDbEntity
  8
490147031_RAHMEN
  6
Continuous
 62
     7
100
AcDbLine
 10
101.9260722571
 20
675.1558776418
 30
0.0
 11
115.2718667854
 21
675.1558776418
 31
0.0
  0
LINE
  5
363
330
24B
100
AcDbEntity
  8
490147031_RAHMEN
  6
Continuous
 62
     7
100
AcDbLine
 10
166.0734518046
 20
675.1770187745
 30
0.0
 11
167.7953240713
 21
675.1770187745
 31
0.0
  0
ELLIPSE
  5
364
330
24B
100
AcDbEntity
  8
490147031_RAHMEN
  6
Continuous
 62
     7
100
AcDbEllipse
 10
166.0734518046
 20
675.1709099671
 30
0.0
 11
-0.6999999999999993
 21
-1.400907283322292E-17
 31
0.0
210
0.0
220
0.0
230
1.0
 40
0.0087268678
 41
4.71238898038469
 42
6.230825429619403
  0
ELLIPSE
  5
365
330
24B
100
AcDbEntity
  8
490147031_RAHMEN
  6
Continuous
 62
     7
100
AcDbEllipse
 10
151.1244872379
 20
675.1709099671
 30
0.0
 11
-0.6999999999999993
 21
-1.400907283322292E-17
 31
0.0
210
0.0
220
0.0
230
1.0
 40
0.0087268678
 41
3.193952531149199
 42
4.71238898038469
  0
LINE
  5
366
330
24B
100
AcDbEntity
  8
490147031_RAHMEN
  6
Continuous
 62
     7
100
AcDbLine
 10
116.0734518046
 20
675.1770187745
 30
0.0
 11
151.1244872379
 21
675.1770187745
 31
0.0
  0
ELLIPSE
  5
367
330
24B
100
AcDbEntity
  8
490147031_RAHMEN
  6
Continuous
 62
     7
100
AcDbEllipse
 10
116.0734518046
 20
675.1709099671
 30
0.0
 11
-0.6999999999999993
 21
-6.952902976740451E-15
 31
0.0
210
0.0
220
0.0
230
1.0
 40
0.0087268678
 41
4.71238898038469
 42
6.230825429619792
  0
ELLIPSE
  5
368
330
24B
100
AcDbEntity
  8
490147031_RAHMEN
  6
Continuous
 62
     7
100
AcDbEllipse
 10
101.1244872379
 20
675.1709099671
 30
0.0
 11
0.6999999999999993
 21
1.400907283322292E-17
 31
0.0
210
0.0
220
0.0
230
1.0
 40
0.0087268678
 41
0.0523598775597946
 42
1.570796326794897
  0
LINE
  5
369
330
24B
100
AcDbEntity
  8
490147031_RAHMEN
  6
Continuous
 62
     7
100
AcDbLine
 10
99.4026149713
 20
675.1770187745
 30
0.0
 11
101.1244872379
 21
675.1770187745
 31
0.0
  0
ARC
  5
36A
330
24B
100
AcDbEntity
  8
490147031_RAHMEN
  6
Continuous
 62
     7
100
AcDbCircle
 10
99.4026149713
 20
575.4875543952
 30
0.0
 40
1.305406079330391
100
AcDbArc
 50
180.0
 51
270.0
  0
LINE
  5
36B
330
24B
100
AcDbEntity
  8
490147031_RAHMEN
  6
Continuous
 62
     7
100
AcDbLine
 10
101.9260722571
 20
574.2032894486
 30
0.0
 11
115.2718667854
 21
574.2032894486
 31
0.0
  0
LINE
  5
36C
330
24B
100
AcDbEntity
  8
490147031_RAHMEN
  6
Continuous
 62
     7
100
AcDbLine
 10
165.2718667854
 20
574.2032894486
 30
0.0
 11
151.9260722571
 21
574.2032894486
 31
0.0
  0
LINE
  5
36D
330
24B
100
AcDbEntity
  8
490147031_RAHMEN
  6
Continuous
 62
     7
100
AcDbLine
 10
167.7953240713
 20
574.1821483158
 30
0.0
 11
166.0734518046
 21
574.1821483158
 31
0.0
  0
ELLIPSE
  5
36E
330
24B
100
AcDbEntity
  8
490147031_RAHMEN
  6
Continuous
 62
     7
100
AcDbEllipse
 10
166.0734518046
 20
574.1882571233
 30
0.0
 11
-0.6999999999999993
 21
-1.400907283322292E-17
 31
0.0
210
0.0
220
0.0
230
1.0
 40
0.0087268678
 41
0.0523598775601828
 42
1.570796326794897
  0
ELLIPSE
  5
36F
330
24B
100
AcDbEntity
  8
490147031_RAHMEN
  6
Continuous
 62
     7
100
AcDbEllipse
 10
151.1244872379
 20
574.1882571233
 30
0.0
 11
0.6999999999999993
 21
1.400907283322292E-17
 31
0.0
210
0.0
220
0.0
230
1.0
 40
0.0087268678
 41
4.71238898038469
 42
6.23082542962018
  0
LINE
  5
370
330
24B
100
AcDbEntity
  8
490147031_RAHMEN
  6
Continuous
 62
     7
100
AcDbLine
 10
151.1244872379
 20
574.1821483158
 30
0.0
 11
116.0734518046
 21
574.1821483158
 31
0.0
  0
ELLIPSE
  5
371
330
24B
100
AcDbEntity
  8
490147031_RAHMEN
  6
Continuous
 62
     7
100
AcDbEllipse
 10
116.0734518046
 20
574.1882571233
 30
0.0
 11
0.6999999999999993
 21
1.400907283322292E-17
 31
0.0
210
0.0
220
0.0
230
1.0
 40
0.0087268678
 41
3.193952531149588
 42
4.71238898038469
  0
ELLIPSE
  5
372
330
24B
100
AcDbEntity
  8
490147031_RAHMEN
  6
Continuous
 62
     7
100
AcDbEllipse
 10
101.1244872379
 20
574.1882571233
 30
0.0
 11
0.6999999999999993
 21
-6.924884831074005E-15
 31
0.0
210
0.0
220
0.0
230
1.0
 40
0.0087268678
 41
4.71238898038469
 42
6.230825429619792
  0
LINE
  5
373
330
24B
100
AcDbEntity
  8
490147031_RAHMEN
  6
Continuous
 62
     7
100
AcDbLine
 10
101.1244872379
 20
574.1821483158
 30
0.0
 11
99.4026149713
 21
574.1821483158
 31
0.0
  0
ARC
  5
374
330
24B
100
AcDbEntity
  8
490147031_RAHMEN
  6
Continuous
 62
     7
100
AcDbCircle
 10
167.7953240713
 20
673.8716126952
 30
0.0
 40
1.305406079330391
100
AcDbArc
 50
0.0
 51
90.0
  0
LINE
  5
375
330
24B
100
AcDbEntity
  8
490147031_RAHMEN
  6
Continuous
 62
     7
100
AcDbLine
 10
169.098969546
 20
635.6707550118
 30
0.0
 11
169.098969546
 21
621.6884120785
 31
0.0
  0
LINE
  5
376
330
24B
100
AcDbEntity
  8
490147031_RAHMEN
  6
Continuous
 62
     7
100
AcDbLine
 10
169.1007301506
 20
621.1967391578
 30
0.0
 11
169.1007301506
 21
575.4875543952
 31
0.0
  0
ELLIPSE
  5
377
330
24B
100
AcDbEntity
  8
490147031_RAHMEN
  6
Continuous
 62
     7
100
AcDbEllipse
 10
169.0946213431
 20
621.1967391578
 30
0.0
 11
0.0
 21
0.006108807453529153
 31
0.0
210
0.0
220
0.0
230
1.0
 40
1.0
 41
-1.570796326794897
 42
-0.0088434593282749
  0
ELLIPSE
  5
378
330
24B
100
AcDbEntity
  8
490147031_RAHMEN
  6
Continuous
 62
     7
100
AcDbEllipse
 10
169.0946213431
 20
636.1624279326
 30
0.0
 11
1.400907283322295E-17
 21
-0.6999999999999993
 31
0.0
210
0.0
220
0.0
230
1.0
 40
0.0087268678
 41
0.7920468062607483
 42
1.570796326794897
  0
LINE
  5
379
330
24B
100
AcDbEntity
  8
490147031_RAHMEN
  6
Continuous
 62
     7
100
AcDbLine
 10
169.1007301506
 20
673.8716126952
 30
0.0
 11
169.1007301506
 21
636.1624279326
 31
0.0
  0
LINE
  5
37A
330
24B
100
AcDbEntity
  8
490147031_RAHMEN
  6
Continuous
 62
     7
100
AcDbLine
 10
169.0990480605
 20
621.6817608831
 30
0.0
 11
169.098969546
 21
621.6884120785
 31
0.0
  0
LINE
  5
37B
330
24B
100
AcDbEntity
  8
490147031_RAHMEN
  6
Continuous
 62
     7
100
AcDbLine
 10
169.098969546
 20
635.6707550118
 30
0.0
 11
169.0990480605
 21
635.6774062073
 31
0.0
  0
ARC
  5
37C
330
24B
100
AcDbEntity
  8
490147031_RAHMEN
  6
Continuous
 62
     7
100
AcDbCircle
 10
167.7953240713
 20
575.4875543952
 30
0.0
 40
1.305406079330385
100
AcDbArc
 50
270.0
 51
0.0
  0
LINE
  5
37D
330
24B
100
AcDbEntity
  8
490147031_RAHMEN
  6
Continuous
 62
     7
100
AcDbLine
 10
101.9157361041
 20
675.1558753023
 30
0.0
 11
101.9260722571
 21
675.1558776418
 31
0.0
  0
LINE
  5
37E
330
24B
100
AcDbEntity
  8
490147031_RAHMEN
  6
Continuous
 62
     7
100
AcDbLine
 10
101.9260722571
 20
574.2032894486
 30
0.0
 11
101.9157361041
 21
574.2032917881
 31
0.0
  0
LINE
  5
37F
330
24B
100
AcDbEntity
  8
490147031_RAHMEN
  6
Continuous
 62
     7
100
AcDbLine
 10
115.2718667854
 20
675.1558776418
 30
0.0
 11
115.2822029384
 21
675.1558753023
 31
0.0
  0
LINE
  5
380
330
24B
100
AcDbEntity
  8
490147031_RAHMEN
  6
Continuous
 62
     7
100
AcDbLine
 10
115.2822029384
 20
574.2032917881
 30
0.0
 11
115.2718667854
 21
574.2032894486
 31
0.0
  0
LINE
  5
381
330
24B
100
AcDbEntity
  8
490147031_RAHMEN
  6
Continuous
 62
     7
100
AcDbLine
 10
151.9157361041
 20
675.1558753023
 30
0.0
 11
151.9260722571
 21
675.1558776418
 31
0.0
  0
LINE
  5
382
330
24B
100
AcDbEntity
  8
490147031_RAHMEN
  6
Continuous
 62
     7
100
AcDbLine
 10
151.9260722571
 20
574.2032894486
 30
0.0
 11
151.9157361041
 21
574.2032917881
 31
0.0
  0
LINE
  5
383
330
24B
100
AcDbEntity
  8
490147031_RAHMEN
  6
Continuous
 62
     7
100
AcDbLine
 10
165.2718667854
 20
675.1558776418
 30
0.0
 11
165.2822029384
 21
675.1558753023
 31
0.0
  0
LINE
  5
384
330
24B
100
AcDbEntity
  8
490147031_RAHMEN
  6
Continuous
 62
     7
100
AcDbLine
 10
165.2822029384
 20
574.2032917881
 30
0.0
 11
165.2718667854
 21
574.2032894486
 31
0.0
  0
ELLIPSE
  5
385
330
24B
100
AcDbEntity
  8
490147031_RAHMEN
  6
Continuous
 62
     7
100
AcDbEllipse
 10
165.3744111303
 20
573.9879450284
 30
0.0
 11
-0.03285136727638333
 21
-0.1972835210251323
 31
0.0
210
0.0
220
0.0
230
0.9999999999999998
 40
0.9985916141
 41
3.194835332855397
 42
3.306825729055002
  0
ELLIPSE
  5
386
330
24B
100
AcDbEntity
  8
490147031_RAHMEN
  6
Continuous
 62
     7
100
AcDbEllipse
 10
165.3744111303
 20
675.3712220619
 30
0.0
 11
-0.03285136727406575
 21
0.1972835210255139
 31
0.0
210
0.0
220
0.0
230
1.0
 40
0.9985916141
 41
2.976359578136299
 42
3.088349974274575
  0
ELLIPSE
  5
387
330
24B
100
AcDbEntity
  8
490147031_RAHMEN
  6
Continuous
 62
     7
100
AcDbEllipse
 10
151.8235279122
 20
573.9879450284
 30
0.0
 11
0.03285136727576578
 21
-0.1972835210252294
 31
0.0
210
0.0
220
0.0
230
0.9999999999999997
 40
0.9985916141
 41
2.976359578127874
 42
3.088349968252706
  0
ELLIPSE
  5
388
330
24B
100
AcDbEntity
  8
490147031_RAHMEN
  6
Continuous
 62
     7
100
AcDbEllipse
 10
115.3744111303
 20
573.9879450284
 30
0.0
 11
-0.03285136727576576
 21
-0.1972835210252294
 31
0.0
210
0.0
220
0.0
230
1.0
 40
0.9985916141
 41
3.194835338914627
 42
3.306825729051642
  0
ELLIPSE
  5
389
330
24B
100
AcDbEntity
  8
490147031_RAHMEN
  6
Continuous
 62
     7
100
AcDbEllipse
 10
151.8235279122
 20
675.3712220619
 30
0.0
 11
0.03285136727377429
 21
0.1972835210255555
 31
0.0
210
0.0
220
0.0
230
1.0
 40
0.9985916141
 41
3.194835347244053
 42
3.30682572904119
  0
ELLIPSE
  5
38A
330
24B
100
AcDbEntity
  8
490147031_RAHMEN
  6
Continuous
 62
     7
100
AcDbEllipse
 10
115.3744111303
 20
675.3712220619
 30
0.0
 11
-0.03285136727377431
 21
0.1972835210255555
 31
0.0
210
0.0
220
0.0
230
1.0
 40
0.9985916141
 41
2.976359578138396
 42
3.088349959928554
  0
ELLIPSE
  5
38B
330
24B
100
AcDbEntity
  8
490147031_RAHMEN
  6
Continuous
 62
     7
100
AcDbEllipse
 10
101.8235279122
 20
573.9879450284
 30
0.0
 11
0.03285136727640415
 21
-0.1972835210251322
 31
0.0
210
0.0
220
0.0
230
1.0
 40
0.9985916141
 41
2.976359578124238
 42
3.088349974333187
  0
ELLIPSE
  5
38C
330
24B
100
AcDbEntity
  8
490147031_RAHMEN
  6
Continuous
 62
     7
100
AcDbEllipse
 10
101.8235279122
 20
675.3712220619
 30
0.0
 11
0.0328513672720812
 21
0.19728352102584
 31
0.0
210
0.0
220
0.0
230
1.0
 40
0.9985916141
 41
3.194835332908149
 42
3.306825729032979
  0
LINE
  5
38D
330
24B
100
AcDbEntity
  8
490147031_RAHMEN
  6
Continuous
 62
     7
100
AcDbLine
 10
165.3988712287
 20
574.1866258514
 30
0.0
 11
165.3149009185
 21
574.2006084663
 31
0.0
  0
LINE
  5
38E
330
24B
100
AcDbEntity
  8
490147031_RAHMEN
  6
Continuous
 62
     7
100
AcDbLine
 10
165.4717057297
 20
574.1851361037
 30
0.0
 11
165.4721387794
 21
574.2795835452
 31
0.0
  0
LINE
  5
38F
330
24B
100
AcDbEntity
  8
490147031_RAHMEN
  6
Continuous
 62
     7
100
AcDbLine
 10
165.3149009185
 20
675.158558624
 30
0.0
 11
165.3988712287
 21
675.1725412389
 31
0.0
  0
LINE
  5
390
330
24B
100
AcDbEntity
  8
490147031_RAHMEN
  6
Continuous
 62
     7
100
AcDbLine
 10
165.4721387794
 20
675.0795835452
 30
0.0
 11
165.4717057297
 21
675.1740309866
 31
0.0
  0
LINE
  5
391
330
24B
100
AcDbEntity
  8
490147031_RAHMEN
  6
Continuous
 62
     7
100
AcDbLine
 10
151.7258002631
 20
574.2795835452
 30
0.0
 11
151.7262333128
 21
574.1851361037
 31
0.0
  0
LINE
  5
392
330
24B
100
AcDbEntity
  8
490147031_RAHMEN
  6
Continuous
 62
     7
100
AcDbLine
 10
151.883038124
 20
574.2006084663
 30
0.0
 11
151.7990678138
 21
574.1866258514
 31
0.0
  0
LINE
  5
393
330
24B
100
AcDbEntity
  8
490147031_RAHMEN
  6
Continuous
 62
     7
100
AcDbLine
 10
151.7262333128
 20
675.1740309866
 30
0.0
 11
151.7258002631
 21
675.0795835452
 31
0.0
  0
LINE
  5
394
330
24B
100
AcDbEntity
  8
490147031_RAHMEN
  6
Continuous
 62
     7
100
AcDbLine
 10
115.3988712287
 20
574.1866258514
 30
0.0
 11
115.3149009185
 21
574.2006084663
 31
0.0
  0
LINE
  5
395
330
24B
100
AcDbEntity
  8
490147031_RAHMEN
  6
Continuous
 62
     7
100
AcDbLine
 10
151.7990678138
 20
675.1725412389
 30
0.0
 11
151.883038124
 21
675.158558624
 31
0.0
  0
LINE
  5
396
330
24B
100
AcDbEntity
  8
490147031_RAHMEN
  6
Continuous
 62
     7
100
AcDbLine
 10
115.4717057297
 20
574.1851361037
 30
0.0
 11
115.4721387794
 21
574.2795835452
 31
0.0
  0
LINE
  5
397
330
24B
100
AcDbEntity
  8
490147031_RAHMEN
  6
Continuous
 62
     7
100
AcDbLine
 10
115.3149009185
 20
675.158558624
 30
0.0
 11
115.3988712287
 21
675.1725412389
 31
0.0
  0
LINE
  5
398
330
24B
100
AcDbEntity
  8
490147031_RAHMEN
  6
Continuous
 62
     7
100
AcDbLine
 10
115.4721387794
 20
675.0795835452
 30
0.0
 11
115.4717057297
 21
675.1740309866
 31
0.0
  0
LINE
  5
399
330
24B
100
AcDbEntity
  8
490147031_RAHMEN
  6
Continuous
 62
     7
100
AcDbLine
 10
101.7258002631
 20
574.2795835452
 30
0.0
 11
101.7262333128
 21
574.1851361037
 31
0.0
  0
LINE
  5
39A
330
24B
100
AcDbEntity
  8
490147031_RAHMEN
  6
Continuous
 62
     7
100
AcDbLine
 10
101.883038124
 20
574.2006084663
 30
0.0
 11
101.7990678138
 21
574.1866258514
 31
0.0
  0
LINE
  5
39B
330
24B
100
AcDbEntity
  8
490147031_RAHMEN
  6
Continuous
 62
     7
100
AcDbLine
 10
101.7262333128
 20
675.1740309866
 30
0.0
 11
101.7258002631
 21
675.0795835452
 31
0.0
  0
LINE
  5
39C
330
24B
100
AcDbEntity
  8
490147031_RAHMEN
  6
Continuous
 62
     7
100
AcDbLine
 10
101.7990678138
 20
675.1725412389
 30
0.0
 11
101.883038124
 21
675.158558624
 31
0.0
  0
LINE
  5
39D
330
24B
100
AcDbEntity
  8
490656XXX_VM_ABD
  6
Continuous
 62
     7
100
AcDbLine
 10
209.5489695213
 20
716.6295835452
 30
0.0
 11
209.5489695213
 21
532.7295835452
 31
0.0
  0
ARC
  5
39E
330
24B
100
AcDbEntity
  8
490656XXX_VM_ABD
  6
Continuous
 62
     7
100
AcDbCircle
 10
205.0489695213
 20
532.7295835452
 30
0.0
 40
4.49999999999999
100
AcDbArc
 50
270.0
 51
0.0
  0
LINE
  5
39F
330
24B
100
AcDbEntity
  8
490656XXX_VM_ABD
  6
Continuous
 62
     7
100
AcDbLine
 10
205.0489695213
 20
528.2295835452
 30
0.0
 11
62.1489695213
 21
528.2295835452
 31
0.0
  0
LINE
  5
3A0
330
24B
100
AcDbEntity
  8
490656XXX_VM_ABD
  6
Continuous
 62
     7
100
AcDbLine
 10
175.0989695213
 20
575.1795835452
 30
0.0
 11
175.0989695213
 21
674.1795835452
 31
0.0
  0
ARC
  5
3A1
330
24B
100
AcDbEntity
  8
490656XXX_VM_ABD
  6
Continuous
 62
     7
100
AcDbCircle
 10
168.0989695213
 20
575.1795835452
 30
0.0
 40
6.999999999999999
100
AcDbArc
 50
270.0
 51
0.0
  0
LINE
  5
3A2
330
24B
100
AcDbEntity
  8
490656XXX_VM_ABD
  6
Continuous
 62
     7
100
AcDbLine
 10
99.0989695213
 20
568.1795835452
 30
0.0
 11
168.0989695213
 21
568.1795835452
 31
0.0
  0
ARC
  5
3A3
330
24B
100
AcDbEntity
  8
490656XXX_VM_ABD
  6
Continuous
 62
     7
100
AcDbCircle
 10
62.1489695213
 20
532.7295835452
 30
0.0
 40
4.49999999999999
100
AcDbArc
 50
180.0
 51
270.0
  0
LINE
  5
3A4
330
24B
100
AcDbEntity
  8
490656XXX_VM_ABD
  6
Continuous
 62
     7
100
AcDbLine
 10
57.6489695213
 20
716.6295835452
 30
0.0
 11
57.6489695213
 21
532.7295835452
 31
0.0
  0
ARC
  5
3A5
330
24B
100
AcDbEntity
  8
490656XXX_VM_ABD
  6
Continuous
 62
     7
100
AcDbCircle
 10
99.0989695213
 20
575.1795835452
 30
0.0
 40
6.999999999999999
100
AcDbArc
 50
180.0
 51
270.0
  0
LINE
  5
3A6
330
24B
100
AcDbEntity
  8
490656XXX_VM_ABD
  6
Continuous
 62
     7
100
AcDbLine
 10
92.0989695213
 20
575.1795835452
 30
0.0
 11
92.0989695213
 21
674.1795835452
 31
0.0
  0
LINE
  5
3A7
330
24B
100
AcDbEntity
  8
490656XXX_VM_ABD
  6
Continuous
 62
     7
100
AcDbLine
 10
205.0489695213
 20
721.1295835452
 30
0.0
 11
62.1489695213
 21
721.1295835452
 31
0.0
  0
ARC
  5
3A8
330
24B
100
AcDbEntity
  8
490656XXX_VM_ABD
  6
Continuous
 62
     7
100
AcDbCircle
 10
205.0489695213
 20
716.6295835452
 30
0.0
 40
4.49999999999999
100
AcDbArc
 50
0.0
 51
90.0
  0
LINE
  5
3A9
330
24B
100
AcDbEntity
  8
490656XXX_VM_ABD
  6
Continuous
 62
     7
100
AcDbLine
 10
99.0989695213
 20
681.1795835452
 30
0.0
 11
168.0989695213
 21
681.1795835452
 31
0.0
  0
ARC
  5
3AA
330
24B
100
AcDbEntity
  8
490656XXX_VM_ABD
  6
Continuous
 62
     7
100
AcDbCircle
 10
168.0989695213
 20
674.1795835452
 30
0.0
 40
6.999999999999999
100
AcDbArc
 50
0.0
 51
90.0
  0
ARC
  5
3AB
330
24B
100
AcDbEntity
  8
490656XXX_VM_ABD
  6
Continuous
 62
     7
100
AcDbCircle
 10
62.1489695213
 20
716.6295835452
 30
0.0
 40
4.49999999999999
100
AcDbArc
 50
90.0
 51
180.0
  0
ARC
  5
3AC
330
24B
100
AcDbEntity
  8
490656XXX_VM_ABD
  6
Continuous
 62
     7
100
AcDbCircle
 10
99.0989695213
 20
674.1795835452
 30
0.0
 40
6.999999999999999
100
AcDbArc
 50
90.0
 51
180.0
  0
ENDBLK
  5
3AE
330
24B
100
AcDbEntity
  8
0
100
AcDbBlockEnd
  0
BLOCK
  5
3C0
330
3AF
100
AcDbEntity
  8
0
100
AcDbBlockBegin
  2
SE4
 70
     0
 10
0.0
 20
0.0
 30
0.0
  3
SE4
  1

  0
LINE
  5
3B1
330
3AF
100
AcDbEntity
  8
490147031_RAHMEN
  6
Continuous
 62
     7
100
AcDbLine
 10
205.5998833503
 20
348.9796549273
 30
0.0
 11
211.5989695213
 21
348.9796549273
 31
0.0
  0
LINE
  5
3B2
330
3AF
100
AcDbEntity
  8
490147031_RAHMEN
  6
Continuous
 62
     7
100
AcDbLine
 10
211.5989695213
 20
348.9796549273
 30
0.0
 11
211.4941782051
 21
342.976164446
 31
0.0
  0
LINE
  5
3B3
330
3AF
100
AcDbEntity
  8
490147031_RAHMEN
  6
Continuous
 62
     7
100
AcDbLine
 10
61.5980556922
 20
348.9796549273
 30
0.0
 11
205.5998833503
 21
348.9796549273
 31
0.0
  0
LINE
  5
3B4
330
3AF
100
AcDbEntity
  8
490147031_RAHMEN
  6
Continuous
 62
     7
100
AcDbLine
 10
55.5989695213
 20
348.9796549273
 30
0.0
 11
61.5980556922
 21
348.9796549273
 31
0.0
  0
LINE
  5
3B5
330
3AF
100
AcDbEntity
  8
490147031_RAHMEN
  6
Continuous
 62
     7
100
AcDbLine
 10
211.2942086661
 20
342.7796549273
 30
0.0
 11
205.4950920342
 21
342.7796549273
 31
0.0
  0
LINE
  5
3B6
330
3AF
100
AcDbEntity
  8
490147031_RAHMEN
  6
Continuous
 62
     7
100
AcDbLine
 10
61.7028470083
 20
342.7796549273
 30
0.0
 11
55.9037303764
 21
342.7796549273
 31
0.0
  0
LINE
  5
3B7
330
3AF
100
AcDbEntity
  8
490147031_RAHMEN
  6
Continuous
 62
     7
100
AcDbLine
 10
205.4950920342
 20
342.7796549273
 30
0.0
 11
61.7028470083
 21
342.7796549273
 31
0.0
  0
LINE
  5
3B8
330
3AF
100
AcDbEntity
  8
490147031_RAHMEN
  6
Continuous
 62
     7
100
AcDbLine
 10
55.7037608374
 20
342.976164446
 30
0.0
 11
55.5989695213
 21
348.9796549273
 31
0.0
  0
ARC
  5
3B9
330
3AF
100
AcDbEntity
  8
490147031_RAHMEN
  6
Continuous
 62
     7
100
AcDbCircle
 10
55.9037303764
 20
342.9796549273
 30
0.0
 40
0.199999999999994
100
AcDbArc
 50
181.0
 51
270.0
  0
ARC
  5
3BA
330
3AF
100
AcDbEntity
  8
490147031_RAHMEN
  6
Continuous
 62
     7
100
AcDbCircle
 10
211.2942086661
 20
342.9796549273
 30
0.0
 40
0.1999999999999997
100
AcDbArc
 50
270.0
 51
359.0
  0
LINE
  5
3BB
330
3AF
100
AcDbEntity
  8
490656XXX_VM_ABD
  6
Continuous
 62
     7
100
AcDbLine
 10
62.1489695213
 20
340.3796549273
 30
0.0
 11
60.1489695213
 21
340.3796549273
 31
0.0
  0
LINE
  5
3BC
330
3AF
100
AcDbEntity
  8
490656XXX_VM_ABD
  6
Continuous
 62
     7
100
AcDbLine
 10
62.1489695213
 20
340.3796549273
 30
0.0
 11
205.0489695213
 21
340.3796549273
 31
0.0
  0
LINE
  5
3BD
330
3AF
100
AcDbEntity
  8
490656XXX_VM_ABD
  6
Continuous
 62
     7
100
AcDbLine
 10
205.0489695213
 20
340.3796549273
 30
0.0
 11
207.0489695213
 21
340.3796549273
 31
0.0
  0
ARC
  5
3BE
330
3AF
100
AcDbEntity
  8
490656XXX_VM_ABD
  6
Continuous
 62
     7
100
AcDbCircle
 10
207.0489695213
 20
342.8796549273
 30
0.0
 40
2.499999999999999
100
AcDbArc
 50
270.0
 51
357.707557224
  0
ARC
  5
3BF
330
3AF
100
AcDbEntity
  8
490656XXX_VM_ABD
  6
Continuous
 62
     7
100
AcDbCircle
 10
60.1489695213
 20
342.8796549273
 30
0.0
 40
2.5
100
AcDbArc
 50
182.292442776
 51
270.0
  0
ENDBLK
  5
3C1
330
3AF
100
AcDbEntity
  8
0
100
AcDbBlockEnd
  0
BLOCK
  5
3D3
330
3C2
100
AcDbEntity
  8
0
100
AcDbBlockBegin
  2
SE5
 70
     0
 10
0.0
 20
0.0
 30
0.0
  3
SE5
  1

  0
LINE
  5
3C4
330
3C2
100
AcDbEntity
  8
490147031_RAHMEN
  6
Continuous
 62
     7
100
AcDbLine
 10
388.7988981391
 20
532.1786697161
 30
0.0
 11
388.7988981391
 21
717.1804973742
 31
0.0
  0
LINE
  5
3C5
330
3C2
100
AcDbEntity
  8
490147031_RAHMEN
  6
Continuous
 62
     7
100
AcDbLine
 10
388.7988981391
 20
526.1795835452
 30
0.0
 11
388.7988981391
 21
532.1786697161
 31
0.0
  0
LINE
  5
3C6
330
3C2
100
AcDbEntity
  8
490147031_RAHMEN
  6
Continuous
 62
     7
100
AcDbLine
 10
388.7988981391
 20
717.1804973742
 30
0.0
 11
388.7988981391
 21
723.1795835452
 31
0.0
  0
LINE
  5
3C7
330
3C2
100
AcDbEntity
  8
490147031_RAHMEN
  6
Continuous
 62
     7
100
AcDbLine
 10
388.7988981391
 20
723.1795835452
 30
0.0
 11
394.8023886204
 21
723.074792229
 31
0.0
  0
LINE
  5
3C8
330
3C2
100
AcDbEntity
  8
490147031_RAHMEN
  6
Continuous
 62
     7
100
AcDbLine
 10
394.9988981391
 20
532.2834610323
 30
0.0
 11
394.9988981391
 21
526.4843444004
 31
0.0
  0
LINE
  5
3C9
330
3C2
100
AcDbEntity
  8
490147031_RAHMEN
  6
Continuous
 62
     7
100
AcDbLine
 10
394.9988981391
 20
717.0757060581
 30
0.0
 11
394.9988981391
 21
532.2834610323
 31
0.0
  0
LINE
  5
3CA
330
3C2
100
AcDbEntity
  8
490147031_RAHMEN
  6
Continuous
 62
     7
100
AcDbLine
 10
394.9988981391
 20
722.87482269
 30
0.0
 11
394.9988981391
 21
717.0757060581
 31
0.0
  0
LINE
  5
3CB
330
3C2
100
AcDbEntity
  8
490147031_RAHMEN
  6
Continuous
 62
     7
100
AcDbLine
 10
394.8023886204
 20
526.2843748613
 30
0.0
 11
388.7988981391
 21
526.1795835452
 31
0.0
  0
ARC
  5
3CC
330
3C2
100
AcDbEntity
  8
490147031_RAHMEN
  6
Continuous
 62
     7
100
AcDbCircle
 10
394.7988981391
 20
526.4843444004
 30
0.0
 40
0.199999999999994
100
AcDbArc
 50
271.0
 51
0.0
  0
ARC
  5
3CD
330
3C2
100
AcDbEntity
  8
490147031_RAHMEN
  6
Continuous
 62
     7
100
AcDbCircle
 10
394.7988981391
 20
722.87482269
 30
0.0
 40
0.199999999999994
100
AcDbArc
 50
0.0
 51
89.0
  0
ARC
  5
3CE
330
3C2
100
AcDbEntity
  8
490656XXX_VM_ABD
  6
Continuous
 62
     7
100
AcDbCircle
 10
394.8988981391
 20
530.7295835452
 30
0.0
 40
2.5
100
AcDbArc
 50
272.292442776
 51
0.0
  0
LINE
  5
3CF
330
3C2
100
AcDbEntity
  8
490656XXX_VM_ABD
  6
Continuous
 62
     7
100
AcDbLine
 10
397.3988981391
 20
530.7295835452
 30
0.0
 11
397.3988981391
 21
532.7295835452
 31
0.0
  0
LINE
  5
3D0
330
3C2
100
AcDbEntity
  8
490656XXX_VM_ABD
  6
Continuous
 62
     7
100
AcDbLine
 10
397.3988981391
 20
532.7295835452
 30
0.0
 11
397.3988981391
 21
716.6295835452
 31
0.0
  0
LINE
  5
3D1
330
3C2
100
AcDbEntity
  8
490656XXX_VM_ABD
  6
Continuous
 62
     7
100
AcDbLine
 10
397.3988981391
 20
718.6295835452
 30
0.0
 11
397.3988981391
 21
716.6295835452
 31
0.0
  0
ARC
  5
3D2
330
3C2
100
AcDbEntity
  8
490656XXX_VM_ABD
  6
Continuous
 62
     7
100
AcDbCircle
 10
394.8988981391
 20
718.6295835452
 30
0.0
 40
2.5
100
AcDbArc
 50
0.0
 51
87.707557224
  0
ENDBLK
  5
3D4
330
3C2
100
AcDbEntity
  8
0
100
AcDbBlockEnd
  0
BLOCK
  5
3E6
330
3D5
100
AcDbEntity
  8
0
100
AcDbBlockBegin
  2
SE6
 70
     0
 10
0.0
 20
0.0
 30
0.0
  3
SE6
  1

  0
LINE
  5
3D7
330
3D5
100
AcDbEntity
  8
490147031_RAHMEN
  6
Continuous
 62
     7
100
AcDbLine
 10
231.0885221348
 20
2119.0668664592
 30
0.0
 11
46.0866944767
 21
2119.0668664592
 31
0.0
  0
LINE
  5
3D8
330
3D5
100
AcDbEntity
  8
490147031_RAHMEN
  6
Continuous
 62
     7
100
AcDbLine
 10
237.0876083057
 20
2119.0668664592
 30
0.0
 11
231.0885221348
 21
2119.0668664592
 31
0.0
  0
LINE
  5
3D9
330
3D5
100
AcDbEntity
  8
490147031_RAHMEN
  6
Continuous
 62
     7
100
AcDbLine
 10
46.0866944767
 20
2119.0668664592
 30
0.0
 11
40.0876083057
 21
2119.0668664592
 31
0.0
  0
LINE
  5
3DA
330
3D5
100
AcDbEntity
  8
490147031_RAHMEN
  6
Continuous
 62
     7
100
AcDbLine
 10
40.0876083057
 20
2119.0668664592
 30
0.0
 11
40.1923996219
 21
2125.0703569405
 31
0.0
  0
LINE
  5
3DB
330
3D5
100
AcDbEntity
  8
490147031_RAHMEN
  6
Continuous
 62
     7
100
AcDbLine
 10
230.9837308186
 20
2125.2668664592
 30
0.0
 11
236.7828474505
 21
2125.2668664592
 31
0.0
  0
LINE
  5
3DC
330
3D5
100
AcDbEntity
  8
490147031_RAHMEN
  6
Continuous
 62
     7
100
AcDbLine
 10
46.1914857928
 20
2125.2668664592
 30
0.0
 11
230.9837308186
 21
2125.2668664592
 31
0.0
  0
LINE
  5
3DD
330
3D5
100
AcDbEntity
  8
490147031_RAHMEN
  6
Continuous
 62
     7
100
AcDbLine
 10
40.3923691609
 20
2125.2668664592
 30
0.0
 11
46.1914857928
 21
2125.2668664592
 31
0.0
  0
LINE
  5
3DE
330
3D5
100
AcDbEntity
  8
490147031_RAHMEN
  6
Continuous
 62
     7
100
AcDbLine
 10
236.9828169896
 20
2125.0703569405
 30
0.0
 11
237.0876083057
 21
2119.0668664592
 31
0.0
  0
ARC
  5
3DF
330
3D5
100
AcDbEntity
  8
490147031_RAHMEN
  6
Continuous
 62
     7
100
AcDbCircle
 10
236.7828474505
 20
2125.0668664592
 30
0.0
 40
0.199999999999994
100
AcDbArc
 50
1.0
 51
90.0
  0
ARC
  5
3E0
330
3D5
100
AcDbEntity
  8
490147031_RAHMEN
  6
Continuous
 62
     7
100
AcDbCircle
 10
40.3923691609
 20
2125.0668664592
 30
0.0
 40
0.199999999999994
100
AcDbArc
 50
90.0
 51
179.0
  0
ARC
  5
3E1
330
3D5
100
AcDbEntity
  8
490656XXX_VM_ABD
  6
Continuous
 62
     7
100
AcDbCircle
 10
232.5376083057
 20
2125.1668664592
 30
0.0
 40
2.5
100
AcDbArc
 50
2.292442776
 51
90.0
  0
LINE
  5
3E2
330
3D5
100
AcDbEntity
  8
490656XXX_VM_ABD
  6
Continuous
 62
     7
100
AcDbLine
 10
232.5376083057
 20
2127.6668664592
 30
0.0
 11
230.5376083057
 21
2127.6668664592
 31
0.0
  0
LINE
  5
3E3
330
3D5
100
AcDbEntity
  8
490656XXX_VM_ABD
  6
Continuous
 62
     7
100
AcDbLine
 10
230.5376083057
 20
2127.6668664592
 30
0.0
 11
46.6376083057
 21
2127.6668664592
 31
0.0
  0
LINE
  5
3E4
330
3D5
100
AcDbEntity
  8
490656XXX_VM_ABD
  6
Continuous
 62
     7
100
AcDbLine
 10
44.6376083057
 20
2127.6668664592
 30
0.0
 11
46.6376083057
 21
2127.6668664592
 31
0.0
  0
ARC
  5
3E5
330
3D5
100
AcDbEntity
  8
490656XXX_VM_ABD
  6
Continuous
 62
     7
100
AcDbCircle
 10
44.6376083057
 20
2125.1668664592
 30
0.0
 40
2.5
100
AcDbArc
 50
90.0
 51
177.707557224
  0
ENDBLK
  5
3E7
330
3D5
100
AcDbEntity
  8
0
100
AcDbBlockEnd
  0
BLOCK
  5
54A
330
3E8
100
AcDbEntity
  8
0
100
AcDbBlockBegin
  2
SE7
 70
     0
 10
0.0
 20
0.0
 30
0.0
  3
SE7
  1

  0
LINE
  5
3EA
330
3E8
100
AcDbEntity
  8
$DDT_AUDIT_GENERATED_(BB)
  6
Continuous
 62
     7
100
AcDbLine
 10
188.3876083057
 20
1830.0667855365
 30
0.0
 11
188.3876083057
 21
1861.8774612842
 31
0.0
  0
ELLIPSE
  5
3EB
330
3E8
100
AcDbEntity
  8
$DDT_AUDIT_GENERATED_(BB)
  6
Continuous
 62
     7
100
AcDbEllipse
 10
187.3874559777
 20
1830.0670901694
 30
0.0
 11
-0.7073221891695811
 21
0.7073221891695809
 31
0.0
210
0.0
220
0.0
230
0.9999999999999999
 40
0.9996954599
 41
2.356346783439633
 42
3.926838523739697
  0
LINE
  5
3EC
330
3E8
100
AcDbEntity
  8
$DDT_AUDIT_GENERATED_(BB)
  6
Continuous
 62
     7
100
AcDbLine
 10
119.7874560009
 20
1829.0669378413
 30
0.0
 11
187.3877606106
 21
1829.0669378413
 31
0.0
  0
ELLIPSE
  5
3ED
330
3E8
100
AcDbEntity
  8
$DDT_AUDIT_GENERATED_(BB)
  6
Continuous
 62
     7
100
AcDbEllipse
 10
119.7877606338
 20
1830.0670901694
 30
0.0
 11
0.7073221891695809
 21
0.7073221891695811
 31
0.0
210
0.0
220
0.0
230
0.9999999999999999
 40
0.9996954599
 41
2.356346783439889
 42
3.926838523739981
  0
LINE
  5
3EE
330
3E8
100
AcDbEntity
  8
$DDT_AUDIT_GENERATED_(BB)
  6
Continuous
 62
     7
100
AcDbLine
 10
118.7876083057
 20
1897.6670901462
 30
0.0
 11
118.7876083057
 21
1830.0667855365
 31
0.0
  0
ELLIPSE
  5
3EF
330
3E8
100
AcDbEntity
  8
$DDT_AUDIT_GENERATED_(BB)
  6
Continuous
 62
     7
100
AcDbEllipse
 10
119.7877606338
 20
1897.6667855133
 30
0.0
 11
0.7073221891695811
 21
-0.7073221891695809
 31
0.0
210
0.0
220
0.0
230
0.9999999999999999
 40
0.9996954599
 41
2.35634678343986
 42
3.926838523739697
  0
LINE
  5
3F0
330
3E8
100
AcDbEntity
  8
$DDT_AUDIT_GENERATED_(BB)
  6
Continuous
 62
     7
100
AcDbLine
 10
187.3877606106
 20
1898.6669378413
 30
0.0
 11
119.7874560009
 21
1898.6669378413
 31
0.0
  0
ELLIPSE
  5
3F1
330
3E8
100
AcDbEntity
  8
$DDT_AUDIT_GENERATED_(BB)
  6
Continuous
 62
     7
100
AcDbEllipse
 10
187.3874559777
 20
1897.6667855133
 30
0.0
 11
-0.7073221891695809
 21
-0.7073221891695811
 31
0.0
210
0.0
220
0.0
230
0.9999999999999999
 40
0.9996954599
 41
2.356346783439889
 42
3.926838523739725
  0
LINE
  5
3F2
330
3E8
100
AcDbEntity
  8
$DDT_AUDIT_GENERATED_(BB)
  6
Continuous
 62
     7
100
AcDbLine
 10
188.3907950569
 20
1862.0767002238
 30
0.0
 11
188.4407341551
 21
1862.3270060793
 31
0.0
  0
ELLIPSE
  5
3F3
330
3E8
100
AcDbEntity
  8
$DDT_AUDIT_GENERATED_(BB)
  6
Continuous
 62
     7
100
AcDbEllipse
 10
188.3910993187
 20
1861.8774612842
 30
0.0
 11
0.0
 21
0.1992391719405267
 31
0.0
210
0.0
220
0.0
230
1.0
 40
1.0
 41
0.0015271191150861
 42
1.570796326794897
  0
LINE
  5
3F4
330
3E8
100
AcDbEntity
  8
$DDT_AUDIT_GENERATED_(BB)
  6
Continuous
 62
     7
100
AcDbLine
 10
188.3876083057
 20
1865.8564143985
 30
0.0
 11
188.3876083057
 21
1897.6670901462
 31
0.0
  0
ELLIPSE
  5
3F5
330
3E8
100
AcDbEntity
  8
$DDT_AUDIT_GENERATED_(BB)
  6
Continuous
 62
     7
100
AcDbEllipse
 10
188.3910993187
 20
1865.8564143985
 30
0.0
 11
-6.919281201940717E-15
 21
-0.2000000000000001
 31
0.0
210
0.0
220
0.0
230
1.0
 40
0.0174550649
 41
4.71238898038469
 42
6.195918844585855
  0
LINE
  5
3F6
330
3E8
100
AcDbEntity
  8
$DDT_AUDIT_GENERATED_(BB)
  6
Continuous
 62
     7
100
AcDbLine
 10
188.448701033
 20
1862.8251034283
 30
0.0
 11
188.448701033
 21
1864.9087722543
 31
0.0
  0
ELLIPSE
  5
3F7
330
3E8
100
AcDbEntity
  8
$DDT_AUDIT_GENERATED_(BB)
  6
Continuous
 62
     7
100
AcDbEllipse
 10
188.4399735005
 20
1862.8251034283
 30
0.0
 11
4.903175491628034E-17
 21
-0.5000000000000004
 31
0.0
210
0.0
220
0.0
230
1.0
 40
0.0174550649
 41
0.0872664625963458
 42
1.570796326794897
  0
LINE
  5
3F8
330
3E8
100
AcDbEntity
  8
$DDT_AUDIT_GENERATED_(BB)
  6
Continuous
 62
     7
100
AcDbLine
 10
188.4407341551
 20
1865.4068696034
 30
0.0
 11
188.3907950569
 21
1865.6571754589
 31
0.0
  0
ELLIPSE
  5
3F9
330
3E8
100
AcDbEntity
  8
$DDT_AUDIT_GENERATED_(BB)
  6
Continuous
 62
     7
100
AcDbEllipse
 10
188.4399735005
 20
1864.9087722543
 30
0.0
 11
4.903175491628027E-17
 21
-0.4999999999999998
 31
0.0
210
0.0
220
0.0
230
1.0
 40
0.0174550649
 41
1.570796326794897
 42
3.054326190988245
  0
LINE
  5
3FA
330
3E8
100
AcDbEntity
  8
$DDT_AUDIT_GENERATED_(CC)
  6
Continuous
 62
     7
100
AcDbLine
 10
88.8376083057
 20
1897.6670901462
 30
0.0
 11
88.8376083057
 21
1865.8564143985
 31
0.0
  0
ELLIPSE
  5
3FB
330
3E8
100
AcDbEntity
  8
$DDT_AUDIT_GENERATED_(CC)
  6
Continuous
 62
     7
100
AcDbEllipse
 10
89.8377606338
 20
1897.6667855133
 30
0.0
 11
0.7073221891695811
 21
-0.7073221891695809
 31
0.0
210
0.0
220
0.0
230
0.9999999999999999
 40
0.9996954599
 41
2.356346783439846
 42
3.926838523739683
  0
LINE
  5
3FC
330
3E8
100
AcDbEntity
  8
$DDT_AUDIT_GENERATED_(CC)
  6
Continuous
 62
     7
100
AcDbLine
 10
89.8374560009
 20
1829.0669378413
 30
0.0
 11
117.1377606106
 21
1829.0669378413
 31
0.0
  0
ELLIPSE
  5
3FD
330
3E8
100
AcDbEntity
  8
$DDT_AUDIT_GENERATED_(CC)
  6
Continuous
 62
     7
100
AcDbEllipse
 10
89.8377606338
 20
1830.0670901694
 30
0.0
 11
0.7073221891695809
 21
0.7073221891695811
 31
0.0
210
0.0
220
0.0
230
0.9999999999999999
 40
0.9996954599
 41
2.356346783439917
 42
3.926838523739953
  0
LINE
  5
3FE
330
3E8
100
AcDbEntity
  8
$DDT_AUDIT_GENERATED_(CC)
  6
Continuous
 62
     7
100
AcDbLine
 10
118.1376083057
 20
1830.0667855365
 30
0.0
 11
118.1376083057
 21
1897.6670901462
 31
0.0
  0
ELLIPSE
  5
3FF
330
3E8
100
AcDbEntity
  8
$DDT_AUDIT_GENERATED_(CC)
  6
Continuous
 62
     7
100
AcDbEllipse
 10
117.1374559777
 20
1830.0670901694
 30
0.0
 11
-0.7073221891695811
 21
0.7073221891695809
 31
0.0
210
0.0
220
0.0
230
0.9999999999999999
 40
0.9996954599
 41
2.356346783439633
 42
3.926838523739683
  0
LINE
  5
400
330
3E8
100
AcDbEntity
  8
$DDT_AUDIT_GENERATED_(CC)
  6
Continuous
 62
     7
100
AcDbLine
 10
117.1377606106
 20
1898.6669378413
 30
0.0
 11
89.8374560009
 21
1898.6669378413
 31
0.0
  0
ELLIPSE
  5
401
330
3E8
100
AcDbEntity
  8
$DDT_AUDIT_GENERATED_(CC)
  6
Continuous
 62
     7
100
AcDbEllipse
 10
117.1374559777
 20
1897.6667855133
 30
0.0
 11
-0.7073221891695809
 21
-0.7073221891695811
 31
0.0
210
0.0
220
0.0
230
0.9999999999999999
 40
0.9996954599
 41
2.356346783439889
 42
3.926838523739725
  0
LINE
  5
402
330
3E8
100
AcDbEntity
  8
$DDT_AUDIT_GENERATED_(CC)
  6
Continuous
 62
     7
100
AcDbLine
 10
88.7844824564
 20
1865.4068696034
 30
0.0
 11
88.8344215546
 21
1865.6571754589
 31
0.0
  0
ELLIPSE
  5
403
330
3E8
100
AcDbEntity
  8
$DDT_AUDIT_GENERATED_(CC)
  6
Continuous
 62
     7
100
AcDbEllipse
 10
88.7852431109
 20
1864.9087722543
 30
0.0
 11
0.0
 21
0.4980979298512032
 31
0.0
210
0.0
220
0.0
230
1.0
 40
1.0
 41
0.0015271191151434
 42
1.570796326794897
  0
LINE
  5
404
330
3E8
100
AcDbEntity
  8
$DDT_AUDIT_GENERATED_(CC)
  6
Continuous
 62
     7
100
AcDbLine
 10
88.7765155785
 20
1862.8251034283
 30
0.0
 11
88.7765155785
 21
1864.9087722543
 31
0.0
  0
ELLIPSE
  5
405
330
3E8
100
AcDbEntity
  8
$DDT_AUDIT_GENERATED_(CC)
  6
Continuous
 62
     7
100
AcDbEllipse
 10
88.7852431109
 20
1862.8251034283
 30
0.0
 11
0.0
 21
0.008727532464106957
 31
0.0
210
0.0
220
0.0
230
1.0
 40
1.0
 41
1.570796326794897
 42
3.140065534474649
  0
ELLIPSE
  5
406
330
3E8
100
AcDbEntity
  8
$DDT_AUDIT_GENERATED_(CC)
  6
Continuous
 62
     7
100
AcDbEllipse
 10
88.8341172927
 20
1865.8564143985
 30
0.0
 11
-6.919281201940717E-15
 21
-0.2000000000000001
 31
0.0
210
0.0
220
0.0
230
1.0
 40
0.0174550649
 41
0.0872664625937306
 42
1.570796326794897
  0
LINE
  5
407
330
3E8
100
AcDbEntity
  8
$DDT_AUDIT_GENERATED_(CC)
  6
Continuous
 62
     7
100
AcDbLine
 10
88.8376083057
 20
1861.8774612842
 30
0.0
 11
88.8376083057
 21
1830.0667855365
 31
0.0
  0
LINE
  5
408
330
3E8
100
AcDbEntity
  8
$DDT_AUDIT_GENERATED_(CC)
  6
Continuous
 62
     7
100
AcDbLine
 10
88.8344215546
 20
1862.0767002238
 30
0.0
 11
88.7844824564
 21
1862.3270060793
 31
0.0
  0
ELLIPSE
  5
409
330
3E8
100
AcDbEntity
  8
$DDT_AUDIT_GENERATED_(CC)
  6
Continuous
 62
     7
100
AcDbEllipse
 10
88.8341172927
 20
1861.8774612842
 30
0.0
 11
0.0
 21
0.003491012985648467
 31
0.0
210
0.0
220
0.0
230
1.0
 40
1.0
 41
-1.570796326794897
 42
-0.0015271191150861
  0
LINE
  5
40A
330
3E8
100
AcDbEntity
  8
$DDT_AUDIT_GENERATED_(DD)
  6
Continuous
 62
     7
100
AcDbLine
 10
118.7876083057
 20
1895.2669378413
 30
0.0
 11
118.1376083057
 21
1895.2669378413
 31
0.0
  0
LINE
  5
40B
330
3E8
100
AcDbEntity
  8
$DDT_AUDIT_GENERATED_(DD)
  6
Continuous
 62
     7
100
AcDbLine
 10
118.1376083057
 20
1891.4669378413
 30
0.0
 11
118.7876083057
 21
1891.4669378413
 31
0.0
  0
LINE
  5
40C
330
3E8
100
AcDbEntity
  8
$DDT_AUDIT_GENERATED_(DD)
  6
Continuous
 62
     7
100
AcDbLine
 10
118.7876083057
 20
1832.4669378413
 30
0.0
 11
118.1376083057
 21
1832.4669378413
 31
0.0
  0
LINE
  5
40D
330
3E8
100
AcDbEntity
  8
$DDT_AUDIT_GENERATED_(DD)
  6
Continuous
 62
     7
100
AcDbLine
 10
118.1376083057
 20
1836.2669378413
 30
0.0
 11
118.7876083057
 21
1836.2669378413
 31
0.0
  0
LINE
  5
40E
330
3E8
100
AcDbEntity
  8
$DDT_AUDIT_GENERATED_(DD)
  6
Continuous
 62
     7
100
AcDbLine
 10
127.2700656577
 20
1899.282341703
 30
0.0
 11
124.5853869059
 21
1899.3635077549
 31
0.0
  0
ELLIPSE
  5
40F
330
3E8
100
AcDbEntity
  8
$DDT_AUDIT_GENERATED_(DD)
  6
Continuous
 62
     7
100
AcDbEllipse
 10
88.3661865635
 20
1852.9419683069
 30
0.0
 11
0.1414644378339161
 21
0.1414644378339162
 31
0.0
210
0.0
220
0.0
230
1.0
 40
0.9996954599
 41
2.356346783440329
 42
3.926838523739256
  0
LINE
  5
410
330
3E8
100
AcDbEntity
  8
$DDT_AUDIT_GENERATED_(DD)
  6
Continuous
 62
     7
100
AcDbLine
 10
88.1661560979
 20
1874.7919683023
 30
0.0
 11
88.1661560979
 21
1852.9419073804
 31
0.0
  0
LINE
  5
411
330
3E8
100
AcDbEntity
  8
$DDT_AUDIT_GENERATED_(DD)
  6
Continuous
 62
     7
100
AcDbLine
 10
88.1539784155
 20
1874.9164271655
 30
0.0
 11
88.1226679244
 21
1876.7102039968
 31
0.0
  0
LINE
  5
412
330
3E8
100
AcDbEntity
  8
$DDT_AUDIT_GENERATED_(DD)
  6
Continuous
 62
     7
100
AcDbLine
 10
88.1226679244
 20
1876.7102039968
 30
0.0
 11
88.0910383921
 21
1877.5551789767
 31
0.0
  0
ELLIPSE
  5
413
330
3E8
100
AcDbEntity
  8
$DDT_AUDIT_GENERATED_(DD)
  6
Continuous
 62
     7
100
AcDbEllipse
 10
88.3661865635
 20
1874.7919073757
 30
0.0
 11
0.1414644378339162
 21
-0.1414644378339162
 31
0.0
210
0.0
220
0.0
230
1.0
 40
0.9996954599
 41
2.35634678344033
 42
3.926838523739257
  0
LINE
  5
414
330
3E8
100
AcDbEntity
  8
$DDT_AUDIT_GENERATED_(DD)
  6
Continuous
 62
     7
100
AcDbLine
 10
188.8310188513
 20
1873.4192814057
 30
0.0
 11
188.8310188513
 21
1854.314594277
 31
0.0
  0
LINE
  5
415
330
3E8
100
AcDbEntity
  8
$DDT_AUDIT_GENERATED_(DD)
  6
Continuous
 62
     7
100
AcDbLine
 10
188.8681718176
 20
1876.3472602224
 30
0.0
 11
188.8431965337
 21
1874.9164271655
 31
0.0
  0
ELLIPSE
  5
416
330
3E8
100
AcDbEntity
  8
$DDT_AUDIT_GENERATED_(DD)
  6
Continuous
 62
     7
100
AcDbEllipse
 10
188.6309883857
 20
1874.7919073757
 30
0.0
 11
-0.1414644378339161
 21
-0.1414644378339162
 31
0.0
210
0.0
220
0.0
230
1.0
 40
0.9996954599
 41
2.3563467834404
 42
3.027700465473775
  0
LINE
  5
417
330
3E8
100
AcDbEntity
  8
$DDT_AUDIT_GENERATED_(DD)
  6
Continuous
 62
     7
100
AcDbLine
 10
188.8431965337
 20
1852.8174485171
 30
0.0
 11
188.8681718176
 21
1851.3866154603
 31
0.0
  0
ELLIPSE
  5
418
330
3E8
100
AcDbEntity
  8
$DDT_AUDIT_GENERATED_(DD)
  6
Continuous
 62
     7
100
AcDbEllipse
 10
188.6309883857
 20
1852.9419683069
 30
0.0
 11
-0.1414644378339162
 21
0.1414644378339161
 31
0.0
210
0.0
220
0.0
230
1.0
 40
0.9996954599
 41
3.255484841705811
 42
3.926838523739185
  0
LINE
  5
419
330
3E8
100
AcDbEntity
  8
$DDT_AUDIT_GENERATED_(DD)
  6
Continuous
 62
     7
100
AcDbLine
 10
155.8193731916
 20
1828.6235272958
 30
0.0
 11
151.3558434198
 21
1828.6235272958
 31
0.0
  0
LINE
  5
41A
330
3E8
100
AcDbEntity
  8
$DDT_AUDIT_GENERATED_(DD)
  6
Continuous
 62
     7
100
AcDbLine
 10
155.8193731916
 20
1899.1103483869
 30
0.0
 11
151.3558434198
 21
1899.1103483869
 31
0.0
  0
LINE
  5
41B
330
3E8
100
AcDbEntity
  8
$DDT_AUDIT_GENERATED_(DD)
  6
Continuous
 62
     7
100
AcDbLine
 10
88.0910383921
 20
1850.178696706
 30
0.0
 11
88.1226679244
 21
1851.0236716859
 31
0.0
  0
LINE
  5
41C
330
3E8
100
AcDbEntity
  8
$DDT_AUDIT_GENERATED_(DD)
  6
Continuous
 62
     7
100
AcDbLine
 10
188.9876083057
 20
1831.8166637483
 30
0.0
 11
188.9876083057
 21
1845.8172119344
 31
0.0
  0
ELLIPSE
  5
41D
330
3E8
100
AcDbEntity
  8
$DDT_AUDIT_GENERATED_(DD)
  6
Continuous
 62
     7
100
AcDbEllipse
 10
189.1878827749
 20
1831.8172123105
 30
0.0
 11
0.1418092486870134
 21
0.1418092486870134
 31
0.0
210
0.0
220
0.0
230
1.0
 40
0.9972646886
 41
2.357564018061665
 42
3.38670950608949
  0
ELLIPSE
  5
41E
330
3E8
100
AcDbEntity
  8
$DDT_AUDIT_GENERATED_(DD)
  6
Continuous
 62
     7
100
AcDbEllipse
 10
189.1878827749
 20
1845.8166633721
 30
0.0
 11
0.1418092486870133
 21
-0.1418092486870134
 31
0.0
210
0.0
220
0.0
230
1.0
 40
0.9972646886
 41
2.898935184941862
 42
3.925621289118063
  0
LINE
  5
41F
330
3E8
100
AcDbEntity
  8
$DDT_AUDIT_GENERATED_(DD)
  6
Continuous
 62
     7
100
AcDbLine
 10
188.9876083057
 20
1881.9166637483
 30
0.0
 11
188.9876083057
 21
1895.9172119344
 31
0.0
  0
ELLIPSE
  5
420
330
3E8
100
AcDbEntity
  8
$DDT_AUDIT_GENERATED_(DD)
  6
Continuous
 62
     7
100
AcDbEllipse
 10
189.1878827749
 20
1881.9172123105
 30
0.0
 11
0.1418092486870133
 21
0.1418092486870134
 31
0.0
210
0.0
220
0.0
230
1.0
 40
0.9972646886
 41
2.357564018061665
 42
3.384250122795741
  0
ELLIPSE
  5
421
330
3E8
100
AcDbEntity
  8
$DDT_AUDIT_GENERATED_(DD)
  6
Continuous
 62
     7
100
AcDbEllipse
 10
189.1878827749
 20
1895.9166633721
 30
0.0
 11
0.1418092486870134
 21
-0.1418092486870134
 31
0.0
210
0.0
220
0.0
230
1.0
 40
0.9972646886
 41
2.89647580115906
 42
3.925621289116785
  0
ELLIPSE
  5
422
330
3E8
100
AcDbEntity
  8
$DDT_AUDIT_GENERATED_(DD)
  6
Continuous
 62
     7
100
AcDbEllipse
 10
87.9873338365
 20
1831.8172123105
 30
0.0
 11
-0.1418092486870134
 21
0.1418092486870134
 31
0.0
210
0.0
220
0.0
230
1.0
 40
0.9972646886
 41
2.896475801964316
 42
3.925621289117779
  0
LINE
  5
423
330
3E8
100
AcDbEntity
  8
$DDT_AUDIT_GENERATED_(DD)
  6
Continuous
 62
     7
100
AcDbLine
 10
88.1876083057
 20
1845.8172119344
 30
0.0
 11
88.1876083057
 21
1831.8166637483
 31
0.0
  0
ELLIPSE
  5
424
330
3E8
100
AcDbEntity
  8
$DDT_AUDIT_GENERATED_(DD)
  6
Continuous
 62
     7
100
AcDbEllipse
 10
87.9873338365
 20
1845.8166633721
 30
0.0
 11
-0.1418092486870133
 21
-0.1418092486870134
 31
0.0
210
0.0
220
0.0
230
1.0
 40
0.9972646886
 41
2.357564018062872
 42
3.384250122571992
  0
ELLIPSE
  5
425
330
3E8
100
AcDbEntity
  8
$DDT_AUDIT_GENERATED_(DD)
  6
Continuous
 62
     7
100
AcDbEllipse
 10
87.9873338365
 20
1881.9172123105
 30
0.0
 11
-0.1418092486870133
 21
0.1418092486870134
 31
0.0
210
0.0
220
0.0
230
1.0
 40
0.9972646886
 41
2.898935186042885
 42
3.92562128911785
  0
LINE
  5
426
330
3E8
100
AcDbEntity
  8
$DDT_AUDIT_GENERATED_(DD)
  6
Continuous
 62
     7
100
AcDbLine
 10
88.1876083057
 20
1895.9172119344
 30
0.0
 11
88.1876083057
 21
1881.9166637483
 31
0.0
  0
ELLIPSE
  5
427
330
3E8
100
AcDbEntity
  8
$DDT_AUDIT_GENERATED_(DD)
  6
Continuous
 62
     7
100
AcDbEllipse
 10
87.9873338365
 20
1895.9166633721
 30
0.0
 11
-0.1418092486870134
 21
-0.1418092486870134
 31
0.0
210
0.0
220
0.0
230
1.0
 40
0.9972646886
 41
2.357564018062872
 42
3.386709505815702
  0
LINE
  5
428
330
3E8
100
AcDbEntity
  8
$DDT_AUDIT_GENERATED_(FC)
  6
Continuous
 62
     7
100
AcDbLine
 10
118.7876083057
 20
1830.0667855365
 30
0.0
 11
118.7876083057
 21
1829.3125711127
 31
0.0
  0
LINE
  5
429
330
3E8
100
AcDbEntity
  8
$DDT_AUDIT_GENERATED_(FC)
  6
Continuous
 62
     7
100
AcDbLine
 10
150.3213224776
 20
1899.1169378413
 30
0.0
 11
144.0876083057
 21
1899.1169378413
 31
0.0
  0
LINE
  5
42A
330
3E8
100
AcDbEntity
  8
$DDT_AUDIT_GENERATED_(FC)
  6
Continuous
 62
     7
100
AcDbLine
 10
150.3213224776
 20
1899.1169378413
 30
0.0
 11
151.3175171757
 21
1899.1169378413
 31
0.0
  0
LINE
  5
42B
330
3E8
100
AcDbEntity
  8
$DDT_AUDIT_GENERATED_(FC)
  6
Continuous
 62
     7
100
AcDbLine
 10
155.8576994358
 20
1899.1169378413
 30
0.0
 11
155.8238276972
 21
1899.1169378413
 31
0.0
  0
LINE
  5
42C
330
3E8
100
AcDbEntity
  8
$DDT_AUDIT_GENERATED_(FC)
  6
Continuous
 62
     7
100
AcDbLine
 10
155.8576994358
 20
1899.1169378413
 30
0.0
 11
156.8538941338
 21
1899.1169378413
 31
0.0
  0
LINE
  5
42D
330
3E8
100
AcDbEntity
  8
$DDT_AUDIT_GENERATED_(FC)
  6
Continuous
 62
     7
100
AcDbLine
 10
188.7876083057
 20
1867.1332236694
 30
0.0
 11
188.7876083057
 21
1873.3669378413
 31
0.0
  0
LINE
  5
42E
330
3E8
100
AcDbEntity
  8
$DDT_AUDIT_GENERATED_(FC)
  6
Continuous
 62
     7
100
AcDbLine
 10
188.7876083057
 20
1867.1332236694
 30
0.0
 11
188.7876083057
 21
1866.1370289714
 31
0.0
  0
LINE
  5
42F
330
3E8
100
AcDbEntity
  8
$DDT_AUDIT_GENERATED_(FC)
  6
Continuous
 62
     7
100
AcDbLine
 10
188.7876083057
 20
1861.5968467113
 30
0.0
 11
188.7876083057
 21
1861.6307184498
 31
0.0
  0
LINE
  5
430
330
3E8
100
AcDbEntity
  8
$DDT_AUDIT_GENERATED_(FC)
  6
Continuous
 62
     7
100
AcDbLine
 10
188.7876083057
 20
1861.5968467113
 30
0.0
 11
188.7876083057
 21
1860.6006520132
 31
0.0
  0
LINE
  5
431
330
3E8
100
AcDbEntity
  8
$DDT_AUDIT_GENERATED_(FC)
  6
Continuous
 62
     7
100
AcDbLine
 10
156.8538941338
 20
1828.6169378413
 30
0.0
 11
163.0876083057
 21
1828.6169378413
 31
0.0
  0
LINE
  5
432
330
3E8
100
AcDbEntity
  8
$DDT_AUDIT_GENERATED_(FC)
  6
Continuous
 62
     7
100
AcDbLine
 10
156.8538941338
 20
1828.6169378413
 30
0.0
 11
155.8576994358
 21
1828.6169378413
 31
0.0
  0
LINE
  5
433
330
3E8
100
AcDbEntity
  8
$DDT_AUDIT_GENERATED_(FC)
  6
Continuous
 62
     7
100
AcDbLine
 10
151.3175171757
 20
1828.6169378413
 30
0.0
 11
151.3513889142
 21
1828.6169378413
 31
0.0
  0
LINE
  5
434
330
3E8
100
AcDbEntity
  8
$DDT_AUDIT_GENERATED_(FC)
  6
Continuous
 62
     7
100
AcDbLine
 10
151.3175171757
 20
1828.6169378413
 30
0.0
 11
150.3213224776
 21
1828.6169378413
 31
0.0
  0
LINE
  5
435
330
3E8
100
AcDbEntity
  8
$DDT_AUDIT_GENERATED_(FC)
  6
Continuous
 62
     7
100
AcDbLine
 10
118.7876083057
 20
1892.3686984459
 30
0.0
 11
118.6876083057
 21
1892.3686984459
 31
0.0
  0
LINE
  5
436
330
3E8
100
AcDbEntity
  8
$DDT_AUDIT_GENERATED_(FC)
  6
Continuous
 62
     7
100
AcDbLine
 10
118.4876083057
 20
1892.5686908306
 30
0.0
 11
118.4876083057
 21
1894.1651848521
 31
0.0
  0
LINE
  5
437
330
3E8
100
AcDbEntity
  8
$DDT_AUDIT_GENERATED_(FC)
  6
Continuous
 62
     7
100
AcDbLine
 10
118.6876083057
 20
1894.3651772367
 30
0.0
 11
118.7876083057
 21
1894.3651772367
 31
0.0
  0
ARC
  5
438
330
3E8
100
AcDbEntity
  8
$DDT_AUDIT_GENERATED_(FC)
  6
Continuous
 62
     7
100
AcDbCircle
 10
118.6876083057
 20
1894.1651848521
 30
0.0
 40
0.1999923846128342
100
AcDbArc
 50
90.0
 51
180.0
  0
ARC
  5
439
330
3E8
100
AcDbEntity
  8
$DDT_AUDIT_GENERATED_(FC)
  6
Continuous
 62
     7
100
AcDbCircle
 10
118.6876083057
 20
1892.5686908306
 30
0.0
 40
0.1999999999999953
100
AcDbArc
 50
180.0
 51
270.0
  0
LINE
  5
43A
330
3E8
100
AcDbEntity
  8
$DDT_AUDIT_GENERATED_(FC)
  6
Continuous
 62
     7
100
AcDbLine
 10
118.4876083057
 20
1833.5686908306
 30
0.0
 11
118.4876083057
 21
1835.1651848521
 31
0.0
  0
LINE
  5
43B
330
3E8
100
AcDbEntity
  8
$DDT_AUDIT_GENERATED_(FC)
  6
Continuous
 62
     7
100
AcDbLine
 10
118.6876083057
 20
1835.3651772367
 30
0.0
 11
118.7876083057
 21
1835.3651772367
 31
0.0
  0
LINE
  5
43C
330
3E8
100
AcDbEntity
  8
$DDT_AUDIT_GENERATED_(FC)
  6
Continuous
 62
     7
100
AcDbLine
 10
118.7876083057
 20
1833.3686984459
 30
0.0
 11
118.6876083057
 21
1833.3686984459
 31
0.0
  0
ARC
  5
43D
330
3E8
100
AcDbEntity
  8
$DDT_AUDIT_GENERATED_(FC)
  6
Continuous
 62
     7
100
AcDbCircle
 10
118.6876083057
 20
1833.5686908306
 30
0.0
 40
0.1999999999999988
100
AcDbArc
 50
180.0
 51
270.0
  0
ARC
  5
43E
330
3E8
100
AcDbEntity
  8
$DDT_AUDIT_GENERATED_(FC)
  6
Continuous
 62
     7
100
AcDbCircle
 10
118.6876083057
 20
1835.1651848521
 30
0.0
 40
0.1999999999999988
100
AcDbArc
 50
90.0
 51
180.0
  0
LINE
  5
43F
330
3E8
100
AcDbEntity
  8
$DDT_AUDIT_GENERATED_(FC)
  6
Continuous
 62
     7
100
AcDbLine
 10
118.4876083057
 20
1850.0686908306
 30
0.0
 11
118.4876083057
 21
1851.6651848521
 31
0.0
  0
LINE
  5
440
330
3E8
100
AcDbEntity
  8
$DDT_AUDIT_GENERATED_(FC)
  6
Continuous
 62
     7
100
AcDbLine
 10
118.6876083057
 20
1851.8651772367
 30
0.0
 11
118.7876083057
 21
1851.8651772367
 31
0.0
  0
LINE
  5
441
330
3E8
100
AcDbEntity
  8
$DDT_AUDIT_GENERATED_(FC)
  6
Continuous
 62
     7
100
AcDbLine
 10
118.7876083057
 20
1849.8686984459
 30
0.0
 11
118.6876083057
 21
1849.8686984459
 31
0.0
  0
ARC
  5
442
330
3E8
100
AcDbEntity
  8
$DDT_AUDIT_GENERATED_(FC)
  6
Continuous
 62
     7
100
AcDbCircle
 10
118.6876083057
 20
1850.0686908306
 30
0.0
 40
0.2000000000000023
100
AcDbArc
 50
180.0
 51
270.0
  0
ARC
  5
443
330
3E8
100
AcDbEntity
  8
$DDT_AUDIT_GENERATED_(FC)
  6
Continuous
 62
     7
100
AcDbCircle
 10
118.6876083057
 20
1851.6651848521
 30
0.0
 40
0.1999999999999953
100
AcDbArc
 50
90.0
 51
180.0
  0
LINE
  5
444
330
3E8
100
AcDbEntity
  8
$DDT_AUDIT_GENERATED_(FC)
  6
Continuous
 62
     7
100
AcDbLine
 10
118.4876083057
 20
1876.0686908306
 30
0.0
 11
118.4876083057
 21
1877.6651848521
 31
0.0
  0
LINE
  5
445
330
3E8
100
AcDbEntity
  8
$DDT_AUDIT_GENERATED_(FC)
  6
Continuous
 62
     7
100
AcDbLine
 10
118.6876083057
 20
1877.8651772367
 30
0.0
 11
118.7876083057
 21
1877.8651772367
 31
0.0
  0
LINE
  5
446
330
3E8
100
AcDbEntity
  8
$DDT_AUDIT_GENERATED_(FC)
  6
Continuous
 62
     7
100
AcDbLine
 10
118.7876083057
 20
1875.8686984459
 30
0.0
 11
118.6876083057
 21
1875.8686984459
 31
0.0
  0
ARC
  5
447
330
3E8
100
AcDbEntity
  8
$DDT_AUDIT_GENERATED_(FC)
  6
Continuous
 62
     7
100
AcDbCircle
 10
118.6876083057
 20
1876.0686908306
 30
0.0
 40
0.1999999999999988
100
AcDbArc
 50
180.0
 51
270.0
  0
ARC
  5
448
330
3E8
100
AcDbEntity
  8
$DDT_AUDIT_GENERATED_(FC)
  6
Continuous
 62
     7
100
AcDbCircle
 10
118.6876083057
 20
1877.6651848521
 30
0.0
 40
0.1999999999999988
100
AcDbArc
 50
90.0
 51
180.0
  0
LINE
  5
449
330
3E8
100
AcDbEntity
  8
$DDT_AUDIT_GENERATED_(FC)
  6
Continuous
 62
     7
100
AcDbLine
 10
188.7876083057
 20
1851.8669378413
 30
0.0
 11
188.7876083057
 21
1852.8669378413
 31
0.0
  0
LINE
  5
44A
330
3E8
100
AcDbEntity
  8
$DDT_AUDIT_GENERATED_(FC)
  6
Continuous
 62
     7
100
AcDbLine
 10
141.5876083057
 20
1828.6169378413
 30
0.0
 11
142.5876083057
 21
1828.6169378413
 31
0.0
  0
ARC
  5
44B
330
3E8
100
AcDbEntity
  8
$DDT_AUDIT_GENERATED_(FC)
  6
Continuous
 62
     7
100
AcDbCircle
 10
186.1090199829
 20
1831.2954794156
 30
0.0
 40
2.499999999999998
100
AcDbArc
 50
335.7044631048
 51
359.5028690524
  0
ARC
  5
44C
330
3E8
100
AcDbEntity
  8
$DDT_AUDIT_GENERATED_(FC)
  6
Continuous
 62
     7
100
AcDbCircle
 10
186.1090199829
 20
1831.2954794156
 30
0.0
 40
2.499999999999998
100
AcDbArc
 50
270.4982116126
 51
296.9481967487
  0
LINE
  5
44D
330
3E8
100
AcDbEntity
  8
$DDT_AUDIT_GENERATED_(FC)
  6
Continuous
 62
     7
100
AcDbLine
 10
186.1307582915
 20
1828.7955739282
 30
0.0
 11
183.8376083057
 21
1828.7756334935
 31
0.0
  0
ARC
  5
44E
330
3E8
100
AcDbEntity
  8
$DDT_AUDIT_GENERATED_(FC)
  6
Continuous
 62
     7
100
AcDbCircle
 10
119.2876083057
 20
1829.3125711127
 30
0.0
 40
0.5000000000000026
100
AcDbArc
 50
180.0
 51
269.4974183333
  0
LINE
  5
44F
330
3E8
100
AcDbEntity
  8
$DDT_AUDIT_GENERATED_(FC)
  6
Continuous
 62
     7
100
AcDbLine
 10
141.5876083057
 20
1828.6169378413
 30
0.0
 11
124.8376083057
 21
1828.7638676659
 31
0.0
  0
LINE
  5
450
330
3E8
100
AcDbEntity
  8
$DDT_AUDIT_GENERATED_(FC)
  6
Continuous
 62
     7
100
AcDbLine
 10
188.7876083057
 20
1851.8669378413
 30
0.0
 11
188.6422720801
 21
1835.1169378413
 31
0.0
  0
LINE
  5
451
330
3E8
100
AcDbEntity
  8
$DDT_AUDIT_GENERATED_(FC)
  6
Continuous
 62
     7
100
AcDbLine
 10
165.5876083057
 20
1899.1169378413
 30
0.0
 11
164.5876083057
 21
1899.1169378413
 31
0.0
  0
LINE
  5
452
330
3E8
100
AcDbEntity
  8
$DDT_AUDIT_GENERATED_(FC)
  6
Continuous
 62
     7
100
AcDbLine
 10
118.7876083057
 20
1898.4213045699
 30
0.0
 11
118.7876083057
 21
1897.6670901462
 31
0.0
  0
LINE
  5
453
330
3E8
100
AcDbEntity
  8
$DDT_AUDIT_GENERATED_(FC)
  6
Continuous
 62
     7
100
AcDbLine
 10
119.2832225095
 20
1898.9212853343
 30
0.0
 11
123.3376083057
 21
1898.956850122
 31
0.0
  0
ARC
  5
454
330
3E8
100
AcDbEntity
  8
$DDT_AUDIT_GENERATED_(FC)
  6
Continuous
 62
     7
100
AcDbCircle
 10
186.1090199829
 20
1896.4383962671
 30
0.0
 40
2.499999999999999
100
AcDbArc
 50
63.0518032513
 51
89.5017883874
  0
ARC
  5
455
330
3E8
100
AcDbEntity
  8
$DDT_AUDIT_GENERATED_(FC)
  6
Continuous
 62
     7
100
AcDbCircle
 10
186.1090199829
 20
1896.4383962671
 30
0.0
 40
2.499999999999999
100
AcDbArc
 50
0.4971309476
 51
24.2955368952
  0
LINE
  5
456
330
3E8
100
AcDbEntity
  8
$DDT_AUDIT_GENERATED_(FC)
  6
Continuous
 62
     7
100
AcDbLine
 10
188.6089258798
 20
1896.4600874246
 30
0.0
 11
188.6292568957
 21
1894.1169378413
 31
0.0
  0
LINE
  5
457
330
3E8
100
AcDbEntity
  8
$DDT_AUDIT_GENERATED_(FC)
  6
Continuous
 62
     7
100
AcDbLine
 10
165.5876083057
 20
1899.1169378413
 30
0.0
 11
182.3376083057
 21
1898.9712856674
 31
0.0
  0
ARC
  5
458
330
3E8
100
AcDbEntity
  8
$DDT_AUDIT_GENERATED_(FC)
  6
Continuous
 62
     7
100
AcDbCircle
 10
119.2876083057
 20
1898.4213045699
 30
0.0
 40
0.5000000000000004
100
AcDbArc
 50
90.5025816667
 51
180.0
  0
ELLIPSE
  5
459
330
3E8
100
AcDbEntity
  8
$DDT_AUDIT_GENERATED_(FC)
  6
Continuous
 62
     7
100
AcDbEllipse
 10
151.3513889142
 20
1828.8169378413
 30
0.0
 11
1.754336177943319E-15
 21
-0.1999999999999988
 31
0.0
210
0.0
220
0.0
230
1.0
 40
0.0874886635
 41
0.0
 42
1.570796326794896
  0
ELLIPSE
  5
45A
330
3E8
100
AcDbEntity
  8
$DDT_AUDIT_GENERATED_(FC)
  6
Continuous
 62
     7
100
AcDbEllipse
 10
155.8238276972
 20
1898.9169378413
 30
0.0
 11
0.0
 21
0.2000000000000455
 31
0.0
210
0.0
220
0.0
230
1.0
 40
1.0
 41
0.0
 42
1.570796326794897
  0
LINE
  5
45B
330
3E8
100
AcDbEntity
  8
$DDT_AUDIT_GENERATED_(FC)
  6
Continuous
 62
     7
100
AcDbLine
 10
188.5876083057
 20
1866.0856595001
 30
0.0
 11
188.4435136506
 21
1866.0856595001
 31
0.0
  0
LINE
  5
45C
330
3E8
100
AcDbEntity
  8
$DDT_AUDIT_GENERATED_(FC)
  6
Continuous
 62
     7
100
AcDbLine
 10
188.7876083057
 20
1866.1031572328
 30
0.0
 11
188.7876083057
 21
1866.1370289714
 31
0.0
  0
ELLIPSE
  5
45D
330
3E8
100
AcDbEntity
  8
$DDT_AUDIT_GENERATED_(FC)
  6
Continuous
 62
     7
100
AcDbEllipse
 10
188.5876083057
 20
1866.1031572328
 30
0.0
 11
-0.1999999999999988
 21
-1.961270196651200E-17
 31
0.0
210
0.0
220
0.0
230
1.0
 40
0.0874886635
 41
1.570796326794897
 42
3.141592653589793
  0
ELLIPSE
  5
45E
330
3E8
100
AcDbEntity
  8
$DDT_AUDIT_GENERATED_(FC)
  6
Continuous
 62
     7
100
AcDbEllipse
 10
188.5876083057
 20
1861.6307184498
 30
0.0
 11
0.1999999999999988
 21
1.961270196651200E-17
 31
0.0
210
0.0
220
0.0
230
1.0
 40
0.0874886635
 41
0.0
 42
1.570796326794897
  0
LINE
  5
45F
330
3E8
100
AcDbEntity
  8
$DDT_AUDIT_GENERATED_(FC)
  6
Continuous
 62
     7
100
AcDbLine
 10
155.8063299645
 20
1828.8169378413
 30
0.0
 11
155.8063299645
 21
1829.0610324965
 31
0.0
  0
LINE
  5
460
330
3E8
100
AcDbEntity
  8
$DDT_AUDIT_GENERATED_(FC)
  6
Continuous
 62
     7
100
AcDbLine
 10
155.8238276972
 20
1828.6169378413
 30
0.0
 11
155.8576994358
 21
1828.6169378413
 31
0.0
  0
ELLIPSE
  5
461
330
3E8
100
AcDbEntity
  8
$DDT_AUDIT_GENERATED_(FC)
  6
Continuous
 62
     7
100
AcDbEllipse
 10
155.8238276972
 20
1828.8169378413
 30
0.0
 11
0.0
 21
0.01749773270518062
 31
0.0
210
0.0
220
0.0
230
1.0
 40
1.0
 41
1.570796326794897
 42
3.141592653589793
  0
LINE
  5
462
330
3E8
100
AcDbEntity
  8
$DDT_AUDIT_GENERATED_(FC)
  6
Continuous
 62
     7
100
AcDbLine
 10
151.3513889142
 20
1899.1169378413
 30
0.0
 11
151.3175171757
 21
1899.1169378413
 31
0.0
  0
LINE
  5
463
330
3E8
100
AcDbEntity
  8
$DDT_AUDIT_GENERATED_(FC)
  6
Continuous
 62
     7
100
AcDbLine
 10
151.3688866469
 20
1898.9169378413
 30
0.0
 11
151.3688866469
 21
1898.6728431862
 31
0.0
  0
ELLIPSE
  5
464
330
3E8
100
AcDbEntity
  8
$DDT_AUDIT_GENERATED_(FC)
  6
Continuous
 62
     7
100
AcDbEllipse
 10
151.3513889142
 20
1898.9169378413
 30
0.0
 11
1.961270196651200E-17
 21
-0.1999999999999988
 31
0.0
210
0.0
220
0.0
230
1.0
 40
0.0874886635
 41
1.570796326794897
 42
3.141592653589792
  0
LINE
  5
465
330
3E8
100
AcDbEntity
  8
$DDT_AUDIT_GENERATED_(FC)
  6
Continuous
 62
     7
100
AcDbLine
 10
151.3688866469
 20
1829.0610324965
 30
0.0
 11
151.3688866469
 21
1828.8169378413
 31
0.0
  0
LINE
  5
466
330
3E8
100
AcDbEntity
  8
$DDT_AUDIT_GENERATED_(FC)
  6
Continuous
 62
     7
100
AcDbLine
 10
155.8063299645
 20
1898.6728431862
 30
0.0
 11
155.8063299645
 21
1898.9169378413
 31
0.0
  0
ARC
  5
467
330
3E8
100
AcDbEntity
  8
$DDT_AUDIT_GENERATED_(FC)
  6
Continuous
 62
     7
100
AcDbCircle
 10
188.4633956774
 20
1862.3747701561
 30
0.0
 40
3.710942605191546
100
AcDbArc
 50
90.3069736723
 51
91.1847822732
  0
LINE
  5
468
330
3E8
100
AcDbEntity
  8
$DDT_AUDIT_GENERATED_(FC)
  6
Continuous
 62
     7
100
AcDbLine
 10
188.4435136506
 20
1861.6482161825
 30
0.0
 11
188.5876083057
 21
1861.6482161825
 31
0.0
  0
ARC
  5
469
330
3E8
100
AcDbEntity
  8
$DDT_AUDIT_GENERATED_(FC)
  6
Continuous
 62
     7
100
AcDbCircle
 10
188.4633956774
 20
1865.3591055266
 30
0.0
 40
3.710942605191031
100
AcDbArc
 50
268.8152177268
 51
269.6930263277
  0
LINE
  5
46A
330
3E8
100
AcDbEntity
  8
$DDT_AUDIT_GENERATED_(FC)
  6
Continuous
 62
     7
100
AcDbLine
 10
164.5876083057
 20
1828.6169378413
 30
0.0
 11
165.5876083057
 21
1828.6169378413
 31
0.0
  0
LINE
  5
46B
330
3E8
100
AcDbEntity
  8
$DDT_AUDIT_GENERATED_(FC)
  6
Continuous
 62
     7
100
AcDbLine
 10
182.3376083057
 20
1828.7625900152
 30
0.0
 11
165.5876083057
 21
1828.6169378413
 31
0.0
  0
LINE
  5
46C
330
3E8
100
AcDbEntity
  8
$DDT_AUDIT_GENERATED_(FC)
  6
Continuous
 62
     7
100
AcDbLine
 10
163.2608133865
 20
1828.5169378413
 30
0.0
 11
164.414403225
 21
1828.5169378413
 31
0.0
  0
ARC
  5
46D
330
3E8
100
AcDbEntity
  8
$DDT_AUDIT_GENERATED_(FC)
  6
Continuous
 62
     7
100
AcDbCircle
 10
164.414403225
 20
1828.7169378413
 30
0.0
 40
0.1999999999999988
100
AcDbArc
 50
270.0
 51
330.0
  0
ARC
  5
46E
330
3E8
100
AcDbEntity
  8
$DDT_AUDIT_GENERATED_(FC)
  6
Continuous
 62
     7
100
AcDbCircle
 10
163.2608133865
 20
1828.7169378413
 30
0.0
 40
0.1999999999999999
100
AcDbArc
 50
210.0
 51
270.0
  0
LINE
  5
46F
330
3E8
100
AcDbEntity
  8
$DDT_AUDIT_GENERATED_(FC)
  6
Continuous
 62
     7
100
AcDbLine
 10
182.3376083057
 20
1828.7169378413
 30
0.0
 11
182.3376083057
 21
1828.7625900152
 31
0.0
  0
LINE
  5
470
330
3E8
100
AcDbEntity
  8
$DDT_AUDIT_GENERATED_(FC)
  6
Continuous
 62
     7
100
AcDbLine
 10
182.5376083057
 20
1828.5169378413
 30
0.0
 11
183.6376083057
 21
1828.5169378413
 31
0.0
  0
LINE
  5
471
330
3E8
100
AcDbEntity
  8
$DDT_AUDIT_GENERATED_(FC)
  6
Continuous
 62
     7
100
AcDbLine
 10
183.8376083057
 20
1828.7169378413
 30
0.0
 11
183.8376083057
 21
1828.7756334935
 31
0.0
  0
ARC
  5
472
330
3E8
100
AcDbEntity
  8
$DDT_AUDIT_GENERATED_(FC)
  6
Continuous
 62
     7
100
AcDbCircle
 10
183.6376083057
 20
1828.7169378413
 30
0.0
 40
0.1999999999999988
100
AcDbArc
 50
270.0
 51
0.0
  0
ARC
  5
473
330
3E8
100
AcDbEntity
  8
$DDT_AUDIT_GENERATED_(FC)
  6
Continuous
 62
     7
100
AcDbCircle
 10
182.5376083057
 20
1828.7169378413
 30
0.0
 40
0.1999999999999988
100
AcDbArc
 50
180.0
 51
270.0
  0
LINE
  5
474
330
3E8
100
AcDbEntity
  8
$DDT_AUDIT_GENERATED_(FC)
  6
Continuous
 62
     7
100
AcDbLine
 10
144.0876083057
 20
1828.6169378413
 30
0.0
 11
150.3213224776
 21
1828.6169378413
 31
0.0
  0
LINE
  5
475
330
3E8
100
AcDbEntity
  8
$DDT_AUDIT_GENERATED_(FC)
  6
Continuous
 62
     7
100
AcDbLine
 10
123.3376083057
 20
1828.7770255606
 30
0.0
 11
119.2832225095
 21
1828.8125903483
 31
0.0
  0
LINE
  5
476
330
3E8
100
AcDbEntity
  8
$DDT_AUDIT_GENERATED_(FC)
  6
Continuous
 62
     7
100
AcDbLine
 10
142.7608133865
 20
1828.5169378413
 30
0.0
 11
143.914403225
 21
1828.5169378413
 31
0.0
  0
ARC
  5
477
330
3E8
100
AcDbEntity
  8
$DDT_AUDIT_GENERATED_(FC)
  6
Continuous
 62
     7
100
AcDbCircle
 10
143.914403225
 20
1828.7169378413
 30
0.0
 40
0.1999999999999988
100
AcDbArc
 50
270.0
 51
330.0
  0
ARC
  5
478
330
3E8
100
AcDbEntity
  8
$DDT_AUDIT_GENERATED_(FC)
  6
Continuous
 62
     7
100
AcDbCircle
 10
142.7608133865
 20
1828.7169378413
 30
0.0
 40
0.1999999999999994
100
AcDbArc
 50
210.0
 51
270.0
  0
LINE
  5
479
330
3E8
100
AcDbEntity
  8
$DDT_AUDIT_GENERATED_(FC)
  6
Continuous
 62
     7
100
AcDbLine
 10
123.3376083057
 20
1828.7169378413
 30
0.0
 11
123.3376083057
 21
1828.7770255606
 31
0.0
  0
LINE
  5
47A
330
3E8
100
AcDbEntity
  8
$DDT_AUDIT_GENERATED_(FC)
  6
Continuous
 62
     7
100
AcDbLine
 10
123.5376083057
 20
1828.5169378413
 30
0.0
 11
124.6376083057
 21
1828.5169378413
 31
0.0
  0
LINE
  5
47B
330
3E8
100
AcDbEntity
  8
$DDT_AUDIT_GENERATED_(FC)
  6
Continuous
 62
     7
100
AcDbLine
 10
124.8376083057
 20
1828.7169378413
 30
0.0
 11
124.8376083057
 21
1828.7638676659
 31
0.0
  0
ARC
  5
47C
330
3E8
100
AcDbEntity
  8
$DDT_AUDIT_GENERATED_(FC)
  6
Continuous
 62
     7
100
AcDbCircle
 10
124.6376083057
 20
1828.7169378413
 30
0.0
 40
0.1999999999999988
100
AcDbArc
 50
270.0
 51
0.0
  0
ARC
  5
47D
330
3E8
100
AcDbEntity
  8
$DDT_AUDIT_GENERATED_(FC)
  6
Continuous
 62
     7
100
AcDbCircle
 10
123.5376083057
 20
1828.7169378413
 30
0.0
 40
0.1999999999999988
100
AcDbArc
 50
180.0
 51
270.0
  0
LINE
  5
47E
330
3E8
100
AcDbEntity
  8
$DDT_AUDIT_GENERATED_(FC)
  6
Continuous
 62
     7
100
AcDbLine
 10
163.0876083057
 20
1899.1169378413
 30
0.0
 11
156.8538941338
 21
1899.1169378413
 31
0.0
  0
LINE
  5
47F
330
3E8
100
AcDbEntity
  8
$DDT_AUDIT_GENERATED_(FC)
  6
Continuous
 62
     7
100
AcDbLine
 10
183.8376083057
 20
1898.9582421892
 30
0.0
 11
186.1307582915
 21
1898.9383017545
 31
0.0
  0
LINE
  5
480
330
3E8
100
AcDbEntity
  8
$DDT_AUDIT_GENERATED_(FC)
  6
Continuous
 62
     7
100
AcDbLine
 10
164.414403225
 20
1899.2169378413
 30
0.0
 11
163.2608133865
 21
1899.2169378413
 31
0.0
  0
ARC
  5
481
330
3E8
100
AcDbEntity
  8
$DDT_AUDIT_GENERATED_(FC)
  6
Continuous
 62
     7
100
AcDbCircle
 10
163.2608133865
 20
1899.0169378413
 30
0.0
 40
0.1999999999999988
100
AcDbArc
 50
90.0
 51
150.0
  0
ARC
  5
482
330
3E8
100
AcDbEntity
  8
$DDT_AUDIT_GENERATED_(FC)
  6
Continuous
 62
     7
100
AcDbCircle
 10
164.414403225
 20
1899.0169378413
 30
0.0
 40
0.200000000000002
100
AcDbArc
 50
30.0
 51
90.0
  0
LINE
  5
483
330
3E8
100
AcDbEntity
  8
$DDT_AUDIT_GENERATED_(FC)
  6
Continuous
 62
     7
100
AcDbLine
 10
183.8376083057
 20
1899.0169378413
 30
0.0
 11
183.8376083057
 21
1898.9582421892
 31
0.0
  0
LINE
  5
484
330
3E8
100
AcDbEntity
  8
$DDT_AUDIT_GENERATED_(FC)
  6
Continuous
 62
     7
100
AcDbLine
 10
183.6376083057
 20
1899.2169378413
 30
0.0
 11
182.5376083057
 21
1899.2169378413
 31
0.0
  0
LINE
  5
485
330
3E8
100
AcDbEntity
  8
$DDT_AUDIT_GENERATED_(FC)
  6
Continuous
 62
     7
100
AcDbLine
 10
182.3376083057
 20
1899.0169378413
 30
0.0
 11
182.3376083057
 21
1898.9712856674
 31
0.0
  0
ARC
  5
486
330
3E8
100
AcDbEntity
  8
$DDT_AUDIT_GENERATED_(FC)
  6
Continuous
 62
     7
100
AcDbCircle
 10
182.5376083057
 20
1899.0169378413
 30
0.0
 40
0.1999999999999988
100
AcDbArc
 50
90.0
 51
180.0
  0
ARC
  5
487
330
3E8
100
AcDbEntity
  8
$DDT_AUDIT_GENERATED_(FC)
  6
Continuous
 62
     7
100
AcDbCircle
 10
183.6376083057
 20
1899.0169378413
 30
0.0
 40
0.1999999999999988
100
AcDbArc
 50
0.0
 51
90.0
  0
LINE
  5
488
330
3E8
100
AcDbEntity
  8
$DDT_AUDIT_GENERATED_(FC)
  6
Continuous
 62
     7
100
AcDbLine
 10
142.5876083057
 20
1899.1169378413
 30
0.0
 11
141.5876083057
 21
1899.1169378413
 31
0.0
  0
LINE
  5
489
330
3E8
100
AcDbEntity
  8
$DDT_AUDIT_GENERATED_(FC)
  6
Continuous
 62
     7
100
AcDbLine
 10
124.8376083057
 20
1898.9700080168
 30
0.0
 11
141.5876083057
 21
1899.1169378413
 31
0.0
  0
LINE
  5
48A
330
3E8
100
AcDbEntity
  8
$DDT_AUDIT_GENERATED_(FC)
  6
Continuous
 62
     7
100
AcDbLine
 10
143.914403225
 20
1899.2169378413
 30
0.0
 11
142.7608133865
 21
1899.2169378413
 31
0.0
  0
ARC
  5
48B
330
3E8
100
AcDbEntity
  8
$DDT_AUDIT_GENERATED_(FC)
  6
Continuous
 62
     7
100
AcDbCircle
 10
142.7608133865
 20
1899.0169378413
 30
0.0
 40
0.1999999999999988
100
AcDbArc
 50
90.0
 51
150.0
  0
ARC
  5
48C
330
3E8
100
AcDbEntity
  8
$DDT_AUDIT_GENERATED_(FC)
  6
Continuous
 62
     7
100
AcDbCircle
 10
143.914403225
 20
1899.0169378413
 30
0.0
 40
0.1999999999999994
100
AcDbArc
 50
30.0
 51
90.0
  0
LINE
  5
48D
330
3E8
100
AcDbEntity
  8
$DDT_AUDIT_GENERATED_(FC)
  6
Continuous
 62
     7
100
AcDbLine
 10
124.8376083057
 20
1899.0169378413
 30
0.0
 11
124.8376083057
 21
1898.9700080168
 31
0.0
  0
LINE
  5
48E
330
3E8
100
AcDbEntity
  8
$DDT_AUDIT_GENERATED_(FC)
  6
Continuous
 62
     7
100
AcDbLine
 10
124.6376083057
 20
1899.2169378413
 30
0.0
 11
123.5376083057
 21
1899.2169378413
 31
0.0
  0
LINE
  5
48F
330
3E8
100
AcDbEntity
  8
$DDT_AUDIT_GENERATED_(FC)
  6
Continuous
 62
     7
100
AcDbLine
 10
123.3376083057
 20
1899.0169378413
 30
0.0
 11
123.3376083057
 21
1898.956850122
 31
0.0
  0
ARC
  5
490
330
3E8
100
AcDbEntity
  8
$DDT_AUDIT_GENERATED_(FC)
  6
Continuous
 62
     7
100
AcDbCircle
 10
123.5376083057
 20
1899.0169378413
 30
0.0
 40
0.1999999999999988
100
AcDbArc
 50
90.0
 51
180.0
  0
ARC
  5
491
330
3E8
100
AcDbEntity
  8
$DDT_AUDIT_GENERATED_(FC)
  6
Continuous
 62
     7
100
AcDbCircle
 10
124.6376083057
 20
1899.0169378413
 30
0.0
 40
0.1999999999999988
100
AcDbArc
 50
0.0
 51
90.0
  0
LINE
  5
492
330
3E8
100
AcDbEntity
  8
$DDT_AUDIT_GENERATED_(FC)
  6
Continuous
 62
     7
100
AcDbLine
 10
188.7876083057
 20
1874.8669378413
 30
0.0
 11
188.7876083057
 21
1875.8669378413
 31
0.0
  0
LINE
  5
493
330
3E8
100
AcDbEntity
  8
$DDT_AUDIT_GENERATED_(FC)
  6
Continuous
 62
     7
100
AcDbLine
 10
188.6422720801
 20
1892.6169378413
 30
0.0
 11
188.7876083057
 21
1875.8669378413
 31
0.0
  0
LINE
  5
494
330
3E8
100
AcDbEntity
  8
$DDT_AUDIT_GENERATED_(FC)
  6
Continuous
 62
     7
100
AcDbLine
 10
188.8576083057
 20
1873.5189246829
 30
0.0
 11
188.8576083057
 21
1874.7149509998
 31
0.0
  0
ARC
  5
495
330
3E8
100
AcDbEntity
  8
$DDT_AUDIT_GENERATED_(FC)
  6
Continuous
 62
     7
100
AcDbCircle
 10
188.6576083057
 20
1874.7149509998
 30
0.0
 40
0.1999999999999988
100
AcDbArc
 50
0.0
 51
49.4583981264
  0
ARC
  5
496
330
3E8
100
AcDbEntity
  8
$DDT_AUDIT_GENERATED_(FC)
  6
Continuous
 62
     7
100
AcDbCircle
 10
188.6576083057
 20
1873.5189246829
 30
0.0
 40
0.2000000000000006
100
AcDbArc
 50
310.5416018736
 51
0.0
  0
LINE
  5
497
330
3E8
100
AcDbEntity
  8
$DDT_AUDIT_GENERATED_(FC)
  6
Continuous
 62
     7
100
AcDbLine
 10
188.6576083057
 20
1892.6169378413
 30
0.0
 11
188.6422720801
 21
1892.6169378413
 31
0.0
  0
LINE
  5
498
330
3E8
100
AcDbEntity
  8
$DDT_AUDIT_GENERATED_(FC)
  6
Continuous
 62
     7
100
AcDbLine
 10
188.8576083057
 20
1892.8169378413
 30
0.0
 11
188.8576083057
 21
1893.9169378413
 31
0.0
  0
LINE
  5
499
330
3E8
100
AcDbEntity
  8
$DDT_AUDIT_GENERATED_(FC)
  6
Continuous
 62
     7
100
AcDbLine
 10
188.6576083057
 20
1894.1169378413
 30
0.0
 11
188.6292568957
 21
1894.1169378413
 31
0.0
  0
ARC
  5
49A
330
3E8
100
AcDbEntity
  8
$DDT_AUDIT_GENERATED_(FC)
  6
Continuous
 62
     7
100
AcDbCircle
 10
188.6576083057
 20
1893.9169378413
 30
0.0
 40
0.1999999999999988
100
AcDbArc
 50
0.0
 51
90.0
  0
ARC
  5
49B
330
3E8
100
AcDbEntity
  8
$DDT_AUDIT_GENERATED_(FC)
  6
Continuous
 62
     7
100
AcDbCircle
 10
188.6576083057
 20
1892.8169378413
 30
0.0
 40
0.1999999999999988
100
AcDbArc
 50
270.0
 51
0.0
  0
LINE
  5
49C
330
3E8
100
AcDbEntity
  8
$DDT_AUDIT_GENERATED_(FC)
  6
Continuous
 62
     7
100
AcDbLine
 10
188.7876083057
 20
1854.3669378413
 30
0.0
 11
188.7876083057
 21
1860.6006520132
 31
0.0
  0
LINE
  5
49D
330
3E8
100
AcDbEntity
  8
$DDT_AUDIT_GENERATED_(FC)
  6
Continuous
 62
     7
100
AcDbLine
 10
188.6292568957
 20
1833.6169378413
 30
0.0
 11
188.6089258798
 21
1831.2737882581
 31
0.0
  0
LINE
  5
49E
330
3E8
100
AcDbEntity
  8
$DDT_AUDIT_GENERATED_(FC)
  6
Continuous
 62
     7
100
AcDbLine
 10
188.8576083057
 20
1853.0189246829
 30
0.0
 11
188.8576083057
 21
1854.2149509998
 31
0.0
  0
ARC
  5
49F
330
3E8
100
AcDbEntity
  8
$DDT_AUDIT_GENERATED_(FC)
  6
Continuous
 62
     7
100
AcDbCircle
 10
188.6576083057
 20
1854.2149509998
 30
0.0
 40
0.1999999999999988
100
AcDbArc
 50
0.0
 51
49.4583981264
  0
ARC
  5
4A0
330
3E8
100
AcDbEntity
  8
$DDT_AUDIT_GENERATED_(FC)
  6
Continuous
 62
     7
100
AcDbCircle
 10
188.6576083057
 20
1853.0189246829
 30
0.0
 40
0.2
100
AcDbArc
 50
310.5416018735
 51
0.0
  0
LINE
  5
4A1
330
3E8
100
AcDbEntity
  8
$DDT_AUDIT_GENERATED_(FC)
  6
Continuous
 62
     7
100
AcDbLine
 10
188.6576083057
 20
1833.6169378413
 30
0.0
 11
188.6292568957
 21
1833.6169378413
 31
0.0
  0
LINE
  5
4A2
330
3E8
100
AcDbEntity
  8
$DDT_AUDIT_GENERATED_(FC)
  6
Continuous
 62
     7
100
AcDbLine
 10
188.8576083057
 20
1833.8169378413
 30
0.0
 11
188.8576083057
 21
1834.9169378413
 31
0.0
  0
LINE
  5
4A3
330
3E8
100
AcDbEntity
  8
$DDT_AUDIT_GENERATED_(FC)
  6
Continuous
 62
     7
100
AcDbLine
 10
188.6576083057
 20
1835.1169378413
 30
0.0
 11
188.6422720801
 21
1835.1169378413
 31
0.0
  0
ARC
  5
4A4
330
3E8
100
AcDbEntity
  8
$DDT_AUDIT_GENERATED_(FC)
  6
Continuous
 62
     7
100
AcDbCircle
 10
188.6576083057
 20
1834.9169378413
 30
0.0
 40
0.1999999999999988
100
AcDbArc
 50
0.0
 51
90.0
  0
ARC
  5
4A5
330
3E8
100
AcDbEntity
  8
$DDT_AUDIT_GENERATED_(FC)
  6
Continuous
 62
     7
100
AcDbCircle
 10
188.6576083057
 20
1833.8169378413
 30
0.0
 40
0.1999999999999988
100
AcDbArc
 50
270.0
 51
0.0
  0
LINE
  5
4A6
330
3E8
100
AcDbEntity
  8
$DDT_AUDIT_GENERATED_(17B)
  6
Continuous
 62
     7
100
AcDbLine
 10
90.8376083057
 20
1828.5869378413
 30
0.0
 11
96.5876083057
 21
1828.5869378413
 31
0.0
  0
ARC
  5
4A7
330
3E8
100
AcDbEntity
  8
$DDT_AUDIT_GENERATED_(17B)
  6
Continuous
 62
     7
100
AcDbCircle
 10
90.8376083057
 20
1831.0869378413
 30
0.0
 40
2.500000000000002
100
AcDbArc
 50
180.0
 51
270.0
  0
LINE
  5
4A8
330
3E8
100
AcDbEntity
  8
$DDT_AUDIT_GENERATED_(17B)
  6
Continuous
 62
     7
100
AcDbLine
 10
88.3376083057
 20
1896.6469378413
 30
0.0
 11
88.3376083057
 21
1874.8669378413
 31
0.0
  0
ARC
  5
4A9
330
3E8
100
AcDbEntity
  8
$DDT_AUDIT_GENERATED_(17B)
  6
Continuous
 62
     7
100
AcDbCircle
 10
90.8376083057
 20
1896.6469378413
 30
0.0
 40
2.500000000000002
100
AcDbArc
 50
90.0
 51
180.0
  0
LINE
  5
4AA
330
3E8
100
AcDbEntity
  8
$DDT_AUDIT_GENERATED_(17B)
  6
Continuous
 62
     7
100
AcDbLine
 10
117.6376083057
 20
1899.1469378413
 30
0.0
 11
113.3876083057
 21
1899.1469378413
 31
0.0
  0
ARC
  5
4AB
330
3E8
100
AcDbEntity
  8
$DDT_AUDIT_GENERATED_(17B)
  6
Continuous
 62
     7
100
AcDbCircle
 10
117.6376083057
 20
1898.6469378413
 30
0.0
 40
0.5000000000000004
100
AcDbArc
 50
0.0
 51
90.0
  0
LINE
  5
4AC
330
3E8
100
AcDbEntity
  8
$DDT_AUDIT_GENERATED_(17B)
  6
Continuous
 62
     7
100
AcDbLine
 10
118.1376083057
 20
1829.0869378413
 30
0.0
 11
118.1376083057
 21
1830.0667855365
 31
0.0
  0
ARC
  5
4AD
330
3E8
100
AcDbEntity
  8
$DDT_AUDIT_GENERATED_(17B)
  6
Continuous
 62
     7
100
AcDbCircle
 10
117.6376083057
 20
1829.0869378413
 30
0.0
 40
0.5000000000000004
100
AcDbArc
 50
270.0
 51
0.0
  0
LINE
  5
4AE
330
3E8
100
AcDbEntity
  8
$DDT_AUDIT_GENERATED_(17B)
  6
Continuous
 62
     7
100
AcDbLine
 10
118.1376083057
 20
1897.6670901462
 30
0.0
 11
118.1376083057
 21
1898.6469378413
 31
0.0
  0
LINE
  5
4AF
330
3E8
100
AcDbEntity
  8
$DDT_AUDIT_GENERATED_(17B)
  6
Continuous
 62
     7
100
AcDbLine
 10
88.3376083057
 20
1866.1370289714
 30
0.0
 11
88.3376083057
 21
1866.1031572328
 31
0.0
  0
LINE
  5
4B0
330
3E8
100
AcDbEntity
  8
$DDT_AUDIT_GENERATED_(17B)
  6
Continuous
 62
     7
100
AcDbLine
 10
88.3376083057
 20
1866.1370289714
 30
0.0
 11
88.3376083057
 21
1867.1332236694
 31
0.0
  0
LINE
  5
4B1
330
3E8
100
AcDbEntity
  8
$DDT_AUDIT_GENERATED_(17B)
  6
Continuous
 62
     7
100
AcDbLine
 10
88.3376083057
 20
1860.6006520132
 30
0.0
 11
88.3376083057
 21
1854.3669378413
 31
0.0
  0
LINE
  5
4B2
330
3E8
100
AcDbEntity
  8
$DDT_AUDIT_GENERATED_(17B)
  6
Continuous
 62
     7
100
AcDbLine
 10
88.3376083057
 20
1860.6006520132
 30
0.0
 11
88.3376083057
 21
1861.5968467113
 31
0.0
  0
LINE
  5
4B3
330
3E8
100
AcDbEntity
  8
$DDT_AUDIT_GENERATED_(17B)
  6
Continuous
 62
     7
100
AcDbLine
 10
88.5376083057
 20
1866.0856595001
 30
0.0
 11
88.7376083057
 21
1866.0856595001
 31
0.0
  0
ELLIPSE
  5
4B4
330
3E8
100
AcDbEntity
  8
$DDT_AUDIT_GENERATED_(17B)
  6
Continuous
 62
     7
100
AcDbEllipse
 10
88.5376083057
 20
1866.1031572328
 30
0.0
 11
-0.2000000000000057
 21
-4.532935709607144E-16
 31
0.0
210
0.0
220
0.0
230
1.0
 40
0.0874886635
 41
0.0
 42
1.570796326794896
  0
LINE
  5
4B5
330
3E8
100
AcDbEntity
  8
$DDT_AUDIT_GENERATED_(17B)
  6
Continuous
 62
     7
100
AcDbLine
 10
88.3376083057
 20
1861.6307184498
 30
0.0
 11
88.3376083057
 21
1861.5968467113
 31
0.0
  0
ELLIPSE
  5
4B6
330
3E8
100
AcDbEntity
  8
$DDT_AUDIT_GENERATED_(17B)
  6
Continuous
 62
     7
100
AcDbEllipse
 10
88.5376083057
 20
1861.6307184498
 30
0.0
 11
0.1999999999999919
 21
4.532935709607130E-16
 31
0.0
210
0.0
220
0.0
230
1.0
 40
0.0874886635
 41
1.570796326794825
 42
3.141592653589793
  0
LINE
  5
4B7
330
3E8
100
AcDbEntity
  8
$DDT_AUDIT_GENERATED_(17B)
  6
Continuous
 62
     7
100
AcDbLine
 10
88.7376083057
 20
1861.6482161825
 30
0.0
 11
88.5376083057
 21
1861.6482161825
 31
0.0
  0
ELLIPSE
  5
4B8
330
3E8
100
AcDbEntity
  8
$DDT_AUDIT_GENERATED_(17B)
  6
Continuous
 62
     7
100
AcDbEllipse
 10
88.7376083057
 20
1861.6657139152
 30
0.0
 11
0.1999999999999988
 21
1.961270196651200E-17
 31
0.0
210
0.0
220
0.0
230
1.0
 40
0.0874886635
 41
4.71238898038469
 42
5.235987755982877
  0
ELLIPSE
  5
4B9
330
3E8
100
AcDbEntity
  8
$DDT_AUDIT_GENERATED_(17B)
  6
Continuous
 62
     7
100
AcDbEllipse
 10
88.7376083057
 20
1866.0681617674
 30
0.0
 11
-0.2000000000000057
 21
-4.532935709607144E-16
 31
0.0
210
0.0
220
0.0
230
1.0
 40
0.0874886635
 41
4.188790204786522
 42
4.71238898038469
  0
LINE
  5
4BA
330
3E8
100
AcDbEntity
  8
$DDT_AUDIT_GENERATED_(17B)
  6
Continuous
 62
     7
100
AcDbLine
 10
118.241098787
 20
1833.3635077549
 30
0.0
 11
118.1376083057
 21
1833.3617013218
 31
0.0
  0
LINE
  5
4BB
330
3E8
100
AcDbEntity
  8
$DDT_AUDIT_GENERATED_(17B)
  6
Continuous
 62
     7
100
AcDbLine
 10
118.1376083057
 20
1835.3721743608
 30
0.0
 11
118.241098787
 21
1835.3703679277
 31
0.0
  0
ARC
  5
4BC
330
3E8
100
AcDbEntity
  8
$DDT_AUDIT_GENERATED_(17B)
  6
Continuous
 62
     7
100
AcDbCircle
 10
118.2376083057
 20
1833.5634772939
 30
0.0
 40
0.1999999999999988
100
AcDbArc
 50
271.0
 51
0.0
  0
ARC
  5
4BD
330
3E8
100
AcDbEntity
  8
$DDT_AUDIT_GENERATED_(17B)
  6
Continuous
 62
     7
100
AcDbCircle
 10
118.2376083057
 20
1835.1703983887
 30
0.0
 40
0.2000000000000009
100
AcDbArc
 50
0.0
 51
89.0
  0
LINE
  5
4BE
330
3E8
100
AcDbEntity
  8
$DDT_AUDIT_GENERATED_(17B)
  6
Continuous
 62
     7
100
AcDbLine
 10
118.4376083057
 20
1835.1703983887
 30
0.0
 11
118.4376083057
 21
1833.5634772939
 31
0.0
  0
LINE
  5
4BF
330
3E8
100
AcDbEntity
  8
$DDT_AUDIT_GENERATED_(17B)
  6
Continuous
 62
     7
100
AcDbLine
 10
118.1376083057
 20
1894.3721743608
 30
0.0
 11
118.241098787
 21
1894.3703679277
 31
0.0
  0
ARC
  5
4C0
330
3E8
100
AcDbEntity
  8
$DDT_AUDIT_GENERATED_(17B)
  6
Continuous
 62
     7
100
AcDbCircle
 10
118.2376083057
 20
1894.1703983887
 30
0.0
 40
0.2000000000000009
100
AcDbArc
 50
0.0
 51
89.0
  0
LINE
  5
4C1
330
3E8
100
AcDbEntity
  8
$DDT_AUDIT_GENERATED_(17B)
  6
Continuous
 62
     7
100
AcDbLine
 10
118.4376083057
 20
1894.1703983887
 30
0.0
 11
118.4376083057
 21
1892.5634772939
 31
0.0
  0
ARC
  5
4C2
330
3E8
100
AcDbEntity
  8
$DDT_AUDIT_GENERATED_(17B)
  6
Continuous
 62
     7
100
AcDbCircle
 10
118.2376083057
 20
1892.5634772939
 30
0.0
 40
0.1999999999999988
100
AcDbArc
 50
271.0
 51
0.0
  0
LINE
  5
4C3
330
3E8
100
AcDbEntity
  8
$DDT_AUDIT_GENERATED_(17B)
  6
Continuous
 62
     7
100
AcDbLine
 10
118.241098787
 20
1892.3635077549
 30
0.0
 11
118.1376083057
 21
1892.3617013218
 31
0.0
  0
LINE
  5
4C4
330
3E8
100
AcDbEntity
  8
$DDT_AUDIT_GENERATED_(17B)
  6
Continuous
 62
     7
100
AcDbLine
 10
118.241098787
 20
1875.8635077549
 30
0.0
 11
118.1376083057
 21
1875.8617013218
 31
0.0
  0
ARC
  5
4C5
330
3E8
100
AcDbEntity
  8
$DDT_AUDIT_GENERATED_(17B)
  6
Continuous
 62
     7
100
AcDbCircle
 10
118.2376083057
 20
1876.0634772939
 30
0.0
 40
0.1999999999999988
100
AcDbArc
 50
271.0
 51
0.0
  0
LINE
  5
4C6
330
3E8
100
AcDbEntity
  8
$DDT_AUDIT_GENERATED_(17B)
  6
Continuous
 62
     7
100
AcDbLine
 10
118.4376083057
 20
1877.6703983887
 30
0.0
 11
118.4376083057
 21
1876.0634772939
 31
0.0
  0
ARC
  5
4C7
330
3E8
100
AcDbEntity
  8
$DDT_AUDIT_GENERATED_(17B)
  6
Continuous
 62
     7
100
AcDbCircle
 10
118.2376083057
 20
1877.6703983887
 30
0.0
 40
0.1999999999999992
100
AcDbArc
 50
0.0
 51
89.0
  0
LINE
  5
4C8
330
3E8
100
AcDbEntity
  8
$DDT_AUDIT_GENERATED_(17B)
  6
Continuous
 62
     7
100
AcDbLine
 10
118.1376083057
 20
1877.8721743608
 30
0.0
 11
118.241098787
 21
1877.8703679277
 31
0.0
  0
LINE
  5
4C9
330
3E8
100
AcDbEntity
  8
$DDT_AUDIT_GENERATED_(17B)
  6
Continuous
 62
     7
100
AcDbLine
 10
118.241098787
 20
1849.8635077549
 30
0.0
 11
118.1376083057
 21
1849.8617013218
 31
0.0
  0
ARC
  5
4CA
330
3E8
100
AcDbEntity
  8
$DDT_AUDIT_GENERATED_(17B)
  6
Continuous
 62
     7
100
AcDbCircle
 10
118.2376083057
 20
1850.0634772939
 30
0.0
 40
0.1999999999999988
100
AcDbArc
 50
271.0
 51
0.0
  0
LINE
  5
4CB
330
3E8
100
AcDbEntity
  8
$DDT_AUDIT_GENERATED_(17B)
  6
Continuous
 62
     7
100
AcDbLine
 10
118.4376083057
 20
1851.6703983887
 30
0.0
 11
118.4376083057
 21
1850.0634772939
 31
0.0
  0
ARC
  5
4CC
330
3E8
100
AcDbEntity
  8
$DDT_AUDIT_GENERATED_(17B)
  6
Continuous
 62
     7
100
AcDbCircle
 10
118.2376083057
 20
1851.6703983887
 30
0.0
 40
0.1999999999999992
100
AcDbArc
 50
0.0
 51
89.0
  0
LINE
  5
4CD
330
3E8
100
AcDbEntity
  8
$DDT_AUDIT_GENERATED_(17B)
  6
Continuous
 62
     7
100
AcDbLine
 10
118.1376083057
 20
1851.8721743608
 30
0.0
 11
118.241098787
 21
1851.8703679277
 31
0.0
  0
LINE
  5
4CE
330
3E8
100
AcDbEntity
  8
$DDT_AUDIT_GENERATED_(17B)
  6
Continuous
 62
     7
100
AcDbLine
 10
112.2876083057
 20
1899.1469378413
 30
0.0
 11
97.6876083057
 21
1899.1469378413
 31
0.0
  0
LINE
  5
4CF
330
3E8
100
AcDbEntity
  8
$DDT_AUDIT_GENERATED_(17B)
  6
Continuous
 62
     7
100
AcDbLine
 10
96.5876083057
 20
1899.1469378413
 30
0.0
 11
90.8376083057
 21
1899.1469378413
 31
0.0
  0
LINE
  5
4D0
330
3E8
100
AcDbEntity
  8
$DDT_AUDIT_GENERATED_(17B)
  6
Continuous
 62
     7
100
AcDbLine
 10
97.5356214642
 20
1899.2169378413
 30
0.0
 11
96.7395951473
 21
1899.2169378413
 31
0.0
  0
ARC
  5
4D1
330
3E8
100
AcDbEntity
  8
$DDT_AUDIT_GENERATED_(17B)
  6
Continuous
 62
     7
100
AcDbCircle
 10
96.7395951473
 20
1899.0169378413
 30
0.0
 40
0.1999999999999988
100
AcDbArc
 50
90.0
 51
139.4583981265
  0
ARC
  5
4D2
330
3E8
100
AcDbEntity
  8
$DDT_AUDIT_GENERATED_(17B)
  6
Continuous
 62
     7
100
AcDbCircle
 10
97.5356214642
 20
1899.0169378413
 30
0.0
 40
0.2000000000000006
100
AcDbArc
 50
40.5416018735
 51
90.0
  0
LINE
  5
4D3
330
3E8
100
AcDbEntity
  8
$DDT_AUDIT_GENERATED_(17B)
  6
Continuous
 62
     7
100
AcDbLine
 10
113.2356214642
 20
1899.2169378413
 30
0.0
 11
112.4395951473
 21
1899.2169378413
 31
0.0
  0
ARC
  5
4D4
330
3E8
100
AcDbEntity
  8
$DDT_AUDIT_GENERATED_(17B)
  6
Continuous
 62
     7
100
AcDbCircle
 10
112.4395951473
 20
1899.0169378413
 30
0.0
 40
0.1999999999999988
100
AcDbArc
 50
90.0
 51
139.4583981265
  0
ARC
  5
4D5
330
3E8
100
AcDbEntity
  8
$DDT_AUDIT_GENERATED_(17B)
  6
Continuous
 62
     7
100
AcDbCircle
 10
113.2356214642
 20
1899.0169378413
 30
0.0
 40
0.2000000000000006
100
AcDbArc
 50
40.5416018735
 51
90.0
  0
LINE
  5
4D6
330
3E8
100
AcDbEntity
  8
$DDT_AUDIT_GENERATED_(17B)
  6
Continuous
 62
     7
100
AcDbLine
 10
113.3876083057
 20
1828.5869378413
 30
0.0
 11
117.6376083057
 21
1828.5869378413
 31
0.0
  0
LINE
  5
4D7
330
3E8
100
AcDbEntity
  8
$DDT_AUDIT_GENERATED_(17B)
  6
Continuous
 62
     7
100
AcDbLine
 10
97.6876083057
 20
1828.5869378413
 30
0.0
 11
112.2876083057
 21
1828.5869378413
 31
0.0
  0
LINE
  5
4D8
330
3E8
100
AcDbEntity
  8
$DDT_AUDIT_GENERATED_(17B)
  6
Continuous
 62
     7
100
AcDbLine
 10
96.7395951473
 20
1828.5169378413
 30
0.0
 11
97.5356214642
 21
1828.5169378413
 31
0.0
  0
ARC
  5
4D9
330
3E8
100
AcDbEntity
  8
$DDT_AUDIT_GENERATED_(17B)
  6
Continuous
 62
     7
100
AcDbCircle
 10
97.5356214642
 20
1828.7169378413
 30
0.0
 40
0.2000000000000057
100
AcDbArc
 50
270.0
 51
319.4583981265
  0
ARC
  5
4DA
330
3E8
100
AcDbEntity
  8
$DDT_AUDIT_GENERATED_(17B)
  6
Continuous
 62
     7
100
AcDbCircle
 10
96.7395951473
 20
1828.7169378413
 30
0.0
 40
0.2000000000000014
100
AcDbArc
 50
220.5416018735
 51
270.0
  0
LINE
  5
4DB
330
3E8
100
AcDbEntity
  8
$DDT_AUDIT_GENERATED_(17B)
  6
Continuous
 62
     7
100
AcDbLine
 10
112.4395951473
 20
1828.5169378413
 30
0.0
 11
113.2356214642
 21
1828.5169378413
 31
0.0
  0
ARC
  5
4DC
330
3E8
100
AcDbEntity
  8
$DDT_AUDIT_GENERATED_(17B)
  6
Continuous
 62
     7
100
AcDbCircle
 10
113.2356214642
 20
1828.7169378413
 30
0.0
 40
0.1999999999999988
100
AcDbArc
 50
270.0
 51
319.4583981265
  0
ARC
  5
4DD
330
3E8
100
AcDbEntity
  8
$DDT_AUDIT_GENERATED_(17B)
  6
Continuous
 62
     7
100
AcDbCircle
 10
112.4395951473
 20
1828.7169378413
 30
0.0
 40
0.2000000000000006
100
AcDbArc
 50
220.5416018735
 51
270.0
  0
LINE
  5
4DE
330
3E8
100
AcDbEntity
  8
$DDT_AUDIT_GENERATED_(17B)
  6
Continuous
 62
     7
100
AcDbLine
 10
88.3376083057
 20
1852.8669378413
 30
0.0
 11
88.3376083057
 21
1831.0869378413
 31
0.0
  0
LINE
  5
4DF
330
3E8
100
AcDbEntity
  8
$DDT_AUDIT_GENERATED_(17B)
  6
Continuous
 62
     7
100
AcDbLine
 10
88.2676083057
 20
1854.2149509998
 30
0.0
 11
88.2676083057
 21
1853.0189246829
 31
0.0
  0
ARC
  5
4E0
330
3E8
100
AcDbEntity
  8
$DDT_AUDIT_GENERATED_(17B)
  6
Continuous
 62
     7
100
AcDbCircle
 10
88.4676083057
 20
1853.0189246829
 30
0.0
 40
0.2000000000000057
100
AcDbArc
 50
180.0
 51
229.4583981265
  0
ARC
  5
4E1
330
3E8
100
AcDbEntity
  8
$DDT_AUDIT_GENERATED_(17B)
  6
Continuous
 62
     7
100
AcDbCircle
 10
88.4676083057
 20
1854.2149509998
 30
0.0
 40
0.2000000000000019
100
AcDbArc
 50
130.5416018736
 51
180.0
  0
LINE
  5
4E2
330
3E8
100
AcDbEntity
  8
$DDT_AUDIT_GENERATED_(17B)
  6
Continuous
 62
     7
100
AcDbLine
 10
88.3376083057
 20
1873.3669378413
 30
0.0
 11
88.3376083057
 21
1867.1332236694
 31
0.0
  0
LINE
  5
4E3
330
3E8
100
AcDbEntity
  8
$DDT_AUDIT_GENERATED_(17B)
  6
Continuous
 62
     7
100
AcDbLine
 10
88.2676083057
 20
1874.7149509998
 30
0.0
 11
88.2676083057
 21
1873.5189246829
 31
0.0
  0
ARC
  5
4E4
330
3E8
100
AcDbEntity
  8
$DDT_AUDIT_GENERATED_(17B)
  6
Continuous
 62
     7
100
AcDbCircle
 10
88.4676083057
 20
1874.7149509998
 30
0.0
 40
0.2000000000000006
100
AcDbArc
 50
130.5416018736
 51
180.0
  0
ARC
  5
4E5
330
3E8
100
AcDbEntity
  8
$DDT_AUDIT_GENERATED_(17B)
  6
Continuous
 62
     7
100
AcDbCircle
 10
88.4676083057
 20
1873.5189246829
 30
0.0
 40
0.2000000000000057
100
AcDbArc
 50
180.0
 51
229.4583981264
  0
ARC
  5
4E6
330
3E8
100
AcDbEntity
  8
$DDT_AUDIT_GENERATED_(1BC)
  6
Continuous
 62
     7
100
AcDbCircle
 10
119.7942302792
 20
1856.3067239112
 30
0.0
 40
2.000000000000001
100
AcDbArc
 50
237.638246322
 51
239.7807040472
  0
ARC
  5
4E7
330
3E8
100
AcDbEntity
  8
$DDT_AUDIT_GENERATED_(1BC)
  6
Continuous
 62
     7
100
AcDbCircle
 10
119.7942302792
 20
1871.4271517714
 30
0.0
 40
1.999999999999998
100
AcDbArc
 50
120.2192959524
 51
122.3617536777
  0
ARC
  5
4E8
330
3E8
100
AcDbEntity
  8
$DDT_AUDIT_GENERATED_(1BC)
  6
Continuous
 62
     7
100
AcDbCircle
 10
108.5876083057
 20
1863.8669378413
 30
0.0
 40
13.75000000000002
100
AcDbArc
 50
313.9910068718
 51
317.6397375278
  0
ARC
  5
4E9
330
3E8
100
AcDbEntity
  8
$DDT_AUDIT_GENERATED_(1BC)
  6
Continuous
 62
     7
100
AcDbCircle
 10
108.5876083057
 20
1863.8669378413
 30
0.0
 40
13.72207189611486
100
AcDbArc
 50
314.1036897453
 51
317.618323372
  0
ARC
  5
4EA
330
3E8
100
AcDbEntity
  8
$DDT_AUDIT_GENERATED_(1BC)
  6
Continuous
 62
     7
100
AcDbCircle
 10
108.5876083057
 20
1863.8669378413
 30
0.0
 40
13.75
100
AcDbArc
 50
42.3602624722
 51
46.0089931282
  0
ARC
  5
4EB
330
3E8
100
AcDbEntity
  8
$DDT_AUDIT_GENERATED_(1BC)
  6
Continuous
 62
     7
100
AcDbCircle
 10
108.5876083057
 20
1863.8669378413
 30
0.0
 40
13.72207189611485
100
AcDbArc
 50
42.381676628
 51
45.8963102547
  0
ARC
  5
4EC
330
3E8
100
AcDbEntity
  8
$DDT_AUDIT_GENERATED_(1BC)
  6
Continuous
 62
     7
100
AcDbCircle
 10
108.5876083057
 20
1863.8669378413
 30
0.0
 40
12.79999999999998
100
AcDbArc
 50
37.1672854613
 51
41.7468700231
  0
ARC
  5
4ED
330
3E8
100
AcDbEntity
  8
$DDT_AUDIT_GENERATED_(1BC)
  6
Continuous
 62
     7
100
AcDbCircle
 10
108.5876083057
 20
1863.8669378413
 30
0.0
 40
12.79999999999998
100
AcDbArc
 50
318.2531299769
 51
322.8327145387
  0
LINE
  5
4EE
330
3E8
100
AcDbEntity
  8
490147031_RAHMEN
  6
Continuous
 62
     7
100
AcDbLine
 10
46.0866944767
 20
1941.8669378413
 30
0.0
 11
231.0885221348
 21
1941.8669378413
 31
0.0
  0
ELLIPSE
  5
4EF
330
3E8
100
AcDbEntity
  8
490147031_RAHMEN
  6
Continuous
 62
     7
100
AcDbEllipse
 10
46.088522274
 20
1935.8660238731
 30
0.0
 11
4.243933135017486
 21
-4.243933135017486
 31
0.0
210
0.0
220
0.0
230
0.9999999999999998
 40
0.9996954599
 41
2.356346783439964
 42
3.926838523739647
  0
LINE
  5
4F0
330
3E8
100
AcDbEntity
  8
490147031_RAHMEN
  6
Continuous
 62
     7
100
AcDbLine
 10
237.0876083057
 20
1935.8678516704
 30
0.0
 11
237.0876083057
 21
1791.8660240123
 31
0.0
  0
ELLIPSE
  5
4F1
330
3E8
100
AcDbEntity
  8
490147031_RAHMEN
  6
Continuous
 62
     7
100
AcDbEllipse
 10
231.0866943375
 20
1935.8660238731
 30
0.0
 11
-4.243933135017485
 21
-4.243933135017486
 31
0.0
210
0.0
220
0.0
230
0.9999999999999999
 40
0.9996954599
 41
2.356346783439974
 42
3.926838523739621
  0
LINE
  5
4F2
330
3E8
100
AcDbEntity
  8
490147031_RAHMEN
  6
Continuous
 62
     7
100
AcDbLine
 10
231.0885221348
 20
1785.8669378413
 30
0.0
 11
46.0866944767
 21
1785.8669378413
 31
0.0
  0
ELLIPSE
  5
4F3
330
3E8
100
AcDbEntity
  8
490147031_RAHMEN
  6
Continuous
 62
     7
100
AcDbEllipse
 10
231.0866943375
 20
1791.8678518096
 30
0.0
 11
-4.243933135017486
 21
4.243933135017485
 31
0.0
210
0.0
220
0.0
230
0.9999999999999999
 40
0.9996954599
 41
2.356346783439965
 42
3.926838523739645
  0
LINE
  5
4F4
330
3E8
100
AcDbEntity
  8
490147031_RAHMEN
  6
Continuous
 62
     7
100
AcDbLine
 10
40.0876083057
 20
1791.8660240123
 30
0.0
 11
40.0876083057
 21
1935.8678516704
 31
0.0
  0
ELLIPSE
  5
4F5
330
3E8
100
AcDbEntity
  8
490147031_RAHMEN
  6
Continuous
 62
     7
100
AcDbEllipse
 10
46.088522274
 20
1791.8678518096
 30
0.0
 11
4.243933135017486
 21
4.243933135017486
 31
0.0
210
0.0
220
0.0
230
0.9999999999999998
 40
0.9996954599
 41
2.356346783439939
 42
3.926838523739622
  0
LINE
  5
4F6
330
3E8
100
AcDbEntity
  8
490147031_RAHMEN
  6
Continuous
 62
     7
100
AcDbLine
 10
127.5964368391
 20
1828.3669378166
 30
0.0
 11
141.5787797724
 21
1828.3669378166
 31
0.0
  0
LINE
  5
4F7
330
3E8
100
AcDbEntity
  8
490147031_RAHMEN
  6
Continuous
 62
     7
100
AcDbLine
 10
141.5787797724
 20
1828.3669378166
 30
0.0
 11
141.5854309678
 21
1828.3668593021
 31
0.0
  0
LINE
  5
4F8
330
3E8
100
AcDbEntity
  8
490147031_RAHMEN
  6
Continuous
 62
     7
100
AcDbLine
 10
127.5897856436
 20
1828.3668593021
 30
0.0
 11
127.5964368391
 21
1828.3669378166
 31
0.0
  0
ELLIPSE
  5
4F9
330
3E8
100
AcDbEntity
  8
490147031_RAHMEN
  6
Continuous
 62
     7
100
AcDbEllipse
 10
142.0704526931
 20
1828.3712860194
 30
0.0
 11
-0.7000000000000057
 21
-6.864445688279299E-17
 31
0.0
210
0.0
220
0.0
230
1.0
 40
0.0087268678
 41
0.7920468062636097
 42
1.570796326794897
  0
LINE
  5
4FA
330
3E8
100
AcDbEntity
  8
490147031_RAHMEN
  6
Continuous
 62
     7
100
AcDbLine
 10
187.7796374557
 20
1828.365177212
 30
0.0
 11
142.0704526931
 21
1828.365177212
 31
0.0
  0
LINE
  5
4FB
330
3E8
100
AcDbEntity
  8
490147031_RAHMEN
  6
Continuous
 62
     7
100
AcDbLine
 10
127.1047639183
 20
1828.365177212
 30
0.0
 11
89.3955791557
 21
1828.365177212
 31
0.0
  0
ELLIPSE
  5
4FC
330
3E8
100
AcDbEntity
  8
490147031_RAHMEN
  6
Continuous
 62
     7
100
AcDbEllipse
 10
127.1047639183
 20
1828.3712860194
 30
0.0
 11
0.6999999999999941
 21
1.394643226469725E-14
 31
0.0
210
0.0
220
0.0
230
1.0
 40
0.0087268678
 41
4.71238898038469
 42
5.491138500915736
  0
ARC
  5
4FD
330
3E8
100
AcDbEntity
  8
490147031_RAHMEN
  6
Continuous
 62
     7
100
AcDbCircle
 10
89.3955791557
 20
1829.6705832913
 30
0.0
 40
1.305406079330391
100
AcDbArc
 50
180.0
 51
270.0
  0
LINE
  5
4FE
330
3E8
100
AcDbEntity
  8
490147031_RAHMEN
  6
Continuous
 62
     7
100
AcDbLine
 10
88.1113142091
 20
1895.5398351055
 30
0.0
 11
88.1113142091
 21
1882.1940405772
 31
0.0
  0
LINE
  5
4FF
330
3E8
100
AcDbEntity
  8
490147031_RAHMEN
  6
Continuous
 62
     7
100
AcDbLine
 10
88.1113142091
 20
1832.1940405772
 30
0.0
 11
88.1113142091
 21
1845.5398351055
 31
0.0
  0
LINE
  5
500
330
3E8
100
AcDbEntity
  8
490147031_RAHMEN
  6
Continuous
 62
     7
100
AcDbLine
 10
88.0901730764
 20
1896.3414201247
 30
0.0
 11
88.0901730764
 21
1898.0632923913
 31
0.0
  0
ELLIPSE
  5
501
330
3E8
100
AcDbEntity
  8
490147031_RAHMEN
  6
Continuous
 62
     7
100
AcDbEllipse
 10
88.0962818838
 20
1896.3414201247
 30
0.0
 11
6.864445688279235E-17
 21
-0.6999999999999993
 31
0.0
210
0.0
220
0.0
230
1.0
 40
0.0087268678
 41
4.71238898038469
 42
6.23082542962018
  0
ELLIPSE
  5
502
330
3E8
100
AcDbEntity
  8
490147031_RAHMEN
  6
Continuous
 62
     7
100
AcDbEllipse
 10
88.0962818838
 20
1881.392455558
 30
0.0
 11
7.007538360790020E-15
 21
-0.6999999999999993
 31
0.0
210
0.0
220
0.0
230
1.0
 40
0.0087268678
 41
3.193952531142994
 42
4.71238898038469
  0
LINE
  5
503
330
3E8
100
AcDbEntity
  8
490147031_RAHMEN
  6
Continuous
 62
     7
100
AcDbLine
 10
88.0901730764
 20
1846.3414201247
 30
0.0
 11
88.0901730764
 21
1881.392455558
 31
0.0
  0
ELLIPSE
  5
504
330
3E8
100
AcDbEntity
  8
490147031_RAHMEN
  6
Continuous
 62
     7
100
AcDbEllipse
 10
88.0962818838
 20
1846.3414201247
 30
0.0
 11
6.864445688279235E-17
 21
-0.6999999999999993
 31
0.0
210
0.0
220
0.0
230
1.0
 40
0.0087268678
 41
4.71238898038469
 42
6.23082542962018
  0
ELLIPSE
  5
505
330
3E8
100
AcDbEntity
  8
490147031_RAHMEN
  6
Continuous
 62
     7
100
AcDbEllipse
 10
88.0962818838
 20
1831.392455558
 30
0.0
 11
0.0
 21
0.6990407474388818
 31
0.0
210
0.0
220
0.0
230
1.0
 40
1.0
 41
0.0004573557291201
 42
1.570796326794897
  0
LINE
  5
506
330
3E8
100
AcDbEntity
  8
490147031_RAHMEN
  6
Continuous
 62
     7
100
AcDbLine
 10
88.0901730764
 20
1829.6705832913
 30
0.0
 11
88.0901730764
 21
1831.392455558
 31
0.0
  0
ARC
  5
507
330
3E8
100
AcDbEntity
  8
490147031_RAHMEN
  6
Continuous
 62
     7
100
AcDbCircle
 10
187.7796374557
 20
1829.6705832913
 30
0.0
 40
1.305406079330391
100
AcDbArc
 50
270.0
 51
0.0
  0
LINE
  5
508
330
3E8
100
AcDbEntity
  8
490147031_RAHMEN
  6
Continuous
 62
     7
100
AcDbLine
 10
189.0639024023
 20
1832.1940405772
 30
0.0
 11
189.0639024023
 21
1845.5398351055
 31
0.0
  0
LINE
  5
509
330
3E8
100
AcDbEntity
  8
490147031_RAHMEN
  6
Continuous
 62
     7
100
AcDbLine
 10
189.0639024023
 20
1895.5398351055
 30
0.0
 11
189.0639024023
 21
1882.1940405772
 31
0.0
  0
LINE
  5
50A
330
3E8
100
AcDbEntity
  8
490147031_RAHMEN
  6
Continuous
 62
     7
100
AcDbLine
 10
189.0850435351
 20
1898.0632923913
 30
0.0
 11
189.0850435351
 21
1896.3414201247
 31
0.0
  0
ELLIPSE
  5
50B
330
3E8
100
AcDbEntity
  8
490147031_RAHMEN
  6
Continuous
 62
     7
100
AcDbEllipse
 10
189.0789347276
 20
1896.3414201247
 30
0.0
 11
6.864445688279235E-17
 21
-0.6999999999999993
 31
0.0
210
0.0
220
0.0
230
1.0
 40
0.0087268678
 41
0.0523598775594064
 42
1.570796326794897
  0
ELLIPSE
  5
50C
330
3E8
100
AcDbEntity
  8
490147031_RAHMEN
  6
Continuous
 62
     7
100
AcDbEllipse
 10
189.0789347276
 20
1881.392455558
 30
0.0
 11
0.0
 21
0.006108807453529153
 31
0.0
210
0.0
220
0.0
230
1.0
 40
1.0
 41
-1.570796326794897
 42
-0.000457355729059
  0
LINE
  5
50D
330
3E8
100
AcDbEntity
  8
490147031_RAHMEN
  6
Continuous
 62
     7
100
AcDbLine
 10
189.0850435351
 20
1881.392455558
 30
0.0
 11
189.0850435351
 21
1846.3414201247
 31
0.0
  0
ELLIPSE
  5
50E
330
3E8
100
AcDbEntity
  8
490147031_RAHMEN
  6
Continuous
 62
     7
100
AcDbEllipse
 10
189.0789347276
 20
1846.3414201247
 30
0.0
 11
0.0
 21
0.6990407474388818
 31
0.0
210
0.0
220
0.0
230
1.0
 40
1.0
 41
3.142050009318893
 42
4.71238898038469
  0
ELLIPSE
  5
50F
330
3E8
100
AcDbEntity
  8
490147031_RAHMEN
  6
Continuous
 62
     7
100
AcDbEllipse
 10
189.0789347276
 20
1831.392455558
 30
0.0
 11
0.0
 21
0.006108807453529153
 31
0.0
210
0.0
220
0.0
230
1.0
 40
1.0
 41
-1.570796326794897
 42
-0.0004573557290999
  0
LINE
  5
510
330
3E8
100
AcDbEntity
  8
490147031_RAHMEN
  6
Continuous
 62
     7
100
AcDbLine
 10
189.0850435351
 20
1831.392455558
 30
0.0
 11
189.0850435351
 21
1829.6705832913
 31
0.0
  0
ARC
  5
511
330
3E8
100
AcDbEntity
  8
490147031_RAHMEN
  6
Continuous
 62
     7
100
AcDbCircle
 10
89.3955791557
 20
1898.0632923913
 30
0.0
 40
1.305406079330391
100
AcDbArc
 50
90.0
 51
180.0
  0
LINE
  5
512
330
3E8
100
AcDbEntity
  8
490147031_RAHMEN
  6
Continuous
 62
     7
100
AcDbLine
 10
127.5964368391
 20
1899.366937866
 30
0.0
 11
141.5787797724
 21
1899.366937866
 31
0.0
  0
LINE
  5
513
330
3E8
100
AcDbEntity
  8
490147031_RAHMEN
  6
Continuous
 62
     7
100
AcDbLine
 10
142.0704526931
 20
1899.3686984707
 30
0.0
 11
187.7796374557
 21
1899.3686984707
 31
0.0
  0
ELLIPSE
  5
514
330
3E8
100
AcDbEntity
  8
490147031_RAHMEN
  6
Continuous
 62
     7
100
AcDbEllipse
 10
142.0704526931
 20
1899.3625896632
 30
0.0
 11
-0.6999999999999932
 21
-6.864445688279174E-17
 31
0.0
210
0.0
220
0.0
230
1.0
 40
0.0087268678
 41
4.71238898038469
 42
5.491138500918618
  0
ELLIPSE
  5
515
330
3E8
100
AcDbEntity
  8
490147031_RAHMEN
  6
Continuous
 62
     7
100
AcDbEllipse
 10
127.1047639183
 20
1899.3625896632
 30
0.0
 11
0.6999999999999993
 21
6.864445688279235E-17
 31
0.0
210
0.0
220
0.0
230
1.0
 40
0.0087268678
 41
0.792046806261005
 42
1.570796326794856
  0
LINE
  5
516
330
3E8
100
AcDbEntity
  8
490147031_RAHMEN
  6
Continuous
 62
     7
100
AcDbLine
 10
89.3955791557
 20
1899.3686984707
 30
0.0
 11
127.1047639183
 21
1899.3686984707
 31
0.0
  0
LINE
  5
517
330
3E8
100
AcDbEntity
  8
490147031_RAHMEN
  6
Continuous
 62
     7
100
AcDbLine
 10
141.5854309678
 20
1899.3670163805
 30
0.0
 11
141.5787797724
 21
1899.366937866
 31
0.0
  0
LINE
  5
518
330
3E8
100
AcDbEntity
  8
490147031_RAHMEN
  6
Continuous
 62
     7
100
AcDbLine
 10
127.5964368391
 20
1899.366937866
 30
0.0
 11
127.5897856436
 21
1899.3670163805
 31
0.0
  0
ARC
  5
519
330
3E8
100
AcDbEntity
  8
490147031_RAHMEN
  6
Continuous
 62
     7
100
AcDbCircle
 10
187.7796374557
 20
1898.0632923913
 30
0.0
 40
1.305406079330385
100
AcDbArc
 50
0.0
 51
90.0
  0
LINE
  5
51A
330
3E8
100
AcDbEntity
  8
490147031_RAHMEN
  6
Continuous
 62
     7
100
AcDbLine
 10
88.1113165486
 20
1832.1837044242
 30
0.0
 11
88.1113142091
 21
1832.1940405772
 31
0.0
  0
LINE
  5
51B
330
3E8
100
AcDbEntity
  8
490147031_RAHMEN
  6
Continuous
 62
     7
100
AcDbLine
 10
189.0639024023
 20
1832.1940405772
 30
0.0
 11
189.0639000628
 21
1832.1837044242
 31
0.0
  0
LINE
  5
51C
330
3E8
100
AcDbEntity
  8
490147031_RAHMEN
  6
Continuous
 62
     7
100
AcDbLine
 10
88.1113142091
 20
1845.5398351055
 30
0.0
 11
88.1113165486
 21
1845.5501712585
 31
0.0
  0
LINE
  5
51D
330
3E8
100
AcDbEntity
  8
490147031_RAHMEN
  6
Continuous
 62
     7
100
AcDbLine
 10
189.0639000628
 20
1845.5501712585
 30
0.0
 11
189.0639024023
 21
1845.5398351055
 31
0.0
  0
LINE
  5
51E
330
3E8
100
AcDbEntity
  8
490147031_RAHMEN
  6
Continuous
 62
     7
100
AcDbLine
 10
88.1113165486
 20
1882.1837044242
 30
0.0
 11
88.1113142091
 21
1882.1940405772
 31
0.0
  0
LINE
  5
51F
330
3E8
100
AcDbEntity
  8
490147031_RAHMEN
  6
Continuous
 62
     7
100
AcDbLine
 10
189.0639024023
 20
1882.1940405772
 30
0.0
 11
189.0639000628
 21
1882.1837044242
 31
0.0
  0
LINE
  5
520
330
3E8
100
AcDbEntity
  8
490147031_RAHMEN
  6
Continuous
 62
     7
100
AcDbLine
 10
88.1113142091
 20
1895.5398351055
 30
0.0
 11
88.1113165486
 21
1895.5501712585
 31
0.0
  0
LINE
  5
521
330
3E8
100
AcDbEntity
  8
490147031_RAHMEN
  6
Continuous
 62
     7
100
AcDbLine
 10
189.0639000628
 20
1895.5501712585
 30
0.0
 11
189.0639024023
 21
1895.5398351055
 31
0.0
  0
ELLIPSE
  5
522
330
3E8
100
AcDbEntity
  8
490147031_RAHMEN
  6
Continuous
 62
     7
100
AcDbEllipse
 10
189.2792468225
 20
1895.6423794504
 30
0.0
 11
0.1972835210251322
 21
-0.0328513672763833
 31
0.0
210
0.0
220
0.0
230
1.0
 40
0.9985916141
 41
3.194835332842671
 42
3.306825729050741
  0
ELLIPSE
  5
523
330
3E8
100
AcDbEntity
  8
490147031_RAHMEN
  6
Continuous
 62
     7
100
AcDbEllipse
 10
87.895969789
 20
1895.6423794504
 30
0.0
 11
-0.1972835210255139
 21
-0.03285136727406576
 31
0.0
210
0.0
220
0.0
230
1.0
 40
0.9985916141
 41
2.976359578140982
 42
3.088349974295181
  0
ELLIPSE
  5
524
330
3E8
100
AcDbEntity
  8
490147031_RAHMEN
  6
Continuous
 62
     7
100
AcDbEllipse
 10
189.2792468225
 20
1882.0914962323
 30
0.0
 11
0.1972835210252294
 21
0.03285136727576579
 31
0.0
210
0.0
220
0.0
230
0.9999999999999997
 40
0.9985916141
 41
2.976359578132417
 42
3.088349968247875
  0
ELLIPSE
  5
525
330
3E8
100
AcDbEntity
  8
490147031_RAHMEN
  6
Continuous
 62
     7
100
AcDbEllipse
 10
189.2792468225
 20
1845.6423794504
 30
0.0
 11
0.1972835210252294
 21
-0.03285136727576574
 31
0.0
210
0.0
220
0.0
230
1.0
 40
0.9985916141
 41
3.194835338912431
 42
3.306825729047167
  0
ELLIPSE
  5
526
330
3E8
100
AcDbEntity
  8
490147031_RAHMEN
  6
Continuous
 62
     7
100
AcDbEllipse
 10
87.895969789
 20
1882.0914962323
 30
0.0
 11
-0.1972835210255555
 21
0.03285136727377428
 31
0.0
210
0.0
220
0.0
230
1.0
 40
0.9985916141
 41
3.194835347238358
 42
3.306825729037357
  0
ELLIPSE
  5
527
330
3E8
100
AcDbEntity
  8
490147031_RAHMEN
  6
Continuous
 62
     7
100
AcDbEllipse
 10
87.895969789
 20
1845.6423794504
 30
0.0
 11
-0.1972835210255555
 21
-0.03285136727377433
 31
0.0
210
0.0
220
0.0
230
0.9999999999999997
 40
0.9985916141
 41
2.976359578142229
 42
3.088349959926787
  0
ELLIPSE
  5
528
330
3E8
100
AcDbEntity
  8
490147031_RAHMEN
  6
Continuous
 62
     7
100
AcDbEllipse
 10
189.2792468225
 20
1832.0914962323
 30
0.0
 11
0.1972835210251322
 21
0.03285136727640416
 31
0.0
210
0.0
220
0.0
230
1.0
 40
0.9985916141
 41
2.976359578128923
 42
3.088349974336481
  0
ELLIPSE
  5
529
330
3E8
100
AcDbEntity
  8
490147031_RAHMEN
  6
Continuous
 62
     7
100
AcDbEllipse
 10
87.895969789
 20
1832.0914962323
 30
0.0
 11
-0.1972835210254167
 21
0.03285136727461389
 31
0.0
210
0.0
220
0.0
230
1.0
 40
0.9985916141
 41
3.194835332901536
 42
3.306825729041636
  0
LINE
  5
52A
330
3E8
100
AcDbEntity
  8
490147031_RAHMEN
  6
Continuous
 62
     7
100
AcDbLine
 10
189.0805659995
 20
1895.6668395488
 30
0.0
 11
189.0665833846
 21
1895.5828692386
 31
0.0
  0
LINE
  5
52B
330
3E8
100
AcDbEntity
  8
490147031_RAHMEN
  6
Continuous
 62
     7
100
AcDbLine
 10
189.0820557472
 20
1895.7396740498
 30
0.0
 11
188.9876083057
 21
1895.7401070995
 31
0.0
  0
LINE
  5
52C
330
3E8
100
AcDbEntity
  8
490147031_RAHMEN
  6
Continuous
 62
     7
100
AcDbLine
 10
88.1086332269
 20
1895.5828692386
 30
0.0
 11
88.094650612
 21
1895.6668395488
 31
0.0
  0
LINE
  5
52D
330
3E8
100
AcDbEntity
  8
490147031_RAHMEN
  6
Continuous
 62
     7
100
AcDbLine
 10
88.1876083057
 20
1895.7401070995
 30
0.0
 11
88.0931608643
 21
1895.7396740498
 31
0.0
  0
LINE
  5
52E
330
3E8
100
AcDbEntity
  8
490147031_RAHMEN
  6
Continuous
 62
     7
100
AcDbLine
 10
188.9876083057
 20
1881.9937685832
 30
0.0
 11
189.0820557472
 21
1881.9942016329
 31
0.0
  0
LINE
  5
52F
330
3E8
100
AcDbEntity
  8
490147031_RAHMEN
  6
Continuous
 62
     7
100
AcDbLine
 10
189.0665833846
 20
1882.1510064441
 30
0.0
 11
189.0805659995
 21
1882.0670361339
 31
0.0
  0
LINE
  5
530
330
3E8
100
AcDbEntity
  8
490147031_RAHMEN
  6
Continuous
 62
     7
100
AcDbLine
 10
88.0931608643
 20
1881.9942016329
 30
0.0
 11
88.1876083057
 21
1881.9937685832
 31
0.0
  0
LINE
  5
531
330
3E8
100
AcDbEntity
  8
490147031_RAHMEN
  6
Continuous
 62
     7
100
AcDbLine
 10
189.0805659995
 20
1845.6668395488
 30
0.0
 11
189.0665833846
 21
1845.5828692386
 31
0.0
  0
LINE
  5
532
330
3E8
100
AcDbEntity
  8
490147031_RAHMEN
  6
Continuous
 62
     7
100
AcDbLine
 10
88.094650612
 20
1882.0670361339
 30
0.0
 11
88.1086332269
 21
1882.1510064441
 31
0.0
  0
LINE
  5
533
330
3E8
100
AcDbEntity
  8
490147031_RAHMEN
  6
Continuous
 62
     7
100
AcDbLine
 10
189.0820557472
 20
1845.7396740498
 30
0.0
 11
188.9876083057
 21
1845.7401070995
 31
0.0
  0
LINE
  5
534
330
3E8
100
AcDbEntity
  8
490147031_RAHMEN
  6
Continuous
 62
     7
100
AcDbLine
 10
88.1086332269
 20
1845.5828692386
 30
0.0
 11
88.094650612
 21
1845.6668395488
 31
0.0
  0
LINE
  5
535
330
3E8
100
AcDbEntity
  8
490147031_RAHMEN
  6
Continuous
 62
     7
100
AcDbLine
 10
88.1876083057
 20
1845.7401070995
 30
0.0
 11
88.0931608643
 21
1845.7396740498
 31
0.0
  0
LINE
  5
536
330
3E8
100
AcDbEntity
  8
490147031_RAHMEN
  6
Continuous
 62
     7
100
AcDbLine
 10
188.9876083057
 20
1831.9937685832
 30
0.0
 11
189.0820557472
 21
1831.9942016329
 31
0.0
  0
LINE
  5
537
330
3E8
100
AcDbEntity
  8
490147031_RAHMEN
  6
Continuous
 62
     7
100
AcDbLine
 10
189.0665833846
 20
1832.1510064441
 30
0.0
 11
189.0805659995
 21
1832.0670361339
 31
0.0
  0
LINE
  5
538
330
3E8
100
AcDbEntity
  8
490147031_RAHMEN
  6
Continuous
 62
     7
100
AcDbLine
 10
88.0931608643
 20
1831.9942016329
 30
0.0
 11
88.1876083057
 21
1831.9937685832
 31
0.0
  0
LINE
  5
539
330
3E8
100
AcDbEntity
  8
490147031_RAHMEN
  6
Continuous
 62
     7
100
AcDbLine
 10
88.094650612
 20
1832.0670361339
 30
0.0
 11
88.1086332269
 21
1832.1510064441
 31
0.0
  0
LINE
  5
53A
330
3E8
100
AcDbEntity
  8
490656XXX_VM_ABD
  6
Continuous
 62
     7
100
AcDbLine
 10
46.6376083057
 20
1939.8169378413
 30
0.0
 11
230.5376083057
 21
1939.8169378413
 31
0.0
  0
ARC
  5
53B
330
3E8
100
AcDbEntity
  8
490656XXX_VM_ABD
  6
Continuous
 62
     7
100
AcDbCircle
 10
230.5376083057
 20
1935.3169378413
 30
0.0
 40
4.49999999999999
100
AcDbArc
 50
0.0
 51
90.0
  0
LINE
  5
53C
330
3E8
100
AcDbEntity
  8
490656XXX_VM_ABD
  6
Continuous
 62
     7
100
AcDbLine
 10
235.0376083057
 20
1935.3169378413
 30
0.0
 11
235.0376083057
 21
1792.4169378413
 31
0.0
  0
LINE
  5
53D
330
3E8
100
AcDbEntity
  8
490656XXX_VM_ABD
  6
Continuous
 62
     7
100
AcDbLine
 10
188.0876083057
 20
1905.3669378413
 30
0.0
 11
89.0876083057
 21
1905.3669378413
 31
0.0
  0
ARC
  5
53E
330
3E8
100
AcDbEntity
  8
490656XXX_VM_ABD
  6
Continuous
 62
     7
100
AcDbCircle
 10
188.0876083057
 20
1898.3669378413
 30
0.0
 40
6.999999999999999
100
AcDbArc
 50
0.0
 51
90.0
  0
LINE
  5
53F
330
3E8
100
AcDbEntity
  8
490656XXX_VM_ABD
  6
Continuous
 62
     7
100
AcDbLine
 10
195.0876083057
 20
1829.3669378413
 30
0.0
 11
195.0876083057
 21
1898.3669378413
 31
0.0
  0
ARC
  5
540
330
3E8
100
AcDbEntity
  8
490656XXX_VM_ABD
  6
Continuous
 62
     7
100
AcDbCircle
 10
230.5376083057
 20
1792.4169378413
 30
0.0
 40
4.49999999999999
100
AcDbArc
 50
270.0
 51
0.0
  0
LINE
  5
541
330
3E8
100
AcDbEntity
  8
490656XXX_VM_ABD
  6
Continuous
 62
     7
100
AcDbLine
 10
46.6376083057
 20
1787.9169378413
 30
0.0
 11
230.5376083057
 21
1787.9169378413
 31
0.0
  0
ARC
  5
542
330
3E8
100
AcDbEntity
  8
490656XXX_VM_ABD
  6
Continuous
 62
     7
100
AcDbCircle
 10
188.0876083057
 20
1829.3669378413
 30
0.0
 40
6.999999999999999
100
AcDbArc
 50
270.0
 51
0.0
  0
LINE
  5
543
330
3E8
100
AcDbEntity
  8
490656XXX_VM_ABD
  6
Continuous
 62
     7
100
AcDbLine
 10
188.0876083057
 20
1822.3669378413
 30
0.0
 11
89.0876083057
 21
1822.3669378413
 31
0.0
  0
LINE
  5
544
330
3E8
100
AcDbEntity
  8
490656XXX_VM_ABD
  6
Continuous
 62
     7
100
AcDbLine
 10
42.1376083057
 20
1935.3169378413
 30
0.0
 11
42.1376083057
 21
1792.4169378413
 31
0.0
  0
ARC
  5
545
330
3E8
100
AcDbEntity
  8
490656XXX_VM_ABD
  6
Continuous
 62
     7
100
AcDbCircle
 10
46.6376083057
 20
1935.3169378413
 30
0.0
 40
4.49999999999999
100
AcDbArc
 50
90.0
 51
180.0
  0
LINE
  5
546
330
3E8
100
AcDbEntity
  8
490656XXX_VM_ABD
  6
Continuous
 62
     7
100
AcDbLine
 10
82.0876083057
 20
1829.3669378413
 30
0.0
 11
82.0876083057
 21
1898.3669378413
 31
0.0
  0
ARC
  5
547
330
3E8
100
AcDbEntity
  8
490656XXX_VM_ABD
  6
Continuous
 62
     7
100
AcDbCircle
 10
89.0876083057
 20
1898.3669378413
 30
0.0
 40
6.999999999999999
100
AcDbArc
 50
90.0
 51
180.0
  0
ARC
  5
548
330
3E8
100
AcDbEntity
  8
490656XXX_VM_ABD
  6
Continuous
 62
     7
100
AcDbCircle
 10
46.6376083057
 20
1792.4169378413
 30
0.0
 40
4.49999999999999
100
AcDbArc
 50
180.0
 51
270.0
  0
ARC
  5
549
330
3E8
100
AcDbEntity
  8
490656XXX_VM_ABD
  6
Continuous
 62
     7
100
AcDbCircle
 10
89.0876083057
 20
1829.3669378413
 30
0.0
 40
6.999999999999999
100
AcDbArc
 50
180.0
 51
270.0
  0
ENDBLK
  5
54B
330
3E8
100
AcDbEntity
  8
0
100
AcDbBlockEnd
  0
BLOCK
  5
55D
330
54C
100
AcDbEntity
  8
0
100
AcDbBlockBegin
  2
SE8
 70
     0
 10
0.0
 20
0.0
 30
0.0
  3
SE8
  1

  0
LINE
  5
54E
330
54C
100
AcDbEntity
  8
490147031_RAHMEN
  6
Continuous
 62
     7
100
AcDbLine
 10
344.1723775043
 20
2119.0668664592
 30
0.0
 11
338.1732913334
 21
2119.0668664592
 31
0.0
  0
LINE
  5
54F
330
54C
100
AcDbEntity
  8
490147031_RAHMEN
  6
Continuous
 62
     7
100
AcDbLine
 10
338.1732913334
 20
2119.0668664592
 30
0.0
 11
338.2780826495
 21
2125.0703569405
 31
0.0
  0
LINE
  5
550
330
54C
100
AcDbEntity
  8
490147031_RAHMEN
  6
Continuous
 62
     7
100
AcDbLine
 10
488.1742051624
 20
2119.0668664592
 30
0.0
 11
344.1723775043
 21
2119.0668664592
 31
0.0
  0
LINE
  5
551
330
54C
100
AcDbEntity
  8
490147031_RAHMEN
  6
Continuous
 62
     7
100
AcDbLine
 10
494.1732913334
 20
2119.0668664592
 30
0.0
 11
488.1742051624
 21
2119.0668664592
 31
0.0
  0
LINE
  5
552
330
54C
100
AcDbEntity
  8
490147031_RAHMEN
  6
Continuous
 62
     7
100
AcDbLine
 10
338.4780521886
 20
2125.2668664592
 30
0.0
 11
344.2771688205
 21
2125.2668664592
 31
0.0
  0
LINE
  5
553
330
54C
100
AcDbEntity
  8
490147031_RAHMEN
  6
Continuous
 62
     7
100
AcDbLine
 10
488.0694138463
 20
2125.2668664592
 30
0.0
 11
493.8685304782
 21
2125.2668664592
 31
0.0
  0
LINE
  5
554
330
54C
100
AcDbEntity
  8
490147031_RAHMEN
  6
Continuous
 62
     7
100
AcDbLine
 10
344.2771688205
 20
2125.2668664592
 30
0.0
 11
488.0694138463
 21
2125.2668664592
 31
0.0
  0
LINE
  5
555
330
54C
100
AcDbEntity
  8
490147031_RAHMEN
  6
Continuous
 62
     7
100
AcDbLine
 10
494.0685000172
 20
2125.0703569405
 30
0.0
 11
494.1732913334
 21
2119.0668664592
 31
0.0
  0
ARC
  5
556
330
54C
100
AcDbEntity
  8
490147031_RAHMEN
  6
Continuous
 62
     7
100
AcDbCircle
 10
493.8685304782
 20
2125.0668664592
 30
0.0
 40
0.199999999999994
100
AcDbArc
 50
1.0
 51
90.0
  0
ARC
  5
557
330
54C
100
AcDbEntity
  8
490147031_RAHMEN
  6
Continuous
 62
     7
100
AcDbCircle
 10
338.4780521886
 20
2125.0668664592
 30
0.0
 40
0.1999999999999997
100
AcDbArc
 50
90.0
 51
179.0
  0
LINE
  5
558
330
54C
100
AcDbEntity
  8
490656XXX_VM_ABD
  6
Continuous
 62
     7
100
AcDbLine
 10
487.6232913334
 20
2127.6668664592
 30
0.0
 11
489.6232913334
 21
2127.6668664592
 31
0.0
  0
LINE
  5
559
330
54C
100
AcDbEntity
  8
490656XXX_VM_ABD
  6
Continuous
 62
     7
100
AcDbLine
 10
487.6232913334
 20
2127.6668664592
 30
0.0
 11
344.7232913334
 21
2127.6668664592
 31
0.0
  0
LINE
  5
55A
330
54C
100
AcDbEntity
  8
490656XXX_VM_ABD
  6
Continuous
 62
     7
100
AcDbLine
 10
344.7232913334
 20
2127.6668664592
 30
0.0
 11
342.7232913334
 21
2127.6668664592
 31
0.0
  0
ARC
  5
55B
330
54C
100
AcDbEntity
  8
490656XXX_VM_ABD
  6
Continuous
 62
     7
100
AcDbCircle
 10
342.7232913334
 20
2125.1668664592
 30
0.0
 40
2.499999999999999
100
AcDbArc
 50
90.0
 51
177.707557224
  0
ARC
  5
55C
330
54C
100
AcDbEntity
  8
490656XXX_VM_ABD
  6
Continuous
 62
     7
100
AcDbCircle
 10
489.6232913334
 20
2125.1668664592
 30
0.0
 40
2.5
100
AcDbArc
 50
2.292442776
 51
90.0
  0
ENDBLK
  5
55E
330
54C
100
AcDbEntity
  8
0
100
AcDbBlockEnd
  0
ENDSEC
  0
SECTION
  2
ENTITIES
  0
INSERT
  5
5F
330
1F
100
AcDbEntity
  8
Default
100
AcDbBlockReference
  2
SEANNOT_GROUP
 10
0.0
 20
0.0
 30
0.0
  0
INSERT
  5
65
330
1F
100
AcDbEntity
  8
Default
100
AcDbBlockReference
  2
SEANNOT_GROUP1
 10
0.0
 20
0.0
 30
0.0
  0
INSERT
  5
6A
330
1F
100
AcDbEntity
  8
Default
100
AcDbBlockReference
  2
SEANNOT_GROUP2
 10
0.0
 20
0.0
 30
0.0
  0
INSERT
  5
6F
330
1F
100
AcDbEntity
  8
Default
100
AcDbBlockReference
  2
SEANNOT_GROUP3
 10
0.0
 20
0.0
 30
0.0
  0
INSERT
  5
74
330
1F
100
AcDbEntity
  8
Default
100
AcDbBlockReference
  2
SEANNOT_GROUP4
 10
0.0
 20
0.0
 30
0.0
  0
INSERT
  5
79
330
1F
100
AcDbEntity
  8
Default
100
AcDbBlockReference
  2
SEANNOT_GROUP5
 10
0.0
 20
0.0
 30
0.0
  0
INSERT
  5
7E
330
1F
100
AcDbEntity
  8
Default
100
AcDbBlockReference
  2
SEANNOT_GROUP6
 10
0.0
 20
0.0
 30
0.0
  0
INSERT
  5
83
330
1F
100
AcDbEntity
  8
Default
100
AcDbBlockReference
  2
SEANNOT_GROUP7
 10
0.0
 20
0.0
 30
0.0
  0
INSERT
  5
88
330
1F
100
AcDbEntity
  8
Default
100
AcDbBlockReference
  2
SEANNOT_GROUP8
 10
0.0
 20
0.0
 30
0.0
  0
INSERT
  5
8D
330
1F
100
AcDbEntity
  8
Default
100
AcDbBlockReference
  2
SEANNOT_GROUP9
 10
0.0
 20
0.0
 30
0.0
  0
INSERT
  5
92
330
1F
100
AcDbEntity
  8
Default
100
AcDbBlockReference
  2
SEANNOT_GROUP10
 10
0.0
 20
0.0
 30
0.0
  0
INSERT
  5
97
330
1F
100
AcDbEntity
  8
Default
100
AcDbBlockReference
  2
SEANNOT_GROUP11
 10
0.0
 20
0.0
 30
0.0
  0
INSERT
  5
9C
330
1F
100
AcDbEntity
  8
Default
100
AcDbBlockReference
  2
SEANNOT_GROUP12
 10
0.0
 20
0.0
 30
0.0
  0
INSERT
  5
A1
330
1F
100
AcDbEntity
  8
Default
100
AcDbBlockReference
  2
SEANNOT_GROUP13
 10
0.0
 20
0.0
 30
0.0
  0
INSERT
  5
A6
330
1F
100
AcDbEntity
  8
Default
100
AcDbBlockReference
  2
SEANNOT_GROUP14
 10
0.0
 20
0.0
 30
0.0
  0
INSERT
  5
AB
330
1F
100
AcDbEntity
  8
Default
100
AcDbBlockReference
  2
SEANNOT_GROUP15
 10
0.0
 20
0.0
 30
0.0
  0
INSERT
  5
B0
330
1F
100
AcDbEntity
  8
Default
100
AcDbBlockReference
  2
SEANNOT_GROUP16
 10
0.0
 20
0.0
 30
0.0
  0
INSERT
  5
B5
330
1F
100
AcDbEntity
  8
Default
100
AcDbBlockReference
  2
SEANNOT_GROUP17
 10
0.0
 20
0.0
 30
0.0
  0
INSERT
  5
BA
330
1F
100
AcDbEntity
  8
Default
100
AcDbBlockReference
  2
SE
 10
0.0
 20
0.0
 30
0.0
  0
INSERT
  5
226
330
1F
100
AcDbEntity
  8
Default
100
AcDbBlockReference
  2
SE1
 10
0.0
 20
0.0
 30
0.0
  0
INSERT
  5
239
330
1F
100
AcDbEntity
  8
Default
100
AcDbBlockReference
  2
SE2
 10
0.0
 20
0.0
 30
0.0
  0
INSERT
  5
24C
330
1F
100
AcDbEntity
  8
Default
100
AcDbBlockReference
  2
SE3
 10
0.0
 20
0.0
 30
0.0
  0
INSERT
  5
3B0
330
1F
100
AcDbEntity
  8
Default
100
AcDbBlockReference
  2
SE4
 10
0.0
 20
0.0
 30
0.0
  0
INSERT
  5
3C3
330
1F
100
AcDbEntity
  8
Default
100
AcDbBlockReference
  2
SE5
 10
0.0
 20
0.0
 30
0.0
  0
INSERT
  5
3D6
330
1F
100
AcDbEntity
  8
Default
100
AcDbBlockReference
  2
SE6
 10
0.0
 20
0.0
 30
0.0
  0
INSERT
  5
3E9
330
1F
100
AcDbEntity
  8
Default
100
AcDbBlockReference
  2
SE7
 10
0.0
 20
0.0
 30
0.0
  0
INSERT
  5
54D
330
1F
100
AcDbEntity
  8
Default
100
AcDbBlockReference
  2
SE8
 10
0.0
 20
0.0
 30
0.0
  0
TEXT
  5
560
330
1F
100
AcDbEntity
  8
Default
  6
Continuous
 62
     7
100
AcDbText
 10
5.9362635081
 20
53.4225120485
 30
0.0
 40
10.0
  1
Grohe AG^J
  7
SEACAD_seiso_ttf
 11
5.9362635081
 21
63.4225120485
 31
0.0
100
AcDbText
 73
     3
  0
TEXT
  5
561
330
1F
100
AcDbEntity
  8
Default
  6
Continuous
 62
     7
100
AcDbText
 10
5.9362635081
 20
37.0588756849
 30
0.0
 40
10.0
  1
 
  7
SEACAD_seiso_ttf
 11
5.9362635081
 21
47.0588756849
 31
0.0
100
AcDbText
 73
     3
  0
TEXT
  5
562
330
1F
100
AcDbEntity
  8
Default
  6
Continuous
 62
     7
100
AcDbText
 10
5.9362635081
 20
20.6952393213
 30
0.0
 40
10.0
  1
ecn: 
  7
SEACAD_seiso_ttf
 11
5.9362635081
 21
30.6952393213
 31
0.0
100
AcDbText
 73
     3
  0
TEXT
  5
563
330
1F
100
AcDbEntity
  8
Default
  6
Continuous
 62
     7
100
AcDbText
 10
5.9362635081
 20
4.3316029576
 30
0.0
 40
10.0
  1
unit: mm
  7
SEACAD_seiso_ttf
 11
5.9362635081
 21
14.3316029576
 31
0.0
100
AcDbText
 73
     3
  0
LINE
  5
564
330
1F
100
AcDbEntity
  8
Default
  6
Continuous
 62
     7
100
AcDbLine
 10
0.0
 20
0.0
 30
0.0
 11
100.0
 21
0.0
 31
0.0
  0
LINE
  5
565
330
1F
100
AcDbEntity
  8
Default
  6
Continuous
 62
     7
100
AcDbLine
 10
0.0
 20
0.0
 30
0.0
 11
0.0
 21
100.0
 31
0.0
  0
TEXT
  5
566
330
1F
100
AcDbEntity
  8
Default
  6
Continuous
 62
     7
100
AcDbText
 10
24.3923665681
 20
-18.2375342018
 30
0.0
 40
10.0
  1
100 mm
  7
SEACAD_seiso_ttf
 11
24.3923665681
 21
-8.2375342018
 31
0.0
100
AcDbText
 73
     3
  0
TEXT
  5
567
330
1F
100
AcDbEntity
  8
Default
  6
Continuous
 62
     7
100
AcDbText
 10
-7.6150308803
 20
24.6231930421
 30
0.0
 40
10.0
  1
100 mm
 50
90.0
  7
SEACAD_seiso_ttf
 11
-17.6150308803
 21
24.6231930421
 31
0.0
100
AcDbText
 73
     3
  0
TEXT
  5
568
330
1F
100
AcDbEntity
  8
Default
  6
Continuous
 62
     7
100
AcDbText
 10
28.4878128572
 20
20.0907663715
 30
0.0
 40
10.0
  1
219638
  7
SEACAD_seiso_ttf
 11
28.4878128572
 21
30.0907663715
 31
0.0
100
AcDbText
 73
     3
  0
TEXT
  5
569
330
1F
100
AcDbEntity
  8
Default
  6
Continuous
 62
     7
100
AcDbText
 10
5.9012241913
 20
36.7242780188
 30
0.0
 40
10.0
  1
38913XXX
  7
SEACAD_seiso_ttf
 11
5.9012241913
 21
46.7242780188
 31
0.0
100
AcDbText
 73
     3
  0
ENDSEC
  0
SECTION
  2
OBJECTS
  0
DICTIONARY
  5
C
330
0
100
AcDbDictionary
281
     1
  3
ACAD_GROUP
350
D
  3
ACAD_LAYOUT
350
1A
  3
ACAD_MLEADERSTYLE
350
56D
  3
ACAD_MLINESTYLE
350
17
  3
ACAD_PLOTSETTINGS
350
19
  3
ACAD_PLOTSTYLENAME
350
E
  3
ACAD_SCALELIST
350
3B
  3
ACAD_TABLESTYLE
350
56C
  3
ACAD_VISUALSTYLE
350
2A
  3
AcDbVariableDictionary
350
56A
  0
DICTIONARY
  5
D
102
{ACAD_REACTORS
330
C
102
}
330
C
100
AcDbDictionary
281
     1
  0
DICTIONARY
  5
1A
102
{ACAD_REACTORS
330
C
102
}
330
C
100
AcDbDictionary
281
     1
  3
Layout1
350
1E
  3
Model
350
22
  0
DICTIONARY
  5
56D
102
{ACAD_REACTORS
330
C
102
}
330
C
100
AcDbDictionary
281
     1
  0
DICTIONARY
  5
17
102
{ACAD_REACTORS
330
C
102
}
330
C
100
AcDbDictionary
281
     1
  3
Standard
350
18
  0
DICTIONARY
  5
19
102
{ACAD_REACTORS
330
C
102
}
330
C
100
AcDbDictionary
281
     1
  0
ACDBDICTIONARYWDFLT
  5
E
102
{ACAD_REACTORS
330
C
102
}
330
C
100
AcDbDictionary
281
     1
  3
Normal
350
F
100
AcDbDictionaryWithDefault
340
F
  0
DICTIONARY
  5
3B
102
{ACAD_REACTORS
330
C
102
}
330
C
100
AcDbDictionary
281
     1
  3
A0
350
3C
  3
A1
350
3D
  3
A2
350
3E
  3
A3
350
3F
  3
A4
350
40
  3
A5
350
41
  3
A6
350
42
  3
A7
350
43
  3
A8
350
44
  3
A9
350
45
  3
B0
350
46
  3
B1
350
47
  3
B2
350
48
  3
B3
350
49
  3
B4
350
4A
  3
B5
350
4B
  3
B6
350
4C
  3
B7
350
4D
  3
B8
350
4E
  3
B9
350
4F
  3
C0
350
50
  3
C1
350
51
  3
C2
350
52
  3
C3
350
53
  3
C4
350
54
  3
C5
350
55
  3
C6
350
56
  3
C7
350
57
  3
C8
350
58
  3
C9
350
59
  3
D0
350
5A
  3
D1
350
5B
  3
D2
350
5C
  0
DICTIONARY
  5
56C
102
{ACAD_REACTORS
330
C
102
}
330
C
100
AcDbDictionary
281
     1
  0
DICTIONARY
  5
2A
102
{ACAD_REACTORS
330
C
102
}
330
C
100
AcDbDictionary
281
     1
  3
2dWireframe
350
2F
  3
3D Hidden
350
31
  3
3dWireframe
350
30
  3
Basic
350
32
  3
Brighten
350
36
  3
ColorChange
350
3A
  3
Conceptual
350
34
  3
Dim
350
35
  3
Facepattern
350
39
  3
Flat
350
2B
  3
FlatWithEdges
350
2C
  3
Gouraud
350
2D
  3
GouraudWithEdges
350
2E
  3
Linepattern
350
38
  3
Realistic
350
33
  3
Thicken
350
37
  0
DICTIONARY
  5
56A
102
{ACAD_REACTORS
330
C
102
}
330
C
100
AcDbDictionary
281
     1
  3
CANNOSCALE
350
56B
  3
PSOLHEIGHT
350
56F
  3
PSOLWIDTH
350
56E
  0
LAYOUT
  5
1E
102
{ACAD_REACTORS
330
1A
102
}
330
1A
100
AcDbPlotSettings
  1

  2
none_device
  4

  6

 40
0.0
 41
0.0
 42
0.0
 43
0.0
 44
0.0
 45
0.0
 46
0.0
 47
0.0
 48
0.0
 49
0.0
140
0.0
141
0.0
142
1.0
143
1.0
 70
   688
 72
     0
 73
     0
 74
     5
  7

 75
    16
147
1.0
148
0.0
149
0.0
100
AcDbLayout
  1
Layout1
 70
     1
 71
     1
 10
0.0
 20
0.0
 11
1682.0
 21
2378.0
 12
0.0
 22
0.0
 32
0.0
 14
0.0
 24
0.0
 34
0.0
 15
1682.0
 25
2378.0
 35
0.0
146
0.0
 13
0.0
 23
0.0
 33
0.0
 16
1.0
 26
0.0
 36
0.0
 17
0.0
 27
1.0
 37
0.0
 76
     0
330
1B
  0
LAYOUT
  5
22
102
{ACAD_REACTORS
330
1A
102
}
330
1A
100
AcDbPlotSettings
  1

  2
none_device
  4

  6

 40
0.0
 41
0.0
 42
0.0
 43
0.0
 44
0.0
 45
0.0
 46
0.0
 47
0.0
 48
0.0
 49
0.0
140
0.0
141
0.0
142
1.0
143
1.0
 70
  1712
 72
     0
 73
     0
 74
     0
  7

 75
     0
147
1.0
148
0.0
149
0.0
100
AcDbLayout
  1
Model
 70
     1
 71
     0
 10
0.0
 20
0.0
 11
1682.0
 21
2378.0
 12
0.0
 22
0.0
 32
0.0
 14
0.0
 24
0.0
 34
0.0
 15
1682.0
 25
2378.0
 35
0.0
146
0.0
 13
0.0
 23
0.0
 33
0.0
 16
1.0
 26
0.0
 36
0.0
 17
0.0
 27
1.0
 37
0.0
 76
     0
330
1F
331
29
  0
MLINESTYLE
  5
18
102
{ACAD_REACTORS
330
17
102
}
330
17
100
AcDbMlineStyle
  2
Standard
 70
     0
  3

 62
   256
 51
90.0
 52
90.0
 71
     2
 49
0.5
 62
   256
  6
BYLAYER
 49
-0.5
 62
   256
  6
BYLAYER
  0
ACDBPLACEHOLDER
  5
F
102
{ACAD_REACTORS
330
E
102
}
330
E
  0
SCALE
  5
3C
102
{ACAD_REACTORS
330
3B
102
}
330
3B
100
AcDbScale
 70
     0
300
1:1
140
1.0
141
1.0
290
     1
  0
SCALE
  5
3D
102
{ACAD_REACTORS
330
3B
102
}
330
3B
100
AcDbScale
 70
     0
300
1:2
140
1.0
141
2.0
290
     0
  0
SCALE
  5
3E
102
{ACAD_REACTORS
330
3B
102
}
330
3B
100
AcDbScale
 70
     0
300
1:4
140
1.0
141
4.0
290
     0
  0
SCALE
  5
3F
102
{ACAD_REACTORS
330
3B
102
}
330
3B
100
AcDbScale
 70
     0
300
1:5
140
1.0
141
5.0
290
     0
  0
SCALE
  5
40
102
{ACAD_REACTORS
330
3B
102
}
330
3B
100
AcDbScale
 70
     0
300
1:8
140
1.0
141
8.0
290
     0
  0
SCALE
  5
41
102
{ACAD_REACTORS
330
3B
102
}
330
3B
100
AcDbScale
 70
     0
300
1:10
140
1.0
141
10.0
290
     0
  0
SCALE
  5
42
102
{ACAD_REACTORS
330
3B
102
}
330
3B
100
AcDbScale
 70
     0
300
1:16
140
1.0
141
16.0
290
     0
  0
SCALE
  5
43
102
{ACAD_REACTORS
330
3B
102
}
330
3B
100
AcDbScale
 70
     0
300
1:20
140
1.0
141
20.0
290
     0
  0
SCALE
  5
44
102
{ACAD_REACTORS
330
3B
102
}
330
3B
100
AcDbScale
 70
     0
300
1:30
140
1.0
141
30.0
290
     0
  0
SCALE
  5
45
102
{ACAD_REACTORS
330
3B
102
}
330
3B
100
AcDbScale
 70
     0
300
1:40
140
1.0
141
40.0
290
     0
  0
SCALE
  5
46
102
{ACAD_REACTORS
330
3B
102
}
330
3B
100
AcDbScale
 70
     0
300
1:50
140
1.0
141
50.0
290
     0
  0
SCALE
  5
47
102
{ACAD_REACTORS
330
3B
102
}
330
3B
100
AcDbScale
 70
     0
300
1:100
140
1.0
141
100.0
290
     0
  0
SCALE
  5
48
102
{ACAD_REACTORS
330
3B
102
}
330
3B
100
AcDbScale
 70
     0
300
2:1
140
2.0
141
1.0
290
     0
  0
SCALE
  5
49
102
{ACAD_REACTORS
330
3B
102
}
330
3B
100
AcDbScale
 70
     0
300
4:1
140
4.0
141
1.0
290
     0
  0
SCALE
  5
4A
102
{ACAD_REACTORS
330
3B
102
}
330
3B
100
AcDbScale
 70
     0
300
8:1
140
8.0
141
1.0
290
     0
  0
SCALE
  5
4B
102
{ACAD_REACTORS
330
3B
102
}
330
3B
100
AcDbScale
 70
     0
300
10:1
140
10.0
141
1.0
290
     0
  0
SCALE
  5
4C
102
{ACAD_REACTORS
330
3B
102
}
330
3B
100
AcDbScale
 70
     0
300
100:1
140
100.0
141
1.0
290
     0
  0
SCALE
  5
4D
102
{ACAD_REACTORS
330
3B
102
}
330
3B
100
AcDbScale
 70
     0
300
1/128" = 1'-0"
140
0.0078125
141
12.0
290
     0
  0
SCALE
  5
4E
102
{ACAD_REACTORS
330
3B
102
}
330
3B
100
AcDbScale
 70
     0
300
1/64" = 1'-0"
140
0.015625
141
12.0
290
     0
  0
SCALE
  5
4F
102
{ACAD_REACTORS
330
3B
102
}
330
3B
100
AcDbScale
 70
     0
300
1/32" = 1'-0"
140
0.03125
141
12.0
290
     0
  0
SCALE
  5
50
102
{ACAD_REACTORS
330
3B
102
}
330
3B
100
AcDbScale
 70
     0
300
1/16" = 1'-0"
140
0.0625
141
12.0
290
     0
  0
SCALE
  5
51
102
{ACAD_REACTORS
330
3B
102
}
330
3B
100
AcDbScale
 70
     0
300
3/32" = 1'-0"
140
0.09375
141
12.0
290
     0
  0
SCALE
  5
52
102
{ACAD_REACTORS
330
3B
102
}
330
3B
100
AcDbScale
 70
     0
300
1/8" = 1'-0"
140
0.125
141
12.0
290
     0
  0
SCALE
  5
53
102
{ACAD_REACTORS
330
3B
102
}
330
3B
100
AcDbScale
 70
     0
300
3/16" = 1'-0"
140
0.1875
141
12.0
290
     0
  0
SCALE
  5
54
102
{ACAD_REACTORS
330
3B
102
}
330
3B
100
AcDbScale
 70
     0
300
1/4" = 1'-0"
140
0.25
141
12.0
290
     0
  0
SCALE
  5
55
102
{ACAD_REACTORS
330
3B
102
}
330
3B
100
AcDbScale
 70
     0
300
3/8" = 1'-0"
140
0.375
141
12.0
290
     0
  0
SCALE
  5
56
102
{ACAD_REACTORS
330
3B
102
}
330
3B
100
AcDbScale
 70
     0
300
1/2" = 1'-0"
140
0.5
141
12.0
290
     0
  0
SCALE
  5
57
102
{ACAD_REACTORS
330
3B
102
}
330
3B
100
AcDbScale
 70
     0
300
3/4" = 1'-0"
140
0.75
141
12.0
290
     0
  0
SCALE
  5
58
102
{ACAD_REACTORS
330
3B
102
}
330
3B
100
AcDbScale
 70
     0
300
1" = 1'-0"
140
1.0
141
12.0
290
     0
  0
SCALE
  5
59
102
{ACAD_REACTORS
330
3B
102
}
330
3B
100
AcDbScale
 70
     0
300
1-1/2" = 1'-0"
140
1.5
141
12.0
290
     0
  0
SCALE
  5
5A
102
{ACAD_REACTORS
330
3B
102
}
330
3B
100
AcDbScale
 70
     0
300
3" = 1'-0"
140
3.0
141
12.0
290
     0
  0
SCALE
  5
5B
102
{ACAD_REACTORS
330
3B
102
}
330
3B
100
AcDbScale
 70
     0
300
6" = 1'-0"
140
6.0
141
12.0
290
     0
  0
SCALE
  5
5C
102
{ACAD_REACTORS
330
3B
102
}
330
3B
100
AcDbScale
 70
     0
300
1'-0" = 1'-0"
140
12.0
141
12.0
290
     0
  0
VISUALSTYLE
  5
2F
102
{ACAD_REACTORS
330
2A
102
}
330
2A
100
AcDbVisualStyle
  2
2dWireframe
 70
     4
 71
     0
 72
     2
 73
     0
 90
        0
 40
-0.6
 41
-30.0
 62
     5
 63
     7
 74
     1
 91
        4
 64
     7
 65
   257
 75
     1
175
     1
 42
1.0
 92
        0
 66
   257
 43
1.0
 76
     1
 77
     6
 78
     2
 67
     7
 79
     5
170
     0
171
     0
290
     0
174
     0
 93
        1
 44
0.0
173
     0
291
     0
 45
0.0
1001
ACAD
1000
AcDbSavedByObjectVersion
1070
     0
  0
VISUALSTYLE
  5
31
102
{ACAD_REACTORS
330
2A
102
}
330
2A
100
AcDbVisualStyle
  2
3D Hidden
 70
     6
 71
     1
 72
     2
 73
     2
 90
        0
 40
-0.6
 41
-30.0
 62
     5
 63
     7
 74
     2
 91
        2
 64
     7
 65
   257
 75
     2
175
     1
 42
40.0
 92
        0
 66
   257
 43
1.0
 76
     1
 77
     6
 78
     2
 67
     7
 79
     3
170
     0
171
     0
290
     0
174
     0
 93
        1
 44
0.0
173
     0
291
     0
 45
0.0
1001
ACAD
1000
AcDbSavedByObjectVersion
1070
     0
  0
VISUALSTYLE
  5
30
102
{ACAD_REACTORS
330
2A
102
}
330
2A
100
AcDbVisualStyle
  2
3dWireframe
 70
     5
 71
     0
 72
     2
 73
     0
 90
        0
 40
-0.6
 41
-30.0
 62
     5
 63
     7
 74
     1
 91
        4
 64
     7
 65
   257
 75
     1
175
     1
 42
1.0
 92
        0
 66
   257
 43
1.0
 76
     1
 77
     6
 78
     2
 67
     7
 79
     5
170
     0
171
     0
290
     0
174
     0
 93
        1
 44
0.0
173
     0
291
     0
 45
0.0
1001
ACAD
1000
AcDbSavedByObjectVersion
1070
     0
  0
VISUALSTYLE
  5
32
102
{ACAD_REACTORS
330
2A
102
}
330
2A
100
AcDbVisualStyle
  2
Basic
 70
     7
 71
     1
 72
     0
 73
     1
 90
        0
 40
-0.6
 41
-30.0
 62
     5
 63
     7
 74
     0
 91
        4
 64
     7
 65
   257
 75
     1
175
     1
 42
1.0
 92
        8
 66
     7
 43
1.0
 76
     1
 77
     6
 78
     2
 67
     7
 79
     5
170
     0
171
     0
290
     0
174
     0
 93
        1
 44
0.0
173
     0
291
     1
 45
0.0
1001
ACAD
1000
AcDbSavedByObjectVersion
1070
     0
  0
VISUALSTYLE
  5
36
102
{ACAD_REACTORS
330
2A
102
}
330
2A
100
AcDbVisualStyle
  2
Brighten
 70
    12
 71
     2
 72
     2
 73
     0
 90
        0
 40
-0.6
 41
-30.0
 62
     5
 63
     7
 74
     1
 91
        4
 64
     7
 65
   257
 75
     1
175
     1
 42
1.0
 92
        8
 66
     7
 43
1.0
 76
     1
 77
     6
 78
     2
 67
     7
 79
     5
170
     0
171
     0
290
     0
174
     0
 93
        1
 44
50.0
173
     0
291
     1
 45
0.0
1001
ACAD
1000
AcDbSavedByObjectVersion
1070
     0
  0
VISUALSTYLE
  5
3A
102
{ACAD_REACTORS
330
2A
102
}
330
2A
100
AcDbVisualStyle
  2
ColorChange
 70
    16
 71
     2
 72
     2
 73
     3
 90
        0
 40
-0.6
 41
-30.0
 62
     5
 63
     8
 74
     1
 91
        4
 64
     7
 65
   257
 75
     1
175
     1
 42
1.0
 92
        8
 66
     8
 43
1.0
 76
     1
 77
     6
 78
     2
 67
     7
 79
     5
170
     0
171
     0
290
     0
174
     0
 93
        1
 44
0.0
173
     0
291
     1
 45
0.0
1001
ACAD
1000
AcDbSavedByObjectVersion
1070
     0
  0
VISUALSTYLE
  5
34
102
{ACAD_REACTORS
330
2A
102
}
330
2A
100
AcDbVisualStyle
  2
Conceptual
 70
     9
 71
     3
 72
     2
 73
     0
 90
        0
 40
-0.6
 41
-30.0
 62
     5
 63
     7
 74
     2
 91
        2
 64
     7
 65
   257
 75
     1
175
     1
 42
40.0
 92
        8
 66
     7
 43
1.0
 76
     1
 77
     6
 78
     2
 67
     7
 79
     3
170
     0
171
     0
290
     0
174
     0
 93
        1
 44
0.0
173
     0
291
     0
 45
0.0
1001
ACAD
1000
AcDbSavedByObjectVersion
1070
     0
  0
VISUALSTYLE
  5
35
102
{ACAD_REACTORS
330
2A
102
}
330
2A
100
AcDbVisualStyle
  2
Dim
 70
    11
 71
     2
 72
     2
 73
     0
 90
        0
 40
-0.6
 41
-30.0
 62
     5
 63
     7
 74
     1
 91
        4
 64
     7
 65
   257
 75
     1
175
     1
 42
1.0
 92
        8
 66
     7
 43
1.0
 76
     1
 77
     6
 78
     2
 67
     7
 79
     5
170
     0
171
     0
290
     0
174
     0
 93
        1
 44
-50.0
173
     0
291
     1
 45
0.0
1001
ACAD
1000
AcDbSavedByObjectVersion
1070
     0
  0
VISUALSTYLE
  5
39
102
{ACAD_REACTORS
330
2A
102
}
330
2A
100
AcDbVisualStyle
  2
Facepattern
 70
    15
 71
     2
 72
     2
 73
     0
 90
        0
 40
-0.6
 41
-30.0
 62
     5
 63
     7
 74
     1
 91
        4
 64
     7
 65
   257
 75
     1
175
     1
 42
1.0
 92
        8
 66
     7
 43
1.0
 76
     1
 77
     6
 78
     2
 67
     7
 79
     5
170
     0
171
     0
290
     0
174
     0
 93
        1
 44
0.0
173
     0
291
     1
 45
0.0
1001
ACAD
1000
AcDbSavedByObjectVersion
1070
     0
  0
VISUALSTYLE
  5
2B
102
{ACAD_REACTORS
330
2A
102
}
330
2A
100
AcDbVisualStyle
  2
Flat
 70
     0
 71
     2
 72
     1
 73
     1
 90
        2
 40
-0.6
 41
30.0
 62
     5
 63
     7
 74
     0
 91
        4
 64
     7
 65
   257
 75
     1
175
     1
 42
1.0
 92
        8
 66
     7
 43
1.0
 76
     1
 77
     6
 78
     2
 67
     7
 79
     5
170
     0
171
     0
290
     0
174
     0
 93
       13
 44
0.0
173
     0
291
     1
 45
0.0
1001
ACAD
1000
AcDbSavedByObjectVersion
1070
     0
  0
VISUALSTYLE
  5
2C
102
{ACAD_REACTORS
330
2A
102
}
330
2A
100
AcDbVisualStyle
  2
FlatWithEdges
 70
     1
 71
     2
 72
     1
 73
     1
 90
        2
 40
-0.6
 41
30.0
 62
     5
 63
     7
 74
     1
 91
        4
 64
     7
 65
   257
 75
     1
175
     1
 42
1.0
 92
        0
 66
   257
 43
1.0
 76
     1
 77
     6
 78
     2
 67
     7
 79
     5
170
     0
171
     0
290
     0
174
     0
 93
       13
 44
0.0
173
     0
291
     1
 45
0.0
1001
ACAD
1000
AcDbSavedByObjectVersion
1070
     0
  0
VISUALSTYLE
  5
2D
102
{ACAD_REACTORS
330
2A
102
}
330
2A
100
AcDbVisualStyle
  2
Gouraud
 70
     2
 71
     2
 72
     2
 73
     1
 90
        2
 40
-0.6
 41
30.0
 62
     5
 63
     7
 74
     0
 91
        4
 64
     7
 65
   257
 75
     1
175
     1
 42
1.0
 92
        0
 66
     7
 43
1.0
 76
     1
 77
     6
 78
     2
 67
     7
 79
     5
170
     0
171
     0
290
     0
174
     0
 93
       13
 44
0.0
173
     0
291
     1
 45
0.0
1001
ACAD
1000
AcDbSavedByObjectVersion
1070
     0
  0
VISUALSTYLE
  5
2E
102
{ACAD_REACTORS
330
2A
102
}
330
2A
100
AcDbVisualStyle
  2
GouraudWithEdges
 70
     3
 71
     2
 72
     2
 73
     1
 90
        2
 40
-0.6
 41
30.0
 62
     5
 63
     7
 74
     1
 91
        4
 64
     7
 65
   257
 75
     1
175
     1
 42
1.0
 92
        0
 66
   257
 43
1.0
 76
     1
 77
     6
 78
     2
 67
     7
 79
     5
170
     0
171
     0
290
     0
174
     0
 93
       13
 44
0.0
173
     0
291
     1
 45
0.0
1001
ACAD
1000
AcDbSavedByObjectVersion
1070
     0
  0
VISUALSTYLE
  5
38
102
{ACAD_REACTORS
330
2A
102
}
330
2A
100
AcDbVisualStyle
  2
Linepattern
 70
    14
 71
     2
 72
     2
 73
     0
 90
        0
 40
-0.6
 41
-30.0
 62
     5
 63
     7
 74
     1
 91
        4
 64
     7
 65
   257
 75
     7
175
     7
 42
1.0
 92
        8
 66
     7
 43
1.0
 76
     1
 77
     6
 78
     2
 67
     7
 79
     5
170
     0
171
     0
290
     0
174
     0
 93
        1
 44
0.0
173
     0
291
     1
 45
0.0
1001
ACAD
1000
AcDbSavedByObjectVersion
1070
     0
  0
VISUALSTYLE
  5
33
102
{ACAD_REACTORS
330
2A
102
}
330
2A
100
AcDbVisualStyle
  2
Realistic
 70
     8
 71
     2
 72
     2
 73
     0
 90
        0
 40
-0.6
 41
-30.0
 62
     5
 63
     7
 74
     1
 91
        0
 64
     7
 65
   257
 75
     1
175
     1
 42
1.0
 92
        8
 66
     8
 43
1.0
 76
     1
 77
     6
 78
     2
 67
     7
 79
     5
170
     0
171
     0
290
     0
174
     0
 93
       13
 44
0.0
173
     0
291
     0
 45
0.0
1001
ACAD
1000
AcDbSavedByObjectVersion
1070
     0
  0
VISUALSTYLE
  5
37
102
{ACAD_REACTORS
330
2A
102
}
330
2A
100
AcDbVisualStyle
  2
Thicken
 70
    13
 71
     2
 72
     2
 73
     0
 90
        0
 40
-0.6
 41
-30.0
 62
     5
 63
     7
 74
     1
 91
        4
 64
     7
 65
   257
 75
     1
175
     1
 42
1.0
 92
       12
 66
     7
 43
1.0
 76
     1
 77
     6
 78
     2
 67
     7
 79
     5
170
     0
171
     0
290
     0
174
     0
 93
        1
 44
0.0
173
     0
291
     1
 45
0.0
1001
ACAD
1000
AcDbSavedByObjectVersion
1070
     0
  0
DICTIONARYVAR
  5
56B
102
{ACAD_REACTORS
330
56A
102
}
330
56A
100
DictionaryVariables
280
     0
  1
1:1
  0
DICTIONARYVAR
  5
56F
102
{ACAD_REACTORS
330
56A
102
}
330
56A
100
DictionaryVariables
280
     0
  1
80.000000
  0
DICTIONARYVAR
  5
56E
102
{ACAD_REACTORS
330
56A
102
}
330
56A
100
DictionaryVariables
280
     0
  1
5.000000
  0
ENDSEC
  0
EOF
