  0
SECTION
  2
HEADER
  9
$ACADVER
  1
AC1009
  9
$DWGCODEPAGE
  3
ansi_1252
  9
$INSBASE
 10
0.0
 20
0.0
 30
0.0
  9
$EXTMIN
 10
1.000000000000000E+20
 20
1.000000000000000E+20
 30
1.000000000000000E+20
  9
$EXTMAX
 10
-1.000000000000000E+20
 20
-1.000000000000000E+20
 30
-1.000000000000000E+20
  9
$LIMMIN
 10
0.0
 20
0.0
  9
$LIMMAX
 10
12.0
 20
9.0
  9
$ORTHOMODE
 70
     0
  9
$REGENMODE
 70
     1
  9
$FILLMODE
 70
     1
  9
$QTEXTMODE
 70
     0
  9
$MIRRTEXT
 70
     1
  9
$DRAGMODE
 70
     2
  9
$LTSCALE
 40
1.0
  9
$OSMODE
 70
    37
  9
$ATTMODE
 70
     1
  9
$TEXTSIZE
 40
0.2
  9
$TRACEWID
 40
0.05
  9
$TEXTSTYLE
  7
STANDARD
  9
$CLAYER
  8
0
  9
$CELTYPE
  6
BYLAYER
  9
$CECOLOR
 62
   256
  9
$DIMSCALE
 40
1.0
  9
$DIMASZ
 40
0.18
  9
$DIMEXO
 40
0.0625
  9
$DIMDLI
 40
0.38
  9
$DIMRND
 40
0.0
  9
$DIMDLE
 40
0.0
  9
$DIMEXE
 40
0.18
  9
$DIMTP
 40
0.0
  9
$DIMTM
 40
0.0
  9
$DIMTXT
 40
0.18
  9
$DIMCEN
 40
0.09
  9
$DIMTSZ
 40
0.0
  9
$DIMTOL
 70
     0
  9
$DIMLIM
 70
     0
  9
$DIMTIH
 70
     1
  9
$DIMTOH
 70
     1
  9
$DIMSE1
 70
     0
  9
$DIMSE2
 70
     0
  9
$DIMTAD
 70
     0
  9
$DIMZIN
 70
     0
  9
$DIMBLK
  1

  9
$DIMASO
 70
     1
  9
$DIMSHO
 70
     1
  9
$DIMPOST
  1

  9
$DIMAPOST
  1

  9
$DIMALT
 70
     0
  9
$DIMALTD
 70
     2
  9
$DIMALTF
 40
25.4
  9
$DIMLFAC
 40
1.0
  9
$DIMTOFL
 70
     0
  9
$DIMTVP
 40
0.0
  9
$DIMTIX
 70
     0
  9
$DIMSOXD
 70
     0
  9
$DIMSAH
 70
     0
  9
$DIMBLK1
  1

  9
$DIMBLK2
  1

  9
$DIMSTYLE
  2
STANDARD
  9
$DIMCLRD
 70
     0
  9
$DIMCLRE
 70
     0
  9
$DIMCLRT
 70
     0
  9
$DIMTFAC
 40
1.0
  9
$DIMGAP
 40
0.09
  9
$LUNITS
 70
     2
  9
$LUPREC
 70
     4
  9
$SKETCHINC
 40
0.1
  9
$FILLETRAD
 40
0.5
  9
$AUNITS
 70
     0
  9
$AUPREC
 70
     0
  9
$MENU
  1
.
  9
$ELEVATION
 40
0.0
  9
$PELEVATION
 40
0.0
  9
$THICKNESS
 40
0.0
  9
$LIMCHECK
 70
     0
  9
$CHAMFERA
 40
0.5
  9
$CHAMFERB
 40
0.5
  9
$SKPOLY
 70
     0
  9
$TDCREATE
 40
2455609.618093704
  9
$TDUPDATE
 40
2455609.618093704
  9
$TDINDWG
 40
0.0000000116
  9
$TDUSRTIMER
 40
0.0000000116
  9
$USRTIMER
 70
     1
  9
$ANGBASE
 50
0.0
  9
$ANGDIR
 70
     0
  9
$PDMODE
 70
     0
  9
$PDSIZE
 40
0.0
  9
$PLINEWID
 40
0.0
  9
$COORDS
 70
     1
  9
$SPLFRAME
 70
     0
  9
$SPLINETYPE
 70
     6
  9
$SPLINESEGS
 70
     8
  9
$ATTDIA
 70
     0
  9
$ATTREQ
 70
     1
  9
$HANDLING
 70
     1
  9
$HANDSEED
  5
A77
  9
$SURFTAB1
 70
     6
  9
$SURFTAB2
 70
     6
  9
$SURFTYPE
 70
     6
  9
$SURFU
 70
     6
  9
$SURFV
 70
     6
  9
$UCSNAME
  2

  9
$UCSORG
 10
0.0
 20
0.0
 30
0.0
  9
$UCSXDIR
 10
1.0
 20
0.0
 30
0.0
  9
$UCSYDIR
 10
0.0
 20
1.0
 30
0.0
  9
$PUCSNAME
  2

  9
$PUCSORG
 10
0.0
 20
0.0
 30
0.0
  9
$PUCSXDIR
 10
1.0
 20
0.0
 30
0.0
  9
$PUCSYDIR
 10
0.0
 20
1.0
 30
0.0
  9
$USERI1
 70
     0
  9
$USERI2
 70
     0
  9
$USERI3
 70
     0
  9
$USERI4
 70
     0
  9
$USERI5
 70
     0
  9
$USERR1
 40
0.0
  9
$USERR2
 40
0.0
  9
$USERR3
 40
0.0
  9
$USERR4
 40
0.0
  9
$USERR5
 40
0.0
  9
$WORLDVIEW
 70
     1
  9
$SHADEDGE
 70
     3
  9
$SHADEDIF
 70
    70
  9
$TILEMODE
 70
     1
  9
$MAXACTVP
 70
    64
  9
$PLIMCHECK
 70
     0
  9
$PEXTMIN
 10
1.000000000000000E+20
 20
1.000000000000000E+20
 30
1.000000000000000E+20
  9
$PEXTMAX
 10
-1.000000000000000E+20
 20
-1.000000000000000E+20
 30
-1.000000000000000E+20
  9
$PLIMMIN
 10
0.0
 20
0.0
  9
$PLIMMAX
 10
12.0
 20
9.0
  9
$UNITMODE
 70
     0
  9
$VISRETAIN
 70
     1
  9
$PLINEGEN
 70
     0
  9
$PSLTSCALE
 70
     1
  0
ENDSEC
  0
SECTION
  2
TABLES
  0
TABLE
  2
VPORT
 70
     1
  0
VPORT
  2
*ACTIVE
 70
     0
 10
0.0
 20
0.0
 11
1.0
 21
1.0
 12
0.0
 22
0.0
 13
0.0
 23
0.0
 14
0.5
 24
0.5
 15
0.5
 25
0.5
 16
458.663330078125
 26
-458.6632995605469
 36
458.6632995605469
 17
57.75
 27
0.0
 37
17.216064453125
 40
596.3246150975355
 41
1.972972972850329
 42
50.0
 43
0.0
 44
0.0
 50
0.0
 51
0.0
 71
     0
 72
   100
 73
     1
 74
     3
 75
     0
 76
     0
 77
     0
 78
     0
  0
ENDTAB
  0
TABLE
  2
LTYPE
 70
     1
  0
LTYPE
  2
CONTINUOUS
 70
     0
  3
Solid line
 72
    65
 73
     0
 40
0.0
  0
ENDTAB
  0
TABLE
  2
LAYER
 70
     2
  0
LAYER
  2
0
 70
     0
 62
     7
  6
CONTINUOUS
  0
LAYER
  2
LAYER_1
 70
     0
 62
     7
  6
CONTINUOUS
  0
ENDTAB
  0
TABLE
  2
STYLE
 70
     1
  0
STYLE
  2
STANDARD
 70
     0
 40
0.0
 41
1.0
 50
0.0
 71
     0
 42
0.2
  3
txt
  4

  0
ENDTAB
  0
TABLE
  2
VIEW
 70
     0
  0
ENDTAB
  0
TABLE
  2
UCS
 70
     0
  0
ENDTAB
  0
TABLE
  2
APPID
 70
     1
  0
APPID
  2
ACAD
 70
     0
  0
ENDTAB
  0
TABLE
  2
DIMSTYLE
 70
     1
  0
DIMSTYLE
  2
STANDARD
 70
     0
  3

  4

  5

  6

  7

 40
1.0
 41
0.18
 42
0.0625
 43
0.38
 44
0.18
 45
0.0
 46
0.0
 47
0.0
 48
0.0
140
0.18
141
0.09
142
0.0
143
25.4
144
1.0
145
0.0
146
1.0
147
0.09
 71
     0
 72
     0
 73
     1
 74
     1
 75
     0
 76
     0
 77
     0
 78
     0
170
     0
171
     2
172
     0
173
     0
174
     0
175
     0
176
     0
177
     0
178
     0
  0
ENDTAB
  0
ENDSEC
  0
SECTION
  2
BLOCKS
  0
BLOCK
  8
0
  2
$MODEL_SPACE
 70
     0
 10
0.0
 20
0.0
 30
0.0
  3
$MODEL_SPACE
  1

  0
ENDBLK
  5
21
  8
0
  0
BLOCK
 67
     1
  8
0
  2
$PAPER_SPACE
 70
     0
 10
0.0
 20
0.0
 30
0.0
  3
$PAPER_SPACE
  1

  0
ENDBLK
  5
1D
 67
     1
  8
0
  0
BLOCK
  8
0
  2
A4285817_LINEARE_HANDLE_2
 70
     0
 10
0.0
 20
0.0
 30
0.0
  3
A4285817_LINEARE_HANDLE_2
  1

  0
POLYLINE
  5
3C
  8
0
 62
     9
 66
     1
 10
0.0
 20
0.0
 30
0.0
 70
    64
 71
   160
 72
   284
  0
VERTEX
  5
3D
  8
0
 10
15.95978832244873
 20
89.94622039794922
 30
-90.23399353027344
 70
   192
  0
VERTEX
  5
3E
  8
0
 10
17.32159996032715
 20
91.99645233154297
 30
-55.19264602661133
 70
   192
  0
VERTEX
  5
3F
  8
0
 10
17.90116500854492
 20
93.08104705810547
 30
-90.23400115966797
 70
   192
  0
VERTEX
  5
40
  8
0
 10
7.361972808837891
 20
120.5922012329102
 30
-64.0263442993164
 70
   192
  0
VERTEX
  5
41
  8
0
 10
10.50427913665771
 20
118.9491577148438
 30
-90.23400115966797
 70
   192
  0
VERTEX
  5
42
  8
0
 10
10.7142858505249
 20
118.8844451904297
 30
-64.0263442993164
 70
   192
  0
VERTEX
  5
43
  8
0
 10
18.79594421386719
 20
95.15953063964844
 30
-55.19265747070312
 70
   192
  0
VERTEX
  5
44
  8
0
 10
15.32439708709717
 20
89.1444320678711
 30
-55.19263458251953
 70
   192
  0
VERTEX
  5
45
  8
0
 10
13.47106647491455
 20
87.2210464477539
 30
-90.23399353027344
 70
   192
  0
VERTEX
  5
46
  8
0
 10
10.52165985107422
 20
85.00183868408203
 30
-90.23399353027344
 70
   192
  0
VERTEX
  5
47
  8
0
 10
12.85727500915527
 20
86.67503356933594
 30
-55.19262313842773
 70
   192
  0
VERTEX
  5
48
  8
0
 10
7.220035076141357
 20
83.35694122314453
 30
-90.23400115966797
 70
   192
  0
VERTEX
  5
49
  8
0
 10
9.965134620666504
 20
84.74557495117188
 30
-55.1926155090332
 70
   192
  0
VERTEX
  5
4A
  8
0
 10
3.672256231307983
 20
82.33790588378906
 30
-90.23400115966797
 70
   192
  0
VERTEX
  5
4B
  8
0
 10
6.814569473266602
 20
83.17596435546875
 30
-55.19261169433594
 70
   192
  0
VERTEX
  5
4C
  8
0
 10
3.435388088226318
 20
82.28192901611328
 30
-55.19260787963867
 70
   192
  0
VERTEX
  5
4D
  8
0
 10
0.0000000000001451
 20
81.9963607788086
 30
-90.23400115966797
 70
   192
  0
VERTEX
  5
4E
  8
0
 10
0.000000000000166
 20
81.99649810791016
 30
-55.19260787963867
 70
   192
  0
VERTEX
  5
4F
  8
0
 10
19.23546409606934
 20
96.52257537841797
 30
-90.23400115966797
 70
   192
  0
VERTEX
  5
50
  8
0
 10
19.6975154876709
 20
98.53050231933594
 30
-55.19267272949219
 70
   192
  0
VERTEX
  5
51
  8
0
 10
19.91429328918457
 20
100.1492004394531
 30
-90.23400115966797
 70
   192
  0
VERTEX
  5
52
  8
0
 10
19.99979019165039
 20
101.9964981079102
 30
-55.19226455688477
 70
   192
  0
VERTEX
  5
53
  8
0
 10
19.91483879089355
 20
103.8387756347656
 30
-90.23400115966797
 70
   192
  0
VERTEX
  5
54
  8
0
 10
19.23728561401367
 20
107.4678497314453
 30
-90.23400115966797
 70
   192
  0
VERTEX
  5
55
  8
0
 10
19.37184906005859
 20
106.9748611450195
 30
-55.16378402709961
 70
   192
  0
VERTEX
  5
56
  8
0
 10
17.90596389770508
 20
110.9071502685547
 30
-90.23400115966797
 70
   192
  0
VERTEX
  5
57
  8
0
 10
17.55329322814941
 20
111.6054992675781
 30
-55.08512115478516
 70
   192
  0
VERTEX
  5
58
  8
0
 10
14.56110572814941
 20
115.6606979370117
 30
-54.97418975830078
 70
   192
  0
VERTEX
  5
59
  8
0
 10
15.96374893188477
 20
114.0469284057617
 30
-90.23400115966797
 70
   192
  0
VERTEX
  5
5A
  8
0
 10
10.7142858505249
 20
118.8844833374023
 30
-54.86014175415039
 70
   192
  0
VERTEX
  5
5B
  8
0
 10
13.47957324981689
 20
116.7734146118164
 30
-90.23400115966797
 70
   192
  0
VERTEX
  5
5C
  8
0
 10
7.236227512359619
 20
120.6592178344727
 30
-90.23400115966797
 70
   192
  0
VERTEX
  5
5D
  8
0
 10
3.751271724700928
 20
121.6412353515625
 30
-64.02635192871094
 70
   192
  0
VERTEX
  5
5E
  8
0
 10
3.678674221038818
 20
121.6566009521484
 30
-90.23400115966797
 70
   192
  0
VERTEX
  5
5F
  8
0
 10
0.000000000000165
 20
121.9963607788086
 30
-90.23400115966797
 70
   192
  0
VERTEX
  5
60
  8
0
 10
0.0000000000001807
 20
121.9964599609375
 30
-64.02635192871094
 70
   192
  0
VERTEX
  5
61
  8
0
 10
-18.13877487182617
 20
95.29621887207031
 30
-54.49347686767578
 70
   192
  0
VERTEX
  5
62
  8
0
 10
-19.25665092468262
 20
100.2475433349609
 30
-54.49349594116211
 70
   192
  0
VERTEX
  5
63
  8
0
 10
-0.000000000101131
 20
101.9964981079102
 30
-54.02627563476562
 70
   192
  0
VERTEX
  5
64
  8
0
 10
-12.30834007263184
 20
87.08673858642578
 30
-54.49344253540039
 70
   192
  0
VERTEX
  5
65
  8
0
 10
-15.76276969909668
 20
90.8005142211914
 30
-54.49345779418945
 70
   192
  0
VERTEX
  5
66
  8
0
 10
-7.723645687103271
 20
84.28131866455078
 30
-54.49343109130859
 70
   192
  0
VERTEX
  5
67
  8
0
 10
1.930160641670227
 20
82.75927734375
 30
-54.49342727661133
 70
   192
  0
VERTEX
  5
68
  8
0
 10
-2.83742094039917
 20
82.87708282470703
 30
-54.49342727661133
 70
   192
  0
VERTEX
  5
69
  8
0
 10
7.283453464508057
 20
84.08377075195312
 30
-54.49343109130859
 70
   192
  0
VERTEX
  5
6A
  8
0
 10
16.23148536682129
 20
91.49553680419922
 30
-54.49346160888672
 70
   192
  0
VERTEX
  5
6B
  8
0
 10
12.29418468475342
 20
87.0767593383789
 30
-54.49344253540039
 70
   192
  0
VERTEX
  5
6C
  8
0
 10
18.59457397460938
 20
96.72632598876953
 30
-54.49348068237305
 70
   192
  0
VERTEX
  5
6D
  8
0
 10
19.33381271362305
 20
101.9964981079102
 30
-54.49349975585938
 70
   192
  0
VERTEX
  5
6E
  8
0
 10
0.0000000000016731
 20
150.5000305175781
 30
-54.23161315917969
 70
   192
  0
VERTEX
  5
6F
  8
0
 10
-4.0
 20
150.7050476074219
 30
-54.74661254882812
 70
   192
  0
VERTEX
  5
70
  8
0
 10
0.0000000000775104
 20
150.7050476074219
 30
-54.74661254882812
 70
   192
  0
VERTEX
  5
71
  8
0
 10
0.000000000077654
 20
150.0050506591797
 30
-54.02658462524414
 70
   192
  0
VERTEX
  5
72
  8
0
 10
-4.004955291748047
 20
150.5000305175781
 30
-54.25165939331055
 70
   192
  0
VERTEX
  5
73
  8
0
 10
-4.007008075714111
 20
150.0050506591797
 30
-54.0466423034668
 70
   192
  0
VERTEX
  5
74
  8
0
 10
-5.635245323181152
 20
149.3321075439453
 30
-54.06620407104492
 70
   192
  0
VERTEX
  5
75
  8
0
 10
-6.31103515625
 20
147.7050628662109
 30
-54.07633590698242
 70
   192
  0
VERTEX
  5
76
  8
0
 10
-5.982225894927979
 20
149.6790008544922
 30
-54.27372741699219
 70
   192
  0
VERTEX
  5
77
  8
0
 10
-6.116315841674805
 20
149.8167266845703
 30
-54.76619720458984
 70
   192
  0
VERTEX
  5
78
  8
0
 10
-6.798498630523682
 20
147.7050628662109
 30
-54.28469848632812
 70
   192
  0
VERTEX
  5
79
  8
0
 10
-7.0
 20
147.7050476074219
 30
-54.77618789672852
 70
   192
  0
VERTEX
  5
7A
  8
0
 10
-4.0
 20
150.7050170898438
 30
-64.0264663696289
 70
   192
  0
VERTEX
  5
7B
  8
0
 10
3.999998092651367
 20
150.7050170898438
 30
-64.0264663696289
 70
   192
  0
VERTEX
  5
7C
  8
0
 10
4.0
 20
150.7050476074219
 30
-54.74661254882812
 70
   192
  0
VERTEX
  5
7D
  8
0
 10
5.635986804962158
 20
149.3322601318359
 30
-54.06613922119141
 70
   192
  0
VERTEX
  5
7E
  8
0
 10
5.980815410614014
 20
149.6804046630859
 30
-54.27371215820312
 70
   192
  0
VERTEX
  5
7F
  8
0
 10
6.798498630523682
 20
147.7050628662109
 30
-54.28469848632812
 70
   192
  0
VERTEX
  5
80
  8
0
 10
4.007008075714111
 20
150.0050506591797
 30
-54.0466423034668
 70
   192
  0
VERTEX
  5
81
  8
0
 10
6.311036586761475
 20
147.7050628662109
 30
-54.07633590698242
 70
   192
  0
VERTEX
  5
82
  8
0
 10
6.097765445709229
 20
149.8231048583984
 30
-54.7658805847168
 70
   192
  0
VERTEX
  5
83
  8
0
 10
7.0
 20
147.7050476074219
 30
-54.77624893188477
 70
   192
  0
VERTEX
  5
84
  8
0
 10
4.004955291748047
 20
150.5000305175781
 30
-54.25165939331055
 70
   192
  0
VERTEX
  5
85
  8
0
 10
-0.0000000000597744
 20
147.7050323486328
 30
-54.07621383666992
 70
   192
  0
VERTEX
  5
86
  8
0
 10
-6.311037540435791
 20
125.6396789550781
 30
-54.07612609863281
 70
   192
  0
VERTEX
  5
87
  8
0
 10
-6.798861980438232
 20
125.6396789550781
 30
-54.28498077392578
 70
   192
  0
VERTEX
  5
88
  8
0
 10
-7.0
 20
125.6396789550781
 30
-54.77603912353516
 70
   192
  0
VERTEX
  5
89
  8
0
 10
-6.121319770812988
 20
149.8263397216797
 30
-64.02645874023438
 70
   192
  0
VERTEX
  5
8A
  8
0
 10
-7.0
 20
147.7050170898438
 30
-64.02645111083984
 70
   192
  0
VERTEX
  5
8B
  8
0
 10
6.121319770812988
 20
149.8263397216797
 30
-64.02645874023438
 70
   192
  0
VERTEX
  5
8C
  8
0
 10
7.0
 20
147.7050170898438
 30
-64.02645111083984
 70
   192
  0
VERTEX
  5
8D
  8
0
 10
7.0
 20
125.6396789550781
 30
-54.77603912353516
 70
   192
  0
VERTEX
  5
8E
  8
0
 10
6.798861980438232
 20
125.6396789550781
 30
-54.28498077392578
 70
   192
  0
VERTEX
  5
8F
  8
0
 10
6.311037540435791
 20
125.6396789550781
 30
-54.07612609863281
 70
   192
  0
VERTEX
  5
90
  8
0
 10
-8.193720817565918
 20
120.2405395507812
 30
-54.1104736328125
 70
   192
  0
VERTEX
  5
91
  8
0
 10
-8.577427864074707
 20
120.5399398803711
 30
-54.31919860839844
 70
   192
  0
VERTEX
  5
92
  8
0
 10
-6.793740749359131
 20
122.7862854003906
 30
-54.08413314819336
 70
   192
  0
VERTEX
  5
93
  8
0
 10
-7.526611328125
 20
122.8080749511719
 30
-54.78540802001953
 70
   192
  0
VERTEX
  5
94
  8
0
 10
-7.256626605987549
 20
122.9384002685547
 30
-54.2929801940918
 70
   192
  0
VERTEX
  5
95
  8
0
 10
-8.860660552978516
 20
120.5153579711914
 30
-54.81314468383789
 70
   192
  0
VERTEX
  5
96
  8
0
 10
-10.7142858505249
 20
118.8844833374023
 30
-54.86014175415039
 70
   192
  0
VERTEX
  5
97
  8
0
 10
-10.61535263061523
 20
118.70849609375
 30
-54.36872482299805
 70
   192
  0
VERTEX
  5
98
  8
0
 10
-10.35739994049072
 20
118.2934112548828
 30
-54.16037368774414
 70
   192
  0
VERTEX
  5
99
  8
0
 10
-7.0
 20
125.6396408081055
 30
-64.0263671875
 70
   192
  0
VERTEX
  5
9A
  8
0
 10
7.44169807434082
 20
123.021354675293
 30
-64.02635955810547
 70
   192
  0
VERTEX
  5
9B
  8
0
 10
8.7547607421875
 20
120.6443862915039
 30
-64.02635192871094
 70
   192
  0
VERTEX
  5
9C
  8
0
 10
-10.7142858505249
 20
118.8844451904297
 30
-64.0263442993164
 70
   192
  0
VERTEX
  5
9D
  8
0
 10
-7.356414318084717
 20
120.594108581543
 30
-64.0263442993164
 70
   192
  0
VERTEX
  5
9E
  8
0
 10
-8.740870475769043
 20
120.6589508056641
 30
-64.02635192871094
 70
   192
  0
VERTEX
  5
9F
  8
0
 10
7.0
 20
125.6396331787109
 30
-64.0263671875
 70
   192
  0
VERTEX
  5
A0
  8
0
 10
-3.745559215545654
 20
121.6426086425781
 30
-64.02635192871094
 70
   192
  0
VERTEX
  5
A1
  8
0
 10
-7.436769485473633
 20
123.0408782958984
 30
-64.02635955810547
 70
   192
  0
VERTEX
  5
A2
  8
0
 10
7.508446216583252
 20
122.8242416381836
 30
-54.78537750244141
 70
   192
  0
VERTEX
  5
A3
  8
0
 10
8.576639175415039
 20
120.5409393310547
 30
-54.31917953491211
 70
   192
  0
VERTEX
  5
A4
  8
0
 10
7.256202697753906
 20
122.9395980834961
 30
-54.29297256469727
 70
   192
  0
VERTEX
  5
A5
  8
0
 10
6.799251556396484
 20
122.7719573974609
 30
-54.08389663696289
 70
   192
  0
VERTEX
  5
A6
  8
0
 10
8.202675819396973
 20
120.2285003662109
 30
-54.11019515991211
 70
   192
  0
VERTEX
  5
A7
  8
0
 10
10.61535263061523
 20
118.70849609375
 30
-54.36872482299805
 70
   192
  0
VERTEX
  5
A8
  8
0
 10
10.35739994049072
 20
118.2934112548828
 30
-54.16037368774414
 70
   192
  0
VERTEX
  5
A9
  8
0
 10
8.850287437438965
 20
120.5135040283203
 30
-54.8132438659668
 70
   192
  0
VERTEX
  5
AA
  8
0
 10
16.94086456298828
 20
111.2970428466797
 30
-54.38499069213867
 70
   192
  0
VERTEX
  5
AB
  8
0
 10
14.08772468566895
 20
115.2146530151367
 30
-54.27433013916016
 70
   192
  0
VERTEX
  5
AC
  8
0
 10
-14.08903121948242
 20
115.213264465332
 30
-54.27437591552734
 70
   192
  0
VERTEX
  5
AD
  8
0
 10
-19.33381271362305
 20
101.9964981079102
 30
-54.49349975585938
 70
   192
  0
VERTEX
  5
AE
  8
0
 10
-18.72763824462891
 20
106.7914123535156
 30
-54.46466445922852
 70
   192
  0
VERTEX
  5
AF
  8
0
 10
-16.94168853759766
 20
111.2955474853516
 30
-54.38502502441406
 70
   192
  0
VERTEX
  5
B0
  8
0
 10
18.72713279724121
 20
106.7933883666992
 30
-54.46464157104492
 70
   192
  0
VERTEX
  5
B1
  8
0
 10
-19.37079620361328
 20
106.9740905761719
 30
-55.16381072998047
 70
   192
  0
VERTEX
  5
B2
  8
0
 10
-19.80714225769043
 20
101.9964981079102
 30
-54.71018218994141
 70
   192
  0
VERTEX
  5
B3
  8
0
 10
-20.00078010559082
 20
101.9964981079102
 30
-55.19321441650391
 70
   192
  0
VERTEX
  5
B4
  8
0
 10
-19.18648529052734
 20
106.9116897583008
 30
-54.68030548095703
 70
   192
  0
VERTEX
  5
B5
  8
0
 10
-17.52672958374023
 20
111.6229858398438
 30
-55.08461380004883
 70
   192
  0
VERTEX
  5
B6
  8
0
 10
-17.35853958129883
 20
111.5297241210938
 30
-54.59878921508789
 70
   192
  0
VERTEX
  5
B7
  8
0
 10
-14.6100959777832
 20
115.6312713623047
 30
-54.97565460205078
 70
   192
  0
VERTEX
  5
B8
  8
0
 10
-14.43775653839111
 20
115.547966003418
 30
-54.48550033569336
 70
   192
  0
VERTEX
  5
B9
  8
0
 10
17.35769462585449
 20
111.5312652587891
 30
-54.5987548828125
 70
   192
  0
VERTEX
  5
BA
  8
0
 10
14.4364185333252
 20
115.5493850708008
 30
-54.48545074462891
 70
   192
  0
VERTEX
  5
BB
  8
0
 10
19.80714225769043
 20
101.9964981079102
 30
-54.71018218994141
 70
   192
  0
VERTEX
  5
BC
  8
0
 10
19.18596649169922
 20
106.9137115478516
 30
-54.68027877807617
 70
   192
  0
VERTEX
  5
BD
  8
0
 10
11.51926326751709
 20
85.88521575927734
 30
-54.70743942260742
 70
   192
  0
VERTEX
  5
BE
  8
0
 10
16.12066650390625
 20
90.50536346435547
 30
-54.70745849609375
 70
   192
  0
VERTEX
  5
BF
  8
0
 10
18.92469596862793
 20
96.1954345703125
 30
-54.70748138427734
 70
   192
  0
VERTEX
  5
C0
  8
0
 10
5.841877460479736
 20
83.06647491455078
 30
-54.70742797851562
 70
   192
  0
VERTEX
  5
C1
  8
0
 10
0.0000000800946083
 20
82.19192504882812
 30
-54.70742416381836
 70
   192
  0
VERTEX
  5
C2
  8
0
 10
-11.49113750457764
 20
85.8758316040039
 30
-54.70743942260742
 70
   192
  0
VERTEX
  5
C3
  8
0
 10
-14.1422061920166
 20
87.85482025146484
 30
-55.19263076782227
 70
   192
  0
VERTEX
  5
C4
  8
0
 10
-16.11128044128418
 20
90.47723388671875
 30
-54.70745849609375
 70
   192
  0
VERTEX
  5
C5
  8
0
 10
-7.623887062072754
 20
83.51396179199219
 30
-55.19261169433594
 70
   192
  0
VERTEX
  5
C6
  8
0
 10
-11.07502746582031
 20
85.35645294189453
 30
-55.19261932373047
 70
   192
  0
VERTEX
  5
C7
  8
0
 10
-5.801061630249023
 20
83.0718002319336
 30
-54.70742797851562
 70
   192
  0
VERTEX
  5
C8
  8
0
 10
-18.93002128601074
 20
96.15462493896484
 30
-54.70748138427734
 70
   192
  0
VERTEX
  5
C9
  8
0
 10
-18.47538185119629
 20
94.34038543701172
 30
-55.19265365600586
 70
   192
  0
VERTEX
  5
CA
  8
0
 10
-19.61338806152344
 20
98.08924102783203
 30
-55.19266891479492
 70
   192
  0
VERTEX
  5
CB
  8
0
 10
-3.85700535774231
 20
82.37823486328125
 30
-55.19260787963867
 70
   192
  0
VERTEX
  5
CC
  8
0
 10
-16.63066482543945
 20
90.88710021972656
 30
-55.19264221191406
 70
   192
  0
VERTEX
  5
CD
  8
0
 10
-3.678674221038818
 20
82.33612060546875
 30
-90.23400115966797
 70
   192
  0
VERTEX
  5
CE
  8
0
 10
-15.96374893188477
 20
89.94579315185547
 30
-90.23399353027344
 70
   192
  0
VERTEX
  5
CF
  8
0
 10
-13.47957324981689
 20
87.21930694580078
 30
-90.23399353027344
 70
   192
  0
VERTEX
  5
D0
  8
0
 10
-7.236227512359619
 20
83.33350372314453
 30
-90.23400115966797
 70
   192
  0
VERTEX
  5
D1
  8
0
 10
-10.50427913665771
 20
85.0435562133789
 30
-90.23399353027344
 70
   192
  0
VERTEX
  5
D2
  8
0
 10
-19.91483879089355
 20
100.1539459228516
 30
-90.23400115966797
 70
   192
  0
VERTEX
  5
D3
  8
0
 10
-17.90596389770508
 20
93.0855712890625
 30
-90.23400115966797
 70
   192
  0
VERTEX
  5
D4
  8
0
 10
-19.23728561401367
 20
96.52487182617188
 30
-90.23400115966797
 70
   192
  0
VERTEX
  5
D5
  8
0
 10
-17.90116500854492
 20
110.9116744995117
 30
-90.23400115966797
 70
   192
  0
VERTEX
  5
D6
  8
0
 10
-15.95978832244873
 20
114.046501159668
 30
-90.23400115966797
 70
   192
  0
VERTEX
  5
D7
  8
0
 10
-19.23546409606934
 20
107.4701385498047
 30
-90.23400115966797
 70
   192
  0
VERTEX
  5
D8
  8
0
 10
-19.91429328918457
 20
103.8435134887695
 30
-90.23400115966797
 70
   192
  0
VERTEX
  5
D9
  8
0
 10
-13.47106647491455
 20
116.7716751098633
 30
-90.23400115966797
 70
   192
  0
VERTEX
  5
DA
  8
0
 10
-7.220035076141357
 20
120.6357803344727
 30
-90.23400115966797
 70
   192
  0
VERTEX
  5
DB
  8
0
 10
-10.52165985107422
 20
118.9908828735352
 30
-90.23400115966797
 70
   192
  0
VERTEX
  5
DC
  8
0
 10
-3.672256231307983
 20
121.6548156738281
 30
-90.23400115966797
 70
   192
  0
VERTEX
  5
DD
  8
0
 62
     9
 10
0.0
 20
0.0
 30
0.0
 70
   128
 71
     3
 72
     2
 73
     1
  0
VERTEX
  5
DE
  8
0
 62
     9
 10
0.0
 20
0.0
 30
0.0
 70
   128
 71
     6
 72
     5
 73
     4
  0
VERTEX
  5
DF
  8
0
 62
     9
 10
0.0
 20
0.0
 30
0.0
 70
   128
 71
     7
 72
     2
 73
     3
  0
VERTEX
  5
E0
  8
0
 62
     9
 10
0.0
 20
0.0
 30
0.0
 70
   128
 71
     2
 72
     8
 73
     1
  0
VERTEX
  5
E1
  8
0
 62
     9
 10
0.0
 20
0.0
 30
0.0
 70
   128
 71
    11
 72
    10
 73
     9
  0
VERTEX
  5
E2
  8
0
 62
     9
 10
0.0
 20
0.0
 30
0.0
 70
   128
 71
     1
 72
     8
 73
     9
  0
VERTEX
  5
E3
  8
0
 62
     9
 10
0.0
 20
0.0
 30
0.0
 70
   128
 71
    13
 72
    12
 73
    10
  0
VERTEX
  5
E4
  8
0
 62
     9
 10
0.0
 20
0.0
 30
0.0
 70
   128
 71
    10
 72
    11
 73
    13
  0
VERTEX
  5
E5
  8
0
 62
     9
 10
0.0
 20
0.0
 30
0.0
 70
   128
 71
    12
 72
    15
 73
    14
  0
VERTEX
  5
E6
  8
0
 62
     9
 10
0.0
 20
0.0
 30
0.0
 70
   128
 71
    15
 72
    12
 73
    13
  0
VERTEX
  5
E7
  8
0
 62
     9
 10
0.0
 20
0.0
 30
0.0
 70
   128
 71
    17
 72
    14
 73
    16
  0
VERTEX
  5
E8
  8
0
 62
     9
 10
0.0
 20
0.0
 30
0.0
 70
   128
 71
    15
 72
    16
 73
    14
  0
VERTEX
  5
E9
  8
0
 62
     9
 10
0.0
 20
0.0
 30
0.0
 70
   128
 71
    17
 72
    16
 73
    18
  0
VERTEX
  5
EA
  8
0
 62
     9
 10
0.0
 20
0.0
 30
0.0
 70
   128
 71
     9
 72
     8
 73
    11
  0
VERTEX
  5
EB
  8
0
 62
     9
 10
0.0
 20
0.0
 30
0.0
 70
   128
 71
     3
 72
    19
 73
     7
  0
VERTEX
  5
EC
  8
0
 62
     9
 10
0.0
 20
0.0
 30
0.0
 70
   128
 71
    21
 72
    20
 73
    19
  0
VERTEX
  5
ED
  8
0
 62
     9
 10
0.0
 20
0.0
 30
0.0
 70
   128
 71
     7
 72
    19
 73
    20
  0
VERTEX
  5
EE
  8
0
 62
     9
 10
0.0
 20
0.0
 30
0.0
 70
   128
 71
    21
 72
    23
 73
    22
  0
VERTEX
  5
EF
  8
0
 62
     9
 10
0.0
 20
0.0
 30
0.0
 70
   128
 71
    22
 72
    20
 73
    21
  0
VERTEX
  5
F0
  8
0
 62
     9
 10
0.0
 20
0.0
 30
0.0
 70
   128
 71
    25
 72
    23
 73
    24
  0
VERTEX
  5
F1
  8
0
 62
     9
 10
0.0
 20
0.0
 30
0.0
 70
   128
 71
    23
 72
    25
 73
    22
  0
VERTEX
  5
F2
  8
0
 62
     9
 10
0.0
 20
0.0
 30
0.0
 70
   128
 71
    27
 72
    25
 73
    26
  0
VERTEX
  5
F3
  8
0
 62
     9
 10
0.0
 20
0.0
 30
0.0
 70
   128
 71
    24
 72
    26
 73
    25
  0
VERTEX
  5
F4
  8
0
 62
     9
 10
0.0
 20
0.0
 30
0.0
 70
   128
 71
    29
 72
    28
 73
    27
  0
VERTEX
  5
F5
  8
0
 62
     9
 10
0.0
 20
0.0
 30
0.0
 70
   128
 71
    27
 72
    26
 73
    29
  0
VERTEX
  5
F6
  8
0
 62
     9
 10
0.0
 20
0.0
 30
0.0
 70
   128
 71
    28
 72
    31
 73
    30
  0
VERTEX
  5
F7
  8
0
 62
     9
 10
0.0
 20
0.0
 30
0.0
 70
   128
 71
    31
 72
    28
 73
    29
  0
VERTEX
  5
F8
  8
0
 62
     9
 10
0.0
 20
0.0
 30
0.0
 70
   128
 71
    34
 72
    33
 73
    32
  0
VERTEX
  5
F9
  8
0
 62
     9
 10
0.0
 20
0.0
 30
0.0
 70
   128
 71
    32
 72
     4
 73
     5
  0
VERTEX
  5
FA
  8
0
 62
     9
 10
0.0
 20
0.0
 30
0.0
 70
   128
 71
    36
 72
    34
 73
    35
  0
VERTEX
  5
FB
  8
0
 62
     9
 10
0.0
 20
0.0
 30
0.0
 70
   128
 71
    36
 72
    33
 73
    34
  0
VERTEX
  5
FC
  8
0
 62
     9
 10
0.0
 20
0.0
 30
0.0
 70
   128
 71
    33
 72
     4
 73
    32
  0
VERTEX
  5
FD
  8
0
 62
     9
 10
0.0
 20
0.0
 30
0.0
 70
   128
 71
    31
 72
     6
 73
    30
  0
VERTEX
  5
FE
  8
0
 62
     9
 10
0.0
 20
0.0
 30
0.0
 70
   128
 71
     5
 72
     6
 73
    31
  0
VERTEX
  5
FF
  8
0
 62
     9
 10
0.0
 20
0.0
 30
0.0
 70
   128
 71
    39
 72
    38
 73
    37
  0
VERTEX
  5
100
  8
0
 62
     9
 10
0.0
 20
0.0
 30
0.0
 70
   128
 71
    41
 72
    40
 73
    39
  0
VERTEX
  5
101
  8
0
 62
     9
 10
0.0
 20
0.0
 30
0.0
 70
   128
 71
    37
 72
    41
 73
    39
  0
VERTEX
  5
102
  8
0
 62
     9
 10
0.0
 20
0.0
 30
0.0
 70
   128
 71
    39
 72
    40
 73
    42
  0
VERTEX
  5
103
  8
0
 62
     9
 10
0.0
 20
0.0
 30
0.0
 70
   128
 71
    44
 72
    43
 73
    39
  0
VERTEX
  5
104
  8
0
 62
     9
 10
0.0
 20
0.0
 30
0.0
 70
   128
 71
    42
 72
    44
 73
    39
  0
VERTEX
  5
105
  8
0
 62
     9
 10
0.0
 20
0.0
 30
0.0
 70
   128
 71
    39
 72
    43
 73
    45
  0
VERTEX
  5
106
  8
0
 62
     9
 10
0.0
 20
0.0
 30
0.0
 70
   128
 71
    39
 72
    47
 73
    46
  0
VERTEX
  5
107
  8
0
 62
     9
 10
0.0
 20
0.0
 30
0.0
 70
   128
 71
    47
 72
    39
 73
    45
  0
VERTEX
  5
108
  8
0
 62
     9
 10
0.0
 20
0.0
 30
0.0
 70
   128
 71
    46
 72
    48
 73
    39
  0
VERTEX
  5
109
  8
0
 62
     9
 10
0.0
 20
0.0
 30
0.0
 70
   128
 71
    39
 72
    48
 73
    49
  0
VERTEX
  5
10A
  8
0
 62
     9
 10
0.0
 20
0.0
 30
0.0
 70
   128
 71
    52
 72
    51
 73
    50
  0
VERTEX
  5
10B
  8
0
 62
     9
 10
0.0
 20
0.0
 30
0.0
 70
   128
 71
    50
 72
    54
 73
    53
  0
VERTEX
  5
10C
  8
0
 62
     9
 10
0.0
 20
0.0
 30
0.0
 70
   128
 71
    51
 72
    54
 73
    50
  0
VERTEX
  5
10D
  8
0
 62
     9
 10
0.0
 20
0.0
 30
0.0
 70
   128
 71
    54
 72
    55
 73
    53
  0
VERTEX
  5
10E
  8
0
 62
     9
 10
0.0
 20
0.0
 30
0.0
 70
   128
 71
    58
 72
    57
 73
    56
  0
VERTEX
  5
10F
  8
0
 62
     9
 10
0.0
 20
0.0
 30
0.0
 70
   128
 71
    61
 72
    60
 73
    59
  0
VERTEX
  5
110
  8
0
 62
     9
 10
0.0
 20
0.0
 30
0.0
 70
   128
 71
    57
 72
    58
 73
    60
  0
VERTEX
  5
111
  8
0
 62
     9
 10
0.0
 20
0.0
 30
0.0
 70
   128
 71
    59
 72
    58
 73
    51
  0
VERTEX
  5
112
  8
0
 62
     9
 10
0.0
 20
0.0
 30
0.0
 70
   128
 71
    54
 72
    56
 73
    55
  0
VERTEX
  5
113
  8
0
 62
     9
 10
0.0
 20
0.0
 30
0.0
 70
   128
 71
    54
 72
    58
 73
    56
  0
VERTEX
  5
114
  8
0
 62
     9
 10
0.0
 20
0.0
 30
0.0
 70
   128
 71
    58
 72
    54
 73
    51
  0
VERTEX
  5
115
  8
0
 62
     9
 10
0.0
 20
0.0
 30
0.0
 70
   128
 71
    60
 72
    58
 73
    59
  0
VERTEX
  5
116
  8
0
 62
     9
 10
0.0
 20
0.0
 30
0.0
 70
   128
 71
    51
 72
    52
 73
    62
  0
VERTEX
  5
117
  8
0
 62
     9
 10
0.0
 20
0.0
 30
0.0
 70
   128
 71
    63
 72
    62
 73
    52
  0
VERTEX
  5
118
  8
0
 62
     9
 10
0.0
 20
0.0
 30
0.0
 70
   128
 71
    52
 72
    64
 73
    63
  0
VERTEX
  5
119
  8
0
 62
     9
 10
0.0
 20
0.0
 30
0.0
 70
   128
 71
    67
 72
    66
 73
    65
  0
VERTEX
  5
11A
  8
0
 62
     9
 10
0.0
 20
0.0
 30
0.0
 70
   128
 71
    66
 72
    68
 73
    65
  0
VERTEX
  5
11B
  8
0
 62
     9
 10
0.0
 20
0.0
 30
0.0
 70
   128
 71
    65
 72
    69
 73
    67
  0
VERTEX
  5
11C
  8
0
 62
     9
 10
0.0
 20
0.0
 30
0.0
 70
   128
 71
    71
 72
    70
 73
    66
  0
VERTEX
  5
11D
  8
0
 62
     9
 10
0.0
 20
0.0
 30
0.0
 70
   128
 71
    70
 72
    64
 73
    72
  0
VERTEX
  5
11E
  8
0
 62
     9
 10
0.0
 20
0.0
 30
0.0
 70
   128
 71
    66
 72
    67
 73
    71
  0
VERTEX
  5
11F
  8
0
 62
     9
 10
0.0
 20
0.0
 30
0.0
 70
   128
 71
    72
 72
    66
 73
    70
  0
VERTEX
  5
120
  8
0
 62
     9
 10
0.0
 20
0.0
 30
0.0
 70
   128
 71
    72
 72
    68
 73
    66
  0
VERTEX
  5
121
  8
0
 62
     9
 10
0.0
 20
0.0
 30
0.0
 70
   128
 71
    50
 72
    68
 73
    72
  0
VERTEX
  5
122
  8
0
 62
     9
 10
0.0
 20
0.0
 30
0.0
 70
   128
 71
    52
 72
    72
 73
    64
  0
VERTEX
  5
123
  8
0
 62
     9
 10
0.0
 20
0.0
 30
0.0
 70
   128
 71
    50
 72
    53
 73
    68
  0
VERTEX
  5
124
  8
0
 62
     9
 10
0.0
 20
0.0
 30
0.0
 70
   128
 71
    72
 72
    52
 73
    50
  0
VERTEX
  5
125
  8
0
 62
     9
 10
0.0
 20
0.0
 30
0.0
 70
   128
 71
    56
 72
    73
 73
    55
  0
VERTEX
  5
126
  8
0
 62
     9
 10
0.0
 20
0.0
 30
0.0
 70
   128
 71
    73
 72
    56
 73
    57
  0
VERTEX
  5
127
  8
0
 62
     9
 10
0.0
 20
0.0
 30
0.0
 70
   128
 71
    53
 72
    55
 73
    73
  0
VERTEX
  5
128
  8
0
 62
     9
 10
0.0
 20
0.0
 30
0.0
 70
   128
 71
    74
 72
    57
 73
    60
  0
VERTEX
  5
129
  8
0
 62
     9
 10
0.0
 20
0.0
 30
0.0
 70
   128
 71
    76
 72
    75
 73
    61
  0
VERTEX
  5
12A
  8
0
 62
     9
 10
0.0
 20
0.0
 30
0.0
 70
   128
 71
    74
 72
    60
 73
    75
  0
VERTEX
  5
12B
  8
0
 62
     9
 10
0.0
 20
0.0
 30
0.0
 70
   128
 71
    75
 72
    60
 73
    61
  0
VERTEX
  5
12C
  8
0
 62
     9
 10
0.0
 20
0.0
 30
0.0
 70
   128
 71
    78
 72
    61
 73
    77
  0
VERTEX
  5
12D
  8
0
 62
     9
 10
0.0
 20
0.0
 30
0.0
 70
   128
 71
    77
 72
    59
 73
    62
  0
VERTEX
  5
12E
  8
0
 62
     9
 10
0.0
 20
0.0
 30
0.0
 70
   128
 71
    61
 72
    59
 73
    77
  0
VERTEX
  5
12F
  8
0
 62
     9
 10
0.0
 20
0.0
 30
0.0
 70
   128
 71
    59
 72
    51
 73
    62
  0
VERTEX
  5
130
  8
0
 62
     9
 10
0.0
 20
0.0
 30
0.0
 70
   128
 71
    71
 72
    80
 73
    79
  0
VERTEX
  5
131
  8
0
 62
     9
 10
0.0
 20
0.0
 30
0.0
 70
   128
 71
    64
 72
    70
 73
    63
  0
VERTEX
  5
132
  8
0
 62
     9
 10
0.0
 20
0.0
 30
0.0
 70
   128
 71
    79
 72
    63
 73
    70
  0
VERTEX
  5
133
  8
0
 62
     9
 10
0.0
 20
0.0
 30
0.0
 70
   128
 71
    79
 72
    70
 73
    71
  0
VERTEX
  5
134
  8
0
 62
     9
 10
0.0
 20
0.0
 30
0.0
 70
   128
 71
    81
 72
    71
 73
    67
  0
VERTEX
  5
135
  8
0
 62
     9
 10
0.0
 20
0.0
 30
0.0
 70
   128
 71
    83
 72
    82
 73
    69
  0
VERTEX
  5
136
  8
0
 62
     9
 10
0.0
 20
0.0
 30
0.0
 70
   128
 71
    81
 72
    67
 73
    82
  0
VERTEX
  5
137
  8
0
 62
     9
 10
0.0
 20
0.0
 30
0.0
 70
   128
 71
    82
 72
    67
 73
    69
  0
VERTEX
  5
138
  8
0
 62
     9
 10
0.0
 20
0.0
 30
0.0
 70
   128
 71
    69
 72
    65
 73
    73
  0
VERTEX
  5
139
  8
0
 62
     9
 10
0.0
 20
0.0
 30
0.0
 70
   128
 71
    68
 72
    73
 73
    65
  0
VERTEX
  5
13A
  8
0
 62
     9
 10
0.0
 20
0.0
 30
0.0
 70
   128
 71
    68
 72
    53
 73
    73
  0
VERTEX
  5
13B
  8
0
 62
     9
 10
0.0
 20
0.0
 30
0.0
 70
   128
 71
    86
 72
    85
 73
    84
  0
VERTEX
  5
13C
  8
0
 62
     9
 10
0.0
 20
0.0
 30
0.0
 70
   128
 71
    76
 72
    87
 73
    75
  0
VERTEX
  5
13D
  8
0
 62
     9
 10
0.0
 20
0.0
 30
0.0
 70
   128
 71
    89
 72
    85
 73
    88
  0
VERTEX
  5
13E
  8
0
 62
     9
 10
0.0
 20
0.0
 30
0.0
 70
   128
 71
    91
 72
    85
 73
    90
  0
VERTEX
  5
13F
  8
0
 62
     9
 10
0.0
 20
0.0
 30
0.0
 70
   128
 71
    86
 72
    88
 73
    85
  0
VERTEX
  5
140
  8
0
 62
     9
 10
0.0
 20
0.0
 30
0.0
 70
   128
 71
    75
 72
    87
 73
    88
  0
VERTEX
  5
141
  8
0
 62
     9
 10
0.0
 20
0.0
 30
0.0
 70
   128
 71
    92
 72
    84
 73
    91
  0
VERTEX
  5
142
  8
0
 62
     9
 10
0.0
 20
0.0
 30
0.0
 70
   128
 71
    88
 72
    74
 73
    75
  0
VERTEX
  5
143
  8
0
 62
     9
 10
0.0
 20
0.0
 30
0.0
 70
   128
 71
    85
 72
    89
 73
    90
  0
VERTEX
  5
144
  8
0
 62
     9
 10
0.0
 20
0.0
 30
0.0
 70
   128
 71
    84
 72
    85
 73
    91
  0
VERTEX
  5
145
  8
0
 62
     9
 10
0.0
 20
0.0
 30
0.0
 70
   128
 71
    86
 72
    74
 73
    88
  0
VERTEX
  5
146
  8
0
 62
     9
 10
0.0
 20
0.0
 30
0.0
 70
   128
 71
    88
 72
    87
 73
    89
  0
VERTEX
  5
147
  8
0
 62
     9
 10
0.0
 20
0.0
 30
0.0
 70
   128
 71
    78
 72
    93
 73
    61
  0
VERTEX
  5
148
  8
0
 62
     9
 10
0.0
 20
0.0
 30
0.0
 70
   128
 71
    93
 72
    76
 73
    61
  0
VERTEX
  5
149
  8
0
 62
     9
 10
0.0
 20
0.0
 30
0.0
 70
   128
 71
    77
 72
    62
 73
    78
  0
VERTEX
  5
14A
  8
0
 62
     9
 10
0.0
 20
0.0
 30
0.0
 70
   128
 71
    95
 72
     4
 73
    94
  0
VERTEX
  5
14B
  8
0
 62
     9
 10
0.0
 20
0.0
 30
0.0
 70
   128
 71
    63
 72
    80
 73
    62
  0
VERTEX
  5
14C
  8
0
 62
     9
 10
0.0
 20
0.0
 30
0.0
 70
   128
 71
    98
 72
    97
 73
    96
  0
VERTEX
  5
14D
  8
0
 62
     9
 10
0.0
 20
0.0
 30
0.0
 70
   128
 71
    63
 72
    79
 73
    80
  0
VERTEX
  5
14E
  8
0
 62
     9
 10
0.0
 20
0.0
 30
0.0
 70
   128
 71
    80
 72
    78
 73
    62
  0
VERTEX
  5
14F
  8
0
 62
     9
 10
0.0
 20
0.0
 30
0.0
 70
   128
 71
    99
 72
    78
 73
    80
  0
VERTEX
  5
150
  8
0
 62
     9
 10
0.0
 20
0.0
 30
0.0
 70
   128
 71
    99
 72
    94
 73
    33
  0
VERTEX
  5
151
  8
0
 62
     9
 10
0.0
 20
0.0
 30
0.0
 70
   128
 71
    99
 72
    93
 73
    78
  0
VERTEX
  5
152
  8
0
 62
     9
 10
0.0
 20
0.0
 30
0.0
 70
   128
 71
    94
 72
     4
 73
    33
  0
VERTEX
  5
153
  8
0
 62
     9
 10
0.0
 20
0.0
 30
0.0
 70
   128
 71
     6
 72
     4
 73
    95
  0
VERTEX
  5
154
  8
0
 62
     9
 10
0.0
 20
0.0
 30
0.0
 70
   128
 71
    99
 72
    33
 73
    36
  0
VERTEX
  5
155
  8
0
 62
     9
 10
0.0
 20
0.0
 30
0.0
 70
   128
 71
    36
 72
   100
 73
    93
  0
VERTEX
  5
156
  8
0
 62
     9
 10
0.0
 20
0.0
 30
0.0
 70
   128
 71
    93
 72
    99
 73
    36
  0
VERTEX
  5
157
  8
0
 62
     9
 10
0.0
 20
0.0
 30
0.0
 70
   128
 71
   101
 72
   100
 73
    97
  0
VERTEX
  5
158
  8
0
 62
     9
 10
0.0
 20
0.0
 30
0.0
 70
   128
 71
   101
 72
    93
 73
   100
  0
VERTEX
  5
159
  8
0
 62
     9
 10
0.0
 20
0.0
 30
0.0
 70
   128
 71
    98
 72
   101
 73
    97
  0
VERTEX
  5
15A
  8
0
 62
     9
 10
0.0
 20
0.0
 30
0.0
 70
   128
 71
    80
 72
    71
 73
    81
  0
VERTEX
  5
15B
  8
0
 62
     9
 10
0.0
 20
0.0
 30
0.0
 70
   128
 71
    81
 72
    99
 73
    80
  0
VERTEX
  5
15C
  8
0
 62
     9
 10
0.0
 20
0.0
 30
0.0
 70
   128
 71
   104
 72
   103
 73
   102
  0
VERTEX
  5
15D
  8
0
 62
     9
 10
0.0
 20
0.0
 30
0.0
 70
   128
 71
    83
 72
   105
 73
    82
  0
VERTEX
  5
15E
  8
0
 62
     9
 10
0.0
 20
0.0
 30
0.0
 70
   128
 71
   103
 72
   104
 73
   106
  0
VERTEX
  5
15F
  8
0
 62
     9
 10
0.0
 20
0.0
 30
0.0
 70
   128
 71
   103
 72
   108
 73
   107
  0
VERTEX
  5
160
  8
0
 62
     9
 10
0.0
 20
0.0
 30
0.0
 70
   128
 71
   106
 72
   104
 73
   105
  0
VERTEX
  5
161
  8
0
 62
     9
 10
0.0
 20
0.0
 30
0.0
 70
   128
 71
   107
 72
   109
 73
   103
  0
VERTEX
  5
162
  8
0
 62
     9
 10
0.0
 20
0.0
 30
0.0
 70
   128
 71
    30
 72
   109
 73
   107
  0
VERTEX
  5
163
  8
0
 62
     9
 10
0.0
 20
0.0
 30
0.0
 70
   128
 71
   104
 72
    81
 73
    82
  0
VERTEX
  5
164
  8
0
 62
     9
 10
0.0
 20
0.0
 30
0.0
 70
   128
 71
   104
 72
   102
 73
    81
  0
VERTEX
  5
165
  8
0
 62
     9
 10
0.0
 20
0.0
 30
0.0
 70
   128
 71
   105
 72
   104
 73
    82
  0
VERTEX
  5
166
  8
0
 62
     9
 10
0.0
 20
0.0
 30
0.0
 70
   128
 71
   106
 72
   108
 73
   103
  0
VERTEX
  5
167
  8
0
 62
     9
 10
0.0
 20
0.0
 30
0.0
 70
   128
 71
   103
 72
   109
 73
   102
  0
VERTEX
  5
168
  8
0
 62
     9
 10
0.0
 20
0.0
 30
0.0
 70
   128
 71
   111
 72
    49
 73
   110
  0
VERTEX
  5
169
  8
0
 62
     9
 10
0.0
 20
0.0
 30
0.0
 70
   128
 71
    73
 72
    57
 73
    74
  0
VERTEX
  5
16A
  8
0
 62
     9
 10
0.0
 20
0.0
 30
0.0
 70
   128
 71
    73
 72
    83
 73
    69
  0
VERTEX
  5
16B
  8
0
 62
     9
 10
0.0
 20
0.0
 30
0.0
 70
   128
 71
    73
 72
    74
 73
    39
  0
VERTEX
  5
16C
  8
0
 62
     9
 10
0.0
 20
0.0
 30
0.0
 70
   128
 71
    39
 72
    74
 73
    86
  0
VERTEX
  5
16D
  8
0
 62
     9
 10
0.0
 20
0.0
 30
0.0
 70
   128
 71
   113
 72
    92
 73
   112
  0
VERTEX
  5
16E
  8
0
 62
     9
 10
0.0
 20
0.0
 30
0.0
 70
   128
 71
    39
 72
    86
 73
    84
  0
VERTEX
  5
16F
  8
0
 62
     9
 10
0.0
 20
0.0
 30
0.0
 70
   128
 71
   113
 72
   115
 73
   114
  0
VERTEX
  5
170
  8
0
 62
     9
 10
0.0
 20
0.0
 30
0.0
 70
   128
 71
   113
 72
    39
 73
    92
  0
VERTEX
  5
171
  8
0
 62
     9
 10
0.0
 20
0.0
 30
0.0
 70
   128
 71
   113
 72
   112
 73
   115
  0
VERTEX
  5
172
  8
0
 62
     9
 10
0.0
 20
0.0
 30
0.0
 70
   128
 71
    92
 72
    39
 73
    84
  0
VERTEX
  5
173
  8
0
 62
     9
 10
0.0
 20
0.0
 30
0.0
 70
   128
 71
    39
 72
    83
 73
    73
  0
VERTEX
  5
174
  8
0
 62
     9
 10
0.0
 20
0.0
 30
0.0
 70
   128
 71
   110
 72
    49
 73
   116
  0
VERTEX
  5
175
  8
0
 62
     9
 10
0.0
 20
0.0
 30
0.0
 70
   128
 71
    49
 72
   108
 73
    39
  0
VERTEX
  5
176
  8
0
 62
     9
 10
0.0
 20
0.0
 30
0.0
 70
   128
 71
   108
 72
    49
 73
   111
  0
VERTEX
  5
177
  8
0
 62
     9
 10
0.0
 20
0.0
 30
0.0
 70
   128
 71
    39
 72
   106
 73
   105
  0
VERTEX
  5
178
  8
0
 62
     9
 10
0.0
 20
0.0
 30
0.0
 70
   128
 71
   108
 72
   106
 73
    39
  0
VERTEX
  5
179
  8
0
 62
     9
 10
0.0
 20
0.0
 30
0.0
 70
   128
 71
    39
 72
   105
 73
    83
  0
VERTEX
  5
17A
  8
0
 62
     9
 10
0.0
 20
0.0
 30
0.0
 70
   128
 71
   113
 72
    38
 73
    39
  0
VERTEX
  5
17B
  8
0
 62
     9
 10
0.0
 20
0.0
 30
0.0
 70
   128
 71
   119
 72
   118
 73
   117
  0
VERTEX
  5
17C
  8
0
 62
     9
 10
0.0
 20
0.0
 30
0.0
 70
   128
 71
   122
 72
   121
 73
   120
  0
VERTEX
  5
17D
  8
0
 62
     9
 10
0.0
 20
0.0
 30
0.0
 70
   128
 71
   122
 72
   123
 73
   121
  0
VERTEX
  5
17E
  8
0
 62
     9
 10
0.0
 20
0.0
 30
0.0
 70
   128
 71
   123
 72
   124
 73
    90
  0
VERTEX
  5
17F
  8
0
 62
     9
 10
0.0
 20
0.0
 30
0.0
 70
   128
 71
   118
 72
   120
 73
   117
  0
VERTEX
  5
180
  8
0
 62
     9
 10
0.0
 20
0.0
 30
0.0
 70
   128
 71
   120
 72
   113
 73
   114
  0
VERTEX
  5
181
  8
0
 62
     9
 10
0.0
 20
0.0
 30
0.0
 70
   128
 71
   117
 72
   120
 73
   121
  0
VERTEX
  5
182
  8
0
 62
     9
 10
0.0
 20
0.0
 30
0.0
 70
   128
 71
    90
 72
   124
 73
    91
  0
VERTEX
  5
183
  8
0
 62
     9
 10
0.0
 20
0.0
 30
0.0
 70
   128
 71
    91
 72
   124
 73
   112
  0
VERTEX
  5
184
  8
0
 62
     9
 10
0.0
 20
0.0
 30
0.0
 70
   128
 71
   112
 72
    92
 73
    91
  0
VERTEX
  5
185
  8
0
 62
     9
 10
0.0
 20
0.0
 30
0.0
 70
   128
 71
   114
 72
   115
 73
   122
  0
VERTEX
  5
186
  8
0
 62
     9
 10
0.0
 20
0.0
 30
0.0
 70
   128
 71
   120
 72
   118
 73
   113
  0
VERTEX
  5
187
  8
0
 62
     9
 10
0.0
 20
0.0
 30
0.0
 70
   128
 71
   115
 72
   112
 73
   124
  0
VERTEX
  5
188
  8
0
 62
     9
 10
0.0
 20
0.0
 30
0.0
 70
   128
 71
   122
 72
   120
 73
   114
  0
VERTEX
  5
189
  8
0
 62
     9
 10
0.0
 20
0.0
 30
0.0
 70
   128
 71
   124
 72
   122
 73
   115
  0
VERTEX
  5
18A
  8
0
 62
     9
 10
0.0
 20
0.0
 30
0.0
 70
   128
 71
   122
 72
   124
 73
   123
  0
VERTEX
  5
18B
  8
0
 62
     9
 10
0.0
 20
0.0
 30
0.0
 70
   128
 71
    76
 72
    93
 73
   101
  0
VERTEX
  5
18C
  8
0
 62
     9
 10
0.0
 20
0.0
 30
0.0
 70
   128
 71
    89
 72
    87
 73
    98
  0
VERTEX
  5
18D
  8
0
 62
     9
 10
0.0
 20
0.0
 30
0.0
 70
   128
 71
    96
 72
    89
 73
    98
  0
VERTEX
  5
18E
  8
0
 62
     9
 10
0.0
 20
0.0
 30
0.0
 70
   128
 71
    90
 72
    89
 73
    96
  0
VERTEX
  5
18F
  8
0
 62
     9
 10
0.0
 20
0.0
 30
0.0
 70
   128
 71
   101
 72
    87
 73
    76
  0
VERTEX
  5
190
  8
0
 62
     9
 10
0.0
 20
0.0
 30
0.0
 70
   128
 71
    98
 72
    87
 73
   101
  0
VERTEX
  5
191
  8
0
 62
     9
 10
0.0
 20
0.0
 30
0.0
 70
   128
 71
     6
 72
    95
 73
   109
  0
VERTEX
  5
192
  8
0
 62
     9
 10
0.0
 20
0.0
 30
0.0
 70
   128
 71
    81
 72
   102
 73
    94
  0
VERTEX
  5
193
  8
0
 62
     9
 10
0.0
 20
0.0
 30
0.0
 70
   128
 71
   102
 72
    95
 73
    94
  0
VERTEX
  5
194
  8
0
 62
     9
 10
0.0
 20
0.0
 30
0.0
 70
   128
 71
    99
 72
    81
 73
    94
  0
VERTEX
  5
195
  8
0
 62
     9
 10
0.0
 20
0.0
 30
0.0
 70
   128
 71
   109
 72
    30
 73
     6
  0
VERTEX
  5
196
  8
0
 62
     9
 10
0.0
 20
0.0
 30
0.0
 70
   128
 71
   109
 72
    95
 73
   102
  0
VERTEX
  5
197
  8
0
 62
     9
 10
0.0
 20
0.0
 30
0.0
 70
   128
 71
    27
 72
   125
 73
    25
  0
VERTEX
  5
198
  8
0
 62
     9
 10
0.0
 20
0.0
 30
0.0
 70
   128
 71
   126
 72
   108
 73
   111
  0
VERTEX
  5
199
  8
0
 62
     9
 10
0.0
 20
0.0
 30
0.0
 70
   128
 71
   128
 72
   127
 73
    22
  0
VERTEX
  5
19A
  8
0
 62
     9
 10
0.0
 20
0.0
 30
0.0
 70
   128
 71
   125
 72
   126
 73
   111
  0
VERTEX
  5
19B
  8
0
 62
     9
 10
0.0
 20
0.0
 30
0.0
 70
   128
 71
   127
 72
   116
 73
    49
  0
VERTEX
  5
19C
  8
0
 62
     9
 10
0.0
 20
0.0
 30
0.0
 70
   128
 71
    22
 72
    25
 73
   128
  0
VERTEX
  5
19D
  8
0
 62
     9
 10
0.0
 20
0.0
 30
0.0
 70
   128
 71
   125
 72
   111
 73
   110
  0
VERTEX
  5
19E
  8
0
 62
     9
 10
0.0
 20
0.0
 30
0.0
 70
   128
 71
   127
 72
   128
 73
   116
  0
VERTEX
  5
19F
  8
0
 62
     9
 10
0.0
 20
0.0
 30
0.0
 70
   128
 71
   107
 72
    28
 73
    30
  0
VERTEX
  5
1A0
  8
0
 62
     9
 10
0.0
 20
0.0
 30
0.0
 70
   128
 71
   108
 72
   126
 73
   107
  0
VERTEX
  5
1A1
  8
0
 62
     9
 10
0.0
 20
0.0
 30
0.0
 70
   128
 71
    28
 72
   126
 73
    27
  0
VERTEX
  5
1A2
  8
0
 62
     9
 10
0.0
 20
0.0
 30
0.0
 70
   128
 71
   126
 72
    28
 73
   107
  0
VERTEX
  5
1A3
  8
0
 62
     9
 10
0.0
 20
0.0
 30
0.0
 70
   128
 71
   116
 72
   128
 73
   110
  0
VERTEX
  5
1A4
  8
0
 62
     9
 10
0.0
 20
0.0
 30
0.0
 70
   128
 71
   126
 72
   125
 73
    27
  0
VERTEX
  5
1A5
  8
0
 62
     9
 10
0.0
 20
0.0
 30
0.0
 70
   128
 71
   128
 72
   125
 73
   110
  0
VERTEX
  5
1A6
  8
0
 62
     9
 10
0.0
 20
0.0
 30
0.0
 70
   128
 71
   125
 72
   128
 73
    25
  0
VERTEX
  5
1A7
  8
0
 62
     9
 10
0.0
 20
0.0
 30
0.0
 70
   128
 71
    11
 72
   130
 73
   129
  0
VERTEX
  5
1A8
  8
0
 62
     9
 10
0.0
 20
0.0
 30
0.0
 70
   128
 71
   130
 72
     2
 73
   131
  0
VERTEX
  5
1A9
  8
0
 62
     9
 10
0.0
 20
0.0
 30
0.0
 70
   128
 71
   129
 72
    13
 73
    11
  0
VERTEX
  5
1AA
  8
0
 62
     9
 10
0.0
 20
0.0
 30
0.0
 70
   128
 71
    46
 72
   130
 73
   131
  0
VERTEX
  5
1AB
  8
0
 62
     9
 10
0.0
 20
0.0
 30
0.0
 70
   128
 71
    48
 72
   131
 73
    49
  0
VERTEX
  5
1AC
  8
0
 62
     9
 10
0.0
 20
0.0
 30
0.0
 70
   128
 71
   131
 72
     2
 73
     7
  0
VERTEX
  5
1AD
  8
0
 62
     9
 10
0.0
 20
0.0
 30
0.0
 70
   128
 71
    20
 72
    22
 73
   127
  0
VERTEX
  5
1AE
  8
0
 62
     9
 10
0.0
 20
0.0
 30
0.0
 70
   128
 71
   131
 72
    48
 73
    46
  0
VERTEX
  5
1AF
  8
0
 62
     9
 10
0.0
 20
0.0
 30
0.0
 70
   128
 71
   127
 72
   131
 73
    20
  0
VERTEX
  5
1B0
  8
0
 62
     9
 10
0.0
 20
0.0
 30
0.0
 70
   128
 71
     8
 72
   130
 73
    11
  0
VERTEX
  5
1B1
  8
0
 62
     9
 10
0.0
 20
0.0
 30
0.0
 70
   128
 71
    45
 72
   132
 73
   129
  0
VERTEX
  5
1B2
  8
0
 62
     9
 10
0.0
 20
0.0
 30
0.0
 70
   128
 71
    13
 72
   132
 73
    15
  0
VERTEX
  5
1B3
  8
0
 62
     9
 10
0.0
 20
0.0
 30
0.0
 70
   128
 71
    13
 72
   129
 73
   132
  0
VERTEX
  5
1B4
  8
0
 62
     9
 10
0.0
 20
0.0
 30
0.0
 70
   128
 71
    16
 72
   132
 73
   133
  0
VERTEX
  5
1B5
  8
0
 62
     9
 10
0.0
 20
0.0
 30
0.0
 70
   128
 71
   133
 72
   132
 73
    43
  0
VERTEX
  5
1B6
  8
0
 62
     9
 10
0.0
 20
0.0
 30
0.0
 70
   128
 71
    16
 72
   133
 73
    18
  0
VERTEX
  5
1B7
  8
0
 62
     9
 10
0.0
 20
0.0
 30
0.0
 70
   128
 71
   136
 72
   135
 73
   134
  0
VERTEX
  5
1B8
  8
0
 62
     9
 10
0.0
 20
0.0
 30
0.0
 70
   128
 71
   139
 72
   138
 73
   137
  0
VERTEX
  5
1B9
  8
0
 62
     9
 10
0.0
 20
0.0
 30
0.0
 70
   128
 71
   141
 72
   136
 73
   140
  0
VERTEX
  5
1BA
  8
0
 62
     9
 10
0.0
 20
0.0
 30
0.0
 70
   128
 71
   118
 72
   140
 73
    38
  0
VERTEX
  5
1BB
  8
0
 62
     9
 10
0.0
 20
0.0
 30
0.0
 70
   128
 71
   142
 72
   118
 73
   119
  0
VERTEX
  5
1BC
  8
0
 62
     9
 10
0.0
 20
0.0
 30
0.0
 70
   128
 71
   118
 72
    38
 73
   113
  0
VERTEX
  5
1BD
  8
0
 62
     9
 10
0.0
 20
0.0
 30
0.0
 70
   128
 71
   141
 72
   140
 73
   142
  0
VERTEX
  5
1BE
  8
0
 62
     9
 10
0.0
 20
0.0
 30
0.0
 70
   128
 71
   139
 72
   143
 73
   133
  0
VERTEX
  5
1BF
  8
0
 62
     9
 10
0.0
 20
0.0
 30
0.0
 70
   128
 71
   118
 72
   142
 73
   140
  0
VERTEX
  5
1C0
  8
0
 62
     9
 10
0.0
 20
0.0
 30
0.0
 70
   128
 71
   136
 72
   141
 73
   144
  0
VERTEX
  5
1C1
  8
0
 62
     9
 10
0.0
 20
0.0
 30
0.0
 70
   128
 71
   134
 72
   135
 73
   138
  0
VERTEX
  5
1C2
  8
0
 62
     9
 10
0.0
 20
0.0
 30
0.0
 70
   128
 71
   135
 72
   136
 73
   144
  0
VERTEX
  5
1C3
  8
0
 62
     9
 10
0.0
 20
0.0
 30
0.0
 70
   128
 71
   137
 72
   143
 73
   139
  0
VERTEX
  5
1C4
  8
0
 62
     9
 10
0.0
 20
0.0
 30
0.0
 70
   128
 71
   139
 72
   134
 73
   138
  0
VERTEX
  5
1C5
  8
0
 62
     9
 10
0.0
 20
0.0
 30
0.0
 70
   128
 71
    18
 72
   133
 73
   143
  0
VERTEX
  5
1C6
  8
0
 62
     9
 10
0.0
 20
0.0
 30
0.0
 70
   128
 71
   131
 72
     7
 73
    20
  0
VERTEX
  5
1C7
  8
0
 62
     9
 10
0.0
 20
0.0
 30
0.0
 70
   128
 71
   131
 72
   127
 73
    49
  0
VERTEX
  5
1C8
  8
0
 62
     9
 10
0.0
 20
0.0
 30
0.0
 70
   128
 71
   130
 72
    46
 73
    47
  0
VERTEX
  5
1C9
  8
0
 62
     9
 10
0.0
 20
0.0
 30
0.0
 70
   128
 71
   130
 72
     8
 73
     2
  0
VERTEX
  5
1CA
  8
0
 62
     9
 10
0.0
 20
0.0
 30
0.0
 70
   128
 71
    47
 72
   129
 73
   130
  0
VERTEX
  5
1CB
  8
0
 62
     9
 10
0.0
 20
0.0
 30
0.0
 70
   128
 71
   129
 72
    47
 73
    45
  0
VERTEX
  5
1CC
  8
0
 62
     9
 10
0.0
 20
0.0
 30
0.0
 70
   128
 71
   132
 72
    45
 73
    43
  0
VERTEX
  5
1CD
  8
0
 62
     9
 10
0.0
 20
0.0
 30
0.0
 70
   128
 71
    15
 72
   132
 73
    16
  0
VERTEX
  5
1CE
  8
0
 62
     9
 10
0.0
 20
0.0
 30
0.0
 70
   128
 71
    44
 72
   133
 73
    43
  0
VERTEX
  5
1CF
  8
0
 62
     9
 10
0.0
 20
0.0
 30
0.0
 70
   128
 71
   139
 72
    44
 73
    42
  0
VERTEX
  5
1D0
  8
0
 62
     9
 10
0.0
 20
0.0
 30
0.0
 70
   128
 71
   139
 72
   133
 73
    44
  0
VERTEX
  5
1D1
  8
0
 62
     9
 10
0.0
 20
0.0
 30
0.0
 70
   128
 71
    40
 72
   134
 73
    42
  0
VERTEX
  5
1D2
  8
0
 62
     9
 10
0.0
 20
0.0
 30
0.0
 70
   128
 71
   134
 72
   139
 73
    42
  0
VERTEX
  5
1D3
  8
0
 62
     9
 10
0.0
 20
0.0
 30
0.0
 70
   128
 71
    41
 72
   136
 73
    40
  0
VERTEX
  5
1D4
  8
0
 62
     9
 10
0.0
 20
0.0
 30
0.0
 70
   128
 71
   136
 72
   134
 73
    40
  0
VERTEX
  5
1D5
  8
0
 62
     9
 10
0.0
 20
0.0
 30
0.0
 70
   128
 71
    41
 72
    37
 73
   136
  0
VERTEX
  5
1D6
  8
0
 62
     9
 10
0.0
 20
0.0
 30
0.0
 70
   128
 71
    37
 72
   140
 73
   136
  0
VERTEX
  5
1D7
  8
0
 62
     9
 10
0.0
 20
0.0
 30
0.0
 70
   128
 71
   140
 72
    37
 73
    38
  0
VERTEX
  5
1D8
  8
0
 62
     9
 10
0.0
 20
0.0
 30
0.0
 70
   128
 71
    18
 72
   143
 73
   145
  0
VERTEX
  5
1D9
  8
0
 62
     9
 10
0.0
 20
0.0
 30
0.0
 70
   128
 71
   147
 72
   135
 73
   146
  0
VERTEX
  5
1DA
  8
0
 62
     9
 10
0.0
 20
0.0
 30
0.0
 70
   128
 71
   149
 72
   148
 73
   137
  0
VERTEX
  5
1DB
  8
0
 62
     9
 10
0.0
 20
0.0
 30
0.0
 70
   128
 71
   119
 72
   150
 73
   142
  0
VERTEX
  5
1DC
  8
0
 62
     9
 10
0.0
 20
0.0
 30
0.0
 70
   128
 71
   152
 72
   151
 73
   141
  0
VERTEX
  5
1DD
  8
0
 62
     9
 10
0.0
 20
0.0
 30
0.0
 70
   128
 71
   154
 72
   153
 73
   121
  0
VERTEX
  5
1DE
  8
0
 62
     9
 10
0.0
 20
0.0
 30
0.0
 70
   128
 71
   156
 72
   117
 73
   155
  0
VERTEX
  5
1DF
  8
0
 62
     9
 10
0.0
 20
0.0
 30
0.0
 70
   128
 71
   154
 72
   123
 73
   157
  0
VERTEX
  5
1E0
  8
0
 62
     9
 10
0.0
 20
0.0
 30
0.0
 70
   128
 71
   159
 72
    97
 73
   158
  0
VERTEX
  5
1E1
  8
0
 62
     9
 10
0.0
 20
0.0
 30
0.0
 70
   128
 71
   100
 72
   158
 73
    97
  0
VERTEX
  5
1E2
  8
0
 62
     9
 10
0.0
 20
0.0
 30
0.0
 70
   128
 71
    96
 72
   157
 73
    90
  0
VERTEX
  5
1E3
  8
0
 62
     9
 10
0.0
 20
0.0
 30
0.0
 70
   128
 71
    96
 72
    97
 73
   159
  0
VERTEX
  5
1E4
  8
0
 62
     9
 10
0.0
 20
0.0
 30
0.0
 70
   128
 71
    96
 72
   159
 73
   157
  0
VERTEX
  5
1E5
  8
0
 62
     9
 10
0.0
 20
0.0
 30
0.0
 70
   128
 71
   100
 72
   160
 73
   158
  0
VERTEX
  5
1E6
  8
0
 62
     9
 10
0.0
 20
0.0
 30
0.0
 70
   128
 71
    35
 72
   160
 73
    36
  0
VERTEX
  5
1E7
  8
0
 62
     9
 10
0.0
 20
0.0
 30
0.0
 70
   128
 71
   100
 72
    36
 73
   160
  0
VERTEX
  5
1E8
  8
0
 62
     9
 10
0.0
 20
0.0
 30
0.0
 70
   128
 71
    90
 72
   157
 73
   123
  0
VERTEX
  5
1E9
  8
0
 62
     9
 10
0.0
 20
0.0
 30
0.0
 70
   128
 71
   146
 72
   144
 73
   151
  0
VERTEX
  5
1EA
  8
0
 62
     9
 10
0.0
 20
0.0
 30
0.0
 70
   128
 71
   154
 72
   121
 73
   123
  0
VERTEX
  5
1EB
  8
0
 62
     9
 10
0.0
 20
0.0
 30
0.0
 70
   128
 71
   153
 72
   117
 73
   121
  0
VERTEX
  5
1EC
  8
0
 62
     9
 10
0.0
 20
0.0
 30
0.0
 70
   128
 71
   119
 72
   117
 73
   156
  0
VERTEX
  5
1ED
  8
0
 62
     9
 10
0.0
 20
0.0
 30
0.0
 70
   128
 71
   153
 72
   155
 73
   117
  0
VERTEX
  5
1EE
  8
0
 62
     9
 10
0.0
 20
0.0
 30
0.0
 70
   128
 71
   152
 72
   141
 73
   142
  0
VERTEX
  5
1EF
  8
0
 62
     9
 10
0.0
 20
0.0
 30
0.0
 70
   128
 71
   152
 72
   142
 73
   150
  0
VERTEX
  5
1F0
  8
0
 62
     9
 10
0.0
 20
0.0
 30
0.0
 70
   128
 71
   156
 72
   150
 73
   119
  0
VERTEX
  5
1F1
  8
0
 62
     9
 10
0.0
 20
0.0
 30
0.0
 70
   128
 71
   144
 72
   141
 73
   151
  0
VERTEX
  5
1F2
  8
0
 62
     9
 10
0.0
 20
0.0
 30
0.0
 70
   128
 71
   135
 72
   147
 73
   138
  0
VERTEX
  5
1F3
  8
0
 62
     9
 10
0.0
 20
0.0
 30
0.0
 70
   128
 71
   144
 72
   146
 73
   135
  0
VERTEX
  5
1F4
  8
0
 62
     9
 10
0.0
 20
0.0
 30
0.0
 70
   128
 71
   149
 72
   137
 73
   138
  0
VERTEX
  5
1F5
  8
0
 62
     9
 10
0.0
 20
0.0
 30
0.0
 70
   128
 71
   138
 72
   147
 73
   149
  0
VERTEX
  5
1F6
  8
0
 62
     9
 10
0.0
 20
0.0
 30
0.0
 70
   128
 71
   148
 72
   145
 73
   143
  0
VERTEX
  5
1F7
  8
0
 62
     9
 10
0.0
 20
0.0
 30
0.0
 70
   128
 71
   137
 72
   148
 73
   143
  0
VERTEX
  5
1F8
  8
0
 62
     9
 10
0.0
 20
0.0
 30
0.0
 70
   128
 71
    17
 72
    18
 73
   145
  0
SEQEND
  5
1F9
  8
0
 62
     9
  0
ENDBLK
  5
1FD
  8
0
  0
BLOCK
  8
0
  2
A4285817_LINEARE_HANDLE_2_
 70
     0
 10
0.0
 20
0.0
 30
0.0
  3
A4285817_LINEARE_HANDLE_2_
  1

  0
POLYLINE
  5
1FF
  8
0
 62
     9
 66
     1
 10
0.0
 20
0.0
 30
0.0
 70
    64
 71
   160
 72
   284
  0
VERTEX
  5
200
  8
0
 10
-15.95978832244873
 20
-89.94622039794922
 30
-90.23399353027344
 70
   192
  0
VERTEX
  5
201
  8
0
 10
-17.32159996032715
 20
-91.99645233154297
 30
-55.19264602661133
 70
   192
  0
VERTEX
  5
202
  8
0
 10
-17.90116500854492
 20
-93.08104705810547
 30
-90.23400115966797
 70
   192
  0
VERTEX
  5
203
  8
0
 10
-7.361972808837891
 20
-120.5922012329102
 30
-64.0263442993164
 70
   192
  0
VERTEX
  5
204
  8
0
 10
-10.50427913665771
 20
-118.9491577148438
 30
-90.23400115966797
 70
   192
  0
VERTEX
  5
205
  8
0
 10
-10.7142858505249
 20
-118.8844451904297
 30
-64.0263442993164
 70
   192
  0
VERTEX
  5
206
  8
0
 10
-18.79594421386719
 20
-95.15953063964844
 30
-55.19265747070312
 70
   192
  0
VERTEX
  5
207
  8
0
 10
-15.32439708709717
 20
-89.1444320678711
 30
-55.19263458251953
 70
   192
  0
VERTEX
  5
208
  8
0
 10
-13.47106647491455
 20
-87.2210464477539
 30
-90.23399353027344
 70
   192
  0
VERTEX
  5
209
  8
0
 10
-10.52165985107422
 20
-85.00183868408203
 30
-90.23399353027344
 70
   192
  0
VERTEX
  5
20A
  8
0
 10
-12.85727500915527
 20
-86.67503356933594
 30
-55.19262313842773
 70
   192
  0
VERTEX
  5
20B
  8
0
 10
-7.220035076141357
 20
-83.35694122314453
 30
-90.23400115966797
 70
   192
  0
VERTEX
  5
20C
  8
0
 10
-9.965134620666504
 20
-84.74557495117188
 30
-55.1926155090332
 70
   192
  0
VERTEX
  5
20D
  8
0
 10
-3.672256231307983
 20
-82.33790588378906
 30
-90.23400115966797
 70
   192
  0
VERTEX
  5
20E
  8
0
 10
-6.814569473266602
 20
-83.17596435546875
 30
-55.19261169433594
 70
   192
  0
VERTEX
  5
20F
  8
0
 10
-3.435388088226318
 20
-82.28192901611328
 30
-55.19260787963867
 70
   192
  0
VERTEX
  5
210
  8
0
 10
-0.0000000000005576
 20
-81.9963607788086
 30
-90.23400115966797
 70
   192
  0
VERTEX
  5
211
  8
0
 10
-0.0000000000005648
 20
-81.99649810791016
 30
-55.19260787963867
 70
   192
  0
VERTEX
  5
212
  8
0
 10
-19.23546409606934
 20
-96.52257537841797
 30
-90.23400115966797
 70
   192
  0
VERTEX
  5
213
  8
0
 10
-19.6975154876709
 20
-98.53050231933594
 30
-55.19267272949219
 70
   192
  0
VERTEX
  5
214
  8
0
 10
-19.91429328918457
 20
-100.1492004394531
 30
-90.23400115966797
 70
   192
  0
VERTEX
  5
215
  8
0
 10
-19.99979019165039
 20
-101.9964981079102
 30
-55.19226455688477
 70
   192
  0
VERTEX
  5
216
  8
0
 10
-19.91483879089355
 20
-103.8387756347656
 30
-90.23400115966797
 70
   192
  0
VERTEX
  5
217
  8
0
 10
-19.23728561401367
 20
-107.4678497314453
 30
-90.23400115966797
 70
   192
  0
VERTEX
  5
218
  8
0
 10
-19.37184906005859
 20
-106.9748611450195
 30
-55.16378402709961
 70
   192
  0
VERTEX
  5
219
  8
0
 10
-17.90596389770508
 20
-110.9071502685547
 30
-90.23400115966797
 70
   192
  0
VERTEX
  5
21A
  8
0
 10
-17.55329322814941
 20
-111.6054992675781
 30
-55.08512115478516
 70
   192
  0
VERTEX
  5
21B
  8
0
 10
-14.56110572814941
 20
-115.6606979370117
 30
-54.97418975830078
 70
   192
  0
VERTEX
  5
21C
  8
0
 10
-15.96374893188477
 20
-114.0469284057617
 30
-90.23400115966797
 70
   192
  0
VERTEX
  5
21D
  8
0
 10
-10.7142858505249
 20
-118.8844833374023
 30
-54.86014175415039
 70
   192
  0
VERTEX
  5
21E
  8
0
 10
-13.47957324981689
 20
-116.7734146118164
 30
-90.23400115966797
 70
   192
  0
VERTEX
  5
21F
  8
0
 10
-7.236227512359619
 20
-120.6592178344727
 30
-90.23400115966797
 70
   192
  0
VERTEX
  5
220
  8
0
 10
-3.751271724700928
 20
-121.6412353515625
 30
-64.02635192871094
 70
   192
  0
VERTEX
  5
221
  8
0
 10
-3.678674221038818
 20
-121.6566009521484
 30
-90.23400115966797
 70
   192
  0
VERTEX
  5
222
  8
0
 10
-0.0000000000005907
 20
-121.9963607788086
 30
-90.23400115966797
 70
   192
  0
VERTEX
  5
223
  8
0
 10
-0.0000000000005961
 20
-121.9964599609375
 30
-64.02635192871094
 70
   192
  0
VERTEX
  5
224
  8
0
 10
18.13877487182617
 20
-95.29621887207031
 30
-54.49347686767578
 70
   192
  0
VERTEX
  5
225
  8
0
 10
19.25665092468262
 20
-100.2475433349609
 30
-54.49349594116211
 70
   192
  0
VERTEX
  5
226
  8
0
 10
0.0000000001006994
 20
-101.9964981079102
 30
-54.02627563476562
 70
   192
  0
VERTEX
  5
227
  8
0
 10
12.30834007263184
 20
-87.08673858642578
 30
-54.49344253540039
 70
   192
  0
VERTEX
  5
228
  8
0
 10
15.76276969909668
 20
-90.8005142211914
 30
-54.49345779418945
 70
   192
  0
VERTEX
  5
229
  8
0
 10
7.723645687103271
 20
-84.28131866455078
 30
-54.49343109130859
 70
   192
  0
VERTEX
  5
22A
  8
0
 10
-1.930160641670227
 20
-82.75927734375
 30
-54.49342727661133
 70
   192
  0
VERTEX
  5
22B
  8
0
 10
2.83742094039917
 20
-82.87708282470703
 30
-54.49342727661133
 70
   192
  0
VERTEX
  5
22C
  8
0
 10
-7.283453464508057
 20
-84.08377075195312
 30
-54.49343109130859
 70
   192
  0
VERTEX
  5
22D
  8
0
 10
-16.23148536682129
 20
-91.49553680419922
 30
-54.49346160888672
 70
   192
  0
VERTEX
  5
22E
  8
0
 10
-12.29418468475342
 20
-87.0767593383789
 30
-54.49344253540039
 70
   192
  0
VERTEX
  5
22F
  8
0
 10
-18.59457397460938
 20
-96.72632598876953
 30
-54.49348068237305
 70
   192
  0
VERTEX
  5
230
  8
0
 10
-19.33381271362305
 20
-101.9964981079102
 30
-54.49349975585938
 70
   192
  0
VERTEX
  5
231
  8
0
 10
-0.0000000000021012
 20
-150.5000305175781
 30
-54.23161315917969
 70
   192
  0
VERTEX
  5
232
  8
0
 10
4.0
 20
-150.7050476074219
 30
-54.74661254882812
 70
   192
  0
VERTEX
  5
233
  8
0
 10
-0.0000000000779403
 20
-150.7050476074219
 30
-54.74661254882812
 70
   192
  0
VERTEX
  5
234
  8
0
 10
-0.0000000000780825
 20
-150.0050506591797
 30
-54.02658462524414
 70
   192
  0
VERTEX
  5
235
  8
0
 10
4.004955291748047
 20
-150.5000305175781
 30
-54.25165939331055
 70
   192
  0
VERTEX
  5
236
  8
0
 10
4.007008075714111
 20
-150.0050506591797
 30
-54.0466423034668
 70
   192
  0
VERTEX
  5
237
  8
0
 10
5.635245323181152
 20
-149.3321075439453
 30
-54.06620407104492
 70
   192
  0
VERTEX
  5
238
  8
0
 10
6.31103515625
 20
-147.7050628662109
 30
-54.07633590698242
 70
   192
  0
VERTEX
  5
239
  8
0
 10
5.982225894927979
 20
-149.6790008544922
 30
-54.27372741699219
 70
   192
  0
VERTEX
  5
23A
  8
0
 10
6.116315841674805
 20
-149.8167266845703
 30
-54.76619720458984
 70
   192
  0
VERTEX
  5
23B
  8
0
 10
6.798498630523682
 20
-147.7050628662109
 30
-54.28469848632812
 70
   192
  0
VERTEX
  5
23C
  8
0
 10
7.0
 20
-147.7050476074219
 30
-54.77618789672852
 70
   192
  0
VERTEX
  5
23D
  8
0
 10
4.0
 20
-150.7050170898438
 30
-64.0264663696289
 70
   192
  0
VERTEX
  5
23E
  8
0
 10
-3.999998092651367
 20
-150.7050170898438
 30
-64.0264663696289
 70
   192
  0
VERTEX
  5
23F
  8
0
 10
-4.0
 20
-150.7050476074219
 30
-54.74661254882812
 70
   192
  0
VERTEX
  5
240
  8
0
 10
-5.635986804962158
 20
-149.3322601318359
 30
-54.06613922119141
 70
   192
  0
VERTEX
  5
241
  8
0
 10
-5.980815410614014
 20
-149.6804046630859
 30
-54.27371215820312
 70
   192
  0
VERTEX
  5
242
  8
0
 10
-6.798498630523682
 20
-147.7050628662109
 30
-54.28469848632812
 70
   192
  0
VERTEX
  5
243
  8
0
 10
-4.007008075714111
 20
-150.0050506591797
 30
-54.0466423034668
 70
   192
  0
VERTEX
  5
244
  8
0
 10
-6.311036586761475
 20
-147.7050628662109
 30
-54.07633590698242
 70
   192
  0
VERTEX
  5
245
  8
0
 10
-6.097765445709229
 20
-149.8231048583984
 30
-54.7658805847168
 70
   192
  0
VERTEX
  5
246
  8
0
 10
-7.0
 20
-147.7050476074219
 30
-54.77624893188477
 70
   192
  0
VERTEX
  5
247
  8
0
 10
-4.004955291748047
 20
-150.5000305175781
 30
-54.25165939331055
 70
   192
  0
VERTEX
  5
248
  8
0
 10
0.0000000000593481
 20
-147.7050323486328
 30
-54.07621383666992
 70
   192
  0
VERTEX
  5
249
  8
0
 10
6.311037540435791
 20
-125.6396789550781
 30
-54.07612609863281
 70
   192
  0
VERTEX
  5
24A
  8
0
 10
6.798861980438232
 20
-125.6396789550781
 30
-54.28498077392578
 70
   192
  0
VERTEX
  5
24B
  8
0
 10
7.0
 20
-125.6396789550781
 30
-54.77603912353516
 70
   192
  0
VERTEX
  5
24C
  8
0
 10
6.121319770812988
 20
-149.8263397216797
 30
-64.02645874023438
 70
   192
  0
VERTEX
  5
24D
  8
0
 10
7.0
 20
-147.7050170898438
 30
-64.02645111083984
 70
   192
  0
VERTEX
  5
24E
  8
0
 10
-6.121319770812988
 20
-149.8263397216797
 30
-64.02645874023438
 70
   192
  0
VERTEX
  5
24F
  8
0
 10
-7.0
 20
-147.7050170898438
 30
-64.02645111083984
 70
   192
  0
VERTEX
  5
250
  8
0
 10
-7.0
 20
-125.6396789550781
 30
-54.77603912353516
 70
   192
  0
VERTEX
  5
251
  8
0
 10
-6.798861980438232
 20
-125.6396789550781
 30
-54.28498077392578
 70
   192
  0
VERTEX
  5
252
  8
0
 10
-6.311037540435791
 20
-125.6396789550781
 30
-54.07612609863281
 70
   192
  0
VERTEX
  5
253
  8
0
 10
8.193720817565918
 20
-120.2405395507812
 30
-54.1104736328125
 70
   192
  0
VERTEX
  5
254
  8
0
 10
8.577427864074707
 20
-120.5399398803711
 30
-54.31919860839844
 70
   192
  0
VERTEX
  5
255
  8
0
 10
6.793740749359131
 20
-122.7862854003906
 30
-54.08413314819336
 70
   192
  0
VERTEX
  5
256
  8
0
 10
7.526611328125
 20
-122.8080749511719
 30
-54.78540802001953
 70
   192
  0
VERTEX
  5
257
  8
0
 10
7.256626605987549
 20
-122.9384002685547
 30
-54.2929801940918
 70
   192
  0
VERTEX
  5
258
  8
0
 10
8.860660552978516
 20
-120.5153579711914
 30
-54.81314468383789
 70
   192
  0
VERTEX
  5
259
  8
0
 10
10.7142858505249
 20
-118.8844833374023
 30
-54.86014175415039
 70
   192
  0
VERTEX
  5
25A
  8
0
 10
10.61535263061523
 20
-118.70849609375
 30
-54.36872482299805
 70
   192
  0
VERTEX
  5
25B
  8
0
 10
10.35739994049072
 20
-118.2934112548828
 30
-54.16037368774414
 70
   192
  0
VERTEX
  5
25C
  8
0
 10
7.0
 20
-125.6396408081055
 30
-64.0263671875
 70
   192
  0
VERTEX
  5
25D
  8
0
 10
-7.0
 20
-125.6396331787109
 30
-64.0263671875
 70
   192
  0
VERTEX
  5
25E
  8
0
 10
-7.44169807434082
 20
-123.021354675293
 30
-64.02635955810547
 70
   192
  0
VERTEX
  5
25F
  8
0
 10
-8.7547607421875
 20
-120.6443862915039
 30
-64.02635192871094
 70
   192
  0
VERTEX
  5
260
  8
0
 10
7.436769485473633
 20
-123.0408782958984
 30
-64.02635955810547
 70
   192
  0
VERTEX
  5
261
  8
0
 10
7.356414318084717
 20
-120.594108581543
 30
-64.0263442993164
 70
   192
  0
VERTEX
  5
262
  8
0
 10
3.745559215545654
 20
-121.6426086425781
 30
-64.02635192871094
 70
   192
  0
VERTEX
  5
263
  8
0
 10
8.740870475769043
 20
-120.6589508056641
 30
-64.02635192871094
 70
   192
  0
VERTEX
  5
264
  8
0
 10
10.7142858505249
 20
-118.8844451904297
 30
-64.0263442993164
 70
   192
  0
VERTEX
  5
265
  8
0
 10
-7.508446216583252
 20
-122.8242416381836
 30
-54.78537750244141
 70
   192
  0
VERTEX
  5
266
  8
0
 10
-8.576639175415039
 20
-120.5409393310547
 30
-54.31917953491211
 70
   192
  0
VERTEX
  5
267
  8
0
 10
-7.256202697753906
 20
-122.9395980834961
 30
-54.29297256469727
 70
   192
  0
VERTEX
  5
268
  8
0
 10
-6.799251556396484
 20
-122.7719573974609
 30
-54.08389663696289
 70
   192
  0
VERTEX
  5
269
  8
0
 10
-8.202675819396973
 20
-120.2285003662109
 30
-54.11019515991211
 70
   192
  0
VERTEX
  5
26A
  8
0
 10
-10.61535263061523
 20
-118.70849609375
 30
-54.36872482299805
 70
   192
  0
VERTEX
  5
26B
  8
0
 10
-10.35739994049072
 20
-118.2934112548828
 30
-54.16037368774414
 70
   192
  0
VERTEX
  5
26C
  8
0
 10
-8.850287437438965
 20
-120.5135040283203
 30
-54.8132438659668
 70
   192
  0
VERTEX
  5
26D
  8
0
 10
-16.94086456298828
 20
-111.2970428466797
 30
-54.38499069213867
 70
   192
  0
VERTEX
  5
26E
  8
0
 10
-14.08772468566895
 20
-115.2146530151367
 30
-54.27433013916016
 70
   192
  0
VERTEX
  5
26F
  8
0
 10
14.08903121948242
 20
-115.213264465332
 30
-54.27437591552734
 70
   192
  0
VERTEX
  5
270
  8
0
 10
19.33381271362305
 20
-101.9964981079102
 30
-54.49349975585938
 70
   192
  0
VERTEX
  5
271
  8
0
 10
18.72763824462891
 20
-106.7914123535156
 30
-54.46466445922852
 70
   192
  0
VERTEX
  5
272
  8
0
 10
16.94168853759766
 20
-111.2955474853516
 30
-54.38502502441406
 70
   192
  0
VERTEX
  5
273
  8
0
 10
-18.72713279724121
 20
-106.7933883666992
 30
-54.46464157104492
 70
   192
  0
VERTEX
  5
274
  8
0
 10
19.37079620361328
 20
-106.9740905761719
 30
-55.16381072998047
 70
   192
  0
VERTEX
  5
275
  8
0
 10
19.80714225769043
 20
-101.9964981079102
 30
-54.71018218994141
 70
   192
  0
VERTEX
  5
276
  8
0
 10
20.00078010559082
 20
-101.9964981079102
 30
-55.19321441650391
 70
   192
  0
VERTEX
  5
277
  8
0
 10
19.18648529052734
 20
-106.9116897583008
 30
-54.68030548095703
 70
   192
  0
VERTEX
  5
278
  8
0
 10
17.52672958374023
 20
-111.6229858398438
 30
-55.08461380004883
 70
   192
  0
VERTEX
  5
279
  8
0
 10
17.35853958129883
 20
-111.5297241210938
 30
-54.59878921508789
 70
   192
  0
VERTEX
  5
27A
  8
0
 10
14.6100959777832
 20
-115.6312713623047
 30
-54.97565460205078
 70
   192
  0
VERTEX
  5
27B
  8
0
 10
14.43775653839111
 20
-115.547966003418
 30
-54.48550033569336
 70
   192
  0
VERTEX
  5
27C
  8
0
 10
-17.35769462585449
 20
-111.5312652587891
 30
-54.5987548828125
 70
   192
  0
VERTEX
  5
27D
  8
0
 10
-14.4364185333252
 20
-115.5493850708008
 30
-54.48545074462891
 70
   192
  0
VERTEX
  5
27E
  8
0
 10
-19.80714225769043
 20
-101.9964981079102
 30
-54.71018218994141
 70
   192
  0
VERTEX
  5
27F
  8
0
 10
-19.18596649169922
 20
-106.9137115478516
 30
-54.68027877807617
 70
   192
  0
VERTEX
  5
280
  8
0
 10
-11.51926326751709
 20
-85.88521575927734
 30
-54.70743942260742
 70
   192
  0
VERTEX
  5
281
  8
0
 10
-16.12066650390625
 20
-90.50536346435547
 30
-54.70745849609375
 70
   192
  0
VERTEX
  5
282
  8
0
 10
-18.92469596862793
 20
-96.1954345703125
 30
-54.70748138427734
 70
   192
  0
VERTEX
  5
283
  8
0
 10
-5.841877460479736
 20
-83.06647491455078
 30
-54.70742797851562
 70
   192
  0
VERTEX
  5
284
  8
0
 10
-0.0000000800949991
 20
-82.19192504882812
 30
-54.70742416381836
 70
   192
  0
VERTEX
  5
285
  8
0
 10
11.49113750457764
 20
-85.8758316040039
 30
-54.70743942260742
 70
   192
  0
VERTEX
  5
286
  8
0
 10
14.1422061920166
 20
-87.85482025146484
 30
-55.19263076782227
 70
   192
  0
VERTEX
  5
287
  8
0
 10
16.11128044128418
 20
-90.47723388671875
 30
-54.70745849609375
 70
   192
  0
VERTEX
  5
288
  8
0
 10
7.623887062072754
 20
-83.51396179199219
 30
-55.19261169433594
 70
   192
  0
VERTEX
  5
289
  8
0
 10
11.07502746582031
 20
-85.35645294189453
 30
-55.19261932373047
 70
   192
  0
VERTEX
  5
28A
  8
0
 10
5.801061630249023
 20
-83.0718002319336
 30
-54.70742797851562
 70
   192
  0
VERTEX
  5
28B
  8
0
 10
18.93002128601074
 20
-96.15462493896484
 30
-54.70748138427734
 70
   192
  0
VERTEX
  5
28C
  8
0
 10
18.47538185119629
 20
-94.34038543701172
 30
-55.19265365600586
 70
   192
  0
VERTEX
  5
28D
  8
0
 10
19.61338806152344
 20
-98.08924102783203
 30
-55.19266891479492
 70
   192
  0
VERTEX
  5
28E
  8
0
 10
3.85700535774231
 20
-82.37823486328125
 30
-55.19260787963867
 70
   192
  0
VERTEX
  5
28F
  8
0
 10
16.63066482543945
 20
-90.88710021972656
 30
-55.19264221191406
 70
   192
  0
VERTEX
  5
290
  8
0
 10
3.678674221038818
 20
-82.33612060546875
 30
-90.23400115966797
 70
   192
  0
VERTEX
  5
291
  8
0
 10
15.96374893188477
 20
-89.94579315185547
 30
-90.23399353027344
 70
   192
  0
VERTEX
  5
292
  8
0
 10
13.47957324981689
 20
-87.21930694580078
 30
-90.23399353027344
 70
   192
  0
VERTEX
  5
293
  8
0
 10
7.236227512359619
 20
-83.33350372314453
 30
-90.23400115966797
 70
   192
  0
VERTEX
  5
294
  8
0
 10
10.50427913665771
 20
-85.0435562133789
 30
-90.23399353027344
 70
   192
  0
VERTEX
  5
295
  8
0
 10
19.91483879089355
 20
-100.1539459228516
 30
-90.23400115966797
 70
   192
  0
VERTEX
  5
296
  8
0
 10
17.90596389770508
 20
-93.0855712890625
 30
-90.23400115966797
 70
   192
  0
VERTEX
  5
297
  8
0
 10
19.23728561401367
 20
-96.52487182617188
 30
-90.23400115966797
 70
   192
  0
VERTEX
  5
298
  8
0
 10
17.90116500854492
 20
-110.9116744995117
 30
-90.23400115966797
 70
   192
  0
VERTEX
  5
299
  8
0
 10
15.95978832244873
 20
-114.046501159668
 30
-90.23400115966797
 70
   192
  0
VERTEX
  5
29A
  8
0
 10
19.23546409606934
 20
-107.4701385498047
 30
-90.23400115966797
 70
   192
  0
VERTEX
  5
29B
  8
0
 10
19.91429328918457
 20
-103.8435134887695
 30
-90.23400115966797
 70
   192
  0
VERTEX
  5
29C
  8
0
 10
13.47106647491455
 20
-116.7716751098633
 30
-90.23400115966797
 70
   192
  0
VERTEX
  5
29D
  8
0
 10
7.220035076141357
 20
-120.6357803344727
 30
-90.23400115966797
 70
   192
  0
VERTEX
  5
29E
  8
0
 10
10.52165985107422
 20
-118.9908828735352
 30
-90.23400115966797
 70
   192
  0
VERTEX
  5
29F
  8
0
 10
3.672256231307983
 20
-121.6548156738281
 30
-90.23400115966797
 70
   192
  0
VERTEX
  5
2A0
  8
0
 62
     9
 10
0.0
 20
0.0
 30
0.0
 70
   128
 71
     3
 72
     2
 73
     1
  0
VERTEX
  5
2A1
  8
0
 62
     9
 10
0.0
 20
0.0
 30
0.0
 70
   128
 71
     6
 72
     5
 73
     4
  0
VERTEX
  5
2A2
  8
0
 62
     9
 10
0.0
 20
0.0
 30
0.0
 70
   128
 71
     7
 72
     2
 73
     3
  0
VERTEX
  5
2A3
  8
0
 62
     9
 10
0.0
 20
0.0
 30
0.0
 70
   128
 71
     2
 72
     8
 73
     1
  0
VERTEX
  5
2A4
  8
0
 62
     9
 10
0.0
 20
0.0
 30
0.0
 70
   128
 71
    11
 72
    10
 73
     9
  0
VERTEX
  5
2A5
  8
0
 62
     9
 10
0.0
 20
0.0
 30
0.0
 70
   128
 71
     1
 72
     8
 73
     9
  0
VERTEX
  5
2A6
  8
0
 62
     9
 10
0.0
 20
0.0
 30
0.0
 70
   128
 71
    13
 72
    12
 73
    10
  0
VERTEX
  5
2A7
  8
0
 62
     9
 10
0.0
 20
0.0
 30
0.0
 70
   128
 71
    10
 72
    11
 73
    13
  0
VERTEX
  5
2A8
  8
0
 62
     9
 10
0.0
 20
0.0
 30
0.0
 70
   128
 71
    12
 72
    15
 73
    14
  0
VERTEX
  5
2A9
  8
0
 62
     9
 10
0.0
 20
0.0
 30
0.0
 70
   128
 71
    15
 72
    12
 73
    13
  0
VERTEX
  5
2AA
  8
0
 62
     9
 10
0.0
 20
0.0
 30
0.0
 70
   128
 71
    17
 72
    14
 73
    16
  0
VERTEX
  5
2AB
  8
0
 62
     9
 10
0.0
 20
0.0
 30
0.0
 70
   128
 71
    15
 72
    16
 73
    14
  0
VERTEX
  5
2AC
  8
0
 62
     9
 10
0.0
 20
0.0
 30
0.0
 70
   128
 71
    17
 72
    16
 73
    18
  0
VERTEX
  5
2AD
  8
0
 62
     9
 10
0.0
 20
0.0
 30
0.0
 70
   128
 71
     9
 72
     8
 73
    11
  0
VERTEX
  5
2AE
  8
0
 62
     9
 10
0.0
 20
0.0
 30
0.0
 70
   128
 71
     3
 72
    19
 73
     7
  0
VERTEX
  5
2AF
  8
0
 62
     9
 10
0.0
 20
0.0
 30
0.0
 70
   128
 71
    21
 72
    20
 73
    19
  0
VERTEX
  5
2B0
  8
0
 62
     9
 10
0.0
 20
0.0
 30
0.0
 70
   128
 71
     7
 72
    19
 73
    20
  0
VERTEX
  5
2B1
  8
0
 62
     9
 10
0.0
 20
0.0
 30
0.0
 70
   128
 71
    21
 72
    23
 73
    22
  0
VERTEX
  5
2B2
  8
0
 62
     9
 10
0.0
 20
0.0
 30
0.0
 70
   128
 71
    22
 72
    20
 73
    21
  0
VERTEX
  5
2B3
  8
0
 62
     9
 10
0.0
 20
0.0
 30
0.0
 70
   128
 71
    25
 72
    23
 73
    24
  0
VERTEX
  5
2B4
  8
0
 62
     9
 10
0.0
 20
0.0
 30
0.0
 70
   128
 71
    23
 72
    25
 73
    22
  0
VERTEX
  5
2B5
  8
0
 62
     9
 10
0.0
 20
0.0
 30
0.0
 70
   128
 71
    27
 72
    25
 73
    26
  0
VERTEX
  5
2B6
  8
0
 62
     9
 10
0.0
 20
0.0
 30
0.0
 70
   128
 71
    24
 72
    26
 73
    25
  0
VERTEX
  5
2B7
  8
0
 62
     9
 10
0.0
 20
0.0
 30
0.0
 70
   128
 71
    29
 72
    28
 73
    27
  0
VERTEX
  5
2B8
  8
0
 62
     9
 10
0.0
 20
0.0
 30
0.0
 70
   128
 71
    27
 72
    26
 73
    29
  0
VERTEX
  5
2B9
  8
0
 62
     9
 10
0.0
 20
0.0
 30
0.0
 70
   128
 71
    28
 72
    31
 73
    30
  0
VERTEX
  5
2BA
  8
0
 62
     9
 10
0.0
 20
0.0
 30
0.0
 70
   128
 71
    31
 72
    28
 73
    29
  0
VERTEX
  5
2BB
  8
0
 62
     9
 10
0.0
 20
0.0
 30
0.0
 70
   128
 71
    34
 72
    33
 73
    32
  0
VERTEX
  5
2BC
  8
0
 62
     9
 10
0.0
 20
0.0
 30
0.0
 70
   128
 71
    32
 72
     4
 73
     5
  0
VERTEX
  5
2BD
  8
0
 62
     9
 10
0.0
 20
0.0
 30
0.0
 70
   128
 71
    36
 72
    34
 73
    35
  0
VERTEX
  5
2BE
  8
0
 62
     9
 10
0.0
 20
0.0
 30
0.0
 70
   128
 71
    36
 72
    33
 73
    34
  0
VERTEX
  5
2BF
  8
0
 62
     9
 10
0.0
 20
0.0
 30
0.0
 70
   128
 71
    33
 72
     4
 73
    32
  0
VERTEX
  5
2C0
  8
0
 62
     9
 10
0.0
 20
0.0
 30
0.0
 70
   128
 71
    31
 72
     6
 73
    30
  0
VERTEX
  5
2C1
  8
0
 62
     9
 10
0.0
 20
0.0
 30
0.0
 70
   128
 71
     5
 72
     6
 73
    31
  0
VERTEX
  5
2C2
  8
0
 62
     9
 10
0.0
 20
0.0
 30
0.0
 70
   128
 71
    39
 72
    38
 73
    37
  0
VERTEX
  5
2C3
  8
0
 62
     9
 10
0.0
 20
0.0
 30
0.0
 70
   128
 71
    41
 72
    40
 73
    39
  0
VERTEX
  5
2C4
  8
0
 62
     9
 10
0.0
 20
0.0
 30
0.0
 70
   128
 71
    37
 72
    41
 73
    39
  0
VERTEX
  5
2C5
  8
0
 62
     9
 10
0.0
 20
0.0
 30
0.0
 70
   128
 71
    39
 72
    40
 73
    42
  0
VERTEX
  5
2C6
  8
0
 62
     9
 10
0.0
 20
0.0
 30
0.0
 70
   128
 71
    44
 72
    43
 73
    39
  0
VERTEX
  5
2C7
  8
0
 62
     9
 10
0.0
 20
0.0
 30
0.0
 70
   128
 71
    42
 72
    44
 73
    39
  0
VERTEX
  5
2C8
  8
0
 62
     9
 10
0.0
 20
0.0
 30
0.0
 70
   128
 71
    39
 72
    43
 73
    45
  0
VERTEX
  5
2C9
  8
0
 62
     9
 10
0.0
 20
0.0
 30
0.0
 70
   128
 71
    39
 72
    47
 73
    46
  0
VERTEX
  5
2CA
  8
0
 62
     9
 10
0.0
 20
0.0
 30
0.0
 70
   128
 71
    47
 72
    39
 73
    45
  0
VERTEX
  5
2CB
  8
0
 62
     9
 10
0.0
 20
0.0
 30
0.0
 70
   128
 71
    46
 72
    48
 73
    39
  0
VERTEX
  5
2CC
  8
0
 62
     9
 10
0.0
 20
0.0
 30
0.0
 70
   128
 71
    39
 72
    48
 73
    49
  0
VERTEX
  5
2CD
  8
0
 62
     9
 10
0.0
 20
0.0
 30
0.0
 70
   128
 71
    52
 72
    51
 73
    50
  0
VERTEX
  5
2CE
  8
0
 62
     9
 10
0.0
 20
0.0
 30
0.0
 70
   128
 71
    50
 72
    54
 73
    53
  0
VERTEX
  5
2CF
  8
0
 62
     9
 10
0.0
 20
0.0
 30
0.0
 70
   128
 71
    51
 72
    54
 73
    50
  0
VERTEX
  5
2D0
  8
0
 62
     9
 10
0.0
 20
0.0
 30
0.0
 70
   128
 71
    54
 72
    55
 73
    53
  0
VERTEX
  5
2D1
  8
0
 62
     9
 10
0.0
 20
0.0
 30
0.0
 70
   128
 71
    58
 72
    57
 73
    56
  0
VERTEX
  5
2D2
  8
0
 62
     9
 10
0.0
 20
0.0
 30
0.0
 70
   128
 71
    61
 72
    60
 73
    59
  0
VERTEX
  5
2D3
  8
0
 62
     9
 10
0.0
 20
0.0
 30
0.0
 70
   128
 71
    57
 72
    58
 73
    60
  0
VERTEX
  5
2D4
  8
0
 62
     9
 10
0.0
 20
0.0
 30
0.0
 70
   128
 71
    59
 72
    58
 73
    51
  0
VERTEX
  5
2D5
  8
0
 62
     9
 10
0.0
 20
0.0
 30
0.0
 70
   128
 71
    54
 72
    56
 73
    55
  0
VERTEX
  5
2D6
  8
0
 62
     9
 10
0.0
 20
0.0
 30
0.0
 70
   128
 71
    54
 72
    58
 73
    56
  0
VERTEX
  5
2D7
  8
0
 62
     9
 10
0.0
 20
0.0
 30
0.0
 70
   128
 71
    58
 72
    54
 73
    51
  0
VERTEX
  5
2D8
  8
0
 62
     9
 10
0.0
 20
0.0
 30
0.0
 70
   128
 71
    60
 72
    58
 73
    59
  0
VERTEX
  5
2D9
  8
0
 62
     9
 10
0.0
 20
0.0
 30
0.0
 70
   128
 71
    62
 72
    51
 73
    52
  0
VERTEX
  5
2DA
  8
0
 62
     9
 10
0.0
 20
0.0
 30
0.0
 70
   128
 71
    63
 72
    62
 73
    52
  0
VERTEX
  5
2DB
  8
0
 62
     9
 10
0.0
 20
0.0
 30
0.0
 70
   128
 71
    52
 72
    64
 73
    63
  0
VERTEX
  5
2DC
  8
0
 62
     9
 10
0.0
 20
0.0
 30
0.0
 70
   128
 71
    67
 72
    66
 73
    65
  0
VERTEX
  5
2DD
  8
0
 62
     9
 10
0.0
 20
0.0
 30
0.0
 70
   128
 71
    66
 72
    68
 73
    65
  0
VERTEX
  5
2DE
  8
0
 62
     9
 10
0.0
 20
0.0
 30
0.0
 70
   128
 71
    65
 72
    69
 73
    67
  0
VERTEX
  5
2DF
  8
0
 62
     9
 10
0.0
 20
0.0
 30
0.0
 70
   128
 71
    71
 72
    70
 73
    66
  0
VERTEX
  5
2E0
  8
0
 62
     9
 10
0.0
 20
0.0
 30
0.0
 70
   128
 71
    70
 72
    64
 73
    72
  0
VERTEX
  5
2E1
  8
0
 62
     9
 10
0.0
 20
0.0
 30
0.0
 70
   128
 71
    66
 72
    67
 73
    71
  0
VERTEX
  5
2E2
  8
0
 62
     9
 10
0.0
 20
0.0
 30
0.0
 70
   128
 71
    72
 72
    66
 73
    70
  0
VERTEX
  5
2E3
  8
0
 62
     9
 10
0.0
 20
0.0
 30
0.0
 70
   128
 71
    72
 72
    68
 73
    66
  0
VERTEX
  5
2E4
  8
0
 62
     9
 10
0.0
 20
0.0
 30
0.0
 70
   128
 71
    50
 72
    68
 73
    72
  0
VERTEX
  5
2E5
  8
0
 62
     9
 10
0.0
 20
0.0
 30
0.0
 70
   128
 71
    52
 72
    72
 73
    64
  0
VERTEX
  5
2E6
  8
0
 62
     9
 10
0.0
 20
0.0
 30
0.0
 70
   128
 71
    50
 72
    53
 73
    68
  0
VERTEX
  5
2E7
  8
0
 62
     9
 10
0.0
 20
0.0
 30
0.0
 70
   128
 71
    72
 72
    52
 73
    50
  0
VERTEX
  5
2E8
  8
0
 62
     9
 10
0.0
 20
0.0
 30
0.0
 70
   128
 71
    56
 72
    73
 73
    55
  0
VERTEX
  5
2E9
  8
0
 62
     9
 10
0.0
 20
0.0
 30
0.0
 70
   128
 71
    73
 72
    56
 73
    57
  0
VERTEX
  5
2EA
  8
0
 62
     9
 10
0.0
 20
0.0
 30
0.0
 70
   128
 71
    53
 72
    55
 73
    73
  0
VERTEX
  5
2EB
  8
0
 62
     9
 10
0.0
 20
0.0
 30
0.0
 70
   128
 71
    74
 72
    57
 73
    60
  0
VERTEX
  5
2EC
  8
0
 62
     9
 10
0.0
 20
0.0
 30
0.0
 70
   128
 71
    76
 72
    75
 73
    61
  0
VERTEX
  5
2ED
  8
0
 62
     9
 10
0.0
 20
0.0
 30
0.0
 70
   128
 71
    74
 72
    60
 73
    75
  0
VERTEX
  5
2EE
  8
0
 62
     9
 10
0.0
 20
0.0
 30
0.0
 70
   128
 71
    75
 72
    60
 73
    61
  0
VERTEX
  5
2EF
  8
0
 62
     9
 10
0.0
 20
0.0
 30
0.0
 70
   128
 71
    78
 72
    61
 73
    77
  0
VERTEX
  5
2F0
  8
0
 62
     9
 10
0.0
 20
0.0
 30
0.0
 70
   128
 71
    77
 72
    59
 73
    62
  0
VERTEX
  5
2F1
  8
0
 62
     9
 10
0.0
 20
0.0
 30
0.0
 70
   128
 71
    61
 72
    59
 73
    77
  0
VERTEX
  5
2F2
  8
0
 62
     9
 10
0.0
 20
0.0
 30
0.0
 70
   128
 71
    59
 72
    51
 73
    62
  0
VERTEX
  5
2F3
  8
0
 62
     9
 10
0.0
 20
0.0
 30
0.0
 70
   128
 71
    71
 72
    80
 73
    79
  0
VERTEX
  5
2F4
  8
0
 62
     9
 10
0.0
 20
0.0
 30
0.0
 70
   128
 71
    64
 72
    70
 73
    63
  0
VERTEX
  5
2F5
  8
0
 62
     9
 10
0.0
 20
0.0
 30
0.0
 70
   128
 71
    79
 72
    63
 73
    70
  0
VERTEX
  5
2F6
  8
0
 62
     9
 10
0.0
 20
0.0
 30
0.0
 70
   128
 71
    79
 72
    70
 73
    71
  0
VERTEX
  5
2F7
  8
0
 62
     9
 10
0.0
 20
0.0
 30
0.0
 70
   128
 71
    81
 72
    71
 73
    67
  0
VERTEX
  5
2F8
  8
0
 62
     9
 10
0.0
 20
0.0
 30
0.0
 70
   128
 71
    83
 72
    82
 73
    69
  0
VERTEX
  5
2F9
  8
0
 62
     9
 10
0.0
 20
0.0
 30
0.0
 70
   128
 71
    81
 72
    67
 73
    82
  0
VERTEX
  5
2FA
  8
0
 62
     9
 10
0.0
 20
0.0
 30
0.0
 70
   128
 71
    82
 72
    67
 73
    69
  0
VERTEX
  5
2FB
  8
0
 62
     9
 10
0.0
 20
0.0
 30
0.0
 70
   128
 71
    69
 72
    65
 73
    73
  0
VERTEX
  5
2FC
  8
0
 62
     9
 10
0.0
 20
0.0
 30
0.0
 70
   128
 71
    68
 72
    73
 73
    65
  0
VERTEX
  5
2FD
  8
0
 62
     9
 10
0.0
 20
0.0
 30
0.0
 70
   128
 71
    68
 72
    53
 73
    73
  0
VERTEX
  5
2FE
  8
0
 62
     9
 10
0.0
 20
0.0
 30
0.0
 70
   128
 71
    86
 72
    85
 73
    84
  0
VERTEX
  5
2FF
  8
0
 62
     9
 10
0.0
 20
0.0
 30
0.0
 70
   128
 71
    76
 72
    87
 73
    75
  0
VERTEX
  5
300
  8
0
 62
     9
 10
0.0
 20
0.0
 30
0.0
 70
   128
 71
    89
 72
    85
 73
    88
  0
VERTEX
  5
301
  8
0
 62
     9
 10
0.0
 20
0.0
 30
0.0
 70
   128
 71
    91
 72
    85
 73
    90
  0
VERTEX
  5
302
  8
0
 62
     9
 10
0.0
 20
0.0
 30
0.0
 70
   128
 71
    86
 72
    88
 73
    85
  0
VERTEX
  5
303
  8
0
 62
     9
 10
0.0
 20
0.0
 30
0.0
 70
   128
 71
    75
 72
    87
 73
    88
  0
VERTEX
  5
304
  8
0
 62
     9
 10
0.0
 20
0.0
 30
0.0
 70
   128
 71
    92
 72
    84
 73
    91
  0
VERTEX
  5
305
  8
0
 62
     9
 10
0.0
 20
0.0
 30
0.0
 70
   128
 71
    88
 72
    74
 73
    75
  0
VERTEX
  5
306
  8
0
 62
     9
 10
0.0
 20
0.0
 30
0.0
 70
   128
 71
    85
 72
    89
 73
    90
  0
VERTEX
  5
307
  8
0
 62
     9
 10
0.0
 20
0.0
 30
0.0
 70
   128
 71
    84
 72
    85
 73
    91
  0
VERTEX
  5
308
  8
0
 62
     9
 10
0.0
 20
0.0
 30
0.0
 70
   128
 71
    86
 72
    74
 73
    88
  0
VERTEX
  5
309
  8
0
 62
     9
 10
0.0
 20
0.0
 30
0.0
 70
   128
 71
    88
 72
    87
 73
    89
  0
VERTEX
  5
30A
  8
0
 62
     9
 10
0.0
 20
0.0
 30
0.0
 70
   128
 71
    78
 72
    93
 73
    61
  0
VERTEX
  5
30B
  8
0
 62
     9
 10
0.0
 20
0.0
 30
0.0
 70
   128
 71
    93
 72
    76
 73
    61
  0
VERTEX
  5
30C
  8
0
 62
     9
 10
0.0
 20
0.0
 30
0.0
 70
   128
 71
    78
 72
    77
 73
    62
  0
VERTEX
  5
30D
  8
0
 62
     9
 10
0.0
 20
0.0
 30
0.0
 70
   128
 71
    95
 72
    33
 73
    94
  0
VERTEX
  5
30E
  8
0
 62
     9
 10
0.0
 20
0.0
 30
0.0
 70
   128
 71
    62
 72
    63
 73
    80
  0
VERTEX
  5
30F
  8
0
 62
     9
 10
0.0
 20
0.0
 30
0.0
 70
   128
 71
    63
 72
    79
 73
    80
  0
VERTEX
  5
310
  8
0
 62
     9
 10
0.0
 20
0.0
 30
0.0
 70
   128
 71
    62
 72
    80
 73
    78
  0
VERTEX
  5
311
  8
0
 62
     9
 10
0.0
 20
0.0
 30
0.0
 70
   128
 71
    94
 72
    78
 73
    80
  0
VERTEX
  5
312
  8
0
 62
     9
 10
0.0
 20
0.0
 30
0.0
 70
   128
 71
     4
 72
    95
 73
    96
  0
VERTEX
  5
313
  8
0
 62
     9
 10
0.0
 20
0.0
 30
0.0
 70
   128
 71
    94
 72
    93
 73
    78
  0
VERTEX
  5
314
  8
0
 62
     9
 10
0.0
 20
0.0
 30
0.0
 70
   128
 71
     6
 72
     4
 73
    96
  0
VERTEX
  5
315
  8
0
 62
     9
 10
0.0
 20
0.0
 30
0.0
 70
   128
 71
    36
 72
    94
 73
    33
  0
VERTEX
  5
316
  8
0
 62
     9
 10
0.0
 20
0.0
 30
0.0
 70
   128
 71
    33
 72
    95
 73
     4
  0
VERTEX
  5
317
  8
0
 62
     9
 10
0.0
 20
0.0
 30
0.0
 70
   128
 71
    93
 72
    94
 73
    36
  0
VERTEX
  5
318
  8
0
 62
     9
 10
0.0
 20
0.0
 30
0.0
 70
   128
 71
    99
 72
    98
 73
    97
  0
VERTEX
  5
319
  8
0
 62
     9
 10
0.0
 20
0.0
 30
0.0
 70
   128
 71
    36
 72
    99
 73
    93
  0
VERTEX
  5
31A
  8
0
 62
     9
 10
0.0
 20
0.0
 30
0.0
 70
   128
 71
    98
 72
   100
 73
    97
  0
VERTEX
  5
31B
  8
0
 62
     9
 10
0.0
 20
0.0
 30
0.0
 70
   128
 71
   101
 72
   100
 73
    98
  0
VERTEX
  5
31C
  8
0
 62
     9
 10
0.0
 20
0.0
 30
0.0
 70
   128
 71
    97
 72
    93
 73
    99
  0
VERTEX
  5
31D
  8
0
 62
     9
 10
0.0
 20
0.0
 30
0.0
 70
   128
 71
    80
 72
    71
 73
    81
  0
VERTEX
  5
31E
  8
0
 62
     9
 10
0.0
 20
0.0
 30
0.0
 70
   128
 71
    81
 72
    94
 73
    80
  0
VERTEX
  5
31F
  8
0
 62
     9
 10
0.0
 20
0.0
 30
0.0
 70
   128
 71
   104
 72
   103
 73
   102
  0
VERTEX
  5
320
  8
0
 62
     9
 10
0.0
 20
0.0
 30
0.0
 70
   128
 71
    83
 72
   105
 73
    82
  0
VERTEX
  5
321
  8
0
 62
     9
 10
0.0
 20
0.0
 30
0.0
 70
   128
 71
   103
 72
   104
 73
   106
  0
VERTEX
  5
322
  8
0
 62
     9
 10
0.0
 20
0.0
 30
0.0
 70
   128
 71
   103
 72
   108
 73
   107
  0
VERTEX
  5
323
  8
0
 62
     9
 10
0.0
 20
0.0
 30
0.0
 70
   128
 71
   106
 72
   104
 73
   105
  0
VERTEX
  5
324
  8
0
 62
     9
 10
0.0
 20
0.0
 30
0.0
 70
   128
 71
   107
 72
   109
 73
   103
  0
VERTEX
  5
325
  8
0
 62
     9
 10
0.0
 20
0.0
 30
0.0
 70
   128
 71
    30
 72
   109
 73
   107
  0
VERTEX
  5
326
  8
0
 62
     9
 10
0.0
 20
0.0
 30
0.0
 70
   128
 71
   104
 72
    81
 73
    82
  0
VERTEX
  5
327
  8
0
 62
     9
 10
0.0
 20
0.0
 30
0.0
 70
   128
 71
   104
 72
   102
 73
    81
  0
VERTEX
  5
328
  8
0
 62
     9
 10
0.0
 20
0.0
 30
0.0
 70
   128
 71
   105
 72
   104
 73
    82
  0
VERTEX
  5
329
  8
0
 62
     9
 10
0.0
 20
0.0
 30
0.0
 70
   128
 71
   106
 72
   108
 73
   103
  0
VERTEX
  5
32A
  8
0
 62
     9
 10
0.0
 20
0.0
 30
0.0
 70
   128
 71
   103
 72
   109
 73
   102
  0
VERTEX
  5
32B
  8
0
 62
     9
 10
0.0
 20
0.0
 30
0.0
 70
   128
 71
   111
 72
    49
 73
   110
  0
VERTEX
  5
32C
  8
0
 62
     9
 10
0.0
 20
0.0
 30
0.0
 70
   128
 71
    73
 72
    57
 73
    74
  0
VERTEX
  5
32D
  8
0
 62
     9
 10
0.0
 20
0.0
 30
0.0
 70
   128
 71
    73
 72
    83
 73
    69
  0
VERTEX
  5
32E
  8
0
 62
     9
 10
0.0
 20
0.0
 30
0.0
 70
   128
 71
    73
 72
    74
 73
    39
  0
VERTEX
  5
32F
  8
0
 62
     9
 10
0.0
 20
0.0
 30
0.0
 70
   128
 71
    39
 72
    74
 73
    86
  0
VERTEX
  5
330
  8
0
 62
     9
 10
0.0
 20
0.0
 30
0.0
 70
   128
 71
   113
 72
    92
 73
   112
  0
VERTEX
  5
331
  8
0
 62
     9
 10
0.0
 20
0.0
 30
0.0
 70
   128
 71
    39
 72
    86
 73
    84
  0
VERTEX
  5
332
  8
0
 62
     9
 10
0.0
 20
0.0
 30
0.0
 70
   128
 71
   113
 72
   115
 73
   114
  0
VERTEX
  5
333
  8
0
 62
     9
 10
0.0
 20
0.0
 30
0.0
 70
   128
 71
   113
 72
    39
 73
    92
  0
VERTEX
  5
334
  8
0
 62
     9
 10
0.0
 20
0.0
 30
0.0
 70
   128
 71
   113
 72
   112
 73
   115
  0
VERTEX
  5
335
  8
0
 62
     9
 10
0.0
 20
0.0
 30
0.0
 70
   128
 71
    92
 72
    39
 73
    84
  0
VERTEX
  5
336
  8
0
 62
     9
 10
0.0
 20
0.0
 30
0.0
 70
   128
 71
    39
 72
    83
 73
    73
  0
VERTEX
  5
337
  8
0
 62
     9
 10
0.0
 20
0.0
 30
0.0
 70
   128
 71
   110
 72
    49
 73
   116
  0
VERTEX
  5
338
  8
0
 62
     9
 10
0.0
 20
0.0
 30
0.0
 70
   128
 71
    49
 72
   108
 73
    39
  0
VERTEX
  5
339
  8
0
 62
     9
 10
0.0
 20
0.0
 30
0.0
 70
   128
 71
   108
 72
    49
 73
   111
  0
VERTEX
  5
33A
  8
0
 62
     9
 10
0.0
 20
0.0
 30
0.0
 70
   128
 71
    39
 72
   106
 73
   105
  0
VERTEX
  5
33B
  8
0
 62
     9
 10
0.0
 20
0.0
 30
0.0
 70
   128
 71
   108
 72
   106
 73
    39
  0
VERTEX
  5
33C
  8
0
 62
     9
 10
0.0
 20
0.0
 30
0.0
 70
   128
 71
    39
 72
   105
 73
    83
  0
VERTEX
  5
33D
  8
0
 62
     9
 10
0.0
 20
0.0
 30
0.0
 70
   128
 71
   113
 72
    38
 73
    39
  0
VERTEX
  5
33E
  8
0
 62
     9
 10
0.0
 20
0.0
 30
0.0
 70
   128
 71
   119
 72
   118
 73
   117
  0
VERTEX
  5
33F
  8
0
 62
     9
 10
0.0
 20
0.0
 30
0.0
 70
   128
 71
   122
 72
   121
 73
   120
  0
VERTEX
  5
340
  8
0
 62
     9
 10
0.0
 20
0.0
 30
0.0
 70
   128
 71
   122
 72
   123
 73
   121
  0
VERTEX
  5
341
  8
0
 62
     9
 10
0.0
 20
0.0
 30
0.0
 70
   128
 71
   123
 72
   124
 73
    90
  0
VERTEX
  5
342
  8
0
 62
     9
 10
0.0
 20
0.0
 30
0.0
 70
   128
 71
   118
 72
   120
 73
   117
  0
VERTEX
  5
343
  8
0
 62
     9
 10
0.0
 20
0.0
 30
0.0
 70
   128
 71
   120
 72
   113
 73
   114
  0
VERTEX
  5
344
  8
0
 62
     9
 10
0.0
 20
0.0
 30
0.0
 70
   128
 71
   117
 72
   120
 73
   121
  0
VERTEX
  5
345
  8
0
 62
     9
 10
0.0
 20
0.0
 30
0.0
 70
   128
 71
    90
 72
   124
 73
    91
  0
VERTEX
  5
346
  8
0
 62
     9
 10
0.0
 20
0.0
 30
0.0
 70
   128
 71
    91
 72
   124
 73
   112
  0
VERTEX
  5
347
  8
0
 62
     9
 10
0.0
 20
0.0
 30
0.0
 70
   128
 71
   112
 72
    92
 73
    91
  0
VERTEX
  5
348
  8
0
 62
     9
 10
0.0
 20
0.0
 30
0.0
 70
   128
 71
   114
 72
   115
 73
   122
  0
VERTEX
  5
349
  8
0
 62
     9
 10
0.0
 20
0.0
 30
0.0
 70
   128
 71
   120
 72
   118
 73
   113
  0
VERTEX
  5
34A
  8
0
 62
     9
 10
0.0
 20
0.0
 30
0.0
 70
   128
 71
   115
 72
   112
 73
   124
  0
VERTEX
  5
34B
  8
0
 62
     9
 10
0.0
 20
0.0
 30
0.0
 70
   128
 71
   122
 72
   120
 73
   114
  0
VERTEX
  5
34C
  8
0
 62
     9
 10
0.0
 20
0.0
 30
0.0
 70
   128
 71
   124
 72
   122
 73
   115
  0
VERTEX
  5
34D
  8
0
 62
     9
 10
0.0
 20
0.0
 30
0.0
 70
   128
 71
   122
 72
   124
 73
   123
  0
VERTEX
  5
34E
  8
0
 62
     9
 10
0.0
 20
0.0
 30
0.0
 70
   128
 71
    76
 72
    93
 73
    97
  0
VERTEX
  5
34F
  8
0
 62
     9
 10
0.0
 20
0.0
 30
0.0
 70
   128
 71
    89
 72
    87
 73
   100
  0
VERTEX
  5
350
  8
0
 62
     9
 10
0.0
 20
0.0
 30
0.0
 70
   128
 71
   101
 72
    89
 73
   100
  0
VERTEX
  5
351
  8
0
 62
     9
 10
0.0
 20
0.0
 30
0.0
 70
   128
 71
    90
 72
    89
 73
   101
  0
VERTEX
  5
352
  8
0
 62
     9
 10
0.0
 20
0.0
 30
0.0
 70
   128
 71
    97
 72
    87
 73
    76
  0
VERTEX
  5
353
  8
0
 62
     9
 10
0.0
 20
0.0
 30
0.0
 70
   128
 71
   100
 72
    87
 73
    97
  0
VERTEX
  5
354
  8
0
 62
     9
 10
0.0
 20
0.0
 30
0.0
 70
   128
 71
     6
 72
    96
 73
   109
  0
VERTEX
  5
355
  8
0
 62
     9
 10
0.0
 20
0.0
 30
0.0
 70
   128
 71
    81
 72
   102
 73
    95
  0
VERTEX
  5
356
  8
0
 62
     9
 10
0.0
 20
0.0
 30
0.0
 70
   128
 71
   102
 72
    96
 73
    95
  0
VERTEX
  5
357
  8
0
 62
     9
 10
0.0
 20
0.0
 30
0.0
 70
   128
 71
    94
 72
    81
 73
    95
  0
VERTEX
  5
358
  8
0
 62
     9
 10
0.0
 20
0.0
 30
0.0
 70
   128
 71
   109
 72
    30
 73
     6
  0
VERTEX
  5
359
  8
0
 62
     9
 10
0.0
 20
0.0
 30
0.0
 70
   128
 71
   109
 72
    96
 73
   102
  0
VERTEX
  5
35A
  8
0
 62
     9
 10
0.0
 20
0.0
 30
0.0
 70
   128
 71
    27
 72
   125
 73
    25
  0
VERTEX
  5
35B
  8
0
 62
     9
 10
0.0
 20
0.0
 30
0.0
 70
   128
 71
   126
 72
   108
 73
   111
  0
VERTEX
  5
35C
  8
0
 62
     9
 10
0.0
 20
0.0
 30
0.0
 70
   128
 71
   128
 72
   127
 73
    22
  0
VERTEX
  5
35D
  8
0
 62
     9
 10
0.0
 20
0.0
 30
0.0
 70
   128
 71
   125
 72
   126
 73
   111
  0
VERTEX
  5
35E
  8
0
 62
     9
 10
0.0
 20
0.0
 30
0.0
 70
   128
 71
   127
 72
   116
 73
    49
  0
VERTEX
  5
35F
  8
0
 62
     9
 10
0.0
 20
0.0
 30
0.0
 70
   128
 71
    22
 72
    25
 73
   128
  0
VERTEX
  5
360
  8
0
 62
     9
 10
0.0
 20
0.0
 30
0.0
 70
   128
 71
   125
 72
   111
 73
   110
  0
VERTEX
  5
361
  8
0
 62
     9
 10
0.0
 20
0.0
 30
0.0
 70
   128
 71
   127
 72
   128
 73
   116
  0
VERTEX
  5
362
  8
0
 62
     9
 10
0.0
 20
0.0
 30
0.0
 70
   128
 71
   107
 72
    28
 73
    30
  0
VERTEX
  5
363
  8
0
 62
     9
 10
0.0
 20
0.0
 30
0.0
 70
   128
 71
   108
 72
   126
 73
   107
  0
VERTEX
  5
364
  8
0
 62
     9
 10
0.0
 20
0.0
 30
0.0
 70
   128
 71
    28
 72
   126
 73
    27
  0
VERTEX
  5
365
  8
0
 62
     9
 10
0.0
 20
0.0
 30
0.0
 70
   128
 71
   126
 72
    28
 73
   107
  0
VERTEX
  5
366
  8
0
 62
     9
 10
0.0
 20
0.0
 30
0.0
 70
   128
 71
   116
 72
   128
 73
   110
  0
VERTEX
  5
367
  8
0
 62
     9
 10
0.0
 20
0.0
 30
0.0
 70
   128
 71
   126
 72
   125
 73
    27
  0
VERTEX
  5
368
  8
0
 62
     9
 10
0.0
 20
0.0
 30
0.0
 70
   128
 71
   128
 72
   125
 73
   110
  0
VERTEX
  5
369
  8
0
 62
     9
 10
0.0
 20
0.0
 30
0.0
 70
   128
 71
   125
 72
   128
 73
    25
  0
VERTEX
  5
36A
  8
0
 62
     9
 10
0.0
 20
0.0
 30
0.0
 70
   128
 71
    11
 72
   130
 73
   129
  0
VERTEX
  5
36B
  8
0
 62
     9
 10
0.0
 20
0.0
 30
0.0
 70
   128
 71
   130
 72
     2
 73
   131
  0
VERTEX
  5
36C
  8
0
 62
     9
 10
0.0
 20
0.0
 30
0.0
 70
   128
 71
   129
 72
    13
 73
    11
  0
VERTEX
  5
36D
  8
0
 62
     9
 10
0.0
 20
0.0
 30
0.0
 70
   128
 71
    46
 72
   130
 73
   131
  0
VERTEX
  5
36E
  8
0
 62
     9
 10
0.0
 20
0.0
 30
0.0
 70
   128
 71
    48
 72
   131
 73
    49
  0
VERTEX
  5
36F
  8
0
 62
     9
 10
0.0
 20
0.0
 30
0.0
 70
   128
 71
   131
 72
     2
 73
     7
  0
VERTEX
  5
370
  8
0
 62
     9
 10
0.0
 20
0.0
 30
0.0
 70
   128
 71
    20
 72
    22
 73
   127
  0
VERTEX
  5
371
  8
0
 62
     9
 10
0.0
 20
0.0
 30
0.0
 70
   128
 71
   131
 72
    48
 73
    46
  0
VERTEX
  5
372
  8
0
 62
     9
 10
0.0
 20
0.0
 30
0.0
 70
   128
 71
   127
 72
   131
 73
    20
  0
VERTEX
  5
373
  8
0
 62
     9
 10
0.0
 20
0.0
 30
0.0
 70
   128
 71
     8
 72
   130
 73
    11
  0
VERTEX
  5
374
  8
0
 62
     9
 10
0.0
 20
0.0
 30
0.0
 70
   128
 71
    45
 72
   132
 73
   129
  0
VERTEX
  5
375
  8
0
 62
     9
 10
0.0
 20
0.0
 30
0.0
 70
   128
 71
    13
 72
   132
 73
    15
  0
VERTEX
  5
376
  8
0
 62
     9
 10
0.0
 20
0.0
 30
0.0
 70
   128
 71
    13
 72
   129
 73
   132
  0
VERTEX
  5
377
  8
0
 62
     9
 10
0.0
 20
0.0
 30
0.0
 70
   128
 71
    16
 72
   132
 73
   133
  0
VERTEX
  5
378
  8
0
 62
     9
 10
0.0
 20
0.0
 30
0.0
 70
   128
 71
   133
 72
   132
 73
    43
  0
VERTEX
  5
379
  8
0
 62
     9
 10
0.0
 20
0.0
 30
0.0
 70
   128
 71
    16
 72
   133
 73
    18
  0
VERTEX
  5
37A
  8
0
 62
     9
 10
0.0
 20
0.0
 30
0.0
 70
   128
 71
   136
 72
   135
 73
   134
  0
VERTEX
  5
37B
  8
0
 62
     9
 10
0.0
 20
0.0
 30
0.0
 70
   128
 71
   139
 72
   138
 73
   137
  0
VERTEX
  5
37C
  8
0
 62
     9
 10
0.0
 20
0.0
 30
0.0
 70
   128
 71
   141
 72
   136
 73
   140
  0
VERTEX
  5
37D
  8
0
 62
     9
 10
0.0
 20
0.0
 30
0.0
 70
   128
 71
   118
 72
   140
 73
    38
  0
VERTEX
  5
37E
  8
0
 62
     9
 10
0.0
 20
0.0
 30
0.0
 70
   128
 71
   142
 72
   118
 73
   119
  0
VERTEX
  5
37F
  8
0
 62
     9
 10
0.0
 20
0.0
 30
0.0
 70
   128
 71
   118
 72
    38
 73
   113
  0
VERTEX
  5
380
  8
0
 62
     9
 10
0.0
 20
0.0
 30
0.0
 70
   128
 71
   141
 72
   140
 73
   142
  0
VERTEX
  5
381
  8
0
 62
     9
 10
0.0
 20
0.0
 30
0.0
 70
   128
 71
   139
 72
   143
 73
   133
  0
VERTEX
  5
382
  8
0
 62
     9
 10
0.0
 20
0.0
 30
0.0
 70
   128
 71
   118
 72
   142
 73
   140
  0
VERTEX
  5
383
  8
0
 62
     9
 10
0.0
 20
0.0
 30
0.0
 70
   128
 71
   136
 72
   141
 73
   144
  0
VERTEX
  5
384
  8
0
 62
     9
 10
0.0
 20
0.0
 30
0.0
 70
   128
 71
   134
 72
   135
 73
   138
  0
VERTEX
  5
385
  8
0
 62
     9
 10
0.0
 20
0.0
 30
0.0
 70
   128
 71
   135
 72
   136
 73
   144
  0
VERTEX
  5
386
  8
0
 62
     9
 10
0.0
 20
0.0
 30
0.0
 70
   128
 71
   137
 72
   143
 73
   139
  0
VERTEX
  5
387
  8
0
 62
     9
 10
0.0
 20
0.0
 30
0.0
 70
   128
 71
   139
 72
   134
 73
   138
  0
VERTEX
  5
388
  8
0
 62
     9
 10
0.0
 20
0.0
 30
0.0
 70
   128
 71
    18
 72
   133
 73
   143
  0
VERTEX
  5
389
  8
0
 62
     9
 10
0.0
 20
0.0
 30
0.0
 70
   128
 71
   131
 72
     7
 73
    20
  0
VERTEX
  5
38A
  8
0
 62
     9
 10
0.0
 20
0.0
 30
0.0
 70
   128
 71
   131
 72
   127
 73
    49
  0
VERTEX
  5
38B
  8
0
 62
     9
 10
0.0
 20
0.0
 30
0.0
 70
   128
 71
   130
 72
    46
 73
    47
  0
VERTEX
  5
38C
  8
0
 62
     9
 10
0.0
 20
0.0
 30
0.0
 70
   128
 71
   130
 72
     8
 73
     2
  0
VERTEX
  5
38D
  8
0
 62
     9
 10
0.0
 20
0.0
 30
0.0
 70
   128
 71
    47
 72
   129
 73
   130
  0
VERTEX
  5
38E
  8
0
 62
     9
 10
0.0
 20
0.0
 30
0.0
 70
   128
 71
   129
 72
    47
 73
    45
  0
VERTEX
  5
38F
  8
0
 62
     9
 10
0.0
 20
0.0
 30
0.0
 70
   128
 71
   132
 72
    45
 73
    43
  0
VERTEX
  5
390
  8
0
 62
     9
 10
0.0
 20
0.0
 30
0.0
 70
   128
 71
    15
 72
   132
 73
    16
  0
VERTEX
  5
391
  8
0
 62
     9
 10
0.0
 20
0.0
 30
0.0
 70
   128
 71
    44
 72
   133
 73
    43
  0
VERTEX
  5
392
  8
0
 62
     9
 10
0.0
 20
0.0
 30
0.0
 70
   128
 71
   139
 72
    44
 73
    42
  0
VERTEX
  5
393
  8
0
 62
     9
 10
0.0
 20
0.0
 30
0.0
 70
   128
 71
   139
 72
   133
 73
    44
  0
VERTEX
  5
394
  8
0
 62
     9
 10
0.0
 20
0.0
 30
0.0
 70
   128
 71
    40
 72
   134
 73
    42
  0
VERTEX
  5
395
  8
0
 62
     9
 10
0.0
 20
0.0
 30
0.0
 70
   128
 71
   134
 72
   139
 73
    42
  0
VERTEX
  5
396
  8
0
 62
     9
 10
0.0
 20
0.0
 30
0.0
 70
   128
 71
    41
 72
   136
 73
    40
  0
VERTEX
  5
397
  8
0
 62
     9
 10
0.0
 20
0.0
 30
0.0
 70
   128
 71
   136
 72
   134
 73
    40
  0
VERTEX
  5
398
  8
0
 62
     9
 10
0.0
 20
0.0
 30
0.0
 70
   128
 71
    41
 72
    37
 73
   136
  0
VERTEX
  5
399
  8
0
 62
     9
 10
0.0
 20
0.0
 30
0.0
 70
   128
 71
    37
 72
   140
 73
   136
  0
VERTEX
  5
39A
  8
0
 62
     9
 10
0.0
 20
0.0
 30
0.0
 70
   128
 71
   140
 72
    37
 73
    38
  0
VERTEX
  5
39B
  8
0
 62
     9
 10
0.0
 20
0.0
 30
0.0
 70
   128
 71
    18
 72
   143
 73
   145
  0
VERTEX
  5
39C
  8
0
 62
     9
 10
0.0
 20
0.0
 30
0.0
 70
   128
 71
   147
 72
   135
 73
   146
  0
VERTEX
  5
39D
  8
0
 62
     9
 10
0.0
 20
0.0
 30
0.0
 70
   128
 71
   149
 72
   148
 73
   137
  0
VERTEX
  5
39E
  8
0
 62
     9
 10
0.0
 20
0.0
 30
0.0
 70
   128
 71
   119
 72
   150
 73
   142
  0
VERTEX
  5
39F
  8
0
 62
     9
 10
0.0
 20
0.0
 30
0.0
 70
   128
 71
   152
 72
   151
 73
   141
  0
VERTEX
  5
3A0
  8
0
 62
     9
 10
0.0
 20
0.0
 30
0.0
 70
   128
 71
   154
 72
   153
 73
   121
  0
VERTEX
  5
3A1
  8
0
 62
     9
 10
0.0
 20
0.0
 30
0.0
 70
   128
 71
   156
 72
   117
 73
   155
  0
VERTEX
  5
3A2
  8
0
 62
     9
 10
0.0
 20
0.0
 30
0.0
 70
   128
 71
   154
 72
   123
 73
   157
  0
VERTEX
  5
3A3
  8
0
 62
     9
 10
0.0
 20
0.0
 30
0.0
 70
   128
 71
   159
 72
    98
 73
   158
  0
VERTEX
  5
3A4
  8
0
 62
     9
 10
0.0
 20
0.0
 30
0.0
 70
   128
 71
    99
 72
   158
 73
    98
  0
VERTEX
  5
3A5
  8
0
 62
     9
 10
0.0
 20
0.0
 30
0.0
 70
   128
 71
   101
 72
   157
 73
    90
  0
VERTEX
  5
3A6
  8
0
 62
     9
 10
0.0
 20
0.0
 30
0.0
 70
   128
 71
   101
 72
    98
 73
   159
  0
VERTEX
  5
3A7
  8
0
 62
     9
 10
0.0
 20
0.0
 30
0.0
 70
   128
 71
   101
 72
   159
 73
   157
  0
VERTEX
  5
3A8
  8
0
 62
     9
 10
0.0
 20
0.0
 30
0.0
 70
   128
 71
    99
 72
   160
 73
   158
  0
VERTEX
  5
3A9
  8
0
 62
     9
 10
0.0
 20
0.0
 30
0.0
 70
   128
 71
    35
 72
   160
 73
    36
  0
VERTEX
  5
3AA
  8
0
 62
     9
 10
0.0
 20
0.0
 30
0.0
 70
   128
 71
    99
 72
    36
 73
   160
  0
VERTEX
  5
3AB
  8
0
 62
     9
 10
0.0
 20
0.0
 30
0.0
 70
   128
 71
    90
 72
   157
 73
   123
  0
VERTEX
  5
3AC
  8
0
 62
     9
 10
0.0
 20
0.0
 30
0.0
 70
   128
 71
   146
 72
   144
 73
   151
  0
VERTEX
  5
3AD
  8
0
 62
     9
 10
0.0
 20
0.0
 30
0.0
 70
   128
 71
   154
 72
   121
 73
   123
  0
VERTEX
  5
3AE
  8
0
 62
     9
 10
0.0
 20
0.0
 30
0.0
 70
   128
 71
   153
 72
   117
 73
   121
  0
VERTEX
  5
3AF
  8
0
 62
     9
 10
0.0
 20
0.0
 30
0.0
 70
   128
 71
   119
 72
   117
 73
   156
  0
VERTEX
  5
3B0
  8
0
 62
     9
 10
0.0
 20
0.0
 30
0.0
 70
   128
 71
   153
 72
   155
 73
   117
  0
VERTEX
  5
3B1
  8
0
 62
     9
 10
0.0
 20
0.0
 30
0.0
 70
   128
 71
   152
 72
   141
 73
   142
  0
VERTEX
  5
3B2
  8
0
 62
     9
 10
0.0
 20
0.0
 30
0.0
 70
   128
 71
   152
 72
   142
 73
   150
  0
VERTEX
  5
3B3
  8
0
 62
     9
 10
0.0
 20
0.0
 30
0.0
 70
   128
 71
   156
 72
   150
 73
   119
  0
VERTEX
  5
3B4
  8
0
 62
     9
 10
0.0
 20
0.0
 30
0.0
 70
   128
 71
   144
 72
   141
 73
   151
  0
VERTEX
  5
3B5
  8
0
 62
     9
 10
0.0
 20
0.0
 30
0.0
 70
   128
 71
   135
 72
   147
 73
   138
  0
VERTEX
  5
3B6
  8
0
 62
     9
 10
0.0
 20
0.0
 30
0.0
 70
   128
 71
   144
 72
   146
 73
   135
  0
VERTEX
  5
3B7
  8
0
 62
     9
 10
0.0
 20
0.0
 30
0.0
 70
   128
 71
   149
 72
   137
 73
   138
  0
VERTEX
  5
3B8
  8
0
 62
     9
 10
0.0
 20
0.0
 30
0.0
 70
   128
 71
   138
 72
   147
 73
   149
  0
VERTEX
  5
3B9
  8
0
 62
     9
 10
0.0
 20
0.0
 30
0.0
 70
   128
 71
   148
 72
   145
 73
   143
  0
VERTEX
  5
3BA
  8
0
 62
     9
 10
0.0
 20
0.0
 30
0.0
 70
   128
 71
   137
 72
   148
 73
   143
  0
VERTEX
  5
3BB
  8
0
 62
     9
 10
0.0
 20
0.0
 30
0.0
 70
   128
 71
    17
 72
    18
 73
   145
  0
SEQEND
  5
3BC
  8
0
 62
     9
  0
ENDBLK
  5
3BF
  8
0
  0
BLOCK
  8
0
  2
40
 70
     0
 10
0.0
 20
0.0
 30
0.0
  3
40
  1

  0
POLYLINE
  5
3C1
  8
0
 62
     9
 66
     1
 10
0.0
 20
0.0
 30
0.0
 70
    64
 71
    84
 72
    84
  0
VERTEX
  5
3C2
  8
0
 10
-10.88570404052734
 20
92.57349395751953
 30
-90.53399658203125
 70
   192
  0
VERTEX
  5
3C3
  8
0
 10
-12.16804218292236
 20
94.29959106445312
 30
-89.53399658203125
 70
   192
  0
VERTEX
  5
3C4
  8
0
 10
-10.88439273834229
 20
92.57200622558594
 30
-89.53399658203125
 70
   192
  0
VERTEX
  5
3C5
  8
0
 10
-9.3569974899292
 20
91.05520629882812
 30
-89.53399658203125
 70
   192
  0
VERTEX
  5
3C6
  8
0
 10
-9.35892391204834
 20
91.05570220947266
 30
-90.53399658203125
 70
   192
  0
VERTEX
  5
3C7
  8
0
 10
-7.620454788208008
 20
89.7829818725586
 30
-89.53399658203125
 70
   192
  0
VERTEX
  5
3C8
  8
0
 10
-7.623757839202881
 20
89.78294372558594
 30
-90.53399658203125
 70
   192
  0
VERTEX
  5
3C9
  8
0
 10
-5.716529369354248
 20
88.78248596191406
 30
-90.53399658203125
 70
   192
  0
VERTEX
  5
3CA
  8
0
 10
-5.715279102325439
 20
88.78410339355469
 30
-89.53399658203125
 70
   192
  0
VERTEX
  5
3CB
  8
0
 10
-3.680787324905396
 20
88.07942962646484
 30
-89.53399658203125
 70
   192
  0
VERTEX
  5
3CC
  8
0
 10
-3.68340277671814
 20
88.07850646972656
 30
-90.53399658203125
 70
   192
  0
VERTEX
  5
3CD
  8
0
 10
-1.565704584121704
 20
87.6861572265625
 30
-89.53399658203125
 70
   192
  0
VERTEX
  5
3CE
  8
0
 10
-1.566996574401855
 20
87.68511199951172
 30
-90.53399658203125
 70
   192
  0
VERTEX
  5
3CF
  8
0
 10
0.5837595462799072
 20
87.61126708984375
 30
-90.53399658203125
 70
   192
  0
VERTEX
  5
3D0
  8
0
 10
0.5855455994606018
 20
87.61289978027344
 30
-89.53399658203125
 70
   192
  0
VERTEX
  5
3D1
  8
0
 10
2.722778797149658
 20
87.86099243164062
 30
-89.53399658203125
 70
   192
  0
VERTEX
  5
3D2
  8
0
 10
2.721286058425903
 20
87.85853576660156
 30
-90.53399658203125
 70
   192
  0
VERTEX
  5
3D3
  8
0
 10
4.800115585327148
 20
88.4230728149414
 30
-89.53399658203125
 70
   192
  0
VERTEX
  5
3D4
  8
0
 10
4.798864841461182
 20
88.42204284667969
 30
-90.53399658203125
 70
   192
  0
VERTEX
  5
3D5
  8
0
 10
6.762462615966797
 20
89.29756164550781
 30
-90.53399658203125
 70
   192
  0
VERTEX
  5
3D6
  8
0
 10
6.760010719299316
 20
89.3051528930664
 30
-89.53399658203125
 70
   192
  0
VERTEX
  5
3D7
  8
0
 10
8.587475776672363
 20
90.4407958984375
 30
-90.53399658203125
 70
   192
  0
VERTEX
  5
3D8
  8
0
 10
8.587475776672363
 20
90.4407958984375
 30
-89.53399658203125
 70
   192
  0
VERTEX
  5
3D9
  8
0
 10
-12.16909408569336
 20
94.30127716064453
 30
-90.53399658203125
 70
   192
  0
VERTEX
  5
3DA
  8
0
 10
-13.18029308319092
 20
96.20156860351562
 30
-90.53399658203125
 70
   192
  0
VERTEX
  5
3DB
  8
0
 10
-13.18037414550781
 20
96.19957733154297
 30
-89.53399658203125
 70
   192
  0
VERTEX
  5
3DC
  8
0
 10
-13.89793586730957
 20
98.22832489013672
 30
-89.53399658203125
 70
   192
  0
VERTEX
  5
3DD
  8
0
 10
-13.89694881439209
 20
98.23147583007812
 30
-90.53399658203125
 70
   192
  0
VERTEX
  5
3DE
  8
0
 10
-14.30320453643799
 20
100.3439178466797
 30
-90.53399658203125
 70
   192
  0
VERTEX
  5
3DF
  8
0
 10
-14.30511665344238
 20
100.3431854248047
 30
-89.53399658203125
 70
   192
  0
VERTEX
  5
3E0
  8
0
 10
-14.390456199646
 20
102.4952239990234
 30
-90.53399658203125
 70
   192
  0
VERTEX
  5
3E1
  8
0
 10
-14.39209365844727
 20
102.4929885864258
 30
-89.53399658203125
 70
   192
  0
VERTEX
  5
3E2
  8
0
 10
-14.15767288208008
 20
104.6328430175781
 30
-89.53399658203125
 70
   192
  0
VERTEX
  5
3E3
  8
0
 10
-14.15629959106445
 20
104.6337738037109
 30
-90.53399658203125
 70
   192
  0
VERTEX
  5
3E4
  8
0
 10
-13.60530662536621
 20
106.7145538330078
 30
-90.53399658203125
 70
   192
  0
VERTEX
  5
3E5
  8
0
 10
-13.60738754272461
 20
106.7133178710938
 30
-89.53399658203125
 70
   192
  0
VERTEX
  5
3E6
  8
0
 10
-12.75070381164551
 20
108.6891403198242
 30
-90.53399658203125
 70
   192
  0
VERTEX
  5
3E7
  8
0
 10
-12.7534875869751
 20
108.6884155273438
 30
-89.53399658203125
 70
   192
  0
VERTEX
  5
3E8
  8
0
 10
-11.61412811279297
 20
110.5148162841797
 30
-89.53399658203125
 70
   192
  0
VERTEX
  5
3E9
  8
0
 10
-11.61278247833252
 20
110.5157165527344
 30
-90.53399658203125
 70
   192
  0
VERTEX
  5
3EA
  8
0
 10
-10.2023868560791
 20
112.1374588012695
 30
-90.53399658203125
 70
   192
  0
VERTEX
  5
3EB
  8
0
 10
-10.20895290374756
 20
112.1419982910156
 30
-89.53399658203125
 70
   192
  0
VERTEX
  5
3EC
  8
0
 10
-8.587475776672363
 20
113.5592041015625
 30
-89.53399658203125
 70
   192
  0
VERTEX
  5
3ED
  8
0
 10
-8.587475776672363
 20
113.5592041015625
 30
-90.53399658203125
 70
   192
  0
VERTEX
  5
3EE
  8
0
 10
10.2023868560791
 20
91.86254119873047
 30
-90.53399658203125
 70
   192
  0
VERTEX
  5
3EF
  8
0
 10
13.60738754272461
 20
97.28668212890625
 30
-89.53399658203125
 70
   192
  0
VERTEX
  5
3F0
  8
0
 10
13.60530662536621
 20
97.28544616699219
 30
-90.53399658203125
 70
   192
  0
VERTEX
  5
3F1
  8
0
 10
12.7534875869751
 20
95.31158447265625
 30
-89.53399658203125
 70
   192
  0
VERTEX
  5
3F2
  8
0
 10
12.75070381164551
 20
95.31085968017578
 30
-90.53399658203125
 70
   192
  0
VERTEX
  5
3F3
  8
0
 10
11.61278247833252
 20
93.48428344726562
 30
-90.53399658203125
 70
   192
  0
VERTEX
  5
3F4
  8
0
 10
11.61412811279297
 20
93.48518371582031
 30
-89.53399658203125
 70
   192
  0
VERTEX
  5
3F5
  8
0
 10
14.30320453643799
 20
103.6560821533203
 30
-90.53399658203125
 70
   192
  0
VERTEX
  5
3F6
  8
0
 10
14.30511665344238
 20
103.6568145751953
 30
-89.53399658203125
 70
   192
  0
VERTEX
  5
3F7
  8
0
 10
13.89694881439209
 20
105.7685241699219
 30
-90.53399658203125
 70
   192
  0
VERTEX
  5
3F8
  8
0
 10
14.390456199646
 20
101.5047760009766
 30
-90.53399658203125
 70
   192
  0
VERTEX
  5
3F9
  8
0
 10
14.15767288208008
 20
99.36715698242188
 30
-89.53399658203125
 70
   192
  0
VERTEX
  5
3FA
  8
0
 10
14.39209365844727
 20
101.5070114135742
 30
-89.53399658203125
 70
   192
  0
VERTEX
  5
3FB
  8
0
 10
10.88439273834229
 20
111.4279937744141
 30
-89.53399658203125
 70
   192
  0
VERTEX
  5
3FC
  8
0
 10
10.88570404052734
 20
111.4265060424805
 30
-90.53399658203125
 70
   192
  0
VERTEX
  5
3FD
  8
0
 10
12.16804218292236
 20
109.7004089355469
 30
-89.53399658203125
 70
   192
  0
VERTEX
  5
3FE
  8
0
 10
13.18037414550781
 20
107.800422668457
 30
-89.53399658203125
 70
   192
  0
VERTEX
  5
3FF
  8
0
 10
12.16909408569336
 20
109.6987228393555
 30
-90.53399658203125
 70
   192
  0
VERTEX
  5
400
  8
0
 10
13.18029308319092
 20
107.7984313964844
 30
-90.53399658203125
 70
   192
  0
VERTEX
  5
401
  8
0
 10
7.620454788208008
 20
114.2170181274414
 30
-89.53399658203125
 70
   192
  0
VERTEX
  5
402
  8
0
 10
5.716529369354248
 20
115.2175140380859
 30
-90.53399658203125
 70
   192
  0
VERTEX
  5
403
  8
0
 10
7.623757839202881
 20
114.2170562744141
 30
-90.53399658203125
 70
   192
  0
VERTEX
  5
404
  8
0
 10
9.35892391204834
 20
112.9442977905273
 30
-90.53399658203125
 70
   192
  0
VERTEX
  5
405
  8
0
 10
9.3569974899292
 20
112.9447937011719
 30
-89.53399658203125
 70
   192
  0
VERTEX
  5
406
  8
0
 10
3.680787324905396
 20
115.9205703735352
 30
-89.53399658203125
 70
   192
  0
VERTEX
  5
407
  8
0
 10
1.566996574401855
 20
116.3148880004883
 30
-90.53399658203125
 70
   192
  0
VERTEX
  5
408
  8
0
 10
3.68340277671814
 20
115.9214935302734
 30
-90.53399658203125
 70
   192
  0
VERTEX
  5
409
  8
0
 10
5.715279102325439
 20
115.2158966064453
 30
-89.53399658203125
 70
   192
  0
VERTEX
  5
40A
  8
0
 10
-0.5855455994606018
 20
116.3871002197266
 30
-89.53399658203125
 70
   192
  0
VERTEX
  5
40B
  8
0
 10
-0.5837595462799072
 20
116.3887329101562
 30
-90.53399658203125
 70
   192
  0
VERTEX
  5
40C
  8
0
 10
1.565704584121704
 20
116.3138427734375
 30
-89.53399658203125
 70
   192
  0
VERTEX
  5
40D
  8
0
 10
-2.721286058425903
 20
116.1414642333984
 30
-90.53399658203125
 70
   192
  0
VERTEX
  5
40E
  8
0
 10
-2.722778797149658
 20
116.1390075683594
 30
-89.53399658203125
 70
   192
  0
VERTEX
  5
40F
  8
0
 10
-4.800115585327148
 20
115.5769271850586
 30
-89.53399658203125
 70
   192
  0
VERTEX
  5
410
  8
0
 10
-4.798864841461182
 20
115.5779571533203
 30
-90.53399658203125
 70
   192
  0
VERTEX
  5
411
  8
0
 10
-6.760010719299316
 20
114.6948471069336
 30
-89.53399658203125
 70
   192
  0
VERTEX
  5
412
  8
0
 10
-6.762462615966797
 20
114.7024383544922
 30
-90.53399658203125
 70
   192
  0
VERTEX
  5
413
  8
0
 10
13.89793586730957
 20
105.7716751098633
 30
-89.53399658203125
 70
   192
  0
VERTEX
  5
414
  8
0
 10
14.15629959106445
 20
99.36622619628906
 30
-90.53399658203125
 70
   192
  0
VERTEX
  5
415
  8
0
 10
10.20895290374756
 20
91.85800170898438
 30
-89.53399658203125
 70
   192
  0
VERTEX
  5
416
  8
0
 62
     9
 10
0.0
 20
0.0
 30
0.0
 70
   128
 71
     3
 72
     2
 73
     1
  0
VERTEX
  5
417
  8
0
 62
     9
 10
0.0
 20
0.0
 30
0.0
 70
   128
 71
     5
 72
     4
 73
     3
  0
VERTEX
  5
418
  8
0
 62
     9
 10
0.0
 20
0.0
 30
0.0
 70
   128
 71
     3
 72
     1
 73
     5
  0
VERTEX
  5
419
  8
0
 62
     9
 10
0.0
 20
0.0
 30
0.0
 70
   128
 71
     4
 72
     7
 73
     6
  0
VERTEX
  5
41A
  8
0
 62
     9
 10
0.0
 20
0.0
 30
0.0
 70
   128
 71
     7
 72
     4
 73
     5
  0
VERTEX
  5
41B
  8
0
 62
     9
 10
0.0
 20
0.0
 30
0.0
 70
   128
 71
     9
 72
     6
 73
     8
  0
VERTEX
  5
41C
  8
0
 62
     9
 10
0.0
 20
0.0
 30
0.0
 70
   128
 71
     7
 72
     8
 73
     6
  0
VERTEX
  5
41D
  8
0
 62
     9
 10
0.0
 20
0.0
 30
0.0
 70
   128
 71
    11
 72
    10
 73
     9
  0
VERTEX
  5
41E
  8
0
 62
     9
 10
0.0
 20
0.0
 30
0.0
 70
   128
 71
     9
 72
     8
 73
    11
  0
VERTEX
  5
41F
  8
0
 62
     9
 10
0.0
 20
0.0
 30
0.0
 70
   128
 71
    10
 72
    13
 73
    12
  0
VERTEX
  5
420
  8
0
 62
     9
 10
0.0
 20
0.0
 30
0.0
 70
   128
 71
    13
 72
    10
 73
    11
  0
VERTEX
  5
421
  8
0
 62
     9
 10
0.0
 20
0.0
 30
0.0
 70
   128
 71
    15
 72
    12
 73
    14
  0
VERTEX
  5
422
  8
0
 62
     9
 10
0.0
 20
0.0
 30
0.0
 70
   128
 71
    13
 72
    14
 73
    12
  0
VERTEX
  5
423
  8
0
 62
     9
 10
0.0
 20
0.0
 30
0.0
 70
   128
 71
    17
 72
    16
 73
    15
  0
VERTEX
  5
424
  8
0
 62
     9
 10
0.0
 20
0.0
 30
0.0
 70
   128
 71
    15
 72
    14
 73
    17
  0
VERTEX
  5
425
  8
0
 62
     9
 10
0.0
 20
0.0
 30
0.0
 70
   128
 71
    16
 72
    19
 73
    18
  0
VERTEX
  5
426
  8
0
 62
     9
 10
0.0
 20
0.0
 30
0.0
 70
   128
 71
    19
 72
    16
 73
    17
  0
VERTEX
  5
427
  8
0
 62
     9
 10
0.0
 20
0.0
 30
0.0
 70
   128
 71
    21
 72
    18
 73
    20
  0
VERTEX
  5
428
  8
0
 62
     9
 10
0.0
 20
0.0
 30
0.0
 70
   128
 71
    19
 72
    20
 73
    18
  0
VERTEX
  5
429
  8
0
 62
     9
 10
0.0
 20
0.0
 30
0.0
 70
   128
 71
    21
 72
    20
 73
    22
  0
VERTEX
  5
42A
  8
0
 62
     9
 10
0.0
 20
0.0
 30
0.0
 70
   128
 71
    23
 72
    21
 73
    22
  0
VERTEX
  5
42B
  8
0
 62
     9
 10
0.0
 20
0.0
 30
0.0
 70
   128
 71
     2
 72
    24
 73
     1
  0
VERTEX
  5
42C
  8
0
 62
     9
 10
0.0
 20
0.0
 30
0.0
 70
   128
 71
    24
 72
    26
 73
    25
  0
VERTEX
  5
42D
  8
0
 62
     9
 10
0.0
 20
0.0
 30
0.0
 70
   128
 71
    26
 72
    24
 73
     2
  0
VERTEX
  5
42E
  8
0
 62
     9
 10
0.0
 20
0.0
 30
0.0
 70
   128
 71
    28
 72
    25
 73
    27
  0
VERTEX
  5
42F
  8
0
 62
     9
 10
0.0
 20
0.0
 30
0.0
 70
   128
 71
    26
 72
    27
 73
    25
  0
VERTEX
  5
430
  8
0
 62
     9
 10
0.0
 20
0.0
 30
0.0
 70
   128
 71
    30
 72
    29
 73
    28
  0
VERTEX
  5
431
  8
0
 62
     9
 10
0.0
 20
0.0
 30
0.0
 70
   128
 71
    28
 72
    27
 73
    30
  0
VERTEX
  5
432
  8
0
 62
     9
 10
0.0
 20
0.0
 30
0.0
 70
   128
 71
    29
 72
    32
 73
    31
  0
VERTEX
  5
433
  8
0
 62
     9
 10
0.0
 20
0.0
 30
0.0
 70
   128
 71
    32
 72
    29
 73
    30
  0
VERTEX
  5
434
  8
0
 62
     9
 10
0.0
 20
0.0
 30
0.0
 70
   128
 71
    34
 72
    31
 73
    33
  0
VERTEX
  5
435
  8
0
 62
     9
 10
0.0
 20
0.0
 30
0.0
 70
   128
 71
    32
 72
    33
 73
    31
  0
VERTEX
  5
436
  8
0
 62
     9
 10
0.0
 20
0.0
 30
0.0
 70
   128
 71
    36
 72
    35
 73
    34
  0
VERTEX
  5
437
  8
0
 62
     9
 10
0.0
 20
0.0
 30
0.0
 70
   128
 71
    34
 72
    33
 73
    36
  0
VERTEX
  5
438
  8
0
 62
     9
 10
0.0
 20
0.0
 30
0.0
 70
   128
 71
    35
 72
    38
 73
    37
  0
VERTEX
  5
439
  8
0
 62
     9
 10
0.0
 20
0.0
 30
0.0
 70
   128
 71
    38
 72
    35
 73
    36
  0
VERTEX
  5
43A
  8
0
 62
     9
 10
0.0
 20
0.0
 30
0.0
 70
   128
 71
    40
 72
    37
 73
    39
  0
VERTEX
  5
43B
  8
0
 62
     9
 10
0.0
 20
0.0
 30
0.0
 70
   128
 71
    38
 72
    39
 73
    37
  0
VERTEX
  5
43C
  8
0
 62
     9
 10
0.0
 20
0.0
 30
0.0
 70
   128
 71
    42
 72
    41
 73
    40
  0
VERTEX
  5
43D
  8
0
 62
     9
 10
0.0
 20
0.0
 30
0.0
 70
   128
 71
    40
 72
    39
 73
    42
  0
VERTEX
  5
43E
  8
0
 62
     9
 10
0.0
 20
0.0
 30
0.0
 70
   128
 71
    43
 72
    41
 73
    42
  0
VERTEX
  5
43F
  8
0
 62
     9
 10
0.0
 20
0.0
 30
0.0
 70
   128
 71
    43
 72
    44
 73
    41
  0
VERTEX
  5
440
  8
0
 62
     9
 10
0.0
 20
0.0
 30
0.0
 70
   128
 71
    23
 72
    22
 73
    45
  0
VERTEX
  5
441
  8
0
 62
     9
 10
0.0
 20
0.0
 30
0.0
 70
   128
 71
    48
 72
    47
 73
    46
  0
VERTEX
  5
442
  8
0
 62
     9
 10
0.0
 20
0.0
 30
0.0
 70
   128
 71
    51
 72
    50
 73
    49
  0
VERTEX
  5
443
  8
0
 62
     9
 10
0.0
 20
0.0
 30
0.0
 70
   128
 71
    54
 72
    53
 73
    52
  0
VERTEX
  5
444
  8
0
 62
     9
 10
0.0
 20
0.0
 30
0.0
 70
   128
 71
    57
 72
    56
 73
    55
  0
VERTEX
  5
445
  8
0
 62
     9
 10
0.0
 20
0.0
 30
0.0
 70
   128
 71
    60
 72
    59
 73
    58
  0
VERTEX
  5
446
  8
0
 62
     9
 10
0.0
 20
0.0
 30
0.0
 70
   128
 71
    63
 72
    62
 73
    61
  0
VERTEX
  5
447
  8
0
 62
     9
 10
0.0
 20
0.0
 30
0.0
 70
   128
 71
    66
 72
    65
 73
    64
  0
VERTEX
  5
448
  8
0
 62
     9
 10
0.0
 20
0.0
 30
0.0
 70
   128
 71
    66
 72
    68
 73
    67
  0
VERTEX
  5
449
  8
0
 62
     9
 10
0.0
 20
0.0
 30
0.0
 70
   128
 71
    71
 72
    70
 73
    69
  0
VERTEX
  5
44A
  8
0
 62
     9
 10
0.0
 20
0.0
 30
0.0
 70
   128
 71
    71
 72
    72
 73
    65
  0
VERTEX
  5
44B
  8
0
 62
     9
 10
0.0
 20
0.0
 30
0.0
 70
   128
 71
    75
 72
    74
 73
    73
  0
VERTEX
  5
44C
  8
0
 62
     9
 10
0.0
 20
0.0
 30
0.0
 70
   128
 71
    74
 72
    75
 73
    70
  0
VERTEX
  5
44D
  8
0
 62
     9
 10
0.0
 20
0.0
 30
0.0
 70
   128
 71
    77
 72
    73
 73
    76
  0
VERTEX
  5
44E
  8
0
 62
     9
 10
0.0
 20
0.0
 30
0.0
 70
   128
 71
    74
 72
    76
 73
    73
  0
VERTEX
  5
44F
  8
0
 62
     9
 10
0.0
 20
0.0
 30
0.0
 70
   128
 71
    79
 72
    78
 73
    77
  0
VERTEX
  5
450
  8
0
 62
     9
 10
0.0
 20
0.0
 30
0.0
 70
   128
 71
    77
 72
    76
 73
    79
  0
VERTEX
  5
451
  8
0
 62
     9
 10
0.0
 20
0.0
 30
0.0
 70
   128
 71
    78
 72
    81
 73
    80
  0
VERTEX
  5
452
  8
0
 62
     9
 10
0.0
 20
0.0
 30
0.0
 70
   128
 71
    81
 72
    78
 73
    79
  0
VERTEX
  5
453
  8
0
 62
     9
 10
0.0
 20
0.0
 30
0.0
 70
   128
 71
    43
 72
    80
 73
    44
  0
VERTEX
  5
454
  8
0
 62
     9
 10
0.0
 20
0.0
 30
0.0
 70
   128
 71
    81
 72
    44
 73
    80
  0
VERTEX
  5
455
  8
0
 62
     9
 10
0.0
 20
0.0
 30
0.0
 70
   128
 71
    72
 72
    71
 73
    69
  0
VERTEX
  5
456
  8
0
 62
     9
 10
0.0
 20
0.0
 30
0.0
 70
   128
 71
    70
 72
    75
 73
    69
  0
VERTEX
  5
457
  8
0
 62
     9
 10
0.0
 20
0.0
 30
0.0
 70
   128
 71
    64
 72
    68
 73
    66
  0
VERTEX
  5
458
  8
0
 62
     9
 10
0.0
 20
0.0
 30
0.0
 70
   128
 71
    65
 72
    72
 73
    64
  0
VERTEX
  5
459
  8
0
 62
     9
 10
0.0
 20
0.0
 30
0.0
 70
   128
 71
    59
 72
    67
 73
    58
  0
VERTEX
  5
45A
  8
0
 62
     9
 10
0.0
 20
0.0
 30
0.0
 70
   128
 71
    67
 72
    68
 73
    58
  0
VERTEX
  5
45B
  8
0
 62
     9
 10
0.0
 20
0.0
 30
0.0
 70
   128
 71
    61
 72
    62
 73
    60
  0
VERTEX
  5
45C
  8
0
 62
     9
 10
0.0
 20
0.0
 30
0.0
 70
   128
 71
    62
 72
    59
 73
    60
  0
VERTEX
  5
45D
  8
0
 62
     9
 10
0.0
 20
0.0
 30
0.0
 70
   128
 71
    82
 72
    54
 73
    63
  0
VERTEX
  5
45E
  8
0
 62
     9
 10
0.0
 20
0.0
 30
0.0
 70
   128
 71
    82
 72
    63
 73
    61
  0
VERTEX
  5
45F
  8
0
 62
     9
 10
0.0
 20
0.0
 30
0.0
 70
   128
 71
    53
 72
    57
 73
    52
  0
VERTEX
  5
460
  8
0
 62
     9
 10
0.0
 20
0.0
 30
0.0
 70
   128
 71
    82
 72
    53
 73
    54
  0
VERTEX
  5
461
  8
0
 62
     9
 10
0.0
 20
0.0
 30
0.0
 70
   128
 71
    55
 72
    56
 73
    83
  0
VERTEX
  5
462
  8
0
 62
     9
 10
0.0
 20
0.0
 30
0.0
 70
   128
 71
    52
 72
    57
 73
    55
  0
VERTEX
  5
463
  8
0
 62
     9
 10
0.0
 20
0.0
 30
0.0
 70
   128
 71
    46
 72
    47
 73
    83
  0
VERTEX
  5
464
  8
0
 62
     9
 10
0.0
 20
0.0
 30
0.0
 70
   128
 71
    83
 72
    56
 73
    46
  0
VERTEX
  5
465
  8
0
 62
     9
 10
0.0
 20
0.0
 30
0.0
 70
   128
 71
    51
 72
    49
 73
    48
  0
VERTEX
  5
466
  8
0
 62
     9
 10
0.0
 20
0.0
 30
0.0
 70
   128
 71
    49
 72
    47
 73
    48
  0
VERTEX
  5
467
  8
0
 62
     9
 10
0.0
 20
0.0
 30
0.0
 70
   128
 71
    84
 72
    45
 73
    50
  0
VERTEX
  5
468
  8
0
 62
     9
 10
0.0
 20
0.0
 30
0.0
 70
   128
 71
    84
 72
    50
 73
    51
  0
VERTEX
  5
469
  8
0
 62
     9
 10
0.0
 20
0.0
 30
0.0
 70
   128
 71
    45
 72
    84
 73
    23
  0
SEQEND
  5
46A
  8
0
 62
     9
  0
ENDBLK
  5
46D
  8
0
  0
BLOCK
  8
0
  2
41
 70
     0
 10
0.0
 20
0.0
 30
0.0
  3
41
  1

  0
POLYLINE
  5
46F
  8
0
 62
     9
 66
     1
 10
0.0
 20
0.0
 30
0.0
 70
    64
 71
    84
 72
    84
  0
VERTEX
  5
470
  8
0
 10
-14.35972023010254
 20
-100.9248504638672
 30
-89.53399658203125
 70
   192
  0
VERTEX
  5
471
  8
0
 10
-14.35972023010254
 20
-103.0751495361328
 30
-90.53399658203125
 70
   192
  0
VERTEX
  5
472
  8
0
 10
-14.35955810546875
 20
-100.9228668212891
 30
-90.53399658203125
 70
   192
  0
VERTEX
  5
473
  8
0
 10
-14.03802967071533
 20
-98.79443359375
 30
-90.53399658203125
 70
   192
  0
VERTEX
  5
474
  8
0
 10
-14.03927993774414
 20
-98.79598236083984
 30
-89.53399658203125
 70
   192
  0
VERTEX
  5
475
  8
0
 10
-13.4027624130249
 20
-96.73759460449219
 30
-90.53399658203125
 70
   192
  0
VERTEX
  5
476
  8
0
 10
-13.40543556213379
 20
-96.73954010009766
 30
-89.53399658203125
 70
   192
  0
VERTEX
  5
477
  8
0
 10
-12.47108459472656
 20
-94.79906463623047
 30
-89.53399658203125
 70
   192
  0
VERTEX
  5
478
  8
0
 10
-12.46911525726318
 20
-94.79962158203125
 30
-90.53399658203125
 70
   192
  0
VERTEX
  5
479
  8
0
 10
-11.25621795654297
 20
-93.02069091796875
 30
-90.53399658203125
 70
   192
  0
VERTEX
  5
47A
  8
0
 10
-11.25886726379395
 20
-93.0215072631836
 30
-89.53399658203125
 70
   192
  0
VERTEX
  5
47B
  8
0
 10
-9.792923927307129
 20
-91.44366455078125
 30
-90.53399658203125
 70
   192
  0
VERTEX
  5
47C
  8
0
 10
-9.794583320617676
 20
-91.44359588623047
 30
-89.53399658203125
 70
   192
  0
VERTEX
  5
47D
  8
0
 10
-8.11215877532959
 20
-90.10171508789062
 30
-89.53399658203125
 70
   192
  0
VERTEX
  5
47E
  8
0
 10
-8.109750747680664
 20
-90.10195922851562
 30
-90.53399658203125
 70
   192
  0
VERTEX
  5
47F
  8
0
 10
-6.246194839477539
 20
-89.02656555175781
 30
-90.53399658203125
 70
   192
  0
VERTEX
  5
480
  8
0
 10
-6.248858451843262
 20
-89.02548217773438
 30
-89.53399658203125
 70
   192
  0
VERTEX
  5
481
  8
0
 10
-4.24347448348999
 20
-88.23892974853516
 30
-90.53399658203125
 70
   192
  0
VERTEX
  5
482
  8
0
 10
-4.245091915130615
 20
-88.23884582519531
 30
-89.53399658203125
 70
   192
  0
VERTEX
  5
483
  8
0
 10
-2.146750688552856
 20
-87.7706527709961
 30
-89.53399658203125
 70
   192
  0
VERTEX
  5
484
  8
0
 10
-2.144187688827515
 20
-87.77821350097656
 30
-90.53399658203125
 70
   192
  0
VERTEX
  5
485
  8
0
 10
-0.0000000000008851
 20
-87.5999984741211
 30
-89.53399658203125
 70
   192
  0
VERTEX
  5
486
  8
0
 10
-0.0000000000008893
 20
-87.5999984741211
 30
-90.53399658203125
 70
   192
  0
VERTEX
  5
487
  8
0
 10
-14.35955810546875
 20
-103.0771331787109
 30
-89.53399658203125
 70
   192
  0
VERTEX
  5
488
  8
0
 10
-14.03802967071533
 20
-105.20556640625
 30
-89.53399658203125
 70
   192
  0
VERTEX
  5
489
  8
0
 10
-14.03927993774414
 20
-105.2040176391602
 30
-90.53399658203125
 70
   192
  0
VERTEX
  5
48A
  8
0
 10
-13.40543556213379
 20
-107.2604598999023
 30
-90.53399658203125
 70
   192
  0
VERTEX
  5
48B
  8
0
 10
-13.4027624130249
 20
-107.2624053955078
 30
-89.53399658203125
 70
   192
  0
VERTEX
  5
48C
  8
0
 10
-12.46911525726318
 20
-109.2003784179688
 30
-89.53399658203125
 70
   192
  0
VERTEX
  5
48D
  8
0
 10
-12.47108459472656
 20
-109.2009353637695
 30
-90.53399658203125
 70
   192
  0
VERTEX
  5
48E
  8
0
 10
-11.25621795654297
 20
-110.9793090820312
 30
-89.53399658203125
 70
   192
  0
VERTEX
  5
48F
  8
0
 10
-11.25886726379395
 20
-110.9784927368164
 30
-90.53399658203125
 70
   192
  0
VERTEX
  5
490
  8
0
 10
-9.794583320617676
 20
-112.5564041137695
 30
-90.53399658203125
 70
   192
  0
VERTEX
  5
491
  8
0
 10
-9.792923927307129
 20
-112.5563354492188
 30
-89.53399658203125
 70
   192
  0
VERTEX
  5
492
  8
0
 10
-8.109750747680664
 20
-113.8980407714844
 30
-89.53399658203125
 70
   192
  0
VERTEX
  5
493
  8
0
 10
-8.11215877532959
 20
-113.8982849121094
 30
-90.53399658203125
 70
   192
  0
VERTEX
  5
494
  8
0
 10
-6.246194839477539
 20
-114.9734344482422
 30
-89.53399658203125
 70
   192
  0
VERTEX
  5
495
  8
0
 10
-6.248858451843262
 20
-114.9745178222656
 30
-90.53399658203125
 70
   192
  0
VERTEX
  5
496
  8
0
 10
-4.245091915130615
 20
-115.7611541748047
 30
-90.53399658203125
 70
   192
  0
VERTEX
  5
497
  8
0
 10
-4.24347448348999
 20
-115.7610702514648
 30
-89.53399658203125
 70
   192
  0
VERTEX
  5
498
  8
0
 10
-2.144187688827515
 20
-116.2217864990234
 30
-89.53399658203125
 70
   192
  0
VERTEX
  5
499
  8
0
 10
-2.146750688552856
 20
-116.2293472290039
 30
-90.53399658203125
 70
   192
  0
VERTEX
  5
49A
  8
0
 10
-0.0000000000008939
 20
-116.4000015258789
 30
-90.53399658203125
 70
   192
  0
VERTEX
  5
49B
  8
0
 10
-0.0000000000008898
 20
-116.4000015258789
 30
-89.53399658203125
 70
   192
  0
VERTEX
  5
49C
  8
0
 10
2.144187688827515
 20
-87.77821350097656
 30
-89.53399658203125
 70
   192
  0
VERTEX
  5
49D
  8
0
 10
8.11215877532959
 20
-90.10171508789062
 30
-90.53399658203125
 70
   192
  0
VERTEX
  5
49E
  8
0
 10
8.109750747680664
 20
-90.10195922851562
 30
-89.53399658203125
 70
   192
  0
VERTEX
  5
49F
  8
0
 10
6.248858451843262
 20
-89.02548217773438
 30
-90.53399658203125
 70
   192
  0
VERTEX
  5
4A0
  8
0
 10
6.246194839477539
 20
-89.02656555175781
 30
-89.53399658203125
 70
   192
  0
VERTEX
  5
4A1
  8
0
 10
4.24347448348999
 20
-88.23892974853516
 30
-89.53399658203125
 70
   192
  0
VERTEX
  5
4A2
  8
0
 10
4.245091915130615
 20
-88.23884582519531
 30
-90.53399658203125
 70
   192
  0
VERTEX
  5
4A3
  8
0
 10
12.46911525726318
 20
-94.79962158203125
 30
-89.53399658203125
 70
   192
  0
VERTEX
  5
4A4
  8
0
 10
12.47108459472656
 20
-94.79906463623047
 30
-90.53399658203125
 70
   192
  0
VERTEX
  5
4A5
  8
0
 10
13.4027624130249
 20
-96.73759460449219
 30
-89.53399658203125
 70
   192
  0
VERTEX
  5
4A6
  8
0
 10
11.25621795654297
 20
-93.02069091796875
 30
-89.53399658203125
 70
   192
  0
VERTEX
  5
4A7
  8
0
 10
9.794583320617676
 20
-91.44359588623047
 30
-90.53399658203125
 70
   192
  0
VERTEX
  5
4A8
  8
0
 10
11.25886726379395
 20
-93.0215072631836
 30
-90.53399658203125
 70
   192
  0
VERTEX
  5
4A9
  8
0
 10
14.35955810546875
 20
-103.0771331787109
 30
-90.53399658203125
 70
   192
  0
VERTEX
  5
4AA
  8
0
 10
14.35972023010254
 20
-103.0751495361328
 30
-89.53399658203125
 70
   192
  0
VERTEX
  5
4AB
  8
0
 10
14.35972023010254
 20
-100.9248504638672
 30
-90.53399658203125
 70
   192
  0
VERTEX
  5
4AC
  8
0
 10
14.03927993774414
 20
-98.79598236083984
 30
-90.53399658203125
 70
   192
  0
VERTEX
  5
4AD
  8
0
 10
14.35955810546875
 20
-100.9228668212891
 30
-89.53399658203125
 70
   192
  0
VERTEX
  5
4AE
  8
0
 10
14.03802967071533
 20
-98.79443359375
 30
-89.53399658203125
 70
   192
  0
VERTEX
  5
4AF
  8
0
 10
13.4027624130249
 20
-107.2624053955078
 30
-90.53399658203125
 70
   192
  0
VERTEX
  5
4B0
  8
0
 10
12.47108459472656
 20
-109.2009353637695
 30
-89.53399658203125
 70
   192
  0
VERTEX
  5
4B1
  8
0
 10
13.40543556213379
 20
-107.2604598999023
 30
-89.53399658203125
 70
   192
  0
VERTEX
  5
4B2
  8
0
 10
14.03927993774414
 20
-105.2040176391602
 30
-89.53399658203125
 70
   192
  0
VERTEX
  5
4B3
  8
0
 10
14.03802967071533
 20
-105.20556640625
 30
-90.53399658203125
 70
   192
  0
VERTEX
  5
4B4
  8
0
 10
11.25621795654297
 20
-110.9793090820312
 30
-90.53399658203125
 70
   192
  0
VERTEX
  5
4B5
  8
0
 10
9.794583320617676
 20
-112.5564041137695
 30
-89.53399658203125
 70
   192
  0
VERTEX
  5
4B6
  8
0
 10
11.25886726379395
 20
-110.9784927368164
 30
-89.53399658203125
 70
   192
  0
VERTEX
  5
4B7
  8
0
 10
12.46911525726318
 20
-109.2003784179688
 30
-90.53399658203125
 70
   192
  0
VERTEX
  5
4B8
  8
0
 10
8.109750747680664
 20
-113.8980407714844
 30
-90.53399658203125
 70
   192
  0
VERTEX
  5
4B9
  8
0
 10
8.11215877532959
 20
-113.8982849121094
 30
-89.53399658203125
 70
   192
  0
VERTEX
  5
4BA
  8
0
 10
9.792923927307129
 20
-112.5563354492188
 30
-90.53399658203125
 70
   192
  0
VERTEX
  5
4BB
  8
0
 10
6.248858451843262
 20
-114.9745178222656
 30
-89.53399658203125
 70
   192
  0
VERTEX
  5
4BC
  8
0
 10
6.246194839477539
 20
-114.9734344482422
 30
-90.53399658203125
 70
   192
  0
VERTEX
  5
4BD
  8
0
 10
4.24347448348999
 20
-115.7610702514648
 30
-90.53399658203125
 70
   192
  0
VERTEX
  5
4BE
  8
0
 10
4.245091915130615
 20
-115.7611541748047
 30
-89.53399658203125
 70
   192
  0
VERTEX
  5
4BF
  8
0
 10
2.144187688827515
 20
-116.2217864990234
 30
-90.53399658203125
 70
   192
  0
VERTEX
  5
4C0
  8
0
 10
2.146750688552856
 20
-116.2293472290039
 30
-89.53399658203125
 70
   192
  0
VERTEX
  5
4C1
  8
0
 10
13.40543556213379
 20
-96.73954010009766
 30
-90.53399658203125
 70
   192
  0
VERTEX
  5
4C2
  8
0
 10
9.792923927307129
 20
-91.44366455078125
 30
-89.53399658203125
 70
   192
  0
VERTEX
  5
4C3
  8
0
 10
2.146750688552856
 20
-87.7706527709961
 30
-90.53399658203125
 70
   192
  0
VERTEX
  5
4C4
  8
0
 62
     9
 10
0.0
 20
0.0
 30
0.0
 70
   128
 71
     3
 72
     2
 73
     1
  0
VERTEX
  5
4C5
  8
0
 62
     9
 10
0.0
 20
0.0
 30
0.0
 70
   128
 71
     5
 72
     4
 73
     3
  0
VERTEX
  5
4C6
  8
0
 62
     9
 10
0.0
 20
0.0
 30
0.0
 70
   128
 71
     3
 72
     1
 73
     5
  0
VERTEX
  5
4C7
  8
0
 62
     9
 10
0.0
 20
0.0
 30
0.0
 70
   128
 71
     4
 72
     7
 73
     6
  0
VERTEX
  5
4C8
  8
0
 62
     9
 10
0.0
 20
0.0
 30
0.0
 70
   128
 71
     7
 72
     4
 73
     5
  0
VERTEX
  5
4C9
  8
0
 62
     9
 10
0.0
 20
0.0
 30
0.0
 70
   128
 71
     9
 72
     6
 73
     8
  0
VERTEX
  5
4CA
  8
0
 62
     9
 10
0.0
 20
0.0
 30
0.0
 70
   128
 71
     7
 72
     8
 73
     6
  0
VERTEX
  5
4CB
  8
0
 62
     9
 10
0.0
 20
0.0
 30
0.0
 70
   128
 71
    11
 72
    10
 73
     9
  0
VERTEX
  5
4CC
  8
0
 62
     9
 10
0.0
 20
0.0
 30
0.0
 70
   128
 71
     9
 72
     8
 73
    11
  0
VERTEX
  5
4CD
  8
0
 62
     9
 10
0.0
 20
0.0
 30
0.0
 70
   128
 71
    10
 72
    13
 73
    12
  0
VERTEX
  5
4CE
  8
0
 62
     9
 10
0.0
 20
0.0
 30
0.0
 70
   128
 71
    13
 72
    10
 73
    11
  0
VERTEX
  5
4CF
  8
0
 62
     9
 10
0.0
 20
0.0
 30
0.0
 70
   128
 71
    15
 72
    12
 73
    14
  0
VERTEX
  5
4D0
  8
0
 62
     9
 10
0.0
 20
0.0
 30
0.0
 70
   128
 71
    13
 72
    14
 73
    12
  0
VERTEX
  5
4D1
  8
0
 62
     9
 10
0.0
 20
0.0
 30
0.0
 70
   128
 71
    17
 72
    16
 73
    15
  0
VERTEX
  5
4D2
  8
0
 62
     9
 10
0.0
 20
0.0
 30
0.0
 70
   128
 71
    15
 72
    14
 73
    17
  0
VERTEX
  5
4D3
  8
0
 62
     9
 10
0.0
 20
0.0
 30
0.0
 70
   128
 71
    16
 72
    19
 73
    18
  0
VERTEX
  5
4D4
  8
0
 62
     9
 10
0.0
 20
0.0
 30
0.0
 70
   128
 71
    19
 72
    16
 73
    17
  0
VERTEX
  5
4D5
  8
0
 62
     9
 10
0.0
 20
0.0
 30
0.0
 70
   128
 71
    21
 72
    18
 73
    20
  0
VERTEX
  5
4D6
  8
0
 62
     9
 10
0.0
 20
0.0
 30
0.0
 70
   128
 71
    19
 72
    20
 73
    18
  0
VERTEX
  5
4D7
  8
0
 62
     9
 10
0.0
 20
0.0
 30
0.0
 70
   128
 71
    21
 72
    20
 73
    22
  0
VERTEX
  5
4D8
  8
0
 62
     9
 10
0.0
 20
0.0
 30
0.0
 70
   128
 71
    23
 72
    21
 73
    22
  0
VERTEX
  5
4D9
  8
0
 62
     9
 10
0.0
 20
0.0
 30
0.0
 70
   128
 71
     2
 72
    24
 73
     1
  0
VERTEX
  5
4DA
  8
0
 62
     9
 10
0.0
 20
0.0
 30
0.0
 70
   128
 71
    24
 72
    26
 73
    25
  0
VERTEX
  5
4DB
  8
0
 62
     9
 10
0.0
 20
0.0
 30
0.0
 70
   128
 71
    26
 72
    24
 73
     2
  0
VERTEX
  5
4DC
  8
0
 62
     9
 10
0.0
 20
0.0
 30
0.0
 70
   128
 71
    28
 72
    25
 73
    27
  0
VERTEX
  5
4DD
  8
0
 62
     9
 10
0.0
 20
0.0
 30
0.0
 70
   128
 71
    26
 72
    27
 73
    25
  0
VERTEX
  5
4DE
  8
0
 62
     9
 10
0.0
 20
0.0
 30
0.0
 70
   128
 71
    30
 72
    29
 73
    28
  0
VERTEX
  5
4DF
  8
0
 62
     9
 10
0.0
 20
0.0
 30
0.0
 70
   128
 71
    28
 72
    27
 73
    30
  0
VERTEX
  5
4E0
  8
0
 62
     9
 10
0.0
 20
0.0
 30
0.0
 70
   128
 71
    29
 72
    32
 73
    31
  0
VERTEX
  5
4E1
  8
0
 62
     9
 10
0.0
 20
0.0
 30
0.0
 70
   128
 71
    32
 72
    29
 73
    30
  0
VERTEX
  5
4E2
  8
0
 62
     9
 10
0.0
 20
0.0
 30
0.0
 70
   128
 71
    34
 72
    31
 73
    33
  0
VERTEX
  5
4E3
  8
0
 62
     9
 10
0.0
 20
0.0
 30
0.0
 70
   128
 71
    32
 72
    33
 73
    31
  0
VERTEX
  5
4E4
  8
0
 62
     9
 10
0.0
 20
0.0
 30
0.0
 70
   128
 71
    36
 72
    35
 73
    34
  0
VERTEX
  5
4E5
  8
0
 62
     9
 10
0.0
 20
0.0
 30
0.0
 70
   128
 71
    34
 72
    33
 73
    36
  0
VERTEX
  5
4E6
  8
0
 62
     9
 10
0.0
 20
0.0
 30
0.0
 70
   128
 71
    35
 72
    38
 73
    37
  0
VERTEX
  5
4E7
  8
0
 62
     9
 10
0.0
 20
0.0
 30
0.0
 70
   128
 71
    38
 72
    35
 73
    36
  0
VERTEX
  5
4E8
  8
0
 62
     9
 10
0.0
 20
0.0
 30
0.0
 70
   128
 71
    40
 72
    37
 73
    39
  0
VERTEX
  5
4E9
  8
0
 62
     9
 10
0.0
 20
0.0
 30
0.0
 70
   128
 71
    38
 72
    39
 73
    37
  0
VERTEX
  5
4EA
  8
0
 62
     9
 10
0.0
 20
0.0
 30
0.0
 70
   128
 71
    42
 72
    41
 73
    40
  0
VERTEX
  5
4EB
  8
0
 62
     9
 10
0.0
 20
0.0
 30
0.0
 70
   128
 71
    40
 72
    39
 73
    42
  0
VERTEX
  5
4EC
  8
0
 62
     9
 10
0.0
 20
0.0
 30
0.0
 70
   128
 71
    43
 72
    41
 73
    42
  0
VERTEX
  5
4ED
  8
0
 62
     9
 10
0.0
 20
0.0
 30
0.0
 70
   128
 71
    43
 72
    44
 73
    41
  0
VERTEX
  5
4EE
  8
0
 62
     9
 10
0.0
 20
0.0
 30
0.0
 70
   128
 71
    23
 72
    22
 73
    45
  0
VERTEX
  5
4EF
  8
0
 62
     9
 10
0.0
 20
0.0
 30
0.0
 70
   128
 71
    48
 72
    47
 73
    46
  0
VERTEX
  5
4F0
  8
0
 62
     9
 10
0.0
 20
0.0
 30
0.0
 70
   128
 71
    51
 72
    50
 73
    49
  0
VERTEX
  5
4F1
  8
0
 62
     9
 10
0.0
 20
0.0
 30
0.0
 70
   128
 71
    54
 72
    53
 73
    52
  0
VERTEX
  5
4F2
  8
0
 62
     9
 10
0.0
 20
0.0
 30
0.0
 70
   128
 71
    57
 72
    56
 73
    55
  0
VERTEX
  5
4F3
  8
0
 62
     9
 10
0.0
 20
0.0
 30
0.0
 70
   128
 71
    60
 72
    59
 73
    58
  0
VERTEX
  5
4F4
  8
0
 62
     9
 10
0.0
 20
0.0
 30
0.0
 70
   128
 71
    63
 72
    62
 73
    61
  0
VERTEX
  5
4F5
  8
0
 62
     9
 10
0.0
 20
0.0
 30
0.0
 70
   128
 71
    66
 72
    65
 73
    64
  0
VERTEX
  5
4F6
  8
0
 62
     9
 10
0.0
 20
0.0
 30
0.0
 70
   128
 71
    66
 72
    68
 73
    67
  0
VERTEX
  5
4F7
  8
0
 62
     9
 10
0.0
 20
0.0
 30
0.0
 70
   128
 71
    71
 72
    70
 73
    69
  0
VERTEX
  5
4F8
  8
0
 62
     9
 10
0.0
 20
0.0
 30
0.0
 70
   128
 71
    71
 72
    72
 73
    65
  0
VERTEX
  5
4F9
  8
0
 62
     9
 10
0.0
 20
0.0
 30
0.0
 70
   128
 71
    75
 72
    74
 73
    73
  0
VERTEX
  5
4FA
  8
0
 62
     9
 10
0.0
 20
0.0
 30
0.0
 70
   128
 71
    74
 72
    75
 73
    70
  0
VERTEX
  5
4FB
  8
0
 62
     9
 10
0.0
 20
0.0
 30
0.0
 70
   128
 71
    77
 72
    73
 73
    76
  0
VERTEX
  5
4FC
  8
0
 62
     9
 10
0.0
 20
0.0
 30
0.0
 70
   128
 71
    74
 72
    76
 73
    73
  0
VERTEX
  5
4FD
  8
0
 62
     9
 10
0.0
 20
0.0
 30
0.0
 70
   128
 71
    79
 72
    78
 73
    77
  0
VERTEX
  5
4FE
  8
0
 62
     9
 10
0.0
 20
0.0
 30
0.0
 70
   128
 71
    77
 72
    76
 73
    79
  0
VERTEX
  5
4FF
  8
0
 62
     9
 10
0.0
 20
0.0
 30
0.0
 70
   128
 71
    78
 72
    81
 73
    80
  0
VERTEX
  5
500
  8
0
 62
     9
 10
0.0
 20
0.0
 30
0.0
 70
   128
 71
    81
 72
    78
 73
    79
  0
VERTEX
  5
501
  8
0
 62
     9
 10
0.0
 20
0.0
 30
0.0
 70
   128
 71
    43
 72
    80
 73
    44
  0
VERTEX
  5
502
  8
0
 62
     9
 10
0.0
 20
0.0
 30
0.0
 70
   128
 71
    81
 72
    44
 73
    80
  0
VERTEX
  5
503
  8
0
 62
     9
 10
0.0
 20
0.0
 30
0.0
 70
   128
 71
    72
 72
    71
 73
    69
  0
VERTEX
  5
504
  8
0
 62
     9
 10
0.0
 20
0.0
 30
0.0
 70
   128
 71
    70
 72
    75
 73
    69
  0
VERTEX
  5
505
  8
0
 62
     9
 10
0.0
 20
0.0
 30
0.0
 70
   128
 71
    64
 72
    68
 73
    66
  0
VERTEX
  5
506
  8
0
 62
     9
 10
0.0
 20
0.0
 30
0.0
 70
   128
 71
    65
 72
    72
 73
    64
  0
VERTEX
  5
507
  8
0
 62
     9
 10
0.0
 20
0.0
 30
0.0
 70
   128
 71
    59
 72
    67
 73
    58
  0
VERTEX
  5
508
  8
0
 62
     9
 10
0.0
 20
0.0
 30
0.0
 70
   128
 71
    67
 72
    68
 73
    58
  0
VERTEX
  5
509
  8
0
 62
     9
 10
0.0
 20
0.0
 30
0.0
 70
   128
 71
    61
 72
    62
 73
    60
  0
VERTEX
  5
50A
  8
0
 62
     9
 10
0.0
 20
0.0
 30
0.0
 70
   128
 71
    62
 72
    59
 73
    60
  0
VERTEX
  5
50B
  8
0
 62
     9
 10
0.0
 20
0.0
 30
0.0
 70
   128
 71
    82
 72
    54
 73
    63
  0
VERTEX
  5
50C
  8
0
 62
     9
 10
0.0
 20
0.0
 30
0.0
 70
   128
 71
    82
 72
    63
 73
    61
  0
VERTEX
  5
50D
  8
0
 62
     9
 10
0.0
 20
0.0
 30
0.0
 70
   128
 71
    53
 72
    57
 73
    52
  0
VERTEX
  5
50E
  8
0
 62
     9
 10
0.0
 20
0.0
 30
0.0
 70
   128
 71
    82
 72
    53
 73
    54
  0
VERTEX
  5
50F
  8
0
 62
     9
 10
0.0
 20
0.0
 30
0.0
 70
   128
 71
    55
 72
    56
 73
    83
  0
VERTEX
  5
510
  8
0
 62
     9
 10
0.0
 20
0.0
 30
0.0
 70
   128
 71
    52
 72
    57
 73
    55
  0
VERTEX
  5
511
  8
0
 62
     9
 10
0.0
 20
0.0
 30
0.0
 70
   128
 71
    46
 72
    47
 73
    83
  0
VERTEX
  5
512
  8
0
 62
     9
 10
0.0
 20
0.0
 30
0.0
 70
   128
 71
    83
 72
    56
 73
    46
  0
VERTEX
  5
513
  8
0
 62
     9
 10
0.0
 20
0.0
 30
0.0
 70
   128
 71
    51
 72
    49
 73
    48
  0
VERTEX
  5
514
  8
0
 62
     9
 10
0.0
 20
0.0
 30
0.0
 70
   128
 71
    49
 72
    47
 73
    48
  0
VERTEX
  5
515
  8
0
 62
     9
 10
0.0
 20
0.0
 30
0.0
 70
   128
 71
    84
 72
    45
 73
    50
  0
VERTEX
  5
516
  8
0
 62
     9
 10
0.0
 20
0.0
 30
0.0
 70
   128
 71
    84
 72
    50
 73
    51
  0
VERTEX
  5
517
  8
0
 62
     9
 10
0.0
 20
0.0
 30
0.0
 70
   128
 71
    45
 72
    84
 73
    23
  0
SEQEND
  5
518
  8
0
 62
     9
  0
ENDBLK
  5
51B
  8
0
  0
BLOCK
  8
0
  2
100622_US_ROSETTE_55X6MM_5
 70
     0
 10
0.0
 20
0.0
 30
0.0
  3
100622_US_ROSETTE_55X6MM_5
  1

  0
POLYLINE
  5
51D
  8
0
 66
     1
 10
0.0
 20
0.0
 30
0.0
 70
    64
 71
   458
 72
   904
  0
VERTEX
  5
51E
  8
0
 10
-17.41421318054199
 20
1.414213538169861
 30
-90.53399658203125
 70
   192
  0
VERTEX
  5
51F
  8
0
 10
-16.56470680236816
 20
1.915294170379639
 30
-61.52251434326172
 70
   192
  0
VERTEX
  5
520
  8
0
 10
-16.0
 20
2.0
 30
-90.53399658203125
 70
   192
  0
VERTEX
  5
521
  8
0
 10
-18.0
 20
0.000000000001642
 30
-90.53399658203125
 70
   192
  0
VERTEX
  5
522
  8
0
 10
-17.49082374572754
 20
1.339294075965881
 30
-61.52251434326172
 70
   192
  0
VERTEX
  5
523
  8
0
 10
-18.0
 20
0.000000000001642
 30
-61.52251434326172
 70
   192
  0
VERTEX
  5
524
  8
0
 10
-15.40141201019287
 20
1.898352980613708
 30
-61.52251434326172
 70
   192
  0
VERTEX
  5
525
  8
0
 10
-14.58578681945801
 20
1.414213538169861
 30
-90.53399658203125
 70
   192
  0
VERTEX
  5
526
  8
0
 10
-14.53176498413086
 20
1.312941193580627
 30
-61.52251434326172
 70
   192
  0
VERTEX
  5
527
  8
0
 10
-14.0
 20
0.0000000000016418
 30
-90.53399658203125
 70
   192
  0
VERTEX
  5
528
  8
0
 10
-14.0
 20
0.0000000000016418
 30
-61.52251434326172
 70
   192
  0
VERTEX
  5
529
  8
0
 10
-20.0
 20
-1.915294170379639
 30
-56.95780944824219
 70
   192
  0
VERTEX
  5
52A
  8
0
 10
-18.46926689147949
 20
-2.0
 30
-57.82699584960938
 70
   192
  0
VERTEX
  5
52B
  8
0
 10
-20.0
 20
-1.339294075965881
 30
-56.03169250488281
 70
   192
  0
VERTEX
  5
52C
  8
0
 10
-20.0
 20
-1.312941193580627
 30
-58.99074935913086
 70
   192
  0
VERTEX
  5
52D
  8
0
 10
-19.0815601348877
 20
-1.200000047683716
 30
-59.30520248413086
 70
   192
  0
VERTEX
  5
52E
  8
0
 10
-20.0
 20
-1.898352980613708
 30
-58.12110137939453
 70
   192
  0
VERTEX
  5
52F
  8
0
 10
-17.85697364807129
 20
-1.200000047683716
 30
-56.34878921508789
 70
   192
  0
VERTEX
  5
530
  8
0
 10
-20.0
 20
0.000000000001642
 30
-55.52251434326172
 70
   192
  0
VERTEX
  5
531
  8
0
 10
-17.70389938354492
 20
0.000000000001642
 30
-55.9792366027832
 70
   192
  0
VERTEX
  5
532
  8
0
 10
-16.13337326049805
 20
-1.312941193580627
 30
-57.65588760375977
 70
   192
  0
VERTEX
  5
533
  8
0
 10
-15.75735950469971
 20
0.000000000001642
 30
-57.27987289428711
 70
   192
  0
VERTEX
  5
534
  8
0
 10
-16.74830627441406
 20
-1.898352980613708
 30
-58.27082061767578
 70
   192
  0
VERTEX
  5
535
  8
0
 10
-19.29289245605469
 20
0.000000000001642
 30
-59.81540679931641
 70
   192
  0
VERTEX
  5
536
  8
0
 10
-18.58578681945801
 20
0.0000000000016418
 30
-60.10830307006836
 70
   192
  0
VERTEX
  5
537
  8
0
 10
-18.22574424743652
 20
-1.339294075965881
 30
-59.74826049804688
 70
   192
  0
VERTEX
  5
538
  8
0
 10
-20.0
 20
0.0000000000016418
 30
-59.52251434326172
 70
   192
  0
VERTEX
  5
539
  8
0
 10
-17.57088088989258
 20
-1.915294170379639
 30
-59.0933952331543
 70
   192
  0
VERTEX
  5
53A
  8
0
 10
-16.30448150634766
 20
-2.0
 30
-59.99178314208984
 70
   192
  0
VERTEX
  5
53B
  8
0
 10
-17.78269004821777
 20
-1.200000047683716
 30
-60.60407638549805
 70
   192
  0
VERTEX
  5
53C
  8
0
 10
-14.82627487182617
 20
-1.200000047683716
 30
-59.37948608398438
 70
   192
  0
VERTEX
  5
53D
  8
0
 10
-14.4567232131958
 20
0.000000000001642
 30
-59.22641372680664
 70
   192
  0
VERTEX
  5
53E
  8
0
 10
-14.53176498413086
 20
-1.312941193580627
 30
-61.52251434326172
 70
   192
  0
VERTEX
  5
53F
  8
0
 10
-15.40141201019287
 20
-1.898352980613708
 30
-61.52251434326172
 70
   192
  0
VERTEX
  5
540
  8
0
 10
-18.29289245605469
 20
0.000000000001642
 30
-60.81540679931641
 70
   192
  0
VERTEX
  5
541
  8
0
 10
-17.49082374572754
 20
-1.339294075965881
 30
-61.52251434326172
 70
   192
  0
VERTEX
  5
542
  8
0
 10
-16.56470680236816
 20
-1.915294170379639
 30
-61.52251434326172
 70
   192
  0
VERTEX
  5
543
  8
0
 10
-16.30448150634766
 20
2.0
 30
-59.99178314208984
 70
   192
  0
VERTEX
  5
544
  8
0
 10
-14.82627487182617
 20
1.200000047683716
 30
-59.37948608398438
 70
   192
  0
VERTEX
  5
545
  8
0
 10
-16.13337326049805
 20
1.312941193580627
 30
-57.65588760375977
 70
   192
  0
VERTEX
  5
546
  8
0
 10
-17.78269004821777
 20
1.200000047683716
 30
-60.60407638549805
 70
   192
  0
VERTEX
  5
547
  8
0
 10
-18.22574424743652
 20
1.339294075965881
 30
-59.74826049804688
 70
   192
  0
VERTEX
  5
548
  8
0
 10
-17.57088088989258
 20
1.915294170379639
 30
-59.0933952331543
 70
   192
  0
VERTEX
  5
549
  8
0
 10
-16.74830627441406
 20
1.898352980613708
 30
-58.27082061767578
 70
   192
  0
VERTEX
  5
54A
  8
0
 10
-20.0
 20
1.898352980613708
 30
-58.12110137939453
 70
   192
  0
VERTEX
  5
54B
  8
0
 10
-32.0
 20
2.0
 30
-57.52251434326172
 70
   192
  0
VERTEX
  5
54C
  8
0
 10
-20.0
 20
1.915294170379639
 30
-56.95780944824219
 70
   192
  0
VERTEX
  5
54D
  8
0
 10
-20.0
 20
1.312941193580627
 30
-58.99074935913086
 70
   192
  0
VERTEX
  5
54E
  8
0
 10
-32.0
 20
1.414213538169861
 30
-58.93672943115234
 70
   192
  0
VERTEX
  5
54F
  8
0
 10
-32.0
 20
0.000000000001642
 30
-59.52251434326172
 70
   192
  0
VERTEX
  5
550
  8
0
 10
-32.0
 20
1.414213538169861
 30
-56.10830307006836
 70
   192
  0
VERTEX
  5
551
  8
0
 10
-20.0
 20
1.339294075965881
 30
-56.03169250488281
 70
   192
  0
VERTEX
  5
552
  8
0
 10
-32.0
 20
0.0000000000016418
 30
-55.52251434326172
 70
   192
  0
VERTEX
  5
553
  8
0
 10
130.4760437011719
 20
-9.344436645507812
 30
110.9660186767578
 70
   192
  0
VERTEX
  5
554
  8
0
 10
126.8188171386719
 20
-9.343756675720215
 30
110.9660186767578
 70
   192
  0
VERTEX
  5
555
  8
0
 10
125.2591934204102
 20
-9.346644401550293
 30
114.3500366210938
 70
   192
  0
VERTEX
  5
556
  8
0
 10
133.8808898925781
 20
-8.221976280212402
 30
110.9660186767578
 70
   192
  0
VERTEX
  5
557
  8
0
 10
128.2515411376953
 20
-9.343022346496582
 30
115.7453918457031
 70
   192
  0
VERTEX
  5
558
  8
0
 10
131.0582580566406
 20
-8.21348762512207
 30
117.0541915893555
 70
   192
  0
VERTEX
  5
559
  8
0
 10
136.6790618896484
 20
-6.09661865234375
 30
110.9660186767578
 70
   192
  0
VERTEX
  5
55A
  8
0
 10
133.3474426269531
 20
-6.089789867401123
 30
118.1216583251953
 70
   192
  0
VERTEX
  5
55B
  8
0
 10
138.4980010986328
 20
-3.243335962295532
 30
110.9660186767578
 70
   192
  0
VERTEX
  5
55C
  8
0
 10
134.8395080566406
 20
-3.236529588699341
 30
118.8174133300781
 70
   192
  0
VERTEX
  5
55D
  8
0
 10
135.3580169677734
 20
0.0099961534142494
 30
119.059196472168
 70
   192
  0
VERTEX
  5
55E
  8
0
 10
139.1319274902344
 20
0.0099961534142494
 30
110.9660186767578
 70
   192
  0
VERTEX
  5
55F
  8
0
 10
120.1550674438477
 20
-6.099757671356201
 30
111.9699478149414
 70
   192
  0
VERTEX
  5
560
  8
0
 10
118.7997055053711
 20
-3.239026308059692
 30
110.9660186767578
 70
   192
  0
VERTEX
  5
561
  8
0
 10
118.6582565307617
 20
-3.241510629653931
 30
111.27197265625
 70
   192
  0
VERTEX
  5
562
  8
0
 10
122.4489288330078
 20
-8.220370292663574
 30
113.0395965576172
 70
   192
  0
VERTEX
  5
563
  8
0
 10
123.4126739501953
 20
-8.219680786132812
 30
110.9660186767578
 70
   192
  0
VERTEX
  5
564
  8
0
 10
120.6134185791016
 20
-6.087690830230713
 30
110.9660186767578
 70
   192
  0
VERTEX
  5
565
  8
0
 10
118.1381683349609
 20
0.0099961534142494
 30
111.0294494628906
 70
   192
  0
VERTEX
  5
566
  8
0
 10
-10.00011825561523
 20
14.15999603271484
 30
56.54933166503906
 70
   192
  0
VERTEX
  5
567
  8
0
 10
-9.795136451721191
 20
14.65502548217773
 30
85.96597290039062
 70
   192
  0
VERTEX
  5
568
  8
0
 10
-9.795136451721191
 20
14.65502548217773
 30
56.54931259155273
 70
   192
  0
VERTEX
  5
569
  8
0
 10
-9.795136451721191
 20
14.65502548217773
 30
27.13265419006348
 70
   192
  0
VERTEX
  5
56A
  8
0
 10
-10.00011825561523
 20
14.15999603271484
 30
-2.28399395942688
 70
   192
  0
VERTEX
  5
56B
  8
0
 10
-10.00011825561523
 20
14.15999603271484
 30
27.13266944885254
 70
   192
  0
VERTEX
  5
56C
  8
0
 10
-10.00011825561523
 20
14.15999603271484
 30
-61.1173210144043
 70
   192
  0
VERTEX
  5
56D
  8
0
 10
-9.795136451721191
 20
14.65502548217773
 30
-31.70066452026367
 70
   192
  0
VERTEX
  5
56E
  8
0
 10
-9.795136451721191
 20
14.65502548217773
 30
-61.11732482910156
 70
   192
  0
VERTEX
  5
56F
  8
0
 10
-10.00011825561523
 20
14.15999603271484
 30
-31.70065689086914
 70
   192
  0
VERTEX
  5
570
  8
0
 10
-9.795136451721191
 20
14.65502548217773
 30
-2.284004688262939
 70
   192
  0
VERTEX
  5
571
  8
0
 10
-9.795136451721191
 20
14.65502548217773
 30
-90.53398132324219
 70
   192
  0
VERTEX
  5
572
  8
0
 10
-10.00011825561523
 20
14.15999603271484
 30
-90.53398132324219
 70
   192
  0
VERTEX
  5
573
  8
0
 10
-10.00011825561523
 20
14.15999603271484
 30
85.96597290039062
 70
   192
  0
VERTEX
  5
574
  8
0
 10
-27.20608139038086
 20
0.069497786462307
 30
-90.82689666748047
 70
   192
  0
VERTEX
  5
575
  8
0
 10
-25.89477729797363
 20
-8.247758865356445
 30
-90.82689666748047
 70
   192
  0
VERTEX
  5
576
  8
0
 10
-26.50001907348633
 20
0.0021812128834426
 30
-90.53399658203125
 70
   192
  0
VERTEX
  5
577
  8
0
 10
0.0000000000004349
 20
27.20710754394531
 30
-90.82689666748047
 70
   192
  0
VERTEX
  5
578
  8
0
 10
-8.385183334350586
 20
25.85123825073242
 30
-90.82689666748047
 70
   192
  0
VERTEX
  5
579
  8
0
 10
0.0000000000004296
 20
26.5
 30
-90.53399658203125
 70
   192
  0
VERTEX
  5
57A
  8
0
 10
-25.18058204650879
 20
-8.166607856750488
 30
-90.53399658203125
 70
   192
  0
VERTEX
  5
57B
  8
0
 10
-22.0297794342041
 20
-15.93429088592529
 30
-90.82689666748047
 70
   192
  0
VERTEX
  5
57C
  8
0
 10
-22.22807121276855
 20
-16.17019462585449
 30
-91.53399658203125
 70
   192
  0
VERTEX
  5
57D
  8
0
 10
-15.93630695343018
 20
-22.03877067565918
 30
-90.82689666748047
 70
   192
  0
VERTEX
  5
57E
  8
0
 10
-21.4289608001709
 20
-15.56467628479004
 30
-90.53399658203125
 70
   192
  0
VERTEX
  5
57F
  8
0
 10
-8.313923835754395
 20
-25.87733268737793
 30
-90.82689666748047
 70
   192
  0
VERTEX
  5
580
  8
0
 10
-15.57713985443115
 20
-21.42305374145508
 30
-90.53399658203125
 70
   192
  0
VERTEX
  5
581
  8
0
 10
-8.472455978393555
 20
-26.13283920288086
 30
-91.53399658203125
 70
   192
  0
VERTEX
  5
582
  8
0
 10
-0.0000000000001561
 20
-27.49771499633789
 30
-91.53399658203125
 70
   192
  0
VERTEX
  5
583
  8
0
 10
-0.0000000000001559
 20
-27.2053279876709
 30
-90.82689666748047
 70
   192
  0
VERTEX
  5
584
  8
0
 10
-8.186761856079102
 20
-25.1714973449707
 30
-90.53399658203125
 70
   192
  0
VERTEX
  5
585
  8
0
 10
-0.0000000000001529
 20
-26.49944305419922
 30
-90.53399658203125
 70
   192
  0
VERTEX
  5
586
  8
0
 10
-25.1685733795166
 20
8.189846992492676
 30
-90.53399658203125
 70
   192
  0
VERTEX
  5
587
  8
0
 10
-25.88597869873047
 20
8.28365707397461
 30
-90.82689666748047
 70
   192
  0
VERTEX
  5
588
  8
0
 10
-21.42122268676758
 20
15.58256816864014
 30
-90.53399658203125
 70
   192
  0
VERTEX
  5
589
  8
0
 10
-22.14111518859863
 20
15.79970264434814
 30
-90.82689666748047
 70
   192
  0
VERTEX
  5
58A
  8
0
 10
-27.5
 20
0.0000000000000373
 30
-91.53399658203125
 70
   192
  0
VERTEX
  5
58B
  8
0
 10
-15.56052875518799
 20
21.42910385131836
 30
-90.53399658203125
 70
   192
  0
VERTEX
  5
58C
  8
0
 10
-16.10683822631836
 20
21.90340423583984
 30
-90.82689666748047
 70
   192
  0
VERTEX
  5
58D
  8
0
 10
-8.165844917297363
 20
25.1822681427002
 30
-90.53399658203125
 70
   192
  0
VERTEX
  5
58E
  8
0
 10
0.000000000000435
 20
27.5
 30
-91.53399658203125
 70
   192
  0
VERTEX
  5
58F
  8
0
 10
-8.496124267578125
 20
26.1230354309082
 30
-91.53399658203125
 70
   192
  0
VERTEX
  5
590
  8
0
 10
-16.17019462585449
 20
22.22807121276855
 30
-91.53399658203125
 70
   192
  0
VERTEX
  5
591
  8
0
 10
-22.23614692687988
 20
16.15595626831055
 30
-91.53399658203125
 70
   192
  0
VERTEX
  5
592
  8
0
 10
-26.13283920288086
 20
8.472455978393555
 30
-91.53399658203125
 70
   192
  0
VERTEX
  5
593
  8
0
 10
-26.1230354309082
 20
-8.496124267578125
 30
-91.53399658203125
 70
   192
  0
VERTEX
  5
594
  8
0
 10
-16.15595626831055
 20
-22.23614692687988
 30
-91.53399658203125
 70
   192
  0
VERTEX
  5
595
  8
0
 10
-26.1230354309082
 20
-8.496124267578125
 30
-96.53399658203125
 70
   192
  0
VERTEX
  5
596
  8
0
 10
-27.5
 20
0.0000000000000675
 30
-96.53399658203125
 70
   192
  0
VERTEX
  5
597
  8
0
 10
-22.22807121276855
 20
-16.17019462585449
 30
-96.53399658203125
 70
   192
  0
VERTEX
  5
598
  8
0
 10
-16.15595626831055
 20
-22.23614692687988
 30
-96.53399658203125
 70
   192
  0
VERTEX
  5
599
  8
0
 10
-8.472455978393555
 20
-26.13283920288086
 30
-96.53399658203125
 70
   192
  0
VERTEX
  5
59A
  8
0
 10
-0.0000000000001159
 20
-27.5
 30
-96.53399658203125
 70
   192
  0
VERTEX
  5
59B
  8
0
 10
-26.13283920288086
 20
8.472455978393555
 30
-96.53399658203125
 70
   192
  0
VERTEX
  5
59C
  8
0
 10
-22.23614692687988
 20
16.15595626831055
 30
-96.53399658203125
 70
   192
  0
VERTEX
  5
59D
  8
0
 10
-16.17019462585449
 20
22.22807121276855
 30
-96.53399658203125
 70
   192
  0
VERTEX
  5
59E
  8
0
 10
-8.496124267578125
 20
26.1230354309082
 30
-96.53399658203125
 70
   192
  0
VERTEX
  5
59F
  8
0
 10
0.0000000000004141
 20
27.5
 30
-96.53399658203125
 70
   192
  0
VERTEX
  5
5A0
  8
0
 10
8.496124267578125
 20
26.1230354309082
 30
-96.53399658203125
 70
   192
  0
VERTEX
  5
5A1
  8
0
 10
16.17019462585449
 20
22.22807121276855
 30
-96.53399658203125
 70
   192
  0
VERTEX
  5
5A2
  8
0
 10
22.23614692687988
 20
16.15595626831055
 30
-96.53399658203125
 70
   192
  0
VERTEX
  5
5A3
  8
0
 10
26.13283920288086
 20
8.472455978393555
 30
-96.53399658203125
 70
   192
  0
VERTEX
  5
5A4
  8
0
 10
26.1230354309082
 20
-8.496124267578125
 30
-96.53399658203125
 70
   192
  0
VERTEX
  5
5A5
  8
0
 10
8.472455978393555
 20
-26.13283920288086
 30
-96.53399658203125
 70
   192
  0
VERTEX
  5
5A6
  8
0
 10
27.5
 20
-0.0000000000004974
 30
-96.53399658203125
 70
   192
  0
VERTEX
  5
5A7
  8
0
 10
22.22807121276855
 20
-16.17019462585449
 30
-96.53399658203125
 70
   192
  0
VERTEX
  5
5A8
  8
0
 10
16.15595626831055
 20
-22.23614692687988
 30
-96.53399658203125
 70
   192
  0
VERTEX
  5
5A9
  8
0
 10
-14.69411754608154
 20
-1.523529410362244
 30
-90.53399658203125
 70
   192
  0
VERTEX
  5
5AA
  8
0
 10
-16.0
 20
-2.0
 30
-90.53399658203125
 70
   192
  0
VERTEX
  5
5AB
  8
0
 10
-10.0
 20
-14.14000415802002
 30
-90.53399658203125
 70
   192
  0
VERTEX
  5
5AC
  8
0
 10
9.300000190734863
 20
14.85974979400635
 30
-90.53399658203125
 70
   192
  0
VERTEX
  5
5AD
  8
0
 10
15.69919967651367
 20
21.32927703857422
 30
-90.53399658203125
 70
   192
  0
VERTEX
  5
5AE
  8
0
 10
8.170464515686035
 20
25.17720603942871
 30
-90.53399658203125
 70
   192
  0
VERTEX
  5
5AF
  8
0
 10
25.21296501159668
 20
8.059450149536133
 30
-90.53399658203125
 70
   192
  0
VERTEX
  5
5B0
  8
0
 10
21.56218528747559
 20
15.38884735107422
 30
-90.53399658203125
 70
   192
  0
VERTEX
  5
5B1
  8
0
 10
10.0
 20
14.16016674041748
 30
-90.53399658203125
 70
   192
  0
VERTEX
  5
5B2
  8
0
 10
9.300000190734863
 20
-14.84000396728516
 30
-90.53399658203125
 70
   192
  0
VERTEX
  5
5B3
  8
0
 10
8.08788776397705
 20
-25.20583152770996
 30
-90.53399658203125
 70
   192
  0
VERTEX
  5
5B4
  8
0
 10
15.52120018005371
 20
-21.46379852294922
 30
-90.53399658203125
 70
   192
  0
VERTEX
  5
5B5
  8
0
 10
21.45358276367188
 20
-15.52991962432861
 30
-90.53399658203125
 70
   192
  0
VERTEX
  5
5B6
  8
0
 10
10.00011825561523
 20
-14.14017391204834
 30
-90.53399658203125
 70
   192
  0
VERTEX
  5
5B7
  8
0
 10
25.21990966796875
 20
-8.036437034606934
 30
-90.53399658203125
 70
   192
  0
VERTEX
  5
5B8
  8
0
 10
-9.300000190734863
 20
-14.83975791931152
 30
-90.53399658203125
 70
   192
  0
VERTEX
  5
5B9
  8
0
 10
-9.300000190734863
 20
14.85999584197998
 30
-90.53399658203125
 70
   192
  0
VERTEX
  5
5BA
  8
0
 10
26.4999885559082
 20
0.0676522776484489
 30
-90.53399658203125
 70
   192
  0
VERTEX
  5
5BB
  8
0
 10
-17.27058792114258
 20
-1.48235297203064
 30
-90.53399658203125
 70
   192
  0
VERTEX
  5
5BC
  8
0
 10
22.2537956237793
 20
-16.13298416137695
 30
-91.53399658203125
 70
   192
  0
VERTEX
  5
5BD
  8
0
 10
16.08845901489258
 20
-22.28231811523438
 30
-91.53399658203125
 70
   192
  0
VERTEX
  5
5BE
  8
0
 10
8.373750686645508
 20
-26.16493225097656
 30
-91.53399658203125
 70
   192
  0
VERTEX
  5
5BF
  8
0
 10
26.1732292175293
 20
8.349632263183594
 30
-91.53399658203125
 70
   192
  0
VERTEX
  5
5C0
  8
0
 10
26.16847801208496
 20
-8.366745948791504
 30
-91.53399658203125
 70
   192
  0
VERTEX
  5
5C1
  8
0
 10
27.49855613708496
 20
0.070262223482132
 30
-91.53399658203125
 70
   192
  0
VERTEX
  5
5C2
  8
0
 10
16.30773735046387
 20
22.1220531463623
 30
-91.53399658203125
 70
   192
  0
VERTEX
  5
5C3
  8
0
 10
22.38197326660156
 20
15.95225048065186
 30
-91.53399658203125
 70
   192
  0
VERTEX
  5
5C4
  8
0
 10
8.510111808776855
 20
26.12320899963379
 30
-91.53399658203125
 70
   192
  0
VERTEX
  5
5C5
  8
0
 10
8.281055450439453
 20
-25.88664436340332
 30
-90.82689666748047
 70
   192
  0
VERTEX
  5
5C6
  8
0
 10
15.90838718414307
 20
-22.04735565185547
 30
-90.82689666748047
 70
   192
  0
VERTEX
  5
5C7
  8
0
 10
25.88552284240723
 20
-8.28695011138916
 30
-90.82689666748047
 70
   192
  0
VERTEX
  5
5C8
  8
0
 10
22.14430046081543
 20
15.77481651306152
 30
-90.82689666748047
 70
   192
  0
VERTEX
  5
5C9
  8
0
 10
27.20608139038086
 20
0.069497786462307
 30
-90.82689666748047
 70
   192
  0
VERTEX
  5
5CA
  8
0
 10
8.429408073425293
 20
25.83912086486816
 30
-90.82689666748047
 70
   192
  0
VERTEX
  5
5CB
  8
0
 10
16.13700866699219
 20
21.88724708557129
 30
-90.82689666748047
 70
   192
  0
VERTEX
  5
5CC
  8
0
 10
25.89540863037109
 20
8.258103370666504
 30
-90.82689666748047
 70
   192
  0
VERTEX
  5
5CD
  8
0
 10
22.01827812194824
 20
-15.96329212188721
 30
-90.82689666748047
 70
   192
  0
VERTEX
  5
5CE
  8
0
 10
136.6763305664062
 20
6.119559764862061
 30
110.9660186767578
 70
   192
  0
VERTEX
  5
5CF
  8
0
 10
143.1689605712891
 20
13.16666030883789
 30
110.9660186767578
 70
   192
  0
VERTEX
  5
5D0
  8
0
 10
145.8336334228516
 20
10.48898315429688
 30
110.9660186767578
 70
   192
  0
VERTEX
  5
5D1
  8
0
 10
138.4987487792969
 20
3.261532545089722
 30
110.9660186767578
 70
   192
  0
VERTEX
  5
5D2
  8
0
 10
146.8000030517578
 20
6.859998226165771
 30
110.9660186767578
 70
   192
  0
VERTEX
  5
5D3
  8
0
 10
143.1289825439453
 20
-13.17363834381104
 30
110.9660186767578
 70
   192
  0
VERTEX
  5
5D4
  8
0
 10
145.8066558837891
 20
-10.50897789001465
 30
110.9660186767578
 70
   192
  0
VERTEX
  5
5D5
  8
0
 10
139.5003662109375
 20
-14.1400032043457
 30
110.9660186767578
 70
   192
  0
VERTEX
  5
5D6
  8
0
 10
35.0
 20
-14.1400032043457
 30
110.9660186767578
 70
   192
  0
VERTEX
  5
5D7
  8
0
 10
35.00003051757812
 20
14.15999603271484
 30
110.9660186767578
 70
   192
  0
VERTEX
  5
5D8
  8
0
 10
139.499267578125
 20
14.15999603271484
 30
110.9660186767578
 70
   192
  0
VERTEX
  5
5D9
  8
0
 10
133.8864288330078
 20
8.239065170288086
 30
110.9660186767578
 70
   192
  0
VERTEX
  5
5DA
  8
0
 10
130.4675750732422
 20
9.365767478942871
 30
110.9660186767578
 70
   192
  0
VERTEX
  5
5DB
  8
0
 10
146.8000030517578
 20
-6.839290618896484
 30
110.9660186767578
 70
   192
  0
VERTEX
  5
5DC
  8
0
 10
126.8282241821289
 20
9.3654203414917
 30
110.9660186767578
 70
   192
  0
VERTEX
  5
5DD
  8
0
 10
120.6171646118164
 20
6.112730026245117
 30
110.9660186767578
 70
   192
  0
VERTEX
  5
5DE
  8
0
 10
123.4055099487305
 20
8.23531723022461
 30
110.9660186767578
 70
   192
  0
VERTEX
  5
5DF
  8
0
 10
118.798957824707
 20
3.255614042282104
 30
110.9660186767578
 70
   192
  0
VERTEX
  5
5E0
  8
0
 10
35.00074005126953
 20
14.85974979400635
 30
111.666015625
 70
   192
  0
VERTEX
  5
5E1
  8
0
 10
139.5
 20
14.85974979400635
 30
111.666015625
 70
   192
  0
VERTEX
  5
5E2
  8
0
 10
146.440185546875
 20
10.83857727050781
 30
111.666015625
 70
   192
  0
VERTEX
  5
5E3
  8
0
 10
143.5271606445312
 20
13.76708126068115
 30
111.666015625
 70
   192
  0
VERTEX
  5
5E4
  8
0
 10
147.5
 20
6.859998226165771
 30
111.666015625
 70
   192
  0
VERTEX
  5
5E5
  8
0
 10
147.499755859375
 20
-6.840006351470947
 30
111.666015625
 70
   192
  0
VERTEX
  5
5E6
  8
0
 10
143.4852294921875
 20
-13.7769193649292
 30
111.666015625
 70
   192
  0
VERTEX
  5
5E7
  8
0
 10
146.4100494384766
 20
-10.86167144775391
 30
111.666015625
 70
   192
  0
VERTEX
  5
5E8
  8
0
 10
139.5
 20
-14.84000301361084
 30
111.666015625
 70
   192
  0
VERTEX
  5
5E9
  8
0
 10
35.00003051757812
 20
-14.83975791931152
 30
111.666015625
 70
   192
  0
VERTEX
  5
5EA
  8
0
 10
27.2714958190918
 20
-14.14000415802002
 30
109.7485275268555
 70
   192
  0
VERTEX
  5
5EB
  8
0
 10
27.29269790649414
 20
14.15999603271484
 30
109.7530975341797
 70
   192
  0
VERTEX
  5
5EC
  8
0
 10
11.21292781829834
 20
-14.14000415802002
 30
93.67334747314453
 70
   192
  0
VERTEX
  5
5ED
  8
0
 10
11.21749687194824
 20
14.15999603271484
 30
93.69454193115234
 70
   192
  0
VERTEX
  5
5EE
  8
0
 10
14.76514434814453
 20
-14.14000415802002
 30
100.6495971679688
 70
   192
  0
VERTEX
  5
5EF
  8
0
 10
14.77486896514893
 20
14.15999603271484
 30
100.6618041992188
 70
   192
  0
VERTEX
  5
5F0
  8
0
 10
20.31643295288086
 20
14.15999603271484
 30
106.2008895874023
 70
   192
  0
VERTEX
  5
5F1
  8
0
 10
20.30422401428223
 20
-14.14000415802002
 30
106.191162109375
 70
   192
  0
VERTEX
  5
5F2
  8
0
 10
10.0
 20
-14.1400032043457
 30
85.96601867675781
 70
   192
  0
VERTEX
  5
5F3
  8
0
 10
10.0
 20
14.15999603271484
 30
85.96601104736328
 70
   192
  0
VERTEX
  5
5F4
  8
0
 10
-9.300000190734863
 20
14.85974979400635
 30
-61.1174430847168
 70
   192
  0
VERTEX
  5
5F5
  8
0
 10
-9.300000190734863
 20
14.85974979400635
 30
-31.70090675354004
 70
   192
  0
VERTEX
  5
5F6
  8
0
 10
9.300000190734863
 20
14.85974979400635
 30
-31.70065307617188
 70
   192
  0
VERTEX
  5
5F7
  8
0
 10
-4.932065010070801
 20
14.85999584197998
 30
105.1748733520508
 70
   192
  0
VERTEX
  5
5F8
  8
0
 10
14.19885063171387
 20
14.85999584197998
 30
101.0611267089844
 70
   192
  0
VERTEX
  5
5F9
  8
0
 10
10.54709911346436
 20
14.85999584197998
 30
93.88876342773438
 70
   192
  0
VERTEX
  5
5FA
  8
0
 10
25.15426254272461
 20
14.85999584197998
 30
129.1645050048828
 70
   192
  0
VERTEX
  5
5FB
  8
0
 10
27.05514907836914
 20
14.85999584197998
 30
110.4141998291016
 70
   192
  0
VERTEX
  5
5FC
  8
0
 10
35.00001907348633
 20
14.85999584197998
 30
130.2660217285156
 70
   192
  0
VERTEX
  5
5FD
  8
0
 10
139.5
 20
14.85999584197998
 30
130.2660217285156
 70
   192
  0
VERTEX
  5
5FE
  8
0
 10
-9.300000190734863
 20
14.85974979400635
 30
-2.284367561340332
 70
   192
  0
VERTEX
  5
5FF
  8
0
 10
9.300000190734863
 20
14.85974979400635
 30
27.13267707824707
 70
   192
  0
VERTEX
  5
600
  8
0
 10
-9.300000190734863
 20
14.85974979400635
 30
27.13217163085938
 70
   192
  0
VERTEX
  5
601
  8
0
 10
9.300000190734863
 20
14.85999584197998
 30
85.96600341796875
 70
   192
  0
VERTEX
  5
602
  8
0
 10
-9.300000190734863
 20
14.85974979400635
 30
56.54870986938477
 70
   192
  0
VERTEX
  5
603
  8
0
 10
-8.197992324829102
 20
14.85999584197998
 30
95.81590270996094
 70
   192
  0
VERTEX
  5
604
  8
0
 10
-9.300000190734863
 20
14.85999584197998
 30
85.96617126464844
 70
   192
  0
VERTEX
  5
605
  8
0
 10
0.3580520451068878
 20
14.85999584197998
 30
113.5798187255859
 70
   192
  0
VERTEX
  5
606
  8
0
 10
7.388335704803467
 20
14.85999584197998
 30
120.609504699707
 70
   192
  0
VERTEX
  5
607
  8
0
 10
15.79554176330566
 20
14.85999584197998
 30
125.9007568359375
 70
   192
  0
VERTEX
  5
608
  8
0
 10
19.89242362976074
 20
14.85999584197998
 30
106.7571868896484
 70
   192
  0
VERTEX
  5
609
  8
0
 10
147.5
 20
6.85999584197998
 30
130.2660217285156
 70
   192
  0
VERTEX
  5
60A
  8
0
 10
143.5279235839844
 20
13.76623821258545
 30
130.2660217285156
 70
   192
  0
VERTEX
  5
60B
  8
0
 10
146.4443817138672
 20
10.83087825775146
 30
130.2660217285156
 70
   192
  0
VERTEX
  5
60C
  8
0
 10
147.5
 20
-6.840004444122314
 30
130.2660217285156
 70
   192
  0
VERTEX
  5
60D
  8
0
 10
146.414794921875
 20
-10.85480499267578
 30
130.2660217285156
 70
   192
  0
VERTEX
  5
60E
  8
0
 10
143.4841003417969
 20
-13.77725219726562
 30
130.2660217285156
 70
   192
  0
VERTEX
  5
60F
  8
0
 10
139.5
 20
-14.84000301361084
 30
130.2660217285156
 70
   192
  0
VERTEX
  5
610
  8
0
 10
-9.300000190734863
 20
-14.83975791931152
 30
-31.70066452026367
 70
   192
  0
VERTEX
  5
611
  8
0
 10
9.300000190734863
 20
-14.83975696563721
 30
-31.70089149475098
 70
   192
  0
VERTEX
  5
612
  8
0
 10
9.300000190734863
 20
-14.83975696563721
 30
27.1322021484375
 70
   192
  0
VERTEX
  5
613
  8
0
 10
9.300000190734863
 20
-14.84000396728516
 30
85.96620178222656
 70
   192
  0
VERTEX
  5
614
  8
0
 10
10.55182361602783
 20
-14.84000396728516
 30
93.910888671875
 70
   192
  0
VERTEX
  5
615
  8
0
 10
-8.198473930358887
 20
-14.84000396728516
 30
95.8118896484375
 70
   192
  0
VERTEX
  5
616
  8
0
 10
-9.300000190734863
 20
-14.83975791931152
 30
27.13265419006348
 70
   192
  0
VERTEX
  5
617
  8
0
 10
0.3567444682121277
 20
-14.84000396728516
 30
113.5779647827148
 70
   192
  0
VERTEX
  5
618
  8
0
 10
14.20884227752686
 20
-14.84000396728516
 30
101.0736083984375
 70
   192
  0
VERTEX
  5
619
  8
0
 10
19.90490531921387
 20
-14.84000396728516
 30
106.7671813964844
 70
   192
  0
VERTEX
  5
61A
  8
0
 10
-9.300000190734863
 20
-14.84000396728516
 30
85.96597290039062
 70
   192
  0
VERTEX
  5
61B
  8
0
 10
25.1508731842041
 20
-14.84000396728516
 30
129.1641693115234
 70
   192
  0
VERTEX
  5
61C
  8
0
 10
15.79169368743896
 20
-14.84000396728516
 30
125.8983459472656
 70
   192
  0
VERTEX
  5
61D
  8
0
 10
27.0772819519043
 20
-14.84000396728516
 30
110.4189224243164
 70
   192
  0
VERTEX
  5
61E
  8
0
 10
35.00001907348633
 20
-14.84000396728516
 30
130.2660217285156
 70
   192
  0
VERTEX
  5
61F
  8
0
 10
7.386579513549805
 20
-14.84000396728516
 30
120.6082763671875
 70
   192
  0
VERTEX
  5
620
  8
0
 10
-4.934637546539307
 20
-14.84000396728516
 30
105.1706771850586
 70
   192
  0
VERTEX
  5
621
  8
0
 10
10.00011825561523
 20
-14.14000415802002
 30
27.13268089294434
 70
   192
  0
VERTEX
  5
622
  8
0
 10
10.00011825561523
 20
-14.14000415802002
 30
-31.70065116882324
 70
   192
  0
VERTEX
  5
623
  8
0
 10
10.00011825561523
 20
14.15999603271484
 30
-31.70065307617188
 70
   192
  0
VERTEX
  5
624
  8
0
 10
10.00011825561523
 20
14.15999603271484
 30
27.13267707824707
 70
   192
  0
VERTEX
  5
625
  8
0
 10
-0.1852527260780334
 20
14.15999603271484
 30
114.0209579467773
 70
   192
  0
VERTEX
  5
626
  8
0
 10
-5.554204940795898
 20
14.15999603271484
 30
105.4968948364258
 70
   192
  0
VERTEX
  5
627
  8
0
 10
-8.878332138061523
 20
14.15999603271484
 30
95.97698974609375
 70
   192
  0
VERTEX
  5
628
  8
0
 10
6.940465450286865
 20
14.15999603271484
 30
121.1477890014648
 70
   192
  0
VERTEX
  5
629
  8
0
 10
15.46754264831543
 20
14.15999603271484
 30
126.5189590454102
 70
   192
  0
VERTEX
  5
62A
  8
0
 10
24.98025131225586
 20
14.15999603271484
 30
129.8432312011719
 70
   192
  0
VERTEX
  5
62B
  8
0
 10
35.00000762939453
 20
14.15999603271484
 30
130.9660186767578
 70
   192
  0
VERTEX
  5
62C
  8
0
 10
139.5
 20
14.15999603271484
 30
130.9661407470703
 70
   192
  0
VERTEX
  5
62D
  8
0
 10
143.1753234863281
 20
13.16215705871582
 30
130.9660186767578
 70
   192
  0
VERTEX
  5
62E
  8
0
 10
145.8370208740234
 20
10.48319816589355
 30
130.9660186767578
 70
   192
  0
VERTEX
  5
62F
  8
0
 10
146.8000030517578
 20
6.859999656677246
 30
130.9660186767578
 70
   192
  0
VERTEX
  5
630
  8
0
 10
146.8000030517578
 20
-6.840007781982422
 30
130.9661407470703
 70
   192
  0
VERTEX
  5
631
  8
0
 10
145.8099670410156
 20
-10.50335216522217
 30
130.9660186767578
 70
   192
  0
VERTEX
  5
632
  8
0
 10
143.1352691650391
 20
-13.17051124572754
 30
130.9660186767578
 70
   192
  0
VERTEX
  5
633
  8
0
 10
139.5
 20
-14.1400032043457
 30
130.9660186767578
 70
   192
  0
VERTEX
  5
634
  8
0
 10
35.00000762939453
 20
-14.14000415802002
 30
130.9660186767578
 70
   192
  0
VERTEX
  5
635
  8
0
 10
6.940177440643311
 20
-14.14000415802002
 30
121.1481399536133
 70
   192
  0
VERTEX
  5
636
  8
0
 10
15.46547222137451
 20
-14.14000415802002
 30
126.5154724121094
 70
   192
  0
VERTEX
  5
637
  8
0
 10
24.97434616088867
 20
-14.14000415802002
 30
129.8440704345703
 70
   192
  0
VERTEX
  5
638
  8
0
 10
-0.1854587495326996
 20
-14.14000415802002
 30
114.0220565795898
 70
   192
  0
VERTEX
  5
639
  8
0
 10
-5.550410747528076
 20
-14.14000415802002
 30
105.4989318847656
 70
   192
  0
VERTEX
  5
63A
  8
0
 10
-8.881460189819336
 20
-14.14000415802002
 30
95.98538970947266
 70
   192
  0
VERTEX
  5
63B
  8
0
 10
-10.0
 20
-14.14000415802002
 30
85.96597290039062
 70
   192
  0
VERTEX
  5
63C
  8
0
 10
-10.00011825561523
 20
-14.14000415802002
 30
27.13266944885254
 70
   192
  0
VERTEX
  5
63D
  8
0
 10
-10.00011825561523
 20
-14.14000415802002
 30
-31.70065689086914
 70
   192
  0
VERTEX
  5
63E
  8
0
 10
134.8379364013672
 20
3.261502981185913
 30
118.8166809082031
 70
   192
  0
VERTEX
  5
63F
  8
0
 10
131.0472564697266
 20
8.240363121032715
 30
117.0490570068359
 70
   192
  0
VERTEX
  5
640
  8
0
 10
133.3411254882812
 20
6.119750022888184
 30
118.1187057495117
 70
   192
  0
VERTEX
  5
641
  8
0
 10
125.2446517944336
 20
9.363014221191406
 30
114.34326171875
 70
   192
  0
VERTEX
  5
642
  8
0
 10
128.2369995117188
 20
9.366636276245117
 30
115.7386093139648
 70
   192
  0
VERTEX
  5
643
  8
0
 10
122.4379272460938
 20
8.233479499816895
 30
113.0344619750977
 70
   192
  0
VERTEX
  5
644
  8
0
 10
120.1487426757812
 20
6.109782218933105
 30
111.9669952392578
 70
   192
  0
VERTEX
  5
645
  8
0
 10
118.6566848754883
 20
3.256521940231323
 30
111.271240234375
 70
   192
  0
VERTEX
  5
646
  8
0
 10
-32.0
 20
-2.0
 30
-57.52251434326172
 70
   192
  0
VERTEX
  5
647
  8
0
 10
-32.0
 20
-1.523529410362244
 30
-58.82839584350586
 70
   192
  0
VERTEX
  5
648
  8
0
 10
-32.0
 20
-1.48235297203064
 30
-56.25192642211914
 70
   192
  0
VERTEX
  5
649
  8
0
 10
-18.46926689147949
 20
2.0
 30
-57.82699584960938
 70
   192
  0
VERTEX
  5
64A
  8
0
 10
-17.85697364807129
 20
1.200000047683716
 30
-56.34878921508789
 70
   192
  0
VERTEX
  5
64B
  8
0
 10
-19.0815601348877
 20
1.200000047683716
 30
-59.30520248413086
 70
   192
  0
VERTEX
  5
64C
  8
0
 10
27.08602905273438
 20
-97.2248306274414
 30
-96.53399658203125
 70
   192
  0
VERTEX
  5
64D
  8
0
 10
26.20119285583496
 20
-93.6429672241211
 30
-91.53399658203125
 70
   192
  0
VERTEX
  5
64E
  8
0
 10
27.50518226623535
 20
-101.9332962036133
 30
-91.53399658203125
 70
   192
  0
VERTEX
  5
64F
  8
0
 10
27.08760070800781
 20
-106.7713775634766
 30
-96.53399658203125
 70
   192
  0
VERTEX
  5
650
  8
0
 10
26.19929504394531
 20
-110.3796997070312
 30
-91.53399658203125
 70
   192
  0
VERTEX
  5
651
  8
0
 10
17.69216156005859
 20
-123.0595321655273
 30
-96.53399658203125
 70
   192
  0
VERTEX
  5
652
  8
0
 10
23.82646942138672
 20
-115.7399597167969
 30
-96.53399658203125
 70
   192
  0
VERTEX
  5
653
  8
0
 10
22.27337646484375
 20
-118.1355743408203
 30
-91.53399658203125
 70
   192
  0
VERTEX
  5
654
  8
0
 10
16.10227394104004
 20
-124.2993927001953
 30
-91.53399658203125
 70
   192
  0
VERTEX
  5
655
  8
0
 10
9.422160148620605
 20
-127.8423461914062
 30
-96.53399658203125
 70
   192
  0
VERTEX
  5
656
  8
0
 10
0.013428726233542
 20
-129.5047607421875
 30
-96.53399658203125
 70
   192
  0
VERTEX
  5
657
  8
0
 10
8.396040916442871
 20
-128.1912689208984
 30
-91.53399658203125
 70
   192
  0
VERTEX
  5
658
  8
0
 10
0.013428726233542
 20
-129.5047607421875
 30
-91.53399658203125
 70
   192
  0
VERTEX
  5
659
  8
0
 10
23.81409645080566
 20
-88.24657440185547
 30
-96.53399658203125
 70
   192
  0
VERTEX
  5
65A
  8
0
 10
22.40064811706543
 20
-86.05097961425781
 30
-91.53399658203125
 70
   192
  0
VERTEX
  5
65B
  8
0
 10
17.67110633850098
 20
-80.93179321289062
 30
-96.53399658203125
 70
   192
  0
VERTEX
  5
65C
  8
0
 10
9.404582977294922
 20
-76.15850067138672
 30
-96.53399658203125
 70
   192
  0
VERTEX
  5
65D
  8
0
 10
16.32349395751953
 20
-79.87374877929688
 30
-91.53399658203125
 70
   192
  0
VERTEX
  5
65E
  8
0
 10
0.0134485317394137
 20
-74.49964141845703
 30
-96.53399658203125
 70
   192
  0
VERTEX
  5
65F
  8
0
 10
8.54063892364502
 20
-75.85823059082031
 30
-91.53399658203125
 70
   192
  0
VERTEX
  5
660
  8
0
 10
0.0134485317394137
 20
-74.49964141845703
 30
-91.53399658203125
 70
   192
  0
VERTEX
  5
661
  8
0
 10
26.50521087646484
 20
-101.9379119873047
 30
-90.53399658203125
 70
   192
  0
VERTEX
  5
662
  8
0
 10
25.92168045043945
 20
-110.2622299194336
 30
-90.82689666748047
 70
   192
  0
VERTEX
  5
663
  8
0
 10
27.2082576751709
 20
-101.9217910766602
 30
-90.82689666748047
 70
   192
  0
VERTEX
  5
664
  8
0
 10
0.0134485317394137
 20
-75.49964141845703
 30
-90.53399658203125
 70
   192
  0
VERTEX
  5
665
  8
0
 10
8.41401481628418
 20
-76.13024139404297
 30
-90.82689666748047
 70
   192
  0
VERTEX
  5
666
  8
0
 10
0.0134485317394137
 20
-74.79253387451172
 30
-90.82689666748047
 70
   192
  0
VERTEX
  5
667
  8
0
 10
25.24603271484375
 20
-110.0773849487305
 30
-90.53399658203125
 70
   192
  0
VERTEX
  5
668
  8
0
 10
22.04703521728516
 20
-117.951171875
 30
-90.82689666748047
 70
   192
  0
VERTEX
  5
669
  8
0
 10
15.95410823822021
 20
-124.0456466674805
 30
-90.82689666748047
 70
   192
  0
VERTEX
  5
66A
  8
0
 10
21.46182060241699
 20
-117.551399230957
 30
-90.53399658203125
 70
   192
  0
VERTEX
  5
66B
  8
0
 10
8.33707332611084
 20
-127.9058685302734
 30
-90.82689666748047
 70
   192
  0
VERTEX
  5
66C
  8
0
 10
8.087313652038574
 20
-127.2402038574219
 30
-90.53399658203125
 70
   192
  0
VERTEX
  5
66D
  8
0
 10
0.0092051485553384
 20
-129.2116546630859
 30
-90.82689666748047
 70
   192
  0
VERTEX
  5
66E
  8
0
 10
0.0093075502663851
 20
-128.5045471191406
 30
-90.53399658203125
 70
   192
  0
VERTEX
  5
66F
  8
0
 10
25.24911689758301
 20
-93.94873046875
 30
-90.53399658203125
 70
   192
  0
VERTEX
  5
670
  8
0
 10
25.9202823638916
 20
-93.71736145019531
 30
-90.82689666748047
 70
   192
  0
VERTEX
  5
671
  8
0
 10
22.15349960327148
 20
-86.20616912841797
 30
-90.82689666748047
 70
   192
  0
VERTEX
  5
672
  8
0
 10
21.58695030212402
 20
-86.63215637207031
 30
-90.53399658203125
 70
   192
  0
VERTEX
  5
673
  8
0
 10
16.11391830444336
 20
-80.08357238769531
 30
-90.82689666748047
 70
   192
  0
VERTEX
  5
674
  8
0
 10
15.73050975799561
 20
-80.67880249023438
 30
-90.53399658203125
 70
   192
  0
VERTEX
  5
675
  8
0
 10
8.230270385742188
 20
-76.80886840820312
 30
-90.53399658203125
 70
   192
  0
VERTEX
  5
676
  8
0
 10
15.51404571533203
 20
-123.4907379150391
 30
-90.53399658203125
 70
   192
  0
VERTEX
  5
677
  8
0
 10
-8.203994750976562
 20
-76.80915832519531
 30
-90.53399658203125
 70
   192
  0
VERTEX
  5
678
  8
0
 10
-15.70321273803711
 20
-80.67845916748047
 30
-90.53399658203125
 70
   192
  0
VERTEX
  5
679
  8
0
 10
-21.55880928039551
 20
-86.63041687011719
 30
-90.53399658203125
 70
   192
  0
VERTEX
  5
67A
  8
0
 10
-25.22114372253418
 20
-93.94534301757812
 30
-90.53399658203125
 70
   192
  0
VERTEX
  5
67B
  8
0
 10
-26.47833633422852
 20
-101.9331741333008
 30
-90.53399658203125
 70
   192
  0
VERTEX
  5
67C
  8
0
 10
-25.22087097167969
 20
-110.0721588134766
 30
-90.53399658203125
 70
   192
  0
VERTEX
  5
67D
  8
0
 10
-15.49246311187744
 20
-123.4869384765625
 30
-90.53399658203125
 70
   192
  0
VERTEX
  5
67E
  8
0
 10
-8.067667007446289
 20
-127.2378997802734
 30
-90.53399658203125
 70
   192
  0
VERTEX
  5
67F
  8
0
 10
-21.43836212158203
 20
-117.5465850830078
 30
-90.53399658203125
 70
   192
  0
VERTEX
  5
680
  8
0
 10
-23.78790664672852
 20
-88.24785614013672
 30
-96.53399658203125
 70
   192
  0
VERTEX
  5
681
  8
0
 10
-17.64586639404297
 20
-80.9329833984375
 30
-96.53399658203125
 70
   192
  0
VERTEX
  5
682
  8
0
 10
-9.379210472106934
 20
-76.15906524658203
 30
-96.53399658203125
 70
   192
  0
VERTEX
  5
683
  8
0
 10
-9.396574974060059
 20
-127.8416366577148
 30
-96.53399658203125
 70
   192
  0
VERTEX
  5
684
  8
0
 10
-17.66667556762695
 20
-123.0584869384766
 30
-96.53399658203125
 70
   192
  0
VERTEX
  5
685
  8
0
 10
-23.79976463317871
 20
-115.7395477294922
 30
-96.53399658203125
 70
   192
  0
VERTEX
  5
686
  8
0
 10
-27.05930519104004
 20
-97.22557830810547
 30
-96.53399658203125
 70
   192
  0
VERTEX
  5
687
  8
0
 10
-27.06052017211914
 20
-106.771614074707
 30
-96.53399658203125
 70
   192
  0
VERTEX
  5
688
  8
0
 10
-16.14340591430664
 20
-124.2512664794922
 30
-91.53399658203125
 70
   192
  0
VERTEX
  5
689
  8
0
 10
-8.279955863952637
 20
-127.9116134643555
 30
-90.82689666748047
 70
   192
  0
VERTEX
  5
68A
  8
0
 10
-15.88650512695312
 20
-124.0671539306641
 30
-90.82689666748047
 70
   192
  0
VERTEX
  5
68B
  8
0
 10
-26.12870979309082
 20
-110.5085067749023
 30
-91.53399658203125
 70
   192
  0
VERTEX
  5
68C
  8
0
 10
-22.00985908508301
 20
-117.9615020751953
 30
-90.82689666748047
 70
   192
  0
VERTEX
  5
68D
  8
0
 10
-25.89466094970703
 20
-110.2881088256836
 30
-90.82689666748047
 70
   192
  0
VERTEX
  5
68E
  8
0
 10
-22.22216987609863
 20
-118.1696853637695
 30
-91.53399658203125
 70
   192
  0
VERTEX
  5
68F
  8
0
 10
-25.89597320556641
 20
-93.73318481445312
 30
-90.82689666748047
 70
   192
  0
VERTEX
  5
690
  8
0
 10
-22.1346435546875
 20
-86.21992492675781
 30
-90.82689666748047
 70
   192
  0
VERTEX
  5
691
  8
0
 10
-22.22895050048828
 20
-85.84719848632812
 30
-91.53399658203125
 70
   192
  0
VERTEX
  5
692
  8
0
 10
-27.18753051757812
 20
-101.9547882080078
 30
-90.82689666748047
 70
   192
  0
VERTEX
  5
693
  8
0
 10
-27.4786205291748
 20
-102.0013656616211
 30
-91.53399658203125
 70
   192
  0
VERTEX
  5
694
  8
0
 10
-8.437414169311523
 20
-76.1446304321289
 30
-90.82689666748047
 70
   192
  0
VERTEX
  5
695
  8
0
 10
-16.13399314880371
 20
-80.12095642089844
 30
-90.82689666748047
 70
   192
  0
VERTEX
  5
696
  8
0
 10
-8.492648124694824
 20
-75.85282135009766
 30
-91.53399658203125
 70
   192
  0
VERTEX
  5
697
  8
0
 10
-16.1515064239502
 20
-79.76475524902344
 30
-91.53399658203125
 70
   192
  0
VERTEX
  5
698
  8
0
 10
-26.13418579101562
 20
-93.5189437866211
 30
-91.53399658203125
 70
   192
  0
VERTEX
  5
699
  8
0
 10
-8.47326946258545
 20
-128.1589508056641
 30
-91.53399658203125
 70
   192
  0
VERTEX
  5
69A
  8
0
 10
-4.775166034698486
 20
129.0860290527344
 30
-96.53399658203125
 70
   192
  0
VERTEX
  5
69B
  8
0
 10
-8.35702896118164
 20
128.2011871337891
 30
-91.53399658203125
 70
   192
  0
VERTEX
  5
69C
  8
0
 10
-0.0667032673954964
 20
129.5051879882812
 30
-91.53399658203125
 70
   192
  0
VERTEX
  5
69D
  8
0
 10
4.771380424499512
 20
129.0876007080078
 30
-96.53399658203125
 70
   192
  0
VERTEX
  5
69E
  8
0
 10
8.379701614379883
 20
128.1992950439453
 30
-91.53399658203125
 70
   192
  0
VERTEX
  5
69F
  8
0
 10
21.05953216552734
 20
119.6921615600586
 30
-96.53399658203125
 70
   192
  0
VERTEX
  5
6A0
  8
0
 10
13.73996162414551
 20
125.8264694213867
 30
-96.53399658203125
 70
   192
  0
VERTEX
  5
6A1
  8
0
 10
16.13557624816895
 20
124.2733764648438
 30
-91.53399658203125
 70
   192
  0
VERTEX
  5
6A2
  8
0
 10
22.29939079284668
 20
118.1022720336914
 30
-91.53399658203125
 70
   192
  0
VERTEX
  5
6A3
  8
0
 10
25.84235000610352
 20
111.4221572875977
 30
-96.53399658203125
 70
   192
  0
VERTEX
  5
6A4
  8
0
 10
27.50475692749023
 20
102.013427734375
 30
-96.53399658203125
 70
   192
  0
VERTEX
  5
6A5
  8
0
 10
26.19127464294434
 20
110.3960418701172
 30
-91.53399658203125
 70
   192
  0
VERTEX
  5
6A6
  8
0
 10
27.50475692749023
 20
102.013427734375
 30
-91.53399658203125
 70
   192
  0
VERTEX
  5
6A7
  8
0
 10
-13.75342845916748
 20
125.814094543457
 30
-96.53399658203125
 70
   192
  0
VERTEX
  5
6A8
  8
0
 10
-15.94902038574219
 20
124.4006500244141
 30
-91.53399658203125
 70
   192
  0
VERTEX
  5
6A9
  8
0
 10
-21.06820869445801
 20
119.6711044311523
 30
-96.53399658203125
 70
   192
  0
VERTEX
  5
6AA
  8
0
 10
-25.84149742126465
 20
111.4045867919922
 30
-96.53399658203125
 70
   192
  0
VERTEX
  5
6AB
  8
0
 10
-22.12625503540039
 20
118.3234939575195
 30
-91.53399658203125
 70
   192
  0
VERTEX
  5
6AC
  8
0
 10
-27.5003604888916
 20
102.0134506225586
 30
-96.53399658203125
 70
   192
  0
VERTEX
  5
6AD
  8
0
 10
-26.14177322387695
 20
110.540641784668
 30
-91.53399658203125
 70
   192
  0
VERTEX
  5
6AE
  8
0
 10
-27.5003604888916
 20
102.0134506225586
 30
-91.53399658203125
 70
   192
  0
VERTEX
  5
6AF
  8
0
 10
-0.0620870441198349
 20
128.5052032470703
 30
-90.53399658203125
 70
   192
  0
VERTEX
  5
6B0
  8
0
 10
8.262231826782227
 20
127.9216842651367
 30
-90.82689666748047
 70
   192
  0
VERTEX
  5
6B1
  8
0
 10
-0.0782072767615318
 20
129.208251953125
 30
-90.82689666748047
 70
   192
  0
VERTEX
  5
6B2
  8
0
 10
-26.5003604888916
 20
102.0134506225586
 30
-90.53399658203125
 70
   192
  0
VERTEX
  5
6B3
  8
0
 10
-25.86975479125977
 20
110.4140167236328
 30
-90.82689666748047
 70
   192
  0
VERTEX
  5
6B4
  8
0
 10
-27.20746803283691
 20
102.0134506225586
 30
-90.82689666748047
 70
   192
  0
VERTEX
  5
6B5
  8
0
 10
8.077385902404785
 20
127.2460327148438
 30
-90.53399658203125
 70
   192
  0
VERTEX
  5
6B6
  8
0
 10
15.95117092132568
 20
124.0470352172852
 30
-90.82689666748047
 70
   192
  0
VERTEX
  5
6B7
  8
0
 10
22.04564476013184
 20
117.9541091918945
 30
-90.82689666748047
 70
   192
  0
VERTEX
  5
6B8
  8
0
 10
15.5513973236084
 20
123.4618225097656
 30
-90.53399658203125
 70
   192
  0
VERTEX
  5
6B9
  8
0
 10
25.9058666229248
 20
110.3370742797852
 30
-90.82689666748047
 70
   192
  0
VERTEX
  5
6BA
  8
0
 10
25.24020576477051
 20
110.0873107910156
 30
-90.53399658203125
 70
   192
  0
VERTEX
  5
6BB
  8
0
 10
27.21165084838867
 20
102.0092086791992
 30
-90.82689666748047
 70
   192
  0
VERTEX
  5
6BC
  8
0
 10
26.50454902648926
 20
102.0093078613281
 30
-90.53399658203125
 70
   192
  0
VERTEX
  5
6BD
  8
0
 10
-8.051268577575684
 20
127.2491149902344
 30
-90.53399658203125
 70
   192
  0
VERTEX
  5
6BE
  8
0
 10
-8.282641410827637
 20
127.920280456543
 30
-90.82689666748047
 70
   192
  0
VERTEX
  5
6BF
  8
0
 10
-15.79382991790771
 20
124.1535034179688
 30
-90.82689666748047
 70
   192
  0
VERTEX
  5
6C0
  8
0
 10
-15.367844581604
 20
123.5869522094727
 30
-90.53399658203125
 70
   192
  0
VERTEX
  5
6C1
  8
0
 10
-21.91642761230469
 20
118.1139144897461
 30
-90.82689666748047
 70
   192
  0
VERTEX
  5
6C2
  8
0
 10
-21.32119941711426
 20
117.7305068969727
 30
-90.53399658203125
 70
   192
  0
VERTEX
  5
6C3
  8
0
 10
-25.19113159179688
 20
110.2302703857422
 30
-90.53399658203125
 70
   192
  0
VERTEX
  5
6C4
  8
0
 10
21.49073791503906
 20
117.514045715332
 30
-90.53399658203125
 70
   192
  0
VERTEX
  5
6C5
  8
0
 10
-25.19083976745605
 20
93.79600524902344
 30
-90.53399658203125
 70
   192
  0
VERTEX
  5
6C6
  8
0
 10
-21.32154083251953
 20
86.29679107666016
 30
-90.53399658203125
 70
   192
  0
VERTEX
  5
6C7
  8
0
 10
-15.3695821762085
 20
80.44119262695312
 30
-90.53399658203125
 70
   192
  0
VERTEX
  5
6C8
  8
0
 10
-8.054658889770508
 20
76.77885437011719
 30
-90.53399658203125
 70
   192
  0
VERTEX
  5
6C9
  8
0
 10
-0.0668254941701889
 20
75.52166748046875
 30
-90.53399658203125
 70
   192
  0
VERTEX
  5
6CA
  8
0
 10
8.07215690612793
 20
76.77912902832031
 30
-90.53399658203125
 70
   192
  0
VERTEX
  5
6CB
  8
0
 10
21.4869384765625
 20
86.50753784179688
 30
-90.53399658203125
 70
   192
  0
VERTEX
  5
6CC
  8
0
 10
25.2378978729248
 20
93.93233489990234
 30
-90.53399658203125
 70
   192
  0
VERTEX
  5
6CD
  8
0
 10
15.54658794403076
 20
80.56163787841797
 30
-90.53399658203125
 70
   192
  0
VERTEX
  5
6CE
  8
0
 10
-13.75214195251465
 20
78.21208953857422
 30
-96.53399658203125
 70
   192
  0
VERTEX
  5
6CF
  8
0
 10
-21.06701469421387
 20
84.35413360595703
 30
-96.53399658203125
 70
   192
  0
VERTEX
  5
6D0
  8
0
 10
-25.84093284606934
 20
92.62078857421875
 30
-96.53399658203125
 70
   192
  0
VERTEX
  5
6D1
  8
0
 10
25.84163856506348
 20
92.60342407226562
 30
-96.53399658203125
 70
   192
  0
VERTEX
  5
6D2
  8
0
 10
21.0584888458252
 20
84.33332061767578
 30
-96.53399658203125
 70
   192
  0
VERTEX
  5
6D3
  8
0
 10
13.73954582214355
 20
78.20023345947266
 30
-96.53399658203125
 70
   192
  0
VERTEX
  5
6D4
  8
0
 10
-4.774422645568848
 20
74.9406967163086
 30
-96.53399658203125
 70
   192
  0
VERTEX
  5
6D5
  8
0
 10
4.771612167358398
 20
74.93948364257812
 30
-96.53399658203125
 70
   192
  0
VERTEX
  5
6D6
  8
0
 10
22.25126266479492
 20
85.85659790039062
 30
-91.53399658203125
 70
   192
  0
VERTEX
  5
6D7
  8
0
 10
25.91161155700684
 20
93.72004699707031
 30
-90.82689666748047
 70
   192
  0
VERTEX
  5
6D8
  8
0
 10
22.06715202331543
 20
86.11349487304688
 30
-90.82689666748047
 70
   192
  0
VERTEX
  5
6D9
  8
0
 10
8.508509635925293
 20
75.87129211425781
 30
-91.53399658203125
 70
   192
  0
VERTEX
  5
6DA
  8
0
 10
15.961501121521
 20
79.99014282226562
 30
-90.82689666748047
 70
   192
  0
VERTEX
  5
6DB
  8
0
 10
8.288107872009277
 20
76.10533905029297
 30
-90.82689666748047
 70
   192
  0
VERTEX
  5
6DC
  8
0
 10
16.1696891784668
 20
79.77783203125
 30
-91.53399658203125
 70
   192
  0
VERTEX
  5
6DD
  8
0
 10
-8.266813278198242
 20
76.1040267944336
 30
-90.82689666748047
 70
   192
  0
VERTEX
  5
6DE
  8
0
 10
-15.78007411956787
 20
79.8653564453125
 30
-90.82689666748047
 70
   192
  0
VERTEX
  5
6DF
  8
0
 10
-16.15280151367188
 20
79.77104949951172
 30
-91.53399658203125
 70
   192
  0
VERTEX
  5
6E0
  8
0
 10
-0.0452090688049793
 20
74.81246948242188
 30
-90.82689666748047
 70
   192
  0
VERTEX
  5
6E1
  8
0
 10
0.0013633974594995
 20
74.52137756347656
 30
-91.53399658203125
 70
   192
  0
VERTEX
  5
6E2
  8
0
 10
-25.85536766052246
 20
93.56258392333984
 30
-90.82689666748047
 70
   192
  0
VERTEX
  5
6E3
  8
0
 10
-21.8790397644043
 20
85.86600494384766
 30
-90.82689666748047
 70
   192
  0
VERTEX
  5
6E4
  8
0
 10
-26.14717674255371
 20
93.50735473632812
 30
-91.53399658203125
 70
   192
  0
VERTEX
  5
6E5
  8
0
 10
-22.23524856567383
 20
85.84849548339844
 30
-91.53399658203125
 70
   192
  0
VERTEX
  5
6E6
  8
0
 10
-8.481059074401855
 20
75.86581420898438
 30
-91.53399658203125
 70
   192
  0
VERTEX
  5
6E7
  8
0
 10
26.15894508361816
 20
93.5267333984375
 30
-91.53399658203125
 70
   192
  0
VERTEX
  5
6E8
  8
0
 62
     9
 10
0.0
 20
0.0
 30
0.0
 70
   128
 71
     3
 72
     2
 73
     1
  0
VERTEX
  5
6E9
  8
0
 62
     9
 10
0.0
 20
0.0
 30
0.0
 70
   128
 71
     5
 72
     4
 73
     1
  0
VERTEX
  5
6EA
  8
0
 62
     9
 10
0.0
 20
0.0
 30
0.0
 70
   128
 71
     1
 72
     2
 73
     5
  0
VERTEX
  5
6EB
  8
0
 62
     9
 10
0.0
 20
0.0
 30
0.0
 70
   128
 71
     5
 72
     6
 73
     4
  0
VERTEX
  5
6EC
  8
0
 62
     9
 10
0.0
 20
0.0
 30
0.0
 70
   128
 71
     2
 72
     3
 73
     7
  0
VERTEX
  5
6ED
  8
0
 62
     9
 10
0.0
 20
0.0
 30
0.0
 70
   128
 71
     9
 72
     7
 73
     8
  0
VERTEX
  5
6EE
  8
0
 62
     9
 10
0.0
 20
0.0
 30
0.0
 70
   128
 71
     3
 72
     8
 73
     7
  0
VERTEX
  5
6EF
  8
0
 62
     9
 10
0.0
 20
0.0
 30
0.0
 70
   128
 71
    10
 72
     9
 73
     8
  0
VERTEX
  5
6F0
  8
0
 62
     9
 10
0.0
 20
0.0
 30
0.0
 70
   128
 71
    11
 72
     9
 73
    10
  0
VERTEX
  5
6F1
  8
0
 62
     9
 10
0.0
 20
0.0
 30
0.0
 70
   128
 71
    14
 72
    13
 73
    12
  0
VERTEX
  5
6F2
  8
0
 62
     9
 10
0.0
 20
0.0
 30
0.0
 70
   128
 71
    17
 72
    16
 73
    15
  0
VERTEX
  5
6F3
  8
0
 62
     9
 10
0.0
 20
0.0
 30
0.0
 70
   128
 71
    14
 72
    19
 73
    18
  0
VERTEX
  5
6F4
  8
0
 62
     9
 10
0.0
 20
0.0
 30
0.0
 70
   128
 71
    21
 72
    18
 73
    20
  0
VERTEX
  5
6F5
  8
0
 62
     9
 10
0.0
 20
0.0
 30
0.0
 70
   128
 71
    20
 72
    18
 73
    19
  0
VERTEX
  5
6F6
  8
0
 62
     9
 10
0.0
 20
0.0
 30
0.0
 70
   128
 71
    20
 72
    22
 73
    21
  0
VERTEX
  5
6F7
  8
0
 62
     9
 10
0.0
 20
0.0
 30
0.0
 70
   128
 71
    17
 72
    13
 73
    16
  0
VERTEX
  5
6F8
  8
0
 62
     9
 10
0.0
 20
0.0
 30
0.0
 70
   128
 71
    21
 72
    23
 73
    18
  0
VERTEX
  5
6F9
  8
0
 62
     9
 10
0.0
 20
0.0
 30
0.0
 70
   128
 71
    15
 72
    16
 73
    24
  0
VERTEX
  5
6FA
  8
0
 62
     9
 10
0.0
 20
0.0
 30
0.0
 70
   128
 71
    13
 72
    17
 73
    12
  0
VERTEX
  5
6FB
  8
0
 62
     9
 10
0.0
 20
0.0
 30
0.0
 70
   128
 71
    16
 72
    26
 73
    25
  0
VERTEX
  5
6FC
  8
0
 62
     9
 10
0.0
 20
0.0
 30
0.0
 70
   128
 71
    24
 72
    27
 73
    15
  0
VERTEX
  5
6FD
  8
0
 62
     9
 10
0.0
 20
0.0
 30
0.0
 70
   128
 71
    24
 72
    16
 73
    25
  0
VERTEX
  5
6FE
  8
0
 62
     9
 10
0.0
 20
0.0
 30
0.0
 70
   128
 71
    13
 72
    28
 73
    26
  0
VERTEX
  5
6FF
  8
0
 62
     9
 10
0.0
 20
0.0
 30
0.0
 70
   128
 71
    13
 72
    23
 73
    28
  0
VERTEX
  5
700
  8
0
 62
     9
 10
0.0
 20
0.0
 30
0.0
 70
   128
 71
    16
 72
    13
 73
    26
  0
VERTEX
  5
701
  8
0
 62
     9
 10
0.0
 20
0.0
 30
0.0
 70
   128
 71
    13
 72
    18
 73
    23
  0
VERTEX
  5
702
  8
0
 62
     9
 10
0.0
 20
0.0
 30
0.0
 70
   128
 71
    18
 72
    13
 73
    14
  0
VERTEX
  5
703
  8
0
 62
     9
 10
0.0
 20
0.0
 30
0.0
 70
   128
 71
    21
 72
    29
 73
    23
  0
VERTEX
  5
704
  8
0
 62
     9
 10
0.0
 20
0.0
 30
0.0
 70
   128
 71
    28
 72
    30
 73
    26
  0
VERTEX
  5
705
  8
0
 62
     9
 10
0.0
 20
0.0
 30
0.0
 70
   128
 71
    21
 72
    22
 73
    31
  0
VERTEX
  5
706
  8
0
 62
     9
 10
0.0
 20
0.0
 30
0.0
 70
   128
 71
    33
 72
    31
 73
    32
  0
VERTEX
  5
707
  8
0
 62
     9
 10
0.0
 20
0.0
 30
0.0
 70
   128
 71
    32
 72
    31
 73
    22
  0
VERTEX
  5
708
  8
0
 62
     9
 10
0.0
 20
0.0
 30
0.0
 70
   128
 71
    32
 72
    11
 73
    33
  0
VERTEX
  5
709
  8
0
 62
     9
 10
0.0
 20
0.0
 30
0.0
 70
   128
 71
    28
 72
    29
 73
    30
  0
VERTEX
  5
70A
  8
0
 62
     9
 10
0.0
 20
0.0
 30
0.0
 70
   128
 71
    33
 72
    34
 73
    31
  0
VERTEX
  5
70B
  8
0
 62
     9
 10
0.0
 20
0.0
 30
0.0
 70
   128
 71
    26
 72
    30
 73
    35
  0
VERTEX
  5
70C
  8
0
 62
     9
 10
0.0
 20
0.0
 30
0.0
 70
   128
 71
    29
 72
    28
 73
    23
  0
VERTEX
  5
70D
  8
0
 62
     9
 10
0.0
 20
0.0
 30
0.0
 70
   128
 71
    30
 72
    36
 73
     6
  0
VERTEX
  5
70E
  8
0
 62
     9
 10
0.0
 20
0.0
 30
0.0
 70
   128
 71
    35
 72
    25
 73
    26
  0
VERTEX
  5
70F
  8
0
 62
     9
 10
0.0
 20
0.0
 30
0.0
 70
   128
 71
    35
 72
    30
 73
     6
  0
VERTEX
  5
710
  8
0
 62
     9
 10
0.0
 20
0.0
 30
0.0
 70
   128
 71
    29
 72
    37
 73
    36
  0
VERTEX
  5
711
  8
0
 62
     9
 10
0.0
 20
0.0
 30
0.0
 70
   128
 71
    29
 72
    34
 73
    37
  0
VERTEX
  5
712
  8
0
 62
     9
 10
0.0
 20
0.0
 30
0.0
 70
   128
 71
    30
 72
    29
 73
    36
  0
VERTEX
  5
713
  8
0
 62
     9
 10
0.0
 20
0.0
 30
0.0
 70
   128
 71
    29
 72
    31
 73
    34
  0
VERTEX
  5
714
  8
0
 62
     9
 10
0.0
 20
0.0
 30
0.0
 70
   128
 71
    31
 72
    29
 73
    21
  0
VERTEX
  5
715
  8
0
 62
     9
 10
0.0
 20
0.0
 30
0.0
 70
   128
 71
    39
 72
    38
 73
     7
  0
VERTEX
  5
716
  8
0
 62
     9
 10
0.0
 20
0.0
 30
0.0
 70
   128
 71
    38
 72
    39
 73
    40
  0
VERTEX
  5
717
  8
0
 62
     9
 10
0.0
 20
0.0
 30
0.0
 70
   128
 71
    41
 72
     6
 73
     5
  0
VERTEX
  5
718
  8
0
 62
     9
 10
0.0
 20
0.0
 30
0.0
 70
   128
 71
     9
 72
    11
 73
    32
  0
VERTEX
  5
719
  8
0
 62
     9
 10
0.0
 20
0.0
 30
0.0
 70
   128
 71
    41
 72
    35
 73
     6
  0
VERTEX
  5
71A
  8
0
 62
     9
 10
0.0
 20
0.0
 30
0.0
 70
   128
 71
    35
 72
    41
 73
    42
  0
VERTEX
  5
71B
  8
0
 62
     9
 10
0.0
 20
0.0
 30
0.0
 70
   128
 71
    44
 72
    43
 73
    38
  0
VERTEX
  5
71C
  8
0
 62
     9
 10
0.0
 20
0.0
 30
0.0
 70
   128
 71
    42
 72
    25
 73
    35
  0
VERTEX
  5
71D
  8
0
 62
     9
 10
0.0
 20
0.0
 30
0.0
 70
   128
 71
    38
 72
    43
 73
    41
  0
VERTEX
  5
71E
  8
0
 62
     9
 10
0.0
 20
0.0
 30
0.0
 70
   128
 71
     9
 72
    39
 73
     7
  0
VERTEX
  5
71F
  8
0
 62
     9
 10
0.0
 20
0.0
 30
0.0
 70
   128
 71
    38
 72
     2
 73
     7
  0
VERTEX
  5
720
  8
0
 62
     9
 10
0.0
 20
0.0
 30
0.0
 70
   128
 71
    22
 72
    39
 73
    32
  0
VERTEX
  5
721
  8
0
 62
     9
 10
0.0
 20
0.0
 30
0.0
 70
   128
 71
    40
 72
    39
 73
    22
  0
VERTEX
  5
722
  8
0
 62
     9
 10
0.0
 20
0.0
 30
0.0
 70
   128
 71
    39
 72
     9
 73
    32
  0
VERTEX
  5
723
  8
0
 62
     9
 10
0.0
 20
0.0
 30
0.0
 70
   128
 71
     5
 72
     2
 73
    38
  0
VERTEX
  5
724
  8
0
 62
     9
 10
0.0
 20
0.0
 30
0.0
 70
   128
 71
    44
 72
    38
 73
    40
  0
VERTEX
  5
725
  8
0
 62
     9
 10
0.0
 20
0.0
 30
0.0
 70
   128
 71
    41
 72
     5
 73
    38
  0
VERTEX
  5
726
  8
0
 62
     9
 10
0.0
 20
0.0
 30
0.0
 70
   128
 71
    42
 72
    41
 73
    43
  0
VERTEX
  5
727
  8
0
 62
     9
 10
0.0
 20
0.0
 30
0.0
 70
   128
 71
    47
 72
    46
 73
    45
  0
VERTEX
  5
728
  8
0
 62
     9
 10
0.0
 20
0.0
 30
0.0
 70
   128
 71
    49
 72
    48
 73
    45
  0
VERTEX
  5
729
  8
0
 62
     9
 10
0.0
 20
0.0
 30
0.0
 70
   128
 71
    45
 72
    46
 73
    49
  0
VERTEX
  5
72A
  8
0
 62
     9
 10
0.0
 20
0.0
 30
0.0
 70
   128
 71
    49
 72
    50
 73
    48
  0
VERTEX
  5
72B
  8
0
 62
     9
 10
0.0
 20
0.0
 30
0.0
 70
   128
 71
    50
 72
    27
 73
    48
  0
VERTEX
  5
72C
  8
0
 62
     9
 10
0.0
 20
0.0
 30
0.0
 70
   128
 71
    51
 72
    46
 73
    47
  0
VERTEX
  5
72D
  8
0
 62
     9
 10
0.0
 20
0.0
 30
0.0
 70
   128
 71
    53
 72
    51
 73
    52
  0
VERTEX
  5
72E
  8
0
 62
     9
 10
0.0
 20
0.0
 30
0.0
 70
   128
 71
    47
 72
    52
 73
    51
  0
VERTEX
  5
72F
  8
0
 62
     9
 10
0.0
 20
0.0
 30
0.0
 70
   128
 71
    19
 72
    53
 73
    52
  0
VERTEX
  5
730
  8
0
 62
     9
 10
0.0
 20
0.0
 30
0.0
 70
   128
 71
    56
 72
    55
 73
    54
  0
VERTEX
  5
731
  8
0
 62
     9
 10
0.0
 20
0.0
 30
0.0
 70
   128
 71
    59
 72
    58
 73
    57
  0
VERTEX
  5
732
  8
0
 62
     9
 10
0.0
 20
0.0
 30
0.0
 70
   128
 71
    56
 72
    54
 73
    58
  0
VERTEX
  5
733
  8
0
 62
     9
 10
0.0
 20
0.0
 30
0.0
 70
   128
 71
    62
 72
    61
 73
    60
  0
VERTEX
  5
734
  8
0
 62
     9
 10
0.0
 20
0.0
 30
0.0
 70
   128
 71
    57
 72
    60
 73
    59
  0
VERTEX
  5
735
  8
0
 62
     9
 10
0.0
 20
0.0
 30
0.0
 70
   128
 71
    61
 72
    59
 73
    60
  0
VERTEX
  5
736
  8
0
 62
     9
 10
0.0
 20
0.0
 30
0.0
 70
   128
 71
    61
 72
    62
 73
    63
  0
VERTEX
  5
737
  8
0
 62
     9
 10
0.0
 20
0.0
 30
0.0
 70
   128
 71
    65
 72
    64
 73
    63
  0
VERTEX
  5
738
  8
0
 62
     9
 10
0.0
 20
0.0
 30
0.0
 70
   128
 71
    62
 72
    65
 73
    63
  0
VERTEX
  5
739
  8
0
 62
     9
 10
0.0
 20
0.0
 30
0.0
 70
   128
 71
    58
 72
    54
 73
    57
  0
VERTEX
  5
73A
  8
0
 62
     9
 10
0.0
 20
0.0
 30
0.0
 70
   128
 71
    68
 72
    67
 73
    66
  0
VERTEX
  5
73B
  8
0
 62
     9
 10
0.0
 20
0.0
 30
0.0
 70
   128
 71
    70
 72
    55
 73
    69
  0
VERTEX
  5
73C
  8
0
 62
     9
 10
0.0
 20
0.0
 30
0.0
 70
   128
 71
    56
 72
    69
 73
    55
  0
VERTEX
  5
73D
  8
0
 62
     9
 10
0.0
 20
0.0
 30
0.0
 70
   128
 71
    70
 72
    66
 73
    71
  0
VERTEX
  5
73E
  8
0
 62
     9
 10
0.0
 20
0.0
 30
0.0
 70
   128
 71
    66
 72
    70
 73
    69
  0
VERTEX
  5
73F
  8
0
 62
     9
 10
0.0
 20
0.0
 30
0.0
 70
   128
 71
    67
 72
    71
 73
    66
  0
VERTEX
  5
740
  8
0
 62
     9
 10
0.0
 20
0.0
 30
0.0
 70
   128
 71
    67
 72
    68
 73
    72
  0
VERTEX
  5
741
  8
0
 62
     9
 10
0.0
 20
0.0
 30
0.0
 70
   128
 71
    75
 72
    74
 73
    73
  0
VERTEX
  5
742
  8
0
 62
     9
 10
0.0
 20
0.0
 30
0.0
 70
   128
 71
    78
 72
    77
 73
    76
  0
VERTEX
  5
743
  8
0
 62
     9
 10
0.0
 20
0.0
 30
0.0
 70
   128
 71
    81
 72
    80
 73
    79
  0
VERTEX
  5
744
  8
0
 62
     9
 10
0.0
 20
0.0
 30
0.0
 70
   128
 71
    83
 72
    82
 73
    80
  0
VERTEX
  5
745
  8
0
 62
     9
 10
0.0
 20
0.0
 30
0.0
 70
   128
 71
    81
 72
    85
 73
    84
  0
VERTEX
  5
746
  8
0
 62
     9
 10
0.0
 20
0.0
 30
0.0
 70
   128
 71
    85
 72
    81
 73
    79
  0
VERTEX
  5
747
  8
0
 62
     9
 10
0.0
 20
0.0
 30
0.0
 70
   128
 71
    75
 72
    73
 73
    78
  0
VERTEX
  5
748
  8
0
 62
     9
 10
0.0
 20
0.0
 30
0.0
 70
   128
 71
    82
 72
    83
 73
    77
  0
VERTEX
  5
749
  8
0
 62
     9
 10
0.0
 20
0.0
 30
0.0
 70
   128
 71
    80
 72
    82
 73
    79
  0
VERTEX
  5
74A
  8
0
 62
     9
 10
0.0
 20
0.0
 30
0.0
 70
   128
 71
    76
 72
    75
 73
    78
  0
VERTEX
  5
74B
  8
0
 62
     9
 10
0.0
 20
0.0
 30
0.0
 70
   128
 71
    76
 72
    77
 73
    83
  0
VERTEX
  5
74C
  8
0
 62
     9
 10
0.0
 20
0.0
 30
0.0
 70
   128
 71
    74
 72
    86
 73
    73
  0
VERTEX
  5
74D
  8
0
 62
     9
 10
0.0
 20
0.0
 30
0.0
 70
   128
 71
    89
 72
    88
 73
    87
  0
VERTEX
  5
74E
  8
0
 62
     9
 10
0.0
 20
0.0
 30
0.0
 70
   128
 71
    92
 72
    91
 73
    90
  0
VERTEX
  5
74F
  8
0
 62
     9
 10
0.0
 20
0.0
 30
0.0
 70
   128
 71
    94
 72
    88
 73
    93
  0
VERTEX
  5
750
  8
0
 62
     9
 10
0.0
 20
0.0
 30
0.0
 70
   128
 71
    95
 72
    88
 73
    94
  0
VERTEX
  5
751
  8
0
 62
     9
 10
0.0
 20
0.0
 30
0.0
 70
   128
 71
    94
 72
    97
 73
    96
  0
VERTEX
  5
752
  8
0
 62
     9
 10
0.0
 20
0.0
 30
0.0
 70
   128
 71
    97
 72
    94
 73
    93
  0
VERTEX
  5
753
  8
0
 62
     9
 10
0.0
 20
0.0
 30
0.0
 70
   128
 71
    96
 72
    99
 73
    98
  0
VERTEX
  5
754
  8
0
 62
     9
 10
0.0
 20
0.0
 30
0.0
 70
   128
 71
    98
 72
   101
 73
   100
  0
VERTEX
  5
755
  8
0
 62
     9
 10
0.0
 20
0.0
 30
0.0
 70
   128
 71
   103
 72
   102
 73
    98
  0
VERTEX
  5
756
  8
0
 62
     9
 10
0.0
 20
0.0
 30
0.0
 70
   128
 71
   103
 72
   104
 73
   102
  0
VERTEX
  5
757
  8
0
 62
     9
 10
0.0
 20
0.0
 30
0.0
 70
   128
 71
    87
 72
   105
 73
    89
  0
VERTEX
  5
758
  8
0
 62
     9
 10
0.0
 20
0.0
 30
0.0
 70
   128
 71
    98
 72
   102
 73
   101
  0
VERTEX
  5
759
  8
0
 62
     9
 10
0.0
 20
0.0
 30
0.0
 70
   128
 71
   106
 72
   105
 73
    87
  0
VERTEX
  5
75A
  8
0
 62
     9
 10
0.0
 20
0.0
 30
0.0
 70
   128
 71
   106
 72
   108
 73
   107
  0
VERTEX
  5
75B
  8
0
 62
     9
 10
0.0
 20
0.0
 30
0.0
 70
   128
 71
   106
 72
    87
 73
   109
  0
VERTEX
  5
75C
  8
0
 62
     9
 10
0.0
 20
0.0
 30
0.0
 70
   128
 71
   111
 72
   110
 73
   108
  0
VERTEX
  5
75D
  8
0
 62
     9
 10
0.0
 20
0.0
 30
0.0
 70
   128
 71
   105
 72
   106
 73
   107
  0
VERTEX
  5
75E
  8
0
 62
     9
 10
0.0
 20
0.0
 30
0.0
 70
   128
 71
   112
 72
   111
 73
    91
  0
VERTEX
  5
75F
  8
0
 62
     9
 10
0.0
 20
0.0
 30
0.0
 70
   128
 71
   108
 72
   110
 73
   107
  0
VERTEX
  5
760
  8
0
 62
     9
 10
0.0
 20
0.0
 30
0.0
 70
   128
 71
    92
 72
   112
 73
    91
  0
VERTEX
  5
761
  8
0
 62
     9
 10
0.0
 20
0.0
 30
0.0
 70
   128
 71
   112
 72
   110
 73
   111
  0
VERTEX
  5
762
  8
0
 62
     9
 10
0.0
 20
0.0
 30
0.0
 70
   128
 71
    90
 72
   114
 73
   113
  0
VERTEX
  5
763
  8
0
 62
     9
 10
0.0
 20
0.0
 30
0.0
 70
   128
 71
    91
 72
   115
 73
   114
  0
VERTEX
  5
764
  8
0
 62
     9
 10
0.0
 20
0.0
 30
0.0
 70
   128
 71
    91
 72
   114
 73
    90
  0
VERTEX
  5
765
  8
0
 62
     9
 10
0.0
 20
0.0
 30
0.0
 70
   128
 71
   111
 72
   116
 73
   115
  0
VERTEX
  5
766
  8
0
 62
     9
 10
0.0
 20
0.0
 30
0.0
 70
   128
 71
   111
 72
   115
 73
    91
  0
VERTEX
  5
767
  8
0
 62
     9
 10
0.0
 20
0.0
 30
0.0
 70
   128
 71
   108
 72
   117
 73
   116
  0
VERTEX
  5
768
  8
0
 62
     9
 10
0.0
 20
0.0
 30
0.0
 70
   128
 71
   108
 72
   116
 73
   111
  0
VERTEX
  5
769
  8
0
 62
     9
 10
0.0
 20
0.0
 30
0.0
 70
   128
 71
   106
 72
   109
 73
   117
  0
VERTEX
  5
76A
  8
0
 62
     9
 10
0.0
 20
0.0
 30
0.0
 70
   128
 71
   106
 72
   117
 73
   108
  0
VERTEX
  5
76B
  8
0
 62
     9
 10
0.0
 20
0.0
 30
0.0
 70
   128
 71
    87
 72
   118
 73
   109
  0
VERTEX
  5
76C
  8
0
 62
     9
 10
0.0
 20
0.0
 30
0.0
 70
   128
 71
    93
 72
    88
 73
    89
  0
VERTEX
  5
76D
  8
0
 62
     9
 10
0.0
 20
0.0
 30
0.0
 70
   128
 71
    88
 72
   118
 73
    87
  0
VERTEX
  5
76E
  8
0
 62
     9
 10
0.0
 20
0.0
 30
0.0
 70
   128
 71
   118
 72
    88
 73
    95
  0
VERTEX
  5
76F
  8
0
 62
     9
 10
0.0
 20
0.0
 30
0.0
 70
   128
 71
    94
 72
   119
 73
    95
  0
VERTEX
  5
770
  8
0
 62
     9
 10
0.0
 20
0.0
 30
0.0
 70
   128
 71
    99
 72
    96
 73
    97
  0
VERTEX
  5
771
  8
0
 62
     9
 10
0.0
 20
0.0
 30
0.0
 70
   128
 71
    96
 72
   119
 73
    94
  0
VERTEX
  5
772
  8
0
 62
     9
 10
0.0
 20
0.0
 30
0.0
 70
   128
 71
   119
 72
    96
 73
   100
  0
VERTEX
  5
773
  8
0
 62
     9
 10
0.0
 20
0.0
 30
0.0
 70
   128
 71
    98
 72
   100
 73
    96
  0
VERTEX
  5
774
  8
0
 62
     9
 10
0.0
 20
0.0
 30
0.0
 70
   128
 71
   103
 72
    98
 73
    99
  0
VERTEX
  5
775
  8
0
 62
     9
 10
0.0
 20
0.0
 30
0.0
 70
   128
 71
   121
 72
   109
 73
   120
  0
VERTEX
  5
776
  8
0
 62
     9
 10
0.0
 20
0.0
 30
0.0
 70
   128
 71
   118
 72
   122
 73
   120
  0
VERTEX
  5
777
  8
0
 62
     9
 10
0.0
 20
0.0
 30
0.0
 70
   128
 71
   120
 72
   109
 73
   118
  0
VERTEX
  5
778
  8
0
 62
     9
 10
0.0
 20
0.0
 30
0.0
 70
   128
 71
   123
 72
   122
 73
    95
  0
VERTEX
  5
779
  8
0
 62
     9
 10
0.0
 20
0.0
 30
0.0
 70
   128
 71
   118
 72
    95
 73
   122
  0
VERTEX
  5
77A
  8
0
 62
     9
 10
0.0
 20
0.0
 30
0.0
 70
   128
 71
   123
 72
   119
 73
   124
  0
VERTEX
  5
77B
  8
0
 62
     9
 10
0.0
 20
0.0
 30
0.0
 70
   128
 71
   119
 72
   123
 73
    95
  0
VERTEX
  5
77C
  8
0
 62
     9
 10
0.0
 20
0.0
 30
0.0
 70
   128
 71
   100
 72
   125
 73
   124
  0
VERTEX
  5
77D
  8
0
 62
     9
 10
0.0
 20
0.0
 30
0.0
 70
   128
 71
   124
 72
   119
 73
   100
  0
VERTEX
  5
77E
  8
0
 62
     9
 10
0.0
 20
0.0
 30
0.0
 70
   128
 71
   100
 72
   101
 73
   125
  0
VERTEX
  5
77F
  8
0
 62
     9
 10
0.0
 20
0.0
 30
0.0
 70
   128
 71
   109
 72
   121
 73
   117
  0
VERTEX
  5
780
  8
0
 62
     9
 10
0.0
 20
0.0
 30
0.0
 70
   128
 71
   116
 72
   117
 73
   126
  0
VERTEX
  5
781
  8
0
 62
     9
 10
0.0
 20
0.0
 30
0.0
 70
   128
 71
   121
 72
   126
 73
   117
  0
VERTEX
  5
782
  8
0
 62
     9
 10
0.0
 20
0.0
 30
0.0
 70
   128
 71
   116
 72
   127
 73
   115
  0
VERTEX
  5
783
  8
0
 62
     9
 10
0.0
 20
0.0
 30
0.0
 70
   128
 71
   127
 72
   116
 73
   126
  0
VERTEX
  5
784
  8
0
 62
     9
 10
0.0
 20
0.0
 30
0.0
 70
   128
 71
   128
 72
   114
 73
   115
  0
VERTEX
  5
785
  8
0
 62
     9
 10
0.0
 20
0.0
 30
0.0
 70
   128
 71
   115
 72
   127
 73
   128
  0
VERTEX
  5
786
  8
0
 62
     9
 10
0.0
 20
0.0
 30
0.0
 70
   128
 71
   113
 72
   114
 73
   129
  0
VERTEX
  5
787
  8
0
 62
     9
 10
0.0
 20
0.0
 30
0.0
 70
   128
 71
   128
 72
   129
 73
   114
  0
VERTEX
  5
788
  8
0
 62
     9
 10
0.0
 20
0.0
 30
0.0
 70
   128
 71
   130
 72
   113
 73
   129
  0
VERTEX
  5
789
  8
0
 62
     9
 10
0.0
 20
0.0
 30
0.0
 70
   128
 71
   126
 72
   129
 73
   127
  0
VERTEX
  5
78A
  8
0
 62
     9
 10
0.0
 20
0.0
 30
0.0
 70
   128
 71
   131
 72
   130
 73
   129
  0
VERTEX
  5
78B
  8
0
 62
     9
 10
0.0
 20
0.0
 30
0.0
 70
   128
 71
   127
 72
   129
 73
   128
  0
VERTEX
  5
78C
  8
0
 62
     9
 10
0.0
 20
0.0
 30
0.0
 70
   128
 71
   129
 72
   126
 73
   120
  0
VERTEX
  5
78D
  8
0
 62
     9
 10
0.0
 20
0.0
 30
0.0
 70
   128
 71
   120
 72
   126
 73
   121
  0
VERTEX
  5
78E
  8
0
 62
     9
 10
0.0
 20
0.0
 30
0.0
 70
   128
 71
   120
 72
   132
 73
   131
  0
VERTEX
  5
78F
  8
0
 62
     9
 10
0.0
 20
0.0
 30
0.0
 70
   128
 71
   131
 72
   129
 73
   120
  0
VERTEX
  5
790
  8
0
 62
     9
 10
0.0
 20
0.0
 30
0.0
 70
   128
 71
   132
 72
   122
 73
   123
  0
VERTEX
  5
791
  8
0
 62
     9
 10
0.0
 20
0.0
 30
0.0
 70
   128
 71
   120
 72
   122
 73
   132
  0
VERTEX
  5
792
  8
0
 62
     9
 10
0.0
 20
0.0
 30
0.0
 70
   128
 71
   133
 72
   132
 73
   123
  0
VERTEX
  5
793
  8
0
 62
     9
 10
0.0
 20
0.0
 30
0.0
 70
   128
 71
   134
 72
   133
 73
   123
  0
VERTEX
  5
794
  8
0
 62
     9
 10
0.0
 20
0.0
 30
0.0
 70
   128
 71
   136
 72
   135
 73
   134
  0
VERTEX
  5
795
  8
0
 62
     9
 10
0.0
 20
0.0
 30
0.0
 70
   128
 71
   123
 72
   124
 73
   134
  0
VERTEX
  5
796
  8
0
 62
     9
 10
0.0
 20
0.0
 30
0.0
 70
   128
 71
   134
 72
   124
 73
   136
  0
VERTEX
  5
797
  8
0
 62
     9
 10
0.0
 20
0.0
 30
0.0
 70
   128
 71
   135
 72
   137
 73
   134
  0
VERTEX
  5
798
  8
0
 62
     9
 10
0.0
 20
0.0
 30
0.0
 70
   128
 71
   135
 72
   136
 73
   138
  0
VERTEX
  5
799
  8
0
 62
     9
 10
0.0
 20
0.0
 30
0.0
 70
   128
 71
   136
 72
   139
 73
   138
  0
VERTEX
  5
79A
  8
0
 62
     9
 10
0.0
 20
0.0
 30
0.0
 70
   128
 71
   124
 72
   125
 73
   136
  0
VERTEX
  5
79B
  8
0
 62
     9
 10
0.0
 20
0.0
 30
0.0
 70
   128
 71
   105
 72
     3
 73
     1
  0
VERTEX
  5
79C
  8
0
 62
     9
 10
0.0
 20
0.0
 30
0.0
 70
   128
 71
    89
 72
     1
 73
     4
  0
VERTEX
  5
79D
  8
0
 62
     9
 10
0.0
 20
0.0
 30
0.0
 70
   128
 71
   142
 72
   141
 73
   140
  0
VERTEX
  5
79E
  8
0
 62
     9
 10
0.0
 20
0.0
 30
0.0
 70
   128
 71
   145
 72
   144
 73
   143
  0
VERTEX
  5
79F
  8
0
 62
     9
 10
0.0
 20
0.0
 30
0.0
 70
   128
 71
   148
 72
   147
 73
   146
  0
VERTEX
  5
7A0
  8
0
 62
     9
 10
0.0
 20
0.0
 30
0.0
 70
   128
 71
   151
 72
   150
 73
   149
  0
VERTEX
  5
7A1
  8
0
 62
     9
 10
0.0
 20
0.0
 30
0.0
 70
   128
 71
   151
 72
   153
 73
   152
  0
VERTEX
  5
7A2
  8
0
 62
     9
 10
0.0
 20
0.0
 30
0.0
 70
   128
 71
   154
 72
   152
 73
   153
  0
VERTEX
  5
7A3
  8
0
 62
     9
 10
0.0
 20
0.0
 30
0.0
 70
   128
 71
   151
 72
   149
 73
   153
  0
VERTEX
  5
7A4
  8
0
 62
     9
 10
0.0
 20
0.0
 30
0.0
 70
   128
 71
   155
 72
   104
 73
   103
  0
VERTEX
  5
7A5
  8
0
 62
     9
 10
0.0
 20
0.0
 30
0.0
 70
   128
 71
   149
 72
   150
 73
   104
  0
VERTEX
  5
7A6
  8
0
 62
     9
 10
0.0
 20
0.0
 30
0.0
 70
   128
 71
   112
 72
    92
 73
   156
  0
VERTEX
  5
7A7
  8
0
 62
     9
 10
0.0
 20
0.0
 30
0.0
 70
   128
 71
   103
 72
    99
 73
   155
  0
VERTEX
  5
7A8
  8
0
 62
     9
 10
0.0
 20
0.0
 30
0.0
 70
   128
 71
   154
 72
   153
 73
   157
  0
VERTEX
  5
7A9
  8
0
 62
     9
 10
0.0
 20
0.0
 30
0.0
 70
   128
 71
   148
 72
   144
 73
   147
  0
VERTEX
  5
7AA
  8
0
 62
     9
 10
0.0
 20
0.0
 30
0.0
 70
   128
 71
   148
 72
   146
 73
   157
  0
VERTEX
  5
7AB
  8
0
 62
     9
 10
0.0
 20
0.0
 30
0.0
 70
   128
 71
   155
 72
   149
 73
   104
  0
VERTEX
  5
7AC
  8
0
 62
     9
 10
0.0
 20
0.0
 30
0.0
 70
   128
 71
    97
 72
   142
 73
    99
  0
VERTEX
  5
7AD
  8
0
 62
     9
 10
0.0
 20
0.0
 30
0.0
 70
   128
 71
    99
 72
   142
 73
   155
  0
VERTEX
  5
7AE
  8
0
 62
     9
 10
0.0
 20
0.0
 30
0.0
 70
   128
 71
     3
 72
   107
 73
    85
  0
VERTEX
  5
7AF
  8
0
 62
     9
 10
0.0
 20
0.0
 30
0.0
 70
   128
 71
    97
 72
   141
 73
   142
  0
VERTEX
  5
7B0
  8
0
 62
     9
 10
0.0
 20
0.0
 30
0.0
 70
   128
 71
    84
 72
    85
 73
   110
  0
VERTEX
  5
7B1
  8
0
 62
     9
 10
0.0
 20
0.0
 30
0.0
 70
   128
 71
   110
 72
    85
 73
   107
  0
VERTEX
  5
7B2
  8
0
 62
     9
 10
0.0
 20
0.0
 30
0.0
 70
   128
 71
   112
 72
   156
 73
   110
  0
VERTEX
  5
7B3
  8
0
 62
     9
 10
0.0
 20
0.0
 30
0.0
 70
   128
 71
   110
 72
   156
 73
    84
  0
VERTEX
  5
7B4
  8
0
 62
     9
 10
0.0
 20
0.0
 30
0.0
 70
   128
 71
   145
 72
   143
 73
    92
  0
VERTEX
  5
7B5
  8
0
 62
     9
 10
0.0
 20
0.0
 30
0.0
 70
   128
 71
    92
 72
   143
 73
   156
  0
VERTEX
  5
7B6
  8
0
 62
     9
 10
0.0
 20
0.0
 30
0.0
 70
   128
 71
   144
 72
   148
 73
   143
  0
VERTEX
  5
7B7
  8
0
 62
     9
 10
0.0
 20
0.0
 30
0.0
 70
   128
 71
   148
 72
   157
 73
   153
  0
VERTEX
  5
7B8
  8
0
 62
     9
 10
0.0
 20
0.0
 30
0.0
 70
   128
 71
    93
 72
    89
 73
   158
  0
VERTEX
  5
7B9
  8
0
 62
     9
 10
0.0
 20
0.0
 30
0.0
 70
   128
 71
   105
 72
   107
 73
     3
  0
VERTEX
  5
7BA
  8
0
 62
     9
 10
0.0
 20
0.0
 30
0.0
 70
   128
 71
   105
 72
     1
 73
    89
  0
VERTEX
  5
7BB
  8
0
 62
     9
 10
0.0
 20
0.0
 30
0.0
 70
   128
 71
    10
 72
    85
 73
   142
  0
VERTEX
  5
7BC
  8
0
 62
     9
 10
0.0
 20
0.0
 30
0.0
 70
   128
 71
     8
 72
     3
 73
    85
  0
VERTEX
  5
7BD
  8
0
 62
     9
 10
0.0
 20
0.0
 30
0.0
 70
   128
 71
    10
 72
     8
 73
    85
  0
VERTEX
  5
7BE
  8
0
 62
     9
 10
0.0
 20
0.0
 30
0.0
 70
   128
 71
    97
 72
    93
 73
   141
  0
VERTEX
  5
7BF
  8
0
 62
     9
 10
0.0
 20
0.0
 30
0.0
 70
   128
 71
   140
 72
    10
 73
   142
  0
VERTEX
  5
7C0
  8
0
 62
     9
 10
0.0
 20
0.0
 30
0.0
 70
   128
 71
     4
 72
   158
 73
    89
  0
VERTEX
  5
7C1
  8
0
 62
     9
 10
0.0
 20
0.0
 30
0.0
 70
   128
 71
   158
 72
   141
 73
    93
  0
VERTEX
  5
7C2
  8
0
 62
     9
 10
0.0
 20
0.0
 30
0.0
 70
   128
 71
   125
 72
   101
 73
   136
  0
VERTEX
  5
7C3
  8
0
 62
     9
 10
0.0
 20
0.0
 30
0.0
 70
   128
 71
   138
 72
   159
 73
   135
  0
VERTEX
  5
7C4
  8
0
 62
     9
 10
0.0
 20
0.0
 30
0.0
 70
   128
 71
   161
 72
   160
 73
   139
  0
VERTEX
  5
7C5
  8
0
 62
     9
 10
0.0
 20
0.0
 30
0.0
 70
   128
 71
   133
 72
   134
 73
   162
  0
VERTEX
  5
7C6
  8
0
 62
     9
 10
0.0
 20
0.0
 30
0.0
 70
   128
 71
   164
 72
   137
 73
   163
  0
VERTEX
  5
7C7
  8
0
 62
     9
 10
0.0
 20
0.0
 30
0.0
 70
   128
 71
   131
 72
   132
 73
   165
  0
VERTEX
  5
7C8
  8
0
 62
     9
 10
0.0
 20
0.0
 30
0.0
 70
   128
 71
   166
 72
   165
 73
   132
  0
VERTEX
  5
7C9
  8
0
 62
     9
 10
0.0
 20
0.0
 30
0.0
 70
   128
 71
   131
 72
   167
 73
   130
  0
VERTEX
  5
7CA
  8
0
 62
     9
 10
0.0
 20
0.0
 30
0.0
 70
   128
 71
   167
 72
   131
 73
   165
  0
VERTEX
  5
7CB
  8
0
 62
     9
 10
0.0
 20
0.0
 30
0.0
 70
   128
 71
   130
 72
   167
 73
   113
  0
VERTEX
  5
7CC
  8
0
 62
     9
 10
0.0
 20
0.0
 30
0.0
 70
   128
 71
   133
 72
   162
 73
   166
  0
VERTEX
  5
7CD
  8
0
 62
     9
 10
0.0
 20
0.0
 30
0.0
 70
   128
 71
   166
 72
   132
 73
   133
  0
VERTEX
  5
7CE
  8
0
 62
     9
 10
0.0
 20
0.0
 30
0.0
 70
   128
 71
   134
 72
   137
 73
   164
  0
VERTEX
  5
7CF
  8
0
 62
     9
 10
0.0
 20
0.0
 30
0.0
 70
   128
 71
   162
 72
   134
 73
   164
  0
VERTEX
  5
7D0
  8
0
 62
     9
 10
0.0
 20
0.0
 30
0.0
 70
   128
 71
   135
 72
   159
 73
   163
  0
VERTEX
  5
7D1
  8
0
 62
     9
 10
0.0
 20
0.0
 30
0.0
 70
   128
 71
   137
 72
   135
 73
   163
  0
VERTEX
  5
7D2
  8
0
 62
     9
 10
0.0
 20
0.0
 30
0.0
 70
   128
 71
   139
 72
   160
 73
   138
  0
VERTEX
  5
7D3
  8
0
 62
     9
 10
0.0
 20
0.0
 30
0.0
 70
   128
 71
   138
 72
   160
 73
   159
  0
VERTEX
  5
7D4
  8
0
 62
     9
 10
0.0
 20
0.0
 30
0.0
 70
   128
 71
   101
 72
   161
 73
   136
  0
VERTEX
  5
7D5
  8
0
 62
     9
 10
0.0
 20
0.0
 30
0.0
 70
   128
 71
   136
 72
   161
 73
   139
  0
VERTEX
  5
7D6
  8
0
 62
     9
 10
0.0
 20
0.0
 30
0.0
 70
   128
 71
   169
 72
   168
 73
   150
  0
VERTEX
  5
7D7
  8
0
 62
     9
 10
0.0
 20
0.0
 30
0.0
 70
   128
 71
   168
 72
   169
 73
   160
  0
VERTEX
  5
7D8
  8
0
 62
     9
 10
0.0
 20
0.0
 30
0.0
 70
   128
 71
   170
 72
   152
 73
   154
  0
VERTEX
  5
7D9
  8
0
 62
     9
 10
0.0
 20
0.0
 30
0.0
 70
   128
 71
   161
 72
   101
 73
   102
  0
VERTEX
  5
7DA
  8
0
 62
     9
 10
0.0
 20
0.0
 30
0.0
 70
   128
 71
   171
 72
   146
 73
   147
  0
VERTEX
  5
7DB
  8
0
 62
     9
 10
0.0
 20
0.0
 30
0.0
 70
   128
 71
   170
 72
   154
 73
   172
  0
VERTEX
  5
7DC
  8
0
 62
     9
 10
0.0
 20
0.0
 30
0.0
 70
   128
 71
   174
 72
   144
 73
   173
  0
VERTEX
  5
7DD
  8
0
 62
     9
 10
0.0
 20
0.0
 30
0.0
 70
   128
 71
   174
 72
   171
 73
   147
  0
VERTEX
  5
7DE
  8
0
 62
     9
 10
0.0
 20
0.0
 30
0.0
 70
   128
 71
   145
 72
    92
 73
    90
  0
VERTEX
  5
7DF
  8
0
 62
     9
 10
0.0
 20
0.0
 30
0.0
 70
   128
 71
   145
 72
    90
 73
   173
  0
VERTEX
  5
7E0
  8
0
 62
     9
 10
0.0
 20
0.0
 30
0.0
 70
   128
 71
   113
 72
   173
 73
    90
  0
VERTEX
  5
7E1
  8
0
 62
     9
 10
0.0
 20
0.0
 30
0.0
 70
   128
 71
   171
 72
   175
 73
   146
  0
VERTEX
  5
7E2
  8
0
 62
     9
 10
0.0
 20
0.0
 30
0.0
 70
   128
 71
   173
 72
   144
 73
   145
  0
VERTEX
  5
7E3
  8
0
 62
     9
 10
0.0
 20
0.0
 30
0.0
 70
   128
 71
   174
 72
   147
 73
   144
  0
VERTEX
  5
7E4
  8
0
 62
     9
 10
0.0
 20
0.0
 30
0.0
 70
   128
 71
   154
 72
   157
 73
   172
  0
VERTEX
  5
7E5
  8
0
 62
     9
 10
0.0
 20
0.0
 30
0.0
 70
   128
 71
   172
 72
   157
 73
   175
  0
VERTEX
  5
7E6
  8
0
 62
     9
 10
0.0
 20
0.0
 30
0.0
 70
   128
 71
   152
 72
   170
 73
   176
  0
VERTEX
  5
7E7
  8
0
 62
     9
 10
0.0
 20
0.0
 30
0.0
 70
   128
 71
   164
 72
   170
 73
   172
  0
VERTEX
  5
7E8
  8
0
 62
     9
 10
0.0
 20
0.0
 30
0.0
 70
   128
 71
   151
 72
   169
 73
   150
  0
VERTEX
  5
7E9
  8
0
 62
     9
 10
0.0
 20
0.0
 30
0.0
 70
   128
 71
   151
 72
   176
 73
   169
  0
VERTEX
  5
7EA
  8
0
 62
     9
 10
0.0
 20
0.0
 30
0.0
 70
   128
 71
   168
 72
   102
 73
   104
  0
VERTEX
  5
7EB
  8
0
 62
     9
 10
0.0
 20
0.0
 30
0.0
 70
   128
 71
   161
 72
   168
 73
   160
  0
VERTEX
  5
7EC
  8
0
 62
     9
 10
0.0
 20
0.0
 30
0.0
 70
   128
 71
   150
 72
   168
 73
   104
  0
VERTEX
  5
7ED
  8
0
 62
     9
 10
0.0
 20
0.0
 30
0.0
 70
   128
 71
   168
 72
   161
 73
   102
  0
VERTEX
  5
7EE
  8
0
 62
     9
 10
0.0
 20
0.0
 30
0.0
 70
   128
 71
   169
 72
   159
 73
   160
  0
VERTEX
  5
7EF
  8
0
 62
     9
 10
0.0
 20
0.0
 30
0.0
 70
   128
 71
   152
 72
   176
 73
   151
  0
VERTEX
  5
7F0
  8
0
 62
     9
 10
0.0
 20
0.0
 30
0.0
 70
   128
 71
   176
 72
   163
 73
   159
  0
VERTEX
  5
7F1
  8
0
 62
     9
 10
0.0
 20
0.0
 30
0.0
 70
   128
 71
   176
 72
   159
 73
   169
  0
VERTEX
  5
7F2
  8
0
 62
     9
 10
0.0
 20
0.0
 30
0.0
 70
   128
 71
   170
 72
   163
 73
   176
  0
VERTEX
  5
7F3
  8
0
 62
     9
 10
0.0
 20
0.0
 30
0.0
 70
   128
 71
   163
 72
   170
 73
   164
  0
VERTEX
  5
7F4
  8
0
 62
     9
 10
0.0
 20
0.0
 30
0.0
 70
   128
 71
   172
 72
   162
 73
   164
  0
VERTEX
  5
7F5
  8
0
 62
     9
 10
0.0
 20
0.0
 30
0.0
 70
   128
 71
   146
 72
   175
 73
   157
  0
VERTEX
  5
7F6
  8
0
 62
     9
 10
0.0
 20
0.0
 30
0.0
 70
   128
 71
   175
 72
   162
 73
   172
  0
VERTEX
  5
7F7
  8
0
 62
     9
 10
0.0
 20
0.0
 30
0.0
 70
   128
 71
   162
 72
   175
 73
   166
  0
VERTEX
  5
7F8
  8
0
 62
     9
 10
0.0
 20
0.0
 30
0.0
 70
   128
 71
   171
 72
   165
 73
   166
  0
VERTEX
  5
7F9
  8
0
 62
     9
 10
0.0
 20
0.0
 30
0.0
 70
   128
 71
   171
 72
   166
 73
   175
  0
VERTEX
  5
7FA
  8
0
 62
     9
 10
0.0
 20
0.0
 30
0.0
 70
   128
 71
   174
 72
   165
 73
   171
  0
VERTEX
  5
7FB
  8
0
 62
     9
 10
0.0
 20
0.0
 30
0.0
 70
   128
 71
   165
 72
   174
 73
   167
  0
VERTEX
  5
7FC
  8
0
 62
     9
 10
0.0
 20
0.0
 30
0.0
 70
   128
 71
   167
 72
   173
 73
   113
  0
VERTEX
  5
7FD
  8
0
 62
     9
 10
0.0
 20
0.0
 30
0.0
 70
   128
 71
   173
 72
   167
 73
   174
  0
VERTEX
  5
7FE
  8
0
 62
     9
 10
0.0
 20
0.0
 30
0.0
 70
   128
 71
   179
 72
   178
 73
   177
  0
VERTEX
  5
7FF
  8
0
 62
     9
 10
0.0
 20
0.0
 30
0.0
 70
   128
 71
   181
 72
   177
 73
   180
  0
VERTEX
  5
800
  8
0
 62
     9
 10
0.0
 20
0.0
 30
0.0
 70
   128
 71
   180
 72
    65
 73
   181
  0
VERTEX
  5
801
  8
0
 62
     9
 10
0.0
 20
0.0
 30
0.0
 70
   128
 71
   183
 72
    60
 73
   182
  0
VERTEX
  5
802
  8
0
 62
     9
 10
0.0
 20
0.0
 30
0.0
 70
   128
 71
    60
 72
   184
 73
   182
  0
VERTEX
  5
803
  8
0
 62
     9
 10
0.0
 20
0.0
 30
0.0
 70
   128
 71
    60
 72
    57
 73
   184
  0
VERTEX
  5
804
  8
0
 62
     9
 10
0.0
 20
0.0
 30
0.0
 70
   128
 71
   185
 72
   184
 73
    55
  0
VERTEX
  5
805
  8
0
 62
     9
 10
0.0
 20
0.0
 30
0.0
 70
   128
 71
    72
 72
   186
 73
   185
  0
VERTEX
  5
806
  8
0
 62
     9
 10
0.0
 20
0.0
 30
0.0
 70
   128
 71
   189
 72
   188
 73
   187
  0
VERTEX
  5
807
  8
0
 62
     9
 10
0.0
 20
0.0
 30
0.0
 70
   128
 71
    65
 72
    62
 73
   190
  0
VERTEX
  5
808
  8
0
 62
     9
 10
0.0
 20
0.0
 30
0.0
 70
   128
 71
    67
 72
   185
 73
    71
  0
VERTEX
  5
809
  8
0
 62
     9
 10
0.0
 20
0.0
 30
0.0
 70
   128
 71
    67
 72
    72
 73
   185
  0
VERTEX
  5
80A
  8
0
 62
     9
 10
0.0
 20
0.0
 30
0.0
 70
   128
 71
    55
 72
    70
 73
   185
  0
VERTEX
  5
80B
  8
0
 62
     9
 10
0.0
 20
0.0
 30
0.0
 70
   128
 71
    70
 72
    71
 73
   185
  0
VERTEX
  5
80C
  8
0
 62
     9
 10
0.0
 20
0.0
 30
0.0
 70
   128
 71
    57
 72
    54
 73
   184
  0
VERTEX
  5
80D
  8
0
 62
     9
 10
0.0
 20
0.0
 30
0.0
 70
   128
 71
    54
 72
    55
 73
   184
  0
VERTEX
  5
80E
  8
0
 62
     9
 10
0.0
 20
0.0
 30
0.0
 70
   128
 71
    62
 72
    60
 73
   190
  0
VERTEX
  5
80F
  8
0
 62
     9
 10
0.0
 20
0.0
 30
0.0
 70
   128
 71
   190
 72
    60
 73
   183
  0
VERTEX
  5
810
  8
0
 62
     9
 10
0.0
 20
0.0
 30
0.0
 70
   128
 71
    65
 72
   190
 73
   181
  0
VERTEX
  5
811
  8
0
 62
     9
 10
0.0
 20
0.0
 30
0.0
 70
   128
 71
   179
 72
   177
 73
   181
  0
VERTEX
  5
812
  8
0
 62
     9
 10
0.0
 20
0.0
 30
0.0
 70
   128
 71
   177
 72
   187
 73
   188
  0
VERTEX
  5
813
  8
0
 62
     9
 10
0.0
 20
0.0
 30
0.0
 70
   128
 71
   187
 72
   177
 73
   178
  0
VERTEX
  5
814
  8
0
 62
     9
 10
0.0
 20
0.0
 30
0.0
 70
   128
 71
   191
 72
   187
 73
   186
  0
VERTEX
  5
815
  8
0
 62
     9
 10
0.0
 20
0.0
 30
0.0
 70
   128
 71
   191
 72
   189
 73
   187
  0
VERTEX
  5
816
  8
0
 62
     9
 10
0.0
 20
0.0
 30
0.0
 70
   128
 71
   193
 72
   186
 73
   192
  0
VERTEX
  5
817
  8
0
 62
     9
 10
0.0
 20
0.0
 30
0.0
 70
   128
 71
   193
 72
   191
 73
   186
  0
VERTEX
  5
818
  8
0
 62
     9
 10
0.0
 20
0.0
 30
0.0
 70
   128
 71
   194
 72
   186
 73
    72
  0
VERTEX
  5
819
  8
0
 62
     9
 10
0.0
 20
0.0
 30
0.0
 70
   128
 71
   194
 72
   192
 73
   186
  0
VERTEX
  5
81A
  8
0
 62
     9
 10
0.0
 20
0.0
 30
0.0
 70
   128
 71
   187
 72
   196
 73
   195
  0
VERTEX
  5
81B
  8
0
 62
     9
 10
0.0
 20
0.0
 30
0.0
 70
   128
 71
   186
 72
   187
 73
   195
  0
VERTEX
  5
81C
  8
0
 62
     9
 10
0.0
 20
0.0
 30
0.0
 70
   128
 71
   198
 72
   179
 73
   197
  0
VERTEX
  5
81D
  8
0
 62
     9
 10
0.0
 20
0.0
 30
0.0
 70
   128
 71
   181
 72
   199
 73
   197
  0
VERTEX
  5
81E
  8
0
 62
     9
 10
0.0
 20
0.0
 30
0.0
 70
   128
 71
   197
 72
   179
 73
   181
  0
VERTEX
  5
81F
  8
0
 62
     9
 10
0.0
 20
0.0
 30
0.0
 70
   128
 71
   178
 72
   198
 73
   196
  0
VERTEX
  5
820
  8
0
 62
     9
 10
0.0
 20
0.0
 30
0.0
 70
   128
 71
   198
 72
   178
 73
   179
  0
VERTEX
  5
821
  8
0
 62
     9
 10
0.0
 20
0.0
 30
0.0
 70
   128
 71
   187
 72
   178
 73
   196
  0
VERTEX
  5
822
  8
0
 62
     9
 10
0.0
 20
0.0
 30
0.0
 70
   128
 71
   181
 72
   190
 73
   199
  0
VERTEX
  5
823
  8
0
 62
     9
 10
0.0
 20
0.0
 30
0.0
 70
   128
 71
   200
 72
   199
 73
   190
  0
VERTEX
  5
824
  8
0
 62
     9
 10
0.0
 20
0.0
 30
0.0
 70
   128
 71
   202
 72
   182
 73
   201
  0
VERTEX
  5
825
  8
0
 62
     9
 10
0.0
 20
0.0
 30
0.0
 70
   128
 71
   184
 72
   203
 73
   201
  0
VERTEX
  5
826
  8
0
 62
     9
 10
0.0
 20
0.0
 30
0.0
 70
   128
 71
   201
 72
   182
 73
   184
  0
VERTEX
  5
827
  8
0
 62
     9
 10
0.0
 20
0.0
 30
0.0
 70
   128
 71
   183
 72
   202
 73
   200
  0
VERTEX
  5
828
  8
0
 62
     9
 10
0.0
 20
0.0
 30
0.0
 70
   128
 71
   202
 72
   183
 73
   182
  0
VERTEX
  5
829
  8
0
 62
     9
 10
0.0
 20
0.0
 30
0.0
 70
   128
 71
   190
 72
   183
 73
   200
  0
VERTEX
  5
82A
  8
0
 62
     9
 10
0.0
 20
0.0
 30
0.0
 70
   128
 71
   184
 72
   185
 73
   203
  0
VERTEX
  5
82B
  8
0
 62
     9
 10
0.0
 20
0.0
 30
0.0
 70
   128
 71
   204
 72
   203
 73
   185
  0
VERTEX
  5
82C
  8
0
 62
     9
 10
0.0
 20
0.0
 30
0.0
 70
   128
 71
   206
 72
   205
 73
   185
  0
VERTEX
  5
82D
  8
0
 62
     9
 10
0.0
 20
0.0
 30
0.0
 70
   128
 71
   209
 72
   208
 73
   207
  0
VERTEX
  5
82E
  8
0
 62
     9
 10
0.0
 20
0.0
 30
0.0
 70
   128
 71
   212
 72
   211
 73
   210
  0
VERTEX
  5
82F
  8
0
 62
     9
 10
0.0
 20
0.0
 30
0.0
 70
   128
 71
   214
 72
   213
 73
   207
  0
VERTEX
  5
830
  8
0
 62
     9
 10
0.0
 20
0.0
 30
0.0
 70
   128
 71
   207
 72
   208
 73
   214
  0
VERTEX
  5
831
  8
0
 62
     9
 10
0.0
 20
0.0
 30
0.0
 70
   128
 71
   209
 72
   210
 73
   208
  0
VERTEX
  5
832
  8
0
 62
     9
 10
0.0
 20
0.0
 30
0.0
 70
   128
 71
   209
 72
   212
 73
   210
  0
VERTEX
  5
833
  8
0
 62
     9
 10
0.0
 20
0.0
 30
0.0
 70
   128
 71
   185
 72
   186
 73
   206
  0
VERTEX
  5
834
  8
0
 62
     9
 10
0.0
 20
0.0
 30
0.0
 70
   128
 71
   206
 72
   211
 73
   205
  0
VERTEX
  5
835
  8
0
 62
     9
 10
0.0
 20
0.0
 30
0.0
 70
   128
 71
   205
 72
   211
 73
   212
  0
VERTEX
  5
836
  8
0
 62
     9
 10
0.0
 20
0.0
 30
0.0
 70
   128
 71
   217
 72
   216
 73
   215
  0
VERTEX
  5
837
  8
0
 62
     9
 10
0.0
 20
0.0
 30
0.0
 70
   128
 71
   220
 72
   219
 73
   218
  0
VERTEX
  5
838
  8
0
 62
     9
 10
0.0
 20
0.0
 30
0.0
 70
   128
 71
   222
 72
   195
 73
   221
  0
VERTEX
  5
839
  8
0
 62
     9
 10
0.0
 20
0.0
 30
0.0
 70
   128
 71
   215
 72
   156
 73
   143
  0
VERTEX
  5
83A
  8
0
 62
     9
 10
0.0
 20
0.0
 30
0.0
 70
   128
 71
   143
 72
   217
 73
   215
  0
VERTEX
  5
83B
  8
0
 62
     9
 10
0.0
 20
0.0
 30
0.0
 70
   128
 71
   195
 72
   223
 73
   221
  0
VERTEX
  5
83C
  8
0
 62
     9
 10
0.0
 20
0.0
 30
0.0
 70
   128
 71
   223
 72
   196
 73
   224
  0
VERTEX
  5
83D
  8
0
 62
     9
 10
0.0
 20
0.0
 30
0.0
 70
   128
 71
   217
 72
   225
 73
   216
  0
VERTEX
  5
83E
  8
0
 62
     9
 10
0.0
 20
0.0
 30
0.0
 70
   128
 71
   227
 72
   225
 73
   226
  0
VERTEX
  5
83F
  8
0
 62
     9
 10
0.0
 20
0.0
 30
0.0
 70
   128
 71
   217
 72
   226
 73
   225
  0
VERTEX
  5
840
  8
0
 62
     9
 10
0.0
 20
0.0
 30
0.0
 70
   128
 71
   229
 72
   226
 73
   228
  0
VERTEX
  5
841
  8
0
 62
     9
 10
0.0
 20
0.0
 30
0.0
 70
   128
 71
   226
 72
   229
 73
   227
  0
VERTEX
  5
842
  8
0
 62
     9
 10
0.0
 20
0.0
 30
0.0
 70
   128
 71
   231
 72
   228
 73
   230
  0
VERTEX
  5
843
  8
0
 62
     9
 10
0.0
 20
0.0
 30
0.0
 70
   128
 71
   231
 72
   229
 73
   228
  0
VERTEX
  5
844
  8
0
 62
     9
 10
0.0
 20
0.0
 30
0.0
 70
   128
 71
   233
 72
   232
 73
   219
  0
VERTEX
  5
845
  8
0
 62
     9
 10
0.0
 20
0.0
 30
0.0
 70
   128
 71
   234
 72
   222
 73
   221
  0
VERTEX
  5
846
  8
0
 62
     9
 10
0.0
 20
0.0
 30
0.0
 70
   128
 71
   234
 72
   233
 73
   235
  0
VERTEX
  5
847
  8
0
 62
     9
 10
0.0
 20
0.0
 30
0.0
 70
   128
 71
   223
 72
   195
 73
   196
  0
VERTEX
  5
848
  8
0
 62
     9
 10
0.0
 20
0.0
 30
0.0
 70
   128
 71
   235
 72
   222
 73
   234
  0
VERTEX
  5
849
  8
0
 62
     9
 10
0.0
 20
0.0
 30
0.0
 70
   128
 71
   233
 72
   219
 73
   235
  0
VERTEX
  5
84A
  8
0
 62
     9
 10
0.0
 20
0.0
 30
0.0
 70
   128
 71
   218
 72
   219
 73
   232
  0
VERTEX
  5
84B
  8
0
 62
     9
 10
0.0
 20
0.0
 30
0.0
 70
   128
 71
   230
 72
   220
 73
   218
  0
VERTEX
  5
84C
  8
0
 62
     9
 10
0.0
 20
0.0
 30
0.0
 70
   128
 71
   220
 72
   230
 73
   228
  0
VERTEX
  5
84D
  8
0
 62
     9
 10
0.0
 20
0.0
 30
0.0
 70
   128
 71
   199
 72
   236
 73
   197
  0
VERTEX
  5
84E
  8
0
 62
     9
 10
0.0
 20
0.0
 30
0.0
 70
   128
 71
   237
 72
   224
 73
   196
  0
VERTEX
  5
84F
  8
0
 62
     9
 10
0.0
 20
0.0
 30
0.0
 70
   128
 71
   238
 72
   237
 73
   198
  0
VERTEX
  5
850
  8
0
 62
     9
 10
0.0
 20
0.0
 30
0.0
 70
   128
 71
   237
 72
   196
 73
   198
  0
VERTEX
  5
851
  8
0
 62
     9
 10
0.0
 20
0.0
 30
0.0
 70
   128
 71
   198
 72
   197
 73
   238
  0
VERTEX
  5
852
  8
0
 62
     9
 10
0.0
 20
0.0
 30
0.0
 70
   128
 71
   238
 72
   197
 73
   236
  0
VERTEX
  5
853
  8
0
 62
     9
 10
0.0
 20
0.0
 30
0.0
 70
   128
 71
   239
 72
   236
 73
   200
  0
VERTEX
  5
854
  8
0
 62
     9
 10
0.0
 20
0.0
 30
0.0
 70
   128
 71
   199
 72
   200
 73
   236
  0
VERTEX
  5
855
  8
0
 62
     9
 10
0.0
 20
0.0
 30
0.0
 70
   128
 71
   241
 72
   240
 73
   202
  0
VERTEX
  5
856
  8
0
 62
     9
 10
0.0
 20
0.0
 30
0.0
 70
   128
 71
   201
 72
   203
 73
   242
  0
VERTEX
  5
857
  8
0
 62
     9
 10
0.0
 20
0.0
 30
0.0
 70
   128
 71
   240
 72
   200
 73
   202
  0
VERTEX
  5
858
  8
0
 62
     9
 10
0.0
 20
0.0
 30
0.0
 70
   128
 71
   240
 72
   239
 73
   200
  0
VERTEX
  5
859
  8
0
 62
     9
 10
0.0
 20
0.0
 30
0.0
 70
   128
 71
   241
 72
   202
 73
   201
  0
VERTEX
  5
85A
  8
0
 62
     9
 10
0.0
 20
0.0
 30
0.0
 70
   128
 71
   242
 72
   241
 73
   201
  0
VERTEX
  5
85B
  8
0
 62
     9
 10
0.0
 20
0.0
 30
0.0
 70
   128
 71
   245
 72
   244
 73
   243
  0
VERTEX
  5
85C
  8
0
 62
     9
 10
0.0
 20
0.0
 30
0.0
 70
   128
 71
   248
 72
   247
 73
   246
  0
VERTEX
  5
85D
  8
0
 62
     9
 10
0.0
 20
0.0
 30
0.0
 70
   128
 71
   243
 72
   244
 73
   155
  0
VERTEX
  5
85E
  8
0
 62
     9
 10
0.0
 20
0.0
 30
0.0
 70
   128
 71
   244
 72
   149
 73
   155
  0
VERTEX
  5
85F
  8
0
 62
     9
 10
0.0
 20
0.0
 30
0.0
 70
   128
 71
   249
 72
   245
 73
   243
  0
VERTEX
  5
860
  8
0
 62
     9
 10
0.0
 20
0.0
 30
0.0
 70
   128
 71
   249
 72
   246
 73
   245
  0
VERTEX
  5
861
  8
0
 62
     9
 10
0.0
 20
0.0
 30
0.0
 70
   128
 71
   252
 72
   251
 73
   250
  0
VERTEX
  5
862
  8
0
 62
     9
 10
0.0
 20
0.0
 30
0.0
 70
   128
 71
   253
 72
   246
 73
   249
  0
VERTEX
  5
863
  8
0
 62
     9
 10
0.0
 20
0.0
 30
0.0
 70
   128
 71
   256
 72
   255
 73
   254
  0
VERTEX
  5
864
  8
0
 62
     9
 10
0.0
 20
0.0
 30
0.0
 70
   128
 71
   256
 72
   252
 73
   255
  0
VERTEX
  5
865
  8
0
 62
     9
 10
0.0
 20
0.0
 30
0.0
 70
   128
 71
   242
 72
   203
 73
   204
  0
VERTEX
  5
866
  8
0
 62
     9
 10
0.0
 20
0.0
 30
0.0
 70
   128
 71
   256
 72
   254
 73
   204
  0
VERTEX
  5
867
  8
0
 62
     9
 10
0.0
 20
0.0
 30
0.0
 70
   128
 71
   257
 72
   242
 73
   204
  0
VERTEX
  5
868
  8
0
 62
     9
 10
0.0
 20
0.0
 30
0.0
 70
   128
 71
   252
 72
   258
 73
   255
  0
VERTEX
  5
869
  8
0
 62
     9
 10
0.0
 20
0.0
 30
0.0
 70
   128
 71
   204
 72
   254
 73
   257
  0
VERTEX
  5
86A
  8
0
 62
     9
 10
0.0
 20
0.0
 30
0.0
 70
   128
 71
   250
 72
   251
 73
   259
  0
VERTEX
  5
86B
  8
0
 62
     9
 10
0.0
 20
0.0
 30
0.0
 70
   128
 71
   258
 72
   252
 73
   250
  0
VERTEX
  5
86C
  8
0
 62
     9
 10
0.0
 20
0.0
 30
0.0
 70
   128
 71
   248
 72
   259
 73
   247
  0
VERTEX
  5
86D
  8
0
 62
     9
 10
0.0
 20
0.0
 30
0.0
 70
   128
 71
   251
 72
   247
 73
   259
  0
VERTEX
  5
86E
  8
0
 62
     9
 10
0.0
 20
0.0
 30
0.0
 70
   128
 71
   246
 72
   253
 73
   248
  0
VERTEX
  5
86F
  8
0
 62
     9
 10
0.0
 20
0.0
 30
0.0
 70
   128
 71
   235
 72
   219
 73
   211
  0
VERTEX
  5
870
  8
0
 62
     9
 10
0.0
 20
0.0
 30
0.0
 70
   128
 71
   235
 72
   206
 73
   222
  0
VERTEX
  5
871
  8
0
 62
     9
 10
0.0
 20
0.0
 30
0.0
 70
   128
 71
   206
 72
   235
 73
   211
  0
VERTEX
  5
872
  8
0
 62
     9
 10
0.0
 20
0.0
 30
0.0
 70
   128
 71
   186
 72
   195
 73
   222
  0
VERTEX
  5
873
  8
0
 62
     9
 10
0.0
 20
0.0
 30
0.0
 70
   128
 71
   222
 72
   206
 73
   186
  0
VERTEX
  5
874
  8
0
 62
     9
 10
0.0
 20
0.0
 30
0.0
 70
   128
 71
   220
 72
   210
 73
   219
  0
VERTEX
  5
875
  8
0
 62
     9
 10
0.0
 20
0.0
 30
0.0
 70
   128
 71
   211
 72
   219
 73
   210
  0
VERTEX
  5
876
  8
0
 62
     9
 10
0.0
 20
0.0
 30
0.0
 70
   128
 71
   208
 72
   220
 73
   228
  0
VERTEX
  5
877
  8
0
 62
     9
 10
0.0
 20
0.0
 30
0.0
 70
   128
 71
   220
 72
   208
 73
   210
  0
VERTEX
  5
878
  8
0
 62
     9
 10
0.0
 20
0.0
 30
0.0
 70
   128
 71
   214
 72
   208
 73
   228
  0
VERTEX
  5
879
  8
0
 62
     9
 10
0.0
 20
0.0
 30
0.0
 70
   128
 71
   251
 72
   252
 73
   209
  0
VERTEX
  5
87A
  8
0
 62
     9
 10
0.0
 20
0.0
 30
0.0
 70
   128
 71
   251
 72
   207
 73
   247
  0
VERTEX
  5
87B
  8
0
 62
     9
 10
0.0
 20
0.0
 30
0.0
 70
   128
 71
   207
 72
   251
 73
   209
  0
VERTEX
  5
87C
  8
0
 62
     9
 10
0.0
 20
0.0
 30
0.0
 70
   128
 71
   213
 72
   246
 73
   247
  0
VERTEX
  5
87D
  8
0
 62
     9
 10
0.0
 20
0.0
 30
0.0
 70
   128
 71
   247
 72
   207
 73
   213
  0
VERTEX
  5
87E
  8
0
 62
     9
 10
0.0
 20
0.0
 30
0.0
 70
   128
 71
   256
 72
   212
 73
   252
  0
VERTEX
  5
87F
  8
0
 62
     9
 10
0.0
 20
0.0
 30
0.0
 70
   128
 71
   209
 72
   252
 73
   212
  0
VERTEX
  5
880
  8
0
 62
     9
 10
0.0
 20
0.0
 30
0.0
 70
   128
 71
   205
 72
   256
 73
   204
  0
VERTEX
  5
881
  8
0
 62
     9
 10
0.0
 20
0.0
 30
0.0
 70
   128
 71
   256
 72
   205
 73
   212
  0
VERTEX
  5
882
  8
0
 62
     9
 10
0.0
 20
0.0
 30
0.0
 70
   128
 71
   185
 72
   205
 73
   204
  0
VERTEX
  5
883
  8
0
 62
     9
 10
0.0
 20
0.0
 30
0.0
 70
   128
 71
   262
 72
   261
 73
   260
  0
VERTEX
  5
884
  8
0
 62
     9
 10
0.0
 20
0.0
 30
0.0
 70
   128
 71
   213
 72
   214
 73
   263
  0
VERTEX
  5
885
  8
0
 62
     9
 10
0.0
 20
0.0
 30
0.0
 70
   128
 71
   260
 72
   213
 73
   263
  0
VERTEX
  5
886
  8
0
 62
     9
 10
0.0
 20
0.0
 30
0.0
 70
   128
 71
   260
 72
   263
 73
   262
  0
VERTEX
  5
887
  8
0
 62
     9
 10
0.0
 20
0.0
 30
0.0
 70
   128
 71
   262
 72
   148
 73
   261
  0
VERTEX
  5
888
  8
0
 62
     9
 10
0.0
 20
0.0
 30
0.0
 70
   128
 71
   148
 72
   153
 73
   261
  0
VERTEX
  5
889
  8
0
 62
     9
 10
0.0
 20
0.0
 30
0.0
 70
   128
 71
   263
 72
   226
 73
   217
  0
VERTEX
  5
88A
  8
0
 62
     9
 10
0.0
 20
0.0
 30
0.0
 70
   128
 71
   148
 72
   262
 73
   143
  0
VERTEX
  5
88B
  8
0
 62
     9
 10
0.0
 20
0.0
 30
0.0
 70
   128
 71
   262
 72
   217
 73
   143
  0
VERTEX
  5
88C
  8
0
 62
     9
 10
0.0
 20
0.0
 30
0.0
 70
   128
 71
   217
 72
   262
 73
   263
  0
VERTEX
  5
88D
  8
0
 62
     9
 10
0.0
 20
0.0
 30
0.0
 70
   128
 71
   263
 72
   214
 73
   226
  0
VERTEX
  5
88E
  8
0
 62
     9
 10
0.0
 20
0.0
 30
0.0
 70
   128
 71
   214
 72
   228
 73
   226
  0
VERTEX
  5
88F
  8
0
 62
     9
 10
0.0
 20
0.0
 30
0.0
 70
   128
 71
   225
 72
    83
 73
    80
  0
VERTEX
  5
890
  8
0
 62
     9
 10
0.0
 20
0.0
 30
0.0
 70
   128
 71
   227
 72
   229
 73
    76
  0
VERTEX
  5
891
  8
0
 62
     9
 10
0.0
 20
0.0
 30
0.0
 70
   128
 71
   227
 72
    83
 73
   225
  0
VERTEX
  5
892
  8
0
 62
     9
 10
0.0
 20
0.0
 30
0.0
 70
   128
 71
   229
 72
   231
 73
    75
  0
VERTEX
  5
893
  8
0
 62
     9
 10
0.0
 20
0.0
 30
0.0
 70
   128
 71
    75
 72
    76
 73
   229
  0
VERTEX
  5
894
  8
0
 62
     9
 10
0.0
 20
0.0
 30
0.0
 70
   128
 71
    75
 72
   231
 73
    74
  0
VERTEX
  5
895
  8
0
 62
     9
 10
0.0
 20
0.0
 30
0.0
 70
   128
 71
   227
 72
    76
 73
    83
  0
VERTEX
  5
896
  8
0
 62
     9
 10
0.0
 20
0.0
 30
0.0
 70
   128
 71
    80
 72
   216
 73
   225
  0
VERTEX
  5
897
  8
0
 62
     9
 10
0.0
 20
0.0
 30
0.0
 70
   128
 71
    81
 72
   215
 73
   216
  0
VERTEX
  5
898
  8
0
 62
     9
 10
0.0
 20
0.0
 30
0.0
 70
   128
 71
   216
 72
    80
 73
    81
  0
VERTEX
  5
899
  8
0
 62
     9
 10
0.0
 20
0.0
 30
0.0
 70
   128
 71
   156
 72
   215
 73
    84
  0
VERTEX
  5
89A
  8
0
 62
     9
 10
0.0
 20
0.0
 30
0.0
 70
   128
 71
    81
 72
    84
 73
   215
  0
VERTEX
  5
89B
  8
0
 62
     9
 10
0.0
 20
0.0
 30
0.0
 70
   128
 71
   232
 72
   264
 73
   218
  0
VERTEX
  5
89C
  8
0
 62
     9
 10
0.0
 20
0.0
 30
0.0
 70
   128
 71
   265
 72
   230
 73
   218
  0
VERTEX
  5
89D
  8
0
 62
     9
 10
0.0
 20
0.0
 30
0.0
 70
   128
 71
   218
 72
   264
 73
   265
  0
VERTEX
  5
89E
  8
0
 62
     9
 10
0.0
 20
0.0
 30
0.0
 70
   128
 71
   266
 72
   231
 73
   230
  0
VERTEX
  5
89F
  8
0
 62
     9
 10
0.0
 20
0.0
 30
0.0
 70
   128
 71
   265
 72
   266
 73
   230
  0
VERTEX
  5
8A0
  8
0
 62
     9
 10
0.0
 20
0.0
 30
0.0
 70
   128
 71
   266
 72
    74
 73
   231
  0
VERTEX
  5
8A1
  8
0
 62
     9
 10
0.0
 20
0.0
 30
0.0
 70
   128
 71
    74
 72
   266
 73
    86
  0
VERTEX
  5
8A2
  8
0
 62
     9
 10
0.0
 20
0.0
 30
0.0
 70
   128
 71
   264
 72
   232
 73
   267
  0
VERTEX
  5
8A3
  8
0
 62
     9
 10
0.0
 20
0.0
 30
0.0
 70
   128
 71
   233
 72
   267
 73
   232
  0
VERTEX
  5
8A4
  8
0
 62
     9
 10
0.0
 20
0.0
 30
0.0
 70
   128
 71
   233
 72
   234
 73
   268
  0
VERTEX
  5
8A5
  8
0
 62
     9
 10
0.0
 20
0.0
 30
0.0
 70
   128
 71
   268
 72
   267
 73
   233
  0
VERTEX
  5
8A6
  8
0
 62
     9
 10
0.0
 20
0.0
 30
0.0
 70
   128
 71
   221
 72
   269
 73
   234
  0
VERTEX
  5
8A7
  8
0
 62
     9
 10
0.0
 20
0.0
 30
0.0
 70
   128
 71
   268
 72
   234
 73
   269
  0
VERTEX
  5
8A8
  8
0
 62
     9
 10
0.0
 20
0.0
 30
0.0
 70
   128
 71
   221
 72
   270
 73
   269
  0
VERTEX
  5
8A9
  8
0
 62
     9
 10
0.0
 20
0.0
 30
0.0
 70
   128
 71
   223
 72
   270
 73
   221
  0
VERTEX
  5
8AA
  8
0
 62
     9
 10
0.0
 20
0.0
 30
0.0
 70
   128
 71
   270
 72
   223
 73
   224
  0
VERTEX
  5
8AB
  8
0
 62
     9
 10
0.0
 20
0.0
 30
0.0
 70
   128
 71
   271
 72
   270
 73
   224
  0
VERTEX
  5
8AC
  8
0
 62
     9
 10
0.0
 20
0.0
 30
0.0
 70
   128
 71
   238
 72
   272
 73
   237
  0
VERTEX
  5
8AD
  8
0
 62
     9
 10
0.0
 20
0.0
 30
0.0
 70
   128
 71
   271
 72
   224
 73
   237
  0
VERTEX
  5
8AE
  8
0
 62
     9
 10
0.0
 20
0.0
 30
0.0
 70
   128
 71
   237
 72
   272
 73
   271
  0
VERTEX
  5
8AF
  8
0
 62
     9
 10
0.0
 20
0.0
 30
0.0
 70
   128
 71
   273
 72
   238
 73
   236
  0
VERTEX
  5
8B0
  8
0
 62
     9
 10
0.0
 20
0.0
 30
0.0
 70
   128
 71
   238
 72
   273
 73
   272
  0
VERTEX
  5
8B1
  8
0
 62
     9
 10
0.0
 20
0.0
 30
0.0
 70
   128
 71
   274
 72
   273
 73
   236
  0
VERTEX
  5
8B2
  8
0
 62
     9
 10
0.0
 20
0.0
 30
0.0
 70
   128
 71
   274
 72
   236
 73
   239
  0
VERTEX
  5
8B3
  8
0
 62
     9
 10
0.0
 20
0.0
 30
0.0
 70
   128
 71
   275
 72
   274
 73
   239
  0
VERTEX
  5
8B4
  8
0
 62
     9
 10
0.0
 20
0.0
 30
0.0
 70
   128
 71
   241
 72
   276
 73
   240
  0
VERTEX
  5
8B5
  8
0
 62
     9
 10
0.0
 20
0.0
 30
0.0
 70
   128
 71
   275
 72
   239
 73
   240
  0
VERTEX
  5
8B6
  8
0
 62
     9
 10
0.0
 20
0.0
 30
0.0
 70
   128
 71
   240
 72
   276
 73
   275
  0
VERTEX
  5
8B7
  8
0
 62
     9
 10
0.0
 20
0.0
 30
0.0
 70
   128
 71
   277
 72
   241
 73
   242
  0
VERTEX
  5
8B8
  8
0
 62
     9
 10
0.0
 20
0.0
 30
0.0
 70
   128
 71
   241
 72
   277
 73
   276
  0
VERTEX
  5
8B9
  8
0
 62
     9
 10
0.0
 20
0.0
 30
0.0
 70
   128
 71
   278
 72
   277
 73
   242
  0
VERTEX
  5
8BA
  8
0
 62
     9
 10
0.0
 20
0.0
 30
0.0
 70
   128
 71
   278
 72
   242
 73
   257
  0
VERTEX
  5
8BB
  8
0
 62
     9
 10
0.0
 20
0.0
 30
0.0
 70
   128
 71
   279
 72
   278
 73
   257
  0
VERTEX
  5
8BC
  8
0
 62
     9
 10
0.0
 20
0.0
 30
0.0
 70
   128
 71
   258
 72
   280
 73
   255
  0
VERTEX
  5
8BD
  8
0
 62
     9
 10
0.0
 20
0.0
 30
0.0
 70
   128
 71
   281
 72
   254
 73
   255
  0
VERTEX
  5
8BE
  8
0
 62
     9
 10
0.0
 20
0.0
 30
0.0
 70
   128
 71
   255
 72
   280
 73
   281
  0
VERTEX
  5
8BF
  8
0
 62
     9
 10
0.0
 20
0.0
 30
0.0
 70
   128
 71
   257
 72
   254
 73
   282
  0
VERTEX
  5
8C0
  8
0
 62
     9
 10
0.0
 20
0.0
 30
0.0
 70
   128
 71
   281
 72
   282
 73
   254
  0
VERTEX
  5
8C1
  8
0
 62
     9
 10
0.0
 20
0.0
 30
0.0
 70
   128
 71
   258
 72
   283
 73
   280
  0
VERTEX
  5
8C2
  8
0
 62
     9
 10
0.0
 20
0.0
 30
0.0
 70
   128
 71
   257
 72
   282
 73
   279
  0
VERTEX
  5
8C3
  8
0
 62
     9
 10
0.0
 20
0.0
 30
0.0
 70
   128
 71
   250
 72
   283
 73
   258
  0
VERTEX
  5
8C4
  8
0
 62
     9
 10
0.0
 20
0.0
 30
0.0
 70
   128
 71
   250
 72
   259
 73
   284
  0
VERTEX
  5
8C5
  8
0
 62
     9
 10
0.0
 20
0.0
 30
0.0
 70
   128
 71
   284
 72
   283
 73
   250
  0
VERTEX
  5
8C6
  8
0
 62
     9
 10
0.0
 20
0.0
 30
0.0
 70
   128
 71
   248
 72
   285
 73
   259
  0
VERTEX
  5
8C7
  8
0
 62
     9
 10
0.0
 20
0.0
 30
0.0
 70
   128
 71
   284
 72
   259
 73
   285
  0
VERTEX
  5
8C8
  8
0
 62
     9
 10
0.0
 20
0.0
 30
0.0
 70
   128
 71
   248
 72
   286
 73
   285
  0
VERTEX
  5
8C9
  8
0
 62
     9
 10
0.0
 20
0.0
 30
0.0
 70
   128
 71
   253
 72
   286
 73
   248
  0
VERTEX
  5
8CA
  8
0
 62
     9
 10
0.0
 20
0.0
 30
0.0
 70
   128
 71
   287
 72
   249
 73
   243
  0
VERTEX
  5
8CB
  8
0
 62
     9
 10
0.0
 20
0.0
 30
0.0
 70
   128
 71
   155
 72
   288
 73
   243
  0
VERTEX
  5
8CC
  8
0
 62
     9
 10
0.0
 20
0.0
 30
0.0
 70
   128
 71
   287
 72
   243
 73
   288
  0
VERTEX
  5
8CD
  8
0
 62
     9
 10
0.0
 20
0.0
 30
0.0
 70
   128
 71
   142
 72
   288
 73
   155
  0
VERTEX
  5
8CE
  8
0
 62
     9
 10
0.0
 20
0.0
 30
0.0
 70
   128
 71
   286
 72
   249
 73
   287
  0
VERTEX
  5
8CF
  8
0
 62
     9
 10
0.0
 20
0.0
 30
0.0
 70
   128
 71
   286
 72
   253
 73
   249
  0
VERTEX
  5
8D0
  8
0
 62
     9
 10
0.0
 20
0.0
 30
0.0
 70
   128
 71
   245
 72
   260
 73
   261
  0
VERTEX
  5
8D1
  8
0
 62
     9
 10
0.0
 20
0.0
 30
0.0
 70
   128
 71
   149
 72
   244
 73
   153
  0
VERTEX
  5
8D2
  8
0
 62
     9
 10
0.0
 20
0.0
 30
0.0
 70
   128
 71
   245
 72
   261
 73
   244
  0
VERTEX
  5
8D3
  8
0
 62
     9
 10
0.0
 20
0.0
 30
0.0
 70
   128
 71
   244
 72
   261
 73
   153
  0
VERTEX
  5
8D4
  8
0
 62
     9
 10
0.0
 20
0.0
 30
0.0
 70
   128
 71
   260
 72
   245
 73
   246
  0
VERTEX
  5
8D5
  8
0
 62
     9
 10
0.0
 20
0.0
 30
0.0
 70
   128
 71
   246
 72
   213
 73
   260
  0
VERTEX
  5
8D6
  8
0
 62
     9
 10
0.0
 20
0.0
 30
0.0
 70
   128
 71
    78
 72
   287
 73
    77
  0
VERTEX
  5
8D7
  8
0
 62
     9
 10
0.0
 20
0.0
 30
0.0
 70
   128
 71
   288
 72
    82
 73
    77
  0
VERTEX
  5
8D8
  8
0
 62
     9
 10
0.0
 20
0.0
 30
0.0
 70
   128
 71
    77
 72
   287
 73
   288
  0
VERTEX
  5
8D9
  8
0
 62
     9
 10
0.0
 20
0.0
 30
0.0
 70
   128
 71
   142
 72
    79
 73
   288
  0
VERTEX
  5
8DA
  8
0
 62
     9
 10
0.0
 20
0.0
 30
0.0
 70
   128
 71
    82
 72
   288
 73
    79
  0
VERTEX
  5
8DB
  8
0
 62
     9
 10
0.0
 20
0.0
 30
0.0
 70
   128
 71
   142
 72
    85
 73
    79
  0
VERTEX
  5
8DC
  8
0
 62
     9
 10
0.0
 20
0.0
 30
0.0
 70
   128
 71
    73
 72
   287
 73
    78
  0
VERTEX
  5
8DD
  8
0
 62
     9
 10
0.0
 20
0.0
 30
0.0
 70
   128
 71
    73
 72
   286
 73
   287
  0
VERTEX
  5
8DE
  8
0
 62
     9
 10
0.0
 20
0.0
 30
0.0
 70
   128
 71
    86
 72
   286
 73
    73
  0
VERTEX
  5
8DF
  8
0
 62
     9
 10
0.0
 20
0.0
 30
0.0
 70
   128
 71
   267
 72
   268
 73
   281
  0
VERTEX
  5
8E0
  8
0
 62
     9
 10
0.0
 20
0.0
 30
0.0
 70
   128
 71
   269
 72
   282
 73
   268
  0
VERTEX
  5
8E1
  8
0
 62
     9
 10
0.0
 20
0.0
 30
0.0
 70
   128
 71
   281
 72
   268
 73
   282
  0
VERTEX
  5
8E2
  8
0
 62
     9
 10
0.0
 20
0.0
 30
0.0
 70
   128
 71
   270
 72
   279
 73
   269
  0
VERTEX
  5
8E3
  8
0
 62
     9
 10
0.0
 20
0.0
 30
0.0
 70
   128
 71
   269
 72
   279
 73
   282
  0
VERTEX
  5
8E4
  8
0
 62
     9
 10
0.0
 20
0.0
 30
0.0
 70
   128
 71
   280
 72
   267
 73
   281
  0
VERTEX
  5
8E5
  8
0
 62
     9
 10
0.0
 20
0.0
 30
0.0
 70
   128
 71
   267
 72
   280
 73
   264
  0
VERTEX
  5
8E6
  8
0
 62
     9
 10
0.0
 20
0.0
 30
0.0
 70
   128
 71
   283
 72
   264
 73
   280
  0
VERTEX
  5
8E7
  8
0
 62
     9
 10
0.0
 20
0.0
 30
0.0
 70
   128
 71
   283
 72
   284
 73
   265
  0
VERTEX
  5
8E8
  8
0
 62
     9
 10
0.0
 20
0.0
 30
0.0
 70
   128
 71
   265
 72
   264
 73
   283
  0
VERTEX
  5
8E9
  8
0
 62
     9
 10
0.0
 20
0.0
 30
0.0
 70
   128
 71
   285
 72
   266
 73
   284
  0
VERTEX
  5
8EA
  8
0
 62
     9
 10
0.0
 20
0.0
 30
0.0
 70
   128
 71
   265
 72
   284
 73
   266
  0
VERTEX
  5
8EB
  8
0
 62
     9
 10
0.0
 20
0.0
 30
0.0
 70
   128
 71
   285
 72
    86
 73
   266
  0
VERTEX
  5
8EC
  8
0
 62
     9
 10
0.0
 20
0.0
 30
0.0
 70
   128
 71
   286
 72
    86
 73
   285
  0
VERTEX
  5
8ED
  8
0
 62
     9
 10
0.0
 20
0.0
 30
0.0
 70
   128
 71
   277
 72
   278
 73
   276
  0
VERTEX
  5
8EE
  8
0
 62
     9
 10
0.0
 20
0.0
 30
0.0
 70
   128
 71
   270
 72
   278
 73
   279
  0
VERTEX
  5
8EF
  8
0
 62
     9
 10
0.0
 20
0.0
 30
0.0
 70
   128
 71
   275
 72
   271
 73
   274
  0
VERTEX
  5
8F0
  8
0
 62
     9
 10
0.0
 20
0.0
 30
0.0
 70
   128
 71
   276
 72
   278
 73
   275
  0
VERTEX
  5
8F1
  8
0
 62
     9
 10
0.0
 20
0.0
 30
0.0
 70
   128
 71
   273
 72
   274
 73
   272
  0
VERTEX
  5
8F2
  8
0
 62
     9
 10
0.0
 20
0.0
 30
0.0
 70
   128
 71
   275
 72
   278
 73
   271
  0
VERTEX
  5
8F3
  8
0
 62
     9
 10
0.0
 20
0.0
 30
0.0
 70
   128
 71
   272
 72
   274
 73
   271
  0
VERTEX
  5
8F4
  8
0
 62
     9
 10
0.0
 20
0.0
 30
0.0
 70
   128
 71
   270
 72
   271
 73
   278
  0
VERTEX
  5
8F5
  8
0
 62
     9
 10
0.0
 20
0.0
 30
0.0
 70
   128
 71
   289
 72
    64
 73
    65
  0
VERTEX
  5
8F6
  8
0
 62
     9
 10
0.0
 20
0.0
 30
0.0
 70
   128
 71
   188
 72
   189
 73
   290
  0
VERTEX
  5
8F7
  8
0
 62
     9
 10
0.0
 20
0.0
 30
0.0
 70
   128
 71
   291
 72
   177
 73
   188
  0
VERTEX
  5
8F8
  8
0
 62
     9
 10
0.0
 20
0.0
 30
0.0
 70
   128
 71
   191
 72
   193
 73
   292
  0
VERTEX
  5
8F9
  8
0
 62
     9
 10
0.0
 20
0.0
 30
0.0
 70
   128
 71
   293
 72
   189
 73
   191
  0
VERTEX
  5
8FA
  8
0
 62
     9
 10
0.0
 20
0.0
 30
0.0
 70
   128
 71
   192
 72
   295
 73
   294
  0
VERTEX
  5
8FB
  8
0
 62
     9
 10
0.0
 20
0.0
 30
0.0
 70
   128
 71
   294
 72
   193
 73
   192
  0
VERTEX
  5
8FC
  8
0
 62
     9
 10
0.0
 20
0.0
 30
0.0
 70
   128
 71
   293
 72
   191
 73
   292
  0
VERTEX
  5
8FD
  8
0
 62
     9
 10
0.0
 20
0.0
 30
0.0
 70
   128
 71
   295
 72
   194
 73
   296
  0
VERTEX
  5
8FE
  8
0
 62
     9
 10
0.0
 20
0.0
 30
0.0
 70
   128
 71
   291
 72
   188
 73
   290
  0
VERTEX
  5
8FF
  8
0
 62
     9
 10
0.0
 20
0.0
 30
0.0
 70
   128
 71
   194
 72
    72
 73
   296
  0
VERTEX
  5
900
  8
0
 62
     9
 10
0.0
 20
0.0
 30
0.0
 70
   128
 71
   193
 72
   294
 73
   292
  0
VERTEX
  5
901
  8
0
 62
     9
 10
0.0
 20
0.0
 30
0.0
 70
   128
 71
   192
 72
   194
 73
   295
  0
VERTEX
  5
902
  8
0
 62
     9
 10
0.0
 20
0.0
 30
0.0
 70
   128
 71
   189
 72
   293
 73
   290
  0
VERTEX
  5
903
  8
0
 62
     9
 10
0.0
 20
0.0
 30
0.0
 70
   128
 71
   289
 72
   180
 73
   291
  0
VERTEX
  5
904
  8
0
 62
     9
 10
0.0
 20
0.0
 30
0.0
 70
   128
 71
   180
 72
   177
 73
   291
  0
VERTEX
  5
905
  8
0
 62
     9
 10
0.0
 20
0.0
 30
0.0
 70
   128
 71
    65
 72
   180
 73
   289
  0
VERTEX
  5
906
  8
0
 62
     9
 10
0.0
 20
0.0
 30
0.0
 70
   128
 71
    72
 72
    58
 73
   296
  0
VERTEX
  5
907
  8
0
 62
     9
 10
0.0
 20
0.0
 30
0.0
 70
   128
 71
    61
 72
    63
 73
   294
  0
VERTEX
  5
908
  8
0
 62
     9
 10
0.0
 20
0.0
 30
0.0
 70
   128
 71
    66
 72
    69
 73
    68
  0
VERTEX
  5
909
  8
0
 62
     9
 10
0.0
 20
0.0
 30
0.0
 70
   128
 71
    56
 72
    72
 73
    68
  0
VERTEX
  5
90A
  8
0
 62
     9
 10
0.0
 20
0.0
 30
0.0
 70
   128
 71
    68
 72
    69
 73
    56
  0
VERTEX
  5
90B
  8
0
 62
     9
 10
0.0
 20
0.0
 30
0.0
 70
   128
 71
    58
 72
    59
 73
   296
  0
VERTEX
  5
90C
  8
0
 62
     9
 10
0.0
 20
0.0
 30
0.0
 70
   128
 71
    56
 72
    58
 73
    72
  0
VERTEX
  5
90D
  8
0
 62
     9
 10
0.0
 20
0.0
 30
0.0
 70
   128
 71
   295
 72
   296
 73
    59
  0
VERTEX
  5
90E
  8
0
 62
     9
 10
0.0
 20
0.0
 30
0.0
 70
   128
 71
    61
 72
   294
 73
   295
  0
VERTEX
  5
90F
  8
0
 62
     9
 10
0.0
 20
0.0
 30
0.0
 70
   128
 71
   295
 72
    59
 73
    61
  0
VERTEX
  5
910
  8
0
 62
     9
 10
0.0
 20
0.0
 30
0.0
 70
   128
 71
   294
 72
    63
 73
   292
  0
VERTEX
  5
911
  8
0
 62
     9
 10
0.0
 20
0.0
 30
0.0
 70
   128
 71
   293
 72
   292
 73
    64
  0
VERTEX
  5
912
  8
0
 62
     9
 10
0.0
 20
0.0
 30
0.0
 70
   128
 71
    63
 72
    64
 73
   292
  0
VERTEX
  5
913
  8
0
 62
     9
 10
0.0
 20
0.0
 30
0.0
 70
   128
 71
   289
 72
   290
 73
   293
  0
VERTEX
  5
914
  8
0
 62
     9
 10
0.0
 20
0.0
 30
0.0
 70
   128
 71
    64
 72
   289
 73
   293
  0
VERTEX
  5
915
  8
0
 62
     9
 10
0.0
 20
0.0
 30
0.0
 70
   128
 71
   289
 72
   291
 73
   290
  0
VERTEX
  5
916
  8
0
 62
     9
 10
0.0
 20
0.0
 30
0.0
 70
   128
 71
    50
 72
    49
 73
    46
  0
VERTEX
  5
917
  8
0
 62
     9
 10
0.0
 20
0.0
 30
0.0
 70
   128
 71
    53
 72
   297
 73
    51
  0
VERTEX
  5
918
  8
0
 62
     9
 10
0.0
 20
0.0
 30
0.0
 70
   128
 71
   298
 72
    50
 73
    46
  0
VERTEX
  5
919
  8
0
 62
     9
 10
0.0
 20
0.0
 30
0.0
 70
   128
 71
   297
 72
   298
 73
    51
  0
VERTEX
  5
91A
  8
0
 62
     9
 10
0.0
 20
0.0
 30
0.0
 70
   128
 71
    46
 72
    51
 73
   298
  0
VERTEX
  5
91B
  8
0
 62
     9
 10
0.0
 20
0.0
 30
0.0
 70
   128
 71
   299
 72
   297
 73
    53
  0
VERTEX
  5
91C
  8
0
 62
     9
 10
0.0
 20
0.0
 30
0.0
 70
   128
 71
    27
 72
    50
 73
    15
  0
VERTEX
  5
91D
  8
0
 62
     9
 10
0.0
 20
0.0
 30
0.0
 70
   128
 71
   297
 72
   299
 73
    12
  0
VERTEX
  5
91E
  8
0
 62
     9
 10
0.0
 20
0.0
 30
0.0
 70
   128
 71
    17
 72
   297
 73
    12
  0
VERTEX
  5
91F
  8
0
 62
     9
 10
0.0
 20
0.0
 30
0.0
 70
   128
 71
    53
 72
    19
 73
    14
  0
VERTEX
  5
920
  8
0
 62
     9
 10
0.0
 20
0.0
 30
0.0
 70
   128
 71
    14
 72
   299
 73
    53
  0
VERTEX
  5
921
  8
0
 62
     9
 10
0.0
 20
0.0
 30
0.0
 70
   128
 71
   297
 72
    17
 73
   298
  0
VERTEX
  5
922
  8
0
 62
     9
 10
0.0
 20
0.0
 30
0.0
 70
   128
 71
    12
 72
   299
 73
    14
  0
VERTEX
  5
923
  8
0
 62
     9
 10
0.0
 20
0.0
 30
0.0
 70
   128
 71
   298
 72
    15
 73
    50
  0
VERTEX
  5
924
  8
0
 62
     9
 10
0.0
 20
0.0
 30
0.0
 70
   128
 71
    15
 72
   298
 73
    17
  0
VERTEX
  5
925
  8
0
 62
     9
 10
0.0
 20
0.0
 30
0.0
 70
   128
 71
   301
 72
   300
 73
    44
  0
VERTEX
  5
926
  8
0
 62
     9
 10
0.0
 20
0.0
 30
0.0
 70
   128
 71
   300
 72
   301
 73
    52
  0
VERTEX
  5
927
  8
0
 62
     9
 10
0.0
 20
0.0
 30
0.0
 70
   128
 71
   302
 72
    25
 73
    42
  0
VERTEX
  5
928
  8
0
 62
     9
 10
0.0
 20
0.0
 30
0.0
 70
   128
 71
    40
 72
    22
 73
    20
  0
VERTEX
  5
929
  8
0
 62
     9
 10
0.0
 20
0.0
 30
0.0
 70
   128
 71
   302
 72
    24
 73
    25
  0
VERTEX
  5
92A
  8
0
 62
     9
 10
0.0
 20
0.0
 30
0.0
 70
   128
 71
    24
 72
   302
 73
    48
  0
VERTEX
  5
92B
  8
0
 62
     9
 10
0.0
 20
0.0
 30
0.0
 70
   128
 71
    47
 72
    45
 73
   300
  0
VERTEX
  5
92C
  8
0
 62
     9
 10
0.0
 20
0.0
 30
0.0
 70
   128
 71
    48
 72
    27
 73
    24
  0
VERTEX
  5
92D
  8
0
 62
     9
 10
0.0
 20
0.0
 30
0.0
 70
   128
 71
   300
 72
    45
 73
   302
  0
VERTEX
  5
92E
  8
0
 62
     9
 10
0.0
 20
0.0
 30
0.0
 70
   128
 71
    40
 72
   301
 73
    44
  0
VERTEX
  5
92F
  8
0
 62
     9
 10
0.0
 20
0.0
 30
0.0
 70
   128
 71
   300
 72
    43
 73
    44
  0
VERTEX
  5
930
  8
0
 62
     9
 10
0.0
 20
0.0
 30
0.0
 70
   128
 71
    19
 72
   301
 73
    20
  0
VERTEX
  5
931
  8
0
 62
     9
 10
0.0
 20
0.0
 30
0.0
 70
   128
 71
    52
 72
   301
 73
    19
  0
VERTEX
  5
932
  8
0
 62
     9
 10
0.0
 20
0.0
 30
0.0
 70
   128
 71
   301
 72
    40
 73
    20
  0
VERTEX
  5
933
  8
0
 62
     9
 10
0.0
 20
0.0
 30
0.0
 70
   128
 71
    42
 72
    43
 73
   300
  0
VERTEX
  5
934
  8
0
 62
     9
 10
0.0
 20
0.0
 30
0.0
 70
   128
 71
    47
 72
   300
 73
    52
  0
VERTEX
  5
935
  8
0
 62
     9
 10
0.0
 20
0.0
 30
0.0
 70
   128
 71
   302
 72
    42
 73
   300
  0
VERTEX
  5
936
  8
0
 62
     9
 10
0.0
 20
0.0
 30
0.0
 70
   128
 71
    48
 72
   302
 73
    45
  0
VERTEX
  5
937
  8
0
 62
     9
 10
0.0
 20
0.0
 30
0.0
 70
   128
 71
   158
 72
     4
 73
    36
  0
VERTEX
  5
938
  8
0
 62
     9
 10
0.0
 20
0.0
 30
0.0
 70
   128
 71
   140
 72
    33
 73
    10
  0
VERTEX
  5
939
  8
0
 62
     9
 10
0.0
 20
0.0
 30
0.0
 70
   128
 71
   141
 72
    34
 73
   140
  0
VERTEX
  5
93A
  8
0
 62
     9
 10
0.0
 20
0.0
 30
0.0
 70
   128
 71
    10
 72
    33
 73
    11
  0
VERTEX
  5
93B
  8
0
 62
     9
 10
0.0
 20
0.0
 30
0.0
 70
   128
 71
   141
 72
    37
 73
    34
  0
VERTEX
  5
93C
  8
0
 62
     9
 10
0.0
 20
0.0
 30
0.0
 70
   128
 71
   140
 72
    34
 73
    33
  0
VERTEX
  5
93D
  8
0
 62
     9
 10
0.0
 20
0.0
 30
0.0
 70
   128
 71
    37
 72
   158
 73
    36
  0
VERTEX
  5
93E
  8
0
 62
     9
 10
0.0
 20
0.0
 30
0.0
 70
   128
 71
   158
 72
    37
 73
   141
  0
VERTEX
  5
93F
  8
0
 62
     9
 10
0.0
 20
0.0
 30
0.0
 70
   128
 71
     6
 72
    36
 73
     4
  0
VERTEX
  5
940
  8
0
 62
     9
 10
0.0
 20
0.0
 30
0.0
 70
   128
 71
   305
 72
   304
 73
   303
  0
VERTEX
  5
941
  8
0
 62
     9
 10
0.0
 20
0.0
 30
0.0
 70
   128
 71
   306
 72
   305
 73
   303
  0
VERTEX
  5
942
  8
0
 62
     9
 10
0.0
 20
0.0
 30
0.0
 70
   128
 71
   305
 72
   306
 73
   307
  0
VERTEX
  5
943
  8
0
 62
     9
 10
0.0
 20
0.0
 30
0.0
 70
   128
 71
   310
 72
   309
 73
   308
  0
VERTEX
  5
944
  8
0
 62
     9
 10
0.0
 20
0.0
 30
0.0
 70
   128
 71
   306
 72
   309
 73
   307
  0
VERTEX
  5
945
  8
0
 62
     9
 10
0.0
 20
0.0
 30
0.0
 70
   128
 71
   312
 72
   311
 73
   308
  0
VERTEX
  5
946
  8
0
 62
     9
 10
0.0
 20
0.0
 30
0.0
 70
   128
 71
   308
 72
   311
 73
   310
  0
VERTEX
  5
947
  8
0
 62
     9
 10
0.0
 20
0.0
 30
0.0
 70
   128
 71
   314
 72
   312
 73
   313
  0
VERTEX
  5
948
  8
0
 62
     9
 10
0.0
 20
0.0
 30
0.0
 70
   128
 71
   311
 72
   312
 73
   314
  0
VERTEX
  5
949
  8
0
 62
     9
 10
0.0
 20
0.0
 30
0.0
 70
   128
 71
   314
 72
   313
 73
   315
  0
VERTEX
  5
94A
  8
0
 62
     9
 10
0.0
 20
0.0
 30
0.0
 70
   128
 71
   310
 72
   307
 73
   309
  0
VERTEX
  5
94B
  8
0
 62
     9
 10
0.0
 20
0.0
 30
0.0
 70
   128
 71
   304
 72
   316
 73
   303
  0
VERTEX
  5
94C
  8
0
 62
     9
 10
0.0
 20
0.0
 30
0.0
 70
   128
 71
   318
 72
   316
 73
   317
  0
VERTEX
  5
94D
  8
0
 62
     9
 10
0.0
 20
0.0
 30
0.0
 70
   128
 71
   304
 72
   317
 73
   316
  0
VERTEX
  5
94E
  8
0
 62
     9
 10
0.0
 20
0.0
 30
0.0
 70
   128
 71
   318
 72
   320
 73
   319
  0
VERTEX
  5
94F
  8
0
 62
     9
 10
0.0
 20
0.0
 30
0.0
 70
   128
 71
   320
 72
   318
 73
   317
  0
VERTEX
  5
950
  8
0
 62
     9
 10
0.0
 20
0.0
 30
0.0
 70
   128
 71
   322
 72
   321
 73
   319
  0
VERTEX
  5
951
  8
0
 62
     9
 10
0.0
 20
0.0
 30
0.0
 70
   128
 71
   319
 72
   320
 73
   322
  0
VERTEX
  5
952
  8
0
 62
     9
 10
0.0
 20
0.0
 30
0.0
 70
   128
 71
   322
 72
   323
 73
   321
  0
VERTEX
  5
953
  8
0
 62
     9
 10
0.0
 20
0.0
 30
0.0
 70
   128
 71
   326
 72
   325
 73
   324
  0
VERTEX
  5
954
  8
0
 62
     9
 10
0.0
 20
0.0
 30
0.0
 70
   128
 71
   329
 72
   328
 73
   327
  0
VERTEX
  5
955
  8
0
 62
     9
 10
0.0
 20
0.0
 30
0.0
 70
   128
 71
   331
 72
   330
 73
   325
  0
VERTEX
  5
956
  8
0
 62
     9
 10
0.0
 20
0.0
 30
0.0
 70
   128
 71
   325
 72
   326
 73
   307
  0
VERTEX
  5
957
  8
0
 62
     9
 10
0.0
 20
0.0
 30
0.0
 70
   128
 71
   333
 72
   331
 73
   332
  0
VERTEX
  5
958
  8
0
 62
     9
 10
0.0
 20
0.0
 30
0.0
 70
   128
 71
   325
 72
   310
 73
   331
  0
VERTEX
  5
959
  8
0
 62
     9
 10
0.0
 20
0.0
 30
0.0
 70
   128
 71
   336
 72
   335
 73
   334
  0
VERTEX
  5
95A
  8
0
 62
     9
 10
0.0
 20
0.0
 30
0.0
 70
   128
 71
   311
 72
   332
 73
   331
  0
VERTEX
  5
95B
  8
0
 62
     9
 10
0.0
 20
0.0
 30
0.0
 70
   128
 71
   314
 72
   315
 73
   334
  0
VERTEX
  5
95C
  8
0
 62
     9
 10
0.0
 20
0.0
 30
0.0
 70
   128
 71
   334
 72
   315
 73
   336
  0
VERTEX
  5
95D
  8
0
 62
     9
 10
0.0
 20
0.0
 30
0.0
 70
   128
 71
   336
 72
   337
 73
   335
  0
VERTEX
  5
95E
  8
0
 62
     9
 10
0.0
 20
0.0
 30
0.0
 70
   128
 71
   339
 72
   326
 73
   338
  0
VERTEX
  5
95F
  8
0
 62
     9
 10
0.0
 20
0.0
 30
0.0
 70
   128
 71
   305
 72
   326
 73
   339
  0
VERTEX
  5
960
  8
0
 62
     9
 10
0.0
 20
0.0
 30
0.0
 70
   128
 71
   339
 72
   341
 73
   340
  0
VERTEX
  5
961
  8
0
 62
     9
 10
0.0
 20
0.0
 30
0.0
 70
   128
 71
   339
 72
   340
 73
   304
  0
VERTEX
  5
962
  8
0
 62
     9
 10
0.0
 20
0.0
 30
0.0
 70
   128
 71
   343
 72
   342
 73
   340
  0
VERTEX
  5
963
  8
0
 62
     9
 10
0.0
 20
0.0
 30
0.0
 70
   128
 71
   342
 72
   317
 73
   340
  0
VERTEX
  5
964
  8
0
 62
     9
 10
0.0
 20
0.0
 30
0.0
 70
   128
 71
   328
 72
   342
 73
   344
  0
VERTEX
  5
965
  8
0
 62
     9
 10
0.0
 20
0.0
 30
0.0
 70
   128
 71
   320
 72
   342
 73
   328
  0
VERTEX
  5
966
  8
0
 62
     9
 10
0.0
 20
0.0
 30
0.0
 70
   128
 71
   328
 72
   344
 73
   327
  0
VERTEX
  5
967
  8
0
 62
     9
 10
0.0
 20
0.0
 30
0.0
 70
   128
 71
   328
 72
   329
 73
   322
  0
VERTEX
  5
968
  8
0
 62
     9
 10
0.0
 20
0.0
 30
0.0
 70
   128
 71
   329
 72
   323
 73
   322
  0
VERTEX
  5
969
  8
0
 62
     9
 10
0.0
 20
0.0
 30
0.0
 70
   128
 71
   343
 72
   344
 73
   342
  0
VERTEX
  5
96A
  8
0
 62
     9
 10
0.0
 20
0.0
 30
0.0
 70
   128
 71
   328
 72
   322
 73
   320
  0
VERTEX
  5
96B
  8
0
 62
     9
 10
0.0
 20
0.0
 30
0.0
 70
   128
 71
   341
 72
   343
 73
   340
  0
VERTEX
  5
96C
  8
0
 62
     9
 10
0.0
 20
0.0
 30
0.0
 70
   128
 71
   342
 72
   320
 73
   317
  0
VERTEX
  5
96D
  8
0
 62
     9
 10
0.0
 20
0.0
 30
0.0
 70
   128
 71
   338
 72
   341
 73
   339
  0
VERTEX
  5
96E
  8
0
 62
     9
 10
0.0
 20
0.0
 30
0.0
 70
   128
 71
   340
 72
   317
 73
   304
  0
VERTEX
  5
96F
  8
0
 62
     9
 10
0.0
 20
0.0
 30
0.0
 70
   128
 71
   324
 72
   338
 73
   326
  0
VERTEX
  5
970
  8
0
 62
     9
 10
0.0
 20
0.0
 30
0.0
 70
   128
 71
   339
 72
   304
 73
   305
  0
VERTEX
  5
971
  8
0
 62
     9
 10
0.0
 20
0.0
 30
0.0
 70
   128
 71
   330
 72
   324
 73
   325
  0
VERTEX
  5
972
  8
0
 62
     9
 10
0.0
 20
0.0
 30
0.0
 70
   128
 71
   326
 72
   305
 73
   307
  0
VERTEX
  5
973
  8
0
 62
     9
 10
0.0
 20
0.0
 30
0.0
 70
   128
 71
   333
 72
   330
 73
   331
  0
VERTEX
  5
974
  8
0
 62
     9
 10
0.0
 20
0.0
 30
0.0
 70
   128
 71
   325
 72
   307
 73
   310
  0
VERTEX
  5
975
  8
0
 62
     9
 10
0.0
 20
0.0
 30
0.0
 70
   128
 71
   345
 72
   333
 73
   332
  0
VERTEX
  5
976
  8
0
 62
     9
 10
0.0
 20
0.0
 30
0.0
 70
   128
 71
   331
 72
   310
 73
   311
  0
VERTEX
  5
977
  8
0
 62
     9
 10
0.0
 20
0.0
 30
0.0
 70
   128
 71
   335
 72
   345
 73
   334
  0
VERTEX
  5
978
  8
0
 62
     9
 10
0.0
 20
0.0
 30
0.0
 70
   128
 71
   332
 72
   311
 73
   314
  0
VERTEX
  5
979
  8
0
 62
     9
 10
0.0
 20
0.0
 30
0.0
 70
   128
 71
   332
 72
   334
 73
   345
  0
VERTEX
  5
97A
  8
0
 62
     9
 10
0.0
 20
0.0
 30
0.0
 70
   128
 71
   334
 72
   332
 73
   314
  0
VERTEX
  5
97B
  8
0
 62
     9
 10
0.0
 20
0.0
 30
0.0
 70
   128
 71
   327
 72
   324
 73
   346
  0
VERTEX
  5
97C
  8
0
 62
     9
 10
0.0
 20
0.0
 30
0.0
 70
   128
 71
   327
 72
   338
 73
   324
  0
VERTEX
  5
97D
  8
0
 62
     9
 10
0.0
 20
0.0
 30
0.0
 70
   128
 71
   343
 72
   341
 73
   338
  0
VERTEX
  5
97E
  8
0
 62
     9
 10
0.0
 20
0.0
 30
0.0
 70
   128
 71
   338
 72
   327
 73
   344
  0
VERTEX
  5
97F
  8
0
 62
     9
 10
0.0
 20
0.0
 30
0.0
 70
   128
 71
   343
 72
   338
 73
   344
  0
VERTEX
  5
980
  8
0
 62
     9
 10
0.0
 20
0.0
 30
0.0
 70
   128
 71
   333
 72
   346
 73
   330
  0
VERTEX
  5
981
  8
0
 62
     9
 10
0.0
 20
0.0
 30
0.0
 70
   128
 71
   330
 72
   346
 73
   324
  0
VERTEX
  5
982
  8
0
 62
     9
 10
0.0
 20
0.0
 30
0.0
 70
   128
 71
   348
 72
   347
 73
   333
  0
VERTEX
  5
983
  8
0
 62
     9
 10
0.0
 20
0.0
 30
0.0
 70
   128
 71
   333
 72
   347
 73
   346
  0
VERTEX
  5
984
  8
0
 62
     9
 10
0.0
 20
0.0
 30
0.0
 70
   128
 71
   345
 72
   348
 73
   333
  0
VERTEX
  5
985
  8
0
 62
     9
 10
0.0
 20
0.0
 30
0.0
 70
   128
 71
   349
 72
   348
 73
   345
  0
VERTEX
  5
986
  8
0
 62
     9
 10
0.0
 20
0.0
 30
0.0
 70
   128
 71
   350
 72
   349
 73
   335
  0
VERTEX
  5
987
  8
0
 62
     9
 10
0.0
 20
0.0
 30
0.0
 70
   128
 71
   345
 72
   335
 73
   349
  0
VERTEX
  5
988
  8
0
 62
     9
 10
0.0
 20
0.0
 30
0.0
 70
   128
 71
   350
 72
   337
 73
   351
  0
VERTEX
  5
989
  8
0
 62
     9
 10
0.0
 20
0.0
 30
0.0
 70
   128
 71
   337
 72
   350
 73
   335
  0
VERTEX
  5
98A
  8
0
 62
     9
 10
0.0
 20
0.0
 30
0.0
 70
   128
 71
   353
 72
   352
 73
   351
  0
VERTEX
  5
98B
  8
0
 62
     9
 10
0.0
 20
0.0
 30
0.0
 70
   128
 71
   352
 72
   354
 73
   351
  0
VERTEX
  5
98C
  8
0
 62
     9
 10
0.0
 20
0.0
 30
0.0
 70
   128
 71
   337
 72
   353
 73
   351
  0
VERTEX
  5
98D
  8
0
 62
     9
 10
0.0
 20
0.0
 30
0.0
 70
   128
 71
   308
 72
   355
 73
   312
  0
VERTEX
  5
98E
  8
0
 62
     9
 10
0.0
 20
0.0
 30
0.0
 70
   128
 71
   319
 72
   303
 73
   316
  0
VERTEX
  5
98F
  8
0
 62
     9
 10
0.0
 20
0.0
 30
0.0
 70
   128
 71
   316
 72
   318
 73
   319
  0
VERTEX
  5
990
  8
0
 62
     9
 10
0.0
 20
0.0
 30
0.0
 70
   128
 71
   306
 72
   303
 73
   321
  0
VERTEX
  5
991
  8
0
 62
     9
 10
0.0
 20
0.0
 30
0.0
 70
   128
 71
   319
 72
   321
 73
   303
  0
VERTEX
  5
992
  8
0
 62
     9
 10
0.0
 20
0.0
 30
0.0
 70
   128
 71
   309
 72
   357
 73
   356
  0
VERTEX
  5
993
  8
0
 62
     9
 10
0.0
 20
0.0
 30
0.0
 70
   128
 71
   360
 72
   359
 73
   358
  0
VERTEX
  5
994
  8
0
 62
     9
 10
0.0
 20
0.0
 30
0.0
 70
   128
 71
   362
 72
   313
 73
   361
  0
VERTEX
  5
995
  8
0
 62
     9
 10
0.0
 20
0.0
 30
0.0
 70
   128
 71
   362
 72
   358
 73
   313
  0
VERTEX
  5
996
  8
0
 62
     9
 10
0.0
 20
0.0
 30
0.0
 70
   128
 71
   358
 72
   362
 73
   360
  0
VERTEX
  5
997
  8
0
 62
     9
 10
0.0
 20
0.0
 30
0.0
 70
   128
 71
   313
 72
   312
 73
   361
  0
VERTEX
  5
998
  8
0
 62
     9
 10
0.0
 20
0.0
 30
0.0
 70
   128
 71
   355
 72
   308
 73
   356
  0
VERTEX
  5
999
  8
0
 62
     9
 10
0.0
 20
0.0
 30
0.0
 70
   128
 71
   361
 72
   312
 73
   355
  0
VERTEX
  5
99A
  8
0
 62
     9
 10
0.0
 20
0.0
 30
0.0
 70
   128
 71
   309
 72
   306
 73
   357
  0
VERTEX
  5
99B
  8
0
 62
     9
 10
0.0
 20
0.0
 30
0.0
 70
   128
 71
   308
 72
   309
 73
   356
  0
VERTEX
  5
99C
  8
0
 62
     9
 10
0.0
 20
0.0
 30
0.0
 70
   128
 71
   321
 72
   357
 73
   306
  0
VERTEX
  5
99D
  8
0
 62
     9
 10
0.0
 20
0.0
 30
0.0
 70
   128
 71
   365
 72
   364
 73
   363
  0
VERTEX
  5
99E
  8
0
 62
     9
 10
0.0
 20
0.0
 30
0.0
 70
   128
 71
   337
 72
   364
 73
   353
  0
VERTEX
  5
99F
  8
0
 62
     9
 10
0.0
 20
0.0
 30
0.0
 70
   128
 71
   368
 72
   367
 73
   366
  0
VERTEX
  5
9A0
  8
0
 62
     9
 10
0.0
 20
0.0
 30
0.0
 70
   128
 71
   369
 72
   365
 73
   363
  0
VERTEX
  5
9A1
  8
0
 62
     9
 10
0.0
 20
0.0
 30
0.0
 70
   128
 71
   372
 72
   371
 73
   370
  0
VERTEX
  5
9A2
  8
0
 62
     9
 10
0.0
 20
0.0
 30
0.0
 70
   128
 71
   374
 72
   373
 73
   368
  0
VERTEX
  5
9A3
  8
0
 62
     9
 10
0.0
 20
0.0
 30
0.0
 70
   128
 71
   375
 72
   329
 73
   346
  0
VERTEX
  5
9A4
  8
0
 62
     9
 10
0.0
 20
0.0
 30
0.0
 70
   128
 71
   376
 72
   348
 73
   371
  0
VERTEX
  5
9A5
  8
0
 62
     9
 10
0.0
 20
0.0
 30
0.0
 70
   128
 71
   375
 72
   377
 73
   323
  0
VERTEX
  5
9A6
  8
0
 62
     9
 10
0.0
 20
0.0
 30
0.0
 70
   128
 71
   329
 72
   375
 73
   323
  0
VERTEX
  5
9A7
  8
0
 62
     9
 10
0.0
 20
0.0
 30
0.0
 70
   128
 71
   346
 72
   329
 73
   327
  0
VERTEX
  5
9A8
  8
0
 62
     9
 10
0.0
 20
0.0
 30
0.0
 70
   128
 71
   371
 72
   378
 73
   376
  0
VERTEX
  5
9A9
  8
0
 62
     9
 10
0.0
 20
0.0
 30
0.0
 70
   128
 71
   372
 72
   370
 73
   379
  0
VERTEX
  5
9AA
  8
0
 62
     9
 10
0.0
 20
0.0
 30
0.0
 70
   128
 71
   378
 72
   371
 73
   372
  0
VERTEX
  5
9AB
  8
0
 62
     9
 10
0.0
 20
0.0
 30
0.0
 70
   128
 71
   351
 72
   368
 73
   373
  0
VERTEX
  5
9AC
  8
0
 62
     9
 10
0.0
 20
0.0
 30
0.0
 70
   128
 71
   379
 72
   370
 73
   373
  0
VERTEX
  5
9AD
  8
0
 62
     9
 10
0.0
 20
0.0
 30
0.0
 70
   128
 71
   366
 72
   367
 73
   369
  0
VERTEX
  5
9AE
  8
0
 62
     9
 10
0.0
 20
0.0
 30
0.0
 70
   128
 71
   374
 72
   368
 73
   366
  0
VERTEX
  5
9AF
  8
0
 62
     9
 10
0.0
 20
0.0
 30
0.0
 70
   128
 71
   353
 72
   365
 73
   352
  0
VERTEX
  5
9B0
  8
0
 62
     9
 10
0.0
 20
0.0
 30
0.0
 70
   128
 71
   367
 72
   365
 73
   369
  0
VERTEX
  5
9B1
  8
0
 62
     9
 10
0.0
 20
0.0
 30
0.0
 70
   128
 71
   380
 72
   336
 73
   315
  0
VERTEX
  5
9B2
  8
0
 62
     9
 10
0.0
 20
0.0
 30
0.0
 70
   128
 71
   337
 72
   336
 73
   364
  0
VERTEX
  5
9B3
  8
0
 62
     9
 10
0.0
 20
0.0
 30
0.0
 70
   128
 71
   364
 72
   336
 73
   380
  0
VERTEX
  5
9B4
  8
0
 62
     9
 10
0.0
 20
0.0
 30
0.0
 70
   128
 71
   364
 72
   380
 73
   363
  0
VERTEX
  5
9B5
  8
0
 62
     9
 10
0.0
 20
0.0
 30
0.0
 70
   128
 71
   354
 72
   352
 73
   367
  0
VERTEX
  5
9B6
  8
0
 62
     9
 10
0.0
 20
0.0
 30
0.0
 70
   128
 71
   364
 72
   365
 73
   353
  0
VERTEX
  5
9B7
  8
0
 62
     9
 10
0.0
 20
0.0
 30
0.0
 70
   128
 71
   365
 72
   367
 73
   352
  0
VERTEX
  5
9B8
  8
0
 62
     9
 10
0.0
 20
0.0
 30
0.0
 70
   128
 71
   368
 72
   351
 73
   354
  0
VERTEX
  5
9B9
  8
0
 62
     9
 10
0.0
 20
0.0
 30
0.0
 70
   128
 71
   367
 72
   368
 73
   354
  0
VERTEX
  5
9BA
  8
0
 62
     9
 10
0.0
 20
0.0
 30
0.0
 70
   128
 71
   373
 72
   350
 73
   351
  0
VERTEX
  5
9BB
  8
0
 62
     9
 10
0.0
 20
0.0
 30
0.0
 70
   128
 71
   349
 72
   350
 73
   370
  0
VERTEX
  5
9BC
  8
0
 62
     9
 10
0.0
 20
0.0
 30
0.0
 70
   128
 71
   373
 72
   374
 73
   379
  0
VERTEX
  5
9BD
  8
0
 62
     9
 10
0.0
 20
0.0
 30
0.0
 70
   128
 71
   373
 72
   370
 73
   350
  0
VERTEX
  5
9BE
  8
0
 62
     9
 10
0.0
 20
0.0
 30
0.0
 70
   128
 71
   371
 72
   348
 73
   349
  0
VERTEX
  5
9BF
  8
0
 62
     9
 10
0.0
 20
0.0
 30
0.0
 70
   128
 71
   347
 72
   348
 73
   376
  0
VERTEX
  5
9C0
  8
0
 62
     9
 10
0.0
 20
0.0
 30
0.0
 70
   128
 71
   370
 72
   371
 73
   349
  0
VERTEX
  5
9C1
  8
0
 62
     9
 10
0.0
 20
0.0
 30
0.0
 70
   128
 71
   346
 72
   347
 73
   375
  0
VERTEX
  5
9C2
  8
0
 62
     9
 10
0.0
 20
0.0
 30
0.0
 70
   128
 71
   376
 72
   378
 73
   377
  0
VERTEX
  5
9C3
  8
0
 62
     9
 10
0.0
 20
0.0
 30
0.0
 70
   128
 71
   376
 72
   375
 73
   347
  0
VERTEX
  5
9C4
  8
0
 62
     9
 10
0.0
 20
0.0
 30
0.0
 70
   128
 71
   375
 72
   376
 73
   377
  0
VERTEX
  5
9C5
  8
0
 62
     9
 10
0.0
 20
0.0
 30
0.0
 70
   128
 71
   380
 72
   315
 73
   313
  0
VERTEX
  5
9C6
  8
0
 62
     9
 10
0.0
 20
0.0
 30
0.0
 70
   128
 71
   369
 72
   360
 73
   366
  0
VERTEX
  5
9C7
  8
0
 62
     9
 10
0.0
 20
0.0
 30
0.0
 70
   128
 71
   363
 72
   358
 73
   359
  0
VERTEX
  5
9C8
  8
0
 62
     9
 10
0.0
 20
0.0
 30
0.0
 70
   128
 71
   372
 72
   379
 73
   355
  0
VERTEX
  5
9C9
  8
0
 62
     9
 10
0.0
 20
0.0
 30
0.0
 70
   128
 71
   361
 72
   374
 73
   362
  0
VERTEX
  5
9CA
  8
0
 62
     9
 10
0.0
 20
0.0
 30
0.0
 70
   128
 71
   378
 72
   356
 73
   357
  0
VERTEX
  5
9CB
  8
0
 62
     9
 10
0.0
 20
0.0
 30
0.0
 70
   128
 71
   356
 72
   378
 73
   372
  0
VERTEX
  5
9CC
  8
0
 62
     9
 10
0.0
 20
0.0
 30
0.0
 70
   128
 71
   357
 72
   321
 73
   377
  0
VERTEX
  5
9CD
  8
0
 62
     9
 10
0.0
 20
0.0
 30
0.0
 70
   128
 71
   377
 72
   378
 73
   357
  0
VERTEX
  5
9CE
  8
0
 62
     9
 10
0.0
 20
0.0
 30
0.0
 70
   128
 71
   377
 72
   321
 73
   323
  0
VERTEX
  5
9CF
  8
0
 62
     9
 10
0.0
 20
0.0
 30
0.0
 70
   128
 71
   355
 72
   379
 73
   361
  0
VERTEX
  5
9D0
  8
0
 62
     9
 10
0.0
 20
0.0
 30
0.0
 70
   128
 71
   356
 72
   372
 73
   355
  0
VERTEX
  5
9D1
  8
0
 62
     9
 10
0.0
 20
0.0
 30
0.0
 70
   128
 71
   362
 72
   374
 73
   366
  0
VERTEX
  5
9D2
  8
0
 62
     9
 10
0.0
 20
0.0
 30
0.0
 70
   128
 71
   379
 72
   374
 73
   361
  0
VERTEX
  5
9D3
  8
0
 62
     9
 10
0.0
 20
0.0
 30
0.0
 70
   128
 71
   358
 72
   380
 73
   313
  0
VERTEX
  5
9D4
  8
0
 62
     9
 10
0.0
 20
0.0
 30
0.0
 70
   128
 71
   369
 72
   359
 73
   360
  0
VERTEX
  5
9D5
  8
0
 62
     9
 10
0.0
 20
0.0
 30
0.0
 70
   128
 71
   366
 72
   360
 73
   362
  0
VERTEX
  5
9D6
  8
0
 62
     9
 10
0.0
 20
0.0
 30
0.0
 70
   128
 71
   363
 72
   380
 73
   358
  0
VERTEX
  5
9D7
  8
0
 62
     9
 10
0.0
 20
0.0
 30
0.0
 70
   128
 71
   363
 72
   359
 73
   369
  0
VERTEX
  5
9D8
  8
0
 62
     9
 10
0.0
 20
0.0
 30
0.0
 70
   128
 71
   383
 72
   382
 73
   381
  0
VERTEX
  5
9D9
  8
0
 62
     9
 10
0.0
 20
0.0
 30
0.0
 70
   128
 71
   384
 72
   383
 73
   381
  0
VERTEX
  5
9DA
  8
0
 62
     9
 10
0.0
 20
0.0
 30
0.0
 70
   128
 71
   383
 72
   384
 73
   385
  0
VERTEX
  5
9DB
  8
0
 62
     9
 10
0.0
 20
0.0
 30
0.0
 70
   128
 71
   388
 72
   387
 73
   386
  0
VERTEX
  5
9DC
  8
0
 62
     9
 10
0.0
 20
0.0
 30
0.0
 70
   128
 71
   384
 72
   387
 73
   385
  0
VERTEX
  5
9DD
  8
0
 62
     9
 10
0.0
 20
0.0
 30
0.0
 70
   128
 71
   390
 72
   389
 73
   386
  0
VERTEX
  5
9DE
  8
0
 62
     9
 10
0.0
 20
0.0
 30
0.0
 70
   128
 71
   386
 72
   389
 73
   388
  0
VERTEX
  5
9DF
  8
0
 62
     9
 10
0.0
 20
0.0
 30
0.0
 70
   128
 71
   392
 72
   390
 73
   391
  0
VERTEX
  5
9E0
  8
0
 62
     9
 10
0.0
 20
0.0
 30
0.0
 70
   128
 71
   389
 72
   390
 73
   392
  0
VERTEX
  5
9E1
  8
0
 62
     9
 10
0.0
 20
0.0
 30
0.0
 70
   128
 71
   392
 72
   391
 73
   393
  0
VERTEX
  5
9E2
  8
0
 62
     9
 10
0.0
 20
0.0
 30
0.0
 70
   128
 71
   388
 72
   385
 73
   387
  0
VERTEX
  5
9E3
  8
0
 62
     9
 10
0.0
 20
0.0
 30
0.0
 70
   128
 71
   382
 72
   394
 73
   381
  0
VERTEX
  5
9E4
  8
0
 62
     9
 10
0.0
 20
0.0
 30
0.0
 70
   128
 71
   396
 72
   394
 73
   395
  0
VERTEX
  5
9E5
  8
0
 62
     9
 10
0.0
 20
0.0
 30
0.0
 70
   128
 71
   382
 72
   395
 73
   394
  0
VERTEX
  5
9E6
  8
0
 62
     9
 10
0.0
 20
0.0
 30
0.0
 70
   128
 71
   396
 72
   398
 73
   397
  0
VERTEX
  5
9E7
  8
0
 62
     9
 10
0.0
 20
0.0
 30
0.0
 70
   128
 71
   398
 72
   396
 73
   395
  0
VERTEX
  5
9E8
  8
0
 62
     9
 10
0.0
 20
0.0
 30
0.0
 70
   128
 71
   400
 72
   399
 73
   397
  0
VERTEX
  5
9E9
  8
0
 62
     9
 10
0.0
 20
0.0
 30
0.0
 70
   128
 71
   397
 72
   398
 73
   400
  0
VERTEX
  5
9EA
  8
0
 62
     9
 10
0.0
 20
0.0
 30
0.0
 70
   128
 71
   400
 72
   401
 73
   399
  0
VERTEX
  5
9EB
  8
0
 62
     9
 10
0.0
 20
0.0
 30
0.0
 70
   128
 71
   404
 72
   403
 73
   402
  0
VERTEX
  5
9EC
  8
0
 62
     9
 10
0.0
 20
0.0
 30
0.0
 70
   128
 71
   407
 72
   406
 73
   405
  0
VERTEX
  5
9ED
  8
0
 62
     9
 10
0.0
 20
0.0
 30
0.0
 70
   128
 71
   409
 72
   408
 73
   403
  0
VERTEX
  5
9EE
  8
0
 62
     9
 10
0.0
 20
0.0
 30
0.0
 70
   128
 71
   403
 72
   404
 73
   385
  0
VERTEX
  5
9EF
  8
0
 62
     9
 10
0.0
 20
0.0
 30
0.0
 70
   128
 71
   411
 72
   409
 73
   410
  0
VERTEX
  5
9F0
  8
0
 62
     9
 10
0.0
 20
0.0
 30
0.0
 70
   128
 71
   403
 72
   388
 73
   409
  0
VERTEX
  5
9F1
  8
0
 62
     9
 10
0.0
 20
0.0
 30
0.0
 70
   128
 71
   414
 72
   413
 73
   412
  0
VERTEX
  5
9F2
  8
0
 62
     9
 10
0.0
 20
0.0
 30
0.0
 70
   128
 71
   389
 72
   410
 73
   409
  0
VERTEX
  5
9F3
  8
0
 62
     9
 10
0.0
 20
0.0
 30
0.0
 70
   128
 71
   392
 72
   393
 73
   412
  0
VERTEX
  5
9F4
  8
0
 62
     9
 10
0.0
 20
0.0
 30
0.0
 70
   128
 71
   412
 72
   393
 73
   414
  0
VERTEX
  5
9F5
  8
0
 62
     9
 10
0.0
 20
0.0
 30
0.0
 70
   128
 71
   414
 72
   415
 73
   413
  0
VERTEX
  5
9F6
  8
0
 62
     9
 10
0.0
 20
0.0
 30
0.0
 70
   128
 71
   417
 72
   404
 73
   416
  0
VERTEX
  5
9F7
  8
0
 62
     9
 10
0.0
 20
0.0
 30
0.0
 70
   128
 71
   383
 72
   404
 73
   417
  0
VERTEX
  5
9F8
  8
0
 62
     9
 10
0.0
 20
0.0
 30
0.0
 70
   128
 71
   417
 72
   419
 73
   418
  0
VERTEX
  5
9F9
  8
0
 62
     9
 10
0.0
 20
0.0
 30
0.0
 70
   128
 71
   417
 72
   418
 73
   382
  0
VERTEX
  5
9FA
  8
0
 62
     9
 10
0.0
 20
0.0
 30
0.0
 70
   128
 71
   421
 72
   420
 73
   418
  0
VERTEX
  5
9FB
  8
0
 62
     9
 10
0.0
 20
0.0
 30
0.0
 70
   128
 71
   420
 72
   395
 73
   418
  0
VERTEX
  5
9FC
  8
0
 62
     9
 10
0.0
 20
0.0
 30
0.0
 70
   128
 71
   406
 72
   420
 73
   422
  0
VERTEX
  5
9FD
  8
0
 62
     9
 10
0.0
 20
0.0
 30
0.0
 70
   128
 71
   398
 72
   420
 73
   406
  0
VERTEX
  5
9FE
  8
0
 62
     9
 10
0.0
 20
0.0
 30
0.0
 70
   128
 71
   406
 72
   422
 73
   405
  0
VERTEX
  5
9FF
  8
0
 62
     9
 10
0.0
 20
0.0
 30
0.0
 70
   128
 71
   406
 72
   407
 73
   400
  0
VERTEX
  5
A00
  8
0
 62
     9
 10
0.0
 20
0.0
 30
0.0
 70
   128
 71
   407
 72
   401
 73
   400
  0
VERTEX
  5
A01
  8
0
 62
     9
 10
0.0
 20
0.0
 30
0.0
 70
   128
 71
   421
 72
   422
 73
   420
  0
VERTEX
  5
A02
  8
0
 62
     9
 10
0.0
 20
0.0
 30
0.0
 70
   128
 71
   406
 72
   400
 73
   398
  0
VERTEX
  5
A03
  8
0
 62
     9
 10
0.0
 20
0.0
 30
0.0
 70
   128
 71
   419
 72
   421
 73
   418
  0
VERTEX
  5
A04
  8
0
 62
     9
 10
0.0
 20
0.0
 30
0.0
 70
   128
 71
   420
 72
   398
 73
   395
  0
VERTEX
  5
A05
  8
0
 62
     9
 10
0.0
 20
0.0
 30
0.0
 70
   128
 71
   416
 72
   419
 73
   417
  0
VERTEX
  5
A06
  8
0
 62
     9
 10
0.0
 20
0.0
 30
0.0
 70
   128
 71
   418
 72
   395
 73
   382
  0
VERTEX
  5
A07
  8
0
 62
     9
 10
0.0
 20
0.0
 30
0.0
 70
   128
 71
   402
 72
   416
 73
   404
  0
VERTEX
  5
A08
  8
0
 62
     9
 10
0.0
 20
0.0
 30
0.0
 70
   128
 71
   417
 72
   382
 73
   383
  0
VERTEX
  5
A09
  8
0
 62
     9
 10
0.0
 20
0.0
 30
0.0
 70
   128
 71
   408
 72
   402
 73
   403
  0
VERTEX
  5
A0A
  8
0
 62
     9
 10
0.0
 20
0.0
 30
0.0
 70
   128
 71
   404
 72
   383
 73
   385
  0
VERTEX
  5
A0B
  8
0
 62
     9
 10
0.0
 20
0.0
 30
0.0
 70
   128
 71
   411
 72
   408
 73
   409
  0
VERTEX
  5
A0C
  8
0
 62
     9
 10
0.0
 20
0.0
 30
0.0
 70
   128
 71
   403
 72
   385
 73
   388
  0
VERTEX
  5
A0D
  8
0
 62
     9
 10
0.0
 20
0.0
 30
0.0
 70
   128
 71
   423
 72
   411
 73
   410
  0
VERTEX
  5
A0E
  8
0
 62
     9
 10
0.0
 20
0.0
 30
0.0
 70
   128
 71
   409
 72
   388
 73
   389
  0
VERTEX
  5
A0F
  8
0
 62
     9
 10
0.0
 20
0.0
 30
0.0
 70
   128
 71
   413
 72
   423
 73
   412
  0
VERTEX
  5
A10
  8
0
 62
     9
 10
0.0
 20
0.0
 30
0.0
 70
   128
 71
   410
 72
   389
 73
   392
  0
VERTEX
  5
A11
  8
0
 62
     9
 10
0.0
 20
0.0
 30
0.0
 70
   128
 71
   410
 72
   412
 73
   423
  0
VERTEX
  5
A12
  8
0
 62
     9
 10
0.0
 20
0.0
 30
0.0
 70
   128
 71
   412
 72
   410
 73
   392
  0
VERTEX
  5
A13
  8
0
 62
     9
 10
0.0
 20
0.0
 30
0.0
 70
   128
 71
   405
 72
   402
 73
   424
  0
VERTEX
  5
A14
  8
0
 62
     9
 10
0.0
 20
0.0
 30
0.0
 70
   128
 71
   405
 72
   416
 73
   402
  0
VERTEX
  5
A15
  8
0
 62
     9
 10
0.0
 20
0.0
 30
0.0
 70
   128
 71
   421
 72
   419
 73
   416
  0
VERTEX
  5
A16
  8
0
 62
     9
 10
0.0
 20
0.0
 30
0.0
 70
   128
 71
   416
 72
   405
 73
   422
  0
VERTEX
  5
A17
  8
0
 62
     9
 10
0.0
 20
0.0
 30
0.0
 70
   128
 71
   421
 72
   416
 73
   422
  0
VERTEX
  5
A18
  8
0
 62
     9
 10
0.0
 20
0.0
 30
0.0
 70
   128
 71
   411
 72
   424
 73
   408
  0
VERTEX
  5
A19
  8
0
 62
     9
 10
0.0
 20
0.0
 30
0.0
 70
   128
 71
   408
 72
   424
 73
   402
  0
VERTEX
  5
A1A
  8
0
 62
     9
 10
0.0
 20
0.0
 30
0.0
 70
   128
 71
   426
 72
   425
 73
   411
  0
VERTEX
  5
A1B
  8
0
 62
     9
 10
0.0
 20
0.0
 30
0.0
 70
   128
 71
   411
 72
   425
 73
   424
  0
VERTEX
  5
A1C
  8
0
 62
     9
 10
0.0
 20
0.0
 30
0.0
 70
   128
 71
   423
 72
   426
 73
   411
  0
VERTEX
  5
A1D
  8
0
 62
     9
 10
0.0
 20
0.0
 30
0.0
 70
   128
 71
   427
 72
   426
 73
   423
  0
VERTEX
  5
A1E
  8
0
 62
     9
 10
0.0
 20
0.0
 30
0.0
 70
   128
 71
   428
 72
   427
 73
   413
  0
VERTEX
  5
A1F
  8
0
 62
     9
 10
0.0
 20
0.0
 30
0.0
 70
   128
 71
   423
 72
   413
 73
   427
  0
VERTEX
  5
A20
  8
0
 62
     9
 10
0.0
 20
0.0
 30
0.0
 70
   128
 71
   428
 72
   415
 73
   429
  0
VERTEX
  5
A21
  8
0
 62
     9
 10
0.0
 20
0.0
 30
0.0
 70
   128
 71
   415
 72
   428
 73
   413
  0
VERTEX
  5
A22
  8
0
 62
     9
 10
0.0
 20
0.0
 30
0.0
 70
   128
 71
   431
 72
   430
 73
   429
  0
VERTEX
  5
A23
  8
0
 62
     9
 10
0.0
 20
0.0
 30
0.0
 70
   128
 71
   430
 72
   432
 73
   429
  0
VERTEX
  5
A24
  8
0
 62
     9
 10
0.0
 20
0.0
 30
0.0
 70
   128
 71
   415
 72
   431
 73
   429
  0
VERTEX
  5
A25
  8
0
 62
     9
 10
0.0
 20
0.0
 30
0.0
 70
   128
 71
   386
 72
   433
 73
   390
  0
VERTEX
  5
A26
  8
0
 62
     9
 10
0.0
 20
0.0
 30
0.0
 70
   128
 71
   397
 72
   381
 73
   394
  0
VERTEX
  5
A27
  8
0
 62
     9
 10
0.0
 20
0.0
 30
0.0
 70
   128
 71
   394
 72
   396
 73
   397
  0
VERTEX
  5
A28
  8
0
 62
     9
 10
0.0
 20
0.0
 30
0.0
 70
   128
 71
   384
 72
   381
 73
   399
  0
VERTEX
  5
A29
  8
0
 62
     9
 10
0.0
 20
0.0
 30
0.0
 70
   128
 71
   397
 72
   399
 73
   381
  0
VERTEX
  5
A2A
  8
0
 62
     9
 10
0.0
 20
0.0
 30
0.0
 70
   128
 71
   387
 72
   435
 73
   434
  0
VERTEX
  5
A2B
  8
0
 62
     9
 10
0.0
 20
0.0
 30
0.0
 70
   128
 71
   438
 72
   437
 73
   436
  0
VERTEX
  5
A2C
  8
0
 62
     9
 10
0.0
 20
0.0
 30
0.0
 70
   128
 71
   440
 72
   391
 73
   439
  0
VERTEX
  5
A2D
  8
0
 62
     9
 10
0.0
 20
0.0
 30
0.0
 70
   128
 71
   440
 72
   436
 73
   391
  0
VERTEX
  5
A2E
  8
0
 62
     9
 10
0.0
 20
0.0
 30
0.0
 70
   128
 71
   436
 72
   440
 73
   438
  0
VERTEX
  5
A2F
  8
0
 62
     9
 10
0.0
 20
0.0
 30
0.0
 70
   128
 71
   391
 72
   390
 73
   439
  0
VERTEX
  5
A30
  8
0
 62
     9
 10
0.0
 20
0.0
 30
0.0
 70
   128
 71
   433
 72
   386
 73
   434
  0
VERTEX
  5
A31
  8
0
 62
     9
 10
0.0
 20
0.0
 30
0.0
 70
   128
 71
   439
 72
   390
 73
   433
  0
VERTEX
  5
A32
  8
0
 62
     9
 10
0.0
 20
0.0
 30
0.0
 70
   128
 71
   387
 72
   384
 73
   435
  0
VERTEX
  5
A33
  8
0
 62
     9
 10
0.0
 20
0.0
 30
0.0
 70
   128
 71
   386
 72
   387
 73
   434
  0
VERTEX
  5
A34
  8
0
 62
     9
 10
0.0
 20
0.0
 30
0.0
 70
   128
 71
   399
 72
   435
 73
   384
  0
VERTEX
  5
A35
  8
0
 62
     9
 10
0.0
 20
0.0
 30
0.0
 70
   128
 71
   443
 72
   442
 73
   441
  0
VERTEX
  5
A36
  8
0
 62
     9
 10
0.0
 20
0.0
 30
0.0
 70
   128
 71
   415
 72
   442
 73
   431
  0
VERTEX
  5
A37
  8
0
 62
     9
 10
0.0
 20
0.0
 30
0.0
 70
   128
 71
   446
 72
   445
 73
   444
  0
VERTEX
  5
A38
  8
0
 62
     9
 10
0.0
 20
0.0
 30
0.0
 70
   128
 71
   447
 72
   443
 73
   441
  0
VERTEX
  5
A39
  8
0
 62
     9
 10
0.0
 20
0.0
 30
0.0
 70
   128
 71
   450
 72
   449
 73
   448
  0
VERTEX
  5
A3A
  8
0
 62
     9
 10
0.0
 20
0.0
 30
0.0
 70
   128
 71
   452
 72
   451
 73
   446
  0
VERTEX
  5
A3B
  8
0
 62
     9
 10
0.0
 20
0.0
 30
0.0
 70
   128
 71
   453
 72
   407
 73
   424
  0
VERTEX
  5
A3C
  8
0
 62
     9
 10
0.0
 20
0.0
 30
0.0
 70
   128
 71
   454
 72
   426
 73
   449
  0
VERTEX
  5
A3D
  8
0
 62
     9
 10
0.0
 20
0.0
 30
0.0
 70
   128
 71
   453
 72
   455
 73
   401
  0
VERTEX
  5
A3E
  8
0
 62
     9
 10
0.0
 20
0.0
 30
0.0
 70
   128
 71
   407
 72
   453
 73
   401
  0
VERTEX
  5
A3F
  8
0
 62
     9
 10
0.0
 20
0.0
 30
0.0
 70
   128
 71
   424
 72
   407
 73
   405
  0
VERTEX
  5
A40
  8
0
 62
     9
 10
0.0
 20
0.0
 30
0.0
 70
   128
 71
   449
 72
   456
 73
   454
  0
VERTEX
  5
A41
  8
0
 62
     9
 10
0.0
 20
0.0
 30
0.0
 70
   128
 71
   450
 72
   448
 73
   457
  0
VERTEX
  5
A42
  8
0
 62
     9
 10
0.0
 20
0.0
 30
0.0
 70
   128
 71
   456
 72
   449
 73
   450
  0
VERTEX
  5
A43
  8
0
 62
     9
 10
0.0
 20
0.0
 30
0.0
 70
   128
 71
   429
 72
   446
 73
   451
  0
VERTEX
  5
A44
  8
0
 62
     9
 10
0.0
 20
0.0
 30
0.0
 70
   128
 71
   457
 72
   448
 73
   451
  0
VERTEX
  5
A45
  8
0
 62
     9
 10
0.0
 20
0.0
 30
0.0
 70
   128
 71
   444
 72
   445
 73
   447
  0
VERTEX
  5
A46
  8
0
 62
     9
 10
0.0
 20
0.0
 30
0.0
 70
   128
 71
   452
 72
   446
 73
   444
  0
VERTEX
  5
A47
  8
0
 62
     9
 10
0.0
 20
0.0
 30
0.0
 70
   128
 71
   431
 72
   443
 73
   430
  0
VERTEX
  5
A48
  8
0
 62
     9
 10
0.0
 20
0.0
 30
0.0
 70
   128
 71
   445
 72
   443
 73
   447
  0
VERTEX
  5
A49
  8
0
 62
     9
 10
0.0
 20
0.0
 30
0.0
 70
   128
 71
   458
 72
   414
 73
   393
  0
VERTEX
  5
A4A
  8
0
 62
     9
 10
0.0
 20
0.0
 30
0.0
 70
   128
 71
   415
 72
   414
 73
   442
  0
VERTEX
  5
A4B
  8
0
 62
     9
 10
0.0
 20
0.0
 30
0.0
 70
   128
 71
   442
 72
   414
 73
   458
  0
VERTEX
  5
A4C
  8
0
 62
     9
 10
0.0
 20
0.0
 30
0.0
 70
   128
 71
   442
 72
   458
 73
   441
  0
VERTEX
  5
A4D
  8
0
 62
     9
 10
0.0
 20
0.0
 30
0.0
 70
   128
 71
   432
 72
   430
 73
   445
  0
VERTEX
  5
A4E
  8
0
 62
     9
 10
0.0
 20
0.0
 30
0.0
 70
   128
 71
   442
 72
   443
 73
   431
  0
VERTEX
  5
A4F
  8
0
 62
     9
 10
0.0
 20
0.0
 30
0.0
 70
   128
 71
   443
 72
   445
 73
   430
  0
VERTEX
  5
A50
  8
0
 62
     9
 10
0.0
 20
0.0
 30
0.0
 70
   128
 71
   446
 72
   429
 73
   432
  0
VERTEX
  5
A51
  8
0
 62
     9
 10
0.0
 20
0.0
 30
0.0
 70
   128
 71
   445
 72
   446
 73
   432
  0
VERTEX
  5
A52
  8
0
 62
     9
 10
0.0
 20
0.0
 30
0.0
 70
   128
 71
   451
 72
   428
 73
   429
  0
VERTEX
  5
A53
  8
0
 62
     9
 10
0.0
 20
0.0
 30
0.0
 70
   128
 71
   427
 72
   428
 73
   448
  0
VERTEX
  5
A54
  8
0
 62
     9
 10
0.0
 20
0.0
 30
0.0
 70
   128
 71
   451
 72
   452
 73
   457
  0
VERTEX
  5
A55
  8
0
 62
     9
 10
0.0
 20
0.0
 30
0.0
 70
   128
 71
   451
 72
   448
 73
   428
  0
VERTEX
  5
A56
  8
0
 62
     9
 10
0.0
 20
0.0
 30
0.0
 70
   128
 71
   449
 72
   426
 73
   427
  0
VERTEX
  5
A57
  8
0
 62
     9
 10
0.0
 20
0.0
 30
0.0
 70
   128
 71
   425
 72
   426
 73
   454
  0
VERTEX
  5
A58
  8
0
 62
     9
 10
0.0
 20
0.0
 30
0.0
 70
   128
 71
   448
 72
   449
 73
   427
  0
VERTEX
  5
A59
  8
0
 62
     9
 10
0.0
 20
0.0
 30
0.0
 70
   128
 71
   424
 72
   425
 73
   453
  0
VERTEX
  5
A5A
  8
0
 62
     9
 10
0.0
 20
0.0
 30
0.0
 70
   128
 71
   454
 72
   456
 73
   455
  0
VERTEX
  5
A5B
  8
0
 62
     9
 10
0.0
 20
0.0
 30
0.0
 70
   128
 71
   454
 72
   453
 73
   425
  0
VERTEX
  5
A5C
  8
0
 62
     9
 10
0.0
 20
0.0
 30
0.0
 70
   128
 71
   453
 72
   454
 73
   455
  0
VERTEX
  5
A5D
  8
0
 62
     9
 10
0.0
 20
0.0
 30
0.0
 70
   128
 71
   458
 72
   393
 73
   391
  0
VERTEX
  5
A5E
  8
0
 62
     9
 10
0.0
 20
0.0
 30
0.0
 70
   128
 71
   447
 72
   438
 73
   444
  0
VERTEX
  5
A5F
  8
0
 62
     9
 10
0.0
 20
0.0
 30
0.0
 70
   128
 71
   441
 72
   436
 73
   437
  0
VERTEX
  5
A60
  8
0
 62
     9
 10
0.0
 20
0.0
 30
0.0
 70
   128
 71
   450
 72
   457
 73
   433
  0
VERTEX
  5
A61
  8
0
 62
     9
 10
0.0
 20
0.0
 30
0.0
 70
   128
 71
   439
 72
   452
 73
   440
  0
VERTEX
  5
A62
  8
0
 62
     9
 10
0.0
 20
0.0
 30
0.0
 70
   128
 71
   456
 72
   434
 73
   435
  0
VERTEX
  5
A63
  8
0
 62
     9
 10
0.0
 20
0.0
 30
0.0
 70
   128
 71
   434
 72
   456
 73
   450
  0
VERTEX
  5
A64
  8
0
 62
     9
 10
0.0
 20
0.0
 30
0.0
 70
   128
 71
   435
 72
   399
 73
   455
  0
VERTEX
  5
A65
  8
0
 62
     9
 10
0.0
 20
0.0
 30
0.0
 70
   128
 71
   455
 72
   456
 73
   435
  0
VERTEX
  5
A66
  8
0
 62
     9
 10
0.0
 20
0.0
 30
0.0
 70
   128
 71
   455
 72
   399
 73
   401
  0
VERTEX
  5
A67
  8
0
 62
     9
 10
0.0
 20
0.0
 30
0.0
 70
   128
 71
   433
 72
   457
 73
   439
  0
VERTEX
  5
A68
  8
0
 62
     9
 10
0.0
 20
0.0
 30
0.0
 70
   128
 71
   434
 72
   450
 73
   433
  0
VERTEX
  5
A69
  8
0
 62
     9
 10
0.0
 20
0.0
 30
0.0
 70
   128
 71
   440
 72
   452
 73
   444
  0
VERTEX
  5
A6A
  8
0
 62
     9
 10
0.0
 20
0.0
 30
0.0
 70
   128
 71
   457
 72
   452
 73
   439
  0
VERTEX
  5
A6B
  8
0
 62
     9
 10
0.0
 20
0.0
 30
0.0
 70
   128
 71
   436
 72
   458
 73
   391
  0
VERTEX
  5
A6C
  8
0
 62
     9
 10
0.0
 20
0.0
 30
0.0
 70
   128
 71
   447
 72
   437
 73
   438
  0
VERTEX
  5
A6D
  8
0
 62
     9
 10
0.0
 20
0.0
 30
0.0
 70
   128
 71
   444
 72
   438
 73
   440
  0
VERTEX
  5
A6E
  8
0
 62
     9
 10
0.0
 20
0.0
 30
0.0
 70
   128
 71
   441
 72
   458
 73
   436
  0
VERTEX
  5
A6F
  8
0
 62
     9
 10
0.0
 20
0.0
 30
0.0
 70
   128
 71
   441
 72
   437
 73
   447
  0
SEQEND
  5
A70
  8
0
  0
ENDBLK
  5
A73
  8
0
  0
ENDSEC
  0
SECTION
  2
ENTITIES
  0
INSERT
  5
1FA
  8
LAYER_1
  2
A4285817_LINEARE_HANDLE_2
 10
0.0
 20
0.0
 30
0.0
  0
INSERT
  5
3BD
  8
LAYER_1
  2
A4285817_LINEARE_HANDLE_2_
 10
0.0
 20
0.0
 30
0.0
  0
INSERT
  5
46B
  8
LAYER_1
  2
40
 10
0.0
 20
0.0
 30
0.0
  0
INSERT
  5
519
  8
LAYER_1
  2
41
 10
0.0
 20
0.0
 30
0.0
  0
INSERT
  5
A71
  8
LAYER_1
  2
100622_US_ROSETTE_55X6MM_5
 10
0.0
 20
0.0
 30
0.0
  0
ENDSEC
  0
EOF
