  0
SECTION
  2
HEADER
  9
$ACADVER
  1
AC1015
  9
$ACADMAINTVER
 70
     6
  9
$DWGCODEPAGE
  3
ANSI_1252
  9
$INSBASE
 10
0.0
 20
0.0
 30
0.0
  9
$EXTMIN
 10
0.0
 20
0.0
 30
0.0
  9
$EXTMAX
 10
1682.0
 20
2378.0
 30
0.0
  9
$LIMMIN
 10
0.0
 20
0.0
  9
$LIMMAX
 10
1682.0
 20
2378.0
  9
$ORTHOMODE
 70
     0
  9
$REGENMODE
 70
     1
  9
$FILLMODE
 70
     1
  9
$QTEXTMODE
 70
     0
  9
$MIRRTEXT
 70
     1
  9
$LTSCALE
 40
1.0
  9
$ATTMODE
 70
     1
  9
$TEXTSIZE
 40
2.5
  9
$TRACEWID
 40
1.0
  9
$TEXTSTYLE
  7
Standard
  9
$CLAYER
  8
0
  9
$CELTYPE
  6
ByLayer
  9
$CECOLOR
 62
   256
  9
$CELTSCALE
 40
1.0
  9
$DISPSILH
 70
     0
  9
$DIMSCALE
 40
1.0
  9
$DIMASZ
 40
2.5
  9
$DIMEXO
 40
0.625
  9
$DIMDLI
 40
3.75
  9
$DIMRND
 40
0.0
  9
$DIMDLE
 40
0.0
  9
$DIMEXE
 40
1.25
  9
$DIMTP
 40
0.0
  9
$DIMTM
 40
0.0
  9
$DIMTXT
 40
2.5
  9
$DIMCEN
 40
2.5
  9
$DIMTSZ
 40
0.0
  9
$DIMTOL
 70
     0
  9
$DIMLIM
 70
     0
  9
$DIMTIH
 70
     0
  9
$DIMTOH
 70
     0
  9
$DIMSE1
 70
     0
  9
$DIMSE2
 70
     0
  9
$DIMTAD
 70
     1
  9
$DIMZIN
 70
     8
  9
$DIMBLK
  1

  9
$DIMASO
 70
     1
  9
$DIMSHO
 70
     1
  9
$DIMPOST
  1

  9
$DIMAPOST
  1

  9
$DIMALT
 70
     0
  9
$DIMALTD
 70
     3
  9
$DIMALTF
 40
0.0393700787
  9
$DIMLFAC
 40
1.0
  9
$DIMTOFL
 70
     1
  9
$DIMTVP
 40
0.0
  9
$DIMTIX
 70
     0
  9
$DIMSOXD
 70
     0
  9
$DIMSAH
 70
     0
  9
$DIMBLK1
  1

  9
$DIMBLK2
  1

  9
$DIMSTYLE
  2
ISO-25
  9
$DIMCLRD
 70
     0
  9
$DIMCLRE
 70
     0
  9
$DIMCLRT
 70
     0
  9
$DIMTFAC
 40
1.0
  9
$DIMGAP
 40
0.625
  9
$DIMJUST
 70
     0
  9
$DIMSD1
 70
     0
  9
$DIMSD2
 70
     0
  9
$DIMTOLJ
 70
     0
  9
$DIMTZIN
 70
     8
  9
$DIMALTZ
 70
     0
  9
$DIMALTTZ
 70
     0
  9
$DIMUPT
 70
     0
  9
$DIMDEC
 70
     2
  9
$DIMTDEC
 70
     2
  9
$DIMALTU
 70
     2
  9
$DIMALTTD
 70
     3
  9
$DIMTXSTY
  7
Standard
  9
$DIMAUNIT
 70
     0
  9
$DIMADEC
 70
     0
  9
$DIMALTRND
 40
0.0
  9
$DIMAZIN
 70
     0
  9
$DIMDSEP
 70
    44
  9
$DIMATFIT
 70
     3
  9
$DIMFRAC
 70
     0
  9
$DIMLDRBLK
  1

  9
$DIMLUNIT
 70
     2
  9
$DIMLWD
 70
    -2
  9
$DIMLWE
 70
    -2
  9
$DIMTMOVE
 70
     0
  9
$LUNITS
 70
     2
  9
$LUPREC
 70
     4
  9
$SKETCHINC
 40
1.0
  9
$FILLETRAD
 40
10.0
  9
$AUNITS
 70
     0
  9
$AUPREC
 70
     0
  9
$MENU
  1
.
  9
$ELEVATION
 40
0.0
  9
$PELEVATION
 40
0.0
  9
$THICKNESS
 40
0.0
  9
$LIMCHECK
 70
     0
  9
$CHAMFERA
 40
10.0
  9
$CHAMFERB
 40
10.0
  9
$CHAMFERC
 40
20.0
  9
$CHAMFERD
 40
0.0
  9
$SKPOLY
 70
     0
  9
$TDCREATE
 40
2455609.428993542
  9
$TDUCREATE
 40
2455609.387326875
  9
$TDUPDATE
 40
2455609.428993553
  9
$TDUUPDATE
 40
2455609.387326886
  9
$TDINDWG
 40
0.0000000116
  9
$TDUSRTIMER
 40
0.0000000116
  9
$USRTIMER
 70
     1
  9
$ANGBASE
 50
0.0
  9
$ANGDIR
 70
     0
  9
$PDMODE
 70
     0
  9
$PDSIZE
 40
0.0
  9
$PLINEWID
 40
0.0
  9
$SPLFRAME
 70
     0
  9
$SPLINETYPE
 70
     6
  9
$SPLINESEGS
 70
     8
  9
$HANDSEED
  5
3EF
  9
$SURFTAB1
 70
     6
  9
$SURFTAB2
 70
     6
  9
$SURFTYPE
 70
     6
  9
$SURFU
 70
     6
  9
$SURFV
 70
     6
  9
$UCSBASE
  2

  9
$UCSNAME
  2

  9
$UCSORG
 10
0.0
 20
0.0
 30
0.0
  9
$UCSXDIR
 10
1.0
 20
0.0
 30
0.0
  9
$UCSYDIR
 10
0.0
 20
1.0
 30
0.0
  9
$UCSORTHOREF
  2

  9
$UCSORTHOVIEW
 70
     0
  9
$UCSORGTOP
 10
0.0
 20
0.0
 30
0.0
  9
$UCSORGBOTTOM
 10
0.0
 20
0.0
 30
0.0
  9
$UCSORGLEFT
 10
0.0
 20
0.0
 30
0.0
  9
$UCSORGRIGHT
 10
0.0
 20
0.0
 30
0.0
  9
$UCSORGFRONT
 10
0.0
 20
0.0
 30
0.0
  9
$UCSORGBACK
 10
0.0
 20
0.0
 30
0.0
  9
$PUCSBASE
  2

  9
$PUCSNAME
  2

  9
$PUCSORG
 10
0.0
 20
0.0
 30
0.0
  9
$PUCSXDIR
 10
1.0
 20
0.0
 30
0.0
  9
$PUCSYDIR
 10
0.0
 20
1.0
 30
0.0
  9
$PUCSORTHOREF
  2

  9
$PUCSORTHOVIEW
 70
     0
  9
$PUCSORGTOP
 10
0.0
 20
0.0
 30
0.0
  9
$PUCSORGBOTTOM
 10
0.0
 20
0.0
 30
0.0
  9
$PUCSORGLEFT
 10
0.0
 20
0.0
 30
0.0
  9
$PUCSORGRIGHT
 10
0.0
 20
0.0
 30
0.0
  9
$PUCSORGFRONT
 10
0.0
 20
0.0
 30
0.0
  9
$PUCSORGBACK
 10
0.0
 20
0.0
 30
0.0
  9
$USERI1
 70
     0
  9
$USERI2
 70
     0
  9
$USERI3
 70
     0
  9
$USERI4
 70
     0
  9
$USERI5
 70
     0
  9
$USERR1
 40
0.0
  9
$USERR2
 40
0.0
  9
$USERR3
 40
0.0
  9
$USERR4
 40
0.0
  9
$USERR5
 40
0.0
  9
$WORLDVIEW
 70
     1
  9
$SHADEDGE
 70
     3
  9
$SHADEDIF
 70
    70
  9
$TILEMODE
 70
     1
  9
$MAXACTVP
 70
    64
  9
$PINSBASE
 10
0.0
 20
0.0
 30
0.0
  9
$PLIMCHECK
 70
     0
  9
$PEXTMIN
 10
0.0
 20
0.0
 30
0.0
  9
$PEXTMAX
 10
1682.0
 20
2378.0
 30
0.0
  9
$PLIMMIN
 10
0.0
 20
0.0
  9
$PLIMMAX
 10
1682.0
 20
2378.0
  9
$UNITMODE
 70
     0
  9
$VISRETAIN
 70
     1
  9
$PLINEGEN
 70
     0
  9
$PSLTSCALE
 70
     1
  9
$TREEDEPTH
 70
  3020
  9
$CMLSTYLE
  2
Standard
  9
$CMLJUST
 70
     0
  9
$CMLSCALE
 40
20.0
  9
$PROXYGRAPHICS
 70
     1
  9
$MEASUREMENT
 70
     1
  9
$CELWEIGHT
370
    -1
  9
$ENDCAPS
280
     0
  9
$JOINSTYLE
280
     0
  9
$LWDISPLAY
290
     0
  9
$INSUNITS
 70
     4
  9
$HYPERLINKBASE
  1

  9
$STYLESHEET
  1

  9
$XEDIT
290
     1
  9
$CEPSNTYPE
380
     0
  9
$PSTYLEMODE
290
     1
  9
$FINGERPRINTGUID
  2
{35C9F5C5-2553-4A7D-9DF9-16A4EAA77CCA}
  9
$VERSIONGUID
  2
{FAEB1C32-E019-11D5-929B-00C0DF256EC4}
  9
$EXTNAMES
290
     1
  9
$PSVPSCALE
 40
0.0
  9
$OLESTARTUP
290
     0
  0
ENDSEC
  0
SECTION
  2
CLASSES
  0
CLASS
  1
ACDBDICTIONARYWDFLT
  2
AcDbDictionaryWithDefault
  3
ObjectDBX Classes
 90
        0
280
     0
281
     0
  0
CLASS
  1
VISUALSTYLE
  2
AcDbVisualStyle
  3
ObjectDBX Classes
 90
     4095
280
     0
281
     0
  0
CLASS
  1
SCALE
  2
AcDbScale
  3
ObjectDBX Classes
 90
     1153
280
     0
281
     0
  0
CLASS
  1
DICTIONARYVAR
  2
AcDbDictionaryVar
  3
ObjectDBX Classes
 90
        0
280
     0
281
     0
  0
CLASS
  1
ACDBPLACEHOLDER
  2
AcDbPlaceHolder
  3
ObjectDBX Classes
 90
        0
280
     0
281
     0
  0
CLASS
  1
LAYOUT
  2
AcDbLayout
  3
ObjectDBX Classes
 90
        0
280
     0
281
     0
  0
ENDSEC
  0
SECTION
  2
TABLES
  0
TABLE
  2
VPORT
  5
8
330
0
100
AcDbSymbolTable
 70
     1
  0
VPORT
  5
29
330
8
100
AcDbSymbolTableRecord
100
AcDbViewportTableRecord
  2
*Active
 70
     0
 10
0.0
 20
0.0
 11
1.0
 21
1.0
 12
344.1869158879
 22
148.5
 13
0.0
 23
0.0
 14
10.0
 24
10.0
 15
10.0
 25
10.0
 16
0.0
 26
0.0
 36
1.0
 17
0.0
 27
0.0
 37
0.0
 40
297.0
 41
1.9729729729
 42
50.0
 43
0.0
 44
0.0
 50
0.0
 51
0.0
 71
     0
 72
   100
 73
     1
 74
     3
 75
     0
 76
     0
 77
     0
 78
     0
281
     0
 65
     1
110
0.0
120
0.0
130
0.0
111
1.0
121
0.0
131
0.0
112
0.0
122
1.0
132
0.0
 79
     0
146
0.0
  0
ENDTAB
  0
TABLE
  2
LTYPE
  5
5
330
0
100
AcDbSymbolTable
 70
     2
  0
LTYPE
  5
14
330
5
100
AcDbSymbolTableRecord
100
AcDbLinetypeTableRecord
  2
ByBlock
 70
     0
  3

 72
    65
 73
     0
 40
0.0
  0
LTYPE
  5
15
330
5
100
AcDbSymbolTableRecord
100
AcDbLinetypeTableRecord
  2
ByLayer
 70
     0
  3

 72
    65
 73
     0
 40
0.0
  0
LTYPE
  5
16
330
5
100
AcDbSymbolTableRecord
100
AcDbLinetypeTableRecord
  2
Continuous
 70
     0
  3
Solid line
 72
    65
 73
     0
 40
0.0
  0
LTYPE
  5
60
330
5
100
AcDbSymbolTableRecord
100
AcDbLinetypeTableRecord
  2
CENTER2
 70
     0
  3
Center (.5x) ___ _ ___ _ ___ _ ___ _ ___ _ ___
 72
    65
 73
     4
 40
28.575
 49
19.05
 74
     4
 75
     0
340
0
 46
0.0
 50
0.0
 44
0.0
 45
0.0
 49
-3.175
 74
     4
 75
     0
340
0
 46
0.0
 50
0.0
 44
0.0
 45
0.0
 49
3.175
 74
     4
 75
     0
340
0
 46
0.0
 50
0.0
 44
0.0
 45
0.0
 49
-3.175
 74
     4
 75
     0
340
0
 46
0.0
 50
0.0
 44
0.0
 45
0.0
  0
ENDTAB
  0
TABLE
  2
LAYER
  5
2
330
0
100
AcDbSymbolTable
 70
     8
  0
LAYER
  5
10
330
2
100
AcDbSymbolTableRecord
100
AcDbLayerTableRecord
  2
0
 70
     0
 62
     7
  6
Continuous
370
    -3
390
F
  0
LAYER
  5
5D
330
2
100
AcDbSymbolTableRecord
100
AcDbLayerTableRecord
  2
Default
 70
     0
 62
     7
  6
Continuous
370
    -3
390
F
  0
LAYER
  5
74
330
2
100
AcDbSymbolTableRecord
100
AcDbLayerTableRecord
  2
$DDT_AUDIT_GENERATED_(74)
 70
     0
 62
     7
  6
Continuous
370
    -3
390
F
  0
LAYER
  5
89
330
2
100
AcDbSymbolTableRecord
100
AcDbLayerTableRecord
  2
02555038_GEHÄUSE
 70
     0
 62
     7
  6
Continuous
370
    -3
390
F
  0
LAYER
  5
97
330
2
100
AcDbSymbolTableRecord
100
AcDbLayerTableRecord
  2
$DDT_AUDIT_GENERATED_(97)
 70
     0
 62
     7
  6
Continuous
370
    -3
390
F
  0
LAYER
  5
9B
330
2
100
AcDbSymbolTableRecord
100
AcDbLayerTableRecord
  2
$DDT_AUDIT_GENERATED_(9B)
 70
     0
 62
     7
  6
Continuous
370
    -3
390
F
  0
LAYER
  5
31C
330
2
100
AcDbSymbolTableRecord
100
AcDbLayerTableRecord
  2
$DDT_AUDIT_GENERATED_(31C)
 70
     0
 62
     7
  6
Continuous
370
    -3
390
F
  0
LAYER
  5
39D
330
2
100
AcDbSymbolTableRecord
100
AcDbLayerTableRecord
  2
$DDT_AUDIT_GENERATED_(39D)
 70
     0
 62
     7
  6
Continuous
370
    -3
390
F
  0
ENDTAB
  0
TABLE
  2
STYLE
  5
3
330
0
100
AcDbSymbolTable
 70
     2
  0
STYLE
  5
11
330
3
100
AcDbSymbolTableRecord
100
AcDbTextStyleTableRecord
  2
Standard
 70
     0
 40
0.0
 41
1.0
 50
0.0
 71
     0
 42
2.5
  3
txt
  4

  0
STYLE
  5
3DE
330
3
100
AcDbSymbolTableRecord
100
AcDbTextStyleTableRecord
  2
SEACAD_seiso_ttf
 70
     0
 40
0.0
 41
1.0
 50
0.0
 71
     0
 42
0.2
  3
seiso.ttf
  4

  0
ENDTAB
  0
TABLE
  2
VIEW
  5
6
330
0
100
AcDbSymbolTable
 70
     0
  0
ENDTAB
  0
TABLE
  2
UCS
  5
7
330
0
100
AcDbSymbolTable
 70
     0
  0
ENDTAB
  0
TABLE
  2
APPID
  5
9
330
0
100
AcDbSymbolTable
 70
     1
  0
APPID
  5
12
330
9
100
AcDbSymbolTableRecord
100
AcDbRegAppTableRecord
  2
ACAD
 70
     0
  0
ENDTAB
  0
TABLE
  2
DIMSTYLE
  5
A
330
0
100
AcDbSymbolTable
 70
     1
100
AcDbDimStyleTable
  0
DIMSTYLE
105
27
330
A
100
AcDbSymbolTableRecord
100
AcDbDimStyleTableRecord
  2
ISO-25
 70
     0
 41
2.5
 42
0.625
 43
3.75
 44
1.25
 73
     0
 74
     0
 77
     1
 78
     8
140
2.5
141
2.5
143
0.0393700787
147
0.625
171
     3
172
     1
271
     2
272
     2
274
     3
278
    44
283
     0
284
     8
340
11
  0
ENDTAB
  0
TABLE
  2
BLOCK_RECORD
  5
1
330
0
100
AcDbSymbolTable
 70
     7
  0
BLOCK_RECORD
  5
1F
330
1
100
AcDbSymbolTableRecord
100
AcDbBlockTableRecord
  2
*Model_Space
340
22
  0
BLOCK_RECORD
  5
1B
330
1
100
AcDbSymbolTableRecord
100
AcDbBlockTableRecord
  2
*Paper_Space
340
1E
  0
BLOCK_RECORD
  5
5E
330
1
100
AcDbSymbolTableRecord
100
AcDbBlockTableRecord
  2
SEANNOT_GROUP
340
0
102
{BLKREFS
331
5F
102
}
  0
BLOCK_RECORD
  5
65
330
1
100
AcDbSymbolTableRecord
100
AcDbBlockTableRecord
  2
SEANNOT_GROUP1
340
0
102
{BLKREFS
331
66
102
}
  0
BLOCK_RECORD
  5
6C
330
1
100
AcDbSymbolTableRecord
100
AcDbBlockTableRecord
  2
SEANNOT_GROUP2
340
0
102
{BLKREFS
331
6D
102
}
  0
BLOCK_RECORD
  5
72
330
1
100
AcDbSymbolTableRecord
100
AcDbBlockTableRecord
  2
SE
340
0
102
{BLKREFS
331
73
102
}
  0
BLOCK_RECORD
  5
3A1
330
1
100
AcDbSymbolTableRecord
100
AcDbBlockTableRecord
  2
SE1
340
0
102
{BLKREFS
331
3A2
102
}
  0
BLOCK_RECORD
  5
3C7
330
1
100
AcDbSymbolTableRecord
100
AcDbBlockTableRecord
  2
SE2
340
0
102
{BLKREFS
331
3C8
102
}
  0
ENDTAB
  0
ENDSEC
  0
SECTION
  2
BLOCKS
  0
BLOCK
  5
20
330
1F
100
AcDbEntity
  8
0
100
AcDbBlockBegin
  2
*Model_Space
 70
     0
 10
0.0
 20
0.0
 30
0.0
  3
*Model_Space
  1

  0
ENDBLK
  5
21
330
1F
100
AcDbEntity
  8
0
100
AcDbBlockEnd
  0
BLOCK
  5
1C
330
1B
100
AcDbEntity
 67
     1
  8
0
100
AcDbBlockBegin
  2
*Paper_Space
 70
     0
 10
0.0
 20
0.0
 30
0.0
  3
*Paper_Space
  1

  0
ENDBLK
  5
1D
330
1B
100
AcDbEntity
 67
     1
  8
0
100
AcDbBlockEnd
  0
BLOCK
  5
63
330
5E
100
AcDbEntity
  8
0
100
AcDbBlockBegin
  2
SEANNOT_GROUP
 70
     0
 10
0.0
 20
0.0
 30
0.0
  3
SEANNOT_GROUP
  1

  0
LINE
  5
61
330
5E
100
AcDbEntity
  8
Default
  6
CENTER2
 62
     7
100
AcDbLine
 10
195.2692577801
 20
390.925352974
 30
0.0
 11
155.2692586742
 21
390.925352974
 31
0.0
  0
LINE
  5
62
330
5E
100
AcDbEntity
  8
Default
  6
CENTER2
 62
     7
100
AcDbLine
 10
175.2692582271
 20
410.9253525269
 30
0.0
 11
175.2692582271
 21
370.925353421
 31
0.0
  0
ENDBLK
  5
64
330
5E
100
AcDbEntity
  8
0
100
AcDbBlockEnd
  0
BLOCK
  5
69
330
65
100
AcDbEntity
  8
0
100
AcDbBlockBegin
  2
SEANNOT_GROUP1
 70
     0
 10
0.0
 20
0.0
 30
0.0
  3
SEANNOT_GROUP1
  1

  0
LINE
  5
67
330
65
100
AcDbEntity
  8
Default
  6
CENTER2
 62
     7
100
AcDbLine
 10
79.2689489498
 20
306.1616922145
 30
0.0
 11
39.2689498438
 21
306.1616922145
 31
0.0
  0
LINE
  5
68
330
65
100
AcDbEntity
  8
Default
  6
CENTER2
 62
     7
100
AcDbLine
 10
59.2689493968
 20
326.1616917675
 30
0.0
 11
59.2689493968
 21
286.1616926616
 31
0.0
  0
ENDBLK
  5
6A
330
65
100
AcDbEntity
  8
0
100
AcDbBlockEnd
  0
BLOCK
  5
70
330
6C
100
AcDbEntity
  8
0
100
AcDbBlockBegin
  2
SEANNOT_GROUP2
 70
     0
 10
0.0
 20
0.0
 30
0.0
  3
SEANNOT_GROUP2
  1

  0
LINE
  5
6E
330
6C
100
AcDbEntity
  8
Default
  6
CENTER2
 62
     7
100
AcDbLine
 10
79.2689489498
 20
393.483691207
 30
0.0
 11
39.2689498438
 21
393.483691207
 31
0.0
  0
LINE
  5
6F
330
6C
100
AcDbEntity
  8
Default
  6
CENTER2
 62
     7
100
AcDbLine
 10
59.2689493968
 20
413.48369076
 30
0.0
 11
59.2689493968
 21
373.4836916541
 31
0.0
  0
ENDBLK
  5
71
330
6C
100
AcDbEntity
  8
0
100
AcDbBlockEnd
  0
BLOCK
  5
39F
330
72
100
AcDbEntity
  8
0
100
AcDbBlockBegin
  2
SE
 70
     0
 10
0.0
 20
0.0
 30
0.0
  3
SE
  1

  0
LINE
  5
75
330
72
100
AcDbEntity
  8
$DDT_AUDIT_GENERATED_(74)
  6
Continuous
 62
     7
100
AcDbLine
 10
83.0583698809
 20
398.6557550687
 30
0.0
 11
83.0922522002
 21
397.6323416322
 31
0.0
  0
LINE
  5
76
330
72
100
AcDbEntity
  8
$DDT_AUDIT_GENERATED_(74)
  6
Continuous
 62
     7
100
AcDbLine
 10
35.4775171008
 20
398.6556440902
 30
0.0
 11
35.4433803099
 21
397.6322543045
 31
0.0
  0
LINE
  5
77
330
72
100
AcDbEntity
  8
$DDT_AUDIT_GENERATED_(74)
  6
Continuous
 62
     7
100
AcDbLine
 10
35.4775171082
 20
398.6556440897
 30
0.0
 11
36.2238824898
 21
406.8983001134
 31
0.0
  0
SPLINE
  5
78
330
72
100
AcDbEntity
  8
$DDT_AUDIT_GENERATED_(74)
  6
Continuous
 62
     7
100
AcDbSpline
210
0.0
220
0.0
230
1.0
 70
    12
 71
     3
 72
    16
 73
    12
 74
     0
 42
0.000000012355918
 43
0.0000000001
 40
0.0
 40
0.0
 40
0.0
 40
0.0
 40
0.1046639072783205
 40
0.2134796746430644
 40
0.3262329114706459
 40
0.4417020445245369
 40
0.5581368807017691
 40
0.6736238793703119
 40
0.7864118993141743
 40
0.8952770025583583
 40
1.0
 40
1.0
 40
1.0
 40
1.0
 10
36.22388248981871
 20
406.8983001134191
 30
0.0
 41
1.0
 10
36.22645217887921
 20
406.9266778681989
 30
0.0
 41
1.0
 10
36.23827039986642
 20
406.9840511791858
 30
0.0
 41
1.0
 10
36.27203214623401
 20
407.0662984040429
 30
0.0
 41
1.0
 10
36.31961862296551
 20
407.1444294122854
 30
0.0
 41
1.0
 10
36.37872291203811
 20
407.2164427669635
 30
0.0
 41
1.0
 10
36.44709407321792
 20
407.2803281046905
 30
0.0
 41
1.0
 10
36.52250350440302
 20
407.3340029031132
 30
0.0
 41
1.0
 10
36.60279032727961
 20
407.3753550484568
 30
0.0
 41
1.0
 10
36.68579688949831
 20
407.4022146945666
 30
0.0
 41
1.0
 10
36.74261252598582
 20
407.4089743758719
 30
0.0
 41
1.0
 10
36.77041300005361
 20
407.4089744267939
 30
0.0
 41
1.0
  0
SPLINE
  5
79
330
72
100
AcDbEntity
  8
$DDT_AUDIT_GENERATED_(74)
  6
Continuous
 62
     7
100
AcDbSpline
210
0.0
220
0.0
230
1.0
 70
    12
 71
     3
 72
    16
 73
    12
 74
     0
 42
0.0000000123581775
 43
0.0000000001
 40
0.0
 40
0.0
 40
0.0
 40
0.0
 40
0.1047188354327763
 40
0.2135820844759478
 40
0.3263710573989831
 40
0.4418610997342107
 40
0.5582997409091831
 40
0.6737719347418931
 40
0.7865261620620495
 40
0.8953401374992405
 40
1.0
 40
1.0
 40
1.0
 40
1.0
 10
81.76983432601821
 20
407.4090568519229
 30
0.0
 41
1.0
 10
81.79762847592562
 20
407.4090569013739
 30
0.0
 41
1.0
 10
81.85443189842002
 20
407.4022954070277
 30
0.0
 41
1.0
 10
81.93741810246833
 20
407.3754295285839
 30
0.0
 41
1.0
 10
82.01768268832411
 20
407.3340693763046
 30
0.0
 41
1.0
 10
82.09306780079493
 20
407.2803862503942
 30
0.0
 41
1.0
 10
82.16141228257212
 20
407.2164936596931
 30
0.0
 41
1.0
 10
82.22048718501571
 20
407.1444755087284
 30
0.0
 41
1.0
 10
82.26804113182212
 20
407.0663434589845
 30
0.0
 41
1.0
 10
82.30176687451483
 20
406.9841002240937
 30
0.0
 41
1.0
 10
82.31355746820341
 20
406.9267334209025
 30
0.0
 41
1.0
 10
82.31611246305621
 20
406.8983607699744
 30
0.0
 41
1.0
  0
LINE
  5
7A
330
72
100
AcDbEntity
  8
$DDT_AUDIT_GENERATED_(74)
  6
Continuous
 62
     7
100
AcDbLine
 10
82.3161124631
 20
406.89836077
 30
0.0
 11
83.0583698822
 21
398.6557550689
 31
0.0
  0
LINE
  5
7B
330
72
100
AcDbEntity
  8
$DDT_AUDIT_GENERATED_(74)
  6
Continuous
 62
     7
100
AcDbLine
 10
81.769834326
 20
407.4090568519
 30
0.0
 11
36.7704130001
 21
407.4089744268
 31
0.0
  0
ARC
  5
7C
330
72
100
AcDbEntity
  8
$DDT_AUDIT_GENERATED_(74)
  6
Continuous
 62
     7
100
AcDbCircle
 10
59.2574993226
 20
4611.8117734366
 30
0.0
 40
4214.184974044499
100
AcDbArc
 50
269.8260808731
 51
270.1742000599
  0
ARC
  5
7D
330
72
100
AcDbEntity
  8
$DDT_AUDIT_GENERATED_(74)
  6
Continuous
 62
     7
100
AcDbCircle
 10
59.2678081696
 20
406.8706513332
 30
0.0
 40
15.77937711745003
100
AcDbArc
 50
215.7739012511
 51
324.226379682
  0
ARC
  5
7E
330
72
100
AcDbEntity
  8
$DDT_AUDIT_GENERATED_(74)
  6
Continuous
 62
     7
100
AcDbCircle
 10
41.3362470935
 20
96.1890859098
 30
0.0
 40
301.5007622860903
100
AcDbArc
 50
89.0252095998
 51
91.1199238567
  0
ARC
  5
7F
330
72
100
AcDbEntity
  8
$DDT_AUDIT_GENERATED_(74)
  6
Continuous
 62
     7
100
AcDbCircle
 10
77.1658336852
 20
69.1095773726
 30
0.0
 40
328.5762150284665
100
AcDbArc
 50
88.9665192833
 51
90.8886021699
  0
ARC
  5
80
330
72
100
AcDbEntity
  8
$DDT_AUDIT_GENERATED_(74)
  6
Continuous
 62
     7
100
AcDbCircle
 10
74.9647421913
 20
581.7707961743
 30
0.0
 40
183.2938217405085
100
AcDbArc
 50
269.0494409769
 51
272.5308083646
  0
ARC
  5
81
330
72
100
AcDbEntity
  8
$DDT_AUDIT_GENERATED_(74)
  6
Continuous
 62
     7
100
AcDbCircle
 10
43.4092641945
 20
569.7848894451
 30
0.0
 40
171.3129628127098
100
AcDbArc
 50
267.3462711243
 51
271.0710961697
  0
ARC
  5
82
330
72
100
AcDbEntity
  8
$DDT_AUDIT_GENERATED_(74)
  6
Continuous
 62
     7
100
AcDbCircle
 10
59.2281063381
 20
3365.8639762519
 30
0.0
 40
2967.388936923066
100
AcDbArc
 50
269.7563942193
 51
270.2451385542
  0
SPLINE
  5
83
330
72
100
AcDbEntity
  8
$DDT_AUDIT_GENERATED_(74)
  6
Continuous
 62
     7
100
AcDbSpline
210
0.0
220
0.0
230
1.0
 70
     8
 71
     3
 72
    20
 73
    16
 74
     0
 42
0.0000000100829374
 43
0.0000000001
 40
0.0
 40
0.0
 40
0.0
 40
0.0
 40
0.0146125297868293
 40
0.0308478810184654
 40
0.0637016463025913
 40
0.1277288058808774
 40
0.2490860625682569
 40
0.4991509289339744
 40
0.7495085177772833
 40
0.8751163412978452
 40
0.9377396186547441
 40
0.9692492922669346
 40
0.9849994874097133
 40
0.9928620334038019
 40
1.0
 40
1.0
 40
1.0
 40
1.0
 10
71.92396667317843
 20
398.5021988301173
 30
0.0
 10
71.92952294690505
 20
398.5010206727031
 30
0.0
 10
71.93888386120254
 20
398.4985308690561
 30
0.0
 10
71.95827492819288
 20
398.4929920593655
 30
0.0
 10
71.99259417660262
 20
398.4805567667104
 30
0.0
 10
72.06113402960136
 20
398.4471412997846
 30
0.0
 10
72.13416375318035
 20
398.3194351483751
 30
0.0
 10
72.1646771498166
 20
398.1298873395872
 30
0.0
 10
72.16227774193703
 20
397.9216127902744
 30
0.0
 10
72.14151162465424
 20
397.7737498616934
 30
0.0
 10
72.11141400436568
 20
397.7060277690257
 30
0.0
 10
72.0918295089321
 20
397.6753382705068
 30
0.0
 10
72.08119302617797
 20
397.6605778648486
 30
0.0
 10
72.07501048548423
 20
397.6525666484318
 30
0.0
 10
72.07197798105322
 20
397.64865885326
 30
0.0
 10
72.07013840799661
 20
397.6462769543243
 30
0.0
  0
SPLINE
  5
84
330
72
100
AcDbEntity
  8
$DDT_AUDIT_GENERATED_(74)
  6
Continuous
 62
     7
100
AcDbSpline
210
0.0
220
0.0
230
1.0
 70
     8
 71
     3
 72
    27
 73
    23
 74
     0
 42
0.0000000095621787
 43
0.0000000001
 40
0.0
 40
0.0
 40
0.0
 40
0.0
 40
0.0073164737838491
 40
0.0150787894335367
 40
0.0306413159011878
 40
0.0617769342554052
 40
0.1235376754777535
 40
0.2476904599286668
 40
0.4949588667167701
 40
0.6178221428059585
 40
0.6818452215621444
 40
0.7452808218000284
 40
0.773476389091731
 40
0.8066795919249273
 40
0.8596579847659048
 40
0.9318469739660509
 40
0.9679374037436941
 40
0.9850190442754736
 40
0.993194421133731
 40
0.9971751468788319
 40
0.999136824731199
 40
1.0
 40
1.0
 40
1.0
 40
1.0
 10
46.46552316037412
 20
397.6462141819683
 30
0.0
 10
46.46367892423211
 20
397.6487091223852
 30
0.0
 10
46.46038483671791
 20
397.6531328425245
 30
0.0
 10
46.45377485124316
 20
397.6621667324918
 30
0.0
 10
46.44257144355957
 20
397.678668275417
 30
0.0
 10
46.42218403633372
 20
397.7130065970541
 30
0.0
 10
46.39497687140118
 20
397.7897804438455
 30
0.0
 10
46.37774993001759
 20
397.9512388556778
 30
0.0
 10
46.3596723859773
 20
398.1271615837767
 30
0.0
 10
46.37094576699508
 20
398.2727020941895
 30
0.0
 10
46.38337935626654
 20
398.3529243878819
 30
0.0
 10
46.38068997583374
 20
398.3961289363898
 30
0.0
 10
46.39264108352365
 20
398.4348250808217
 30
0.0
 10
46.42886449187701
 20
398.4632527153321
 30
0.0
 10
46.4821563000153
 20
398.4850729978759
 30
0.0
 10
46.53562648575288
 20
398.4959009587919
 30
0.0
 10
46.5753539082505
 20
398.5003160685669
 30
0.0
 10
46.59433224393767
 20
398.5014560749083
 30
0.0
 10
46.60323854836823
 20
398.5017467695016
 30
0.0
 10
46.60750596523441
 20
398.5018279889491
 30
0.0
 10
46.60955069395222
 20
398.5018459455089
 30
0.0
 10
46.61040134497976
 20
398.5018565417556
 30
0.0
 10
46.61162870486922
 20
398.5018602529879
 30
0.0
  0
SPLINE
  5
85
330
72
100
AcDbEntity
  8
$DDT_AUDIT_GENERATED_(74)
  6
Continuous
 62
     7
100
AcDbSpline
210
0.0
220
0.0
230
1.0
 70
     8
 71
     3
 72
    10
 73
     6
 74
     0
 42
0.000000000133634
 43
0.0000000001
 40
0.0
 40
0.0
 40
0.0
 40
0.0
 40
0.1198006694392718
 40
0.2465325031634507
 40
0.3107064395716996
 40
0.3107064395716996
 40
0.3107064395716996
 40
0.3107064395716996
 10
83.09225220065225
 20
397.6323416462332
 30
0.0
 10
82.99039159708721
 20
394.6775333849046
 30
0.0
 10
81.64061389116053
 20
388.5779728584441
 30
0.0
 10
77.2445998262669
 20
382.1455599797731
 30
0.0
 10
73.5920737892997
 20
379.2035515479428
 30
0.0
 10
72.28307019708457
 20
378.344402836833
 30
0.0
  0
SPLINE
  5
86
330
72
100
AcDbEntity
  8
$DDT_AUDIT_GENERATED_(74)
  6
Continuous
 62
     7
100
AcDbSpline
210
0.0
220
0.0
230
1.0
 70
     8
 71
     3
 72
    10
 73
     6
 74
     0
 42
0.0000000001336419
 43
0.0000000001
 40
0.6892266768373145
 40
0.6892266768373145
 40
0.6892266768373145
 40
0.6892266768373145
 40
0.7534619610639639
 40
0.8801948562900402
 40
1.0
 40
1.0
 40
1.0
 40
1.0
 10
46.25490925408929
 20
378.3416442251032
 30
0.0
 10
44.94618587152514
 20
379.2003863934377
 30
0.0
 10
41.2977834895845
 20
382.1397700438523
 30
0.0
 10
36.89622998688218
 20
388.5724445737656
 30
0.0
 10
35.54527840175163
 20
394.6758602247497
 30
0.0
 10
35.44338030944736
 20
397.6322543182709
 30
0.0
  0
SPLINE
  5
87
330
72
100
AcDbEntity
  8
$DDT_AUDIT_GENERATED_(74)
  6
Continuous
 62
     7
100
AcDbSpline
210
0.0
220
0.0
230
1.0
 70
     8
 71
     3
 72
    32
 73
    28
 74
     0
 42
0.0000000001692527
 43
0.0000000001
 40
0.0
 40
0.0
 40
0.0
 40
0.0
 40
0.0312499999999998
 40
0.0312499999999998
 40
0.0624999999999997
 40
0.0624999999999997
 40
0.1250000000000001
 40
0.1250000000000001
 40
0.1875000000000006
 40
0.1875000000000006
 40
0.250000000000001
 40
0.250000000000001
 40
0.2812500000000012
 40
0.2812500000000012
 40
0.3125000000000014
 40
0.3125000000000014
 40
0.3437500000000017
 40
0.3437500000000017
 40
0.3750000000000019
 40
0.3750000000000019
 40
0.4375000000000018
 40
0.4375000000000018
 40
0.4687500000000018
 40
0.4687500000000018
 40
0.5000000000000018
 40
0.5000000000000018
 40
0.5275358966064394
 40
0.5275358966064394
 40
0.5275358966064394
 40
0.5275358966064394
 10
73.51894939681002
 20
385.1782925218039
 30
0.0
 10
73.51894939681002
 20
385.2942956404654
 30
0.0
 10
73.41711547849357
 20
385.2923483006352
 30
0.0
 10
73.03335142337465
 20
385.1113984535714
 30
0.0
 10
72.74938175858175
 20
384.9298438062884
 30
0.0
 10
71.68926845713649
 20
384.2575976967402
 30
0.0
 10
70.6833646112696
 20
383.6313902972965
 30
0.0
 10
68.17497357311547
 20
382.4731074117237
 30
0.0
 10
66.64877049993878
 20
381.925217342295
 30
0.0
 10
63.17133540658963
 20
381.1549564757794
 30
0.0
 10
61.23919858316502
 20
380.9363361567303
 30
0.0
 10
58.28774420462761
 20
380.9355717988982
 30
0.0
 10
57.32119148583932
 20
380.9883985733779
 30
0.0
 10
55.42105374402058
 20
381.1938443326688
 30
0.0
 10
54.49358769110821
 20
381.3473395785551
 30
0.0
 10
52.76006661517381
 20
381.7314099488337
 30
0.0
 10
51.93453362096819
 20
381.966500309264
 30
0.0
 10
50.42150754658807
 20
382.4823812377109
 30
0.0
 10
49.73071534241635
 20
382.762865444973
 30
0.0
 10
47.83598105115842
 20
383.6392975599665
 30
0.0
 10
46.84471791756163
 20
384.2585897383935
 30
0.0
 10
45.77591331807633
 20
384.9336652246926
 30
0.0
 10
45.49913153562289
 20
385.1112085187967
 30
0.0
 10
45.11684883135709
 20
385.2885453244146
 30
0.0
 10
45.01649690756703
 20
385.2866455566474
 30
0.0
 10
45.02119800523297
 20
385.0664943885895
 30
0.0
 10
45.10431687338059
 20
384.8726187103216
 30
0.0
 10
45.25983399103634
 20
384.6074719209187
 30
0.0
  0
SPLINE
  5
88
330
72
100
AcDbEntity
  8
$DDT_AUDIT_GENERATED_(74)
  6
Continuous
 62
     7
100
AcDbSpline
210
0.0
220
0.0
230
1.0
 70
     8
 71
     3
 72
     8
 73
     4
 74
     0
 42
0.0000000004385583
 43
0.0000000001
 40
0.9717051259116195
 40
0.9717051259116195
 40
0.9717051259116195
 40
0.9717051259116195
 40
1.0
 40
1.0
 40
1.0
 40
1.0
 10
73.27024443121906
 20
384.5950100316929
 30
0.0
 10
73.43247762145873
 20
384.8703643580615
 30
0.0
 10
73.51894939681
 20
385.0732591254394
 30
0.0
 10
73.51894939681002
 20
385.1782925218039
 30
0.0
  0
ELLIPSE
  5
8A
330
72
100
AcDbEntity
  8
02555038_GEHÄUSE
  6
Continuous
 62
     7
100
AcDbEllipse
 10
59.2689493968
 20
374.5362527541
 30
0.0
 11
12.34999999999999
 21
0.0
 31
0.0
210
0.0
220
0.0
230
1.0
 40
0.1478094111
 41
0.0
 42
6.283185307179586
  0
ELLIPSE
  5
8B
330
72
100
AcDbEntity
  8
02555038_GEHÄUSE
  6
Continuous
 62
     7
100
AcDbEllipse
 10
59.2689493968
 20
374.5362527541
 30
0.0
 11
-12.75
 21
0.0
 31
0.0
210
0.0
220
0.0
230
1.0
 40
0.1478094111
 41
0.0
 42
6.283185307179586
  0
ELLIPSE
  5
8C
330
72
100
AcDbEntity
  8
02555038_GEHÄUSE
  6
Continuous
 62
     7
100
AcDbEllipse
 10
59.2689493968
 20
375.2500134728
 30
0.0
 11
14.00000000000002
 21
6.938893903907228E-15
 31
0.0
210
0.0
220
0.0
230
1.0
 40
0.1478094111
 41
0.3802512066929311
 42
2.761341446896861
  0
LINE
  5
8D
330
72
100
AcDbEntity
  8
02555038_GEHÄUSE
  6
Continuous
 62
     7
100
AcDbLine
 10
72.2689493968
 20
376.0180537025
 30
0.0
 11
72.2689493968
 21
374.4260266949
 31
0.0
  0
ELLIPSE
  5
8E
330
72
100
AcDbEntity
  8
02555038_GEHÄUSE
  6
Continuous
 62
     7
100
AcDbEllipse
 10
59.2689493968
 20
366.6241258472
 30
0.0
 11
-13.96150259139277
 21
-13.96150259139279
 31
0.0
210
0.0
220
0.0
230
1.0
 40
0.0743128367
 41
2.687164953687089
 42
3.447667367072977
  0
LINE
  5
8F
330
72
100
AcDbEntity
  8
02555038_GEHÄUSE
  6
Continuous
 62
     7
100
AcDbLine
 10
72.2689493968
 20
380.2493723006
 30
0.0
 11
72.2689493968
 21
376.0180537025
 31
0.0
  0
LINE
  5
90
330
72
100
AcDbEntity
  8
02555038_GEHÄUSE
  6
Continuous
 62
     7
100
AcDbLine
 10
46.2689493968
 20
376.0180537025
 30
0.0
 11
46.2689493968
 21
374.4260266949
 31
0.0
  0
ELLIPSE
  5
91
330
72
100
AcDbEntity
  8
02555038_GEHÄUSE
  6
Continuous
 62
     7
100
AcDbEllipse
 10
59.2689493968
 20
366.6241258472
 30
0.0
 11
13.9615025913928
 21
-13.9615025913928
 31
0.0
210
0.0
220
0.0
230
1.0
 40
0.0743128367
 41
2.835517940106633
 42
3.596020353492467
  0
LINE
  5
92
330
72
100
AcDbEntity
  8
02555038_GEHÄUSE
  6
Continuous
 62
     7
100
AcDbLine
 10
46.2689493968
 20
380.2493723006
 30
0.0
 11
46.2689493968
 21
376.0180537025
 31
0.0
  0
LINE
  5
93
330
72
100
AcDbEntity
  8
02555038_GEHÄUSE
  6
Continuous
 62
     7
100
AcDbLine
 10
46.2689493968
 20
374.4259935511
 30
0.0
 11
46.9535238583
 21
374.0484191331
 31
0.0
  0
LINE
  5
94
330
72
100
AcDbEntity
  8
02555038_GEHÄUSE
  6
Continuous
 62
     7
100
AcDbLine
 10
71.5843749353
 20
374.0484191331
 30
0.0
 11
72.2689493968
 21
374.4259935511
 31
0.0
  0
LINE
  5
95
330
72
100
AcDbEntity
  8
02555038_GEHÄUSE
  6
Continuous
 62
     7
100
AcDbLine
 10
73.2689493968
 20
380.4703479343
 30
0.0
 11
73.2689493968
 21
385.2185870313
 31
0.0
  0
LINE
  5
96
330
72
100
AcDbEntity
  8
02555038_GEHÄUSE
  6
Continuous
 62
     7
100
AcDbLine
 10
45.2689493968
 20
385.2097690309
 30
0.0
 11
45.2689493968
 21
380.4703479343
 31
0.0
  0
ELLIPSE
  5
98
330
72
100
AcDbEntity
  8
$DDT_AUDIT_GENERATED_(97)
  6
Continuous
 62
     7
100
AcDbEllipse
 10
59.2689493968
 20
375.8219733765
 30
0.0
 11
10.50000000000001
 21
1.734723475976807E-15
 31
0.0
210
0.0
220
0.0
230
1.0
 40
0.1478094111
 41
3.325424353278214
 42
6.099353607491166
  0
ELLIPSE
  5
99
330
72
100
AcDbEntity
  8
$DDT_AUDIT_GENERATED_(97)
  6
Continuous
 62
     7
100
AcDbEllipse
 10
59.2689493968
 20
375.5252686175
 30
0.0
 11
10.50000000000001
 21
1.734723475976807E-15
 31
0.0
210
0.0
220
0.0
230
1.0
 40
0.1478094111
 41
3.159378771516514
 42
6.265399189252864
  0
ELLIPSE
  5
9A
330
72
100
AcDbEntity
  8
$DDT_AUDIT_GENERATED_(97)
  6
Continuous
 62
     7
100
AcDbEllipse
 10
59.2689493968
 20
375.5252686175
 30
0.0
 11
11.4
 21
1.734723475976807E-15
 31
0.0
210
0.0
220
0.0
230
1.0
 40
0.1478094111
 41
3.287689364736182
 42
6.137088596033212
  0
ELLIPSE
  5
9C
330
72
100
AcDbEntity
  8
$DDT_AUDIT_GENERATED_(9B)
  6
Continuous
 62
     7
100
AcDbEllipse
 10
50.0546636825
 20
375.6938819386
 30
0.0
 11
-0.0757564984384118
 21
-0.07575649843839966
 31
0.0
210
0.0
220
0.0
230
1.0
 40
0.8616551265
 41
0.859574656607424
 42
2.430370983402883
  0
ELLIPSE
  5
9D
330
72
100
AcDbEntity
  8
$DDT_AUDIT_GENERATED_(9B)
  6
Continuous
 62
     7
100
AcDbEllipse
 10
50.0546636825
 20
375.6938819386
 30
0.0
 11
0.0757564984384014
 21
-0.07575649843840661
 31
0.0
210
0.0
220
0.0
230
1.0
 40
0.8616551265
 41
3.85281432377735
 42
5.423610650572281
  0
ELLIPSE
  5
9E
330
72
100
AcDbEntity
  8
$DDT_AUDIT_GENERATED_(9B)
  6
Continuous
 62
     7
100
AcDbEllipse
 10
50.0546636825
 20
375.4668889143
 30
0.0
 11
-0.07575649843840314
 21
-0.07575649843840487
 31
0.0
210
0.0
220
0.0
230
1.0
 40
0.8616551265
 41
0.8595746566073256
 42
2.430370983402184
  0
ELLIPSE
  5
9F
330
72
100
AcDbEntity
  8
$DDT_AUDIT_GENERATED_(9B)
  6
Continuous
 62
     7
100
AcDbEllipse
 10
50.0546636825
 20
375.4668889143
 30
0.0
 11
0.07575649843840314
 21
-0.07575649843840661
 31
0.0
210
0.0
220
0.0
230
1.0
 40
0.8616551265
 41
3.852814323777353
 42
5.423610650572261
  0
ELLIPSE
  5
A0
330
72
100
AcDbEntity
  8
$DDT_AUDIT_GENERATED_(9B)
  6
Continuous
 62
     7
100
AcDbEllipse
 10
50.0546636825
 20
375.2398958901
 30
0.0
 11
-0.0757564984384014
 21
-0.07575649843840834
 31
0.0
210
0.0
220
0.0
230
0.9999999999999999
 40
0.8616551265
 41
0.8595746566073058
 42
2.430370983401639
  0
ELLIPSE
  5
A1
330
72
100
AcDbEntity
  8
$DDT_AUDIT_GENERATED_(9B)
  6
Continuous
 62
     7
100
AcDbEllipse
 10
50.0546636825
 20
375.2398958901
 30
0.0
 11
0.0757564984384014
 21
-0.07575649843841008
 31
0.0
210
0.0
220
0.0
230
1.0
 40
0.8616551265
 41
3.852814323777971
 42
5.423610650572281
  0
ELLIPSE
  5
A2
330
72
100
AcDbEntity
  8
$DDT_AUDIT_GENERATED_(9B)
  6
Continuous
 62
     7
100
AcDbEllipse
 10
51.5903779682
 20
374.7859098416
 30
0.0
 11
0.0757564984384092
 21
0.07575649843840834
 31
0.0
210
0.0
220
0.0
230
0.9999999999999998
 40
0.8616551265
 41
4.882732674984053
 42
5.57196363699156
  0
ELLIPSE
  5
A3
330
72
100
AcDbEntity
  8
$DDT_AUDIT_GENERATED_(9B)
  6
Continuous
 62
     7
100
AcDbEllipse
 10
51.5903779682
 20
375.0129028659
 30
0.0
 11
-0.07575649843840401
 21
-0.07575649843840487
 31
0.0
210
0.0
220
0.0
230
0.9999999999999998
 40
0.8616551265
 41
0.8595746566069641
 42
2.430370983401752
  0
ELLIPSE
  5
A4
330
72
100
AcDbEntity
  8
$DDT_AUDIT_GENERATED_(9B)
  6
Continuous
 62
     7
100
AcDbEllipse
 10
51.5903779682
 20
375.0129028659
 30
0.0
 11
0.07575649843840487
 21
-0.07575649843840834
 31
0.0
210
0.0
220
0.0
230
1.0
 40
0.8616551265
 41
3.852814323777955
 42
5.42361065057317
  0
ELLIPSE
  5
A5
330
72
100
AcDbEntity
  8
$DDT_AUDIT_GENERATED_(9B)
  6
Continuous
 62
     7
100
AcDbEllipse
 10
51.5903779682
 20
375.2398958901
 30
0.0
 11
-0.07575649843839707
 21
-0.07575649843841528
 31
0.0
210
0.0
220
0.0
230
1.0
 40
0.8616551265
 41
0.8595746566072568
 42
2.430370983401554
  0
ELLIPSE
  5
A6
330
72
100
AcDbEntity
  8
$DDT_AUDIT_GENERATED_(9B)
  6
Continuous
 62
     7
100
AcDbEllipse
 10
51.5903779682
 20
375.2398958901
 30
0.0
 11
0.07575649843839966
 21
-0.0757564984384118
 31
0.0
210
0.0
220
0.0
230
1.0
 40
0.8616551265
 41
3.85281432377799
 42
5.4236106505723
  0
ELLIPSE
  5
A7
330
72
100
AcDbEntity
  8
$DDT_AUDIT_GENERATED_(9B)
  6
Continuous
 62
     7
100
AcDbEllipse
 10
51.5903779682
 20
375.4668889143
 30
0.0
 11
-0.0757564984384092
 21
-0.07575649843840314
 31
0.0
210
0.0
220
0.0
230
1.0
 40
0.8616551265
 41
0.8595746566073943
 42
2.430370983402339
  0
ELLIPSE
  5
A8
330
72
100
AcDbEntity
  8
$DDT_AUDIT_GENERATED_(9B)
  6
Continuous
 62
     7
100
AcDbEllipse
 10
51.5903779682
 20
375.4668889143
 30
0.0
 11
0.07575649843840226
 21
-0.07575649843840834
 31
0.0
210
0.0
220
0.0
230
1.0
 40
0.8616551265
 41
3.852814323777446
 42
5.423610650572271
  0
ELLIPSE
  5
A9
330
72
100
AcDbEntity
  8
$DDT_AUDIT_GENERATED_(9B)
  6
Continuous
 62
     7
100
AcDbEllipse
 10
51.5903779682
 20
375.6938819386
 30
0.0
 11
-0.07575649843840573
 21
-0.07575649843840487
 31
0.0
210
0.0
220
0.0
230
0.9999999999999998
 40
0.8616551265
 41
0.8595746566073551
 42
2.430370983402898
  0
ELLIPSE
  5
AA
330
72
100
AcDbEntity
  8
$DDT_AUDIT_GENERATED_(9B)
  6
Continuous
 62
     7
100
AcDbEllipse
 10
51.5903779682
 20
375.6938819386
 30
0.0
 11
0.07575649843840487
 21
-0.07575649843840487
 31
0.0
210
0.0
220
0.0
230
0.9999999999999998
 40
0.8616551265
 41
3.852814323777333
 42
5.423610650572241
  0
ELLIPSE
  5
AB
330
72
100
AcDbEntity
  8
$DDT_AUDIT_GENERATED_(9B)
  6
Continuous
 62
     7
100
AcDbEllipse
 10
51.5903779682
 20
375.9208749628
 30
0.0
 11
-0.075756498438404
 21
-0.07575649843840659
 31
0.0
210
0.0
220
0.0
230
1.0
 40
0.8616551265
 41
0.8595746566073356
 42
2.430370983402878
  0
ELLIPSE
  5
AC
330
72
100
AcDbEntity
  8
$DDT_AUDIT_GENERATED_(9B)
  6
Continuous
 62
     7
100
AcDbEllipse
 10
51.5903779682
 20
375.9208749628
 30
0.0
 11
0.07575649843840748
 21
-0.07575649843840314
 31
0.0
210
0.0
220
0.0
230
1.0
 40
0.8616551265
 41
3.852814323776812
 42
5.423610650572273
  0
ELLIPSE
  5
AD
330
72
100
AcDbEntity
  8
$DDT_AUDIT_GENERATED_(9B)
  6
Continuous
 62
     7
100
AcDbEllipse
 10
53.126092254
 20
376.147867987
 30
0.0
 11
-0.07575649843840572
 21
-0.07575649843840312
 31
0.0
210
0.0
220
0.0
230
1.0
 40
0.8616551265
 41
0.8595746566072933
 42
2.0794229180132
  0
ELLIPSE
  5
AE
330
72
100
AcDbEntity
  8
$DDT_AUDIT_GENERATED_(9B)
  6
Continuous
 62
     7
100
AcDbEllipse
 10
53.126092254
 20
376.147867987
 30
0.0
 11
0.075756498438404
 21
-0.07575649843840659
 31
0.0
210
0.0
220
0.0
230
1.0
 40
0.8616551265
 41
4.363671785351153
 42
5.423610650572375
  0
ELLIPSE
  5
AF
330
72
100
AcDbEntity
  8
$DDT_AUDIT_GENERATED_(9B)
  6
Continuous
 62
     7
100
AcDbEllipse
 10
53.126092254
 20
375.9208749628
 30
0.0
 11
-0.07575649843840748
 21
-0.07575649843840314
 31
0.0
210
0.0
220
0.0
230
0.9999999999999999
 40
0.8616551265
 41
0.859574656607375
 42
2.430370983402774
  0
ELLIPSE
  5
B0
330
72
100
AcDbEntity
  8
$DDT_AUDIT_GENERATED_(9B)
  6
Continuous
 62
     7
100
AcDbEllipse
 10
53.126092254
 20
375.9208749628
 30
0.0
 11
0.075756498438404
 21
-0.07575649843840659
 31
0.0
210
0.0
220
0.0
230
1.0
 40
0.8616551265
 41
3.85281432377678
 42
5.42361065057225
  0
ELLIPSE
  5
B1
330
72
100
AcDbEntity
  8
$DDT_AUDIT_GENERATED_(9B)
  6
Continuous
 62
     7
100
AcDbEllipse
 10
53.126092254
 20
375.6938819386
 30
0.0
 11
-0.07575649843840226
 21
-0.07575649843840834
 31
0.0
210
0.0
220
0.0
230
1.0
 40
0.8616551265
 41
0.8595746566073155
 42
2.43037098340214
  0
ELLIPSE
  5
B2
330
72
100
AcDbEntity
  8
$DDT_AUDIT_GENERATED_(9B)
  6
Continuous
 62
     7
100
AcDbEllipse
 10
53.126092254
 20
375.6938819386
 30
0.0
 11
0.07575649843840487
 21
-0.07575649843840487
 31
0.0
210
0.0
220
0.0
230
0.9999999999999998
 40
0.8616551265
 41
3.852814323776759
 42
5.423610650572241
  0
ELLIPSE
  5
B3
330
72
100
AcDbEntity
  8
$DDT_AUDIT_GENERATED_(9B)
  6
Continuous
 62
     7
100
AcDbEllipse
 10
53.126092254
 20
375.4668889143
 30
0.0
 11
-0.07575649843840573
 21
-0.07575649843840487
 31
0.0
210
0.0
220
0.0
230
0.9999999999999998
 40
0.8616551265
 41
0.8595746566073551
 42
2.430370983402251
  0
ELLIPSE
  5
B4
330
72
100
AcDbEntity
  8
$DDT_AUDIT_GENERATED_(9B)
  6
Continuous
 62
     7
100
AcDbEllipse
 10
53.126092254
 20
375.4668889143
 30
0.0
 11
0.07575649843840572
 21
-0.07575649843840312
 31
0.0
210
0.0
220
0.0
230
1.0
 40
0.8616551265
 41
3.852814323777384
 42
5.423610650572231
  0
ELLIPSE
  5
B5
330
72
100
AcDbEntity
  8
$DDT_AUDIT_GENERATED_(9B)
  6
Continuous
 62
     7
100
AcDbEllipse
 10
53.126092254
 20
375.2398958901
 30
0.0
 11
-0.07575649843839966
 21
-0.0757564984384118
 31
0.0
210
0.0
220
0.0
230
1.0
 40
0.8616551265
 41
0.8595746566072859
 42
2.43037098340217
  0
ELLIPSE
  5
B6
330
72
100
AcDbEntity
  8
$DDT_AUDIT_GENERATED_(9B)
  6
Continuous
 62
     7
100
AcDbEllipse
 10
53.126092254
 20
375.2398958901
 30
0.0
 11
0.07575649843839966
 21
-0.0757564984384118
 31
0.0
210
0.0
220
0.0
230
1.0
 40
0.8616551265
 41
3.852814323777416
 42
5.4236106505723
  0
ELLIPSE
  5
B7
330
72
100
AcDbEntity
  8
$DDT_AUDIT_GENERATED_(9B)
  6
Continuous
 62
     7
100
AcDbEllipse
 10
53.126092254
 20
375.0129028659
 30
0.0
 11
-0.07575649843840401
 21
-0.07575649843840487
 31
0.0
210
0.0
220
0.0
230
0.9999999999999998
 40
0.8616551265
 41
0.8595746566073356
 42
2.43037098340168
  0
ELLIPSE
  5
B8
330
72
100
AcDbEntity
  8
$DDT_AUDIT_GENERATED_(9B)
  6
Continuous
 62
     7
100
AcDbEllipse
 10
53.126092254
 20
375.0129028659
 30
0.0
 11
0.07575649843840401
 21
-0.07575649843840487
 31
0.0
210
0.0
220
0.0
230
0.9999999999999998
 40
0.8616551265
 41
3.852814323777906
 42
5.423610650572189
  0
ELLIPSE
  5
B9
330
72
100
AcDbEntity
  8
$DDT_AUDIT_GENERATED_(9B)
  6
Continuous
 62
     7
100
AcDbEllipse
 10
53.126092254
 20
374.7859098416
 30
0.0
 11
-0.07575649843839793
 21
-0.07575649843841181
 31
0.0
210
0.0
220
0.0
230
1.0
 40
0.8616551265
 41
0.8595746566072042
 42
2.430370983402174
  0
ELLIPSE
  5
BA
330
72
100
AcDbEntity
  8
$DDT_AUDIT_GENERATED_(9B)
  6
Continuous
 62
     7
100
AcDbEllipse
 10
53.126092254
 20
374.7859098416
 30
0.0
 11
0.07575649843839966
 21
-0.0757564984384118
 31
0.0
210
0.0
220
0.0
230
1.0
 40
0.8616551265
 41
3.852814323777416
 42
5.4236106505723
  0
ELLIPSE
  5
BB
330
72
100
AcDbEntity
  8
$DDT_AUDIT_GENERATED_(9B)
  6
Continuous
 62
     7
100
AcDbEllipse
 10
54.6618065397
 20
374.5589168174
 30
0.0
 11
-0.07575649843840748
 21
-0.0757564984384014
 31
0.0
210
0.0
220
0.0
230
1.0
 40
0.8616551265
 41
0.8595746566068178
 42
2.430370983401719
  0
ELLIPSE
  5
BC
330
72
100
AcDbEntity
  8
$DDT_AUDIT_GENERATED_(9B)
  6
Continuous
 62
     7
100
AcDbEllipse
 10
54.6618065397
 20
374.5589168174
 30
0.0
 11
0.07575649843840226
 21
-0.07575649843840834
 31
0.0
210
0.0
220
0.0
230
1.0
 40
0.8616551265
 41
3.852814323777375
 42
5.423610650572765
  0
ELLIPSE
  5
BD
330
72
100
AcDbEntity
  8
$DDT_AUDIT_GENERATED_(9B)
  6
Continuous
 62
     7
100
AcDbEllipse
 10
54.6618065397
 20
374.7859098416
 30
0.0
 11
-0.07575649843839793
 21
-0.07575649843841181
 31
0.0
210
0.0
220
0.0
230
1.0
 40
0.8616551265
 41
0.8595746566072042
 42
2.430370983402174
  0
ELLIPSE
  5
BE
330
72
100
AcDbEntity
  8
$DDT_AUDIT_GENERATED_(9B)
  6
Continuous
 62
     7
100
AcDbEllipse
 10
54.6618065397
 20
374.7859098416
 30
0.0
 11
0.07575649843839793
 21
-0.07575649843841181
 31
0.0
210
0.0
220
0.0
230
1.0
 40
0.8616551265
 41
3.85281432377734
 42
5.42361065057232
  0
ELLIPSE
  5
BF
330
72
100
AcDbEntity
  8
$DDT_AUDIT_GENERATED_(9B)
  6
Continuous
 62
     7
100
AcDbEllipse
 10
54.6618065397
 20
375.0129028659
 30
0.0
 11
-0.07575649843840401
 21
-0.07575649843840487
 31
0.0
210
0.0
220
0.0
230
0.9999999999999998
 40
0.8616551265
 41
0.859574656606902
 42
2.43037098340168
  0
ELLIPSE
  5
C0
330
72
100
AcDbEntity
  8
$DDT_AUDIT_GENERATED_(9B)
  6
Continuous
 62
     7
100
AcDbEllipse
 10
54.6618065397
 20
375.0129028659
 30
0.0
 11
0.07575649843840661
 21
-0.0757564984384014
 31
0.0
210
0.0
220
0.0
230
0.9999999999999999
 40
0.8616551265
 41
3.852814323777865
 42
5.423610650572531
  0
ELLIPSE
  5
C1
330
72
100
AcDbEntity
  8
$DDT_AUDIT_GENERATED_(9B)
  6
Continuous
 62
     7
100
AcDbEllipse
 10
54.6618065397
 20
375.2398958901
 30
0.0
 11
-0.07575649843839966
 21
-0.0757564984384118
 31
0.0
210
0.0
220
0.0
230
1.0
 40
0.8616551265
 41
0.8595746566072859
 42
2.43037098340217
  0
ELLIPSE
  5
C2
330
72
100
AcDbEntity
  8
$DDT_AUDIT_GENERATED_(9B)
  6
Continuous
 62
     7
100
AcDbEllipse
 10
54.6618065397
 20
375.2398958901
 30
0.0
 11
0.07575649843839966
 21
-0.0757564984384118
 31
0.0
210
0.0
220
0.0
230
1.0
 40
0.8616551265
 41
3.852814323777344
 42
5.4236106505723
  0
ELLIPSE
  5
C3
330
72
100
AcDbEntity
  8
$DDT_AUDIT_GENERATED_(9B)
  6
Continuous
 62
     7
100
AcDbEllipse
 10
54.6618065397
 20
375.4668889143
 30
0.0
 11
-0.07575649843840573
 21
-0.07575649843840487
 31
0.0
210
0.0
220
0.0
230
0.9999999999999998
 40
0.8616551265
 41
0.8595746566069216
 42
2.430370983401676
  0
ELLIPSE
  5
C4
330
72
100
AcDbEntity
  8
$DDT_AUDIT_GENERATED_(9B)
  6
Continuous
 62
     7
100
AcDbEllipse
 10
54.6618065397
 20
375.4668889143
 30
0.0
 11
0.07575649843840226
 21
-0.07575649843841008
 31
0.0
210
0.0
220
0.0
230
1.0
 40
0.8616551265
 41
3.852814323777398
 42
5.423610650572271
  0
ELLIPSE
  5
C5
330
72
100
AcDbEntity
  8
$DDT_AUDIT_GENERATED_(9B)
  6
Continuous
 62
     7
100
AcDbEllipse
 10
54.6618065397
 20
375.6938819386
 30
0.0
 11
-0.07575649843840054
 21
-0.07575649843841008
 31
0.0
210
0.0
220
0.0
230
1.0
 40
0.8616551265
 41
0.859574656607296
 42
2.430370983402192
  0
ELLIPSE
  5
C6
330
72
100
AcDbEntity
  8
$DDT_AUDIT_GENERATED_(9B)
  6
Continuous
 62
     7
100
AcDbEllipse
 10
54.6618065397
 20
375.6938819386
 30
0.0
 11
0.07575649843840487
 21
-0.07575649843840487
 31
0.0
210
0.0
220
0.0
230
0.9999999999999998
 40
0.8616551265
 41
3.852814323777261
 42
5.423610650572241
  0
ELLIPSE
  5
C7
330
72
100
AcDbEntity
  8
$DDT_AUDIT_GENERATED_(9B)
  6
Continuous
 62
     7
100
AcDbEllipse
 10
54.6618065397
 20
375.9208749628
 30
0.0
 11
-0.07575649843840314
 21
-0.07575649843840661
 31
0.0
210
0.0
220
0.0
230
1.0
 40
0.8616551265
 41
0.8595746566073255
 42
2.430370983402808
  0
ELLIPSE
  5
C8
330
72
100
AcDbEntity
  8
$DDT_AUDIT_GENERATED_(9B)
  6
Continuous
 62
     7
100
AcDbEllipse
 10
54.6618065397
 20
375.9208749628
 30
0.0
 11
0.075756498438404
 21
-0.07575649843840659
 31
0.0
210
0.0
220
0.0
230
1.0
 40
0.8616551265
 41
3.852814323776709
 42
5.42361065057225
  0
ELLIPSE
  5
C9
330
72
100
AcDbEntity
  8
$DDT_AUDIT_GENERATED_(9B)
  6
Continuous
 62
     7
100
AcDbEllipse
 10
54.6618065397
 20
376.147867987
 30
0.0
 11
-0.07575649843840572
 21
-0.07575649843840312
 31
0.0
210
0.0
220
0.0
230
1.0
 40
0.8616551265
 41
0.8595746566072933
 42
2.430370983402202
  0
ELLIPSE
  5
CA
330
72
100
AcDbEntity
  8
$DDT_AUDIT_GENERATED_(9B)
  6
Continuous
 62
     7
100
AcDbEllipse
 10
54.6618065397
 20
376.147867987
 30
0.0
 11
0.07575649843840572
 21
-0.07575649843840312
 31
0.0
210
0.0
220
0.0
230
1.0
 40
0.8616551265
 41
3.852814323777312
 42
5.423610650572293
  0
ELLIPSE
  5
CB
330
72
100
AcDbEntity
  8
$DDT_AUDIT_GENERATED_(9B)
  6
Continuous
 62
     7
100
AcDbEllipse
 10
56.1975208254
 20
376.3748610113
 30
0.0
 11
-0.07575649843840618
 21
-0.07575649843840312
 31
0.0
210
0.0
220
0.0
230
1.0
 40
0.8616551265
 41
0.859574656607298
 42
1.531826069600249
  0
ELLIPSE
  5
CC
330
72
100
AcDbEntity
  8
$DDT_AUDIT_GENERATED_(9B)
  6
Continuous
 62
     7
100
AcDbEllipse
 10
56.1975208254
 20
376.3748610113
 30
0.0
 11
0.07575649843840097
 21
-0.07575649843841008
 31
0.0
210
0.0
220
0.0
230
1.0
 40
0.8616551265
 41
4.815206690631141
 42
5.423610650572347
  0
ELLIPSE
  5
CD
330
72
100
AcDbEntity
  8
$DDT_AUDIT_GENERATED_(9B)
  6
Continuous
 62
     7
100
AcDbEllipse
 10
56.1975208254
 20
376.147867987
 30
0.0
 11
-0.07575649843840357
 21
-0.07575649843840661
 31
0.0
210
0.0
220
0.0
230
1.0
 40
0.8616551265
 41
0.8595746566072066
 42
2.430370983402232
  0
ELLIPSE
  5
CE
330
72
100
AcDbEntity
  8
$DDT_AUDIT_GENERATED_(9B)
  6
Continuous
 62
     7
100
AcDbEllipse
 10
56.1975208254
 20
376.147867987
 30
0.0
 11
0.07575649843840618
 21
-0.07575649843840312
 31
0.0
210
0.0
220
0.0
230
1.0
 40
0.8616551265
 41
3.852814323777384
 42
5.423610650572289
  0
ELLIPSE
  5
CF
330
72
100
AcDbEntity
  8
$DDT_AUDIT_GENERATED_(9B)
  6
Continuous
 62
     7
100
AcDbEllipse
 10
56.1975208254
 20
375.9208749628
 30
0.0
 11
-0.07575649843840748
 21
-0.07575649843840314
 31
0.0
210
0.0
220
0.0
230
0.9999999999999999
 40
0.8616551265
 41
0.859574656607375
 42
2.430370983402774
  0
ELLIPSE
  5
D0
330
72
100
AcDbEntity
  8
$DDT_AUDIT_GENERATED_(9B)
  6
Continuous
 62
     7
100
AcDbEllipse
 10
56.1975208254
 20
375.9208749628
 30
0.0
 11
0.07575649843840965
 21
-0.07575649843839967
 31
0.0
210
0.0
220
0.0
230
1.0
 40
0.8616551265
 41
3.852814323776698
 42
5.423610650572249
  0
ELLIPSE
  5
D1
330
72
100
AcDbEntity
  8
$DDT_AUDIT_GENERATED_(9B)
  6
Continuous
 62
     7
100
AcDbEllipse
 10
56.1975208254
 20
375.6938819386
 30
0.0
 11
-0.07575649843840487
 21
-0.07575649843840834
 31
0.0
210
0.0
220
0.0
230
1.0
 40
0.8616551265
 41
0.8595746566073452
 42
2.430370983402207
  0
ELLIPSE
  5
D2
330
72
100
AcDbEntity
  8
$DDT_AUDIT_GENERATED_(9B)
  6
Continuous
 62
     7
100
AcDbEllipse
 10
56.1975208254
 20
375.6938819386
 30
0.0
 11
0.07575649843840834
 21
-0.0757564984384014
 31
0.0
210
0.0
220
0.0
230
1.0
 40
0.8616551265
 41
3.852814323777294
 42
5.423610650572201
  0
ELLIPSE
  5
D3
330
72
100
AcDbEntity
  8
$DDT_AUDIT_GENERATED_(9B)
  6
Continuous
 62
     7
100
AcDbEllipse
 10
56.1975208254
 20
375.4668889143
 30
0.0
 11
-0.07575649843840573
 21
-0.07575649843840487
 31
0.0
210
0.0
220
0.0
230
1.0
 40
0.8616551265
 41
0.8595746566073551
 42
2.430370983402251
  0
ELLIPSE
  5
D4
330
72
100
AcDbEntity
  8
$DDT_AUDIT_GENERATED_(9B)
  6
Continuous
 62
     7
100
AcDbEllipse
 10
56.1975208254
 20
375.4668889143
 30
0.0
 11
0.07575649843840618
 21
-0.07575649843840312
 31
0.0
210
0.0
220
0.0
230
1.0
 40
0.8616551265
 41
3.852814323777384
 42
5.423610650572226
  0
ELLIPSE
  5
D5
330
72
100
AcDbEntity
  8
$DDT_AUDIT_GENERATED_(9B)
  6
Continuous
 62
     7
100
AcDbEllipse
 10
56.1975208254
 20
375.2398958901
 30
0.0
 11
-0.07575649843840097
 21
-0.07575649843841181
 31
0.0
210
0.0
220
0.0
230
1.0
 40
0.8616551265
 41
0.8595746566073008
 42
2.430370983402168
  0
ELLIPSE
  5
D6
330
72
100
AcDbEntity
  8
$DDT_AUDIT_GENERATED_(9B)
  6
Continuous
 62
     7
100
AcDbEllipse
 10
56.1975208254
 20
375.2398958901
 30
0.0
 11
0.07575649843840183
 21
-0.07575649843841008
 31
0.0
210
0.0
220
0.0
230
1.0
 40
0.8616551265
 41
3.852814323777469
 42
5.423610650572275
  0
ELLIPSE
  5
D7
330
72
100
AcDbEntity
  8
$DDT_AUDIT_GENERATED_(9B)
  6
Continuous
 62
     7
100
AcDbEllipse
 10
56.1975208254
 20
375.0129028659
 30
0.0
 11
-0.07575649843840271
 21
-0.07575649843840487
 31
0.0
210
0.0
220
0.0
230
0.9999999999999999
 40
0.8616551265
 41
0.8595746566073206
 42
2.430370983401611
  0
ELLIPSE
  5
D8
330
72
100
AcDbEntity
  8
$DDT_AUDIT_GENERATED_(9B)
  6
Continuous
 62
     7
100
AcDbEllipse
 10
56.1975208254
 20
375.0129028659
 30
0.0
 11
0.07575649843840401
 21
-0.07575649843840487
 31
0.0
210
0.0
220
0.0
230
1.0
 40
0.8616551265
 41
3.852814323777906
 42
5.423610650572684
  0
ELLIPSE
  5
D9
330
72
100
AcDbEntity
  8
$DDT_AUDIT_GENERATED_(9B)
  6
Continuous
 62
     7
100
AcDbEllipse
 10
56.1975208254
 20
374.7859098416
 30
0.0
 11
-0.0757564984384001
 21
-0.07575649843841181
 31
0.0
210
0.0
220
0.0
230
1.0
 40
0.8616551265
 41
0.8595746566072289
 42
2.43037098340217
  0
ELLIPSE
  5
DA
330
72
100
AcDbEntity
  8
$DDT_AUDIT_GENERATED_(9B)
  6
Continuous
 62
     7
100
AcDbEllipse
 10
56.1975208254
 20
374.7859098416
 30
0.0
 11
0.0757564984383975
 21
-0.07575649843841181
 31
0.0
210
0.0
220
0.0
230
1.0
 40
0.8616551265
 41
3.852814323777412
 42
5.423610650572325
  0
ELLIPSE
  5
DB
330
72
100
AcDbEntity
  8
$DDT_AUDIT_GENERATED_(9B)
  6
Continuous
 62
     7
100
AcDbEllipse
 10
56.1975208254
 20
374.5589168174
 30
0.0
 11
-0.07575649843840748
 21
-0.0757564984384014
 31
0.0
210
0.0
220
0.0
230
1.0
 40
0.8616551265
 41
0.8595746566068178
 42
2.430370983401719
  0
ELLIPSE
  5
DC
330
72
100
AcDbEntity
  8
$DDT_AUDIT_GENERATED_(9B)
  6
Continuous
 62
     7
100
AcDbEllipse
 10
56.1975208254
 20
374.5589168174
 30
0.0
 11
0.07575649843840271
 21
-0.07575649843840834
 31
0.0
210
0.0
220
0.0
230
0.9999999999999998
 40
0.8616551265
 41
3.852814323777447
 42
5.423610650572761
  0
ELLIPSE
  5
DD
330
72
100
AcDbEntity
  8
$DDT_AUDIT_GENERATED_(9B)
  6
Continuous
 62
     7
100
AcDbEllipse
 10
57.7332351111
 20
374.3319237932
 30
0.0
 11
0.07575649843866594
 21
0.07575649843826956
 31
0.0
210
0.0
220
0.0
230
1.0
 40
0.8616551265
 41
5.316078080917732
 42
5.571963636994127
  0
ELLIPSE
  5
DE
330
72
100
AcDbEntity
  8
$DDT_AUDIT_GENERATED_(9B)
  6
Continuous
 62
     7
100
AcDbEllipse
 10
57.7332351111
 20
374.5589168174
 30
0.0
 11
-0.07575649843840812
 21
-0.0757564984384014
 31
0.0
210
0.0
220
0.0
230
1.0
 40
0.8616551265
 41
0.8595746566068251
 42
2.430370983401718
  0
ELLIPSE
  5
DF
330
72
100
AcDbEntity
  8
$DDT_AUDIT_GENERATED_(9B)
  6
Continuous
 62
     7
100
AcDbEllipse
 10
57.7332351111
 20
374.5589168174
 30
0.0
 11
0.07575649843840292
 21
-0.07575649843840834
 31
0.0
210
0.0
220
0.0
230
0.9999999999999998
 40
0.8616551265
 41
3.852814323778023
 42
5.423610650572758
  0
ELLIPSE
  5
E0
330
72
100
AcDbEntity
  8
$DDT_AUDIT_GENERATED_(9B)
  6
Continuous
 62
     7
100
AcDbEllipse
 10
57.7332351111
 20
374.7859098416
 30
0.0
 11
-0.07575649843839946
 21
-0.07575649843841183
 31
0.0
210
0.0
220
0.0
230
1.0
 40
0.8616551265
 41
0.8595746566072834
 42
2.430370983402171
  0
ELLIPSE
  5
E1
330
72
100
AcDbEntity
  8
$DDT_AUDIT_GENERATED_(9B)
  6
Continuous
 62
     7
100
AcDbEllipse
 10
57.7332351111
 20
374.7859098416
 30
0.0
 11
0.0757564984383986
 21
-0.07575649843841183
 31
0.0
210
0.0
220
0.0
230
0.9999999999999999
 40
0.8616551265
 41
3.852814323777414
 42
5.423610650572375
  0
ELLIPSE
  5
E2
330
72
100
AcDbEntity
  8
$DDT_AUDIT_GENERATED_(9B)
  6
Continuous
 62
     7
100
AcDbEllipse
 10
57.7332351111
 20
375.0129028659
 30
0.0
 11
-0.07575649843840336
 21
-0.07575649843840487
 31
0.0
210
0.0
220
0.0
230
1.0
 40
0.8616551265
 41
0.8595746566068947
 42
2.430370983401609
  0
ELLIPSE
  5
E3
330
72
100
AcDbEntity
  8
$DDT_AUDIT_GENERATED_(9B)
  6
Continuous
 62
     7
100
AcDbEllipse
 10
57.7332351111
 20
375.0129028659
 30
0.0
 11
0.07575649843840594
 21
-0.07575649843840139
 31
0.0
210
0.0
220
0.0
230
1.0
 40
0.8616551265
 41
3.852814323777936
 42
5.423610650572167
  0
ELLIPSE
  5
E4
330
72
100
AcDbEntity
  8
$DDT_AUDIT_GENERATED_(9B)
  6
Continuous
 62
     7
100
AcDbEllipse
 10
57.7332351111
 20
375.2398958901
 30
0.0
 11
-0.07575649843840075
 21
-0.07575649843841181
 31
0.0
210
0.0
220
0.0
230
1.0
 40
0.8616551265
 41
0.8595746566072981
 42
2.430370983402169
  0
ELLIPSE
  5
E5
330
72
100
AcDbEntity
  8
$DDT_AUDIT_GENERATED_(9B)
  6
Continuous
 62
     7
100
AcDbEllipse
 10
57.7332351111
 20
375.2398958901
 30
0.0
 11
0.07575649843840054
 21
-0.07575649843841181
 31
0.0
210
0.0
220
0.0
230
1.0
 40
0.8616551265
 41
3.852814323777417
 42
5.42361065057229
  0
ELLIPSE
  5
E6
330
72
100
AcDbEntity
  8
$DDT_AUDIT_GENERATED_(9B)
  6
Continuous
 62
     7
100
AcDbEllipse
 10
57.7332351111
 20
375.4668889143
 30
0.0
 11
-0.07575649843840596
 21
-0.07575649843840487
 31
0.0
210
0.0
220
0.0
230
1.0
 40
0.8616551265
 41
0.8595746566073575
 42
2.430370983402251
  0
ELLIPSE
  5
E7
330
72
100
AcDbEntity
  8
$DDT_AUDIT_GENERATED_(9B)
  6
Continuous
 62
     7
100
AcDbEllipse
 10
57.7332351111
 20
375.4668889143
 30
0.0
 11
0.07575649843840725
 21
-0.07575649843840312
 31
0.0
210
0.0
220
0.0
230
1.0
 40
0.8616551265
 41
3.852814323777387
 42
5.423610650572214
  0
ELLIPSE
  5
E8
330
72
100
AcDbEntity
  8
$DDT_AUDIT_GENERATED_(9B)
  6
Continuous
 62
     7
100
AcDbEllipse
 10
57.7332351111
 20
375.6938819386
 30
0.0
 11
-0.07575649843840682
 21
-0.07575649843840312
 31
0.0
210
0.0
220
0.0
230
1.0
 40
0.8616551265
 41
0.8595746566073673
 42
2.4303709834022
  0
ELLIPSE
  5
E9
330
72
100
AcDbEntity
  8
$DDT_AUDIT_GENERATED_(9B)
  6
Continuous
 62
     7
100
AcDbEllipse
 10
57.7332351111
 20
375.6938819386
 30
0.0
 11
0.075756498438404
 21
-0.07575649843840659
 31
0.0
210
0.0
220
0.0
230
1.0
 40
0.8616551265
 41
3.852814323777355
 42
5.42361065057225
  0
ELLIPSE
  5
EA
330
72
100
AcDbEntity
  8
$DDT_AUDIT_GENERATED_(9B)
  6
Continuous
 62
     7
100
AcDbEllipse
 10
57.7332351111
 20
375.9208749628
 30
0.0
 11
-0.07575649843840812
 21
-0.0757564984384014
 31
0.0
210
0.0
220
0.0
230
1.0
 40
0.8616551265
 41
0.8595746566073822
 42
2.430370983402868
  0
ELLIPSE
  5
EB
330
72
100
AcDbEntity
  8
$DDT_AUDIT_GENERATED_(9B)
  6
Continuous
 62
     7
100
AcDbEllipse
 10
57.7332351111
 20
375.9208749628
 30
0.0
 11
0.07575649843840487
 21
-0.07575649843840487
 31
0.0
210
0.0
220
0.0
230
0.9999999999999998
 40
0.8616551265
 41
3.852814323776759
 42
5.423610650572241
  0
ELLIPSE
  5
EC
330
72
100
AcDbEntity
  8
$DDT_AUDIT_GENERATED_(9B)
  6
Continuous
 62
     7
100
AcDbEllipse
 10
57.7332351111
 20
376.147867987
 30
0.0
 11
-0.07575649843840422
 21
-0.07575649843840659
 31
0.0
210
0.0
220
0.0
230
1.0
 40
0.8616551265
 41
0.8595746566072139
 42
2.430370983402231
  0
ELLIPSE
  5
ED
330
72
100
AcDbEntity
  8
$DDT_AUDIT_GENERATED_(9B)
  6
Continuous
 62
     7
100
AcDbEllipse
 10
57.7332351111
 20
376.147867987
 30
0.0
 11
0.07575649843840618
 21
-0.07575649843840312
 31
0.0
210
0.0
220
0.0
230
1.0
 40
0.8616551265
 41
3.852814323777384
 42
5.423610650572289
  0
ELLIPSE
  5
EE
330
72
100
AcDbEntity
  8
$DDT_AUDIT_GENERATED_(9B)
  6
Continuous
 62
     7
100
AcDbEllipse
 10
57.7332351111
 20
376.3748610113
 30
0.0
 11
-0.07575649843840336
 21
-0.07575649843840834
 31
0.0
210
0.0
220
0.0
230
1.0
 40
0.8616551265
 41
0.8595746566072041
 42
2.022292552646339
  0
ELLIPSE
  5
EF
330
72
100
AcDbEntity
  8
$DDT_AUDIT_GENERATED_(9B)
  6
Continuous
 62
     7
100
AcDbEllipse
 10
57.7332351111
 20
376.3748610113
 30
0.0
 11
0.07575649843840618
 21
-0.07575649843840312
 31
0.0
210
0.0
220
0.0
230
1.0
 40
0.8616551265
 41
4.295955574490337
 42
5.423610650572289
  0
ELLIPSE
  5
F0
330
72
100
AcDbEntity
  8
$DDT_AUDIT_GENERATED_(9B)
  6
Continuous
 62
     7
100
AcDbEllipse
 10
59.2689493968
 20
374.3319237932
 30
0.0
 11
-0.07575649843840594
 21
-0.07575649843840487
 31
0.0
210
0.0
220
0.0
230
0.9999999999999998
 40
0.8616551265
 41
1.614342964576845
 42
2.430370983402323
  0
ELLIPSE
  5
F1
330
72
100
AcDbEntity
  8
$DDT_AUDIT_GENERATED_(9B)
  6
Continuous
 62
     7
100
AcDbEllipse
 10
59.2689493968
 20
374.3319237932
 30
0.0
 11
-0.07575649843840498
 21
0.07575649843840487
 31
0.0
210
0.0
220
0.0
230
1.0
 40
0.8616551265
 41
0.7112216701875406
 42
1.527249688999669
  0
ELLIPSE
  5
F2
330
72
100
AcDbEntity
  8
$DDT_AUDIT_GENERATED_(9B)
  6
Continuous
 62
     7
100
AcDbEllipse
 10
59.2689493968
 20
376.3748610113
 30
0.0
 11
-0.07575649843840272
 21
-0.07575649843840834
 31
0.0
210
0.0
220
0.0
230
1.0
 40
0.8616551265
 41
0.8595746566071968
 42
2.430370983402785
  0
ELLIPSE
  5
F3
330
72
100
AcDbEntity
  8
$DDT_AUDIT_GENERATED_(9B)
  6
Continuous
 62
     7
100
AcDbEllipse
 10
59.2689493968
 20
376.3748610113
 30
0.0
 11
0.07575649843840288
 21
-0.07575649843840834
 31
0.0
210
0.0
220
0.0
230
1.0
 40
0.8616551265
 41
3.852814323776873
 42
5.423610650572326
  0
ELLIPSE
  5
F4
330
72
100
AcDbEntity
  8
$DDT_AUDIT_GENERATED_(9B)
  6
Continuous
 62
     7
100
AcDbEllipse
 10
59.2689493968
 20
376.147867987
 30
0.0
 11
-0.07575649843840576
 21
-0.07575649843840314
 31
0.0
210
0.0
220
0.0
230
1.0
 40
0.8616551265
 41
0.8595746566072934
 42
2.430370983402274
  0
ELLIPSE
  5
F5
330
72
100
AcDbEntity
  8
$DDT_AUDIT_GENERATED_(9B)
  6
Continuous
 62
     7
100
AcDbEllipse
 10
59.2689493968
 20
376.147867987
 30
0.0
 11
0.07575649843840435
 21
-0.07575649843840661
 31
0.0
210
0.0
220
0.0
230
1.0
 40
0.8616551265
 41
3.85281432377678
 42
5.423610650572309
  0
ELLIPSE
  5
F6
330
72
100
AcDbEntity
  8
$DDT_AUDIT_GENERATED_(9B)
  6
Continuous
 62
     7
100
AcDbEllipse
 10
59.2689493968
 20
375.9208749628
 30
0.0
 11
-0.07575649843840412
 21
-0.07575649843840487
 31
0.0
210
0.0
220
0.0
230
0.9999999999999998
 40
0.8616551265
 41
0.8595746566073368
 42
2.430370983402901
  0
ELLIPSE
  5
F7
330
72
100
AcDbEntity
  8
$DDT_AUDIT_GENERATED_(9B)
  6
Continuous
 62
     7
100
AcDbEllipse
 10
59.2689493968
 20
375.9208749628
 30
0.0
 11
0.07575649843840422
 21
-0.07575649843840662
 31
0.0
210
0.0
220
0.0
230
1.0
 40
0.8616551265
 41
3.85281432377678
 42
5.423610650572249
  0
ELLIPSE
  5
F8
330
72
100
AcDbEntity
  8
$DDT_AUDIT_GENERATED_(9B)
  6
Continuous
 62
     7
100
AcDbEllipse
 10
59.2689493968
 20
375.6938819386
 30
0.0
 11
-0.07575649843840354
 21
-0.07575649843840661
 31
0.0
210
0.0
220
0.0
230
1.0
 40
0.8616551265
 41
0.85957465660733
 42
2.430370983402304
  0
ELLIPSE
  5
F9
330
72
100
AcDbEntity
  8
$DDT_AUDIT_GENERATED_(9B)
  6
Continuous
 62
     7
100
AcDbEllipse
 10
59.2689493968
 20
375.6938819386
 30
0.0
 11
0.0757564984384038
 21
-0.07575649843840661
 31
0.0
210
0.0
220
0.0
230
1.0
 40
0.8616551265
 41
3.85281432377678
 42
5.423610650572253
  0
ELLIPSE
  5
FA
330
72
100
AcDbEntity
  8
$DDT_AUDIT_GENERATED_(9B)
  6
Continuous
 62
     7
100
AcDbEllipse
 10
59.2689493968
 20
375.4668889143
 30
0.0
 11
-0.07575649843840598
 21
-0.07575649843840486
 31
0.0
210
0.0
220
0.0
230
1.0
 40
0.8616551265
 41
0.8595746566073581
 42
2.430370983402322
  0
ELLIPSE
  5
FB
330
72
100
AcDbEntity
  8
$DDT_AUDIT_GENERATED_(9B)
  6
Continuous
 62
     7
100
AcDbEllipse
 10
59.2689493968
 20
375.4668889143
 30
0.0
 11
0.07575649843840608
 21
-0.07575649843840314
 31
0.0
210
0.0
220
0.0
230
1.0
 40
0.8616551265
 41
3.852814323777384
 42
5.423610650572227
  0
ELLIPSE
  5
FC
330
72
100
AcDbEntity
  8
$DDT_AUDIT_GENERATED_(9B)
  6
Continuous
 62
     7
100
AcDbEllipse
 10
59.2689493968
 20
375.2398958901
 30
0.0
 11
-0.07575649843840028
 21
-0.07575649843841181
 31
0.0
210
0.0
220
0.0
230
0.9999999999999998
 40
0.8616551265
 41
0.859574656607293
 42
2.430370983401666
  0
ELLIPSE
  5
FD
330
72
100
AcDbEntity
  8
$DDT_AUDIT_GENERATED_(9B)
  6
Continuous
 62
     7
100
AcDbEllipse
 10
59.2689493968
 20
375.2398958901
 30
0.0
 11
0.07575649843840032
 21
-0.07575649843841181
 31
0.0
210
0.0
220
0.0
230
0.9999999999999998
 40
0.8616551265
 41
3.852814323777417
 42
5.423610650572293
  0
ELLIPSE
  5
FE
330
72
100
AcDbEntity
  8
$DDT_AUDIT_GENERATED_(9B)
  6
Continuous
 62
     7
100
AcDbEllipse
 10
59.2689493968
 20
375.0129028659
 30
0.0
 11
-0.07575649843840356
 21
-0.07575649843840487
 31
0.0
210
0.0
220
0.0
230
1.0
 40
0.8616551265
 41
0.8595746566073302
 42
2.430370983401752
  0
ELLIPSE
  5
FF
330
72
100
AcDbEntity
  8
$DDT_AUDIT_GENERATED_(9B)
  6
Continuous
 62
     7
100
AcDbEllipse
 10
59.2689493968
 20
375.0129028659
 30
0.0
 11
0.07575649843840537
 21
-0.07575649843840487
 31
0.0
210
0.0
220
0.0
230
0.9999999999999998
 40
0.8616551265
 41
3.852814323777909
 42
5.423610650572173
  0
ELLIPSE
  5
100
330
72
100
AcDbEntity
  8
$DDT_AUDIT_GENERATED_(9B)
  6
Continuous
 62
     7
100
AcDbEllipse
 10
59.2689493968
 20
374.7859098416
 30
0.0
 11
-0.07575649843839904
 21
-0.07575649843841181
 31
0.0
210
0.0
220
0.0
230
1.0
 40
0.8616551265
 41
0.8595746566072789
 42
2.430370983402244
  0
ELLIPSE
  5
101
330
72
100
AcDbEntity
  8
$DDT_AUDIT_GENERATED_(9B)
  6
Continuous
 62
     7
100
AcDbEllipse
 10
59.2689493968
 20
374.7859098416
 30
0.0
 11
0.07575649843839909
 21
-0.07575649843841181
 31
0.0
210
0.0
220
0.0
230
1.0
 40
0.8616551265
 41
3.852814323777415
 42
5.423610650572307
  0
ELLIPSE
  5
102
330
72
100
AcDbEntity
  8
$DDT_AUDIT_GENERATED_(9B)
  6
Continuous
 62
     7
100
AcDbEllipse
 10
59.2689493968
 20
374.5589168174
 30
0.0
 11
-0.07575649843840818
 21
-0.07575649843840139
 31
0.0
210
0.0
220
0.0
230
1.0
 40
0.8616551265
 41
0.8595746566068257
 42
2.43037098340179
  0
ELLIPSE
  5
103
330
72
100
AcDbEntity
  8
$DDT_AUDIT_GENERATED_(9B)
  6
Continuous
 62
     7
100
AcDbEllipse
 10
59.2689493968
 20
374.5589168174
 30
0.0
 11
0.07575649843840225
 21
-0.07575649843840834
 31
0.0
210
0.0
220
0.0
230
0.9999999999999998
 40
0.8616551265
 41
3.852814323778021
 42
5.423610650572766
  0
ELLIPSE
  5
104
330
72
100
AcDbEntity
  8
$DDT_AUDIT_GENERATED_(9B)
  6
Continuous
 62
     7
100
AcDbEllipse
 10
60.8046636825
 20
374.3319237932
 30
0.0
 11
-0.07575649843789985
 21
0.07575649843857835
 31
0.0
210
0.0
220
0.0
230
1.0
 40
0.8616551265
 41
0.7112216701917331
 42
0.9671072262691324
  0
ELLIPSE
  5
105
330
72
100
AcDbEntity
  8
$DDT_AUDIT_GENERATED_(9B)
  6
Continuous
 62
     7
100
AcDbEllipse
 10
60.8046636825
 20
374.5589168174
 30
0.0
 11
-0.07575649843840812
 21
-0.0757564984384014
 31
0.0
210
0.0
220
0.0
230
1.0
 40
0.8616551265
 41
0.8595746566068251
 42
2.430370983401718
  0
ELLIPSE
  5
106
330
72
100
AcDbEntity
  8
$DDT_AUDIT_GENERATED_(9B)
  6
Continuous
 62
     7
100
AcDbEllipse
 10
60.8046636825
 20
374.5589168174
 30
0.0
 11
0.07575649843840249
 21
-0.07575649843840834
 31
0.0
210
0.0
220
0.0
230
1.0
 40
0.8616551265
 41
3.852814323778022
 42
5.423610650572764
  0
ELLIPSE
  5
107
330
72
100
AcDbEntity
  8
$DDT_AUDIT_GENERATED_(9B)
  6
Continuous
 62
     7
100
AcDbEllipse
 10
60.8046636825
 20
374.7859098416
 30
0.0
 11
-0.0757564984383986
 21
-0.07575649843841183
 31
0.0
210
0.0
220
0.0
230
0.9999999999999999
 40
0.8616551265
 41
0.8595746566072118
 42
2.430370983402173
  0
ELLIPSE
  5
108
330
72
100
AcDbEntity
  8
$DDT_AUDIT_GENERATED_(9B)
  6
Continuous
 62
     7
100
AcDbEllipse
 10
60.8046636825
 20
374.7859098416
 30
0.0
 11
0.07575649843839946
 21
-0.07575649843841183
 31
0.0
210
0.0
220
0.0
230
1.0
 40
0.8616551265
 41
3.852814323777415
 42
5.423610650572365
  0
ELLIPSE
  5
109
330
72
100
AcDbEntity
  8
$DDT_AUDIT_GENERATED_(9B)
  6
Continuous
 62
     7
100
AcDbEllipse
 10
60.8046636825
 20
375.0129028659
 30
0.0
 11
-0.07575649843840336
 21
-0.07575649843840487
 31
0.0
210
0.0
220
0.0
230
1.0
 40
0.8616551265
 41
0.8595746566073281
 42
2.430370983401609
  0
ELLIPSE
  5
10A
330
72
100
AcDbEntity
  8
$DDT_AUDIT_GENERATED_(9B)
  6
Continuous
 62
     7
100
AcDbEllipse
 10
60.8046636825
 20
375.0129028659
 30
0.0
 11
0.07575649843840553
 21
-0.07575649843840487
 31
0.0
210
0.0
220
0.0
230
1.0
 40
0.8616551265
 41
3.852814323777909
 42
5.423610650572233
  0
ELLIPSE
  5
10B
330
72
100
AcDbEntity
  8
$DDT_AUDIT_GENERATED_(9B)
  6
Continuous
 62
     7
100
AcDbEllipse
 10
60.8046636825
 20
375.2398958901
 30
0.0
 11
-0.07575649843840054
 21
-0.07575649843841181
 31
0.0
210
0.0
220
0.0
230
1.0
 40
0.8616551265
 41
0.859574656607296
 42
2.430370983402169
  0
ELLIPSE
  5
10C
330
72
100
AcDbEntity
  8
$DDT_AUDIT_GENERATED_(9B)
  6
Continuous
 62
     7
100
AcDbEllipse
 10
60.8046636825
 20
375.2398958901
 30
0.0
 11
0.07575649843840054
 21
-0.07575649843841181
 31
0.0
210
0.0
220
0.0
230
1.0
 40
0.8616551265
 41
3.852814323777417
 42
5.42361065057229
  0
ELLIPSE
  5
10D
330
72
100
AcDbEntity
  8
$DDT_AUDIT_GENERATED_(9B)
  6
Continuous
 62
     7
100
AcDbEllipse
 10
60.8046636825
 20
375.4668889143
 30
0.0
 11
-0.07575649843840639
 21
-0.07575649843840314
 31
0.0
210
0.0
220
0.0
230
1.0
 40
0.8616551265
 41
0.859574656606929
 42
2.430370983401626
  0
ELLIPSE
  5
10E
330
72
100
AcDbEntity
  8
$DDT_AUDIT_GENERATED_(9B)
  6
Continuous
 62
     7
100
AcDbEllipse
 10
60.8046636825
 20
375.4668889143
 30
0.0
 11
0.07575649843840618
 21
-0.07575649843840312
 31
0.0
210
0.0
220
0.0
230
1.0
 40
0.8616551265
 41
3.852814323777384
 42
5.423610650572226
  0
ELLIPSE
  5
10F
330
72
100
AcDbEntity
  8
$DDT_AUDIT_GENERATED_(9B)
  6
Continuous
 62
     7
100
AcDbEllipse
 10
60.8046636825
 20
375.6938819386
 30
0.0
 11
-0.07575649843840357
 21
-0.07575649843840661
 31
0.0
210
0.0
220
0.0
230
1.0
 40
0.8616551265
 41
0.8595746566073305
 42
2.430370983402232
  0
ELLIPSE
  5
110
330
72
100
AcDbEntity
  8
$DDT_AUDIT_GENERATED_(9B)
  6
Continuous
 62
     7
100
AcDbEllipse
 10
60.8046636825
 20
375.6938819386
 30
0.0
 11
0.075756498438404
 21
-0.07575649843840659
 31
0.0
210
0.0
220
0.0
230
1.0
 40
0.8616551265
 41
3.852814323777355
 42
5.42361065057225
  0
ELLIPSE
  5
111
330
72
100
AcDbEntity
  8
$DDT_AUDIT_GENERATED_(9B)
  6
Continuous
 62
     7
100
AcDbEllipse
 10
60.8046636825
 20
375.9208749628
 30
0.0
 11
-0.07575649843840812
 21
-0.0757564984384014
 31
0.0
210
0.0
220
0.0
230
1.0
 40
0.8616551265
 41
0.8595746566073822
 42
2.430370983402868
  0
ELLIPSE
  5
112
330
72
100
AcDbEntity
  8
$DDT_AUDIT_GENERATED_(9B)
  6
Continuous
 62
     7
100
AcDbEllipse
 10
60.8046636825
 20
375.9208749628
 30
0.0
 11
0.07575649843840357
 21
-0.07575649843840661
 31
0.0
210
0.0
220
0.0
230
1.0
 40
0.8616551265
 41
3.852814323776779
 42
5.423610650572256
  0
ELLIPSE
  5
113
330
72
100
AcDbEntity
  8
$DDT_AUDIT_GENERATED_(9B)
  6
Continuous
 62
     7
100
AcDbEllipse
 10
60.8046636825
 20
376.147867987
 30
0.0
 11
-0.07575649843840118
 21
-0.07575649843841008
 31
0.0
210
0.0
220
0.0
230
1.0
 40
0.8616551265
 41
0.8595746566072415
 42
2.430370983402119
  0
ELLIPSE
  5
114
330
72
100
AcDbEntity
  8
$DDT_AUDIT_GENERATED_(9B)
  6
Continuous
 62
     7
100
AcDbEllipse
 10
60.8046636825
 20
376.147867987
 30
0.0
 11
0.07575649843840986
 21
-0.07575649843839793
 31
0.0
210
0.0
220
0.0
230
0.9999999999999998
 40
0.8616551265
 41
3.852814323776676
 42
5.423610650572246
  0
ELLIPSE
  5
115
330
72
100
AcDbEntity
  8
$DDT_AUDIT_GENERATED_(9B)
  6
Continuous
 62
     7
100
AcDbEllipse
 10
60.8046636825
 20
376.3748610113
 30
0.0
 11
-0.07575649843840336
 21
-0.07575649843840834
 31
0.0
210
0.0
220
0.0
230
1.0
 40
0.8616551265
 41
0.8595746566072041
 42
1.987229732689657
  0
ELLIPSE
  5
116
330
72
100
AcDbEntity
  8
$DDT_AUDIT_GENERATED_(9B)
  6
Continuous
 62
     7
100
AcDbEllipse
 10
60.8046636825
 20
376.3748610113
 30
0.0
 11
0.07575649843840163
 21
-0.07575649843841008
 31
0.0
210
0.0
220
0.0
230
1.0
 40
0.8616551265
 41
4.260892754533215
 42
5.423610650572278
  0
ELLIPSE
  5
117
330
72
100
AcDbEntity
  8
$DDT_AUDIT_GENERATED_(9B)
  6
Continuous
 62
     7
100
AcDbEllipse
 10
62.3403779682
 20
376.3748610113
 30
0.0
 11
-0.07575649843840487
 21
-0.07575649843840314
 31
0.0
210
0.0
220
0.0
230
1.0
 40
0.8616551265
 41
0.8595746566072833
 42
1.467978616548505
  0
ELLIPSE
  5
118
330
72
100
AcDbEntity
  8
$DDT_AUDIT_GENERATED_(9B)
  6
Continuous
 62
     7
100
AcDbEllipse
 10
62.3403779682
 20
376.3748610113
 30
0.0
 11
0.07575649843840097
 21
-0.07575649843841008
 31
0.0
210
0.0
220
0.0
230
1.0
 40
0.8616551265
 41
4.751359237579453
 42
5.423610650572347
  0
ELLIPSE
  5
119
330
72
100
AcDbEntity
  8
$DDT_AUDIT_GENERATED_(9B)
  6
Continuous
 62
     7
100
AcDbEllipse
 10
62.3403779682
 20
376.147867987
 30
0.0
 11
-0.07575649843840748
 21
-0.0757564984384014
 31
0.0
210
0.0
220
0.0
230
1.0
 40
0.8616551265
 41
0.859574656607313
 42
2.430370983402294
  0
ELLIPSE
  5
11A
330
72
100
AcDbEntity
  8
$DDT_AUDIT_GENERATED_(9B)
  6
Continuous
 62
     7
100
AcDbEllipse
 10
62.3403779682
 20
376.147867987
 30
0.0
 11
0.07575649843840618
 21
-0.07575649843840312
 31
0.0
210
0.0
220
0.0
230
1.0
 40
0.8616551265
 41
3.852814323777312
 42
5.423610650572289
  0
ELLIPSE
  5
11B
330
72
100
AcDbEntity
  8
$DDT_AUDIT_GENERATED_(9B)
  6
Continuous
 62
     7
100
AcDbEllipse
 10
62.3403779682
 20
375.9208749628
 30
0.0
 11
-0.07575649843840357
 21
-0.07575649843840661
 31
0.0
210
0.0
220
0.0
230
1.0
 40
0.8616551265
 41
0.8595746566073305
 42
2.430370983402807
  0
ELLIPSE
  5
11C
330
72
100
AcDbEntity
  8
$DDT_AUDIT_GENERATED_(9B)
  6
Continuous
 62
     7
100
AcDbEllipse
 10
62.3403779682
 20
375.9208749628
 30
0.0
 11
0.07575649843840487
 21
-0.07575649843840487
 31
0.0
210
0.0
220
0.0
230
0.9999999999999998
 40
0.8616551265
 41
3.852814323776687
 42
5.423610650572241
  0
ELLIPSE
  5
11D
330
72
100
AcDbEntity
  8
$DDT_AUDIT_GENERATED_(9B)
  6
Continuous
 62
     7
100
AcDbEllipse
 10
62.3403779682
 20
375.6938819386
 30
0.0
 11
-0.07575649843840314
 21
-0.07575649843840834
 31
0.0
210
0.0
220
0.0
230
0.9999999999999999
 40
0.8616551265
 41
0.8595746566073255
 42
2.43037098340221
  0
ELLIPSE
  5
11E
330
72
100
AcDbEntity
  8
$DDT_AUDIT_GENERATED_(9B)
  6
Continuous
 62
     7
100
AcDbEllipse
 10
62.3403779682
 20
375.6938819386
 30
0.0
 11
0.07575649843840965
 21
-0.0757564984384014
 31
0.0
210
0.0
220
0.0
230
1.0
 40
0.8616551265
 41
3.852814323777225
 42
5.423610650572187
  0
ELLIPSE
  5
11F
330
72
100
AcDbEntity
  8
$DDT_AUDIT_GENERATED_(9B)
  6
Continuous
 62
     7
100
AcDbEllipse
 10
62.3403779682
 20
375.4668889143
 30
0.0
 11
-0.07575649843840573
 21
-0.07575649843840487
 31
0.0
210
0.0
220
0.0
230
0.9999999999999998
 40
0.8616551265
 41
0.8595746566073551
 42
2.430370983402251
  0
ELLIPSE
  5
120
330
72
100
AcDbEntity
  8
$DDT_AUDIT_GENERATED_(9B)
  6
Continuous
 62
     7
100
AcDbEllipse
 10
62.3403779682
 20
375.4668889143
 30
0.0
 11
0.07575649843840618
 21
-0.07575649843840312
 31
0.0
210
0.0
220
0.0
230
1.0
 40
0.8616551265
 41
3.852814323777888
 42
5.42361065057266
  0
ELLIPSE
  5
121
330
72
100
AcDbEntity
  8
$DDT_AUDIT_GENERATED_(9B)
  6
Continuous
 62
     7
100
AcDbEllipse
 10
62.3403779682
 20
375.2398958901
 30
0.0
 11
-0.07575649843840097
 21
-0.07575649843841181
 31
0.0
210
0.0
220
0.0
230
1.0
 40
0.8616551265
 41
0.8595746566073008
 42
2.430370983402168
  0
ELLIPSE
  5
122
330
72
100
AcDbEntity
  8
$DDT_AUDIT_GENERATED_(9B)
  6
Continuous
 62
     7
100
AcDbEllipse
 10
62.3403779682
 20
375.2398958901
 30
0.0
 11
0.0757564984384014
 21
-0.07575649843841008
 31
0.0
210
0.0
220
0.0
230
1.0
 40
0.8616551265
 41
3.852814323777396
 42
5.423610650572281
  0
ELLIPSE
  5
123
330
72
100
AcDbEntity
  8
$DDT_AUDIT_GENERATED_(9B)
  6
Continuous
 62
     7
100
AcDbEllipse
 10
62.3403779682
 20
375.0129028659
 30
0.0
 11
-0.07575649843840444
 21
-0.07575649843840487
 31
0.0
210
0.0
220
0.0
230
0.9999999999999998
 40
0.8616551265
 41
0.8595746566074021
 42
2.430370983401679
  0
ELLIPSE
  5
124
330
72
100
AcDbEntity
  8
$DDT_AUDIT_GENERATED_(9B)
  6
Continuous
 62
     7
100
AcDbEllipse
 10
62.3403779682
 20
375.0129028659
 30
0.0
 11
0.07575649843840487
 21
-0.07575649843840487
 31
0.0
210
0.0
220
0.0
230
0.9999999999999998
 40
0.8616551265
 41
3.852814323777837
 42
5.423610650572117
  0
ELLIPSE
  5
125
330
72
100
AcDbEntity
  8
$DDT_AUDIT_GENERATED_(9B)
  6
Continuous
 62
     7
100
AcDbEllipse
 10
62.3403779682
 20
374.7859098416
 30
0.0
 11
-0.0757564984384001
 21
-0.07575649843841181
 31
0.0
210
0.0
220
0.0
230
1.0
 40
0.8616551265
 41
0.8595746566072289
 42
2.43037098340217
  0
ELLIPSE
  5
126
330
72
100
AcDbEntity
  8
$DDT_AUDIT_GENERATED_(9B)
  6
Continuous
 62
     7
100
AcDbEllipse
 10
62.3403779682
 20
374.7859098416
 30
0.0
 11
0.0757564984383975
 21
-0.07575649843841181
 31
0.0
210
0.0
220
0.0
230
1.0
 40
0.8616551265
 41
3.85281432377734
 42
5.423610650572325
  0
ELLIPSE
  5
127
330
72
100
AcDbEntity
  8
$DDT_AUDIT_GENERATED_(9B)
  6
Continuous
 62
     7
100
AcDbEllipse
 10
62.3403779682
 20
374.5589168174
 30
0.0
 11
-0.07575649843840748
 21
-0.0757564984384014
 31
0.0
210
0.0
220
0.0
230
1.0
 40
0.8616551265
 41
0.8595746566068178
 42
2.430370983401719
  0
ELLIPSE
  5
128
330
72
100
AcDbEntity
  8
$DDT_AUDIT_GENERATED_(9B)
  6
Continuous
 62
     7
100
AcDbEllipse
 10
62.3403779682
 20
374.5589168174
 30
0.0
 11
0.07575649843840226
 21
-0.07575649843840834
 31
0.0
210
0.0
220
0.0
230
1.0
 40
0.8616551265
 41
3.852814323777949
 42
5.423610650572765
  0
ELLIPSE
  5
129
330
72
100
AcDbEntity
  8
$DDT_AUDIT_GENERATED_(9B)
  6
Continuous
 62
     7
100
AcDbEllipse
 10
63.876092254
 20
374.5589168174
 30
0.0
 11
-0.07575649843839793
 21
-0.07575649843841181
 31
0.0
210
0.0
220
0.0
230
1.0
 40
0.8616551265
 41
0.8595746566065854
 42
2.430370983401599
  0
ELLIPSE
  5
12A
330
72
100
AcDbEntity
  8
$DDT_AUDIT_GENERATED_(9B)
  6
Continuous
 62
     7
100
AcDbEllipse
 10
63.876092254
 20
374.5589168174
 30
0.0
 11
0.07575649843839793
 21
-0.07575649843841181
 31
0.0
210
0.0
220
0.0
230
1.0
 40
0.8616551265
 41
3.852814323777987
 42
5.423610650572877
  0
ELLIPSE
  5
12B
330
72
100
AcDbEntity
  8
$DDT_AUDIT_GENERATED_(9B)
  6
Continuous
 62
     7
100
AcDbEllipse
 10
63.876092254
 20
374.7859098416
 30
0.0
 11
-0.07575649843840314
 21
-0.07575649843840487
 31
0.0
210
0.0
220
0.0
230
0.9999999999999998
 40
0.8616551265
 41
0.8595746566071399
 42
2.430370983401538
  0
ELLIPSE
  5
12C
330
72
100
AcDbEntity
  8
$DDT_AUDIT_GENERATED_(9B)
  6
Continuous
 62
     7
100
AcDbEllipse
 10
63.876092254
 20
374.7859098416
 30
0.0
 11
0.07575649843840487
 21
-0.07575649843840487
 31
0.0
210
0.0
220
0.0
230
0.9999999999999998
 40
0.8616551265
 41
3.852814323777333
 42
5.423610650572303
  0
ELLIPSE
  5
12D
330
72
100
AcDbEntity
  8
$DDT_AUDIT_GENERATED_(9B)
  6
Continuous
 62
     7
100
AcDbEllipse
 10
63.876092254
 20
375.0129028659
 30
0.0
 11
-0.07575649843839966
 21
-0.0757564984384118
 31
0.0
210
0.0
220
0.0
230
1.0
 40
0.8616551265
 41
0.8595746566063573
 42
2.430370983401596
  0
ELLIPSE
  5
12E
330
72
100
AcDbEntity
  8
$DDT_AUDIT_GENERATED_(9B)
  6
Continuous
 62
     7
100
AcDbEllipse
 10
63.876092254
 20
375.0129028659
 30
0.0
 11
0.07575649843840401
 21
-0.07575649843840487
 31
0.0
210
0.0
220
0.0
230
0.9999999999999998
 40
0.8616551265
 41
3.85281432377805
 42
5.423610650572684
  0
ELLIPSE
  5
12F
330
72
100
AcDbEntity
  8
$DDT_AUDIT_GENERATED_(9B)
  6
Continuous
 62
     7
100
AcDbEllipse
 10
63.876092254
 20
375.2398958901
 30
0.0
 11
-0.07575649843840573
 21
-0.07575649843840487
 31
0.0
210
0.0
220
0.0
230
0.9999999999999998
 40
0.8616551265
 41
0.8595746566071693
 42
2.430370983401676
  0
ELLIPSE
  5
130
330
72
100
AcDbEntity
  8
$DDT_AUDIT_GENERATED_(9B)
  6
Continuous
 62
     7
100
AcDbEllipse
 10
63.876092254
 20
375.2398958901
 30
0.0
 11
0.07575649843840748
 21
-0.07575649843840314
 31
0.0
210
0.0
220
0.0
230
1.0
 40
0.8616551265
 41
3.852814323777316
 42
5.423610650572273
  0
ELLIPSE
  5
131
330
72
100
AcDbEntity
  8
$DDT_AUDIT_GENERATED_(9B)
  6
Continuous
 62
     7
100
AcDbEllipse
 10
63.876092254
 20
375.4668889143
 30
0.0
 11
-0.07575649843840314
 21
-0.07575649843840661
 31
0.0
210
0.0
220
0.0
230
1.0
 40
0.8616551265
 41
0.8595746566072636
 42
2.430370983402089
  0
ELLIPSE
  5
132
330
72
100
AcDbEntity
  8
$DDT_AUDIT_GENERATED_(9B)
  6
Continuous
 62
     7
100
AcDbEllipse
 10
63.876092254
 20
375.4668889143
 30
0.0
 11
0.075756498438404
 21
-0.07575649843840834
 31
0.0
210
0.0
220
0.0
230
1.0
 40
0.8616551265
 41
3.852814323777378
 42
5.423610650572313
  0
ELLIPSE
  5
133
330
72
100
AcDbEntity
  8
$DDT_AUDIT_GENERATED_(9B)
  6
Continuous
 62
     7
100
AcDbEllipse
 10
63.876092254
 20
375.6938819386
 30
0.0
 11
-0.07575649843840314
 21
-0.07575649843840661
 31
0.0
210
0.0
220
0.0
230
1.0
 40
0.8616551265
 41
0.8595746566071397
 42
2.430370983402089
  0
ELLIPSE
  5
134
330
72
100
AcDbEntity
  8
$DDT_AUDIT_GENERATED_(9B)
  6
Continuous
 62
     7
100
AcDbEllipse
 10
63.876092254
 20
375.6938819386
 30
0.0
 11
0.07575649843840226
 21
-0.07575649843840834
 31
0.0
210
0.0
220
0.0
230
1.0
 40
0.8616551265
 41
3.8528143237768
 42
5.423610650572333
  0
ELLIPSE
  5
135
330
72
100
AcDbEntity
  8
$DDT_AUDIT_GENERATED_(9B)
  6
Continuous
 62
     7
100
AcDbEllipse
 10
63.876092254
 20
375.9208749628
 30
0.0
 11
-0.075756498438404
 21
-0.07575649843840659
 31
0.0
210
0.0
220
0.0
230
1.0
 40
0.8616551265
 41
0.8595746566072736
 42
2.430370983402662
  0
ELLIPSE
  5
136
330
72
100
AcDbEntity
  8
$DDT_AUDIT_GENERATED_(9B)
  6
Continuous
 62
     7
100
AcDbEllipse
 10
63.876092254
 20
375.9208749628
 30
0.0
 11
0.0757564984384014
 21
-0.07575649843840834
 31
0.0
210
0.0
220
0.0
230
0.9999999999999998
 40
0.8616551265
 41
3.852814323776798
 42
5.423610650572343
  0
ELLIPSE
  5
137
330
72
100
AcDbEntity
  8
$DDT_AUDIT_GENERATED_(9B)
  6
Continuous
 62
     7
100
AcDbEllipse
 10
63.876092254
 20
376.147867987
 30
0.0
 11
-0.07575649843840314
 21
-0.07575649843840661
 31
0.0
210
0.0
220
0.0
230
1.0
 40
0.8616551265
 41
0.8595746566061492
 42
2.430370983402089
  0
ELLIPSE
  5
138
330
72
100
AcDbEntity
  8
$DDT_AUDIT_GENERATED_(9B)
  6
Continuous
 62
     7
100
AcDbEllipse
 10
63.876092254
 20
376.147867987
 30
0.0
 11
0.07575649843840748
 21
-0.0757564984384014
 31
0.0
210
0.0
220
0.0
230
1.0
 40
0.8616551265
 41
3.852814323777292
 42
5.423610650572273
  0
ELLIPSE
  5
139
330
72
100
AcDbEntity
  8
$DDT_AUDIT_GENERATED_(9B)
  6
Continuous
 62
     7
100
AcDbEllipse
 10
65.4118065397
 20
376.147867987
 30
0.0
 11
-0.07575649843840314
 21
-0.07575649843840487
 31
0.0
210
0.0
220
0.0
230
1.0
 40
0.8616551265
 41
0.8595746566071399
 42
1.919513521827995
  0
ELLIPSE
  5
13A
330
72
100
AcDbEntity
  8
$DDT_AUDIT_GENERATED_(9B)
  6
Continuous
 62
     7
100
AcDbEllipse
 10
65.4118065397
 20
376.147867987
 30
0.0
 11
0.075756498438404
 21
-0.07575649843840659
 31
0.0
210
0.0
220
0.0
230
1.0
 40
0.8616551265
 41
4.203762389166423
 42
5.423610650572437
  0
ELLIPSE
  5
13B
330
72
100
AcDbEntity
  8
$DDT_AUDIT_GENERATED_(9B)
  6
Continuous
 62
     7
100
AcDbEllipse
 10
65.4118065397
 20
375.9208749628
 30
0.0
 11
-0.07575649843840314
 21
-0.07575649843840661
 31
0.0
210
0.0
220
0.0
230
1.0
 40
0.8616551265
 41
0.8595746566072636
 42
2.430370983402592
  0
ELLIPSE
  5
13C
330
72
100
AcDbEntity
  8
$DDT_AUDIT_GENERATED_(9B)
  6
Continuous
 62
     7
100
AcDbEllipse
 10
65.4118065397
 20
375.9208749628
 30
0.0
 11
0.075756498438404
 21
-0.07575649843840659
 31
0.0
210
0.0
220
0.0
230
1.0
 40
0.8616551265
 41
3.852814323776852
 42
5.423610650572313
  0
ELLIPSE
  5
13D
330
72
100
AcDbEntity
  8
$DDT_AUDIT_GENERATED_(9B)
  6
Continuous
 62
     7
100
AcDbEllipse
 10
65.4118065397
 20
375.6938819386
 30
0.0
 11
-0.07575649843840314
 21
-0.07575649843840661
 31
0.0
210
0.0
220
0.0
230
0.9999999999999998
 40
0.8616551265
 41
0.8595746566073873
 42
2.430370983402161
  0
ELLIPSE
  5
13E
330
72
100
AcDbEntity
  8
$DDT_AUDIT_GENERATED_(9B)
  6
Continuous
 62
     7
100
AcDbEllipse
 10
65.4118065397
 20
375.6938819386
 30
0.0
 11
0.07575649843840487
 21
-0.07575649843840487
 31
0.0
210
0.0
220
0.0
230
0.9999999999999998
 40
0.8616551265
 41
3.852814323776687
 42
5.423610650572303
  0
ELLIPSE
  5
13F
330
72
100
AcDbEntity
  8
$DDT_AUDIT_GENERATED_(9B)
  6
Continuous
 62
     7
100
AcDbEllipse
 10
65.4118065397
 20
375.4668889143
 30
0.0
 11
-0.0757564984384092
 21
-0.07575649843840314
 31
0.0
210
0.0
220
0.0
230
1.0
 40
0.8616551265
 41
0.859574656606961
 42
2.430370983401621
  0
ELLIPSE
  5
140
330
72
100
AcDbEntity
  8
$DDT_AUDIT_GENERATED_(9B)
  6
Continuous
 62
     7
100
AcDbEllipse
 10
65.4118065397
 20
375.4668889143
 30
0.0
 11
0.07575649843840226
 21
-0.07575649843841008
 31
0.0
210
0.0
220
0.0
230
1.0
 40
0.8616551265
 41
3.852814323777326
 42
5.423610650572333
  0
ELLIPSE
  5
141
330
72
100
AcDbEntity
  8
$DDT_AUDIT_GENERATED_(9B)
  6
Continuous
 62
     7
100
AcDbEllipse
 10
65.4118065397
 20
375.2398958901
 30
0.0
 11
-0.07575649843839966
 21
-0.0757564984384118
 31
0.0
210
0.0
220
0.0
230
1.0
 40
0.8616551265
 41
0.859574656607224
 42
2.430370983401524
  0
ELLIPSE
  5
142
330
72
100
AcDbEntity
  8
$DDT_AUDIT_GENERATED_(9B)
  6
Continuous
 62
     7
100
AcDbEllipse
 10
65.4118065397
 20
375.2398958901
 30
0.0
 11
0.07575649843839966
 21
-0.0757564984384118
 31
0.0
210
0.0
220
0.0
230
1.0
 40
0.8616551265
 41
3.852814323777344
 42
5.423610650572362
  0
ELLIPSE
  5
143
330
72
100
AcDbEntity
  8
$DDT_AUDIT_GENERATED_(9B)
  6
Continuous
 62
     7
100
AcDbEllipse
 10
65.4118065397
 20
375.0129028659
 30
0.0
 11
-0.07575649843840661
 21
-0.07575649843840487
 31
0.0
210
0.0
220
0.0
230
0.9999999999999999
 40
0.8616551265
 41
0.8595746566069316
 42
2.430370983401603
  0
ELLIPSE
  5
144
330
72
100
AcDbEntity
  8
$DDT_AUDIT_GENERATED_(9B)
  6
Continuous
 62
     7
100
AcDbEllipse
 10
65.4118065397
 20
375.0129028659
 30
0.0
 11
0.07575649843840661
 21
-0.0757564984384014
 31
0.0
210
0.0
220
0.0
230
0.9999999999999999
 40
0.8616551265
 41
3.852814323777793
 42
5.423610650572407
  0
ELLIPSE
  5
145
330
72
100
AcDbEntity
  8
$DDT_AUDIT_GENERATED_(9B)
  6
Continuous
 62
     7
100
AcDbEllipse
 10
65.4118065397
 20
374.7859098416
 30
0.0
 11
-0.07575649843839793
 21
-0.07575649843841181
 31
0.0
210
0.0
220
0.0
230
1.0
 40
0.8616551265
 41
0.8595746566070805
 42
2.430370983401527
  0
ELLIPSE
  5
146
330
72
100
AcDbEntity
  8
$DDT_AUDIT_GENERATED_(9B)
  6
Continuous
 62
     7
100
AcDbEllipse
 10
65.4118065397
 20
374.7859098416
 30
0.0
 11
0.07575649843839793
 21
-0.07575649843841181
 31
0.0
210
0.0
220
0.0
230
1.0
 40
0.8616551265
 41
3.85281432377734
 42
5.423610650572382
  0
ELLIPSE
  5
147
330
72
100
AcDbEntity
  8
$DDT_AUDIT_GENERATED_(9B)
  6
Continuous
 62
     7
100
AcDbEllipse
 10
66.9475208254
 20
374.7859098416
 30
0.0
 11
-0.07575649843840314
 21
0.07575649843840139
 31
0.0
210
0.0
220
0.0
230
1.0
 40
0.8616551265
 41
0.7112216701879935
 42
1.400452632196703
  0
ELLIPSE
  5
148
330
72
100
AcDbEntity
  8
$DDT_AUDIT_GENERATED_(9B)
  6
Continuous
 62
     7
100
AcDbEllipse
 10
66.9475208254
 20
375.0129028659
 30
0.0
 11
-0.07575649843840401
 21
-0.07575649843840487
 31
0.0
210
0.0
220
0.0
230
0.9999999999999998
 40
0.8616551265
 41
0.8595746566073974
 42
2.430370983401464
  0
ELLIPSE
  5
149
330
72
100
AcDbEntity
  8
$DDT_AUDIT_GENERATED_(9B)
  6
Continuous
 62
     7
100
AcDbEllipse
 10
66.9475208254
 20
375.0129028659
 30
0.0
 11
0.07575649843840401
 21
-0.07575649843840487
 31
0.0
210
0.0
220
0.0
230
0.9999999999999998
 40
0.8616551265
 41
3.852814323777978
 42
5.423610650572066
  0
ELLIPSE
  5
14A
330
72
100
AcDbEntity
  8
$DDT_AUDIT_GENERATED_(9B)
  6
Continuous
 62
     7
100
AcDbEllipse
 10
66.9475208254
 20
375.2398958901
 30
0.0
 11
-0.07575649843839966
 21
-0.0757564984384118
 31
0.0
210
0.0
220
0.0
230
1.0
 40
0.8616551265
 41
0.859574656607224
 42
2.430370983402099
  0
ELLIPSE
  5
14B
330
72
100
AcDbEntity
  8
$DDT_AUDIT_GENERATED_(9B)
  6
Continuous
 62
     7
100
AcDbEllipse
 10
66.9475208254
 20
375.2398958901
 30
0.0
 11
0.07575649843840226
 21
-0.07575649843841008
 31
0.0
210
0.0
220
0.0
230
1.0
 40
0.8616551265
 41
3.852814323777326
 42
5.423610650572333
  0
ELLIPSE
  5
14C
330
72
100
AcDbEntity
  8
$DDT_AUDIT_GENERATED_(9B)
  6
Continuous
 62
     7
100
AcDbEllipse
 10
66.9475208254
 20
375.4668889143
 30
0.0
 11
-0.07575649843840573
 21
-0.07575649843840487
 31
0.0
210
0.0
220
0.0
230
1.0
 40
0.8616551265
 41
0.859574656607293
 42
2.43037098340218
  0
ELLIPSE
  5
14D
330
72
100
AcDbEntity
  8
$DDT_AUDIT_GENERATED_(9B)
  6
Continuous
 62
     7
100
AcDbEllipse
 10
66.9475208254
 20
375.4668889143
 30
0.0
 11
0.07575649843840572
 21
-0.07575649843840312
 31
0.0
210
0.0
220
0.0
230
1.0
 40
0.8616551265
 41
3.852814323777241
 42
5.423610650572293
  0
ELLIPSE
  5
14E
330
72
100
AcDbEntity
  8
$DDT_AUDIT_GENERATED_(9B)
  6
Continuous
 62
     7
100
AcDbEllipse
 10
66.9475208254
 20
375.6938819386
 30
0.0
 11
-0.07575649843840054
 21
-0.07575649843841008
 31
0.0
210
0.0
220
0.0
230
1.0
 40
0.8616551265
 41
0.8595746566073579
 42
2.43037098340212
  0
ELLIPSE
  5
14F
330
72
100
AcDbEntity
  8
$DDT_AUDIT_GENERATED_(9B)
  6
Continuous
 62
     7
100
AcDbEllipse
 10
66.9475208254
 20
375.6938819386
 30
0.0
 11
0.07575649843840572
 21
-0.07575649843840312
 31
0.0
210
0.0
220
0.0
230
1.0
 40
0.8616551265
 41
3.852814323776665
 42
5.423610650572293
  0
ELLIPSE
  5
150
330
72
100
AcDbEntity
  8
$DDT_AUDIT_GENERATED_(9B)
  6
Continuous
 62
     7
100
AcDbEllipse
 10
66.9475208254
 20
375.9208749628
 30
0.0
 11
-0.07575649843840748
 21
-0.07575649843840314
 31
0.0
210
0.0
220
0.0
230
0.9999999999999999
 40
0.8616551265
 41
0.859574656607313
 42
2.430370983402774
  0
ELLIPSE
  5
151
330
72
100
AcDbEntity
  8
$DDT_AUDIT_GENERATED_(9B)
  6
Continuous
 62
     7
100
AcDbEllipse
 10
66.9475208254
 20
375.9208749628
 30
0.0
 11
0.07575649843840573
 21
-0.07575649843840487
 31
0.0
210
0.0
220
0.0
230
0.9999999999999999
 40
0.8616551265
 41
3.852814323776689
 42
5.423610650572293
  0
ELLIPSE
  5
152
330
72
100
AcDbEntity
  8
$DDT_AUDIT_GENERATED_(9B)
  6
Continuous
 62
     7
100
AcDbEllipse
 10
68.4832351111
 20
375.6938819386
 30
0.0
 11
-0.0757564984384118
 21
-0.07575649843839966
 31
0.0
210
0.0
220
0.0
230
1.0
 40
0.8616551265
 41
0.8595746566073621
 42
2.430370983402812
  0
ELLIPSE
  5
153
330
72
100
AcDbEntity
  8
$DDT_AUDIT_GENERATED_(9B)
  6
Continuous
 62
     7
100
AcDbEllipse
 10
68.4832351111
 20
375.6938819386
 30
0.0
 11
0.0757564984384014
 21
-0.07575649843840661
 31
0.0
210
0.0
220
0.0
230
1.0
 40
0.8616551265
 41
3.852814323776847
 42
5.423610650572343
  0
ELLIPSE
  5
154
330
72
100
AcDbEntity
  8
$DDT_AUDIT_GENERATED_(9B)
  6
Continuous
 62
     7
100
AcDbEllipse
 10
68.4832351111
 20
375.4668889143
 30
0.0
 11
-0.07575649843840314
 21
-0.07575649843840661
 31
0.0
210
0.0
220
0.0
230
0.9999999999999999
 40
0.8616551265
 41
0.8595746566072636
 42
2.430370983402018
  0
ELLIPSE
  5
155
330
72
100
AcDbEntity
  8
$DDT_AUDIT_GENERATED_(9B)
  6
Continuous
 62
     7
100
AcDbEllipse
 10
68.4832351111
 20
375.4668889143
 30
0.0
 11
0.07575649843840314
 21
-0.07575649843840661
 31
0.0
210
0.0
220
0.0
230
0.9999999999999999
 40
0.8616551265
 41
3.852814323777425
 42
5.423610650572322
  0
ELLIPSE
  5
156
330
72
100
AcDbEntity
  8
$DDT_AUDIT_GENERATED_(9B)
  6
Continuous
 62
     7
100
AcDbEllipse
 10
68.4832351111
 20
375.2398958901
 30
0.0
 11
-0.0757564984384014
 21
-0.07575649843840834
 31
0.0
210
0.0
220
0.0
230
0.9999999999999999
 40
0.8616551265
 41
0.8595746566072439
 42
2.430370983402142
  0
ELLIPSE
  5
157
330
72
100
AcDbEntity
  8
$DDT_AUDIT_GENERATED_(9B)
  6
Continuous
 62
     7
100
AcDbEllipse
 10
68.4832351111
 20
375.2398958901
 30
0.0
 11
0.0757564984384014
 21
-0.07575649843841008
 31
0.0
210
0.0
220
0.0
230
1.0
 40
0.8616551265
 41
3.852814323777899
 42
5.423610650572343
  0
SPLINE
  5
158
330
72
100
AcDbEntity
  8
$DDT_AUDIT_GENERATED_(9B)
  6
Continuous
 62
     7
100
AcDbSpline
210
0.0
220
0.0
230
1.0
 70
     8
 71
     3
 72
    11
 73
     7
 74
     0
 42
0.000000030237773
 43
0.0000000001
 40
0.1038440616089181
 40
0.1038440616089181
 40
0.1038440616089181
 40
0.1038440616089181
 40
0.1245775322052435
 40
0.1245775322052435
 40
0.1245775322052435
 40
0.167504663818358
 40
0.167504663818358
 40
0.167504663818358
 40
0.167504663818358
 10
54.5676419107508
 20
374.458652234474
 30
0.0
 10
54.56840162945484
 20
374.4564888311857
 30
0.0
 10
54.56923047676026
 20
374.4543546834084
 30
0.0
 10
54.57012518772527
 20
374.4522587551392
 30
0.0
 10
54.57197906709495
 20
374.4479159021615
 30
0.0
 10
54.57413472519529
 20
374.4436862782176
 30
0.0
 10
54.57654471887228
 20
374.439624664808
 30
0.0
  0
SPLINE
  5
159
330
72
100
AcDbEntity
  8
$DDT_AUDIT_GENERATED_(9B)
  6
Continuous
 62
     7
100
AcDbSpline
210
0.0
220
0.0
230
1.0
 70
     8
 71
     3
 72
    14
 73
    10
 74
     0
 42
0.0000000311217532
 43
0.0000000001
 40
0.0
 40
0.0
 40
0.0
 40
0.0
 40
0.0153753909095174
 40
0.0153753909095174
 40
0.0153753909095174
 40
0.116088964302445
 40
0.116088964302445
 40
0.116088964302445
 40
0.1809442283589669
 40
0.1809442283589669
 40
0.1809442283589669
 40
0.1809442283589669
 10
56.09752082538142
 20
374.4026446347568
 30
0.0
 10
56.09752082538142
 20
374.4010082328019
 30
0.0
 10
56.09756191981679
 20
374.3993694039463
 30
0.0
 10
56.09764401113342
 20
374.3977314632925
 30
0.0
 10
56.09817635433803
 20
374.3871097969276
 30
0.0
 10
56.10049163272707
 20
374.3763602088
 30
0.0
 10
56.10436988997176
 20
374.366360205882
 30
0.0
 10
56.10686851327655
 20
374.3599175594141
 30
0.0
 10
56.11005598107303
 20
374.3536757412749
 30
0.0
 10
56.11380383366943
 20
374.3478235528728
 30
0.0
  0
ARC
  5
15A
330
72
100
AcDbEntity
  8
$DDT_AUDIT_GENERATED_(9B)
  6
Continuous
 62
     7
100
AcDbCircle
 10
57.7339287624
 20
374.3514330349
 30
0.0
 40
0.1006986907012894
100
AcDbArc
 50
180.5732164673
 51
214.829928977
  0
SPLINE
  5
15B
330
72
100
AcDbEntity
  8
$DDT_AUDIT_GENERATED_(9B)
  6
Continuous
 62
     7
100
AcDbSpline
210
0.0
220
0.0
230
1.0
 70
     8
 71
     3
 72
    10
 73
     6
 74
     0
 42
0.0000000068817718
 43
0.0000000001
 40
0.0
 40
0.0
 40
0.0
 40
0.0
 40
0.0625000000000001
 40
0.0625000000000001
 40
0.0930674285290967
 40
0.0930674285290967
 40
0.0930674285290967
 40
0.0930674285290967
 10
57.8299790649795
 20
374.3211912479848
 30
0.0
 10
57.85676016997422
 20
374.3069815053196
 30
0.0
 10
57.88665025410131
 20
374.2998454443094
 30
0.0
 10
57.93033461750819
 20
374.2899980648196
 30
0.0
 10
57.94475402621006
 20
374.2871231820052
 30
0.0
 10
57.95922668226584
 20
374.2845118170442
 30
0.0
  0
SPLINE
  5
15C
330
72
100
AcDbEntity
  8
$DDT_AUDIT_GENERATED_(9B)
  6
Continuous
 62
     7
100
AcDbSpline
210
0.0
220
0.0
230
1.0
 70
     8
 71
     3
 72
    10
 73
     6
 74
     0
 42
0.0000000068934955
 43
0.0000000001
 40
0.8932348414740187
 40
0.8932348414740187
 40
0.8932348414740187
 40
0.8932348414740187
 40
0.9375000000000001
 40
0.9375000000000001
 40
1.0
 40
1.0
 40
1.0
 40
1.0
 10
60.55932673029049
 20
374.281174601868
 30
0.0
 10
60.58031931452766
 20
374.2846391511879
 30
0.0
 10
60.60122943945008
 20
374.2885674583061
 30
0.0
 10
60.6513478719833
 20
374.2998715540607
 30
0.0
 10
60.68104568682631
 20
374.3069321941158
 30
0.0
 10
60.70791972864048
 20
374.3211912479848
 30
0.0
  0
SPLINE
  5
15D
330
72
100
AcDbEntity
  8
$DDT_AUDIT_GENERATED_(9B)
  6
Continuous
 62
     7
100
AcDbSpline
210
0.0
220
0.0
230
1.0
 70
     8
 71
     3
 72
    14
 73
    10
 74
     0
 42
0.0000000311835071
 43
0.0000000001
 40
0.8053671315845609
 40
0.8053671315845609
 40
0.8053671315845609
 40
0.8053671315845609
 40
0.8380597748551375
 40
0.8380597748551375
 40
0.8380597748551375
 40
0.9447541863129585
 40
0.9447541863129585
 40
0.9447541863129585
 40
1.0
 40
1.0
 40
1.0
 40
1.0
 10
62.42172262364171
 20
374.3442847772367
 30
0.0
 10
62.42372741656197
 20
374.3471438883909
 30
0.0
 10
62.42558915186031
 20
374.3500988668907
 30
0.0
 10
62.42728870033868
 20
374.353129568989
 30
0.0
 10
62.43283813775492
 20
374.3630255453826
 30
0.0
 10
62.43681560726611
 20
374.3740199588439
 30
0.0
 10
62.43881269889267
 20
374.3851428477662
 30
0.0
 10
62.4398509734021
 20
374.3909255629335
 30
0.0
 10
62.44037796823881
 20
374.3968094661908
 30
0.0
 10
62.44037796826488
 20
374.4026446347619
 30
0.0
  0
SPLINE
  5
15E
330
72
100
AcDbEntity
  8
$DDT_AUDIT_GENERATED_(9B)
  6
Continuous
 62
     7
100
AcDbSpline
210
0.0
220
0.0
230
1.0
 70
     8
 71
     3
 72
    11
 73
     7
 74
     0
 42
0.0000000315640305
 43
0.0000000001
 40
0.0609975066771226
 40
0.0609975066771226
 40
0.0609975066771226
 40
0.0609975066771226
 40
0.125661223158587
 40
0.125661223158587
 40
0.125661223158587
 40
0.1685671052176174
 40
0.1685671052176174
 40
0.1685671052176174
 40
0.1685671052176174
 10
63.77813288850459
 20
374.4586193160036
 30
0.0
 10
63.77956872014677
 20
374.4518129380446
 30
0.0
 10
63.78174423538307
 20
374.4452111376781
 30
0.0
 10
63.7845627102963
 20
374.439069541155
 30
0.0
 10
63.78643417248875
 20
374.4349915322857
 30
0.0
 10
63.78860855900505
 20
374.4310684041069
 30
0.0
 10
63.79103841255489
 20
374.4273489183128
 30
0.0
  0
LINE
  5
15F
330
72
100
AcDbEntity
  8
$DDT_AUDIT_GENERATED_(9B)
  6
Continuous
 62
     7
100
AcDbLine
 10
52.0015389156
 20
374.8006907827
 30
0.0
 11
51.6903779682
 21
374.8006907827
 31
0.0
  0
LINE
  5
160
330
72
100
AcDbEntity
  8
$DDT_AUDIT_GENERATED_(9B)
  6
Continuous
 62
     7
100
AcDbLine
 10
51.6903779682
 20
374.8006907827
 30
0.0
 11
51.6903779682
 21
374.8466832991
 31
0.0
  0
LINE
  5
161
330
72
100
AcDbEntity
  8
$DDT_AUDIT_GENERATED_(9B)
  6
Continuous
 62
     7
100
AcDbLine
 10
51.4903779682
 20
374.8783854809
 30
0.0
 11
51.4903779682
 21
374.824129864
 31
0.0
  0
LINE
  5
162
330
72
100
AcDbEntity
  8
$DDT_AUDIT_GENERATED_(9B)
  6
Continuous
 62
     7
100
AcDbLine
 10
66.8475208254
 20
374.8466832991
 30
0.0
 11
66.8475208254
 21
374.8006907827
 31
0.0
  0
LINE
  5
163
330
72
100
AcDbEntity
  8
$DDT_AUDIT_GENERATED_(9B)
  6
Continuous
 62
     7
100
AcDbLine
 10
66.8475208254
 20
374.8006907827
 30
0.0
 11
66.536359878
 21
374.8006907827
 31
0.0
  0
LINE
  5
164
330
72
100
AcDbEntity
  8
$DDT_AUDIT_GENERATED_(9B)
  6
Continuous
 62
     7
100
AcDbLine
 10
67.0475208254
 20
374.824129864
 30
0.0
 11
67.0475208254
 21
374.8783854809
 31
0.0
  0
LINE
  5
165
330
72
100
AcDbEntity
  8
$DDT_AUDIT_GENERATED_(9B)
  6
Continuous
 62
     7
100
AcDbLine
 10
60.7046636825
 20
374.383452978
 30
0.0
 11
60.7046636825
 21
374.3467047343
 31
0.0
  0
LINE
  5
166
330
72
100
AcDbEntity
  8
$DDT_AUDIT_GENERATED_(9B)
  6
Continuous
 62
     7
100
AcDbLine
 10
60.7046636825
 20
374.3467047343
 30
0.0
 11
59.3689493968
 21
374.3467047343
 31
0.0
  0
LINE
  5
167
330
72
100
AcDbEntity
  8
$DDT_AUDIT_GENERATED_(9B)
  6
Continuous
 62
     7
100
AcDbLine
 10
59.3689493968
 20
374.3467047343
 30
0.0
 11
59.3689493968
 21
374.368946533
 31
0.0
  0
LINE
  5
168
330
72
100
AcDbEntity
  8
$DDT_AUDIT_GENERATED_(9B)
  6
Continuous
 62
     7
100
AcDbLine
 10
59.1689493968
 20
374.368946533
 30
0.0
 11
59.1689493968
 21
374.3467047343
 31
0.0
  0
LINE
  5
169
330
72
100
AcDbEntity
  8
$DDT_AUDIT_GENERATED_(9B)
  6
Continuous
 62
     7
100
AcDbLine
 10
59.1689493968
 20
374.3467047343
 30
0.0
 11
57.8332351111
 21
374.3467047343
 31
0.0
  0
LINE
  5
16A
330
72
100
AcDbEntity
  8
$DDT_AUDIT_GENERATED_(9B)
  6
Continuous
 62
     7
100
AcDbLine
 10
57.8332351111
 20
374.3467047343
 30
0.0
 11
57.8332351111
 21
374.383452978
 31
0.0
  0
LINE
  5
16B
330
72
100
AcDbEntity
  8
$DDT_AUDIT_GENERATED_(9B)
  6
Continuous
 62
     7
100
AcDbLine
 10
57.6332351111
 20
374.3878238621
 30
0.0
 11
57.6332351111
 21
374.3504256102
 31
0.0
  0
ELLIPSE
  5
16C
330
72
100
AcDbEntity
  8
$DDT_AUDIT_GENERATED_(9B)
  6
Continuous
 62
     7
100
AcDbEllipse
 10
59.2689493968
 20
375.9208749628
 30
0.0
 11
10.50000000003668
 21
-8.066464163292153E-13
 31
0.0
210
0.0
220
0.0
230
1.0
 40
0.1478094111
 41
4.721912933887846
 42
4.849553373274059
  0
LINE
  5
16D
330
72
100
AcDbEntity
  8
$DDT_AUDIT_GENERATED_(9B)
  6
Continuous
 62
     7
100
AcDbLine
 10
68.5832351111
 20
375.1275557918
 30
0.0
 11
68.5832351111
 21
375.1398958901
 31
0.0
  0
LINE
  5
16E
330
72
100
AcDbEntity
  8
$DDT_AUDIT_GENERATED_(9B)
  6
Continuous
 62
     7
100
AcDbLine
 10
68.3832351111
 20
375.1398958901
 30
0.0
 11
68.3832351111
 21
375.0783315516
 31
0.0
  0
ELLIPSE
  5
16F
330
72
100
AcDbEntity
  8
$DDT_AUDIT_GENERATED_(9B)
  6
Continuous
 62
     7
100
AcDbEllipse
 10
59.2689493925
 20
375.9208749634
 30
0.0
 11
10.50000000462119
 21
-4.668834763243979E-10
 31
0.0
210
0.0
220
0.0
230
1.0
 40
0.1478094111
 41
-0.8063543652525693
 42
-0.764441961237929
  0
LINE
  5
170
330
72
100
AcDbEntity
  8
$DDT_AUDIT_GENERATED_(9B)
  6
Continuous
 62
     7
100
AcDbLine
 10
65.5118065397
 20
374.6273168272
 30
0.0
 11
65.5118065397
 21
374.6729858819
 31
0.0
  0
LINE
  5
171
330
72
100
AcDbEntity
  8
$DDT_AUDIT_GENERATED_(9B)
  6
Continuous
 62
     7
100
AcDbLine
 10
65.3118065397
 20
374.6516587138
 30
0.0
 11
65.3118065397
 21
374.6067306105
 31
0.0
  0
LINE
  5
172
330
72
100
AcDbEntity
  8
$DDT_AUDIT_GENERATED_(9B)
  6
Continuous
 62
     7
100
AcDbLine
 10
62.4403779683
 20
374.4026446348
 30
0.0
 11
62.4403779682
 21
374.4413622602
 31
0.0
  0
ELLIPSE
  5
173
330
72
100
AcDbEntity
  8
$DDT_AUDIT_GENERATED_(9B)
  6
Continuous
 62
     7
100
AcDbEllipse
 10
59.2689493968
 20
375.9208749628
 30
0.0
 11
-10.50000000001401
 21
-1.405126015541214E-13
 31
0.0
210
0.0
220
0.0
230
1.0
 40
0.1478094111
 41
1.433631933905588
 42
1.561272373292073
  0
LINE
  5
174
330
72
100
AcDbEntity
  8
$DDT_AUDIT_GENERATED_(9B)
  6
Continuous
 62
     7
100
AcDbLine
 10
56.0975208254
 20
374.4413622602
 30
0.0
 11
56.0975208254
 21
374.4026446348
 31
0.0
  0
LINE
  5
175
330
72
100
AcDbEntity
  8
$DDT_AUDIT_GENERATED_(9B)
  6
Continuous
 62
     7
100
AcDbLine
 10
53.226092254
 20
374.6067306105
 30
0.0
 11
53.226092254
 21
374.6516587138
 31
0.0
  0
LINE
  5
176
330
72
100
AcDbEntity
  8
$DDT_AUDIT_GENERATED_(9B)
  6
Continuous
 62
     7
100
AcDbLine
 10
53.026092254
 20
374.6729858819
 30
0.0
 11
53.026092254
 21
374.6273168272
 31
0.0
  0
ELLIPSE
  5
177
330
72
100
AcDbEntity
  8
$DDT_AUDIT_GENERATED_(9B)
  6
Continuous
 62
     7
100
AcDbEllipse
 10
59.2689494218
 20
375.9208749665
 30
0.0
 11
-10.50000002652062
 21
-2.673543678111123E-9
 31
0.0
210
0.0
220
0.0
230
1.0
 40
0.1478094111
 41
0.7644419605404911
 42
0.8063543644968435
  0
LINE
  5
178
330
72
100
AcDbEntity
  8
$DDT_AUDIT_GENERATED_(9B)
  6
Continuous
 62
     7
100
AcDbLine
 10
50.1546636825
 20
375.0783315516
 30
0.0
 11
50.1546636825
 21
375.1398958901
 31
0.0
  0
LINE
  5
179
330
72
100
AcDbEntity
  8
$DDT_AUDIT_GENERATED_(9B)
  6
Continuous
 62
     7
100
AcDbLine
 10
49.9546636825
 20
375.1398958901
 30
0.0
 11
49.9546636825
 21
375.1275557917
 31
0.0
  0
LINE
  5
17A
330
72
100
AcDbEntity
  8
$DDT_AUDIT_GENERATED_(9B)
  6
Continuous
 62
     7
100
AcDbLine
 10
49.7855078662
 20
375.2546768312
 30
0.0
 11
49.5094328481
 21
375.2546768312
 31
0.0
  0
LINE
  5
17B
330
72
100
AcDbEntity
  8
$DDT_AUDIT_GENERATED_(9B)
  6
Continuous
 62
     7
100
AcDbLine
 10
49.1981692758
 20
375.4816698554
 30
0.0
 11
49.0244701474
 21
375.4816698554
 31
0.0
  0
LINE
  5
17C
330
72
100
AcDbEntity
  8
$DDT_AUDIT_GENERATED_(9B)
  6
Continuous
 62
     7
100
AcDbLine
 10
50.6821061147
 20
375.027683807
 30
0.0
 11
50.3781464212
 21
375.027683807
 31
0.0
  0
LINE
  5
17D
330
72
100
AcDbEntity
  8
$DDT_AUDIT_GENERATED_(9B)
  6
Continuous
 62
     7
100
AcDbLine
 10
54.0555248104
 20
374.5736977585
 30
0.0
 11
53.568748004
 21
374.5736977585
 31
0.0
  0
LINE
  5
17E
330
72
100
AcDbEntity
  8
$DDT_AUDIT_GENERATED_(9B)
  6
Continuous
 62
     7
100
AcDbLine
 10
64.9691507896
 20
374.5736977585
 30
0.0
 11
64.4823739832
 21
374.5736977585
 31
0.0
  0
LINE
  5
17F
330
72
100
AcDbEntity
  8
$DDT_AUDIT_GENERATED_(9B)
  6
Continuous
 62
     7
100
AcDbLine
 10
68.1597523724
 20
375.027683807
 30
0.0
 11
67.8557926789
 21
375.027683807
 31
0.0
  0
LINE
  5
180
330
72
100
AcDbEntity
  8
$DDT_AUDIT_GENERATED_(9B)
  6
Continuous
 62
     7
100
AcDbLine
 10
69.5134286462
 20
375.4816698554
 30
0.0
 11
69.3397295178
 21
375.4816698554
 31
0.0
  0
LINE
  5
181
330
72
100
AcDbEntity
  8
$DDT_AUDIT_GENERATED_(9B)
  6
Continuous
 62
     7
100
AcDbLine
 10
69.0284659456
 20
375.2546768312
 30
0.0
 11
68.7523909275
 21
375.2546768312
 31
0.0
  0
ELLIPSE
  5
182
330
72
100
AcDbEntity
  8
$DDT_AUDIT_GENERATED_(9B)
  6
Continuous
 62
     7
100
AcDbEllipse
 10
59.2689493968
 20
377.4043987578
 30
0.0
 11
10.50000000000001
 21
0.0
 31
0.0
210
0.0
220
0.0
230
1.0
 40
0.1478094111
 41
-1.100527314167177
 42
-1.06348520047254
  0
ELLIPSE
  5
183
330
72
100
AcDbEntity
  8
$DDT_AUDIT_GENERATED_(9B)
  6
Continuous
 62
     7
100
AcDbEllipse
 10
59.2689493968
 20
377.4043987578
 30
0.0
 11
10.50000000000001
 21
0.0
 31
0.0
210
0.0
220
0.0
230
1.0
 40
0.1478094111
 41
4.205077854062333
 42
4.24211996775697
  0
SPLINE
  5
184
330
72
100
AcDbEntity
  8
$DDT_AUDIT_GENERATED_(9B)
  6
Continuous
 62
     7
100
AcDbSpline
210
0.0
220
0.0
230
1.0
 70
     8
 71
     3
 72
    20
 73
    16
 74
     0
 42
0.0000000435752929
 43
0.0000000001
 40
0.5494703622985035
 40
0.5494703622985035
 40
0.5494703622985035
 40
0.5494703622985035
 40
0.6351011276431104
 40
0.6351011276431104
 40
0.6351011276431104
 40
0.7591072870863911
 40
0.7591072870863911
 40
0.7591072870863911
 40
0.8736081295475382
 40
0.8736081295475382
 40
0.8736081295475382
 40
0.9758390508885152
 40
0.9758390508885152
 40
0.9758390508885152
 40
1.0
 40
1.0
 40
1.0
 40
1.0
 10
68.71134271413878
 20
375.3398882614701
 30
0.0
 10
68.71545248881887
 20
375.3398956588884
 30
0.0
 10
68.71950269234397
 20
375.3388158849785
 30
0.0
 10
68.72332653978302
 20
375.3366354942515
 30
0.0
 10
68.72885620832922
 20
375.3334824296448
 30
0.0
 10
68.73408218854208
 20
375.3279081598123
 30
0.0
 10
68.73844877631474
 20
375.3202225935747
 30
0.0
 10
68.74248125219519
 20
375.3131250927127
 30
0.0
 10
68.7459050816119
 20
375.3039766146873
 30
0.0
 10
68.74829367446598
 20
375.2935541290818
 30
0.0
 10
68.75043058785923
 20
375.2842298321247
 30
0.0
 10
68.75180157125688
 20
375.2735928459493
 30
0.0
 10
68.75223466632106
 20
375.2626414932028
 30
0.0
 10
68.75233870161831
 20
375.260010830024
 30
0.0
 10
68.75239092746257
 20
375.2573506115942
 30
0.0
 10
68.75239092746257
 20
375.2546768312081
 30
0.0
  0
SPLINE
  5
185
330
72
100
AcDbEntity
  8
$DDT_AUDIT_GENERATED_(9B)
  6
Continuous
 62
     7
100
AcDbSpline
210
0.0
220
0.0
230
1.0
 70
     8
 71
     3
 72
    20
 73
    16
 74
     0
 42
0.0000000479139737
 43
0.0000000001
 40
0.5481875513560311
 40
0.5481875513560311
 40
0.5481875513560311
 40
0.5481875513560311
 40
0.6409625805799282
 40
0.6409625805799282
 40
0.6409625805799282
 40
0.7547166054757164
 40
0.7547166054757164
 40
0.7547166054757164
 40
0.8646149942940208
 40
0.8646149942940208
 40
0.8646149942940208
 40
0.9697699668739693
 40
0.9697699668739693
 40
0.9697699668739693
 40
1.0
 40
1.0
 40
1.0
 40
1.0
 10
69.31415588082957
 20
375.566884846148
 30
0.0
 10
69.31701647212712
 20
375.5668876736199
 30
0.0
 10
69.31982868736016
 20
375.5655327229948
 30
0.0
 10
69.32243526146235
 20
375.5628516902955
 30
0.0
 10
69.32562985346574
 20
375.5595658425559
 30
0.0
 10
69.32860764670365
 20
375.5541851743604
 30
0.0
 10
69.33109974562016
 20
375.5471090053188
 30
0.0
 10
69.33350775329778
 20
375.5402716084292
 30
0.0
 10
69.33553197459501
 20
375.5316447677741
 30
0.0
 10
69.33698000911154
 20
375.5219512911814
 30
0.0
 10
69.33836649237864
 20
375.51266985283
 30
0.0
 10
69.33926431295278
 20
375.5021412622015
 30
0.0
 10
69.33958782889417
 20
375.4912792976709
 30
0.0
 10
69.33968215349806
 20
375.4881123733533
 30
0.0
 10
69.33972951777868
 20
375.4849008789546
 30
0.0
 10
69.33972951777868
 20
375.4816698554429
 30
0.0
  0
SPLINE
  5
186
330
72
100
AcDbEntity
  8
$DDT_AUDIT_GENERATED_(9B)
  6
Continuous
 62
     7
100
AcDbSpline
210
0.0
220
0.0
230
1.0
 70
     8
 71
     3
 72
    20
 73
    16
 74
     0
 42
0.0000000479136761
 43
0.0000000001
 40
0.0
 40
0.0
 40
0.0
 40
0.0
 40
0.1017562370295364
 40
0.1017562370295364
 40
0.1017562370295364
 40
0.2034005268556059
 40
0.2034005268556059
 40
0.2034005268556059
 40
0.3067859438713758
 40
0.3067859438713758
 40
0.3067859438713758
 40
0.4142440429790633
 40
0.4142440429790633
 40
0.4142440429790633
 40
0.4511652806459581
 40
0.4511652806459581
 40
0.4511652806459581
 40
0.4511652806459581
 10
49.19816927584132
 20
375.4816698554429
 30
0.0
 10
49.19816927584132
 20
375.4924012785158
 30
0.0
 10
49.19870592315579
 20
375.5030114489892
 30
0.0
 10
49.19973041834421
 20
375.5126179738069
 30
0.0
 10
49.20075428474669
 20
375.522218602601
 30
0.0
 10
49.20229181473723
 20
375.5310784849589
 30
0.0
 10
49.20421232683621
 20
375.5385250246221
 30
0.0
 10
49.20616620681064
 20
375.546100943948
 30
0.0
 10
49.20856665829127
 20
375.5524173534878
 30
0.0
 10
49.21122389025972
 20
375.5570490936518
 30
0.0
 10
49.21398489172447
 20
375.5618617112663
 30
0.0
 10
49.21709496736074
 20
375.5649852827053
 30
0.0
 10
49.22031506219902
 20
375.5662382542168
 30
0.0
 10
49.22142075439104
 20
375.5666684902461
 30
0.0
 10
49.2225491978345
 20
375.5668821126895
 30
0.0
 10
49.22369029999579
 20
375.5668818043917
 30
0.0
  0
SPLINE
  5
187
330
72
100
AcDbEntity
  8
$DDT_AUDIT_GENERATED_(9B)
  6
Continuous
 62
     7
100
AcDbSpline
210
0.0
220
0.0
230
1.0
 70
     8
 71
     3
 72
    20
 73
    16
 74
     0
 42
0.0000000435525116
 43
0.0000000001
 40
0.0
 40
0.0
 40
0.0
 40
0.0
 40
0.0942642591671514
 40
0.0942642591671514
 40
0.0942642591671514
 40
0.1882851755571734
 40
0.1882851755571734
 40
0.1882851755571734
 40
0.2859213929164569
 40
0.2859213929164569
 40
0.2859213929164569
 40
0.392640775825026
 40
0.392640775825026
 40
0.392640775825026
 40
0.4494915841791756
 40
0.4494915841791756
 40
0.4494915841791756
 40
0.4494915841791756
 10
49.78550786615743
 20
375.2546768312081
 30
0.0
 10
49.78550786615743
 20
375.2649548862972
 30
0.0
 10
49.78630356943437
 20
375.2751271797293
 30
0.0
 10
49.78780656075919
 20
375.2843387856911
 30
0.0
 10
49.78930737785739
 20
375.2935370661476
 30
0.0
 10
49.79154798919983
 20
375.3020264301049
 30
0.0
 10
49.79431520429767
 20
375.3092332307086
 30
0.0
 10
49.79719040667201
 20
375.3167212681304
 30
0.0
 10
49.80070080633553
 20
375.3230194220768
 30
0.0
 10
49.80456528173777
 20
375.3278153894441
 30
0.0
 10
49.80878651038984
 20
375.3330541017552
 30
0.0
 10
49.81353110244434
 20
375.3366361694203
 30
0.0
 10
49.81845134844067
 20
375.3384495213683
 30
0.0
 10
49.82106918295084
 20
375.3394143217689
 30
0.0
 10
49.82376904930035
 20
375.3398912207059
 30
0.0
 10
49.82650249359283
 20
375.3398884597134
 30
0.0
  0
SPLINE
  5
188
330
72
100
AcDbEntity
  8
$DDT_AUDIT_GENERATED_(9B)
  6
Continuous
 62
     7
100
AcDbSpline
210
0.0
220
0.0
230
1.0
 70
     8
 71
     3
 72
    20
 73
    16
 74
     0
 42
0.0000000383054108
 43
0.0000000001
 40
0.0
 40
0.0
 40
0.0
 40
0.0
 40
0.0832017959455893
 40
0.0832017959455893
 40
0.0832017959455893
 40
0.1659997400616034
 40
0.1659997400616034
 40
0.1659997400616034
 40
0.254206896634064
 40
0.254206896634064
 40
0.254206896634064
 40
0.3578602431674886
 40
0.3578602431674886
 40
0.3578602431674886
 40
0.4471624490969177
 40
0.4471624490969177
 40
0.4471624490969177
 40
0.4471624490969177
 10
50.68210611472896
 20
375.0276838069734
 30
0.0
 10
50.68210611472896
 20
375.0372876725658
 30
0.0
 10
50.68314024458939
 20
375.0468083989688
 30
0.0
 10
50.68506300411928
 20
375.0554233518753
 30
0.0
 10
50.68698049883616
 20
375.0640147157082
 30
0.0
 10
50.68981845746976
 20
375.0719402402249
 30
0.0
 10
50.69327024949161
 20
375.0787497342194
 30
0.0
 10
50.69695130427019
 20
375.0860115044098
 30
0.0
 10
50.70140520134813
 20
375.0921859316063
 30
0.0
 10
50.70627257492959
 20
375.0970999811902
 30
0.0
 10
50.71198690490191
 20
375.1028691091096
 30
0.0
 10
50.71839178653089
 20
375.1070401624326
 30
0.0
 10
50.7250451993463
 20
375.1096169862079
 30
0.0
 10
50.7307674738592
 20
375.1118331861376
 30
0.0
 10
50.73676903556689
 20
375.1129116811413
 30
0.0
 10
50.74283836368112
 20
375.1128998940647
 30
0.0
  0
SPLINE
  5
189
330
72
100
AcDbEntity
  8
$DDT_AUDIT_GENERATED_(9B)
  6
Continuous
 62
     7
100
AcDbSpline
210
0.0
220
0.0
230
1.0
 70
     8
 71
     3
 72
    20
 73
    16
 74
     0
 42
0.0000000317655037
 43
0.0000000001
 40
0.0
 40
0.0
 40
0.0
 40
0.0
 40
0.0673834338595884
 40
0.0673834338595884
 40
0.0673834338595884
 40
0.1341841609296699
 40
0.1341841609296699
 40
0.1341841609296699
 40
0.2298970625894853
 40
0.2298970625894853
 40
0.2298970625894853
 40
0.366380126959955
 40
0.366380126959955
 40
0.366380126959955
 40
0.4428916209257861
 40
0.4428916209257861
 40
0.4428916209257861
 40
0.4428916209257861
 10
52.00153891562478
 20
374.8006907827386
 30
0.0
 10
52.00153891562478
 20
374.8093506568759
 30
0.0
 10
52.00279571119243
 20
374.8179584854989
 30
0.0
 10
52.00507323181203
 20
374.8257145000453
 30
0.0
 10
52.00733952353001
 20
374.8334322749712
 30
0.0
 10
52.01064782451313
 20
374.8405319584334
 30
0.0
 10
52.01458385556123
 20
374.8467037198143
 30
0.0
 10
52.02020128035009
 20
374.8555119342181
 30
0.0
 10
52.02723095824969
 20
374.8627099603208
 30
0.0
 10
52.03481156542666
 20
374.8682967031714
 30
0.0
 10
52.04558950618531
 20
374.8762398114309
 30
0.0
 10
52.05780909240436
 20
374.8812433367539
 30
0.0
 10
52.07028532493393
 20
374.8838018083104
 30
0.0
 10
52.07725919691818
 20
374.8852319237775
 30
0.0
 10
52.08441438705326
 20
374.8859236331812
 30
0.0
 10
52.09163945143005
 20
374.885912366055
 30
0.0
  0
SPLINE
  5
18A
330
72
100
AcDbEntity
  8
$DDT_AUDIT_GENERATED_(9B)
  6
Continuous
 62
     7
100
AcDbSpline
210
0.0
220
0.0
230
1.0
 70
     8
 71
     3
 72
    20
 73
    16
 74
     0
 42
0.0000000224870576
 43
0.0000000001
 40
0.0
 40
0.0
 40
0.0
 40
0.0
 40
0.0355411990572529
 40
0.0355411990572529
 40
0.0355411990572529
 40
0.0791686672612848
 40
0.0791686672612848
 40
0.0791686672612848
 40
0.1467328771940977
 40
0.1467328771940977
 40
0.1467328771940977
 40
0.2716650371935698
 40
0.2716650371935698
 40
0.2716650371935698
 40
0.4357074243703318
 40
0.4357074243703318
 40
0.4357074243703318
 40
0.4357074243703318
 10
54.05552481038246
 20
374.5736977585038
 30
0.0
 10
54.05552481038246
 20
374.5795832324849
 30
0.0
 10
54.05649802696929
 20
374.5854593743372
 30
0.0
 10
54.0582469018646
 20
374.59084962265
 30
0.0
 10
54.06039206864367
 20
374.5974612914677
 30
0.0
 10
54.06372807268136
 20
374.6035437946614
 30
0.0
 10
54.06767041078194
 20
374.6088656806737
 30
0.0
 10
54.07375948646482
 20
374.6170855151674
 30
0.0
 10
54.08142259326223
 20
374.6238171292305
 30
0.0
 10
54.08956226932558
 20
374.6293541950566
 30
0.0
 10
54.10455319718477
 20
374.639551867999
 30
0.0
 10
54.12163285311843
 20
374.6461948565505
 30
0.0
 10
54.13896839347775
 20
374.6507248580087
 30
0.0
 10
54.16161001360083
 20
374.6566414069047
 30
0.0
 10
54.18531481614932
 20
374.6591295092014
 30
0.0
 10
54.20916850605763
 20
374.6589580768334
 30
0.0
  0
SPLINE
  5
18B
330
72
100
AcDbEntity
  8
$DDT_AUDIT_GENERATED_(9B)
  6
Continuous
 62
     7
100
AcDbSpline
210
0.0
220
0.0
230
1.0
 70
     8
 71
     3
 72
    20
 73
    16
 74
     0
 42
0.0000000224601404
 43
0.0000000001
 40
0.563251577104708
 40
0.563251577104708
 40
0.563251577104708
 40
0.563251577104708
 40
0.7863478977128285
 40
0.7863478977128285
 40
0.7863478977128285
 40
0.8531658411868754
 40
0.8531658411868754
 40
0.8531658411868754
 40
0.9207144446978978
 40
0.9207144446978978
 40
0.9207144446978978
 40
0.9606044589611058
 40
0.9606044589611058
 40
0.9606044589611058
 40
1.0
 40
1.0
 40
1.0
 40
1.0
 10
64.32827834831488
 20
374.6589474884944
 30
0.0
 10
64.36062534733277
 20
374.6592773389527
 30
0.0
 10
64.39302693415351
 20
374.6549210923963
 30
0.0
 10
64.42240724005572
 20
374.6430027713452
 30
0.0
 10
64.43138634573259
 20
374.6393603360157
 30
0.0
 10
64.44012671416115
 20
374.6349259458057
 30
0.0
 10
64.44823348004482
 20
374.6294242092481
 30
0.0
 10
64.45638928441804
 20
374.6238891922363
 30
0.0
 10
64.46406924835883
 20
374.6171587572517
 30
0.0
 10
64.47017548508576
 20
374.6089369969051
 30
0.0
 10
64.47379868487042
 20
374.6040585289306
 30
0.0
 10
64.4769090858363
 20
374.5985537599611
 30
0.0
 10
64.47905971018926
 20
374.5925802322371
 30
0.0
 10
64.48117316663718
 20
374.5867099412829
 30
0.0
 10
64.48237398323755
 20
374.5802081009515
 30
0.0
 10
64.48237398323755
 20
374.5736977585038
 30
0.0
  0
SPLINE
  5
18C
330
72
100
AcDbEntity
  8
$DDT_AUDIT_GENERATED_(9B)
  6
Continuous
 62
     7
100
AcDbSpline
210
0.0
220
0.0
230
1.0
 70
     8
 71
     3
 72
    20
 73
    16
 74
     0
 42
0.0000000316960916
 43
0.0000000001
 40
0.557426703460406
 40
0.557426703460406
 40
0.557426703460406
 40
0.557426703460406
 40
0.7339871658485196
 40
0.7339871658485196
 40
0.7339871658485196
 40
0.8330977817276228
 40
0.8330977817276228
 40
0.8330977817276228
 40
0.9110488010567984
 40
0.9110488010567984
 40
0.9110488010567984
 40
0.9745831472273071
 40
0.9745831472273071
 40
0.9745831472273071
 40
1.0
 40
1.0
 40
1.0
 40
1.0
 10
66.44627721544019
 20
374.885909732915
 30
0.0
 10
66.46281722466902
 20
374.8859334044222
 30
0.0
 10
66.47936866412262
 20
374.882283264887
 30
0.0
 10
66.49405849524462
 20
374.8741000112273
 30
0.0
 10
66.50239351153982
 20
374.8694568296935
 30
0.0
 10
66.51029463148927
 20
374.863233884574
 30
0.0
 10
66.51699522768253
 20
374.8552935060725
 30
0.0
 10
66.52226798513331
 20
374.8490451531353
 30
0.0
 10
66.52689737653075
 20
374.8415717079466
 30
0.0
 10
66.53026589042966
 20
374.8331286461131
 30
0.0
 10
66.53301498046301
 20
374.8262381484533
 30
0.0
 10
66.53497029796043
 20
374.8185312704326
 30
0.0
 10
66.53583310240388
 20
374.8105441512497
 30
0.0
 10
66.5361824388559
 20
374.807310287657
 30
0.0
 10
66.53635987799522
 20
374.8040088603373
 30
0.0
 10
66.53635987799522
 20
374.8006907827386
 30
0.0
  0
SPLINE
  5
18D
330
72
100
AcDbEntity
  8
$DDT_AUDIT_GENERATED_(9B)
  6
Continuous
 62
     7
100
AcDbSpline
210
0.0
220
0.0
230
1.0
 70
     8
 71
     3
 72
    20
 73
    16
 74
     0
 42
0.0000000382888078
 43
0.0000000001
 40
0.5523172529250961
 40
0.5523172529250961
 40
0.5523172529250961
 40
0.5523172529250961
 40
0.6234853338230735
 40
0.6234853338230735
 40
0.6234853338230735
 40
0.7676446319378943
 40
0.7676446319378943
 40
0.7676446319378943
 40
0.8640786681210727
 40
0.8640786681210727
 40
0.8640786681210727
 40
0.9614462293687265
 40
0.9614462293687265
 40
0.9614462293687265
 40
1.0
 40
1.0
 40
1.0
 40
1.0
 10
67.79509619435741
 20
375.1128955894659
 30
0.0
 10
67.79992990639144
 20
375.1129039884865
 30
0.0
 10
67.80470653374798
 20
375.1122239316285
 30
0.0
 10
67.80932366024227
 20
375.1108312398914
 30
0.0
 10
67.81864180000508
 20
375.1080205531431
 30
0.0
 10
67.82763377394575
 20
375.1021630178254
 30
0.0
 10
67.83512300416042
 20
375.0932682510584
 30
0.0
 10
67.84017474728152
 20
375.0872684252363
 30
0.0
 10
67.844666496819
 20
375.0797262710987
 30
0.0
 10
67.84810769390178
 20
375.0709843073137
 30
0.0
 10
67.85156845604229
 20
375.062192640759
 30
0.0
 10
67.85404932551512
 20
375.0518778338121
 30
0.0
 10
67.8551339600983
 20
375.0410450463893
 30
0.0
 10
67.85557062471636
 20
375.0366838587084
 30
0.0
 10
67.85579267889105
 20
375.0321994569475
 30
0.0
 10
67.85579267889105
 20
375.0276838069734
 30
0.0
  0
ELLIPSE
  5
18E
330
72
100
AcDbEntity
  8
$DDT_AUDIT_GENERATED_(9B)
  6
Continuous
 62
     7
100
AcDbEllipse
 10
59.2689493968
 20
375.9208749628
 30
0.0
 11
11.0
 21
-1.734723475976807E-15
 31
0.0
210
0.0
220
0.0
230
1.0
 40
0.1478094111
 41
-0.9665615913257071
 42
-0.8626305563469367
  0
ELLIPSE
  5
18F
330
72
100
AcDbEntity
  8
$DDT_AUDIT_GENERATED_(9B)
  6
Continuous
 62
     7
100
AcDbEllipse
 10
59.2689493968
 20
375.9208749628
 30
0.0
 11
11.0
 21
-1.734723475976807E-15
 31
0.0
210
0.0
220
0.0
230
1.0
 40
0.1478094111
 41
-1.024869054017119
 42
-0.9861307301601201
  0
ELLIPSE
  5
190
330
72
100
AcDbEntity
  8
$DDT_AUDIT_GENERATED_(9B)
  6
Continuous
 62
     7
100
AcDbEllipse
 10
59.2689493968
 20
375.9208749628
 30
0.0
 11
11.0
 21
-1.734723475976807E-15
 31
0.0
210
0.0
220
0.0
230
1.0
 40
0.1478094111
 41
-1.128804303613728
 42
-1.117861326708803
  0
ELLIPSE
  5
191
330
72
100
AcDbEntity
  8
$DDT_AUDIT_GENERATED_(9B)
  6
Continuous
 62
     7
100
AcDbEllipse
 10
59.2689493968
 20
375.9208749628
 30
0.0
 11
11.0
 21
-1.734723475976807E-15
 31
0.0
210
0.0
220
0.0
230
1.0
 40
0.1478094111
 41
-1.278906610333355
 42
-1.146784592597115
  0
ELLIPSE
  5
192
330
72
100
AcDbEntity
  8
$DDT_AUDIT_GENERATED_(9B)
  6
Continuous
 62
     7
100
AcDbEllipse
 10
59.2689493968
 20
375.9208749628
 30
0.0
 11
11.0
 21
-1.734723475976807E-15
 31
0.0
210
0.0
220
0.0
230
1.0
 40
0.1478094111
 41
-1.42164227074235
 42
-1.296390203344584
  0
ELLIPSE
  5
193
330
72
100
AcDbEntity
  8
$DDT_AUDIT_GENERATED_(9B)
  6
Continuous
 62
     7
100
AcDbEllipse
 10
59.2689493968
 20
375.9208749628
 30
0.0
 11
11.0
 21
-1.734723475976807E-15
 31
0.0
210
0.0
220
0.0
230
1.0
 40
0.1478094111
 41
4.437528115319109
 42
4.563023790408585
  0
ELLIPSE
  5
194
330
72
100
AcDbEntity
  8
$DDT_AUDIT_GENERATED_(9B)
  6
Continuous
 62
     7
100
AcDbEllipse
 10
59.2689493968
 20
375.9208749628
 30
0.0
 11
11.0
 21
-1.734723475976807E-15
 31
0.0
210
0.0
220
0.0
230
1.0
 40
0.1478094111
 41
4.289039857006347
 42
4.419611574307487
  0
ELLIPSE
  5
195
330
72
100
AcDbEntity
  8
$DDT_AUDIT_GENERATED_(9B)
  6
Continuous
 62
     7
100
AcDbEllipse
 10
59.2689493968
 20
375.9208749628
 30
0.0
 11
11.0
 21
-1.734723475976807E-15
 31
0.0
210
0.0
220
0.0
230
1.0
 40
0.1478094111
 41
4.259453980298597
 42
4.270583232203656
  0
ELLIPSE
  5
196
330
72
100
AcDbEntity
  8
$DDT_AUDIT_GENERATED_(9B)
  6
Continuous
 62
     7
100
AcDbEllipse
 10
59.2689493968
 20
375.9208749628
 30
0.0
 11
11.0
 21
-1.734723475976807E-15
 31
0.0
210
0.0
220
0.0
230
1.0
 40
0.1478094111
 41
4.128577872218514
 42
4.16676786107773
  0
ELLIPSE
  5
197
330
72
100
AcDbEntity
  8
$DDT_AUDIT_GENERATED_(9B)
  6
Continuous
 62
     7
100
AcDbEllipse
 10
59.2689493968
 20
375.9208749628
 30
0.0
 11
11.0
 21
-1.734723475976807E-15
 31
0.0
210
0.0
220
0.0
230
1.0
 40
0.1478094111
 41
4.004223209936729
 42
4.10971162073937
  0
ELLIPSE
  5
198
330
72
100
AcDbEntity
  8
$DDT_AUDIT_GENERATED_(9B)
  6
Continuous
 62
     7
100
AcDbEllipse
 10
59.2689493965
 20
375.9208749628
 30
0.0
 11
10.50000000034338
 21
-1.124621229475764E-11
 31
0.0
210
0.0
220
0.0
230
1.0
 40
0.1478094111
 41
-0.2869134470907309
 42
-0.233301088454593
  0
ELLIPSE
  5
199
330
72
100
AcDbEntity
  8
$DDT_AUDIT_GENERATED_(9B)
  6
Continuous
 62
     7
100
AcDbEllipse
 10
59.268949397
 20
375.9208749628
 30
0.0
 11
10.49999999985478
 21
7.905134880026310E-12
 31
0.0
210
0.0
220
0.0
230
1.0
 40
0.1478094111
 41
-0.4436641018990279
 42
-0.3650008041101716
  0
ELLIPSE
  5
19A
330
72
100
AcDbEntity
  8
$DDT_AUDIT_GENERATED_(9B)
  6
Continuous
 62
     7
100
AcDbEllipse
 10
59.2689493976
 20
375.9208749627
 30
0.0
 11
10.49999999914937
 21
6.763860305181169E-11
 31
0.0
210
0.0
220
0.0
230
1.0
 40
0.1478094111
 41
-0.613227889247054
 42
-0.5273076683736351
  0
ELLIPSE
  5
19B
330
72
100
AcDbEntity
  8
$DDT_AUDIT_GENERATED_(9B)
  6
Continuous
 62
     7
100
AcDbEllipse
 10
59.2689493956
 20
375.920874963
 30
0.0
 11
10.50000000129424
 21
-1.199023519360409E-10
 31
0.0
210
0.0
220
0.0
230
1.0
 40
0.1478094111
 41
-0.736511481148991
 42
-0.7068833393088596
  0
ELLIPSE
  5
19C
330
72
100
AcDbEntity
  8
$DDT_AUDIT_GENERATED_(9B)
  6
Continuous
 62
     7
100
AcDbEllipse
 10
59.2689493969
 20
375.9208749628
 30
0.0
 11
10.49999999988991
 21
1.183948772354171E-11
 31
0.0
210
0.0
220
0.0
230
1.0
 40
0.1478094111
 41
-0.9340807250666314
 42
-0.9202046026949606
  0
ELLIPSE
  5
19D
330
72
100
AcDbEntity
  8
$DDT_AUDIT_GENERATED_(9B)
  6
Continuous
 62
     7
100
AcDbEllipse
 10
59.2689493967
 20
375.9208749628
 30
0.0
 11
10.50000000018257
 21
-1.918430692082751E-11
 31
0.0
210
0.0
220
0.0
230
1.0
 40
0.1478094111
 41
-1.051215154815022
 42
-0.9575684375666507
  0
ELLIPSE
  5
19E
330
72
100
AcDbEntity
  8
$DDT_AUDIT_GENERATED_(9B)
  6
Continuous
 62
     7
100
AcDbEllipse
 10
59.2689493969
 20
375.9208749628
 30
0.0
 11
10.49999999989926
 21
9.235667786100521E-12
 31
0.0
210
0.0
220
0.0
230
1.0
 40
0.1478094111
 41
-1.263963594178573
 42
-1.228493070222488
  0
ELLIPSE
  5
19F
330
72
100
AcDbEntity
  8
$DDT_AUDIT_GENERATED_(9B)
  6
Continuous
 62
     7
100
AcDbEllipse
 10
59.2689493968
 20
375.9208749628
 30
0.0
 11
10.50000000011248
 21
-7.063793994177558E-12
 31
0.0
210
0.0
220
0.0
230
1.0
 40
0.1478094111
 41
-1.414376940911625
 42
-1.283882879697645
  0
ELLIPSE
  5
1A0
330
72
100
AcDbEntity
  8
$DDT_AUDIT_GENERATED_(9B)
  6
Continuous
 62
     7
100
AcDbEllipse
 10
59.2689493968
 20
375.9208749628
 30
0.0
 11
-10.50000000001905
 21
-1.455432996344541E-12
 31
0.0
210
0.0
220
0.0
230
1.0
 40
0.1478094111
 41
1.28388287969888
 42
1.414376940913989
  0
ELLIPSE
  5
1A1
330
72
100
AcDbEntity
  8
$DDT_AUDIT_GENERATED_(9B)
  6
Continuous
 62
     7
100
AcDbEllipse
 10
59.2689493967
 20
375.9208749628
 30
0.0
 11
-10.49999999987551
 21
1.133815263898441E-11
 31
0.0
210
0.0
220
0.0
230
1.0
 40
0.1478094111
 41
1.228493070223157
 42
1.263963594179262
  0
ELLIPSE
  5
1A2
330
72
100
AcDbEntity
  8
$DDT_AUDIT_GENERATED_(9B)
  6
Continuous
 62
     7
100
AcDbEllipse
 10
59.2689493966
 20
375.9208749627
 30
0.0
 11
-10.49999999971497
 21
3.049817343114825E-11
 31
0.0
210
0.0
220
0.0
230
1.0
 40
0.1478094111
 41
0.9575684375813754
 42
1.051215154832995
  0
ELLIPSE
  5
1A3
330
72
100
AcDbEntity
  8
$DDT_AUDIT_GENERATED_(9B)
  6
Continuous
 62
     7
100
AcDbEllipse
 10
59.2689493973
 20
375.9208749629
 30
0.0
 11
-10.5000000005313
 21
-5.664912983149861E-11
 31
0.0
210
0.0
220
0.0
230
1.0
 40
0.1478094111
 41
0.9202046026709596
 42
0.9340807250419728
  0
ELLIPSE
  5
1A4
330
72
100
AcDbEntity
  8
$DDT_AUDIT_GENERATED_(9B)
  6
Continuous
 62
     7
100
AcDbEllipse
 10
59.2689493968
 20
375.9208749628
 30
0.0
 11
-10.49999999998381
 21
2.166669621495032E-12
 31
0.0
210
0.0
220
0.0
230
1.0
 40
0.1478094111
 41
0.7068833393504362
 42
0.7365114811929518
  0
ELLIPSE
  5
1A5
330
72
100
AcDbEntity
  8
$DDT_AUDIT_GENERATED_(9B)
  6
Continuous
 62
     7
100
AcDbEllipse
 10
59.2689493969
 20
375.9208749628
 30
0.0
 11
-10.50000000011487
 21
-8.174017018802715E-12
 31
0.0
210
0.0
220
0.0
230
1.0
 40
0.1478094111
 41
0.5273076683502774
 42
0.613227889219132
  0
ELLIPSE
  5
1A6
330
72
100
AcDbEntity
  8
$DDT_AUDIT_GENERATED_(9B)
  6
Continuous
 62
     7
100
AcDbEllipse
 10
59.2689493969
 20
375.9208749628
 30
0.0
 11
-10.50000000008297
 21
-4.532832442727397E-12
 31
0.0
210
0.0
220
0.0
230
1.0
 40
0.1478094111
 41
0.3650008041061206
 42
0.4436641018940708
  0
ELLIPSE
  5
1A7
330
72
100
AcDbEntity
  8
$DDT_AUDIT_GENERATED_(9B)
  6
Continuous
 62
     7
100
AcDbEllipse
 10
59.2689493971
 20
375.9208749628
 30
0.0
 11
-10.50000000032544
 21
-1.105886215935215E-11
 31
0.0
210
0.0
220
0.0
230
1.0
 40
0.1478094111
 41
0.2333010884548069
 42
0.2869134470909777
  0
LINE
  5
1A8
330
72
100
AcDbEntity
  8
$DDT_AUDIT_GENERATED_(9B)
  6
Continuous
 62
     7
100
AcDbLine
 10
49.8373161608
 20
375.1398958901
 30
0.0
 11
50.0398827414
 21
375.1398958901
 31
0.0
  0
LINE
  5
1A9
330
72
100
AcDbEntity
  8
$DDT_AUDIT_GENERATED_(9B)
  6
Continuous
 62
     7
100
AcDbLine
 10
49.9546636825
 20
375.3398958901
 30
0.0
 11
49.8266066772
 21
375.3398958901
 31
0.0
  0
LINE
  5
1AA
330
72
100
AcDbEntity
  8
$DDT_AUDIT_GENERATED_(9B)
  6
Continuous
 62
     7
100
AcDbLine
 10
49.2304922448
 20
375.3668889143
 30
0.0
 11
50.0398827414
 21
375.3668889143
 31
0.0
  0
LINE
  5
1AB
330
72
100
AcDbEntity
  8
$DDT_AUDIT_GENERATED_(9B)
  6
Continuous
 62
     7
100
AcDbLine
 10
49.9546636825
 20
375.5668889143
 30
0.0
 11
49.2237564495
 21
375.5668889143
 31
0.0
  0
LINE
  5
1AC
330
72
100
AcDbEntity
  8
$DDT_AUDIT_GENERATED_(9B)
  6
Continuous
 62
     7
100
AcDbLine
 10
49.2029989465
 20
375.5938819386
 30
0.0
 11
50.0398827414
 21
375.5938819386
 31
0.0
  0
LINE
  5
1AD
330
72
100
AcDbEntity
  8
$DDT_AUDIT_GENERATED_(9B)
  6
Continuous
 62
     7
100
AcDbLine
 10
50.1546636825
 20
375.7086628797
 30
0.0
 11
50.1546636825
 21
375.7680674762
 31
0.0
  0
LINE
  5
1AE
330
72
100
AcDbEntity
  8
$DDT_AUDIT_GENERATED_(9B)
  6
Continuous
 62
     7
100
AcDbLine
 10
49.9546636825
 20
375.7349367896
 30
0.0
 11
49.9546636825
 21
375.7086628797
 31
0.0
  0
LINE
  5
1AF
330
72
100
AcDbEntity
  8
$DDT_AUDIT_GENERATED_(9B)
  6
Continuous
 62
     7
100
AcDbLine
 10
50.1546636825
 20
375.4816698554
 30
0.0
 11
50.1546636825
 21
375.5938819386
 31
0.0
  0
LINE
  5
1B0
330
72
100
AcDbEntity
  8
$DDT_AUDIT_GENERATED_(9B)
  6
Continuous
 62
     7
100
AcDbLine
 10
49.9546636825
 20
375.5938819386
 30
0.0
 11
49.9546636825
 21
375.4816698554
 31
0.0
  0
LINE
  5
1B1
330
72
100
AcDbEntity
  8
$DDT_AUDIT_GENERATED_(9B)
  6
Continuous
 62
     7
100
AcDbLine
 10
50.1546636825
 20
375.2546768312
 30
0.0
 11
50.1546636825
 21
375.3668889143
 31
0.0
  0
LINE
  5
1B2
330
72
100
AcDbEntity
  8
$DDT_AUDIT_GENERATED_(9B)
  6
Continuous
 62
     7
100
AcDbLine
 10
49.9546636825
 20
375.3668889143
 30
0.0
 11
49.9546636825
 21
375.2546768312
 31
0.0
  0
LINE
  5
1B3
330
72
100
AcDbEntity
  8
$DDT_AUDIT_GENERATED_(9B)
  6
Continuous
 62
     7
100
AcDbLine
 10
50.4946818768
 20
375.8208749628
 30
0.0
 11
51.5755970271
 21
375.8208749628
 31
0.0
  0
LINE
  5
1B4
330
72
100
AcDbEntity
  8
$DDT_AUDIT_GENERATED_(9B)
  6
Continuous
 62
     7
100
AcDbLine
 10
50.0694446236
 20
375.5938819386
 30
0.0
 11
51.5755970271
 21
375.5938819386
 31
0.0
  0
LINE
  5
1B5
330
72
100
AcDbEntity
  8
$DDT_AUDIT_GENERATED_(9B)
  6
Continuous
 62
     7
100
AcDbLine
 10
51.4903779682
 20
375.7938819386
 30
0.0
 11
50.3174827275
 21
375.7938819386
 31
0.0
  0
LINE
  5
1B6
330
72
100
AcDbEntity
  8
$DDT_AUDIT_GENERATED_(9B)
  6
Continuous
 62
     7
100
AcDbLine
 10
50.0694446236
 20
375.3668889143
 30
0.0
 11
51.5755970271
 21
375.3668889143
 31
0.0
  0
LINE
  5
1B7
330
72
100
AcDbEntity
  8
$DDT_AUDIT_GENERATED_(9B)
  6
Continuous
 62
     7
100
AcDbLine
 10
51.4903779682
 20
375.5668889143
 30
0.0
 11
50.1546636825
 21
375.5668889143
 31
0.0
  0
LINE
  5
1B8
330
72
100
AcDbEntity
  8
$DDT_AUDIT_GENERATED_(9B)
  6
Continuous
 62
     7
100
AcDbLine
 10
50.0694446236
 20
375.1398958901
 30
0.0
 11
51.5755970271
 21
375.1398958901
 31
0.0
  0
LINE
  5
1B9
330
72
100
AcDbEntity
  8
$DDT_AUDIT_GENERATED_(9B)
  6
Continuous
 62
     7
100
AcDbLine
 10
51.4903779682
 20
375.3398958901
 30
0.0
 11
50.1546636825
 21
375.3398958901
 31
0.0
  0
LINE
  5
1BA
330
72
100
AcDbEntity
  8
$DDT_AUDIT_GENERATED_(9B)
  6
Continuous
 62
     7
100
AcDbLine
 10
50.758723062
 20
374.9129028659
 30
0.0
 11
51.5755970271
 21
374.9129028659
 31
0.0
  0
LINE
  5
1BB
330
72
100
AcDbEntity
  8
$DDT_AUDIT_GENERATED_(9B)
  6
Continuous
 62
     7
100
AcDbLine
 10
51.4903779682
 20
375.1129028659
 30
0.0
 11
50.742939672
 21
375.1129028659
 31
0.0
  0
LINE
  5
1BC
330
72
100
AcDbEntity
  8
$DDT_AUDIT_GENERATED_(9B)
  6
Continuous
 62
     7
100
AcDbLine
 10
51.6903779682
 20
374.8466832991
 30
0.0
 11
51.6903779682
 21
374.9129028659
 31
0.0
  0
LINE
  5
1BD
330
72
100
AcDbEntity
  8
$DDT_AUDIT_GENERATED_(9B)
  6
Continuous
 62
     7
100
AcDbLine
 10
51.4903779682
 20
374.9129028659
 30
0.0
 11
51.4903779682
 21
374.8783854809
 31
0.0
  0
LINE
  5
1BE
330
72
100
AcDbEntity
  8
$DDT_AUDIT_GENERATED_(9B)
  6
Continuous
 62
     7
100
AcDbLine
 10
51.6903779682
 20
375.027683807
 30
0.0
 11
51.6903779682
 21
375.1398958901
 31
0.0
  0
LINE
  5
1BF
330
72
100
AcDbEntity
  8
$DDT_AUDIT_GENERATED_(9B)
  6
Continuous
 62
     7
100
AcDbLine
 10
51.4903779682
 20
375.1398958901
 30
0.0
 11
51.4903779682
 21
375.027683807
 31
0.0
  0
LINE
  5
1C0
330
72
100
AcDbEntity
  8
$DDT_AUDIT_GENERATED_(9B)
  6
Continuous
 62
     7
100
AcDbLine
 10
51.6903779682
 20
375.2546768312
 30
0.0
 11
51.6903779682
 21
375.3668889143
 31
0.0
  0
LINE
  5
1C1
330
72
100
AcDbEntity
  8
$DDT_AUDIT_GENERATED_(9B)
  6
Continuous
 62
     7
100
AcDbLine
 10
51.4903779682
 20
375.3668889143
 30
0.0
 11
51.4903779682
 21
375.2546768312
 31
0.0
  0
LINE
  5
1C2
330
72
100
AcDbEntity
  8
$DDT_AUDIT_GENERATED_(9B)
  6
Continuous
 62
     7
100
AcDbLine
 10
51.6903779682
 20
375.4816698554
 30
0.0
 11
51.6903779682
 21
375.5938819386
 31
0.0
  0
LINE
  5
1C3
330
72
100
AcDbEntity
  8
$DDT_AUDIT_GENERATED_(9B)
  6
Continuous
 62
     7
100
AcDbLine
 10
51.4903779682
 20
375.5938819386
 30
0.0
 11
51.4903779682
 21
375.4816698554
 31
0.0
  0
LINE
  5
1C4
330
72
100
AcDbEntity
  8
$DDT_AUDIT_GENERATED_(9B)
  6
Continuous
 62
     7
100
AcDbLine
 10
51.6903779682
 20
375.7086628797
 30
0.0
 11
51.6903779682
 21
375.8208749628
 31
0.0
  0
LINE
  5
1C5
330
72
100
AcDbEntity
  8
$DDT_AUDIT_GENERATED_(9B)
  6
Continuous
 62
     7
100
AcDbLine
 10
51.4903779682
 20
375.8208749628
 30
0.0
 11
51.4903779682
 21
375.7086628797
 31
0.0
  0
LINE
  5
1C6
330
72
100
AcDbEntity
  8
$DDT_AUDIT_GENERATED_(9B)
  6
Continuous
 62
     7
100
AcDbLine
 10
51.6903779682
 20
375.9356559039
 30
0.0
 11
51.6903779682
 21
375.9775859328
 31
0.0
  0
LINE
  5
1C7
330
72
100
AcDbEntity
  8
$DDT_AUDIT_GENERATED_(9B)
  6
Continuous
 62
     7
100
AcDbLine
 10
51.4903779682
 20
375.9541166127
 30
0.0
 11
51.4903779682
 21
375.9356559039
 31
0.0
  0
LINE
  5
1C8
330
72
100
AcDbEntity
  8
$DDT_AUDIT_GENERATED_(9B)
  6
Continuous
 62
     7
100
AcDbLine
 10
52.1152536871
 20
374.6859098416
 30
0.0
 11
53.1113113128
 21
374.6859098416
 31
0.0
  0
LINE
  5
1C9
330
72
100
AcDbEntity
  8
$DDT_AUDIT_GENERATED_(9B)
  6
Continuous
 62
     7
100
AcDbLine
 10
53.026092254
 20
374.8859098416
 30
0.0
 11
52.0918853748
 21
374.8859098416
 31
0.0
  0
LINE
  5
1CA
330
72
100
AcDbEntity
  8
$DDT_AUDIT_GENERATED_(9B)
  6
Continuous
 62
     7
100
AcDbLine
 10
51.6051589094
 20
374.9129028659
 30
0.0
 11
53.1113113128
 21
374.9129028659
 31
0.0
  0
LINE
  5
1CB
330
72
100
AcDbEntity
  8
$DDT_AUDIT_GENERATED_(9B)
  6
Continuous
 62
     7
100
AcDbLine
 10
53.026092254
 20
375.1129028659
 30
0.0
 11
51.6903779682
 21
375.1129028659
 31
0.0
  0
LINE
  5
1CC
330
72
100
AcDbEntity
  8
$DDT_AUDIT_GENERATED_(9B)
  6
Continuous
 62
     7
100
AcDbLine
 10
51.6051589094
 20
375.1398958901
 30
0.0
 11
53.1113113128
 21
375.1398958901
 31
0.0
  0
LINE
  5
1CD
330
72
100
AcDbEntity
  8
$DDT_AUDIT_GENERATED_(9B)
  6
Continuous
 62
     7
100
AcDbLine
 10
53.026092254
 20
375.3398958901
 30
0.0
 11
51.6903779682
 21
375.3398958901
 31
0.0
  0
LINE
  5
1CE
330
72
100
AcDbEntity
  8
$DDT_AUDIT_GENERATED_(9B)
  6
Continuous
 62
     7
100
AcDbLine
 10
51.6051589094
 20
375.3668889143
 30
0.0
 11
53.1113113128
 21
375.3668889143
 31
0.0
  0
LINE
  5
1CF
330
72
100
AcDbEntity
  8
$DDT_AUDIT_GENERATED_(9B)
  6
Continuous
 62
     7
100
AcDbLine
 10
53.026092254
 20
375.5668889143
 30
0.0
 11
51.6903779682
 21
375.5668889143
 31
0.0
  0
LINE
  5
1D0
330
72
100
AcDbEntity
  8
$DDT_AUDIT_GENERATED_(9B)
  6
Continuous
 62
     7
100
AcDbLine
 10
51.6051589094
 20
375.5938819386
 30
0.0
 11
53.1113113128
 21
375.5938819386
 31
0.0
  0
LINE
  5
1D1
330
72
100
AcDbEntity
  8
$DDT_AUDIT_GENERATED_(9B)
  6
Continuous
 62
     7
100
AcDbLine
 10
53.026092254
 20
375.7938819386
 30
0.0
 11
51.6903779682
 21
375.7938819386
 31
0.0
  0
LINE
  5
1D2
330
72
100
AcDbEntity
  8
$DDT_AUDIT_GENERATED_(9B)
  6
Continuous
 62
     7
100
AcDbLine
 10
51.6051589094
 20
375.8208749628
 30
0.0
 11
53.1113113128
 21
375.8208749628
 31
0.0
  0
LINE
  5
1D3
330
72
100
AcDbEntity
  8
$DDT_AUDIT_GENERATED_(9B)
  6
Continuous
 62
     7
100
AcDbLine
 10
53.026092254
 20
376.0208749628
 30
0.0
 11
52.083043986
 21
376.0208749628
 31
0.0
  0
LINE
  5
1D4
330
72
100
AcDbEntity
  8
$DDT_AUDIT_GENERATED_(9B)
  6
Continuous
 62
     7
100
AcDbLine
 10
52.3454137522
 20
376.047867987
 30
0.0
 11
53.1113113128
 21
376.047867987
 31
0.0
  0
LINE
  5
1D5
330
72
100
AcDbEntity
  8
$DDT_AUDIT_GENERATED_(9B)
  6
Continuous
 62
     7
100
AcDbLine
 10
53.226092254
 20
375.9356559039
 30
0.0
 11
53.226092254
 21
376.047867987
 31
0.0
  0
LINE
  5
1D6
330
72
100
AcDbEntity
  8
$DDT_AUDIT_GENERATED_(9B)
  6
Continuous
 62
     7
100
AcDbLine
 10
53.026092254
 20
376.047867987
 30
0.0
 11
53.026092254
 21
375.9356559039
 31
0.0
  0
LINE
  5
1D7
330
72
100
AcDbEntity
  8
$DDT_AUDIT_GENERATED_(9B)
  6
Continuous
 62
     7
100
AcDbLine
 10
53.226092254
 20
375.7086628797
 30
0.0
 11
53.226092254
 21
375.8208749628
 31
0.0
  0
LINE
  5
1D8
330
72
100
AcDbEntity
  8
$DDT_AUDIT_GENERATED_(9B)
  6
Continuous
 62
     7
100
AcDbLine
 10
53.026092254
 20
375.8208749628
 30
0.0
 11
53.026092254
 21
375.7086628797
 31
0.0
  0
LINE
  5
1D9
330
72
100
AcDbEntity
  8
$DDT_AUDIT_GENERATED_(9B)
  6
Continuous
 62
     7
100
AcDbLine
 10
53.226092254
 20
375.4816698554
 30
0.0
 11
53.226092254
 21
375.5938819386
 31
0.0
  0
LINE
  5
1DA
330
72
100
AcDbEntity
  8
$DDT_AUDIT_GENERATED_(9B)
  6
Continuous
 62
     7
100
AcDbLine
 10
53.026092254
 20
375.5938819386
 30
0.0
 11
53.026092254
 21
375.4816698554
 31
0.0
  0
LINE
  5
1DB
330
72
100
AcDbEntity
  8
$DDT_AUDIT_GENERATED_(9B)
  6
Continuous
 62
     7
100
AcDbLine
 10
53.226092254
 20
375.2546768312
 30
0.0
 11
53.226092254
 21
375.3668889143
 31
0.0
  0
LINE
  5
1DC
330
72
100
AcDbEntity
  8
$DDT_AUDIT_GENERATED_(9B)
  6
Continuous
 62
     7
100
AcDbLine
 10
53.026092254
 20
375.3668889143
 30
0.0
 11
53.026092254
 21
375.2546768312
 31
0.0
  0
LINE
  5
1DD
330
72
100
AcDbEntity
  8
$DDT_AUDIT_GENERATED_(9B)
  6
Continuous
 62
     7
100
AcDbLine
 10
53.226092254
 20
375.027683807
 30
0.0
 11
53.226092254
 21
375.1398958901
 31
0.0
  0
LINE
  5
1DE
330
72
100
AcDbEntity
  8
$DDT_AUDIT_GENERATED_(9B)
  6
Continuous
 62
     7
100
AcDbLine
 10
53.026092254
 20
375.1398958901
 30
0.0
 11
53.026092254
 21
375.027683807
 31
0.0
  0
LINE
  5
1DF
330
72
100
AcDbEntity
  8
$DDT_AUDIT_GENERATED_(9B)
  6
Continuous
 62
     7
100
AcDbLine
 10
53.226092254
 20
374.8006907827
 30
0.0
 11
53.226092254
 21
374.9129028659
 31
0.0
  0
LINE
  5
1E0
330
72
100
AcDbEntity
  8
$DDT_AUDIT_GENERATED_(9B)
  6
Continuous
 62
     7
100
AcDbLine
 10
53.026092254
 20
374.9129028659
 30
0.0
 11
53.026092254
 21
374.8006907827
 31
0.0
  0
LINE
  5
1E1
330
72
100
AcDbEntity
  8
$DDT_AUDIT_GENERATED_(9B)
  6
Continuous
 62
     7
100
AcDbLine
 10
53.226092254
 20
374.6516587138
 30
0.0
 11
53.226092254
 21
374.6859098416
 31
0.0
  0
LINE
  5
1E2
330
72
100
AcDbEntity
  8
$DDT_AUDIT_GENERATED_(9B)
  6
Continuous
 62
     7
100
AcDbLine
 10
53.026092254
 20
374.6859098416
 30
0.0
 11
53.026092254
 21
374.6729858819
 31
0.0
  0
LINE
  5
1E3
330
72
100
AcDbEntity
  8
$DDT_AUDIT_GENERATED_(9B)
  6
Continuous
 62
     7
100
AcDbLine
 10
53.1408731951
 20
376.047867987
 30
0.0
 11
54.6470255986
 21
376.047867987
 31
0.0
  0
LINE
  5
1E4
330
72
100
AcDbEntity
  8
$DDT_AUDIT_GENERATED_(9B)
  6
Continuous
 62
     7
100
AcDbLine
 10
53.1408731951
 20
375.8208749628
 30
0.0
 11
54.6470255986
 21
375.8208749628
 31
0.0
  0
LINE
  5
1E5
330
72
100
AcDbEntity
  8
$DDT_AUDIT_GENERATED_(9B)
  6
Continuous
 62
     7
100
AcDbLine
 10
54.5618065397
 20
376.0208749628
 30
0.0
 11
53.226092254
 21
376.0208749628
 31
0.0
  0
LINE
  5
1E6
330
72
100
AcDbEntity
  8
$DDT_AUDIT_GENERATED_(9B)
  6
Continuous
 62
     7
100
AcDbLine
 10
53.1408731951
 20
375.5938819386
 30
0.0
 11
54.6470255986
 21
375.5938819386
 31
0.0
  0
LINE
  5
1E7
330
72
100
AcDbEntity
  8
$DDT_AUDIT_GENERATED_(9B)
  6
Continuous
 62
     7
100
AcDbLine
 10
54.5618065397
 20
375.7938819386
 30
0.0
 11
53.226092254
 21
375.7938819386
 31
0.0
  0
LINE
  5
1E8
330
72
100
AcDbEntity
  8
$DDT_AUDIT_GENERATED_(9B)
  6
Continuous
 62
     7
100
AcDbLine
 10
53.1408731951
 20
375.3668889143
 30
0.0
 11
54.6470255986
 21
375.3668889143
 31
0.0
  0
LINE
  5
1E9
330
72
100
AcDbEntity
  8
$DDT_AUDIT_GENERATED_(9B)
  6
Continuous
 62
     7
100
AcDbLine
 10
54.5618065397
 20
375.5668889143
 30
0.0
 11
53.226092254
 21
375.5668889143
 31
0.0
  0
LINE
  5
1EA
330
72
100
AcDbEntity
  8
$DDT_AUDIT_GENERATED_(9B)
  6
Continuous
 62
     7
100
AcDbLine
 10
53.1408731951
 20
375.1398958901
 30
0.0
 11
54.6470255986
 21
375.1398958901
 31
0.0
  0
LINE
  5
1EB
330
72
100
AcDbEntity
  8
$DDT_AUDIT_GENERATED_(9B)
  6
Continuous
 62
     7
100
AcDbLine
 10
54.5618065397
 20
375.3398958901
 30
0.0
 11
53.226092254
 21
375.3398958901
 31
0.0
  0
LINE
  5
1EC
330
72
100
AcDbEntity
  8
$DDT_AUDIT_GENERATED_(9B)
  6
Continuous
 62
     7
100
AcDbLine
 10
53.1408731951
 20
374.9129028659
 30
0.0
 11
54.6470255986
 21
374.9129028659
 31
0.0
  0
LINE
  5
1ED
330
72
100
AcDbEntity
  8
$DDT_AUDIT_GENERATED_(9B)
  6
Continuous
 62
     7
100
AcDbLine
 10
54.5618065397
 20
375.1129028659
 30
0.0
 11
53.226092254
 21
375.1129028659
 31
0.0
  0
LINE
  5
1EE
330
72
100
AcDbEntity
  8
$DDT_AUDIT_GENERATED_(9B)
  6
Continuous
 62
     7
100
AcDbLine
 10
53.1408731951
 20
374.6859098416
 30
0.0
 11
54.6470255986
 21
374.6859098416
 31
0.0
  0
LINE
  5
1EF
330
72
100
AcDbEntity
  8
$DDT_AUDIT_GENERATED_(9B)
  6
Continuous
 62
     7
100
AcDbLine
 10
54.5618065397
 20
374.8859098416
 30
0.0
 11
53.226092254
 21
374.8859098416
 31
0.0
  0
LINE
  5
1F0
330
72
100
AcDbEntity
  8
$DDT_AUDIT_GENERATED_(9B)
  6
Continuous
 62
     7
100
AcDbLine
 10
54.2479997247
 20
374.4589168174
 30
0.0
 11
54.6470255986
 21
374.4589168174
 31
0.0
  0
LINE
  5
1F1
330
72
100
AcDbEntity
  8
$DDT_AUDIT_GENERATED_(9B)
  6
Continuous
 62
     7
100
AcDbLine
 10
54.5618065397
 20
374.6589168174
 30
0.0
 11
54.2094539707
 21
374.6589168174
 31
0.0
  0
LINE
  5
1F2
330
72
100
AcDbEntity
  8
$DDT_AUDIT_GENERATED_(9B)
  6
Continuous
 62
     7
100
AcDbLine
 10
54.7618065397
 20
374.5736977585
 30
0.0
 11
54.7618065397
 21
374.6859098416
 31
0.0
  0
LINE
  5
1F3
330
72
100
AcDbEntity
  8
$DDT_AUDIT_GENERATED_(9B)
  6
Continuous
 62
     7
100
AcDbLine
 10
54.5618065397
 20
374.6859098416
 30
0.0
 11
54.5618065397
 21
374.5736977585
 31
0.0
  0
LINE
  5
1F4
330
72
100
AcDbEntity
  8
$DDT_AUDIT_GENERATED_(9B)
  6
Continuous
 62
     7
100
AcDbLine
 10
54.7618065397
 20
374.8006907827
 30
0.0
 11
54.7618065397
 21
374.9129028659
 31
0.0
  0
LINE
  5
1F5
330
72
100
AcDbEntity
  8
$DDT_AUDIT_GENERATED_(9B)
  6
Continuous
 62
     7
100
AcDbLine
 10
54.5618065397
 20
374.9129028659
 30
0.0
 11
54.5618065397
 21
374.8006907827
 31
0.0
  0
LINE
  5
1F6
330
72
100
AcDbEntity
  8
$DDT_AUDIT_GENERATED_(9B)
  6
Continuous
 62
     7
100
AcDbLine
 10
54.7618065397
 20
375.027683807
 30
0.0
 11
54.7618065397
 21
375.1398958901
 31
0.0
  0
LINE
  5
1F7
330
72
100
AcDbEntity
  8
$DDT_AUDIT_GENERATED_(9B)
  6
Continuous
 62
     7
100
AcDbLine
 10
54.5618065397
 20
375.1398958901
 30
0.0
 11
54.5618065397
 21
375.027683807
 31
0.0
  0
LINE
  5
1F8
330
72
100
AcDbEntity
  8
$DDT_AUDIT_GENERATED_(9B)
  6
Continuous
 62
     7
100
AcDbLine
 10
54.7618065397
 20
375.2546768312
 30
0.0
 11
54.7618065397
 21
375.3668889143
 31
0.0
  0
LINE
  5
1F9
330
72
100
AcDbEntity
  8
$DDT_AUDIT_GENERATED_(9B)
  6
Continuous
 62
     7
100
AcDbLine
 10
54.5618065397
 20
375.3668889143
 30
0.0
 11
54.5618065397
 21
375.2546768312
 31
0.0
  0
LINE
  5
1FA
330
72
100
AcDbEntity
  8
$DDT_AUDIT_GENERATED_(9B)
  6
Continuous
 62
     7
100
AcDbLine
 10
54.7618065397
 20
375.4816698554
 30
0.0
 11
54.7618065397
 21
375.5938819386
 31
0.0
  0
LINE
  5
1FB
330
72
100
AcDbEntity
  8
$DDT_AUDIT_GENERATED_(9B)
  6
Continuous
 62
     7
100
AcDbLine
 10
54.5618065397
 20
375.5938819386
 30
0.0
 11
54.5618065397
 21
375.4816698554
 31
0.0
  0
LINE
  5
1FC
330
72
100
AcDbEntity
  8
$DDT_AUDIT_GENERATED_(9B)
  6
Continuous
 62
     7
100
AcDbLine
 10
54.7618065397
 20
375.7086628797
 30
0.0
 11
54.7618065397
 21
375.8208749628
 31
0.0
  0
LINE
  5
1FD
330
72
100
AcDbEntity
  8
$DDT_AUDIT_GENERATED_(9B)
  6
Continuous
 62
     7
100
AcDbLine
 10
54.5618065397
 20
375.8208749628
 30
0.0
 11
54.5618065397
 21
375.7086628797
 31
0.0
  0
LINE
  5
1FE
330
72
100
AcDbEntity
  8
$DDT_AUDIT_GENERATED_(9B)
  6
Continuous
 62
     7
100
AcDbLine
 10
54.7618065397
 20
375.9356559039
 30
0.0
 11
54.7618065397
 21
376.047867987
 31
0.0
  0
LINE
  5
1FF
330
72
100
AcDbEntity
  8
$DDT_AUDIT_GENERATED_(9B)
  6
Continuous
 62
     7
100
AcDbLine
 10
54.5618065397
 20
376.047867987
 30
0.0
 11
54.5618065397
 21
375.9356559039
 31
0.0
  0
LINE
  5
200
330
72
100
AcDbEntity
  8
$DDT_AUDIT_GENERATED_(9B)
  6
Continuous
 62
     7
100
AcDbLine
 10
54.7618065397
 20
376.1626489281
 30
0.0
 11
54.7618065397
 21
376.2357920972
 31
0.0
  0
LINE
  5
201
330
72
100
AcDbEntity
  8
$DDT_AUDIT_GENERATED_(9B)
  6
Continuous
 62
     7
100
AcDbLine
 10
54.5618065397
 20
376.223905542
 30
0.0
 11
54.5618065397
 21
376.1626489281
 31
0.0
  0
LINE
  5
202
330
72
100
AcDbEntity
  8
$DDT_AUDIT_GENERATED_(9B)
  6
Continuous
 62
     7
100
AcDbLine
 10
54.6765874808
 20
374.4589168174
 30
0.0
 11
56.1827398843
 21
374.4589168174
 31
0.0
  0
LINE
  5
203
330
72
100
AcDbEntity
  8
$DDT_AUDIT_GENERATED_(9B)
  6
Continuous
 62
     7
100
AcDbLine
 10
56.0975208254
 20
374.6589168174
 30
0.0
 11
54.7618065397
 21
374.6589168174
 31
0.0
  0
LINE
  5
204
330
72
100
AcDbEntity
  8
$DDT_AUDIT_GENERATED_(9B)
  6
Continuous
 62
     7
100
AcDbLine
 10
54.6765874808
 20
374.6859098416
 30
0.0
 11
56.1827398843
 21
374.6859098416
 31
0.0
  0
LINE
  5
205
330
72
100
AcDbEntity
  8
$DDT_AUDIT_GENERATED_(9B)
  6
Continuous
 62
     7
100
AcDbLine
 10
56.0975208254
 20
374.8859098416
 30
0.0
 11
54.7618065397
 21
374.8859098416
 31
0.0
  0
LINE
  5
206
330
72
100
AcDbEntity
  8
$DDT_AUDIT_GENERATED_(9B)
  6
Continuous
 62
     7
100
AcDbLine
 10
54.6765874808
 20
374.9129028659
 30
0.0
 11
56.1827398843
 21
374.9129028659
 31
0.0
  0
LINE
  5
207
330
72
100
AcDbEntity
  8
$DDT_AUDIT_GENERATED_(9B)
  6
Continuous
 62
     7
100
AcDbLine
 10
56.0975208254
 20
375.1129028659
 30
0.0
 11
54.7618065397
 21
375.1129028659
 31
0.0
  0
LINE
  5
208
330
72
100
AcDbEntity
  8
$DDT_AUDIT_GENERATED_(9B)
  6
Continuous
 62
     7
100
AcDbLine
 10
54.6765874808
 20
375.1398958901
 30
0.0
 11
56.1827398843
 21
375.1398958901
 31
0.0
  0
LINE
  5
209
330
72
100
AcDbEntity
  8
$DDT_AUDIT_GENERATED_(9B)
  6
Continuous
 62
     7
100
AcDbLine
 10
56.0975208254
 20
375.3398958901
 30
0.0
 11
54.7618065397
 21
375.3398958901
 31
0.0
  0
LINE
  5
20A
330
72
100
AcDbEntity
  8
$DDT_AUDIT_GENERATED_(9B)
  6
Continuous
 62
     7
100
AcDbLine
 10
54.6765874808
 20
375.3668889143
 30
0.0
 11
56.1827398843
 21
375.3668889143
 31
0.0
  0
LINE
  5
20B
330
72
100
AcDbEntity
  8
$DDT_AUDIT_GENERATED_(9B)
  6
Continuous
 62
     7
100
AcDbLine
 10
56.0975208254
 20
375.5668889143
 30
0.0
 11
54.7618065397
 21
375.5668889143
 31
0.0
  0
LINE
  5
20C
330
72
100
AcDbEntity
  8
$DDT_AUDIT_GENERATED_(9B)
  6
Continuous
 62
     7
100
AcDbLine
 10
54.6765874808
 20
375.5938819386
 30
0.0
 11
56.1827398843
 21
375.5938819386
 31
0.0
  0
LINE
  5
20D
330
72
100
AcDbEntity
  8
$DDT_AUDIT_GENERATED_(9B)
  6
Continuous
 62
     7
100
AcDbLine
 10
56.0975208254
 20
375.7938819386
 30
0.0
 11
54.7618065397
 21
375.7938819386
 31
0.0
  0
LINE
  5
20E
330
72
100
AcDbEntity
  8
$DDT_AUDIT_GENERATED_(9B)
  6
Continuous
 62
     7
100
AcDbLine
 10
54.6765874808
 20
375.8208749628
 30
0.0
 11
56.1827398843
 21
375.8208749628
 31
0.0
  0
LINE
  5
20F
330
72
100
AcDbEntity
  8
$DDT_AUDIT_GENERATED_(9B)
  6
Continuous
 62
     7
100
AcDbLine
 10
56.0975208254
 20
376.0208749628
 30
0.0
 11
54.7618065397
 21
376.0208749628
 31
0.0
  0
LINE
  5
210
330
72
100
AcDbEntity
  8
$DDT_AUDIT_GENERATED_(9B)
  6
Continuous
 62
     7
100
AcDbLine
 10
54.6765874808
 20
376.047867987
 30
0.0
 11
56.1827398843
 21
376.047867987
 31
0.0
  0
LINE
  5
211
330
72
100
AcDbEntity
  8
$DDT_AUDIT_GENERATED_(9B)
  6
Continuous
 62
     7
100
AcDbLine
 10
56.0975208254
 20
376.247867987
 30
0.0
 11
54.976062154
 21
376.247867987
 31
0.0
  0
LINE
  5
212
330
72
100
AcDbEntity
  8
$DDT_AUDIT_GENERATED_(9B)
  6
Continuous
 62
     7
100
AcDbLine
 10
55.505163484
 20
376.2748610113
 30
0.0
 11
56.1827398843
 21
376.2748610113
 31
0.0
  0
LINE
  5
213
330
72
100
AcDbEntity
  8
$DDT_AUDIT_GENERATED_(9B)
  6
Continuous
 62
     7
100
AcDbLine
 10
56.2975208254
 20
376.1626489281
 30
0.0
 11
56.2975208254
 21
376.2748610113
 31
0.0
  0
LINE
  5
214
330
72
100
AcDbEntity
  8
$DDT_AUDIT_GENERATED_(9B)
  6
Continuous
 62
     7
100
AcDbLine
 10
56.0975208254
 20
376.2748610113
 30
0.0
 11
56.0975208254
 21
376.1626489281
 31
0.0
  0
LINE
  5
215
330
72
100
AcDbEntity
  8
$DDT_AUDIT_GENERATED_(9B)
  6
Continuous
 62
     7
100
AcDbLine
 10
56.2975208254
 20
375.9356559039
 30
0.0
 11
56.2975208254
 21
376.047867987
 31
0.0
  0
LINE
  5
216
330
72
100
AcDbEntity
  8
$DDT_AUDIT_GENERATED_(9B)
  6
Continuous
 62
     7
100
AcDbLine
 10
56.0975208254
 20
376.047867987
 30
0.0
 11
56.0975208254
 21
375.9356559039
 31
0.0
  0
LINE
  5
217
330
72
100
AcDbEntity
  8
$DDT_AUDIT_GENERATED_(9B)
  6
Continuous
 62
     7
100
AcDbLine
 10
56.2975208254
 20
375.7086628797
 30
0.0
 11
56.2975208254
 21
375.8208749628
 31
0.0
  0
LINE
  5
218
330
72
100
AcDbEntity
  8
$DDT_AUDIT_GENERATED_(9B)
  6
Continuous
 62
     7
100
AcDbLine
 10
56.0975208254
 20
375.8208749628
 30
0.0
 11
56.0975208254
 21
375.7086628797
 31
0.0
  0
LINE
  5
219
330
72
100
AcDbEntity
  8
$DDT_AUDIT_GENERATED_(9B)
  6
Continuous
 62
     7
100
AcDbLine
 10
56.2975208254
 20
375.4816698554
 30
0.0
 11
56.2975208254
 21
375.5938819386
 31
0.0
  0
LINE
  5
21A
330
72
100
AcDbEntity
  8
$DDT_AUDIT_GENERATED_(9B)
  6
Continuous
 62
     7
100
AcDbLine
 10
56.0975208254
 20
375.5938819386
 30
0.0
 11
56.0975208254
 21
375.4816698554
 31
0.0
  0
LINE
  5
21B
330
72
100
AcDbEntity
  8
$DDT_AUDIT_GENERATED_(9B)
  6
Continuous
 62
     7
100
AcDbLine
 10
56.2975208254
 20
375.2546768312
 30
0.0
 11
56.2975208254
 21
375.3668889143
 31
0.0
  0
LINE
  5
21C
330
72
100
AcDbEntity
  8
$DDT_AUDIT_GENERATED_(9B)
  6
Continuous
 62
     7
100
AcDbLine
 10
56.0975208254
 20
375.3668889143
 30
0.0
 11
56.0975208254
 21
375.2546768312
 31
0.0
  0
LINE
  5
21D
330
72
100
AcDbEntity
  8
$DDT_AUDIT_GENERATED_(9B)
  6
Continuous
 62
     7
100
AcDbLine
 10
56.2975208254
 20
375.027683807
 30
0.0
 11
56.2975208254
 21
375.1398958901
 31
0.0
  0
LINE
  5
21E
330
72
100
AcDbEntity
  8
$DDT_AUDIT_GENERATED_(9B)
  6
Continuous
 62
     7
100
AcDbLine
 10
56.0975208254
 20
375.1398958901
 30
0.0
 11
56.0975208254
 21
375.027683807
 31
0.0
  0
LINE
  5
21F
330
72
100
AcDbEntity
  8
$DDT_AUDIT_GENERATED_(9B)
  6
Continuous
 62
     7
100
AcDbLine
 10
56.2975208254
 20
374.8006907827
 30
0.0
 11
56.2975208254
 21
374.9129028659
 31
0.0
  0
LINE
  5
220
330
72
100
AcDbEntity
  8
$DDT_AUDIT_GENERATED_(9B)
  6
Continuous
 62
     7
100
AcDbLine
 10
56.0975208254
 20
374.9129028659
 30
0.0
 11
56.0975208254
 21
374.8006907827
 31
0.0
  0
LINE
  5
221
330
72
100
AcDbEntity
  8
$DDT_AUDIT_GENERATED_(9B)
  6
Continuous
 62
     7
100
AcDbLine
 10
56.2975208254
 20
374.5736977585
 30
0.0
 11
56.2975208254
 21
374.6859098416
 31
0.0
  0
LINE
  5
222
330
72
100
AcDbEntity
  8
$DDT_AUDIT_GENERATED_(9B)
  6
Continuous
 62
     7
100
AcDbLine
 10
56.0975208254
 20
374.6859098416
 30
0.0
 11
56.0975208254
 21
374.5736977585
 31
0.0
  0
LINE
  5
223
330
72
100
AcDbEntity
  8
$DDT_AUDIT_GENERATED_(9B)
  6
Continuous
 62
     7
100
AcDbLine
 10
56.2975208254
 20
374.4323188835
 30
0.0
 11
56.2975208254
 21
374.4589168174
 31
0.0
  0
LINE
  5
224
330
72
100
AcDbEntity
  8
$DDT_AUDIT_GENERATED_(9B)
  6
Continuous
 62
     7
100
AcDbLine
 10
56.0975208254
 20
374.4589168174
 30
0.0
 11
56.0975208254
 21
374.4413622602
 31
0.0
  0
LINE
  5
225
330
72
100
AcDbEntity
  8
$DDT_AUDIT_GENERATED_(9B)
  6
Continuous
 62
     7
100
AcDbLine
 10
56.2123017665
 20
376.2748610113
 30
0.0
 11
57.71845417
 21
376.2748610113
 31
0.0
  0
LINE
  5
226
330
72
100
AcDbEntity
  8
$DDT_AUDIT_GENERATED_(9B)
  6
Continuous
 62
     7
100
AcDbLine
 10
56.2123017665
 20
376.047867987
 30
0.0
 11
57.71845417
 21
376.047867987
 31
0.0
  0
LINE
  5
227
330
72
100
AcDbEntity
  8
$DDT_AUDIT_GENERATED_(9B)
  6
Continuous
 62
     7
100
AcDbLine
 10
57.6332351111
 20
376.247867987
 30
0.0
 11
56.2975208254
 21
376.247867987
 31
0.0
  0
LINE
  5
228
330
72
100
AcDbEntity
  8
$DDT_AUDIT_GENERATED_(9B)
  6
Continuous
 62
     7
100
AcDbLine
 10
56.2123017665
 20
375.8208749628
 30
0.0
 11
57.71845417
 21
375.8208749628
 31
0.0
  0
LINE
  5
229
330
72
100
AcDbEntity
  8
$DDT_AUDIT_GENERATED_(9B)
  6
Continuous
 62
     7
100
AcDbLine
 10
57.6332351111
 20
376.0208749628
 30
0.0
 11
56.2975208254
 21
376.0208749628
 31
0.0
  0
LINE
  5
22A
330
72
100
AcDbEntity
  8
$DDT_AUDIT_GENERATED_(9B)
  6
Continuous
 62
     7
100
AcDbLine
 10
56.2123017665
 20
375.5938819386
 30
0.0
 11
57.71845417
 21
375.5938819386
 31
0.0
  0
LINE
  5
22B
330
72
100
AcDbEntity
  8
$DDT_AUDIT_GENERATED_(9B)
  6
Continuous
 62
     7
100
AcDbLine
 10
57.6332351111
 20
375.7938819386
 30
0.0
 11
56.2975208254
 21
375.7938819386
 31
0.0
  0
LINE
  5
22C
330
72
100
AcDbEntity
  8
$DDT_AUDIT_GENERATED_(9B)
  6
Continuous
 62
     7
100
AcDbLine
 10
56.2123017665
 20
375.3668889143
 30
0.0
 11
57.71845417
 21
375.3668889143
 31
0.0
  0
LINE
  5
22D
330
72
100
AcDbEntity
  8
$DDT_AUDIT_GENERATED_(9B)
  6
Continuous
 62
     7
100
AcDbLine
 10
57.6332351111
 20
375.5668889143
 30
0.0
 11
56.2975208254
 21
375.5668889143
 31
0.0
  0
LINE
  5
22E
330
72
100
AcDbEntity
  8
$DDT_AUDIT_GENERATED_(9B)
  6
Continuous
 62
     7
100
AcDbLine
 10
56.2123017665
 20
375.1398958901
 30
0.0
 11
57.71845417
 21
375.1398958901
 31
0.0
  0
LINE
  5
22F
330
72
100
AcDbEntity
  8
$DDT_AUDIT_GENERATED_(9B)
  6
Continuous
 62
     7
100
AcDbLine
 10
57.6332351111
 20
375.3398958901
 30
0.0
 11
56.2975208254
 21
375.3398958901
 31
0.0
  0
LINE
  5
230
330
72
100
AcDbEntity
  8
$DDT_AUDIT_GENERATED_(9B)
  6
Continuous
 62
     7
100
AcDbLine
 10
56.2123017665
 20
374.9129028659
 30
0.0
 11
57.71845417
 21
374.9129028659
 31
0.0
  0
LINE
  5
231
330
72
100
AcDbEntity
  8
$DDT_AUDIT_GENERATED_(9B)
  6
Continuous
 62
     7
100
AcDbLine
 10
57.6332351111
 20
375.1129028659
 30
0.0
 11
56.2975208254
 21
375.1129028659
 31
0.0
  0
LINE
  5
232
330
72
100
AcDbEntity
  8
$DDT_AUDIT_GENERATED_(9B)
  6
Continuous
 62
     7
100
AcDbLine
 10
56.2123017665
 20
374.6859098416
 30
0.0
 11
57.71845417
 21
374.6859098416
 31
0.0
  0
LINE
  5
233
330
72
100
AcDbEntity
  8
$DDT_AUDIT_GENERATED_(9B)
  6
Continuous
 62
     7
100
AcDbLine
 10
57.6332351111
 20
374.8859098416
 30
0.0
 11
56.2975208254
 21
374.8859098416
 31
0.0
  0
LINE
  5
234
330
72
100
AcDbEntity
  8
$DDT_AUDIT_GENERATED_(9B)
  6
Continuous
 62
     7
100
AcDbLine
 10
56.2123017665
 20
374.4589168174
 30
0.0
 11
57.71845417
 21
374.4589168174
 31
0.0
  0
LINE
  5
235
330
72
100
AcDbEntity
  8
$DDT_AUDIT_GENERATED_(9B)
  6
Continuous
 62
     7
100
AcDbLine
 10
57.6332351111
 20
374.6589168174
 30
0.0
 11
56.2975208254
 21
374.6589168174
 31
0.0
  0
LINE
  5
236
330
72
100
AcDbEntity
  8
$DDT_AUDIT_GENERATED_(9B)
  6
Continuous
 62
     7
100
AcDbLine
 10
57.8332351111
 20
374.383452978
 30
0.0
 11
57.8332351111
 21
374.4589168174
 31
0.0
  0
LINE
  5
237
330
72
100
AcDbEntity
  8
$DDT_AUDIT_GENERATED_(9B)
  6
Continuous
 62
     7
100
AcDbLine
 10
57.6332351111
 20
374.4589168174
 30
0.0
 11
57.6332351111
 21
374.3878238621
 31
0.0
  0
LINE
  5
238
330
72
100
AcDbEntity
  8
$DDT_AUDIT_GENERATED_(9B)
  6
Continuous
 62
     7
100
AcDbLine
 10
57.8332351111
 20
374.5736977585
 30
0.0
 11
57.8332351111
 21
374.6859098416
 31
0.0
  0
LINE
  5
239
330
72
100
AcDbEntity
  8
$DDT_AUDIT_GENERATED_(9B)
  6
Continuous
 62
     7
100
AcDbLine
 10
57.6332351111
 20
374.6859098416
 30
0.0
 11
57.6332351111
 21
374.5736977585
 31
0.0
  0
LINE
  5
23A
330
72
100
AcDbEntity
  8
$DDT_AUDIT_GENERATED_(9B)
  6
Continuous
 62
     7
100
AcDbLine
 10
57.8332351111
 20
374.8006907827
 30
0.0
 11
57.8332351111
 21
374.9129028659
 31
0.0
  0
LINE
  5
23B
330
72
100
AcDbEntity
  8
$DDT_AUDIT_GENERATED_(9B)
  6
Continuous
 62
     7
100
AcDbLine
 10
57.6332351111
 20
374.9129028659
 30
0.0
 11
57.6332351111
 21
374.8006907827
 31
0.0
  0
LINE
  5
23C
330
72
100
AcDbEntity
  8
$DDT_AUDIT_GENERATED_(9B)
  6
Continuous
 62
     7
100
AcDbLine
 10
57.8332351111
 20
375.027683807
 30
0.0
 11
57.8332351111
 21
375.1398958901
 31
0.0
  0
LINE
  5
23D
330
72
100
AcDbEntity
  8
$DDT_AUDIT_GENERATED_(9B)
  6
Continuous
 62
     7
100
AcDbLine
 10
57.6332351111
 20
375.1398958901
 30
0.0
 11
57.6332351111
 21
375.027683807
 31
0.0
  0
LINE
  5
23E
330
72
100
AcDbEntity
  8
$DDT_AUDIT_GENERATED_(9B)
  6
Continuous
 62
     7
100
AcDbLine
 10
57.8332351111
 20
375.2546768312
 30
0.0
 11
57.8332351111
 21
375.3668889143
 31
0.0
  0
LINE
  5
23F
330
72
100
AcDbEntity
  8
$DDT_AUDIT_GENERATED_(9B)
  6
Continuous
 62
     7
100
AcDbLine
 10
57.6332351111
 20
375.3668889143
 30
0.0
 11
57.6332351111
 21
375.2546768312
 31
0.0
  0
LINE
  5
240
330
72
100
AcDbEntity
  8
$DDT_AUDIT_GENERATED_(9B)
  6
Continuous
 62
     7
100
AcDbLine
 10
57.8332351111
 20
375.4816698554
 30
0.0
 11
57.8332351111
 21
375.5938819386
 31
0.0
  0
LINE
  5
241
330
72
100
AcDbEntity
  8
$DDT_AUDIT_GENERATED_(9B)
  6
Continuous
 62
     7
100
AcDbLine
 10
57.6332351111
 20
375.5938819386
 30
0.0
 11
57.6332351111
 21
375.4816698554
 31
0.0
  0
LINE
  5
242
330
72
100
AcDbEntity
  8
$DDT_AUDIT_GENERATED_(9B)
  6
Continuous
 62
     7
100
AcDbLine
 10
57.8332351111
 20
375.7086628797
 30
0.0
 11
57.8332351111
 21
375.8208749628
 31
0.0
  0
LINE
  5
243
330
72
100
AcDbEntity
  8
$DDT_AUDIT_GENERATED_(9B)
  6
Continuous
 62
     7
100
AcDbLine
 10
57.6332351111
 20
375.8208749628
 30
0.0
 11
57.6332351111
 21
375.7086628797
 31
0.0
  0
LINE
  5
244
330
72
100
AcDbEntity
  8
$DDT_AUDIT_GENERATED_(9B)
  6
Continuous
 62
     7
100
AcDbLine
 10
57.8332351111
 20
375.9356559039
 30
0.0
 11
57.8332351111
 21
376.047867987
 31
0.0
  0
LINE
  5
245
330
72
100
AcDbEntity
  8
$DDT_AUDIT_GENERATED_(9B)
  6
Continuous
 62
     7
100
AcDbLine
 10
57.6332351111
 20
376.047867987
 30
0.0
 11
57.6332351111
 21
375.9356559039
 31
0.0
  0
LINE
  5
246
330
72
100
AcDbEntity
  8
$DDT_AUDIT_GENERATED_(9B)
  6
Continuous
 62
     7
100
AcDbLine
 10
57.8332351111
 20
376.1626489281
 30
0.0
 11
57.8332351111
 21
376.2748610113
 31
0.0
  0
LINE
  5
247
330
72
100
AcDbEntity
  8
$DDT_AUDIT_GENERATED_(9B)
  6
Continuous
 62
     7
100
AcDbLine
 10
57.6332351111
 20
376.2748610113
 30
0.0
 11
57.6332351111
 21
376.1626489281
 31
0.0
  0
LINE
  5
248
330
72
100
AcDbEntity
  8
$DDT_AUDIT_GENERATED_(9B)
  6
Continuous
 62
     7
100
AcDbLine
 10
57.7480160522
 20
374.4589168174
 30
0.0
 11
59.2541684557
 21
374.4589168174
 31
0.0
  0
LINE
  5
249
330
72
100
AcDbEntity
  8
$DDT_AUDIT_GENERATED_(9B)
  6
Continuous
 62
     7
100
AcDbLine
 10
59.1689493968
 20
374.6589168174
 30
0.0
 11
57.8332351111
 21
374.6589168174
 31
0.0
  0
LINE
  5
24A
330
72
100
AcDbEntity
  8
$DDT_AUDIT_GENERATED_(9B)
  6
Continuous
 62
     7
100
AcDbLine
 10
57.7480160522
 20
374.6859098416
 30
0.0
 11
59.2541684557
 21
374.6859098416
 31
0.0
  0
LINE
  5
24B
330
72
100
AcDbEntity
  8
$DDT_AUDIT_GENERATED_(9B)
  6
Continuous
 62
     7
100
AcDbLine
 10
59.1689493968
 20
374.8859098416
 30
0.0
 11
57.8332351111
 21
374.8859098416
 31
0.0
  0
LINE
  5
24C
330
72
100
AcDbEntity
  8
$DDT_AUDIT_GENERATED_(9B)
  6
Continuous
 62
     7
100
AcDbLine
 10
57.7480160522
 20
374.9129028659
 30
0.0
 11
59.2541684557
 21
374.9129028659
 31
0.0
  0
LINE
  5
24D
330
72
100
AcDbEntity
  8
$DDT_AUDIT_GENERATED_(9B)
  6
Continuous
 62
     7
100
AcDbLine
 10
59.1689493968
 20
375.1129028659
 30
0.0
 11
57.8332351111
 21
375.1129028659
 31
0.0
  0
LINE
  5
24E
330
72
100
AcDbEntity
  8
$DDT_AUDIT_GENERATED_(9B)
  6
Continuous
 62
     7
100
AcDbLine
 10
57.7480160522
 20
375.1398958901
 30
0.0
 11
59.2541684557
 21
375.1398958901
 31
0.0
  0
LINE
  5
24F
330
72
100
AcDbEntity
  8
$DDT_AUDIT_GENERATED_(9B)
  6
Continuous
 62
     7
100
AcDbLine
 10
59.1689493968
 20
375.3398958901
 30
0.0
 11
57.8332351111
 21
375.3398958901
 31
0.0
  0
LINE
  5
250
330
72
100
AcDbEntity
  8
$DDT_AUDIT_GENERATED_(9B)
  6
Continuous
 62
     7
100
AcDbLine
 10
57.7480160522
 20
375.3668889143
 30
0.0
 11
59.2541684557
 21
375.3668889143
 31
0.0
  0
LINE
  5
251
330
72
100
AcDbEntity
  8
$DDT_AUDIT_GENERATED_(9B)
  6
Continuous
 62
     7
100
AcDbLine
 10
59.1689493968
 20
375.5668889143
 30
0.0
 11
57.8332351111
 21
375.5668889143
 31
0.0
  0
LINE
  5
252
330
72
100
AcDbEntity
  8
$DDT_AUDIT_GENERATED_(9B)
  6
Continuous
 62
     7
100
AcDbLine
 10
57.7480160522
 20
375.5938819386
 30
0.0
 11
59.2541684557
 21
375.5938819386
 31
0.0
  0
LINE
  5
253
330
72
100
AcDbEntity
  8
$DDT_AUDIT_GENERATED_(9B)
  6
Continuous
 62
     7
100
AcDbLine
 10
59.1689493968
 20
375.7938819386
 30
0.0
 11
57.8332351111
 21
375.7938819386
 31
0.0
  0
LINE
  5
254
330
72
100
AcDbEntity
  8
$DDT_AUDIT_GENERATED_(9B)
  6
Continuous
 62
     7
100
AcDbLine
 10
57.7480160522
 20
375.8208749628
 30
0.0
 11
59.2541684557
 21
375.8208749628
 31
0.0
  0
LINE
  5
255
330
72
100
AcDbEntity
  8
$DDT_AUDIT_GENERATED_(9B)
  6
Continuous
 62
     7
100
AcDbLine
 10
59.1689493968
 20
376.0208749628
 30
0.0
 11
57.8332351111
 21
376.0208749628
 31
0.0
  0
LINE
  5
256
330
72
100
AcDbEntity
  8
$DDT_AUDIT_GENERATED_(9B)
  6
Continuous
 62
     7
100
AcDbLine
 10
57.7480160522
 20
376.047867987
 30
0.0
 11
59.2541684557
 21
376.047867987
 31
0.0
  0
LINE
  5
257
330
72
100
AcDbEntity
  8
$DDT_AUDIT_GENERATED_(9B)
  6
Continuous
 62
     7
100
AcDbLine
 10
59.1689493968
 20
376.247867987
 30
0.0
 11
57.8332351111
 21
376.247867987
 31
0.0
  0
LINE
  5
258
330
72
100
AcDbEntity
  8
$DDT_AUDIT_GENERATED_(9B)
  6
Continuous
 62
     7
100
AcDbLine
 10
57.7480160522
 20
376.2748610113
 30
0.0
 11
59.2541684557
 21
376.2748610113
 31
0.0
  0
LINE
  5
259
330
72
100
AcDbEntity
  8
$DDT_AUDIT_GENERATED_(9B)
  6
Continuous
 62
     7
100
AcDbLine
 10
59.3689493968
 20
376.1626489281
 30
0.0
 11
59.3689493968
 21
376.2748610113
 31
0.0
  0
LINE
  5
25A
330
72
100
AcDbEntity
  8
$DDT_AUDIT_GENERATED_(9B)
  6
Continuous
 62
     7
100
AcDbLine
 10
59.1689493968
 20
376.2748610113
 30
0.0
 11
59.1689493968
 21
376.1626489281
 31
0.0
  0
LINE
  5
25B
330
72
100
AcDbEntity
  8
$DDT_AUDIT_GENERATED_(9B)
  6
Continuous
 62
     7
100
AcDbLine
 10
59.3689493968
 20
375.9356559039
 30
0.0
 11
59.3689493968
 21
376.047867987
 31
0.0
  0
LINE
  5
25C
330
72
100
AcDbEntity
  8
$DDT_AUDIT_GENERATED_(9B)
  6
Continuous
 62
     7
100
AcDbLine
 10
59.1689493968
 20
376.047867987
 30
0.0
 11
59.1689493968
 21
375.9356559039
 31
0.0
  0
LINE
  5
25D
330
72
100
AcDbEntity
  8
$DDT_AUDIT_GENERATED_(9B)
  6
Continuous
 62
     7
100
AcDbLine
 10
59.3689493968
 20
375.7086628797
 30
0.0
 11
59.3689493968
 21
375.8208749628
 31
0.0
  0
LINE
  5
25E
330
72
100
AcDbEntity
  8
$DDT_AUDIT_GENERATED_(9B)
  6
Continuous
 62
     7
100
AcDbLine
 10
59.1689493968
 20
375.8208749628
 30
0.0
 11
59.1689493968
 21
375.7086628797
 31
0.0
  0
LINE
  5
25F
330
72
100
AcDbEntity
  8
$DDT_AUDIT_GENERATED_(9B)
  6
Continuous
 62
     7
100
AcDbLine
 10
59.3689493968
 20
375.4816698554
 30
0.0
 11
59.3689493968
 21
375.5938819386
 31
0.0
  0
LINE
  5
260
330
72
100
AcDbEntity
  8
$DDT_AUDIT_GENERATED_(9B)
  6
Continuous
 62
     7
100
AcDbLine
 10
59.1689493968
 20
375.5938819386
 30
0.0
 11
59.1689493968
 21
375.4816698554
 31
0.0
  0
LINE
  5
261
330
72
100
AcDbEntity
  8
$DDT_AUDIT_GENERATED_(9B)
  6
Continuous
 62
     7
100
AcDbLine
 10
59.3689493968
 20
375.2546768312
 30
0.0
 11
59.3689493968
 21
375.3668889143
 31
0.0
  0
LINE
  5
262
330
72
100
AcDbEntity
  8
$DDT_AUDIT_GENERATED_(9B)
  6
Continuous
 62
     7
100
AcDbLine
 10
59.1689493968
 20
375.3668889143
 30
0.0
 11
59.1689493968
 21
375.2546768312
 31
0.0
  0
LINE
  5
263
330
72
100
AcDbEntity
  8
$DDT_AUDIT_GENERATED_(9B)
  6
Continuous
 62
     7
100
AcDbLine
 10
59.3689493968
 20
375.027683807
 30
0.0
 11
59.3689493968
 21
375.1398958901
 31
0.0
  0
LINE
  5
264
330
72
100
AcDbEntity
  8
$DDT_AUDIT_GENERATED_(9B)
  6
Continuous
 62
     7
100
AcDbLine
 10
59.1689493968
 20
375.1398958901
 30
0.0
 11
59.1689493968
 21
375.027683807
 31
0.0
  0
LINE
  5
265
330
72
100
AcDbEntity
  8
$DDT_AUDIT_GENERATED_(9B)
  6
Continuous
 62
     7
100
AcDbLine
 10
59.3689493968
 20
374.8006907827
 30
0.0
 11
59.3689493968
 21
374.9129028659
 31
0.0
  0
LINE
  5
266
330
72
100
AcDbEntity
  8
$DDT_AUDIT_GENERATED_(9B)
  6
Continuous
 62
     7
100
AcDbLine
 10
59.1689493968
 20
374.9129028659
 30
0.0
 11
59.1689493968
 21
374.8006907827
 31
0.0
  0
LINE
  5
267
330
72
100
AcDbEntity
  8
$DDT_AUDIT_GENERATED_(9B)
  6
Continuous
 62
     7
100
AcDbLine
 10
59.3689493968
 20
374.5736977585
 30
0.0
 11
59.3689493968
 21
374.6859098416
 31
0.0
  0
LINE
  5
268
330
72
100
AcDbEntity
  8
$DDT_AUDIT_GENERATED_(9B)
  6
Continuous
 62
     7
100
AcDbLine
 10
59.1689493968
 20
374.6859098416
 30
0.0
 11
59.1689493968
 21
374.5736977585
 31
0.0
  0
LINE
  5
269
330
72
100
AcDbEntity
  8
$DDT_AUDIT_GENERATED_(9B)
  6
Continuous
 62
     7
100
AcDbLine
 10
59.3689493968
 20
374.368946533
 30
0.0
 11
59.3689493968
 21
374.4589168174
 31
0.0
  0
LINE
  5
26A
330
72
100
AcDbEntity
  8
$DDT_AUDIT_GENERATED_(9B)
  6
Continuous
 62
     7
100
AcDbLine
 10
59.1689493968
 20
374.4589168174
 30
0.0
 11
59.1689493968
 21
374.368946533
 31
0.0
  0
LINE
  5
26B
330
72
100
AcDbEntity
  8
$DDT_AUDIT_GENERATED_(9B)
  6
Continuous
 62
     7
100
AcDbLine
 10
59.2837303379
 20
376.2748610113
 30
0.0
 11
60.7898827414
 21
376.2748610113
 31
0.0
  0
LINE
  5
26C
330
72
100
AcDbEntity
  8
$DDT_AUDIT_GENERATED_(9B)
  6
Continuous
 62
     7
100
AcDbLine
 10
59.2837303379
 20
376.047867987
 30
0.0
 11
60.7898827414
 21
376.047867987
 31
0.0
  0
LINE
  5
26D
330
72
100
AcDbEntity
  8
$DDT_AUDIT_GENERATED_(9B)
  6
Continuous
 62
     7
100
AcDbLine
 10
60.7046636825
 20
376.247867987
 30
0.0
 11
59.3689493968
 21
376.247867987
 31
0.0
  0
LINE
  5
26E
330
72
100
AcDbEntity
  8
$DDT_AUDIT_GENERATED_(9B)
  6
Continuous
 62
     7
100
AcDbLine
 10
59.2837303379
 20
375.8208749628
 30
0.0
 11
60.7898827414
 21
375.8208749628
 31
0.0
  0
LINE
  5
26F
330
72
100
AcDbEntity
  8
$DDT_AUDIT_GENERATED_(9B)
  6
Continuous
 62
     7
100
AcDbLine
 10
60.7046636825
 20
376.0208749628
 30
0.0
 11
59.3689493968
 21
376.0208749628
 31
0.0
  0
LINE
  5
270
330
72
100
AcDbEntity
  8
$DDT_AUDIT_GENERATED_(9B)
  6
Continuous
 62
     7
100
AcDbLine
 10
59.2837303379
 20
375.5938819386
 30
0.0
 11
60.7898827414
 21
375.5938819386
 31
0.0
  0
LINE
  5
271
330
72
100
AcDbEntity
  8
$DDT_AUDIT_GENERATED_(9B)
  6
Continuous
 62
     7
100
AcDbLine
 10
60.7046636825
 20
375.7938819386
 30
0.0
 11
59.3689493968
 21
375.7938819386
 31
0.0
  0
LINE
  5
272
330
72
100
AcDbEntity
  8
$DDT_AUDIT_GENERATED_(9B)
  6
Continuous
 62
     7
100
AcDbLine
 10
59.2837303379
 20
375.3668889143
 30
0.0
 11
60.7898827414
 21
375.3668889143
 31
0.0
  0
LINE
  5
273
330
72
100
AcDbEntity
  8
$DDT_AUDIT_GENERATED_(9B)
  6
Continuous
 62
     7
100
AcDbLine
 10
60.7046636825
 20
375.5668889143
 30
0.0
 11
59.3689493968
 21
375.5668889143
 31
0.0
  0
LINE
  5
274
330
72
100
AcDbEntity
  8
$DDT_AUDIT_GENERATED_(9B)
  6
Continuous
 62
     7
100
AcDbLine
 10
59.2837303379
 20
375.1398958901
 30
0.0
 11
60.7898827414
 21
375.1398958901
 31
0.0
  0
LINE
  5
275
330
72
100
AcDbEntity
  8
$DDT_AUDIT_GENERATED_(9B)
  6
Continuous
 62
     7
100
AcDbLine
 10
60.7046636825
 20
375.3398958901
 30
0.0
 11
59.3689493968
 21
375.3398958901
 31
0.0
  0
LINE
  5
276
330
72
100
AcDbEntity
  8
$DDT_AUDIT_GENERATED_(9B)
  6
Continuous
 62
     7
100
AcDbLine
 10
59.2837303379
 20
374.9129028659
 30
0.0
 11
60.7898827414
 21
374.9129028659
 31
0.0
  0
LINE
  5
277
330
72
100
AcDbEntity
  8
$DDT_AUDIT_GENERATED_(9B)
  6
Continuous
 62
     7
100
AcDbLine
 10
60.7046636825
 20
375.1129028659
 30
0.0
 11
59.3689493968
 21
375.1129028659
 31
0.0
  0
LINE
  5
278
330
72
100
AcDbEntity
  8
$DDT_AUDIT_GENERATED_(9B)
  6
Continuous
 62
     7
100
AcDbLine
 10
59.2837303379
 20
374.6859098416
 30
0.0
 11
60.7898827414
 21
374.6859098416
 31
0.0
  0
LINE
  5
279
330
72
100
AcDbEntity
  8
$DDT_AUDIT_GENERATED_(9B)
  6
Continuous
 62
     7
100
AcDbLine
 10
60.7046636825
 20
374.8859098416
 30
0.0
 11
59.3689493968
 21
374.8859098416
 31
0.0
  0
LINE
  5
27A
330
72
100
AcDbEntity
  8
$DDT_AUDIT_GENERATED_(9B)
  6
Continuous
 62
     7
100
AcDbLine
 10
59.2837303379
 20
374.4589168174
 30
0.0
 11
60.7898827414
 21
374.4589168174
 31
0.0
  0
LINE
  5
27B
330
72
100
AcDbEntity
  8
$DDT_AUDIT_GENERATED_(9B)
  6
Continuous
 62
     7
100
AcDbLine
 10
60.7046636825
 20
374.6589168174
 30
0.0
 11
59.3689493968
 21
374.6589168174
 31
0.0
  0
LINE
  5
27C
330
72
100
AcDbEntity
  8
$DDT_AUDIT_GENERATED_(9B)
  6
Continuous
 62
     7
100
AcDbLine
 10
60.9046636825
 20
374.3878238621
 30
0.0
 11
60.9046636825
 21
374.4589168174
 31
0.0
  0
LINE
  5
27D
330
72
100
AcDbEntity
  8
$DDT_AUDIT_GENERATED_(9B)
  6
Continuous
 62
     7
100
AcDbLine
 10
60.7046636825
 20
374.4589168174
 30
0.0
 11
60.7046636825
 21
374.383452978
 31
0.0
  0
LINE
  5
27E
330
72
100
AcDbEntity
  8
$DDT_AUDIT_GENERATED_(9B)
  6
Continuous
 62
     7
100
AcDbLine
 10
60.9046636825
 20
374.5736977585
 30
0.0
 11
60.9046636825
 21
374.6859098416
 31
0.0
  0
LINE
  5
27F
330
72
100
AcDbEntity
  8
$DDT_AUDIT_GENERATED_(9B)
  6
Continuous
 62
     7
100
AcDbLine
 10
60.7046636825
 20
374.6859098416
 30
0.0
 11
60.7046636825
 21
374.5736977585
 31
0.0
  0
LINE
  5
280
330
72
100
AcDbEntity
  8
$DDT_AUDIT_GENERATED_(9B)
  6
Continuous
 62
     7
100
AcDbLine
 10
60.9046636825
 20
374.8006907827
 30
0.0
 11
60.9046636825
 21
374.9129028659
 31
0.0
  0
LINE
  5
281
330
72
100
AcDbEntity
  8
$DDT_AUDIT_GENERATED_(9B)
  6
Continuous
 62
     7
100
AcDbLine
 10
60.7046636825
 20
374.9129028659
 30
0.0
 11
60.7046636825
 21
374.8006907827
 31
0.0
  0
LINE
  5
282
330
72
100
AcDbEntity
  8
$DDT_AUDIT_GENERATED_(9B)
  6
Continuous
 62
     7
100
AcDbLine
 10
60.9046636825
 20
375.027683807
 30
0.0
 11
60.9046636825
 21
375.1398958901
 31
0.0
  0
LINE
  5
283
330
72
100
AcDbEntity
  8
$DDT_AUDIT_GENERATED_(9B)
  6
Continuous
 62
     7
100
AcDbLine
 10
60.7046636825
 20
375.1398958901
 30
0.0
 11
60.7046636825
 21
375.027683807
 31
0.0
  0
LINE
  5
284
330
72
100
AcDbEntity
  8
$DDT_AUDIT_GENERATED_(9B)
  6
Continuous
 62
     7
100
AcDbLine
 10
60.9046636825
 20
375.2546768312
 30
0.0
 11
60.9046636825
 21
375.3668889143
 31
0.0
  0
LINE
  5
285
330
72
100
AcDbEntity
  8
$DDT_AUDIT_GENERATED_(9B)
  6
Continuous
 62
     7
100
AcDbLine
 10
60.7046636825
 20
375.3668889143
 30
0.0
 11
60.7046636825
 21
375.2546768312
 31
0.0
  0
LINE
  5
286
330
72
100
AcDbEntity
  8
$DDT_AUDIT_GENERATED_(9B)
  6
Continuous
 62
     7
100
AcDbLine
 10
60.9046636825
 20
375.4816698554
 30
0.0
 11
60.9046636825
 21
375.5938819386
 31
0.0
  0
LINE
  5
287
330
72
100
AcDbEntity
  8
$DDT_AUDIT_GENERATED_(9B)
  6
Continuous
 62
     7
100
AcDbLine
 10
60.7046636825
 20
375.5938819386
 30
0.0
 11
60.7046636825
 21
375.4816698554
 31
0.0
  0
LINE
  5
288
330
72
100
AcDbEntity
  8
$DDT_AUDIT_GENERATED_(9B)
  6
Continuous
 62
     7
100
AcDbLine
 10
60.9046636825
 20
375.7086628797
 30
0.0
 11
60.9046636825
 21
375.8208749628
 31
0.0
  0
LINE
  5
289
330
72
100
AcDbEntity
  8
$DDT_AUDIT_GENERATED_(9B)
  6
Continuous
 62
     7
100
AcDbLine
 10
60.7046636825
 20
375.8208749628
 30
0.0
 11
60.7046636825
 21
375.7086628797
 31
0.0
  0
LINE
  5
28A
330
72
100
AcDbEntity
  8
$DDT_AUDIT_GENERATED_(9B)
  6
Continuous
 62
     7
100
AcDbLine
 10
60.9046636825
 20
375.9356559039
 30
0.0
 11
60.9046636825
 21
376.047867987
 31
0.0
  0
LINE
  5
28B
330
72
100
AcDbEntity
  8
$DDT_AUDIT_GENERATED_(9B)
  6
Continuous
 62
     7
100
AcDbLine
 10
60.7046636825
 20
376.047867987
 30
0.0
 11
60.7046636825
 21
375.9356559039
 31
0.0
  0
LINE
  5
28C
330
72
100
AcDbEntity
  8
$DDT_AUDIT_GENERATED_(9B)
  6
Continuous
 62
     7
100
AcDbLine
 10
60.9046636825
 20
376.1626489281
 30
0.0
 11
60.9046636825
 21
376.2748610113
 31
0.0
  0
LINE
  5
28D
330
72
100
AcDbEntity
  8
$DDT_AUDIT_GENERATED_(9B)
  6
Continuous
 62
     7
100
AcDbLine
 10
60.7046636825
 20
376.2748610113
 30
0.0
 11
60.7046636825
 21
376.1626489281
 31
0.0
  0
LINE
  5
28E
330
72
100
AcDbEntity
  8
$DDT_AUDIT_GENERATED_(9B)
  6
Continuous
 62
     7
100
AcDbLine
 10
60.8194446236
 20
374.4589168174
 30
0.0
 11
62.3255970271
 21
374.4589168174
 31
0.0
  0
LINE
  5
28F
330
72
100
AcDbEntity
  8
$DDT_AUDIT_GENERATED_(9B)
  6
Continuous
 62
     7
100
AcDbLine
 10
62.2403779682
 20
374.6589168174
 30
0.0
 11
60.9046636825
 21
374.6589168174
 31
0.0
  0
LINE
  5
290
330
72
100
AcDbEntity
  8
$DDT_AUDIT_GENERATED_(9B)
  6
Continuous
 62
     7
100
AcDbLine
 10
60.8194446236
 20
374.6859098416
 30
0.0
 11
62.3255970271
 21
374.6859098416
 31
0.0
  0
LINE
  5
291
330
72
100
AcDbEntity
  8
$DDT_AUDIT_GENERATED_(9B)
  6
Continuous
 62
     7
100
AcDbLine
 10
62.2403779682
 20
374.8859098416
 30
0.0
 11
60.9046636825
 21
374.8859098416
 31
0.0
  0
LINE
  5
292
330
72
100
AcDbEntity
  8
$DDT_AUDIT_GENERATED_(9B)
  6
Continuous
 62
     7
100
AcDbLine
 10
60.8194446236
 20
374.9129028659
 30
0.0
 11
62.3255970271
 21
374.9129028659
 31
0.0
  0
LINE
  5
293
330
72
100
AcDbEntity
  8
$DDT_AUDIT_GENERATED_(9B)
  6
Continuous
 62
     7
100
AcDbLine
 10
62.2403779682
 20
375.1129028659
 30
0.0
 11
60.9046636825
 21
375.1129028659
 31
0.0
  0
LINE
  5
294
330
72
100
AcDbEntity
  8
$DDT_AUDIT_GENERATED_(9B)
  6
Continuous
 62
     7
100
AcDbLine
 10
60.8194446236
 20
375.1398958901
 30
0.0
 11
62.3255970271
 21
375.1398958901
 31
0.0
  0
LINE
  5
295
330
72
100
AcDbEntity
  8
$DDT_AUDIT_GENERATED_(9B)
  6
Continuous
 62
     7
100
AcDbLine
 10
62.2403779682
 20
375.3398958901
 30
0.0
 11
60.9046636825
 21
375.3398958901
 31
0.0
  0
LINE
  5
296
330
72
100
AcDbEntity
  8
$DDT_AUDIT_GENERATED_(9B)
  6
Continuous
 62
     7
100
AcDbLine
 10
60.8194446236
 20
375.3668889143
 30
0.0
 11
62.3255970271
 21
375.3668889143
 31
0.0
  0
LINE
  5
297
330
72
100
AcDbEntity
  8
$DDT_AUDIT_GENERATED_(9B)
  6
Continuous
 62
     7
100
AcDbLine
 10
62.2403779682
 20
375.5668889143
 30
0.0
 11
60.9046636825
 21
375.5668889143
 31
0.0
  0
LINE
  5
298
330
72
100
AcDbEntity
  8
$DDT_AUDIT_GENERATED_(9B)
  6
Continuous
 62
     7
100
AcDbLine
 10
60.8194446236
 20
375.5938819386
 30
0.0
 11
62.3255970271
 21
375.5938819386
 31
0.0
  0
LINE
  5
299
330
72
100
AcDbEntity
  8
$DDT_AUDIT_GENERATED_(9B)
  6
Continuous
 62
     7
100
AcDbLine
 10
62.2403779682
 20
375.7938819386
 30
0.0
 11
60.9046636825
 21
375.7938819386
 31
0.0
  0
LINE
  5
29A
330
72
100
AcDbEntity
  8
$DDT_AUDIT_GENERATED_(9B)
  6
Continuous
 62
     7
100
AcDbLine
 10
60.8194446236
 20
375.8208749628
 30
0.0
 11
62.3255970271
 21
375.8208749628
 31
0.0
  0
LINE
  5
29B
330
72
100
AcDbEntity
  8
$DDT_AUDIT_GENERATED_(9B)
  6
Continuous
 62
     7
100
AcDbLine
 10
62.2403779682
 20
376.0208749628
 30
0.0
 11
60.9046636825
 21
376.0208749628
 31
0.0
  0
LINE
  5
29C
330
72
100
AcDbEntity
  8
$DDT_AUDIT_GENERATED_(9B)
  6
Continuous
 62
     7
100
AcDbLine
 10
60.8194446236
 20
376.047867987
 30
0.0
 11
62.3255970271
 21
376.047867987
 31
0.0
  0
LINE
  5
29D
330
72
100
AcDbEntity
  8
$DDT_AUDIT_GENERATED_(9B)
  6
Continuous
 62
     7
100
AcDbLine
 10
62.2403779682
 20
376.247867987
 30
0.0
 11
60.9046636825
 21
376.247867987
 31
0.0
  0
LINE
  5
29E
330
72
100
AcDbEntity
  8
$DDT_AUDIT_GENERATED_(9B)
  6
Continuous
 62
     7
100
AcDbLine
 10
60.8194446236
 20
376.2748610113
 30
0.0
 11
62.3255970271
 21
376.2748610113
 31
0.0
  0
LINE
  5
29F
330
72
100
AcDbEntity
  8
$DDT_AUDIT_GENERATED_(9B)
  6
Continuous
 62
     7
100
AcDbLine
 10
62.4403779682
 20
376.1626489281
 30
0.0
 11
62.4403779682
 21
376.2748610113
 31
0.0
  0
LINE
  5
2A0
330
72
100
AcDbEntity
  8
$DDT_AUDIT_GENERATED_(9B)
  6
Continuous
 62
     7
100
AcDbLine
 10
62.2403779682
 20
376.2748610113
 30
0.0
 11
62.2403779682
 21
376.1626489281
 31
0.0
  0
LINE
  5
2A1
330
72
100
AcDbEntity
  8
$DDT_AUDIT_GENERATED_(9B)
  6
Continuous
 62
     7
100
AcDbLine
 10
62.4403779682
 20
375.9356559039
 30
0.0
 11
62.4403779682
 21
376.047867987
 31
0.0
  0
LINE
  5
2A2
330
72
100
AcDbEntity
  8
$DDT_AUDIT_GENERATED_(9B)
  6
Continuous
 62
     7
100
AcDbLine
 10
62.2403779682
 20
376.047867987
 30
0.0
 11
62.2403779682
 21
375.9356559039
 31
0.0
  0
LINE
  5
2A3
330
72
100
AcDbEntity
  8
$DDT_AUDIT_GENERATED_(9B)
  6
Continuous
 62
     7
100
AcDbLine
 10
62.4403779682
 20
375.7086628797
 30
0.0
 11
62.4403779682
 21
375.8208749628
 31
0.0
  0
LINE
  5
2A4
330
72
100
AcDbEntity
  8
$DDT_AUDIT_GENERATED_(9B)
  6
Continuous
 62
     7
100
AcDbLine
 10
62.2403779682
 20
375.8208749628
 30
0.0
 11
62.2403779682
 21
375.7086628797
 31
0.0
  0
LINE
  5
2A5
330
72
100
AcDbEntity
  8
$DDT_AUDIT_GENERATED_(9B)
  6
Continuous
 62
     7
100
AcDbLine
 10
62.4403779682
 20
375.4816698554
 30
0.0
 11
62.4403779682
 21
375.5938819386
 31
0.0
  0
LINE
  5
2A6
330
72
100
AcDbEntity
  8
$DDT_AUDIT_GENERATED_(9B)
  6
Continuous
 62
     7
100
AcDbLine
 10
62.2403779682
 20
375.5938819386
 30
0.0
 11
62.2403779682
 21
375.4816698554
 31
0.0
  0
LINE
  5
2A7
330
72
100
AcDbEntity
  8
$DDT_AUDIT_GENERATED_(9B)
  6
Continuous
 62
     7
100
AcDbLine
 10
62.4403779682
 20
375.2546768312
 30
0.0
 11
62.4403779682
 21
375.3668889143
 31
0.0
  0
LINE
  5
2A8
330
72
100
AcDbEntity
  8
$DDT_AUDIT_GENERATED_(9B)
  6
Continuous
 62
     7
100
AcDbLine
 10
62.2403779682
 20
375.3668889143
 30
0.0
 11
62.2403779682
 21
375.2546768312
 31
0.0
  0
LINE
  5
2A9
330
72
100
AcDbEntity
  8
$DDT_AUDIT_GENERATED_(9B)
  6
Continuous
 62
     7
100
AcDbLine
 10
62.4403779682
 20
375.027683807
 30
0.0
 11
62.4403779682
 21
375.1398958901
 31
0.0
  0
LINE
  5
2AA
330
72
100
AcDbEntity
  8
$DDT_AUDIT_GENERATED_(9B)
  6
Continuous
 62
     7
100
AcDbLine
 10
62.2403779682
 20
375.1398958901
 30
0.0
 11
62.2403779682
 21
375.027683807
 31
0.0
  0
LINE
  5
2AB
330
72
100
AcDbEntity
  8
$DDT_AUDIT_GENERATED_(9B)
  6
Continuous
 62
     7
100
AcDbLine
 10
62.4403779682
 20
374.8006907827
 30
0.0
 11
62.4403779682
 21
374.9129028659
 31
0.0
  0
LINE
  5
2AC
330
72
100
AcDbEntity
  8
$DDT_AUDIT_GENERATED_(9B)
  6
Continuous
 62
     7
100
AcDbLine
 10
62.2403779682
 20
374.9129028659
 30
0.0
 11
62.2403779682
 21
374.8006907827
 31
0.0
  0
LINE
  5
2AD
330
72
100
AcDbEntity
  8
$DDT_AUDIT_GENERATED_(9B)
  6
Continuous
 62
     7
100
AcDbLine
 10
62.4403779682
 20
374.5736977585
 30
0.0
 11
62.4403779682
 21
374.6859098416
 31
0.0
  0
LINE
  5
2AE
330
72
100
AcDbEntity
  8
$DDT_AUDIT_GENERATED_(9B)
  6
Continuous
 62
     7
100
AcDbLine
 10
62.2403779682
 20
374.6859098416
 30
0.0
 11
62.2403779682
 21
374.5736977585
 31
0.0
  0
LINE
  5
2AF
330
72
100
AcDbEntity
  8
$DDT_AUDIT_GENERATED_(9B)
  6
Continuous
 62
     7
100
AcDbLine
 10
62.4403779682
 20
374.4413622602
 30
0.0
 11
62.4403779682
 21
374.4589168174
 31
0.0
  0
LINE
  5
2B0
330
72
100
AcDbEntity
  8
$DDT_AUDIT_GENERATED_(9B)
  6
Continuous
 62
     7
100
AcDbLine
 10
62.2403779682
 20
374.4589168174
 30
0.0
 11
62.2403779682
 21
374.4323188835
 31
0.0
  0
LINE
  5
2B1
330
72
100
AcDbEntity
  8
$DDT_AUDIT_GENERATED_(9B)
  6
Continuous
 62
     7
100
AcDbLine
 10
62.3551589094
 20
376.2748610113
 30
0.0
 11
63.0327353096
 21
376.2748610113
 31
0.0
  0
LINE
  5
2B2
330
72
100
AcDbEntity
  8
$DDT_AUDIT_GENERATED_(9B)
  6
Continuous
 62
     7
100
AcDbLine
 10
62.3551589094
 20
376.047867987
 30
0.0
 11
63.8613113128
 21
376.047867987
 31
0.0
  0
LINE
  5
2B3
330
72
100
AcDbEntity
  8
$DDT_AUDIT_GENERATED_(9B)
  6
Continuous
 62
     7
100
AcDbLine
 10
63.5618366396
 20
376.247867987
 30
0.0
 11
62.4403779682
 21
376.247867987
 31
0.0
  0
LINE
  5
2B4
330
72
100
AcDbEntity
  8
$DDT_AUDIT_GENERATED_(9B)
  6
Continuous
 62
     7
100
AcDbLine
 10
62.3551589094
 20
375.8208749628
 30
0.0
 11
63.8613113128
 21
375.8208749628
 31
0.0
  0
LINE
  5
2B5
330
72
100
AcDbEntity
  8
$DDT_AUDIT_GENERATED_(9B)
  6
Continuous
 62
     7
100
AcDbLine
 10
63.776092254
 20
376.0208749628
 30
0.0
 11
62.4403779682
 21
376.0208749628
 31
0.0
  0
LINE
  5
2B6
330
72
100
AcDbEntity
  8
$DDT_AUDIT_GENERATED_(9B)
  6
Continuous
 62
     7
100
AcDbLine
 10
62.3551589094
 20
375.5938819386
 30
0.0
 11
63.8613113128
 21
375.5938819386
 31
0.0
  0
LINE
  5
2B7
330
72
100
AcDbEntity
  8
$DDT_AUDIT_GENERATED_(9B)
  6
Continuous
 62
     7
100
AcDbLine
 10
63.776092254
 20
375.7938819386
 30
0.0
 11
62.4403779682
 21
375.7938819386
 31
0.0
  0
LINE
  5
2B8
330
72
100
AcDbEntity
  8
$DDT_AUDIT_GENERATED_(9B)
  6
Continuous
 62
     7
100
AcDbLine
 10
62.3551589094
 20
375.3668889143
 30
0.0
 11
63.8613113128
 21
375.3668889143
 31
0.0
  0
LINE
  5
2B9
330
72
100
AcDbEntity
  8
$DDT_AUDIT_GENERATED_(9B)
  6
Continuous
 62
     7
100
AcDbLine
 10
63.776092254
 20
375.5668889143
 30
0.0
 11
62.4403779682
 21
375.5668889143
 31
0.0
  0
LINE
  5
2BA
330
72
100
AcDbEntity
  8
$DDT_AUDIT_GENERATED_(9B)
  6
Continuous
 62
     7
100
AcDbLine
 10
62.3551589094
 20
375.1398958901
 30
0.0
 11
63.8613113128
 21
375.1398958901
 31
0.0
  0
LINE
  5
2BB
330
72
100
AcDbEntity
  8
$DDT_AUDIT_GENERATED_(9B)
  6
Continuous
 62
     7
100
AcDbLine
 10
63.776092254
 20
375.3398958901
 30
0.0
 11
62.4403779682
 21
375.3398958901
 31
0.0
  0
LINE
  5
2BC
330
72
100
AcDbEntity
  8
$DDT_AUDIT_GENERATED_(9B)
  6
Continuous
 62
     7
100
AcDbLine
 10
62.3551589094
 20
374.9129028659
 30
0.0
 11
63.8613113128
 21
374.9129028659
 31
0.0
  0
LINE
  5
2BD
330
72
100
AcDbEntity
  8
$DDT_AUDIT_GENERATED_(9B)
  6
Continuous
 62
     7
100
AcDbLine
 10
63.776092254
 20
375.1129028659
 30
0.0
 11
62.4403779682
 21
375.1129028659
 31
0.0
  0
LINE
  5
2BE
330
72
100
AcDbEntity
  8
$DDT_AUDIT_GENERATED_(9B)
  6
Continuous
 62
     7
100
AcDbLine
 10
62.3551589094
 20
374.6859098416
 30
0.0
 11
63.8613113128
 21
374.6859098416
 31
0.0
  0
LINE
  5
2BF
330
72
100
AcDbEntity
  8
$DDT_AUDIT_GENERATED_(9B)
  6
Continuous
 62
     7
100
AcDbLine
 10
63.776092254
 20
374.8859098416
 30
0.0
 11
62.4403779682
 21
374.8859098416
 31
0.0
  0
LINE
  5
2C0
330
72
100
AcDbEntity
  8
$DDT_AUDIT_GENERATED_(9B)
  6
Continuous
 62
     7
100
AcDbLine
 10
62.3551589094
 20
374.4589168174
 30
0.0
 11
63.8613113128
 21
374.4589168174
 31
0.0
  0
LINE
  5
2C1
330
72
100
AcDbEntity
  8
$DDT_AUDIT_GENERATED_(9B)
  6
Continuous
 62
     7
100
AcDbLine
 10
63.776092254
 20
374.6589168174
 30
0.0
 11
62.4403779682
 21
374.6589168174
 31
0.0
  0
LINE
  5
2C2
330
72
100
AcDbEntity
  8
$DDT_AUDIT_GENERATED_(9B)
  6
Continuous
 62
     7
100
AcDbLine
 10
63.976092254
 20
374.5736977585
 30
0.0
 11
63.976092254
 21
374.6859098416
 31
0.0
  0
LINE
  5
2C3
330
72
100
AcDbEntity
  8
$DDT_AUDIT_GENERATED_(9B)
  6
Continuous
 62
     7
100
AcDbLine
 10
63.776092254
 20
374.6859098416
 30
0.0
 11
63.776092254
 21
374.5736977585
 31
0.0
  0
LINE
  5
2C4
330
72
100
AcDbEntity
  8
$DDT_AUDIT_GENERATED_(9B)
  6
Continuous
 62
     7
100
AcDbLine
 10
63.976092254
 20
374.8006907827
 30
0.0
 11
63.976092254
 21
374.9129028659
 31
0.0
  0
LINE
  5
2C5
330
72
100
AcDbEntity
  8
$DDT_AUDIT_GENERATED_(9B)
  6
Continuous
 62
     7
100
AcDbLine
 10
63.776092254
 20
374.9129028659
 30
0.0
 11
63.776092254
 21
374.8006907827
 31
0.0
  0
LINE
  5
2C6
330
72
100
AcDbEntity
  8
$DDT_AUDIT_GENERATED_(9B)
  6
Continuous
 62
     7
100
AcDbLine
 10
63.976092254
 20
375.027683807
 30
0.0
 11
63.976092254
 21
375.1398958901
 31
0.0
  0
LINE
  5
2C7
330
72
100
AcDbEntity
  8
$DDT_AUDIT_GENERATED_(9B)
  6
Continuous
 62
     7
100
AcDbLine
 10
63.776092254
 20
375.1398958901
 30
0.0
 11
63.776092254
 21
375.027683807
 31
0.0
  0
LINE
  5
2C8
330
72
100
AcDbEntity
  8
$DDT_AUDIT_GENERATED_(9B)
  6
Continuous
 62
     7
100
AcDbLine
 10
63.976092254
 20
375.2546768312
 30
0.0
 11
63.976092254
 21
375.3668889143
 31
0.0
  0
LINE
  5
2C9
330
72
100
AcDbEntity
  8
$DDT_AUDIT_GENERATED_(9B)
  6
Continuous
 62
     7
100
AcDbLine
 10
63.776092254
 20
375.3668889143
 30
0.0
 11
63.776092254
 21
375.2546768312
 31
0.0
  0
LINE
  5
2CA
330
72
100
AcDbEntity
  8
$DDT_AUDIT_GENERATED_(9B)
  6
Continuous
 62
     7
100
AcDbLine
 10
63.976092254
 20
375.4816698554
 30
0.0
 11
63.976092254
 21
375.5938819386
 31
0.0
  0
LINE
  5
2CB
330
72
100
AcDbEntity
  8
$DDT_AUDIT_GENERATED_(9B)
  6
Continuous
 62
     7
100
AcDbLine
 10
63.776092254
 20
375.5938819386
 30
0.0
 11
63.776092254
 21
375.4816698554
 31
0.0
  0
LINE
  5
2CC
330
72
100
AcDbEntity
  8
$DDT_AUDIT_GENERATED_(9B)
  6
Continuous
 62
     7
100
AcDbLine
 10
63.976092254
 20
375.7086628797
 30
0.0
 11
63.976092254
 21
375.8208749628
 31
0.0
  0
LINE
  5
2CD
330
72
100
AcDbEntity
  8
$DDT_AUDIT_GENERATED_(9B)
  6
Continuous
 62
     7
100
AcDbLine
 10
63.776092254
 20
375.8208749628
 30
0.0
 11
63.776092254
 21
375.7086628797
 31
0.0
  0
LINE
  5
2CE
330
72
100
AcDbEntity
  8
$DDT_AUDIT_GENERATED_(9B)
  6
Continuous
 62
     7
100
AcDbLine
 10
63.976092254
 20
375.9356559039
 30
0.0
 11
63.976092254
 21
376.047867987
 31
0.0
  0
LINE
  5
2CF
330
72
100
AcDbEntity
  8
$DDT_AUDIT_GENERATED_(9B)
  6
Continuous
 62
     7
100
AcDbLine
 10
63.776092254
 20
376.047867987
 30
0.0
 11
63.776092254
 21
375.9356559039
 31
0.0
  0
LINE
  5
2D0
330
72
100
AcDbEntity
  8
$DDT_AUDIT_GENERATED_(9B)
  6
Continuous
 62
     7
100
AcDbLine
 10
63.976092254
 20
376.1626489281
 30
0.0
 11
63.976092254
 21
376.223905542
 31
0.0
  0
LINE
  5
2D1
330
72
100
AcDbEntity
  8
$DDT_AUDIT_GENERATED_(9B)
  6
Continuous
 62
     7
100
AcDbLine
 10
63.776092254
 20
376.2357920972
 30
0.0
 11
63.776092254
 21
376.1626489281
 31
0.0
  0
LINE
  5
2D2
330
72
100
AcDbEntity
  8
$DDT_AUDIT_GENERATED_(9B)
  6
Continuous
 62
     7
100
AcDbLine
 10
63.8908731951
 20
374.4589168174
 30
0.0
 11
64.2898990689
 21
374.4589168174
 31
0.0
  0
LINE
  5
2D3
330
72
100
AcDbEntity
  8
$DDT_AUDIT_GENERATED_(9B)
  6
Continuous
 62
     7
100
AcDbLine
 10
64.328043884
 20
374.6589168174
 30
0.0
 11
63.976092254
 21
374.6589168174
 31
0.0
  0
LINE
  5
2D4
330
72
100
AcDbEntity
  8
$DDT_AUDIT_GENERATED_(9B)
  6
Continuous
 62
     7
100
AcDbLine
 10
63.8908731951
 20
374.6859098416
 30
0.0
 11
65.3970255986
 21
374.6859098416
 31
0.0
  0
LINE
  5
2D5
330
72
100
AcDbEntity
  8
$DDT_AUDIT_GENERATED_(9B)
  6
Continuous
 62
     7
100
AcDbLine
 10
65.3118065397
 20
374.8859098416
 30
0.0
 11
63.976092254
 21
374.8859098416
 31
0.0
  0
LINE
  5
2D6
330
72
100
AcDbEntity
  8
$DDT_AUDIT_GENERATED_(9B)
  6
Continuous
 62
     7
100
AcDbLine
 10
63.8908731951
 20
374.9129028659
 30
0.0
 11
65.3970255986
 21
374.9129028659
 31
0.0
  0
LINE
  5
2D7
330
72
100
AcDbEntity
  8
$DDT_AUDIT_GENERATED_(9B)
  6
Continuous
 62
     7
100
AcDbLine
 10
65.3118065397
 20
375.1129028659
 30
0.0
 11
63.976092254
 21
375.1129028659
 31
0.0
  0
LINE
  5
2D8
330
72
100
AcDbEntity
  8
$DDT_AUDIT_GENERATED_(9B)
  6
Continuous
 62
     7
100
AcDbLine
 10
63.8908731951
 20
375.1398958901
 30
0.0
 11
65.3970255986
 21
375.1398958901
 31
0.0
  0
LINE
  5
2D9
330
72
100
AcDbEntity
  8
$DDT_AUDIT_GENERATED_(9B)
  6
Continuous
 62
     7
100
AcDbLine
 10
65.3118065397
 20
375.3398958901
 30
0.0
 11
63.976092254
 21
375.3398958901
 31
0.0
  0
LINE
  5
2DA
330
72
100
AcDbEntity
  8
$DDT_AUDIT_GENERATED_(9B)
  6
Continuous
 62
     7
100
AcDbLine
 10
63.8908731951
 20
375.3668889143
 30
0.0
 11
65.3970255986
 21
375.3668889143
 31
0.0
  0
LINE
  5
2DB
330
72
100
AcDbEntity
  8
$DDT_AUDIT_GENERATED_(9B)
  6
Continuous
 62
     7
100
AcDbLine
 10
65.3118065397
 20
375.5668889143
 30
0.0
 11
63.976092254
 21
375.5668889143
 31
0.0
  0
LINE
  5
2DC
330
72
100
AcDbEntity
  8
$DDT_AUDIT_GENERATED_(9B)
  6
Continuous
 62
     7
100
AcDbLine
 10
63.8908731951
 20
375.5938819386
 30
0.0
 11
65.3970255986
 21
375.5938819386
 31
0.0
  0
LINE
  5
2DD
330
72
100
AcDbEntity
  8
$DDT_AUDIT_GENERATED_(9B)
  6
Continuous
 62
     7
100
AcDbLine
 10
65.3118065397
 20
375.7938819386
 30
0.0
 11
63.976092254
 21
375.7938819386
 31
0.0
  0
LINE
  5
2DE
330
72
100
AcDbEntity
  8
$DDT_AUDIT_GENERATED_(9B)
  6
Continuous
 62
     7
100
AcDbLine
 10
63.8908731951
 20
375.8208749628
 30
0.0
 11
65.3970255986
 21
375.8208749628
 31
0.0
  0
LINE
  5
2DF
330
72
100
AcDbEntity
  8
$DDT_AUDIT_GENERATED_(9B)
  6
Continuous
 62
     7
100
AcDbLine
 10
65.3118065397
 20
376.0208749628
 30
0.0
 11
63.976092254
 21
376.0208749628
 31
0.0
  0
LINE
  5
2E0
330
72
100
AcDbEntity
  8
$DDT_AUDIT_GENERATED_(9B)
  6
Continuous
 62
     7
100
AcDbLine
 10
63.8908731951
 20
376.047867987
 30
0.0
 11
65.3970255986
 21
376.047867987
 31
0.0
  0
LINE
  5
2E1
330
72
100
AcDbEntity
  8
$DDT_AUDIT_GENERATED_(9B)
  6
Continuous
 62
     7
100
AcDbLine
 10
65.5118065397
 20
375.9356559039
 30
0.0
 11
65.5118065397
 21
376.047867987
 31
0.0
  0
LINE
  5
2E2
330
72
100
AcDbEntity
  8
$DDT_AUDIT_GENERATED_(9B)
  6
Continuous
 62
     7
100
AcDbLine
 10
65.3118065397
 20
376.047867987
 30
0.0
 11
65.3118065397
 21
375.9356559039
 31
0.0
  0
LINE
  5
2E3
330
72
100
AcDbEntity
  8
$DDT_AUDIT_GENERATED_(9B)
  6
Continuous
 62
     7
100
AcDbLine
 10
65.5118065397
 20
375.7086628797
 30
0.0
 11
65.5118065397
 21
375.8208749628
 31
0.0
  0
LINE
  5
2E4
330
72
100
AcDbEntity
  8
$DDT_AUDIT_GENERATED_(9B)
  6
Continuous
 62
     7
100
AcDbLine
 10
65.3118065397
 20
375.8208749628
 30
0.0
 11
65.3118065397
 21
375.7086628797
 31
0.0
  0
LINE
  5
2E5
330
72
100
AcDbEntity
  8
$DDT_AUDIT_GENERATED_(9B)
  6
Continuous
 62
     7
100
AcDbLine
 10
65.5118065397
 20
375.4816698554
 30
0.0
 11
65.5118065397
 21
375.5938819386
 31
0.0
  0
LINE
  5
2E6
330
72
100
AcDbEntity
  8
$DDT_AUDIT_GENERATED_(9B)
  6
Continuous
 62
     7
100
AcDbLine
 10
65.3118065397
 20
375.5938819386
 30
0.0
 11
65.3118065397
 21
375.4816698554
 31
0.0
  0
LINE
  5
2E7
330
72
100
AcDbEntity
  8
$DDT_AUDIT_GENERATED_(9B)
  6
Continuous
 62
     7
100
AcDbLine
 10
65.5118065397
 20
375.2546768312
 30
0.0
 11
65.5118065397
 21
375.3668889143
 31
0.0
  0
LINE
  5
2E8
330
72
100
AcDbEntity
  8
$DDT_AUDIT_GENERATED_(9B)
  6
Continuous
 62
     7
100
AcDbLine
 10
65.3118065397
 20
375.3668889143
 30
0.0
 11
65.3118065397
 21
375.2546768312
 31
0.0
  0
LINE
  5
2E9
330
72
100
AcDbEntity
  8
$DDT_AUDIT_GENERATED_(9B)
  6
Continuous
 62
     7
100
AcDbLine
 10
65.5118065397
 20
375.027683807
 30
0.0
 11
65.5118065397
 21
375.1398958901
 31
0.0
  0
LINE
  5
2EA
330
72
100
AcDbEntity
  8
$DDT_AUDIT_GENERATED_(9B)
  6
Continuous
 62
     7
100
AcDbLine
 10
65.3118065397
 20
375.1398958901
 30
0.0
 11
65.3118065397
 21
375.027683807
 31
0.0
  0
LINE
  5
2EB
330
72
100
AcDbEntity
  8
$DDT_AUDIT_GENERATED_(9B)
  6
Continuous
 62
     7
100
AcDbLine
 10
65.5118065397
 20
374.8006907827
 30
0.0
 11
65.5118065397
 21
374.9129028659
 31
0.0
  0
LINE
  5
2EC
330
72
100
AcDbEntity
  8
$DDT_AUDIT_GENERATED_(9B)
  6
Continuous
 62
     7
100
AcDbLine
 10
65.3118065397
 20
374.9129028659
 30
0.0
 11
65.3118065397
 21
374.8006907827
 31
0.0
  0
LINE
  5
2ED
330
72
100
AcDbEntity
  8
$DDT_AUDIT_GENERATED_(9B)
  6
Continuous
 62
     7
100
AcDbLine
 10
65.5118065397
 20
374.6729858819
 30
0.0
 11
65.5118065397
 21
374.6859098416
 31
0.0
  0
LINE
  5
2EE
330
72
100
AcDbEntity
  8
$DDT_AUDIT_GENERATED_(9B)
  6
Continuous
 62
     7
100
AcDbLine
 10
65.3118065397
 20
374.6859098416
 30
0.0
 11
65.3118065397
 21
374.6516587138
 31
0.0
  0
LINE
  5
2EF
330
72
100
AcDbEntity
  8
$DDT_AUDIT_GENERATED_(9B)
  6
Continuous
 62
     7
100
AcDbLine
 10
65.4265874808
 20
376.047867987
 30
0.0
 11
66.1924850414
 21
376.047867987
 31
0.0
  0
LINE
  5
2F0
330
72
100
AcDbEntity
  8
$DDT_AUDIT_GENERATED_(9B)
  6
Continuous
 62
     7
100
AcDbLine
 10
65.4265874808
 20
375.8208749628
 30
0.0
 11
66.9327398843
 21
375.8208749628
 31
0.0
  0
LINE
  5
2F1
330
72
100
AcDbEntity
  8
$DDT_AUDIT_GENERATED_(9B)
  6
Continuous
 62
     7
100
AcDbLine
 10
66.4548548076
 20
376.0208749628
 30
0.0
 11
65.5118065397
 21
376.0208749628
 31
0.0
  0
LINE
  5
2F2
330
72
100
AcDbEntity
  8
$DDT_AUDIT_GENERATED_(9B)
  6
Continuous
 62
     7
100
AcDbLine
 10
65.4265874808
 20
375.5938819386
 30
0.0
 11
66.9327398843
 21
375.5938819386
 31
0.0
  0
LINE
  5
2F3
330
72
100
AcDbEntity
  8
$DDT_AUDIT_GENERATED_(9B)
  6
Continuous
 62
     7
100
AcDbLine
 10
66.8475208254
 20
375.7938819386
 30
0.0
 11
65.5118065397
 21
375.7938819386
 31
0.0
  0
LINE
  5
2F4
330
72
100
AcDbEntity
  8
$DDT_AUDIT_GENERATED_(9B)
  6
Continuous
 62
     7
100
AcDbLine
 10
65.4265874808
 20
375.3668889143
 30
0.0
 11
66.9327398843
 21
375.3668889143
 31
0.0
  0
LINE
  5
2F5
330
72
100
AcDbEntity
  8
$DDT_AUDIT_GENERATED_(9B)
  6
Continuous
 62
     7
100
AcDbLine
 10
66.8475208254
 20
375.5668889143
 30
0.0
 11
65.5118065397
 21
375.5668889143
 31
0.0
  0
LINE
  5
2F6
330
72
100
AcDbEntity
  8
$DDT_AUDIT_GENERATED_(9B)
  6
Continuous
 62
     7
100
AcDbLine
 10
65.4265874808
 20
375.1398958901
 30
0.0
 11
66.9327398843
 21
375.1398958901
 31
0.0
  0
LINE
  5
2F7
330
72
100
AcDbEntity
  8
$DDT_AUDIT_GENERATED_(9B)
  6
Continuous
 62
     7
100
AcDbLine
 10
66.8475208254
 20
375.3398958901
 30
0.0
 11
65.5118065397
 21
375.3398958901
 31
0.0
  0
LINE
  5
2F8
330
72
100
AcDbEntity
  8
$DDT_AUDIT_GENERATED_(9B)
  6
Continuous
 62
     7
100
AcDbLine
 10
65.4265874808
 20
374.9129028659
 30
0.0
 11
66.9327398843
 21
374.9129028659
 31
0.0
  0
LINE
  5
2F9
330
72
100
AcDbEntity
  8
$DDT_AUDIT_GENERATED_(9B)
  6
Continuous
 62
     7
100
AcDbLine
 10
66.8475208254
 20
375.1129028659
 30
0.0
 11
65.5118065397
 21
375.1129028659
 31
0.0
  0
LINE
  5
2FA
330
72
100
AcDbEntity
  8
$DDT_AUDIT_GENERATED_(9B)
  6
Continuous
 62
     7
100
AcDbLine
 10
65.4265874808
 20
374.6859098416
 30
0.0
 11
66.4226451065
 21
374.6859098416
 31
0.0
  0
LINE
  5
2FB
330
72
100
AcDbEntity
  8
$DDT_AUDIT_GENERATED_(9B)
  6
Continuous
 62
     7
100
AcDbLine
 10
66.4462384015
 20
374.8859098416
 30
0.0
 11
65.5118065397
 21
374.8859098416
 31
0.0
  0
LINE
  5
2FC
330
72
100
AcDbEntity
  8
$DDT_AUDIT_GENERATED_(9B)
  6
Continuous
 62
     7
100
AcDbLine
 10
67.0475208254
 20
374.8783854809
 30
0.0
 11
67.0475208254
 21
374.9129028659
 31
0.0
  0
LINE
  5
2FD
330
72
100
AcDbEntity
  8
$DDT_AUDIT_GENERATED_(9B)
  6
Continuous
 62
     7
100
AcDbLine
 10
66.8475208254
 20
374.9129028659
 30
0.0
 11
66.8475208254
 21
374.8466832991
 31
0.0
  0
LINE
  5
2FE
330
72
100
AcDbEntity
  8
$DDT_AUDIT_GENERATED_(9B)
  6
Continuous
 62
     7
100
AcDbLine
 10
67.0475208254
 20
375.027683807
 30
0.0
 11
67.0475208254
 21
375.1398958901
 31
0.0
  0
LINE
  5
2FF
330
72
100
AcDbEntity
  8
$DDT_AUDIT_GENERATED_(9B)
  6
Continuous
 62
     7
100
AcDbLine
 10
66.8475208254
 20
375.1398958901
 30
0.0
 11
66.8475208254
 21
375.027683807
 31
0.0
  0
LINE
  5
300
330
72
100
AcDbEntity
  8
$DDT_AUDIT_GENERATED_(9B)
  6
Continuous
 62
     7
100
AcDbLine
 10
67.0475208254
 20
375.2546768312
 30
0.0
 11
67.0475208254
 21
375.3668889143
 31
0.0
  0
LINE
  5
301
330
72
100
AcDbEntity
  8
$DDT_AUDIT_GENERATED_(9B)
  6
Continuous
 62
     7
100
AcDbLine
 10
66.8475208254
 20
375.3668889143
 30
0.0
 11
66.8475208254
 21
375.2546768312
 31
0.0
  0
LINE
  5
302
330
72
100
AcDbEntity
  8
$DDT_AUDIT_GENERATED_(9B)
  6
Continuous
 62
     7
100
AcDbLine
 10
67.0475208254
 20
375.4816698554
 30
0.0
 11
67.0475208254
 21
375.5938819386
 31
0.0
  0
LINE
  5
303
330
72
100
AcDbEntity
  8
$DDT_AUDIT_GENERATED_(9B)
  6
Continuous
 62
     7
100
AcDbLine
 10
66.8475208254
 20
375.5938819386
 30
0.0
 11
66.8475208254
 21
375.4816698554
 31
0.0
  0
LINE
  5
304
330
72
100
AcDbEntity
  8
$DDT_AUDIT_GENERATED_(9B)
  6
Continuous
 62
     7
100
AcDbLine
 10
67.0475208254
 20
375.7086628797
 30
0.0
 11
67.0475208254
 21
375.8208749628
 31
0.0
  0
LINE
  5
305
330
72
100
AcDbEntity
  8
$DDT_AUDIT_GENERATED_(9B)
  6
Continuous
 62
     7
100
AcDbLine
 10
66.8475208254
 20
375.8208749628
 30
0.0
 11
66.8475208254
 21
375.7086628797
 31
0.0
  0
LINE
  5
306
330
72
100
AcDbEntity
  8
$DDT_AUDIT_GENERATED_(9B)
  6
Continuous
 62
     7
100
AcDbLine
 10
67.0475208254
 20
375.9356559039
 30
0.0
 11
67.0475208254
 21
375.9541166127
 31
0.0
  0
LINE
  5
307
330
72
100
AcDbEntity
  8
$DDT_AUDIT_GENERATED_(9B)
  6
Continuous
 62
     7
100
AcDbLine
 10
66.8475208254
 20
375.9775859328
 30
0.0
 11
66.8475208254
 21
375.9356559039
 31
0.0
  0
LINE
  5
308
330
72
100
AcDbEntity
  8
$DDT_AUDIT_GENERATED_(9B)
  6
Continuous
 62
     7
100
AcDbLine
 10
66.9623017665
 20
374.9129028659
 30
0.0
 11
67.7791757317
 21
374.9129028659
 31
0.0
  0
LINE
  5
309
330
72
100
AcDbEntity
  8
$DDT_AUDIT_GENERATED_(9B)
  6
Continuous
 62
     7
100
AcDbLine
 10
67.7949289275
 20
375.1129028659
 30
0.0
 11
67.0475208254
 21
375.1129028659
 31
0.0
  0
LINE
  5
30A
330
72
100
AcDbEntity
  8
$DDT_AUDIT_GENERATED_(9B)
  6
Continuous
 62
     7
100
AcDbLine
 10
66.9623017665
 20
375.1398958901
 30
0.0
 11
68.46845417
 21
375.1398958901
 31
0.0
  0
LINE
  5
30B
330
72
100
AcDbEntity
  8
$DDT_AUDIT_GENERATED_(9B)
  6
Continuous
 62
     7
100
AcDbLine
 10
68.3832351111
 20
375.3398958901
 30
0.0
 11
67.0475208254
 21
375.3398958901
 31
0.0
  0
LINE
  5
30C
330
72
100
AcDbEntity
  8
$DDT_AUDIT_GENERATED_(9B)
  6
Continuous
 62
     7
100
AcDbLine
 10
66.9623017665
 20
375.3668889143
 30
0.0
 11
68.46845417
 21
375.3668889143
 31
0.0
  0
LINE
  5
30D
330
72
100
AcDbEntity
  8
$DDT_AUDIT_GENERATED_(9B)
  6
Continuous
 62
     7
100
AcDbLine
 10
68.3832351111
 20
375.5668889143
 30
0.0
 11
67.0475208254
 21
375.5668889143
 31
0.0
  0
LINE
  5
30E
330
72
100
AcDbEntity
  8
$DDT_AUDIT_GENERATED_(9B)
  6
Continuous
 62
     7
100
AcDbLine
 10
66.9623017665
 20
375.5938819386
 30
0.0
 11
68.46845417
 21
375.5938819386
 31
0.0
  0
LINE
  5
30F
330
72
100
AcDbEntity
  8
$DDT_AUDIT_GENERATED_(9B)
  6
Continuous
 62
     7
100
AcDbLine
 10
68.2204160661
 20
375.7938819386
 30
0.0
 11
67.0475208254
 21
375.7938819386
 31
0.0
  0
LINE
  5
310
330
72
100
AcDbEntity
  8
$DDT_AUDIT_GENERATED_(9B)
  6
Continuous
 62
     7
100
AcDbLine
 10
66.9623017665
 20
375.8208749628
 30
0.0
 11
68.0432169168
 21
375.8208749628
 31
0.0
  0
LINE
  5
311
330
72
100
AcDbEntity
  8
$DDT_AUDIT_GENERATED_(9B)
  6
Continuous
 62
     7
100
AcDbLine
 10
68.5832351111
 20
375.7086628797
 30
0.0
 11
68.5832351111
 21
375.7349367896
 31
0.0
  0
LINE
  5
312
330
72
100
AcDbEntity
  8
$DDT_AUDIT_GENERATED_(9B)
  6
Continuous
 62
     7
100
AcDbLine
 10
68.3832351111
 20
375.7680674762
 30
0.0
 11
68.3832351111
 21
375.7086628797
 31
0.0
  0
LINE
  5
313
330
72
100
AcDbEntity
  8
$DDT_AUDIT_GENERATED_(9B)
  6
Continuous
 62
     7
100
AcDbLine
 10
68.5832351111
 20
375.4816698554
 30
0.0
 11
68.5832351111
 21
375.5938819386
 31
0.0
  0
LINE
  5
314
330
72
100
AcDbEntity
  8
$DDT_AUDIT_GENERATED_(9B)
  6
Continuous
 62
     7
100
AcDbLine
 10
68.3832351111
 20
375.5938819386
 30
0.0
 11
68.3832351111
 21
375.4816698554
 31
0.0
  0
LINE
  5
315
330
72
100
AcDbEntity
  8
$DDT_AUDIT_GENERATED_(9B)
  6
Continuous
 62
     7
100
AcDbLine
 10
68.5832351111
 20
375.2546768312
 30
0.0
 11
68.5832351111
 21
375.3668889143
 31
0.0
  0
LINE
  5
316
330
72
100
AcDbEntity
  8
$DDT_AUDIT_GENERATED_(9B)
  6
Continuous
 62
     7
100
AcDbLine
 10
68.3832351111
 20
375.3668889143
 30
0.0
 11
68.3832351111
 21
375.2546768312
 31
0.0
  0
LINE
  5
317
330
72
100
AcDbEntity
  8
$DDT_AUDIT_GENERATED_(9B)
  6
Continuous
 62
     7
100
AcDbLine
 10
68.4980160522
 20
375.5938819386
 30
0.0
 11
69.3348998471
 21
375.5938819386
 31
0.0
  0
LINE
  5
318
330
72
100
AcDbEntity
  8
$DDT_AUDIT_GENERATED_(9B)
  6
Continuous
 62
     7
100
AcDbLine
 10
68.4980160522
 20
375.3668889143
 30
0.0
 11
69.3074065488
 21
375.3668889143
 31
0.0
  0
LINE
  5
319
330
72
100
AcDbEntity
  8
$DDT_AUDIT_GENERATED_(9B)
  6
Continuous
 62
     7
100
AcDbLine
 10
69.3141072879
 20
375.5668889143
 30
0.0
 11
68.5832351111
 21
375.5668889143
 31
0.0
  0
LINE
  5
31A
330
72
100
AcDbEntity
  8
$DDT_AUDIT_GENERATED_(9B)
  6
Continuous
 62
     7
100
AcDbLine
 10
68.4980160522
 20
375.1398958901
 30
0.0
 11
68.7005826328
 21
375.1398958901
 31
0.0
  0
LINE
  5
31B
330
72
100
AcDbEntity
  8
$DDT_AUDIT_GENERATED_(9B)
  6
Continuous
 62
     7
100
AcDbLine
 10
68.7112399751
 20
375.3398958901
 30
0.0
 11
68.5832351111
 21
375.3398958901
 31
0.0
  0
LINE
  5
31D
330
72
100
AcDbEntity
  8
$DDT_AUDIT_GENERATED_(31C)
  6
Continuous
 62
     7
100
AcDbLine
 10
64.1730770728
 20
376.0320814521
 30
0.0
 11
64.1730770728
 21
376.047867987
 31
0.0
  0
LINE
  5
31E
330
72
100
AcDbEntity
  8
$DDT_AUDIT_GENERATED_(31C)
  6
Continuous
 62
     7
100
AcDbLine
 10
63.1922515376
 20
376.247867987
 30
0.0
 11
63.1922515376
 21
376.2671394586
 31
0.0
  0
LINE
  5
31F
330
72
100
AcDbEntity
  8
$DDT_AUDIT_GENERATED_(31C)
  6
Continuous
 62
     7
100
AcDbLine
 10
62.70183877
 20
376.247867987
 30
0.0
 11
62.70183877
 21
376.2748610113
 31
0.0
  0
LINE
  5
320
330
72
100
AcDbEntity
  8
$DDT_AUDIT_GENERATED_(31C)
  6
Continuous
 62
     7
100
AcDbLine
 10
61.7210132348
 20
376.247867987
 30
0.0
 11
61.7210132348
 21
376.2748610113
 31
0.0
  0
LINE
  5
321
330
72
100
AcDbEntity
  8
$DDT_AUDIT_GENERATED_(31C)
  6
Continuous
 62
     7
100
AcDbLine
 10
62.2114260024
 20
376.247867987
 30
0.0
 11
62.2114260024
 21
376.2721032099
 31
0.0
  0
ELLIPSE
  5
322
330
72
100
AcDbEntity
  8
$DDT_AUDIT_GENERATED_(31C)
  6
Continuous
 62
     7
100
AcDbEllipse
 10
63.1922515376
 20
376.0765847256
 30
0.0
 11
0.07071067811865485
 21
0.0
 31
0.0
210
0.0
220
0.0
230
1.0
 40
0.6993398237
 41
4.504098766116274
 42
4.71238898038469
  0
LINE
  5
323
330
72
100
AcDbEntity
  8
$DDT_AUDIT_GENERATED_(31C)
  6
Continuous
 62
     7
100
AcDbLine
 10
63.1922515376
 20
376.0271339325
 30
0.0
 11
63.1922515376
 21
376.047867987
 31
0.0
  0
ELLIPSE
  5
324
330
72
100
AcDbEntity
  8
$DDT_AUDIT_GENERATED_(31C)
  6
Continuous
 62
     7
100
AcDbEllipse
 10
63.1922515376
 20
376.0765847256
 30
0.0
 11
-0.07071067811865485
 21
0.0
 31
0.0
210
0.0
220
0.0
230
1.0
 40
0.6993398237
 41
1.570796326794897
 42
1.779086541063209
  0
LINE
  5
325
330
72
100
AcDbEntity
  8
$DDT_AUDIT_GENERATED_(31C)
  6
Continuous
 62
     7
100
AcDbLine
 10
63.1922515376
 20
376.0260414862
 30
0.0
 11
63.1922515376
 21
376.0271339325
 31
0.0
  0
LINE
  5
326
330
72
100
AcDbEntity
  8
$DDT_AUDIT_GENERATED_(31C)
  6
Continuous
 62
     7
100
AcDbLine
 10
62.70183877
 20
376.0208749628
 30
0.0
 11
62.70183877
 21
376.047867987
 31
0.0
  0
ELLIPSE
  5
327
330
72
100
AcDbEntity
  8
$DDT_AUDIT_GENERATED_(31C)
  6
Continuous
 62
     7
100
AcDbEllipse
 10
62.2114260024
 20
376.0765847256
 30
0.0
 11
-0.07071067811865485
 21
0.0
 31
0.0
210
0.0
220
0.0
230
1.0
 40
0.6993398237
 41
1.570796326794897
 42
1.779086541063209
  0
LINE
  5
328
330
72
100
AcDbEntity
  8
$DDT_AUDIT_GENERATED_(31C)
  6
Continuous
 62
     7
100
AcDbLine
 10
62.2114260024
 20
376.0260414862
 30
0.0
 11
62.2114260024
 21
376.0271339325
 31
0.0
  0
ELLIPSE
  5
329
330
72
100
AcDbEntity
  8
$DDT_AUDIT_GENERATED_(31C)
  6
Continuous
 62
     7
100
AcDbEllipse
 10
62.2114260024
 20
376.0765847256
 30
0.0
 11
0.07071067811865528
 21
0.0
 31
0.0
210
0.0
220
0.0
230
1.0
 40
0.6993398237
 41
4.504098766116275
 42
4.71238898038469
  0
LINE
  5
32A
330
72
100
AcDbEntity
  8
$DDT_AUDIT_GENERATED_(31C)
  6
Continuous
 62
     7
100
AcDbLine
 10
62.2114260024
 20
376.0271339325
 30
0.0
 11
62.2114260024
 21
376.047867987
 31
0.0
  0
LINE
  5
32B
330
72
100
AcDbEntity
  8
$DDT_AUDIT_GENERATED_(31C)
  6
Continuous
 62
     7
100
AcDbLine
 10
61.2306004672
 20
376.247867987
 30
0.0
 11
61.2306004672
 21
376.2721032099
 31
0.0
  0
LINE
  5
32C
330
72
100
AcDbEntity
  8
$DDT_AUDIT_GENERATED_(31C)
  6
Continuous
 62
     7
100
AcDbLine
 10
59.7593621644
 20
376.247867987
 30
0.0
 11
59.7593621644
 21
376.2748610113
 31
0.0
  0
LINE
  5
32D
330
72
100
AcDbEntity
  8
$DDT_AUDIT_GENERATED_(31C)
  6
Continuous
 62
     7
100
AcDbLine
 10
60.249774932
 20
376.247867987
 30
0.0
 11
60.249774932
 21
376.2721032099
 31
0.0
  0
ELLIPSE
  5
32E
330
72
100
AcDbEntity
  8
$DDT_AUDIT_GENERATED_(31C)
  6
Continuous
 62
     7
100
AcDbEllipse
 10
61.2306004672
 20
376.0765847256
 30
0.0
 11
0.07071067811865507
 21
0.0
 31
0.0
210
0.0
220
0.0
230
1.0
 40
0.6993398237
 41
4.504098766116275
 42
4.71238898038469
  0
LINE
  5
32F
330
72
100
AcDbEntity
  8
$DDT_AUDIT_GENERATED_(31C)
  6
Continuous
 62
     7
100
AcDbLine
 10
61.2306004672
 20
376.0271339325
 30
0.0
 11
61.2306004672
 21
376.047867987
 31
0.0
  0
LINE
  5
330
330
72
100
AcDbEntity
  8
$DDT_AUDIT_GENERATED_(31C)
  6
Continuous
 62
     7
100
AcDbLine
 10
61.7210132348
 20
376.0208749628
 30
0.0
 11
61.7210132348
 21
376.047867987
 31
0.0
  0
ELLIPSE
  5
331
330
72
100
AcDbEntity
  8
$DDT_AUDIT_GENERATED_(31C)
  6
Continuous
 62
     7
100
AcDbEllipse
 10
61.2306004672
 20
376.0765847256
 30
0.0
 11
-0.07071067811865485
 21
0.0
 31
0.0
210
0.0
220
0.0
230
1.0
 40
0.6993398237
 41
1.570796326794897
 42
1.779086541063209
  0
LINE
  5
332
330
72
100
AcDbEntity
  8
$DDT_AUDIT_GENERATED_(31C)
  6
Continuous
 62
     7
100
AcDbLine
 10
61.2306004672
 20
376.0260414862
 30
0.0
 11
61.2306004672
 21
376.0271339325
 31
0.0
  0
ELLIPSE
  5
333
330
72
100
AcDbEntity
  8
$DDT_AUDIT_GENERATED_(31C)
  6
Continuous
 62
     7
100
AcDbEllipse
 10
60.249774932
 20
376.0765847256
 30
0.0
 11
-0.07071067811865485
 21
0.0
 31
0.0
210
0.0
220
0.0
230
1.0
 40
0.6993398237
 41
1.570796326794897
 42
1.779086541063209
  0
LINE
  5
334
330
72
100
AcDbEntity
  8
$DDT_AUDIT_GENERATED_(31C)
  6
Continuous
 62
     7
100
AcDbLine
 10
60.249774932
 20
376.0260414862
 30
0.0
 11
60.249774932
 21
376.0271339325
 31
0.0
  0
ELLIPSE
  5
335
330
72
100
AcDbEntity
  8
$DDT_AUDIT_GENERATED_(31C)
  6
Continuous
 62
     7
100
AcDbEllipse
 10
60.249774932
 20
376.0765847256
 30
0.0
 11
0.07071067811865474
 21
0.0
 31
0.0
210
0.0
220
0.0
230
1.0
 40
0.6993398237
 41
4.504098766116376
 42
4.71238898038469
  0
LINE
  5
336
330
72
100
AcDbEntity
  8
$DDT_AUDIT_GENERATED_(31C)
  6
Continuous
 62
     7
100
AcDbLine
 10
60.249774932
 20
376.0271339325
 30
0.0
 11
60.249774932
 21
376.047867987
 31
0.0
  0
LINE
  5
337
330
72
100
AcDbEntity
  8
$DDT_AUDIT_GENERATED_(31C)
  6
Continuous
 62
     7
100
AcDbLine
 10
58.7785366292
 20
376.247867987
 30
0.0
 11
58.7785366292
 21
376.2748610113
 31
0.0
  0
LINE
  5
338
330
72
100
AcDbEntity
  8
$DDT_AUDIT_GENERATED_(31C)
  6
Continuous
 62
     7
100
AcDbLine
 10
58.2881238616
 20
376.247867987
 30
0.0
 11
58.2881238616
 21
376.2721032099
 31
0.0
  0
LINE
  5
339
330
72
100
AcDbEntity
  8
$DDT_AUDIT_GENERATED_(31C)
  6
Continuous
 62
     7
100
AcDbLine
 10
59.7593621644
 20
376.0208749628
 30
0.0
 11
59.7593621644
 21
376.047867987
 31
0.0
  0
LINE
  5
33A
330
72
100
AcDbEntity
  8
$DDT_AUDIT_GENERATED_(31C)
  6
Continuous
 62
     7
100
AcDbLine
 10
58.7785366292
 20
376.0208749628
 30
0.0
 11
58.7785366292
 21
376.047867987
 31
0.0
  0
ELLIPSE
  5
33B
330
72
100
AcDbEntity
  8
$DDT_AUDIT_GENERATED_(31C)
  6
Continuous
 62
     7
100
AcDbEllipse
 10
58.2881238616
 20
376.0765847256
 30
0.0
 11
-0.07071067811865474
 21
0.0
 31
0.0
210
0.0
220
0.0
230
1.0
 40
0.6993398237
 41
1.570796326794897
 42
1.779086541063312
  0
LINE
  5
33C
330
72
100
AcDbEntity
  8
$DDT_AUDIT_GENERATED_(31C)
  6
Continuous
 62
     7
100
AcDbLine
 10
58.2881238616
 20
376.0260414862
 30
0.0
 11
58.2881238616
 21
376.0271339325
 31
0.0
  0
ELLIPSE
  5
33D
330
72
100
AcDbEntity
  8
$DDT_AUDIT_GENERATED_(31C)
  6
Continuous
 62
     7
100
AcDbEllipse
 10
58.2881238616
 20
376.0765847256
 30
0.0
 11
0.07071067811865485
 21
0.0
 31
0.0
210
0.0
220
0.0
230
1.0
 40
0.6993398237
 41
4.504098766116376
 42
4.71238898038469
  0
LINE
  5
33E
330
72
100
AcDbEntity
  8
$DDT_AUDIT_GENERATED_(31C)
  6
Continuous
 62
     7
100
AcDbLine
 10
58.2881238616
 20
376.0271339325
 30
0.0
 11
58.2881238616
 21
376.047867987
 31
0.0
  0
LINE
  5
33F
330
72
100
AcDbEntity
  8
$DDT_AUDIT_GENERATED_(31C)
  6
Continuous
 62
     7
100
AcDbLine
 10
57.3072983264
 20
376.247867987
 30
0.0
 11
57.3072983264
 21
376.2721032099
 31
0.0
  0
LINE
  5
340
330
72
100
AcDbEntity
  8
$DDT_AUDIT_GENERATED_(31C)
  6
Continuous
 62
     7
100
AcDbLine
 10
56.8168855588
 20
376.247867987
 30
0.0
 11
56.8168855588
 21
376.2748610113
 31
0.0
  0
LINE
  5
341
330
72
100
AcDbEntity
  8
$DDT_AUDIT_GENERATED_(31C)
  6
Continuous
 62
     7
100
AcDbLine
 10
55.8360600236
 20
376.247867987
 30
0.0
 11
55.8360600236
 21
376.2748610113
 31
0.0
  0
LINE
  5
342
330
72
100
AcDbEntity
  8
$DDT_AUDIT_GENERATED_(31C)
  6
Continuous
 62
     7
100
AcDbLine
 10
56.3264727912
 20
376.247867987
 30
0.0
 11
56.3264727912
 21
376.2721032099
 31
0.0
  0
ELLIPSE
  5
343
330
72
100
AcDbEntity
  8
$DDT_AUDIT_GENERATED_(31C)
  6
Continuous
 62
     7
100
AcDbEllipse
 10
57.3072983264
 20
376.0765847256
 30
0.0
 11
0.07071067811865485
 21
0.0
 31
0.0
210
0.0
220
0.0
230
1.0
 40
0.6993398237
 41
4.504098766116274
 42
4.71238898038469
  0
LINE
  5
344
330
72
100
AcDbEntity
  8
$DDT_AUDIT_GENERATED_(31C)
  6
Continuous
 62
     7
100
AcDbLine
 10
57.3072983264
 20
376.0271339325
 30
0.0
 11
57.3072983264
 21
376.047867987
 31
0.0
  0
ELLIPSE
  5
345
330
72
100
AcDbEntity
  8
$DDT_AUDIT_GENERATED_(31C)
  6
Continuous
 62
     7
100
AcDbEllipse
 10
57.3072983264
 20
376.0765847256
 30
0.0
 11
-0.07071067811865485
 21
0.0
 31
0.0
210
0.0
220
0.0
230
1.0
 40
0.6993398237
 41
1.570796326794897
 42
1.779086541063209
  0
LINE
  5
346
330
72
100
AcDbEntity
  8
$DDT_AUDIT_GENERATED_(31C)
  6
Continuous
 62
     7
100
AcDbLine
 10
57.3072983264
 20
376.0260414862
 30
0.0
 11
57.3072983264
 21
376.0271339325
 31
0.0
  0
LINE
  5
347
330
72
100
AcDbEntity
  8
$DDT_AUDIT_GENERATED_(31C)
  6
Continuous
 62
     7
100
AcDbLine
 10
56.8168855588
 20
376.0208749628
 30
0.0
 11
56.8168855588
 21
376.047867987
 31
0.0
  0
ELLIPSE
  5
348
330
72
100
AcDbEntity
  8
$DDT_AUDIT_GENERATED_(31C)
  6
Continuous
 62
     7
100
AcDbEllipse
 10
56.3264727912
 20
376.0765847256
 30
0.0
 11
-0.07071067811865485
 21
0.0
 31
0.0
210
0.0
220
0.0
230
1.0
 40
0.6993398237
 41
1.570796326794897
 42
1.779086541063209
  0
LINE
  5
349
330
72
100
AcDbEntity
  8
$DDT_AUDIT_GENERATED_(31C)
  6
Continuous
 62
     7
100
AcDbLine
 10
56.3264727912
 20
376.0260414862
 30
0.0
 11
56.3264727912
 21
376.0271339325
 31
0.0
  0
ELLIPSE
  5
34A
330
72
100
AcDbEntity
  8
$DDT_AUDIT_GENERATED_(31C)
  6
Continuous
 62
     7
100
AcDbEllipse
 10
56.3264727912
 20
376.0765847256
 30
0.0
 11
0.07071067811865485
 21
0.0
 31
0.0
210
0.0
220
0.0
230
1.0
 40
0.6993398237
 41
4.504098766116274
 42
4.71238898038469
  0
LINE
  5
34B
330
72
100
AcDbEntity
  8
$DDT_AUDIT_GENERATED_(31C)
  6
Continuous
 62
     7
100
AcDbLine
 10
56.3264727912
 20
376.0271339325
 30
0.0
 11
56.3264727912
 21
376.047867987
 31
0.0
  0
LINE
  5
34C
330
72
100
AcDbEntity
  8
$DDT_AUDIT_GENERATED_(31C)
  6
Continuous
 62
     7
100
AcDbLine
 10
55.345647256
 20
376.247867987
 30
0.0
 11
55.345647256
 21
376.2671394586
 31
0.0
  0
ELLIPSE
  5
34D
330
72
100
AcDbEntity
  8
$DDT_AUDIT_GENERATED_(31C)
  6
Continuous
 62
     7
100
AcDbEllipse
 10
55.345647256
 20
376.0765847256
 30
0.0
 11
0.07071067811865485
 21
0.0
 31
0.0
210
0.0
220
0.0
230
1.0
 40
0.6993398237
 41
4.504098766116376
 42
4.71238898038469
  0
LINE
  5
34E
330
72
100
AcDbEntity
  8
$DDT_AUDIT_GENERATED_(31C)
  6
Continuous
 62
     7
100
AcDbLine
 10
55.345647256
 20
376.0271339325
 30
0.0
 11
55.345647256
 21
376.047867987
 31
0.0
  0
LINE
  5
34F
330
72
100
AcDbEntity
  8
$DDT_AUDIT_GENERATED_(31C)
  6
Continuous
 62
     7
100
AcDbLine
 10
55.8360600236
 20
376.0208749628
 30
0.0
 11
55.8360600236
 21
376.047867987
 31
0.0
  0
ELLIPSE
  5
350
330
72
100
AcDbEntity
  8
$DDT_AUDIT_GENERATED_(31C)
  6
Continuous
 62
     7
100
AcDbEllipse
 10
55.345647256
 20
376.0765847256
 30
0.0
 11
-0.07071067811865485
 21
0.0
 31
0.0
210
0.0
220
0.0
230
1.0
 40
0.6993398237
 41
1.570796326794897
 42
1.779086541063209
  0
LINE
  5
351
330
72
100
AcDbEntity
  8
$DDT_AUDIT_GENERATED_(31C)
  6
Continuous
 62
     7
100
AcDbLine
 10
55.345647256
 20
376.0260414862
 30
0.0
 11
55.345647256
 21
376.0271339325
 31
0.0
  0
LINE
  5
352
330
72
100
AcDbEntity
  8
$DDT_AUDIT_GENERATED_(31C)
  6
Continuous
 62
     7
100
AcDbLine
 10
54.3648217208
 20
376.0320814521
 30
0.0
 11
54.3648217208
 21
376.047867987
 31
0.0
  0
SPLINE
  5
353
330
72
100
AcDbEntity
  8
$DDT_AUDIT_GENERATED_(31C)
  6
Continuous
 62
     7
100
AcDbSpline
210
0.0
220
0.0
230
1.0
 70
     8
 71
     3
 72
    11
 73
     7
 74
     0
 42
0.0000000624320168
 43
0.0000000001
 40
0.923050794240396
 40
0.923050794240396
 40
0.923050794240396
 40
0.923050794240396
 40
0.9723878293675788
 40
0.9723878293675788
 40
0.9723878293675788
 40
1.0
 40
1.0
 40
1.0
 40
1.0
 10
55.00137271802656
 20
376.0481067842103
 30
0.0
 10
55.00072221245544
 20
376.0455889972085
 30
0.0
 10
55.00027001524643
 20
376.0430006104244
 30
0.0
 10
55.00003366607868
 20
376.0403938369266
 30
0.0
 10
54.9998993870251
 20
376.0389128286308
 30
0.0
 10
54.99983194970634
 20
376.037418587483
 30
0.0
 10
54.99983194970634
 20
376.0359216725255
 30
0.0
  0
SPLINE
  5
354
330
72
100
AcDbEntity
  8
$DDT_AUDIT_GENERATED_(31C)
  6
Continuous
 62
     7
100
AcDbSpline
210
0.0
220
0.0
230
1.0
 70
     8
 71
     3
 72
     8
 73
     4
 74
     0
 42
0.0000000624572254
 43
0.0000000001
 40
0.0
 40
0.0
 40
0.0
 40
0.0
 40
0.0765281620491388
 40
0.0765281620491388
 40
0.0765281620491388
 40
0.0765281620491388
 10
63.53806684391368
 20
376.0359216725255
 30
0.0
 10
63.53806684391368
 20
376.0400130359521
 30
0.0
 10
63.53754822409346
 20
376.0441141009158
 30
0.0
 10
63.53655295625418
 20
376.048017000328
 30
0.0
  0
LINE
  5
355
330
72
100
AcDbEntity
  8
$DDT_AUDIT_GENERATED_(31C)
  6
Continuous
 62
     7
100
AcDbLine
 10
63.5380668439
 20
376.0359216725
 30
0.0
 11
63.6398648932
 21
376.0208749628
 31
0.0
  0
LINE
  5
356
330
72
100
AcDbEntity
  8
$DDT_AUDIT_GENERATED_(31C)
  6
Continuous
 62
     7
100
AcDbLine
 10
63.7254637171
 20
376.0208749628
 30
0.0
 11
63.776092254
 21
376.028358337
 31
0.0
  0
LINE
  5
357
330
72
100
AcDbEntity
  8
$DDT_AUDIT_GENERATED_(31C)
  6
Continuous
 62
     7
100
AcDbLine
 10
54.7618065397
 20
376.028358337
 30
0.0
 11
54.8124350765
 21
376.0208749628
 31
0.0
  0
LINE
  5
358
330
72
100
AcDbEntity
  8
$DDT_AUDIT_GENERATED_(31C)
  6
Continuous
 62
     7
100
AcDbLine
 10
54.8980339004
 20
376.0208749628
 30
0.0
 11
54.9998319497
 21
376.0359216725
 31
0.0
  0
ELLIPSE
  5
359
330
72
100
AcDbEntity
  8
$DDT_AUDIT_GENERATED_(31C)
  6
Continuous
 62
     7
100
AcDbEllipse
 10
59.268949394
 20
377.4538495501
 30
0.0
 11
-10.49999999611356
 21
3.870896658764166E-10
 31
0.0
210
0.0
220
0.0
230
1.0
 40
0.1478094111
 41
1.133539413754241
 42
1.152085905929959
  0
ELLIPSE
  5
35A
330
72
100
AcDbEntity
  8
$DDT_AUDIT_GENERATED_(31C)
  6
Continuous
 62
     7
100
AcDbEllipse
 10
59.2689493953
 20
377.4538495515
 30
0.0
 11
10.50000000209148
 21
-2.083767186578100E-10
 31
0.0
210
0.0
220
0.0
230
1.0
 40
0.1478094111
 41
-1.152085905718059
 42
-1.133539413551413
  0
LINE
  5
35B
330
72
100
AcDbEntity
  8
$DDT_AUDIT_GENERATED_(31C)
  6
Continuous
 62
     7
100
AcDbLine
 10
62.7313607989
 20
376.247867987
 30
0.0
 11
62.9139812696
 21
376.2748610113
 31
0.0
  0
LINE
  5
35C
330
72
100
AcDbEntity
  8
$DDT_AUDIT_GENERATED_(31C)
  6
Continuous
 62
     7
100
AcDbLine
 10
64.2608204859
 20
376.0390107884
 30
0.0
 11
64.3207435895
 21
376.047867987
 31
0.0
  0
LINE
  5
35D
330
72
100
AcDbEntity
  8
$DDT_AUDIT_GENERATED_(31C)
  6
Continuous
 62
     7
100
AcDbLine
 10
64.0254105561
 20
376.047867987
 30
0.0
 11
64.1463056166
 21
376.0299985593
 31
0.0
  0
LINE
  5
35E
330
72
100
AcDbEntity
  8
$DDT_AUDIT_GENERATED_(31C)
  6
Continuous
 62
     7
100
AcDbLine
 10
62.4896962704
 20
376.2748610113
 30
0.0
 11
62.6723167411
 21
376.247867987
 31
0.0
  0
LINE
  5
35F
330
72
100
AcDbEntity
  8
$DDT_AUDIT_GENERATED_(31C)
  6
Continuous
 62
     7
100
AcDbLine
 10
63.2068736129
 20
376.0282027665
 30
0.0
 11
63.3399180543
 21
376.047867987
 31
0.0
  0
LINE
  5
360
330
72
100
AcDbEntity
  8
$DDT_AUDIT_GENERATED_(31C)
  6
Continuous
 62
     7
100
AcDbLine
 10
62.2300838226
 20
376.2748610113
 30
0.0
 11
62.2114260024
 21
376.2721032099
 31
0.0
  0
LINE
  5
361
330
72
100
AcDbEntity
  8
$DDT_AUDIT_GENERATED_(31C)
  6
Continuous
 62
     7
100
AcDbLine
 10
61.7505352637
 20
376.247867987
 30
0.0
 11
61.9331557344
 21
376.2748610113
 31
0.0
  0
LINE
  5
362
330
72
100
AcDbEntity
  8
$DDT_AUDIT_GENERATED_(31C)
  6
Continuous
 62
     7
100
AcDbLine
 10
61.5088707352
 20
376.2748610113
 30
0.0
 11
61.6914912059
 21
376.247867987
 31
0.0
  0
LINE
  5
363
330
72
100
AcDbEntity
  8
$DDT_AUDIT_GENERATED_(31C)
  6
Continuous
 62
     7
100
AcDbLine
 10
62.2114260024
 20
376.2721032099
 30
0.0
 11
62.1927681822
 21
376.2748610113
 31
0.0
  0
LINE
  5
364
330
72
100
AcDbEntity
  8
$DDT_AUDIT_GENERATED_(31C)
  6
Continuous
 62
     7
100
AcDbLine
 10
63.0445850209
 20
376.047867987
 30
0.0
 11
63.1776294622
 21
376.0282027665
 31
0.0
  0
LINE
  5
365
330
72
100
AcDbEntity
  8
$DDT_AUDIT_GENERATED_(31C)
  6
Continuous
 62
     7
100
AcDbLine
 10
63.1922515376
 20
376.0260414862
 30
0.0
 11
63.2272054916
 21
376.0208749628
 31
0.0
  0
LINE
  5
366
330
72
100
AcDbEntity
  8
$DDT_AUDIT_GENERATED_(31C)
  6
Continuous
 62
     7
100
AcDbLine
 10
60.9046636825
 20
376.2678154515
 30
0.0
 11
60.9523301992
 21
376.2748610113
 31
0.0
  0
LINE
  5
367
330
72
100
AcDbEntity
  8
$DDT_AUDIT_GENERATED_(31C)
  6
Continuous
 62
     7
100
AcDbLine
 10
61.2492582874
 20
376.2748610113
 30
0.0
 11
61.2306004672
 21
376.2721032099
 31
0.0
  0
LINE
  5
368
330
72
100
AcDbEntity
  8
$DDT_AUDIT_GENERATED_(31C)
  6
Continuous
 62
     7
100
AcDbLine
 10
62.2260480777
 20
376.0282027665
 30
0.0
 11
62.2403779682
 21
376.0303208592
 31
0.0
  0
LINE
  5
369
330
72
100
AcDbEntity
  8
$DDT_AUDIT_GENERATED_(31C)
  6
Continuous
 62
     7
100
AcDbLine
 10
63.1572975836
 20
376.0208749628
 30
0.0
 11
63.1922515376
 21
376.0260414862
 31
0.0
  0
LINE
  5
36A
330
72
100
AcDbEntity
  8
$DDT_AUDIT_GENERATED_(31C)
  6
Continuous
 62
     7
100
AcDbLine
 10
62.2114260024
 20
376.0260414862
 30
0.0
 11
62.2403779682
 21
376.0217621131
 31
0.0
  0
LINE
  5
36B
330
72
100
AcDbEntity
  8
$DDT_AUDIT_GENERATED_(31C)
  6
Continuous
 62
     7
100
AcDbLine
 10
62.0637594857
 20
376.047867987
 30
0.0
 11
62.196803927
 21
376.0282027665
 31
0.0
  0
LINE
  5
36C
330
72
100
AcDbEntity
  8
$DDT_AUDIT_GENERATED_(31C)
  6
Continuous
 62
     7
100
AcDbLine
 10
61.2306004672
 20
376.2721032099
 30
0.0
 11
61.211942647
 21
376.2748610113
 31
0.0
  0
LINE
  5
36D
330
72
100
AcDbEntity
  8
$DDT_AUDIT_GENERATED_(31C)
  6
Continuous
 62
     7
100
AcDbLine
 10
60.5280452
 20
376.2748610113
 30
0.0
 11
60.7046636825
 21
376.2487551374
 31
0.0
  0
LINE
  5
36E
330
72
100
AcDbEntity
  8
$DDT_AUDIT_GENERATED_(31C)
  6
Continuous
 62
     7
100
AcDbLine
 10
62.1764720484
 20
376.0208749628
 30
0.0
 11
62.2114260024
 21
376.0260414862
 31
0.0
  0
LINE
  5
36F
330
72
100
AcDbEntity
  8
$DDT_AUDIT_GENERATED_(31C)
  6
Continuous
 62
     7
100
AcDbLine
 10
61.2452225425
 20
376.0282027665
 30
0.0
 11
61.3782669839
 21
376.047867987
 31
0.0
  0
LINE
  5
370
330
72
100
AcDbEntity
  8
$DDT_AUDIT_GENERATED_(31C)
  6
Continuous
 62
     7
100
AcDbLine
 10
60.2684327522
 20
376.2748610113
 30
0.0
 11
60.249774932
 21
376.2721032099
 31
0.0
  0
LINE
  5
371
330
72
100
AcDbEntity
  8
$DDT_AUDIT_GENERATED_(31C)
  6
Continuous
 62
     7
100
AcDbLine
 10
59.7888841933
 20
376.247867987
 30
0.0
 11
59.971504664
 21
376.2748610113
 31
0.0
  0
LINE
  5
372
330
72
100
AcDbEntity
  8
$DDT_AUDIT_GENERATED_(31C)
  6
Continuous
 62
     7
100
AcDbLine
 10
59.5472196648
 20
376.2748610113
 30
0.0
 11
59.7298401355
 21
376.247867987
 31
0.0
  0
LINE
  5
373
330
72
100
AcDbEntity
  8
$DDT_AUDIT_GENERATED_(31C)
  6
Continuous
 62
     7
100
AcDbLine
 10
60.249774932
 20
376.2721032099
 30
0.0
 11
60.2311171118
 21
376.2748610113
 31
0.0
  0
LINE
  5
374
330
72
100
AcDbEntity
  8
$DDT_AUDIT_GENERATED_(31C)
  6
Continuous
 62
     7
100
AcDbLine
 10
61.0829339505
 20
376.047867987
 30
0.0
 11
61.2159783919
 21
376.0282027665
 31
0.0
  0
LINE
  5
375
330
72
100
AcDbEntity
  8
$DDT_AUDIT_GENERATED_(31C)
  6
Continuous
 62
     7
100
AcDbLine
 10
61.2306004672
 20
376.0260414862
 30
0.0
 11
61.2655544212
 21
376.0208749628
 31
0.0
  0
LINE
  5
376
330
72
100
AcDbEntity
  8
$DDT_AUDIT_GENERATED_(31C)
  6
Continuous
 62
     7
100
AcDbLine
 10
58.8080586581
 20
376.247867987
 30
0.0
 11
58.9906791288
 21
376.2748610113
 31
0.0
  0
LINE
  5
377
330
72
100
AcDbEntity
  8
$DDT_AUDIT_GENERATED_(31C)
  6
Continuous
 62
     7
100
AcDbLine
 10
60.2643970074
 20
376.0282027665
 30
0.0
 11
60.3974414487
 21
376.047867987
 31
0.0
  0
LINE
  5
378
330
72
100
AcDbEntity
  8
$DDT_AUDIT_GENERATED_(31C)
  6
Continuous
 62
     7
100
AcDbLine
 10
61.1956465132
 20
376.0208749628
 30
0.0
 11
61.2306004672
 21
376.0260414862
 31
0.0
  0
LINE
  5
379
330
72
100
AcDbEntity
  8
$DDT_AUDIT_GENERATED_(31C)
  6
Continuous
 62
     7
100
AcDbLine
 10
60.249774932
 20
376.0260414862
 30
0.0
 11
60.284728886
 21
376.0208749628
 31
0.0
  0
LINE
  5
37A
330
72
100
AcDbEntity
  8
$DDT_AUDIT_GENERATED_(31C)
  6
Continuous
 62
     7
100
AcDbLine
 10
60.1021084153
 20
376.047867987
 30
0.0
 11
60.2351528567
 21
376.0282027665
 31
0.0
  0
LINE
  5
37B
330
72
100
AcDbEntity
  8
$DDT_AUDIT_GENERATED_(31C)
  6
Continuous
 62
     7
100
AcDbLine
 10
58.5663941296
 20
376.2748610113
 30
0.0
 11
58.7490146003
 21
376.247867987
 31
0.0
  0
LINE
  5
37C
330
72
100
AcDbEntity
  8
$DDT_AUDIT_GENERATED_(31C)
  6
Continuous
 62
     7
100
AcDbLine
 10
60.214820978
 20
376.0208749628
 30
0.0
 11
60.249774932
 21
376.0260414862
 31
0.0
  0
LINE
  5
37D
330
72
100
AcDbEntity
  8
$DDT_AUDIT_GENERATED_(31C)
  6
Continuous
 62
     7
100
AcDbLine
 10
59.3689493968
 20
376.0408224273
 30
0.0
 11
59.4166159135
 21
376.047867987
 31
0.0
  0
LINE
  5
37E
330
72
100
AcDbEntity
  8
$DDT_AUDIT_GENERATED_(31C)
  6
Continuous
 62
     7
100
AcDbLine
 10
58.3067816818
 20
376.2748610113
 30
0.0
 11
58.2881238616
 21
376.2721032099
 31
0.0
  0
LINE
  5
37F
330
72
100
AcDbEntity
  8
$DDT_AUDIT_GENERATED_(31C)
  6
Continuous
 62
     7
100
AcDbLine
 10
57.8332351111
 20
376.2487551374
 30
0.0
 11
58.0098535936
 21
376.2748610113
 31
0.0
  0
LINE
  5
380
330
72
100
AcDbEntity
  8
$DDT_AUDIT_GENERATED_(31C)
  6
Continuous
 62
     7
100
AcDbLine
 10
57.5855685944
 20
376.2748610113
 30
0.0
 11
57.6332351111
 21
376.2678154515
 31
0.0
  0
LINE
  5
381
330
72
100
AcDbEntity
  8
$DDT_AUDIT_GENERATED_(31C)
  6
Continuous
 62
     7
100
AcDbLine
 10
58.2881238616
 20
376.2721032099
 30
0.0
 11
58.2694660414
 21
376.2748610113
 31
0.0
  0
LINE
  5
382
330
72
100
AcDbEntity
  8
$DDT_AUDIT_GENERATED_(31C)
  6
Continuous
 62
     7
100
AcDbLine
 10
59.1212828801
 20
376.047867987
 30
0.0
 11
59.1689493968
 21
376.0408224273
 31
0.0
  0
LINE
  5
383
330
72
100
AcDbEntity
  8
$DDT_AUDIT_GENERATED_(31C)
  6
Continuous
 62
     7
100
AcDbLine
 10
56.8464075877
 20
376.247867987
 30
0.0
 11
57.0290280584
 21
376.2748610113
 31
0.0
  0
LINE
  5
384
330
72
100
AcDbEntity
  8
$DDT_AUDIT_GENERATED_(31C)
  6
Continuous
 62
     7
100
AcDbLine
 10
57.3259561466
 20
376.2748610113
 30
0.0
 11
57.3072983264
 21
376.2721032099
 31
0.0
  0
LINE
  5
385
330
72
100
AcDbEntity
  8
$DDT_AUDIT_GENERATED_(31C)
  6
Continuous
 62
     7
100
AcDbLine
 10
58.302745937
 20
376.0282027665
 30
0.0
 11
58.4357903783
 21
376.047867987
 31
0.0
  0
LINE
  5
386
330
72
100
AcDbEntity
  8
$DDT_AUDIT_GENERATED_(31C)
  6
Continuous
 62
     7
100
AcDbLine
 10
58.2881238616
 20
376.0260414862
 30
0.0
 11
58.3230778156
 21
376.0208749628
 31
0.0
  0
LINE
  5
387
330
72
100
AcDbEntity
  8
$DDT_AUDIT_GENERATED_(31C)
  6
Continuous
 62
     7
100
AcDbLine
 10
58.1404573449
 20
376.047867987
 30
0.0
 11
58.2735017863
 21
376.0282027665
 31
0.0
  0
LINE
  5
388
330
72
100
AcDbEntity
  8
$DDT_AUDIT_GENERATED_(31C)
  6
Continuous
 62
     7
100
AcDbLine
 10
57.3072983264
 20
376.2721032099
 30
0.0
 11
57.2886405063
 21
376.2748610113
 31
0.0
  0
LINE
  5
389
330
72
100
AcDbEntity
  8
$DDT_AUDIT_GENERATED_(31C)
  6
Continuous
 62
     7
100
AcDbLine
 10
56.6047430592
 20
376.2748610113
 30
0.0
 11
56.7873635299
 21
376.247867987
 31
0.0
  0
LINE
  5
38A
330
72
100
AcDbEntity
  8
$DDT_AUDIT_GENERATED_(31C)
  6
Continuous
 62
     7
100
AcDbLine
 10
58.2531699076
 20
376.0208749628
 30
0.0
 11
58.2881238616
 21
376.0260414862
 31
0.0
  0
LINE
  5
38B
330
72
100
AcDbEntity
  8
$DDT_AUDIT_GENERATED_(31C)
  6
Continuous
 62
     7
100
AcDbLine
 10
57.3219204018
 20
376.0282027665
 30
0.0
 11
57.4549648431
 21
376.047867987
 31
0.0
  0
LINE
  5
38C
330
72
100
AcDbEntity
  8
$DDT_AUDIT_GENERATED_(31C)
  6
Continuous
 62
     7
100
AcDbLine
 10
56.3451306114
 20
376.2748610113
 30
0.0
 11
56.3264727912
 21
376.2721032099
 31
0.0
  0
LINE
  5
38D
330
72
100
AcDbEntity
  8
$DDT_AUDIT_GENERATED_(31C)
  6
Continuous
 62
     7
100
AcDbLine
 10
55.8655820525
 20
376.247867987
 30
0.0
 11
56.0482025232
 21
376.2748610113
 31
0.0
  0
LINE
  5
38E
330
72
100
AcDbEntity
  8
$DDT_AUDIT_GENERATED_(31C)
  6
Continuous
 62
     7
100
AcDbLine
 10
55.623917524
 20
376.2748610113
 30
0.0
 11
55.8065379947
 21
376.247867987
 31
0.0
  0
LINE
  5
38F
330
72
100
AcDbEntity
  8
$DDT_AUDIT_GENERATED_(31C)
  6
Continuous
 62
     7
100
AcDbLine
 10
56.3264727912
 20
376.2721032099
 30
0.0
 11
56.3078149711
 21
376.2748610113
 31
0.0
  0
LINE
  5
390
330
72
100
AcDbEntity
  8
$DDT_AUDIT_GENERATED_(31C)
  6
Continuous
 62
     7
100
AcDbLine
 10
57.1596318097
 20
376.047867987
 30
0.0
 11
57.2926762511
 21
376.0282027665
 31
0.0
  0
LINE
  5
391
330
72
100
AcDbEntity
  8
$DDT_AUDIT_GENERATED_(31C)
  6
Continuous
 62
     7
100
AcDbLine
 10
57.3072983264
 20
376.0260414862
 30
0.0
 11
57.3422522804
 21
376.0208749628
 31
0.0
  0
LINE
  5
392
330
72
100
AcDbEntity
  8
$DDT_AUDIT_GENERATED_(31C)
  6
Continuous
 62
     7
100
AcDbLine
 10
56.3410948666
 20
376.0282027665
 30
0.0
 11
56.4741393079
 21
376.047867987
 31
0.0
  0
LINE
  5
393
330
72
100
AcDbEntity
  8
$DDT_AUDIT_GENERATED_(31C)
  6
Continuous
 62
     7
100
AcDbLine
 10
57.2723443724
 20
376.0208749628
 30
0.0
 11
57.3072983264
 21
376.0260414862
 31
0.0
  0
LINE
  5
394
330
72
100
AcDbEntity
  8
$DDT_AUDIT_GENERATED_(31C)
  6
Continuous
 62
     7
100
AcDbLine
 10
56.3264727912
 20
376.0260414862
 30
0.0
 11
56.3614267453
 21
376.0208749628
 31
0.0
  0
LINE
  5
395
330
72
100
AcDbEntity
  8
$DDT_AUDIT_GENERATED_(31C)
  6
Continuous
 62
     7
100
AcDbLine
 10
56.2975208254
 20
376.0303208592
 30
0.0
 11
56.3118507159
 21
376.0282027665
 31
0.0
  0
LINE
  5
396
330
72
100
AcDbEntity
  8
$DDT_AUDIT_GENERATED_(31C)
  6
Continuous
 62
     7
100
AcDbLine
 10
56.2975208254
 20
376.0217621131
 30
0.0
 11
56.3264727912
 21
376.0260414862
 31
0.0
  0
LINE
  5
397
330
72
100
AcDbEntity
  8
$DDT_AUDIT_GENERATED_(31C)
  6
Continuous
 62
     7
100
AcDbLine
 10
55.3602693314
 20
376.0282027665
 30
0.0
 11
55.4933137727
 21
376.047867987
 31
0.0
  0
LINE
  5
398
330
72
100
AcDbEntity
  8
$DDT_AUDIT_GENERATED_(31C)
  6
Continuous
 62
     7
100
AcDbLine
 10
55.1979807394
 20
376.047867987
 30
0.0
 11
55.3310251807
 21
376.0282027665
 31
0.0
  0
LINE
  5
399
330
72
100
AcDbEntity
  8
$DDT_AUDIT_GENERATED_(31C)
  6
Continuous
 62
     7
100
AcDbLine
 10
55.345647256
 20
376.0260414862
 30
0.0
 11
55.3806012101
 21
376.0208749628
 31
0.0
  0
LINE
  5
39A
330
72
100
AcDbEntity
  8
$DDT_AUDIT_GENERATED_(31C)
  6
Continuous
 62
     7
100
AcDbLine
 10
54.391593177
 20
376.0299985593
 30
0.0
 11
54.5124882375
 21
376.047867987
 31
0.0
  0
LINE
  5
39B
330
72
100
AcDbEntity
  8
$DDT_AUDIT_GENERATED_(31C)
  6
Continuous
 62
     7
100
AcDbLine
 10
55.310693302
 20
376.0208749628
 30
0.0
 11
55.345647256
 21
376.0260414862
 31
0.0
  0
LINE
  5
39C
330
72
100
AcDbEntity
  8
$DDT_AUDIT_GENERATED_(31C)
  6
Continuous
 62
     7
100
AcDbLine
 10
54.2171552042
 20
376.047867987
 30
0.0
 11
54.2770783077
 21
376.0390107884
 31
0.0
  0
SPLINE
  5
39E
330
72
100
AcDbEntity
  8
$DDT_AUDIT_GENERATED_(39D)
  6
Continuous
 62
     7
100
AcDbSpline
210
0.0
220
0.0
230
1.0
 70
    11
 71
     6
 72
    14
 73
     7
 74
     0
 42
0.0000000000205832
 43
0.0000000001
 40
0.0
 40
0.0
 40
0.0
 40
0.0
 40
0.0
 40
0.0
 40
0.0
 40
1.0
 40
1.0
 40
1.0
 40
1.0
 40
1.0
 40
1.0
 40
1.0
 10
59.26894939681002
 20
430.928563857257
 30
0.0
 10
108.703526614847
 20
430.928563857257
 30
0.0
 10
144.454703591485
 20
357.479166737331
 30
0.0
 10
59.26894939680866
 20
285.082109884129
 30
0.0
 10
-25.91680479786299
 20
357.4791667373311
 30
0.0
 10
9.83437217877301
 20
430.928563857257
 30
0.0
 10
59.26894939681002
 20
430.928563857257
 30
0.0
  0
ENDBLK
  5
3A0
330
72
100
AcDbEntity
  8
0
100
AcDbBlockEnd
  0
BLOCK
  5
3C5
330
3A1
100
AcDbEntity
  8
0
100
AcDbBlockBegin
  2
SE1
 70
     0
 10
0.0
 20
0.0
 30
0.0
  3
SE1
  1

  0
LINE
  5
3A3
330
3A1
100
AcDbEntity
  8
$DDT_AUDIT_GENERATED_(74)
  6
Continuous
 62
     7
100
AcDbLine
 10
183.2692583473
 20
398.6556440902
 30
0.0
 11
183.2692583472
 21
397.6322543045
 31
0.0
  0
LINE
  5
3A4
330
3A1
100
AcDbEntity
  8
$DDT_AUDIT_GENERATED_(74)
  6
Continuous
 62
     7
100
AcDbLine
 10
183.2692584121
 20
398.6556440897
 30
0.0
 11
183.2692584111
 21
406.8983001134
 31
0.0
  0
LINE
  5
3A5
330
3A1
100
AcDbEntity
  8
$DDT_AUDIT_GENERATED_(74)
  6
Continuous
 62
     7
100
AcDbLine
 10
183.2692584111
 20
406.8983001134
 30
0.0
 11
183.2692584104
 21
407.4089744268
 31
0.0
  0
LINE
  5
3A6
330
3A1
100
AcDbEntity
  8
$DDT_AUDIT_GENERATED_(74)
  6
Continuous
 62
     7
100
AcDbLine
 10
183.2692584104
 20
407.4089744268
 30
0.0
 11
183.269258349
 21
407.4090568519
 31
0.0
  0
SPLINE
  5
3A7
330
3A1
100
AcDbEntity
  8
$DDT_AUDIT_GENERATED_(74)
  6
Continuous
 62
     7
100
AcDbSpline
210
0.0
220
0.0
230
1.0
 70
     8
 71
     3
 72
   165
 73
   161
 74
     0
 42
0.0000000000278704
 43
0.0000000001
 40
0.0
 40
0.0
 40
0.0
 40
0.0
 40
0.0076719457739157
 40
0.0156205402825757
 40
0.0313788210239023
 40
0.0472039198621212
 40
0.0550708475930905
 40
0.0629949771812638
 40
0.0788992790111132
 40
0.0946553906027559
 40
0.11041069735526
 40
0.1263152848111517
 40
0.1341346458373124
 40
0.1420871961726475
 40
0.1500150472644863
 40
0.1579224823305308
 40
0.1737132524225481
 40
0.1894644841018942
 40
0.2053922697865474
 40
0.2132573382038425
 40
0.2211116211675561
 40
0.2290588166217274
 40
0.2369769362292815
 40
0.2448134863271942
 40
0.2527840348850904
 40
0.2685630092607008
 40
0.2844513258618173
 40
0.3001794206312482
 40
0.3160426586828022
 40
0.3239309303880751
 40
0.3318431537479149
 40
0.3397725039034201
 40
0.3476019481004611
 40
0.355532123584744
 40
0.3634531888831451
 40
0.3714213141308968
 40
0.379285756575914
 40
0.3951198475415921
 40
0.4029528828867895
 40
0.4109110616320765
 40
0.4147798674208037
 40
0.4188406176314659
 40
0.4227858313054659
 40
0.4266769386817545
 40
0.4307044700398925
 40
0.4345888715077936
 40
0.4385785030817636
 40
0.4405561299781235
 40
0.4425337568744834
 40
0.4444948207279098
 40
0.4464558845813334
 40
0.4484572162482168
 40
0.4504585479151002
 40
0.4524245913610304
 40
0.4543906348069579
 40
0.4563484027499602
 40
0.45830617069296
 40
0.4603192586858469
 40
0.4623323466787311
 40
0.4642775274217068
 40
0.4662227081646825
 40
0.4682072494134086
 40
0.4701917906621322
 40
0.4721723265028612
 40
0.4741528623435928
 40
0.4761048306662671
 40
0.4780567989889415
 40
0.481987959567475
 40
0.4860319791324078
 40
0.4899912732586895
 40
0.4919206108215928
 40
0.4938499483844935
 40
0.4958514403912767
 40
0.4978529323980571
 40
0.4998072152785455
 40
0.5017614981590366
 40
0.5036951374303992
 40
0.5056287767017617
 40
0.5075577262128351
 40
0.5094866757239059
 40
0.5114009271155926
 40
0.5133151785072766
 40
0.5153089272833132
 40
0.5173026760593525
 40
0.5192047206922938
 40
0.5211067653252377
 40
0.5229918902862756
 40
0.5248770152473162
 40
0.5268311189279578
 40
0.5287852226085967
 40
0.5307165066624842
 40
0.5326477907163716
 40
0.5345562098068787
 40
0.5364646288973859
 40
0.5384122394267836
 40
0.5403598499561814
 40
0.5412913525900419
 40
0.5422228552239026
 40
0.5432162709238303
 40
0.544209686623758
 40
0.5461344975572966
 40
0.5480593084908351
 40
0.5500111008652279
 40
0.5519628932396232
 40
0.5538601702383142
 40
0.5557574472370053
 40
0.559624701785823
 40
0.5615711733075259
 40
0.5635176448292288
 40
0.5654471118541414
 40
0.5673765788790541
 40
0.5692889659821811
 40
0.5712013530853055
 40
0.5751639044261608
 40
0.5770659696597082
 40
0.5789680348932558
 40
0.5809581190664124
 40
0.5829482032395691
 40
0.5848398683215636
 40
0.5867315334035581
 40
0.5905454392424206
 40
0.5944189291409764
 40
0.5982924190395295
 40
0.6021593905785543
 40
0.6060263621175792
 40
0.6098574822963478
 40
0.6136886024751191
 40
0.6214668670588664
 40
0.6292092935376993
 40
0.6446473533062836
 40
0.6601574638740647
 40
0.6755396390903372
 40
0.6909493592445265
 40
0.7065157104251135
 40
0.7219290982371186
 40
0.7373700308424231
 40
0.7527821906934755
 40
0.7682299863178543
 40
0.7837264955541394
 40
0.7915190439660081
 40
0.7991391641756379
 40
0.8069042220705255
 40
0.8146148400379427
 40
0.8223138368530779
 40
0.8300461416649968
 40
0.8378363291907526
 40
0.8454598303169186
 40
0.8609362005861533
 40
0.8763558779241006
 40
0.8841674059296047
 40
0.8919334772654192
 40
0.8995340874089572
 40
0.9073337523531146
 40
0.9226757085855322
 40
0.938232651375393
 40
0.9536806417148241
 40
0.9691183586674454
 40
0.9767955984413499
 40
0.9845684222443949
 40
1.0
 40
1.0
 40
1.0
 40
1.0
 10
183.2692583490103
 20
407.4090568519229
 30
0.0
 10
184.2400890247777
 20
407.4090567917155
 30
0.0
 10
186.2167584475311
 20
407.4090566691291
 30
0.0
 10
190.1875273202834
 20
407.4090564228772
 30
0.0
 10
195.1900203285066
 20
407.4090561126425
 30
0.0
 10
200.1821789719822
 20
407.4090558030473
 30
0.0
 10
204.1829809468407
 20
407.4090555549325
 30
0.0
 10
208.1938055004938
 20
407.4090553061962
 30
0.0
 10
213.2029507303344
 20
407.4090549955482
 30
0.0
 10
219.2030762955193
 20
407.4090546234429
 30
0.0
 10
225.203238005082
 20
407.4090542513356
 30
0.0
 10
230.1990598077213
 20
407.4090539415139
 30
0.0
 10
234.2074977199393
 20
407.4090536929254
 30
0.0
 10
237.2065358041029
 20
407.4090535069365
 30
0.0
 10
240.2167190379883
 20
407.4090533202565
 30
0.0
 10
244.2187737983606
 20
407.4090530720644
 30
0.0
 10
249.2108222928727
 20
407.4090527624766
 30
0.0
 10
255.2177896922026
 20
407.4090523899469
 30
0.0
 10
260.2218153442
 20
407.4090520796161
 30
0.0
 10
264.2265377333986
 20
407.4090518312584
 30
0.0
 10
267.2213726149635
 20
407.4090516455301
 30
0.0
 10
270.2229207511564
 20
407.4090514593855
 30
0.0
 10
273.2222249180285
 20
407.4090512733802
 30
0.0
 10
276.224484255762
 20
407.4090510871911
 30
0.0
 10
280.2214794213396
 20
407.4090508393126
 30
0.0
 10
285.2373689507613
 20
407.4090505282465
 30
0.0
 10
291.2349213375243
 20
407.409050156301
 30
0.0
 10
297.2431366992333
 20
407.4090497836937
 30
0.0
 10
302.2390027023733
 20
407.4090494738694
 30
0.0
 10
306.2458252049863
 20
407.409049225381
 30
0.0
 10
309.2486700515864
 20
407.4090490391563
 30
0.0
 10
312.2440706911833
 20
407.4090488533927
 30
0.0
 10
315.2417430457403
 20
407.4090486674881
 30
0.0
 10
318.2383670172823
 20
407.4090484816495
 30
0.0
 10
321.2525400663863
 20
407.4090482947213
 30
0.0
 10
324.2583951420983
 20
407.40904810831
 30
0.0
 10
328.2655892455953
 20
407.4090478598164
 30
0.0
 10
332.2556820578043
 20
407.409047612305
 30
0.0
 10
336.2576533918074
 20
407.4090473642386
 30
0.0
 10
338.7455655643333
 20
407.4090472095149
 30
0.0
 10
340.7558309652923
 20
407.4090470863693
 30
0.0
 10
342.2521249934163
 20
407.4090469788833
 30
0.0
 10
343.7468214213733
 20
407.4090468268212
 30
0.0
 10
345.2313089734254
 20
407.4090466169692
 30
0.0
 10
346.7003458895524
 20
407.4090463259976
 30
0.0
 10
348.1697159816513
 20
407.4090459307556
 30
0.0
 10
349.3728973988333
 20
407.409045499511
 30
0.0
 10
350.3296854798013
 20
407.4090450752801
 30
0.0
 10
351.0373990279583
 20
407.4090447190782
 30
0.0
 10
351.7306114440563
 20
407.4090443220127
 30
0.0
 10
352.4190591183033
 20
407.409043871943
 30
0.0
 10
353.1000785049334
 20
407.4090433723738
 30
0.0
 10
353.7649185122453
 20
407.409042817337
 30
0.0
 10
354.4112154263743
 20
407.4090422077264
 30
0.0
 10
355.0328443772963
 20
407.4090415481887
 30
0.0
 10
355.6311130285643
 20
407.4090408293869
 30
0.0
 10
356.2128069258404
 20
407.4090400440864
 30
0.0
 10
356.7757340722424
 20
407.4090391942367
 30
0.0
 10
357.3203010105213
 20
407.4090382900022
 30
0.0
 10
357.8384530687013
 20
407.4090373610165
 30
0.0
 10
358.3306848362453
 20
407.4090363984554
 30
0.0
 10
358.8025990673133
 20
407.4090353907387
 30
0.0
 10
359.2549582843173
 20
407.4090343379884
 30
0.0
 10
359.6813721830273
 20
407.4090332571501
 30
0.0
 10
360.0783321872253
 20
407.4090321469253
 30
0.0
 10
360.4488593473114
 20
407.4090310119297
 30
0.0
 10
360.9061917960433
 20
407.4090294658572
 30
0.0
 10
361.4167730660953
 20
407.4090274425718
 30
0.0
 10
361.9128868606684
 20
407.4090249214408
 30
0.0
 10
362.2260624902684
 20
407.4090227668503
 30
0.0
 10
362.4118939377823
 20
407.4090210476921
 30
0.0
 10
362.5222563984834
 20
407.4090197478674
 30
0.0
 10
362.6035476445393
 20
407.4090184265813
 30
0.0
 10
362.6523729959774
 20
407.4090170954403
 30
0.0
 10
362.6707752894603
 20
407.4090157667832
 30
0.0
 10
362.6602771342393
 20
407.4090144591132
 30
0.0
 10
362.6162833684044
 20
407.4090131594708
 30
0.0
 10
362.5444592801593
 20
407.409011859628
 30
0.0
 10
362.4456530742193
 20
407.409010578077
 30
0.0
 10
362.3138836272513
 20
407.4090093068812
 30
0.0
 10
362.1566407782573
 20
407.4090080425023
 30
0.0
 10
361.9692309125393
 20
407.4090067910356
 30
0.0
 10
361.7453093728603
 20
407.4090055268571
 30
0.0
 10
361.4981277521713
 20
407.4090042816714
 30
0.0
 10
361.2260696630653
 20
407.4090030892305
 30
0.0
 10
360.9280993382243
 20
407.4090019304496
 30
0.0
 10
360.6094197103703
 20
407.409000794689
 30
0.0
 10
360.2638456785343
 20
407.4089996835458
 30
0.0
 10
359.8843800892514
 20
407.4089985805606
 30
0.0
 10
359.4794520959474
 20
407.4089974976927
 30
0.0
 10
359.0516999518973
 20
407.4089964549601
 30
0.0
 10
358.6026501680463
 20
407.4089954522071
 30
0.0
 10
358.1332208149993
 20
407.4089944862895
 30
0.0
 10
357.6422422396953
 20
407.4089935551932
 30
0.0
 10
357.1259956413713
 20
407.4089926577021
 30
0.0
 10
356.6789063918494
 20
407.4089919412622
 30
0.0
 10
356.3187517365503
 20
407.408991399284
 30
0.0
 10
356.0448993432273
 20
407.4089910083295
 30
0.0
 10
355.7598105239264
 20
407.4089906246553
 30
0.0
 10
355.3676538206183
 20
407.4089901293109
 30
0.0
 10
354.8681942294763
 20
407.408989548736
 30
0.0
 10
354.2526664863073
 20
407.4089889138574
 30
0.0
 10
353.6131070918063
 20
407.4089883305565
 30
0.0
 10
352.9623838527883
 20
407.4089878005444
 30
0.0
 10
352.3055926350733
 20
407.4089873281171
 30
0.0
 10
351.4133279132383
 20
407.408986758689
 30
0.0
 10
350.4966542161683
 20
407.4089862743825
 30
0.0
 10
349.5608353032254
 20
407.4089858637876
 30
0.0
 10
348.8527746884374
 20
407.4089855938097
 30
0.0
 10
348.1413879372153
 20
407.4089853555531
 30
0.0
 10
347.4309560212783
 20
407.4089851495414
 30
0.0
 10
346.7186913103693
 20
407.408984969584
 30
0.0
 10
345.7525086280264
 20
407.4089847612936
 30
0.0
 10
344.7804777132964
 20
407.4089845959834
 30
0.0
 10
343.8090861851273
 20
407.408984466423
 30
0.0
 10
343.0812323639093
 20
407.4089843845749
 30
0.0
 10
342.3422560333923
 20
407.4089843136725
 30
0.0
 10
341.6026007777133
 20
407.4089842535469
 30
0.0
 10
340.8748135100353
 20
407.4089842019562
 30
0.0
 10
339.9149711422083
 20
407.4089841407899
 30
0.0
 10
338.7023854315733
 20
407.40898406647
 30
0.0
 10
337.2395899245464
 20
407.4089839752985
 30
0.0
 10
335.7698599328403
 20
407.4089838843838
 30
0.0
 10
334.3010549027064
 20
407.4089837931675
 30
0.0
 10
332.8375594128413
 20
407.4089837024762
 30
0.0
 10
331.3786282223563
 20
407.4089836119627
 30
0.0
 10
329.4247350146633
 20
407.4089834908129
 30
0.0
 10
326.9759074563823
 20
407.4089833389151
 30
0.0
 10
323.0582630091764
 20
407.4089830960842
 30
0.0
 10
318.1622600001683
 20
407.4089827923601
 30
0.0
 10
312.2994929277843
 20
407.4089824287519
 30
0.0
 10
306.4402936241194
 20
407.4089820653978
 30
0.0
 10
300.5739875903544
 20
407.4089817015851
 30
0.0
 10
294.7037259547494
 20
407.4089813375384
 30
0.0
 10
288.8295179921703
 20
407.4089809732395
 30
0.0
 10
282.9748199449135
 20
407.4089806101547
 30
0.0
 10
277.1157689529437
 20
407.4089802467979
 30
0.0
 10
271.2496844512982
 20
407.4089798830064
 30
0.0
 10
266.3478085523782
 20
407.40897957901
 30
0.0
 10
262.4364696118434
 20
407.4089793364437
 30
0.0
 10
259.5034915513515
 20
407.4089791545511
 30
0.0
 10
256.5808811287819
 20
407.4089789733023
 30
0.0
 10
253.6482894775315
 20
407.4089787914341
 30
0.0
 10
250.719842468859
 20
407.408978609823
 30
0.0
 10
247.7813265095226
 20
407.4089784275869
 30
0.0
 10
244.8523639885618
 20
407.4089782459448
 30
0.0
 10
240.9434445097742
 20
407.4089780035274
 30
0.0
 10
236.0690668065638
 20
407.4089777012383
 30
0.0
 10
231.1708956273373
 20
407.4089773974709
 30
0.0
 10
227.2484084940627
 20
407.4089771542138
 30
0.0
 10
224.3153692660565
 20
407.4089769723174
 30
0.0
 10
221.3838312246145
 20
407.4089767905149
 30
0.0
 10
217.493618286366
 20
407.4089765492589
 30
0.0
 10
212.5965874667884
 20
407.4089762455635
 30
0.0
 10
206.7317149148966
 20
407.4089758818465
 30
0.0
 10
200.8547245193462
 20
407.4089755173772
 30
0.0
 10
195.9748550615155
 20
407.408975214747
 30
0.0
 10
192.0662238997768
 20
407.4089749723479
 30
0.0
 10
188.1583695943091
 20
407.4089747299981
 30
0.0
 10
185.2220159691552
 20
407.4089745478962
 30
0.0
 10
183.2692584103812
 20
407.4089744267939
 30
0.0
  0
ARC
  5
3A8
330
3A1
100
AcDbEntity
  8
$DDT_AUDIT_GENERATED_(74)
  6
Continuous
 62
     7
100
AcDbCircle
 10
257.4017793828
 20
-23338.8147126587
 30
0.0
 40
23737.58611502429
100
AcDbArc
 50
89.7269557228
 51
90.1789351057
  0
LINE
  5
3A9
330
3A1
100
AcDbEntity
  8
$DDT_AUDIT_GENERATED_(74)
  6
Continuous
 62
     7
100
AcDbLine
 10
183.2692583472
 20
397.6322543183
 30
0.0
 11
183.2692583797
 21
374.4481120775
 31
0.0
  0
SPLINE
  5
3AA
330
3A1
100
AcDbEntity
  8
$DDT_AUDIT_GENERATED_(74)
  6
Continuous
 62
     7
100
AcDbSpline
210
0.0
220
0.0
230
1.0
 70
     8
 71
     3
 72
    30
 73
    26
 74
     0
 42
0.0000000001566762
 43
0.0000000001
 40
0.250051025217172
 40
0.250051025217172
 40
0.250051025217172
 40
0.250051025217172
 40
0.2812500000000013
 40
0.2812500000000013
 40
0.3125000000000015
 40
0.3125000000000015
 40
0.3437500000000017
 40
0.3437500000000017
 40
0.3750000000000019
 40
0.3750000000000019
 40
0.4375000000000018
 40
0.4375000000000018
 40
0.4687500000000018
 40
0.4687500000000018
 40
0.5000000000000018
 40
0.5000000000000018
 40
0.5312500000000017
 40
0.5312500000000017
 40
0.5625000000000017
 40
0.5625000000000017
 40
0.6250000000000016
 40
0.6250000000000016
 40
0.6875000000000014
 40
0.6875000000000014
 40
0.7497595466329992
 40
0.7497595466329992
 40
0.7497595466329992
 40
0.7497595466329992
 10
358.9945645315826
 20
380.9358257613352
 30
0.0
 10
358.9944265399366
 20
380.935744443773
 30
0.0
 10
358.8848105570862
 20
380.9885663000097
 30
0.0
 10
358.4554230483106
 20
381.1938443326688
 30
0.0
 10
358.1334545504862
 20
381.3473395785551
 30
0.0
 10
357.3203020663832
 20
381.7314099488337
 30
0.0
 10
356.820419010799
 20
381.966500309264
 30
0.0
 10
355.6881236654699
 20
382.4823812377109
 30
0.0
 10
355.0565809265833
 20
382.762865444973
 30
0.0
 10
352.9737458708652
 20
383.6392975599665
 30
0.0
 10
351.3866859103512
 20
384.2585897383935
 30
0.0
 10
348.7146871547287
 20
384.9336652246926
 30
0.0
 10
347.794426129262
 20
385.1112085187967
 30
0.0
 10
345.878156411484
 20
385.2885453244146
 30
0.0
 10
344.8876084028614
 20
385.2866455566474
 30
0.0
 10
342.9458380707904
 20
385.0525851986717
 30
0.0
 10
341.9777175563092
 20
384.8186668191995
 30
0.0
 10
340.1742008050402
 20
384.1740111843314
 30
0.0
 10
339.3152779355581
 20
383.7570874976732
 30
0.0
 10
336.960935182244
 20
382.3976841397157
 30
0.0
 10
335.6230211347481
 20
381.3175635394095
 30
0.0
 10
333.3857045464418
 20
379.319572907323
 30
0.0
 10
332.47029150501
 20
378.3806622552295
 30
0.0
 10
331.1846058808993
 20
377.0293067963822
 30
0.0
 10
330.8231269099832
 20
376.6215340697151
 30
0.0
 10
330.8228431562786
 20
376.6213532299669
 30
0.0
  0
ARC
  5
3AB
330
3A1
100
AcDbEntity
  8
$DDT_AUDIT_GENERATED_(74)
  6
Continuous
 62
     7
100
AcDbCircle
 10
188.1134509108
 20
351.3480047571
 30
0.0
 40
23.26155886688371
100
AcDbArc
 50
85.7526465898
 51
95.949719266
  0
ARC
  5
3AC
330
3A1
100
AcDbEntity
  8
$DDT_AUDIT_GENERATED_(74)
  6
Continuous
 62
     7
100
AcDbCircle
 10
354.0501468253
 20
402.582552456
 30
0.0
 40
21.56929703052845
100
AcDbArc
 50
327.6906368775
 51
346.881182436
  0
ARC
  5
3AD
330
3A1
100
AcDbEntity
  8
$DDT_AUDIT_GENERATED_(74)
  6
Continuous
 62
     7
100
AcDbCircle
 10
350.3086392525
 20
406.1353879392
 30
0.0
 40
26.64821818336264
100
AcDbArc
 50
289.002629608
 51
325.6292505883
  0
ARC
  5
3AE
330
3A1
100
AcDbEntity
  8
$DDT_AUDIT_GENERATED_(74)
  6
Continuous
 62
     7
100
AcDbCircle
 10
1290.8306179266
 20
-69617.1209929548
 30
0.0
 40
70000.32565555724
100
AcDbArc
 50
90.7857745466
 51
90.9012086244
  0
LINE
  5
3AF
330
3A1
100
AcDbEntity
  8
$DDT_AUDIT_GENERATED_(74)
  6
Continuous
 62
     7
100
AcDbLine
 10
183.2692583797
 20
374.4481115788
 30
0.0
 11
185.7280307936
 21
374.4846417458
 31
0.0
  0
SPLINE
  5
3B0
330
3A1
100
AcDbEntity
  8
$DDT_AUDIT_GENERATED_(74)
  6
Continuous
 62
     7
100
AcDbSpline
210
0.0
220
0.0
230
1.0
 70
     8
 71
     3
 72
    52
 73
    48
 74
     0
 42
0.0000000000554379
 43
0.0000000001
 40
0.0
 40
0.0
 40
0.0
 40
0.0
 40
0.0002554738062247
 40
0.000534922297349
 40
0.0012526921150507
 40
0.0035893075329095
 40
0.0072762529557724
 40
0.012348479807465
 40
0.0188164193454688
 40
0.0266853446421562
 40
0.0355301255102872
 40
0.0443281098974403
 40
0.0559207713267738
 40
0.0673616115297841
 40
0.07865473273798
 40
0.0869905606415543
 40
0.0952356107876274
 40
0.1034254951800934
 40
0.1115644836367468
 40
0.1251538902144876
 40
0.1385796765747155
 40
0.1518306167150428
 40
0.1649749362825431
 40
0.178053739730415
 40
0.2283924205319476
 40
0.2718591881264533
 40
0.3143626157203406
 40
0.4652644941188634
 40
0.5163895858554536
 40
0.5675146795707484
 40
0.6186397733231204
 40
0.6697180684889562
 40
0.719890222992334
 40
0.7401385942374856
 40
0.7601798892188607
 40
0.7800573782299666
 40
0.7927363261905003
 40
0.8068072867477204
 40
0.8222702599035905
 40
0.839125245658993
 40
0.8577591258270985
 40
0.8778424151963523
 40
0.89937511377215
 40
0.9223572215507709
 40
0.9467887385351053
 40
0.972669664715795
 40
1.0
 40
1.0
 40
1.0
 40
1.0
 10
363.5845309191255
 20
407.1209978314146
 30
0.0
 10
363.5699281911043
 20
407.1309513972438
 30
0.0
 10
363.5436091223158
 20
407.1488436070901
 30
0.0
 10
363.4838881287404
 20
407.1859724542114
 30
0.0
 10
363.3731163170977
 20
407.2466856130309
 30
0.0
 10
363.2536945148861
 20
407.2942204428885
 30
0.0
 10
363.1086866182258
 20
407.3341556747015
 30
0.0
 10
362.9276939063105
 20
407.3583933159307
 30
0.0
 10
362.6673799632011
 20
407.3736400086539
 30
0.0
 10
362.2837889375147
 20
407.3808389161571
 30
0.0
 10
361.7438489687692
 20
407.383707363712
 30
0.0
 10
360.9538664826572
 20
407.3875171963159
 30
0.0
 10
359.898024941354
 20
407.3906619853932
 30
0.0
 10
358.5339145138541
 20
407.3934407593957
 30
0.0
 10
357.1209858344902
 20
407.3955459211664
 30
0.0
 10
355.7268214567368
 20
407.3967319196558
 30
0.0
 10
354.377684324095
 20
407.3975147715508
 30
0.0
 10
352.9640983121282
 20
407.3982545250341
 30
0.0
 10
351.1796779075539
 20
407.3990393178168
 30
0.0
 10
349.0162302908568
 20
407.3997310920118
 30
0.0
 10
346.4975716157442
 20
407.4001380445544
 30
0.0
 10
343.989612652522
 20
407.3999335731764
 30
0.0
 10
341.4974772408382
 20
407.399692083757
 30
0.0
 10
336.6610404368782
 20
407.3997150153045
 30
0.0
 10
329.9095851744941
 20
407.3995636073442
 30
0.0
 10
321.2992435030595
 20
407.399448887703
 30
0.0
 10
306.3366406980791
 20
407.3992142233526
 30
0.0
 10
290.8902478646718
 20
407.3989800790368
 30
0.0
 10
274.8992557429624
 20
407.3987339606778
 30
0.0
 10
265.2109154340146
 20
407.3985856550178
 30
0.0
 10
255.525530963393
 20
407.3984396237139
 30
0.0
 10
245.900340444025
 20
407.3982952067451
 30
0.0
 10
238.2255567342927
 20
407.3981826382325
 30
0.0
 10
232.5113041670398
 20
407.3980993341426
 30
0.0
 10
228.710691662183
 20
407.3980442443168
 30
0.0
 10
225.3882210294867
 20
407.3979967305531
 30
0.0
 10
222.4428822206404
 20
407.3979550502056
 30
0.0
 10
219.7763963280821
 20
407.3979175618466
 30
0.0
 10
216.8461255644097
 20
407.3978765135222
 30
0.0
 10
213.6276033629215
 20
407.3978316791416
 30
0.0
 10
210.1173250387562
 20
407.3977832396148
 30
0.0
 10
206.3111541318951
 20
407.3977314546012
 30
0.0
 10
202.2320301302508
 20
407.3976765054857
 30
0.0
 10
197.8711771291507
 20
407.3976184220239
 30
0.0
 10
193.2645777043739
 20
407.3975583490547
 30
0.0
 10
188.2655131126438
 20
407.3974940270552
 30
0.0
 10
185.1528150879889
 20
407.3974550643293
 30
0.0
 10
183.2537850855358
 20
407.3974311106533
 30
0.0
  0
ARC
  5
3B1
330
3A1
100
AcDbEntity
  8
$DDT_AUDIT_GENERATED_(74)
  6
Continuous
 62
     7
100
AcDbCircle
 10
282.943394668
 20
291.1631229002
 30
0.0
 40
141.2417251773388
100
AcDbArc
 50
49.4099975192
 51
55.218316695
  0
ARC
  5
3B2
330
3A1
100
AcDbEntity
  8
$DDT_AUDIT_GENERATED_(74)
  6
Continuous
 62
     7
100
AcDbCircle
 10
374.1748367737
 20
397.8205933705
 30
0.0
 40
0.889188924699519
100
AcDbArc
 50
348.6595868988
 51
47.4247895488
  0
LINE
  5
3B3
330
3A1
100
AcDbEntity
  8
02555038_GEHÄUSE
  6
Continuous
 62
     7
100
AcDbLine
 10
358.1526772254
 20
376.420822746
 30
0.0
 11
332.9327727096
 21
372.6516827622
 31
0.0
  0
LINE
  5
3B4
330
3A1
100
AcDbEntity
  8
02555038_GEHÄUSE
  6
Continuous
 62
     7
100
AcDbLine
 10
359.2822748004
 20
377.3193452286
 30
0.0
 11
350.5751298879
 21
376.0180537025
 31
0.0
  0
LINE
  5
3B5
330
3A1
100
AcDbEntity
  8
02555038_GEHÄUSE
  6
Continuous
 62
     7
100
AcDbLine
 10
340.2969755389
 20
374.481973243
 30
0.0
 11
331.5898306263
 21
373.180681717
 31
0.0
  0
SPLINE
  5
3B6
330
3A1
100
AcDbEntity
  8
02555038_GEHÄUSE
  6
Continuous
 62
     7
100
AcDbSpline
210
0.0
220
0.0
230
1.0
 70
     8
 71
     3
 72
    14
 73
    10
 74
     0
 42
0.0000000009541162
 43
0.0000000001
 40
0.0
 40
0.0
 40
0.0
 40
0.0
 40
0.25
 40
0.25
 40
0.5
 40
0.5
 40
0.75
 40
0.75
 40
1.0
 40
1.0
 40
1.0
 40
1.0
 10
350.5751298878608
 20
376.0180537025137
 30
0.0
 10
349.7613669785827
 20
375.7122653158914
 30
0.0
 10
348.9319858892254
 20
375.4408668978792
 30
0.0
 10
347.2332641680744
 20
374.9860577405151
 30
0.0
 10
346.3747006561647
 20
374.806235113043
 30
0.0
 10
344.6529402212315
 20
374.5495146018117
 30
0.0
 10
343.7874975908921
 20
374.4719628250871
 30
0.0
 10
342.0481828070028
 20
374.410733119547
 30
0.0
 10
341.1741208407723
 20
374.426868519767
 30
0.0
 10
340.2969755388542
 20
374.4819732430338
 30
0.0
  0
ARC
  5
3B7
330
3A1
100
AcDbEntity
  8
02555038_GEHÄUSE
  6
Continuous
 62
     7
100
AcDbCircle
 10
346.7252002565
 20
366.6241258472
 30
0.0
 40
14.00000000000002
100
AcDbArc
 50
76.7132107017
 51
120.2867892983
  0
LINE
  5
3B8
330
3A1
100
AcDbEntity
  8
02555038_GEHÄUSE
  6
Continuous
 62
     7
100
AcDbLine
 10
349.9427550863
 20
380.2493723006
 30
0.0
 11
350.5751298879
 21
376.0180537025
 31
0.0
  0
LINE
  5
3B9
330
3A1
100
AcDbEntity
  8
02555038_GEHÄUSE
  6
Continuous
 62
     7
100
AcDbLine
 10
340.2969755389
 20
374.481973243
 30
0.0
 11
339.6646007373
 21
378.7132918412
 31
0.0
  0
LINE
  5
3BA
330
3A1
100
AcDbEntity
  8
02555038_GEHÄUSE
  6
Continuous
 62
     7
100
AcDbLine
 10
349.9427550863
 20
380.2493723006
 30
0.0
 11
339.6646007373
 21
378.7132918412
 31
0.0
  0
LINE
  5
3BB
330
3A1
100
AcDbEntity
  8
02555038_GEHÄUSE
  6
Continuous
 62
     7
100
AcDbLine
 10
331.5898306263
 20
373.180681717
 30
0.0
 11
332.9327727096
 21
372.6516827622
 31
0.0
  0
LINE
  5
3BC
330
3A1
100
AcDbEntity
  8
02555038_GEHÄUSE
  6
Continuous
 62
     7
100
AcDbLine
 10
358.1526772254
 20
376.420822746
 30
0.0
 11
359.2822748004
 21
377.3193452286
 31
0.0
  0
LINE
  5
3BD
330
3A1
100
AcDbEntity
  8
02555038_GEHÄUSE
  6
Continuous
 62
     7
100
AcDbLine
 10
359.2822748004
 20
377.3193452286
 30
0.0
 11
358.72229587
 21
381.0662517419
 31
0.0
  0
LINE
  5
3BE
330
3A1
100
AcDbEntity
  8
02555038_GEHÄUSE
  6
Continuous
 62
     7
100
AcDbLine
 10
331.0399169004
 20
376.8602403742
 30
0.0
 11
331.5898306263
 21
373.180681717
 31
0.0
  0
LINE
  5
3BF
330
3A1
100
AcDbEntity
  8
$DDT_AUDIT_GENERATED_(39D)
  6
Continuous
 62
     7
100
AcDbLine
 10
175.2692582271
 20
430.9285638573
 30
0.0
 11
175.2692582271
 21
350.9221420907
 31
0.0
  0
LINE
  5
3C0
330
3A1
100
AcDbEntity
  8
$DDT_AUDIT_GENERATED_(39D)
  6
Continuous
 62
     7
100
AcDbLine
 10
183.2692583466
 20
429.9285638573
 30
0.0
 11
183.2692583466
 21
351.9221592578
 31
0.0
  0
LINE
  5
3C1
330
3A1
100
AcDbEntity
  8
$DDT_AUDIT_GENERATED_(39D)
  6
Continuous
 62
     7
100
AcDbLine
 10
182.2692583466
 20
430.9285638573
 30
0.0
 11
175.2692582271
 21
430.9285638573
 31
0.0
  0
LINE
  5
3C2
330
3A1
100
AcDbEntity
  8
$DDT_AUDIT_GENERATED_(39D)
  6
Continuous
 62
     7
100
AcDbLine
 10
175.2692582271
 20
350.9221420907
 30
0.0
 11
182.2692583466
 21
350.9221420907
 31
0.0
  0
SPLINE
  5
3C3
330
3A1
100
AcDbEntity
  8
$DDT_AUDIT_GENERATED_(39D)
  6
Continuous
 62
     7
100
AcDbSpline
210
0.0
220
0.0
230
1.0
 70
     8
 71
     3
 72
    13
 73
     9
 74
     0
 42
0.0000000063014691
 43
0.0000000001
 40
0.0
 40
0.0
 40
0.0
 40
0.0
 40
0.1294353894207187
 40
0.2550301634045701
 40
0.5000000700765443
 40
0.7449699367923123
 40
0.8705646657481416
 40
1.0
 40
1.0
 40
1.0
 40
1.0
 10
182.2692583465648
 20
350.9221596928174
 30
0.0
 10
182.3434377241568
 20
350.9258407004959
 30
0.0
 10
182.4673491856011
 20
350.9339140250403
 30
0.0
 10
182.722294682323
 20
351.0139850826671
 30
0.0
 10
182.9938843858748
 20
351.1975334867324
 30
0.0
 10
183.1774329060617
 20
351.4691230902603
 30
0.0
 10
183.257504008402
 20
351.7240684983222
 30
0.0
 10
183.2655773368918
 20
351.8479799120412
 30
0.0
 10
183.2692583465648
 20
351.922159257839
 30
0.0
  0
SPLINE
  5
3C4
330
3A1
100
AcDbEntity
  8
$DDT_AUDIT_GENERATED_(39D)
  6
Continuous
 62
     7
100
AcDbSpline
210
0.0
220
0.0
230
1.0
 70
     8
 71
     3
 72
    13
 73
     9
 74
     0
 42
0.0000000063014677
 43
0.0000000001
 40
0.0
 40
0.0
 40
0.0
 40
0.0
 40
0.1294353618363176
 40
0.2550301133061735
 40
0.5000000000000013
 40
0.7449698866938298
 40
0.870564638163682
 40
1.0
 40
1.0
 40
1.0
 40
1.0
 10
183.2692583465649
 20
429.928563857257
 30
0.0
 10
183.2655773370885
 20
430.0027432350851
 30
0.0
 10
183.2575040088155
 20
430.1266546996162
 30
0.0
 10
183.1774329114174
 20
430.381600207456
 30
0.0
 10
182.9938844093716
 20
430.6531899200637
 30
0.0
 10
182.7222946967638
 20
430.8367384221096
 30
0.0
 10
182.467349188924
 20
430.9168095195077
 30
0.0
 10
182.343437724393
 20
430.9248828477806
 30
0.0
 10
182.2692583465649
 20
430.928563857257
 30
0.0
  0
ENDBLK
  5
3C6
330
3A1
100
AcDbEntity
  8
0
100
AcDbBlockEnd
  0
BLOCK
  5
3DC
330
3C7
100
AcDbEntity
  8
0
100
AcDbBlockBegin
  2
SE2
 70
     0
 10
0.0
 20
0.0
 30
0.0
  3
SE2
  1

  0
LINE
  5
3C9
330
3C7
100
AcDbEntity
  8
$DDT_AUDIT_GENERATED_(74)
  6
Continuous
 62
     7
100
AcDbLine
 10
83.0583698809
 20
298.1616920944
 30
0.0
 11
83.0798783271
 21
298.1616920945
 31
0.0
  0
LINE
  5
3CA
330
3C7
100
AcDbEntity
  8
$DDT_AUDIT_GENERATED_(74)
  6
Continuous
 62
     7
100
AcDbLine
 10
35.4775171008
 20
298.1616920944
 30
0.0
 11
35.4558329293
 21
298.1616920945
 31
0.0
  0
LINE
  5
3CB
330
3C7
100
AcDbEntity
  8
$DDT_AUDIT_GENERATED_(74)
  6
Continuous
 62
     7
100
AcDbLine
 10
35.4775171082
 20
298.1616920295
 30
0.0
 11
36.2238824898
 21
298.1616920306
 31
0.0
  0
LINE
  5
3CC
330
3C7
100
AcDbEntity
  8
$DDT_AUDIT_GENERATED_(74)
  6
Continuous
 62
     7
100
AcDbLine
 10
36.2238824898
 20
298.1616920306
 30
0.0
 11
36.7704130001
 21
298.1616920313
 31
0.0
  0
LINE
  5
3CD
330
3C7
100
AcDbEntity
  8
$DDT_AUDIT_GENERATED_(74)
  6
Continuous
 62
     7
100
AcDbLine
 10
36.7704130001
 20
298.1616920313
 30
0.0
 11
81.769834326
 21
298.1616920927
 31
0.0
  0
LINE
  5
3CE
330
3C7
100
AcDbEntity
  8
$DDT_AUDIT_GENERATED_(74)
  6
Continuous
 62
     7
100
AcDbLine
 10
81.769834326
 20
298.1616920927
 30
0.0
 11
82.3161124631
 21
298.1616920934
 31
0.0
  0
LINE
  5
3CF
330
3C7
100
AcDbEntity
  8
$DDT_AUDIT_GENERATED_(74)
  6
Continuous
 62
     7
100
AcDbLine
 10
82.3161124631
 20
298.1616920934
 30
0.0
 11
83.0583698822
 21
298.1616920944
 31
0.0
  0
SPLINE
  5
3D0
330
3C7
100
AcDbEntity
  8
$DDT_AUDIT_GENERATED_(74)
  6
Continuous
 62
     7
100
AcDbSpline
210
0.0
220
0.0
230
1.0
 70
     8
 71
     3
 72
    57
 73
    53
 74
     0
 42
0.0000000000262461
 43
0.0000000001
 40
0.0
 40
0.0
 40
0.0
 40
0.0
 40
0.2494131331139172
 40
0.3741196875811565
 40
0.4052962778674335
 40
0.4091933807207149
 40
0.4130911493224388
 40
0.4208997218943262
 40
0.4271596542330064
 40
0.4318642551500925
 40
0.4365790191227709
 40
0.4397299430451117
 40
0.4428873322027864
 40
0.4452606923610576
 40
0.4476378313148313
 40
0.452406990778528
 40
0.4544018195127994
 40
0.456398444979972
 40
0.4603828967980275
 40
0.4626497991607241
 40
0.464351685775435
 40
0.4683233559524351
 40
0.4722937924257102
 40
0.4762634151394654
 40
0.4841955578859392
 40
0.4999953945356858
 40
0.5079265643284087
 40
0.5158544281923323
 40
0.5181230064131549
 40
0.5203953944073223
 40
0.5215275076926401
 40
0.5226599075689201
 40
0.5249317924063106
 40
0.526633755913415
 40
0.5283340947938875
 40
0.5317391609778138
 40
0.5357085048359724
 40
0.5396793111853028
 40
0.5419506916249714
 40
0.5430928441440307
 40
0.5442357978808233
 40
0.5476536138554222
 40
0.5634230080833234
 40
0.5712736153250355
 40
0.579100358500197
 40
0.5869088838108043
 40
0.5908066419848571
 40
0.5947036730153588
 40
0.6258803058654956
 40
0.6882335878539023
 40
0.7505868670123477
 40
1.0
 40
1.0
 40
1.0
 40
1.0
 10
82.3161124630562
 20
298.1616920934213
 30
0.0
 10
81.28029753976799
 20
266.5216372298602
 30
0.0
 10
79.7265752050445
 20
219.0615564681965
 30
0.0
 10
78.03217513105471
 20
167.6468134651987
 30
0.0
 10
77.36763578620078
 20
147.3774610994013
 30
0.0
 10
77.20281529889647
 20
142.4337050986453
 30
0.0
 10
77.13676296955519
 20
140.4543453225936
 30
0.0
 10
77.05254735264516
 20
138.1753505609111
 30
0.0
 10
76.88289678374862
 20
135.7979082127785
 30
0.0
 10
76.65556927114585
 20
133.8202784095047
 30
0.0
 10
76.3946482688902
 20
132.2453291964556
 30
0.0
 10
76.09253666023352
 20
130.8787981221575
 30
0.0
 10
75.80193978815593
 20
129.815334417388
 30
0.0
 10
75.4880685553654
 20
128.8616153582938
 30
0.0
 10
75.05676621337906
 20
127.7326647649953
 30
0.0
 10
74.5568693046718
 20
126.68231725646
 30
0.0
 10
73.99346742272112
 20
125.7232636519319
 30
0.0
 10
73.43252171691827
 20
124.8800154286122
 30
0.0
 10
72.77895681972313
 20
124.059435899402
 30
0.0
 10
72.09427367590118
 20
123.317347165589
 30
0.0
 10
71.38260924728779
 20
122.6034631984477
 30
0.0
 10
70.46342355365181
 20
121.7926321219099
 30
0.0
 10
69.2493521092769
 20
120.8886553098606
 30
0.0
 10
67.53264961692781
 20
119.8297314225322
 30
0.0
 10
64.31895893668819
 20
118.3688025164033
 30
0.0
 10
60.26676789195911
 20
117.6748997606587
 30
0.0
 10
56.24799968409673
 20
118.0163001635039
 30
0.0
 10
54.01071260413406
 20
118.6061019227316
 30
0.0
 10
52.52985994297535
 20
119.1652669933859
 30
0.0
 10
51.87096025728741
 20
119.4566944236714
 30
0.0
 10
51.35282000862137
 20
119.7080072846038
 30
0.0
 10
50.83999907234901
 20
119.9698943278406
 30
0.0
 10
50.27391965607133
 20
120.2861746056251
 30
0.0
 10
49.66196227170509
 20
120.666176470903
 30
0.0
 10
48.94352088903217
 20
121.1464261278253
 30
0.0
 10
48.02236716173022
 20
121.8397183337357
 30
0.0
 10
46.94211258664395
 20
122.7945439027712
 30
0.0
 10
46.04788477687974
 20
123.7349210397405
 30
0.0
 10
45.44703905220968
 20
124.4547945647291
 30
0.0
 10
45.09809007183837
 20
124.916087809329
 30
0.0
 10
44.681305100693
 20
125.5079479198603
 30
0.0
 10
43.32801926767277
 20
127.7095562828692
 30
0.0
 10
42.28582202296658
 20
131.0545080017606
 30
0.0
 10
41.71896936098342
 20
135.0015119497723
 30
0.0
 10
41.49484965058383
 20
137.9770141081338
 30
0.0
 10
41.40332827921946
 20
140.4543185056919
 30
0.0
 10
41.3371858042081
 20
142.4337145780494
 30
0.0
 10
41.1724855386996
 20
147.3774396361867
 30
0.0
 10
40.76734310597594
 20
159.7368374336428
 30
0.0
 10
40.11515159088419
 20
179.5116978881044
 30
0.0
 10
38.55658214153868
 20
226.971633196063
 30
0.0
 10
37.26063789813644
 20
266.5216656513816
 30
0.0
 10
36.22388248981871
 20
298.16169203056
 30
0.0
  0
SPLINE
  5
3D1
330
3C7
100
AcDbEntity
  8
$DDT_AUDIT_GENERATED_(74)
  6
Continuous
 62
     7
100
AcDbSpline
210
0.0
220
0.0
230
1.0
 70
     8
 71
     3
 72
    15
 73
    11
 74
     0
 42
0.0000000201358202
 43
0.0000000001
 40
0.0010626855295084
 40
0.0010626855295084
 40
0.0010626855295084
 40
0.0010626855295084
 40
0.0146125297868293
 40
0.0308478810184654
 40
0.0637016463025913
 40
0.1277288058808774
 40
0.2490860625682569
 40
0.4991509289339744
 40
0.7495085177772833
 40
0.7773709493575145
 40
0.7773709493575145
 40
0.7773709493575145
 40
0.7773709493575145
 10
71.92516153225179
 20
110.9080124228875
 30
0.0
 10
71.93016793414601
 20
110.9103866288084
 30
0.0
 10
71.93920734744643
 20
110.9141220266461
 30
0.0
 10
71.95827492819288
 20
110.9216851721067
 30
0.0
 10
71.99259417660262
 20
110.9325203249521
 30
0.0
 10
72.06113402960135
 20
110.9456953159685
 30
0.0
 10
72.13416375318035
 20
110.8819335594951
 30
0.0
 10
72.1646771498166
 20
110.8014067219375
 30
0.0
 10
72.16265237407796
 20
110.7574419876205
 30
0.0
 10
72.15262688891569
 20
110.7459383245016
 30
0.0
 10
72.15147097285329
 20
110.7448535173753
 30
0.0
  0
SPLINE
  5
3D2
330
3C7
100
AcDbEntity
  8
$DDT_AUDIT_GENERATED_(74)
  6
Continuous
 62
     7
100
AcDbSpline
210
0.0
220
0.0
230
1.0
 70
     8
 71
     3
 72
    22
 73
    18
 74
     0
 42
0.0000000162057107
 43
0.0000000001
 40
0.1563970271590793
 40
0.1563970271590793
 40
0.1563970271590793
 40
0.1563970271590793
 40
0.2476904599286668
 40
0.4949588667167701
 40
0.6178221428059585
 40
0.6818452215621444
 40
0.7452808218000284
 40
0.773476389091731
 40
0.8066795919249273
 40
0.8596579847659048
 40
0.9318469739660509
 40
0.9679374037436941
 40
0.9850190442754736
 40
0.993194421133731
 40
0.9971751468788319
 40
0.999136824731199
 40
0.9997001689666785
 40
0.9997001689666785
 40
0.9997001689666785
 40
0.9997001689666785
 10
46.39636146506265
 20
110.7361025309964
 30
0.0
 10
46.38991650971643
 20
110.7395537790068
 30
0.0
 10
46.3765481597488
 20
110.7533634333575
 30
0.0
 10
46.3596723859773
 20
110.8128873502621
 30
0.0
 10
46.37094576699507
 20
110.8837737265205
 30
0.0
 10
46.38337935626654
 20
110.9319859728098
 30
0.0
 10
46.38068997583374
 20
110.970487789355
 30
0.0
 10
46.39264108352364
 20
110.9982971980276
 30
0.0
 10
46.42886449187701
 20
111.0002959044373
 30
0.0
 10
46.4821563000153
 20
110.9847351803876
 30
0.0
 10
46.53562648575286
 20
110.9574586357893
 30
0.0
 10
46.57535390825049
 20
110.9329864913064
 30
0.0
 10
46.59433224393766
 20
110.9201242706365
 30
0.0
 10
46.60323854836823
 20
110.9137872308674
 30
0.0
 10
46.6075059652344
 20
110.9106791591697
 30
0.0
 10
46.60946061004658
 20
110.9092304985724
 30
0.0
 10
46.61022078981243
 20
110.9086703681426
 30
0.0
 10
46.61065934940425
 20
110.9083433125617
 30
0.0
  0
ARC
  5
3D3
330
3C7
100
AcDbEntity
  8
$DDT_AUDIT_GENERATED_(74)
  6
Continuous
 62
     7
100
AcDbCircle
 10
59.2699132495
 20
127.3957981347
 30
0.0
 40
21.04579813467091
100
AcDbArc
 50
232.2772024141
 51
307.723094059
  0
SPLINE
  5
3D4
330
3C7
100
AcDbEntity
  8
$DDT_AUDIT_GENERATED_(74)
  6
Continuous
 62
     7
100
AcDbSpline
210
0.0
220
0.0
230
1.0
 70
     8
 71
     3
 72
    55
 73
    51
 74
     0
 42
0.0000000000526419
 43
0.0000000001
 40
0.0
 40
0.0
 40
0.0
 40
0.0
 40
0.020036283103993
 40
0.0384718880519504
 40
0.055306814995702
 40
0.0705410641975926
 40
0.0841746359615792
 40
0.096006694157186
 40
0.1062947325663853
 40
0.1152033896321788
 40
0.1239464906026461
 40
0.1558229480651711
 40
0.188587315185235
 40
0.3060490246888086
 40
0.5158020114259939
 40
0.5498528186199305
 40
0.583903625521113
 40
0.6179544321617767
 40
0.6520052390149825
 40
0.6861044877261195
 40
0.7206949976212191
 40
0.7561377882371221
 40
0.7681407085252308
 40
0.780376998242854
 40
0.7928466882399432
 40
0.8053233168091968
 40
0.8162073817360702
 40
0.8251877190569334
 40
0.8295882608684096
 40
0.8335692944941191
 40
0.8385248895173104
 40
0.8446784738263703
 40
0.8520301754857776
 40
0.8605796230406815
 40
0.8696352974846435
 40
0.8774538054914446
 40
0.8840561720540456
 40
0.8892890553356825
 40
0.8934243173752495
 40
0.8983384962378683
 40
0.9043890914732545
 40
0.9135915869964197
 40
0.9228426635173739
 40
0.9320180847311829
 40
0.9424301068453498
 40
0.9532718680539758
 40
0.964614412859007
 40
0.9764332890776554
 40
0.9882731130765752
 40
1.0
 40
1.0
 40
1.0
 40
1.0
 10
35.4407026432778
 20
298.1616490841836
 30
0.0
 10
35.46400139429446
 20
296.7664484743101
 30
0.0
 10
35.50164472269694
 20
294.5120748620099
 30
0.0
 10
35.56118619230608
 20
290.9440716739356
 30
0.0
 10
35.61422743465944
 20
287.7625883396133
 30
0.0
 10
35.66249958409156
 20
284.8658366698312
 30
0.0
 10
35.70539372543719
 20
282.2902080317525
 30
0.0
 10
35.74306789209823
 20
280.026695416205
 30
0.0
 10
35.77574842092099
 20
278.0625023498583
 30
0.0
 10
35.8051622219325
 20
276.2938027600873
 30
0.0
 10
35.8572853098838
 20
273.1584883317562
 30
0.0
 10
35.93447633970754
 20
268.5130116522077
 30
0.0
 10
36.12585352163845
 20
256.9852403642008
 30
0.0
 10
36.50378295202999
 20
234.1971974098184
 30
0.0
 10
36.88243131588492
 20
211.3277034773376
 30
0.0
 10
37.1735037146164
 20
193.7384367814659
 30
0.0
 10
37.28049509498116
 20
187.2717945999811
 30
0.0
 10
37.38746908613616
 20
180.8051521050256
 30
0.0
 10
37.49447928749358
 20
174.3354427767796
 30
0.0
 10
37.60204299849666
 20
167.8315679307122
 30
0.0
 10
37.71105206584947
 20
161.239574792037
 30
0.0
 10
37.79688211126901
 20
156.0463638735691
 30
0.0
 10
37.8592683886225
 20
152.2682609669361
 30
0.0
 10
37.89775596973859
 20
149.9444467204374
 30
0.0
 10
37.93694394183143
 20
147.5906484217048
 30
0.0
 10
37.97458723707565
 20
145.3224491786695
 30
0.0
 10
38.00851758494703
 20
143.2751385507399
 30
0.0
 10
38.03412017011967
 20
141.7390775879336
 30
0.0
 10
38.05261750285636
 20
140.6400072613695
 30
0.0
 10
38.06692244086195
 20
139.7957191166399
 30
0.0
 10
38.08317458099562
 20
138.8404582157681
 30
0.0
 10
38.10310758866314
 20
137.671823627234
 30
0.0
 10
38.12678001823161
 20
136.2756834037291
 30
0.0
 10
38.15175672383833
 20
134.6958023699734
 30
0.0
 10
38.18009957100337
 20
133.0864126946619
 30
0.0
 10
38.21610878177346
 20
131.6004742127518
 30
0.0
 10
38.25750515875685
 20
130.3568112572131
 30
0.0
 10
38.30276976877047
 20
129.3466683770201
 30
0.0
 10
38.35393621791761
 20
128.4438517329199
 30
0.0
 10
38.42040478269703
 20
127.4901313558236
 30
0.0
 10
38.53072037986066
 20
126.2180236569492
 30
0.0
 10
38.71536566248282
 20
124.6772050538852
 30
0.0
 10
39.00554443788283
 20
122.9515170371102
 30
0.0
 10
39.4156098666653
 20
121.1711474986669
 30
0.0
 10
40.00334451472537
 20
119.3337467969093
 30
0.0
 10
40.82232373388571
 20
117.4363686464503
 30
0.0
 10
41.89910014320326
 20
115.5634003887983
 30
0.0
 10
43.207322595543
 20
113.7846800472786
 30
0.0
 10
44.75225395733082
 20
112.0939739007001
 30
0.0
 10
45.81881597048314
 20
111.2091758464663
 30
0.0
 10
46.4514165244305
 20
110.6927246830708
 30
0.0
  0
SPLINE
  5
3D5
330
3C7
100
AcDbEntity
  8
$DDT_AUDIT_GENERATED_(74)
  6
Continuous
 62
     7
100
AcDbSpline
210
0.0
220
0.0
230
1.0
 70
     8
 71
     3
 72
    53
 73
    49
 74
     0
 42
0.000000000052642
 43
0.0000000001
 40
0.0
 40
0.0
 40
0.0
 40
0.0
 40
0.0117262052727637
 40
0.0235655115498828
 40
0.0353844910083449
 40
0.0467255816743925
 40
0.0575698346799505
 40
0.0679816562324973
 40
0.0765926674939989
 40
0.0852709445475824
 40
0.0939858318731706
 40
0.1015989859739538
 40
0.1074960811870782
 40
0.1115702415252168
 40
0.1168450697320589
 40
0.1233978221008204
 40
0.131229143332806
 40
0.1401899121893442
 40
0.1493985657506126
 40
0.157164113803
 40
0.1634862566380328
 40
0.168365220584708
 40
0.172850829316624
 40
0.1781316979000175
 40
0.1842089813401439
 40
0.1910826928732674
 40
0.2100237592256768
 40
0.2290479082332256
 40
0.2475185758411924
 40
0.2654369291175231
 40
0.2830321967064124
 40
0.3004761207963318
 40
0.3618418988750213
 40
0.4230198747783896
 40
0.4841978496312659
 40
0.7511562896150712
 40
0.7903102102648389
 40
0.8294631365658367
 40
0.8678423637713906
 40
0.8777339165931473
 40
0.8875249811945979
 40
0.8980049822465145
 40
0.9104151821342182
 40
0.9247706829366628
 40
0.940763340964687
 40
0.9586324462749607
 40
0.9783779992028879
 40
1.0
 40
1.0
 40
1.0
 40
1.0
 10
72.08436764279159
 20
110.6927456749823
 30
0.0
 10
72.71696564203398
 20
111.2091246171781
 30
0.0
 10
73.78354134675499
 20
112.0938019455547
 30
0.0
 10
75.32849496634793
 20
113.784369910862
 30
0.0
 10
76.63690771106064
 20
115.5628306615067
 30
0.0
 10
77.71326867495857
 20
117.4361837532274
 30
0.0
 10
78.53177080808842
 20
119.3337094601193
 30
0.0
 10
79.11049011654215
 20
121.1366753911339
 30
0.0
 10
79.50573125661478
 20
122.8463593783704
 30
0.0
 10
79.7889671298145
 20
124.4687108532285
 30
0.0
 10
79.98769743281031
 20
126.0398378805793
 30
0.0
 10
80.11339654050191
 20
127.4414662559772
 30
0.0
 10
80.18895807097915
 20
128.5522454714605
 30
0.0
 10
80.24144643164479
 20
129.5160988610232
 30
0.0
 10
80.28420811894429
 20
130.5219944486765
 30
0.0
 10
80.32404367995034
 20
131.7660295703627
 30
0.0
 10
80.35857988170203
 20
133.2436624327234
 30
0.0
 10
80.38702819783907
 20
134.8895935307511
 30
0.0
 10
80.4131325365473
 20
136.5313945259731
 30
0.0
 10
80.43830644428218
 20
138.0061308273492
 30
0.0
 10
80.45878569768746
 20
139.2067832623931
 30
0.0
 10
80.4756357118068
 20
140.1998059033319
 30
0.0
 10
80.49127232154949
 20
141.1269137770436
 30
0.0
 10
80.50809297827067
 20
142.1298813748574
 30
0.0
 10
80.52730396163328
 20
143.2840270316634
 30
0.0
 10
80.56077176040655
 20
145.302917115279
 30
0.0
 10
80.60799539096614
 20
148.1413909830703
 30
0.0
 10
80.66711917383616
 20
151.7140014596971
 30
0.0
 10
80.72516312025503
 20
155.2218705153572
 30
0.0
 10
80.78166147737365
 20
158.639286751216
 30
0.0
 10
80.83709787424742
 20
161.9917059274197
 30
0.0
 10
80.93800133567169
 20
168.0945167596555
 30
0.0
 10
81.08456495857969
 20
176.9562823376237
 30
0.0
 10
81.27696914872836
 20
188.5865824625453
 30
0.0
 10
81.6848006365623
 20
213.2316960680794
 30
0.0
 10
82.06973360035668
 20
236.4826041630152
 30
0.0
 10
82.43231722576608
 20
258.3392154929732
 30
0.0
 10
82.55490944629614
 20
265.725885769372
 30
0.0
 10
82.6468526250467
 20
271.2601376485612
 30
0.0
 10
82.70793032725213
 20
274.9356644184421
 30
0.0
 10
82.7396728473208
 20
276.8450790584717
 30
0.0
 10
82.77408101796172
 20
278.9138841156164
 30
0.0
 10
82.8133203285042
 20
281.2718550089701
 30
0.0
 10
82.85837265615913
 20
283.977763694539
 30
0.0
 10
82.90928940496755
 20
287.033838558356
 30
0.0
 10
82.96558280029222
 20
290.4108800632474
 30
0.0
 10
83.02933123831475
 20
294.2322421227225
 30
0.0
 10
83.06981066141869
 20
296.6560279649471
 30
0.0
 10
83.09495745362506
 20
298.1616487244563
 30
0.0
  0
LINE
  5
3D6
330
3C7
100
AcDbEntity
  8
$DDT_AUDIT_GENERATED_(39D)
  6
Continuous
 62
     7
100
AcDbLine
 10
19.2810759485
 20
306.1616922145
 30
0.0
 11
99.2568228452
 21
306.1616922145
 31
0.0
  0
LINE
  5
3D7
330
3C7
100
AcDbEntity
  8
$DDT_AUDIT_GENERATED_(39D)
  6
Continuous
 62
     7
100
AcDbLine
 10
98.2567983627
 20
298.1616920951
 30
0.0
 11
20.2811004309
 21
298.1616920951
 31
0.0
  0
LINE
  5
3D8
330
3C7
100
AcDbEntity
  8
$DDT_AUDIT_GENERATED_(39D)
  6
Continuous
 62
     7
100
AcDbLine
 10
99.2568228452
 20
299.1616920951
 30
0.0
 11
99.2568228452
 21
306.1616922145
 31
0.0
  0
LINE
  5
3D9
330
3C7
100
AcDbEntity
  8
$DDT_AUDIT_GENERATED_(39D)
  6
Continuous
 62
     7
100
AcDbLine
 10
19.2810759485
 20
306.1616922145
 30
0.0
 11
19.2810759485
 21
299.1616920951
 31
0.0
  0
ARC
  5
3DA
330
3C7
100
AcDbEntity
  8
$DDT_AUDIT_GENERATED_(39D)
  6
Continuous
 62
     7
100
AcDbCircle
 10
20.2807692115
 20
299.1613602945
 30
0.0
 40
0.9996682542517037
100
AcDbArc
 50
179.9809829157
 51
270.0189837752
  0
ARC
  5
3DB
330
3C7
100
AcDbEntity
  8
$DDT_AUDIT_GENERATED_(39D)
  6
Continuous
 62
     7
100
AcDbCircle
 10
98.2571295822
 20
299.1613602945
 30
0.0
 40
0.9996682542517017
100
AcDbArc
 50
269.9810162248
 51
0.0190170843
  0
ENDBLK
  5
3DD
330
3C7
100
AcDbEntity
  8
0
100
AcDbBlockEnd
  0
ENDSEC
  0
SECTION
  2
ENTITIES
  0
INSERT
  5
5F
330
1F
100
AcDbEntity
  8
Default
100
AcDbBlockReference
  2
SEANNOT_GROUP
 10
0.0
 20
0.0
 30
0.0
  0
INSERT
  5
66
330
1F
100
AcDbEntity
  8
Default
100
AcDbBlockReference
  2
SEANNOT_GROUP1
 10
0.0
 20
0.0
 30
0.0
  0
LINE
  5
6B
330
1F
100
AcDbEntity
  8
Default
  6
Continuous
 62
     7
100
AcDbLine
 10
57.4820470261
 20
393.483691207
 30
0.0
 11
61.0558517675
 21
393.483691207
 31
0.0
  0
INSERT
  5
6D
330
1F
100
AcDbEntity
  8
Default
100
AcDbBlockReference
  2
SEANNOT_GROUP2
 10
0.0
 20
0.0
 30
0.0
  0
INSERT
  5
73
330
1F
100
AcDbEntity
  8
Default
100
AcDbBlockReference
  2
SE
 10
0.0
 20
0.0
 30
0.0
  0
INSERT
  5
3A2
330
1F
100
AcDbEntity
  8
Default
100
AcDbBlockReference
  2
SE1
 10
0.0
 20
0.0
 30
0.0
  0
INSERT
  5
3C8
330
1F
100
AcDbEntity
  8
Default
100
AcDbBlockReference
  2
SE2
 10
0.0
 20
0.0
 30
0.0
  0
TEXT
  5
3DF
330
1F
100
AcDbEntity
  8
Default
  6
Continuous
 62
     7
100
AcDbText
 10
5.9362635081
 20
53.4225120485
 30
0.0
 40
10.0
  1
Grohe AG^J
  7
SEACAD_seiso_ttf
 11
5.9362635081
 21
63.4225120485
 31
0.0
100
AcDbText
 73
     3
  0
TEXT
  5
3E0
330
1F
100
AcDbEntity
  8
Default
  6
Continuous
 62
     7
100
AcDbText
 10
5.9362635081
 20
37.0588756849
 30
0.0
 40
10.0
  1
 
  7
SEACAD_seiso_ttf
 11
5.9362635081
 21
47.0588756849
 31
0.0
100
AcDbText
 73
     3
  0
TEXT
  5
3E1
330
1F
100
AcDbEntity
  8
Default
  6
Continuous
 62
     7
100
AcDbText
 10
5.9362635081
 20
20.6952393213
 30
0.0
 40
10.0
  1
ecn: 
  7
SEACAD_seiso_ttf
 11
5.9362635081
 21
30.6952393213
 31
0.0
100
AcDbText
 73
     3
  0
TEXT
  5
3E2
330
1F
100
AcDbEntity
  8
Default
  6
Continuous
 62
     7
100
AcDbText
 10
5.9362635081
 20
4.3316029576
 30
0.0
 40
10.0
  1
unit: mm
  7
SEACAD_seiso_ttf
 11
5.9362635081
 21
14.3316029576
 31
0.0
100
AcDbText
 73
     3
  0
LINE
  5
3E3
330
1F
100
AcDbEntity
  8
Default
  6
Continuous
 62
     7
100
AcDbLine
 10
0.0
 20
0.0
 30
0.0
 11
100.0
 21
0.0
 31
0.0
  0
LINE
  5
3E4
330
1F
100
AcDbEntity
  8
Default
  6
Continuous
 62
     7
100
AcDbLine
 10
0.0
 20
0.0
 30
0.0
 11
0.0
 21
100.0
 31
0.0
  0
TEXT
  5
3E5
330
1F
100
AcDbEntity
  8
Default
  6
Continuous
 62
     7
100
AcDbText
 10
24.3923665681
 20
-18.2375342018
 30
0.0
 40
10.0
  1
100 mm
  7
SEACAD_seiso_ttf
 11
24.3923665681
 21
-8.2375342018
 31
0.0
100
AcDbText
 73
     3
  0
TEXT
  5
3E6
330
1F
100
AcDbEntity
  8
Default
  6
Continuous
 62
     7
100
AcDbText
 10
-7.6150308803
 20
24.6231930421
 30
0.0
 40
10.0
  1
100 mm
 50
90.0
  7
SEACAD_seiso_ttf
 11
-17.6150308803
 21
24.6231930421
 31
0.0
100
AcDbText
 73
     3
  0
TEXT
  5
3E7
330
1F
100
AcDbEntity
  8
Default
  6
Continuous
 62
     7
100
AcDbText
 10
28.4878128572
 20
20.0907663715
 30
0.0
 40
10.0
  1
219356
  7
SEACAD_seiso_ttf
 11
28.4878128572
 21
30.0907663715
 31
0.0
100
AcDbText
 73
     3
  0
TEXT
  5
3E8
330
1F
100
AcDbEntity
  8
Default
  6
Continuous
 62
     7
100
AcDbText
 10
5.9012241913
 20
36.7242780188
 30
0.0
 40
10.0
  1
13282002
  7
SEACAD_seiso_ttf
 11
5.9012241913
 21
46.7242780188
 31
0.0
100
AcDbText
 73
     3
  0
ENDSEC
  0
SECTION
  2
OBJECTS
  0
DICTIONARY
  5
C
330
0
100
AcDbDictionary
281
     1
  3
ACAD_GROUP
350
D
  3
ACAD_LAYOUT
350
1A
  3
ACAD_MLEADERSTYLE
350
3EC
  3
ACAD_MLINESTYLE
350
17
  3
ACAD_PLOTSETTINGS
350
19
  3
ACAD_PLOTSTYLENAME
350
E
  3
ACAD_SCALELIST
350
3B
  3
ACAD_TABLESTYLE
350
3EB
  3
ACAD_VISUALSTYLE
350
2A
  3
AcDbVariableDictionary
350
3E9
  0
DICTIONARY
  5
D
102
{ACAD_REACTORS
330
C
102
}
330
C
100
AcDbDictionary
281
     1
  0
DICTIONARY
  5
1A
102
{ACAD_REACTORS
330
C
102
}
330
C
100
AcDbDictionary
281
     1
  3
Layout1
350
1E
  3
Model
350
22
  0
DICTIONARY
  5
3EC
102
{ACAD_REACTORS
330
C
102
}
330
C
100
AcDbDictionary
281
     1
  0
DICTIONARY
  5
17
102
{ACAD_REACTORS
330
C
102
}
330
C
100
AcDbDictionary
281
     1
  3
Standard
350
18
  0
DICTIONARY
  5
19
102
{ACAD_REACTORS
330
C
102
}
330
C
100
AcDbDictionary
281
     1
  0
ACDBDICTIONARYWDFLT
  5
E
102
{ACAD_REACTORS
330
C
102
}
330
C
100
AcDbDictionary
281
     1
  3
Normal
350
F
100
AcDbDictionaryWithDefault
340
F
  0
DICTIONARY
  5
3B
102
{ACAD_REACTORS
330
C
102
}
330
C
100
AcDbDictionary
281
     1
  3
A0
350
3C
  3
A1
350
3D
  3
A2
350
3E
  3
A3
350
3F
  3
A4
350
40
  3
A5
350
41
  3
A6
350
42
  3
A7
350
43
  3
A8
350
44
  3
A9
350
45
  3
B0
350
46
  3
B1
350
47
  3
B2
350
48
  3
B3
350
49
  3
B4
350
4A
  3
B5
350
4B
  3
B6
350
4C
  3
B7
350
4D
  3
B8
350
4E
  3
B9
350
4F
  3
C0
350
50
  3
C1
350
51
  3
C2
350
52
  3
C3
350
53
  3
C4
350
54
  3
C5
350
55
  3
C6
350
56
  3
C7
350
57
  3
C8
350
58
  3
C9
350
59
  3
D0
350
5A
  3
D1
350
5B
  3
D2
350
5C
  0
DICTIONARY
  5
3EB
102
{ACAD_REACTORS
330
C
102
}
330
C
100
AcDbDictionary
281
     1
  0
DICTIONARY
  5
2A
102
{ACAD_REACTORS
330
C
102
}
330
C
100
AcDbDictionary
281
     1
  3
2dWireframe
350
2F
  3
3D Hidden
350
31
  3
3dWireframe
350
30
  3
Basic
350
32
  3
Brighten
350
36
  3
ColorChange
350
3A
  3
Conceptual
350
34
  3
Dim
350
35
  3
Facepattern
350
39
  3
Flat
350
2B
  3
FlatWithEdges
350
2C
  3
Gouraud
350
2D
  3
GouraudWithEdges
350
2E
  3
Linepattern
350
38
  3
Realistic
350
33
  3
Thicken
350
37
  0
DICTIONARY
  5
3E9
102
{ACAD_REACTORS
330
C
102
}
330
C
100
AcDbDictionary
281
     1
  3
CANNOSCALE
350
3EA
  3
PSOLHEIGHT
350
3EE
  3
PSOLWIDTH
350
3ED
  0
LAYOUT
  5
1E
102
{ACAD_REACTORS
330
1A
102
}
330
1A
100
AcDbPlotSettings
  1

  2
none_device
  4

  6

 40
0.0
 41
0.0
 42
0.0
 43
0.0
 44
0.0
 45
0.0
 46
0.0
 47
0.0
 48
0.0
 49
0.0
140
0.0
141
0.0
142
1.0
143
1.0
 70
   688
 72
     0
 73
     0
 74
     5
  7

 75
    16
147
1.0
148
0.0
149
0.0
100
AcDbLayout
  1
Layout1
 70
     1
 71
     1
 10
0.0
 20
0.0
 11
1682.0
 21
2378.0
 12
0.0
 22
0.0
 32
0.0
 14
0.0
 24
0.0
 34
0.0
 15
1682.0
 25
2378.0
 35
0.0
146
0.0
 13
0.0
 23
0.0
 33
0.0
 16
1.0
 26
0.0
 36
0.0
 17
0.0
 27
1.0
 37
0.0
 76
     0
330
1B
  0
LAYOUT
  5
22
102
{ACAD_REACTORS
330
1A
102
}
330
1A
100
AcDbPlotSettings
  1

  2
none_device
  4

  6

 40
0.0
 41
0.0
 42
0.0
 43
0.0
 44
0.0
 45
0.0
 46
0.0
 47
0.0
 48
0.0
 49
0.0
140
0.0
141
0.0
142
1.0
143
1.0
 70
  1712
 72
     0
 73
     0
 74
     0
  7

 75
     0
147
1.0
148
0.0
149
0.0
100
AcDbLayout
  1
Model
 70
     1
 71
     0
 10
0.0
 20
0.0
 11
1682.0
 21
2378.0
 12
0.0
 22
0.0
 32
0.0
 14
0.0
 24
0.0
 34
0.0
 15
1682.0
 25
2378.0
 35
0.0
146
0.0
 13
0.0
 23
0.0
 33
0.0
 16
1.0
 26
0.0
 36
0.0
 17
0.0
 27
1.0
 37
0.0
 76
     0
330
1F
331
29
  0
MLINESTYLE
  5
18
102
{ACAD_REACTORS
330
17
102
}
330
17
100
AcDbMlineStyle
  2
Standard
 70
     0
  3

 62
   256
 51
90.0
 52
90.0
 71
     2
 49
0.5
 62
   256
  6
BYLAYER
 49
-0.5
 62
   256
  6
BYLAYER
  0
ACDBPLACEHOLDER
  5
F
102
{ACAD_REACTORS
330
E
102
}
330
E
  0
SCALE
  5
3C
102
{ACAD_REACTORS
330
3B
102
}
330
3B
100
AcDbScale
 70
     0
300
1:1
140
1.0
141
1.0
290
     1
  0
SCALE
  5
3D
102
{ACAD_REACTORS
330
3B
102
}
330
3B
100
AcDbScale
 70
     0
300
1:2
140
1.0
141
2.0
290
     0
  0
SCALE
  5
3E
102
{ACAD_REACTORS
330
3B
102
}
330
3B
100
AcDbScale
 70
     0
300
1:4
140
1.0
141
4.0
290
     0
  0
SCALE
  5
3F
102
{ACAD_REACTORS
330
3B
102
}
330
3B
100
AcDbScale
 70
     0
300
1:5
140
1.0
141
5.0
290
     0
  0
SCALE
  5
40
102
{ACAD_REACTORS
330
3B
102
}
330
3B
100
AcDbScale
 70
     0
300
1:8
140
1.0
141
8.0
290
     0
  0
SCALE
  5
41
102
{ACAD_REACTORS
330
3B
102
}
330
3B
100
AcDbScale
 70
     0
300
1:10
140
1.0
141
10.0
290
     0
  0
SCALE
  5
42
102
{ACAD_REACTORS
330
3B
102
}
330
3B
100
AcDbScale
 70
     0
300
1:16
140
1.0
141
16.0
290
     0
  0
SCALE
  5
43
102
{ACAD_REACTORS
330
3B
102
}
330
3B
100
AcDbScale
 70
     0
300
1:20
140
1.0
141
20.0
290
     0
  0
SCALE
  5
44
102
{ACAD_REACTORS
330
3B
102
}
330
3B
100
AcDbScale
 70
     0
300
1:30
140
1.0
141
30.0
290
     0
  0
SCALE
  5
45
102
{ACAD_REACTORS
330
3B
102
}
330
3B
100
AcDbScale
 70
     0
300
1:40
140
1.0
141
40.0
290
     0
  0
SCALE
  5
46
102
{ACAD_REACTORS
330
3B
102
}
330
3B
100
AcDbScale
 70
     0
300
1:50
140
1.0
141
50.0
290
     0
  0
SCALE
  5
47
102
{ACAD_REACTORS
330
3B
102
}
330
3B
100
AcDbScale
 70
     0
300
1:100
140
1.0
141
100.0
290
     0
  0
SCALE
  5
48
102
{ACAD_REACTORS
330
3B
102
}
330
3B
100
AcDbScale
 70
     0
300
2:1
140
2.0
141
1.0
290
     0
  0
SCALE
  5
49
102
{ACAD_REACTORS
330
3B
102
}
330
3B
100
AcDbScale
 70
     0
300
4:1
140
4.0
141
1.0
290
     0
  0
SCALE
  5
4A
102
{ACAD_REACTORS
330
3B
102
}
330
3B
100
AcDbScale
 70
     0
300
8:1
140
8.0
141
1.0
290
     0
  0
SCALE
  5
4B
102
{ACAD_REACTORS
330
3B
102
}
330
3B
100
AcDbScale
 70
     0
300
10:1
140
10.0
141
1.0
290
     0
  0
SCALE
  5
4C
102
{ACAD_REACTORS
330
3B
102
}
330
3B
100
AcDbScale
 70
     0
300
100:1
140
100.0
141
1.0
290
     0
  0
SCALE
  5
4D
102
{ACAD_REACTORS
330
3B
102
}
330
3B
100
AcDbScale
 70
     0
300
1/128" = 1'-0"
140
0.0078125
141
12.0
290
     0
  0
SCALE
  5
4E
102
{ACAD_REACTORS
330
3B
102
}
330
3B
100
AcDbScale
 70
     0
300
1/64" = 1'-0"
140
0.015625
141
12.0
290
     0
  0
SCALE
  5
4F
102
{ACAD_REACTORS
330
3B
102
}
330
3B
100
AcDbScale
 70
     0
300
1/32" = 1'-0"
140
0.03125
141
12.0
290
     0
  0
SCALE
  5
50
102
{ACAD_REACTORS
330
3B
102
}
330
3B
100
AcDbScale
 70
     0
300
1/16" = 1'-0"
140
0.0625
141
12.0
290
     0
  0
SCALE
  5
51
102
{ACAD_REACTORS
330
3B
102
}
330
3B
100
AcDbScale
 70
     0
300
3/32" = 1'-0"
140
0.09375
141
12.0
290
     0
  0
SCALE
  5
52
102
{ACAD_REACTORS
330
3B
102
}
330
3B
100
AcDbScale
 70
     0
300
1/8" = 1'-0"
140
0.125
141
12.0
290
     0
  0
SCALE
  5
53
102
{ACAD_REACTORS
330
3B
102
}
330
3B
100
AcDbScale
 70
     0
300
3/16" = 1'-0"
140
0.1875
141
12.0
290
     0
  0
SCALE
  5
54
102
{ACAD_REACTORS
330
3B
102
}
330
3B
100
AcDbScale
 70
     0
300
1/4" = 1'-0"
140
0.25
141
12.0
290
     0
  0
SCALE
  5
55
102
{ACAD_REACTORS
330
3B
102
}
330
3B
100
AcDbScale
 70
     0
300
3/8" = 1'-0"
140
0.375
141
12.0
290
     0
  0
SCALE
  5
56
102
{ACAD_REACTORS
330
3B
102
}
330
3B
100
AcDbScale
 70
     0
300
1/2" = 1'-0"
140
0.5
141
12.0
290
     0
  0
SCALE
  5
57
102
{ACAD_REACTORS
330
3B
102
}
330
3B
100
AcDbScale
 70
     0
300
3/4" = 1'-0"
140
0.75
141
12.0
290
     0
  0
SCALE
  5
58
102
{ACAD_REACTORS
330
3B
102
}
330
3B
100
AcDbScale
 70
     0
300
1" = 1'-0"
140
1.0
141
12.0
290
     0
  0
SCALE
  5
59
102
{ACAD_REACTORS
330
3B
102
}
330
3B
100
AcDbScale
 70
     0
300
1-1/2" = 1'-0"
140
1.5
141
12.0
290
     0
  0
SCALE
  5
5A
102
{ACAD_REACTORS
330
3B
102
}
330
3B
100
AcDbScale
 70
     0
300
3" = 1'-0"
140
3.0
141
12.0
290
     0
  0
SCALE
  5
5B
102
{ACAD_REACTORS
330
3B
102
}
330
3B
100
AcDbScale
 70
     0
300
6" = 1'-0"
140
6.0
141
12.0
290
     0
  0
SCALE
  5
5C
102
{ACAD_REACTORS
330
3B
102
}
330
3B
100
AcDbScale
 70
     0
300
1'-0" = 1'-0"
140
12.0
141
12.0
290
     0
  0
VISUALSTYLE
  5
2F
102
{ACAD_REACTORS
330
2A
102
}
330
2A
100
AcDbVisualStyle
  2
2dWireframe
 70
     4
 71
     0
 72
     2
 73
     0
 90
        0
 40
-0.6
 41
-30.0
 62
     5
 63
     7
 74
     1
 91
        4
 64
     7
 65
   257
 75
     1
175
     1
 42
1.0
 92
        0
 66
   257
 43
1.0
 76
     1
 77
     6
 78
     2
 67
     7
 79
     5
170
     0
171
     0
290
     0
174
     0
 93
        1
 44
0.0
173
     0
291
     0
 45
0.0
1001
ACAD
1000
AcDbSavedByObjectVersion
1070
     0
  0
VISUALSTYLE
  5
31
102
{ACAD_REACTORS
330
2A
102
}
330
2A
100
AcDbVisualStyle
  2
3D Hidden
 70
     6
 71
     1
 72
     2
 73
     2
 90
        0
 40
-0.6
 41
-30.0
 62
     5
 63
     7
 74
     2
 91
        2
 64
     7
 65
   257
 75
     2
175
     1
 42
40.0
 92
        0
 66
   257
 43
1.0
 76
     1
 77
     6
 78
     2
 67
     7
 79
     3
170
     0
171
     0
290
     0
174
     0
 93
        1
 44
0.0
173
     0
291
     0
 45
0.0
1001
ACAD
1000
AcDbSavedByObjectVersion
1070
     0
  0
VISUALSTYLE
  5
30
102
{ACAD_REACTORS
330
2A
102
}
330
2A
100
AcDbVisualStyle
  2
3dWireframe
 70
     5
 71
     0
 72
     2
 73
     0
 90
        0
 40
-0.6
 41
-30.0
 62
     5
 63
     7
 74
     1
 91
        4
 64
     7
 65
   257
 75
     1
175
     1
 42
1.0
 92
        0
 66
   257
 43
1.0
 76
     1
 77
     6
 78
     2
 67
     7
 79
     5
170
     0
171
     0
290
     0
174
     0
 93
        1
 44
0.0
173
     0
291
     0
 45
0.0
1001
ACAD
1000
AcDbSavedByObjectVersion
1070
     0
  0
VISUALSTYLE
  5
32
102
{ACAD_REACTORS
330
2A
102
}
330
2A
100
AcDbVisualStyle
  2
Basic
 70
     7
 71
     1
 72
     0
 73
     1
 90
        0
 40
-0.6
 41
-30.0
 62
     5
 63
     7
 74
     0
 91
        4
 64
     7
 65
   257
 75
     1
175
     1
 42
1.0
 92
        8
 66
     7
 43
1.0
 76
     1
 77
     6
 78
     2
 67
     7
 79
     5
170
     0
171
     0
290
     0
174
     0
 93
        1
 44
0.0
173
     0
291
     1
 45
0.0
1001
ACAD
1000
AcDbSavedByObjectVersion
1070
     0
  0
VISUALSTYLE
  5
36
102
{ACAD_REACTORS
330
2A
102
}
330
2A
100
AcDbVisualStyle
  2
Brighten
 70
    12
 71
     2
 72
     2
 73
     0
 90
        0
 40
-0.6
 41
-30.0
 62
     5
 63
     7
 74
     1
 91
        4
 64
     7
 65
   257
 75
     1
175
     1
 42
1.0
 92
        8
 66
     7
 43
1.0
 76
     1
 77
     6
 78
     2
 67
     7
 79
     5
170
     0
171
     0
290
     0
174
     0
 93
        1
 44
50.0
173
     0
291
     1
 45
0.0
1001
ACAD
1000
AcDbSavedByObjectVersion
1070
     0
  0
VISUALSTYLE
  5
3A
102
{ACAD_REACTORS
330
2A
102
}
330
2A
100
AcDbVisualStyle
  2
ColorChange
 70
    16
 71
     2
 72
     2
 73
     3
 90
        0
 40
-0.6
 41
-30.0
 62
     5
 63
     8
 74
     1
 91
        4
 64
     7
 65
   257
 75
     1
175
     1
 42
1.0
 92
        8
 66
     8
 43
1.0
 76
     1
 77
     6
 78
     2
 67
     7
 79
     5
170
     0
171
     0
290
     0
174
     0
 93
        1
 44
0.0
173
     0
291
     1
 45
0.0
1001
ACAD
1000
AcDbSavedByObjectVersion
1070
     0
  0
VISUALSTYLE
  5
34
102
{ACAD_REACTORS
330
2A
102
}
330
2A
100
AcDbVisualStyle
  2
Conceptual
 70
     9
 71
     3
 72
     2
 73
     0
 90
        0
 40
-0.6
 41
-30.0
 62
     5
 63
     7
 74
     2
 91
        2
 64
     7
 65
   257
 75
     1
175
     1
 42
40.0
 92
        8
 66
     7
 43
1.0
 76
     1
 77
     6
 78
     2
 67
     7
 79
     3
170
     0
171
     0
290
     0
174
     0
 93
        1
 44
0.0
173
     0
291
     0
 45
0.0
1001
ACAD
1000
AcDbSavedByObjectVersion
1070
     0
  0
VISUALSTYLE
  5
35
102
{ACAD_REACTORS
330
2A
102
}
330
2A
100
AcDbVisualStyle
  2
Dim
 70
    11
 71
     2
 72
     2
 73
     0
 90
        0
 40
-0.6
 41
-30.0
 62
     5
 63
     7
 74
     1
 91
        4
 64
     7
 65
   257
 75
     1
175
     1
 42
1.0
 92
        8
 66
     7
 43
1.0
 76
     1
 77
     6
 78
     2
 67
     7
 79
     5
170
     0
171
     0
290
     0
174
     0
 93
        1
 44
-50.0
173
     0
291
     1
 45
0.0
1001
ACAD
1000
AcDbSavedByObjectVersion
1070
     0
  0
VISUALSTYLE
  5
39
102
{ACAD_REACTORS
330
2A
102
}
330
2A
100
AcDbVisualStyle
  2
Facepattern
 70
    15
 71
     2
 72
     2
 73
     0
 90
        0
 40
-0.6
 41
-30.0
 62
     5
 63
     7
 74
     1
 91
        4
 64
     7
 65
   257
 75
     1
175
     1
 42
1.0
 92
        8
 66
     7
 43
1.0
 76
     1
 77
     6
 78
     2
 67
     7
 79
     5
170
     0
171
     0
290
     0
174
     0
 93
        1
 44
0.0
173
     0
291
     1
 45
0.0
1001
ACAD
1000
AcDbSavedByObjectVersion
1070
     0
  0
VISUALSTYLE
  5
2B
102
{ACAD_REACTORS
330
2A
102
}
330
2A
100
AcDbVisualStyle
  2
Flat
 70
     0
 71
     2
 72
     1
 73
     1
 90
        2
 40
-0.6
 41
30.0
 62
     5
 63
     7
 74
     0
 91
        4
 64
     7
 65
   257
 75
     1
175
     1
 42
1.0
 92
        8
 66
     7
 43
1.0
 76
     1
 77
     6
 78
     2
 67
     7
 79
     5
170
     0
171
     0
290
     0
174
     0
 93
       13
 44
0.0
173
     0
291
     1
 45
0.0
1001
ACAD
1000
AcDbSavedByObjectVersion
1070
     0
  0
VISUALSTYLE
  5
2C
102
{ACAD_REACTORS
330
2A
102
}
330
2A
100
AcDbVisualStyle
  2
FlatWithEdges
 70
     1
 71
     2
 72
     1
 73
     1
 90
        2
 40
-0.6
 41
30.0
 62
     5
 63
     7
 74
     1
 91
        4
 64
     7
 65
   257
 75
     1
175
     1
 42
1.0
 92
        0
 66
   257
 43
1.0
 76
     1
 77
     6
 78
     2
 67
     7
 79
     5
170
     0
171
     0
290
     0
174
     0
 93
       13
 44
0.0
173
     0
291
     1
 45
0.0
1001
ACAD
1000
AcDbSavedByObjectVersion
1070
     0
  0
VISUALSTYLE
  5
2D
102
{ACAD_REACTORS
330
2A
102
}
330
2A
100
AcDbVisualStyle
  2
Gouraud
 70
     2
 71
     2
 72
     2
 73
     1
 90
        2
 40
-0.6
 41
30.0
 62
     5
 63
     7
 74
     0
 91
        4
 64
     7
 65
   257
 75
     1
175
     1
 42
1.0
 92
        0
 66
     7
 43
1.0
 76
     1
 77
     6
 78
     2
 67
     7
 79
     5
170
     0
171
     0
290
     0
174
     0
 93
       13
 44
0.0
173
     0
291
     1
 45
0.0
1001
ACAD
1000
AcDbSavedByObjectVersion
1070
     0
  0
VISUALSTYLE
  5
2E
102
{ACAD_REACTORS
330
2A
102
}
330
2A
100
AcDbVisualStyle
  2
GouraudWithEdges
 70
     3
 71
     2
 72
     2
 73
     1
 90
        2
 40
-0.6
 41
30.0
 62
     5
 63
     7
 74
     1
 91
        4
 64
     7
 65
   257
 75
     1
175
     1
 42
1.0
 92
        0
 66
   257
 43
1.0
 76
     1
 77
     6
 78
     2
 67
     7
 79
     5
170
     0
171
     0
290
     0
174
     0
 93
       13
 44
0.0
173
     0
291
     1
 45
0.0
1001
ACAD
1000
AcDbSavedByObjectVersion
1070
     0
  0
VISUALSTYLE
  5
38
102
{ACAD_REACTORS
330
2A
102
}
330
2A
100
AcDbVisualStyle
  2
Linepattern
 70
    14
 71
     2
 72
     2
 73
     0
 90
        0
 40
-0.6
 41
-30.0
 62
     5
 63
     7
 74
     1
 91
        4
 64
     7
 65
   257
 75
     7
175
     7
 42
1.0
 92
        8
 66
     7
 43
1.0
 76
     1
 77
     6
 78
     2
 67
     7
 79
     5
170
     0
171
     0
290
     0
174
     0
 93
        1
 44
0.0
173
     0
291
     1
 45
0.0
1001
ACAD
1000
AcDbSavedByObjectVersion
1070
     0
  0
VISUALSTYLE
  5
33
102
{ACAD_REACTORS
330
2A
102
}
330
2A
100
AcDbVisualStyle
  2
Realistic
 70
     8
 71
     2
 72
     2
 73
     0
 90
        0
 40
-0.6
 41
-30.0
 62
     5
 63
     7
 74
     1
 91
        0
 64
     7
 65
   257
 75
     1
175
     1
 42
1.0
 92
        8
 66
     8
 43
1.0
 76
     1
 77
     6
 78
     2
 67
     7
 79
     5
170
     0
171
     0
290
     0
174
     0
 93
       13
 44
0.0
173
     0
291
     0
 45
0.0
1001
ACAD
1000
AcDbSavedByObjectVersion
1070
     0
  0
VISUALSTYLE
  5
37
102
{ACAD_REACTORS
330
2A
102
}
330
2A
100
AcDbVisualStyle
  2
Thicken
 70
    13
 71
     2
 72
     2
 73
     0
 90
        0
 40
-0.6
 41
-30.0
 62
     5
 63
     7
 74
     1
 91
        4
 64
     7
 65
   257
 75
     1
175
     1
 42
1.0
 92
       12
 66
     7
 43
1.0
 76
     1
 77
     6
 78
     2
 67
     7
 79
     5
170
     0
171
     0
290
     0
174
     0
 93
        1
 44
0.0
173
     0
291
     1
 45
0.0
1001
ACAD
1000
AcDbSavedByObjectVersion
1070
     0
  0
DICTIONARYVAR
  5
3EA
102
{ACAD_REACTORS
330
3E9
102
}
330
3E9
100
DictionaryVariables
280
     0
  1
1:1
  0
DICTIONARYVAR
  5
3EE
102
{ACAD_REACTORS
330
3E9
102
}
330
3E9
100
DictionaryVariables
280
     0
  1
80.000000
  0
DICTIONARYVAR
  5
3ED
102
{ACAD_REACTORS
330
3E9
102
}
330
3E9
100
DictionaryVariables
280
     0
  1
5.000000
  0
ENDSEC
  0
EOF
