  0
SECTION
  2
HEADER
  9
$ACADVER
  1
AC1015
  9
$ACADMAINTVER
 70
     6
  9
$DWGCODEPAGE
  3
ANSI_1252
  9
$INSBASE
 10
0.0
 20
0.0
 30
0.0
  9
$EXTMIN
 10
0.0
 20
0.0
 30
0.0
  9
$EXTMAX
 10
1682.0
 20
2378.0
 30
0.0
  9
$LIMMIN
 10
0.0
 20
0.0
  9
$LIMMAX
 10
1682.0
 20
2378.0
  9
$ORTHOMODE
 70
     0
  9
$REGENMODE
 70
     1
  9
$FILLMODE
 70
     1
  9
$QTEXTMODE
 70
     0
  9
$MIRRTEXT
 70
     1
  9
$LTSCALE
 40
1.0
  9
$ATTMODE
 70
     1
  9
$TEXTSIZE
 40
2.5
  9
$TRACEWID
 40
1.0
  9
$TEXTSTYLE
  7
Standard
  9
$CLAYER
  8
0
  9
$CELTYPE
  6
ByLayer
  9
$CECOLOR
 62
   256
  9
$CELTSCALE
 40
1.0
  9
$DISPSILH
 70
     0
  9
$DIMSCALE
 40
1.0
  9
$DIMASZ
 40
2.5
  9
$DIMEXO
 40
0.625
  9
$DIMDLI
 40
3.75
  9
$DIMRND
 40
0.0
  9
$DIMDLE
 40
0.0
  9
$DIMEXE
 40
1.25
  9
$DIMTP
 40
0.0
  9
$DIMTM
 40
0.0
  9
$DIMTXT
 40
2.5
  9
$DIMCEN
 40
2.5
  9
$DIMTSZ
 40
0.0
  9
$DIMTOL
 70
     0
  9
$DIMLIM
 70
     0
  9
$DIMTIH
 70
     0
  9
$DIMTOH
 70
     0
  9
$DIMSE1
 70
     0
  9
$DIMSE2
 70
     0
  9
$DIMTAD
 70
     1
  9
$DIMZIN
 70
     8
  9
$DIMBLK
  1

  9
$DIMASO
 70
     1
  9
$DIMSHO
 70
     1
  9
$DIMPOST
  1

  9
$DIMAPOST
  1

  9
$DIMALT
 70
     0
  9
$DIMALTD
 70
     3
  9
$DIMALTF
 40
0.0393700787
  9
$DIMLFAC
 40
1.0
  9
$DIMTOFL
 70
     1
  9
$DIMTVP
 40
0.0
  9
$DIMTIX
 70
     0
  9
$DIMSOXD
 70
     0
  9
$DIMSAH
 70
     0
  9
$DIMBLK1
  1

  9
$DIMBLK2
  1

  9
$DIMSTYLE
  2
ISO-25
  9
$DIMCLRD
 70
     0
  9
$DIMCLRE
 70
     0
  9
$DIMCLRT
 70
     0
  9
$DIMTFAC
 40
1.0
  9
$DIMGAP
 40
0.625
  9
$DIMJUST
 70
     0
  9
$DIMSD1
 70
     0
  9
$DIMSD2
 70
     0
  9
$DIMTOLJ
 70
     0
  9
$DIMTZIN
 70
     8
  9
$DIMALTZ
 70
     0
  9
$DIMALTTZ
 70
     0
  9
$DIMUPT
 70
     0
  9
$DIMDEC
 70
     2
  9
$DIMTDEC
 70
     2
  9
$DIMALTU
 70
     2
  9
$DIMALTTD
 70
     3
  9
$DIMTXSTY
  7
Standard
  9
$DIMAUNIT
 70
     0
  9
$DIMADEC
 70
     0
  9
$DIMALTRND
 40
0.0
  9
$DIMAZIN
 70
     0
  9
$DIMDSEP
 70
    44
  9
$DIMATFIT
 70
     3
  9
$DIMFRAC
 70
     0
  9
$DIMLDRBLK
  1

  9
$DIMLUNIT
 70
     2
  9
$DIMLWD
 70
    -2
  9
$DIMLWE
 70
    -2
  9
$DIMTMOVE
 70
     0
  9
$LUNITS
 70
     2
  9
$LUPREC
 70
     4
  9
$SKETCHINC
 40
1.0
  9
$FILLETRAD
 40
10.0
  9
$AUNITS
 70
     0
  9
$AUPREC
 70
     0
  9
$MENU
  1
.
  9
$ELEVATION
 40
0.0
  9
$PELEVATION
 40
0.0
  9
$THICKNESS
 40
0.0
  9
$LIMCHECK
 70
     0
  9
$CHAMFERA
 40
10.0
  9
$CHAMFERB
 40
10.0
  9
$CHAMFERC
 40
20.0
  9
$CHAMFERD
 40
0.0
  9
$SKPOLY
 70
     0
  9
$TDCREATE
 40
2455609.342182165
  9
$TDUCREATE
 40
2455609.300515498
  9
$TDUPDATE
 40
2455609.342182176
  9
$TDUUPDATE
 40
2455609.300515509
  9
$TDINDWG
 40
0.0000000116
  9
$TDUSRTIMER
 40
0.0000000116
  9
$USRTIMER
 70
     1
  9
$ANGBASE
 50
0.0
  9
$ANGDIR
 70
     0
  9
$PDMODE
 70
     0
  9
$PDSIZE
 40
0.0
  9
$PLINEWID
 40
0.0
  9
$SPLFRAME
 70
     0
  9
$SPLINETYPE
 70
     6
  9
$SPLINESEGS
 70
     8
  9
$HANDSEED
  5
12A
  9
$SURFTAB1
 70
     6
  9
$SURFTAB2
 70
     6
  9
$SURFTYPE
 70
     6
  9
$SURFU
 70
     6
  9
$SURFV
 70
     6
  9
$UCSBASE
  2

  9
$UCSNAME
  2

  9
$UCSORG
 10
0.0
 20
0.0
 30
0.0
  9
$UCSXDIR
 10
1.0
 20
0.0
 30
0.0
  9
$UCSYDIR
 10
0.0
 20
1.0
 30
0.0
  9
$UCSORTHOREF
  2

  9
$UCSORTHOVIEW
 70
     0
  9
$UCSORGTOP
 10
0.0
 20
0.0
 30
0.0
  9
$UCSORGBOTTOM
 10
0.0
 20
0.0
 30
0.0
  9
$UCSORGLEFT
 10
0.0
 20
0.0
 30
0.0
  9
$UCSORGRIGHT
 10
0.0
 20
0.0
 30
0.0
  9
$UCSORGFRONT
 10
0.0
 20
0.0
 30
0.0
  9
$UCSORGBACK
 10
0.0
 20
0.0
 30
0.0
  9
$PUCSBASE
  2

  9
$PUCSNAME
  2

  9
$PUCSORG
 10
0.0
 20
0.0
 30
0.0
  9
$PUCSXDIR
 10
1.0
 20
0.0
 30
0.0
  9
$PUCSYDIR
 10
0.0
 20
1.0
 30
0.0
  9
$PUCSORTHOREF
  2

  9
$PUCSORTHOVIEW
 70
     0
  9
$PUCSORGTOP
 10
0.0
 20
0.0
 30
0.0
  9
$PUCSORGBOTTOM
 10
0.0
 20
0.0
 30
0.0
  9
$PUCSORGLEFT
 10
0.0
 20
0.0
 30
0.0
  9
$PUCSORGRIGHT
 10
0.0
 20
0.0
 30
0.0
  9
$PUCSORGFRONT
 10
0.0
 20
0.0
 30
0.0
  9
$PUCSORGBACK
 10
0.0
 20
0.0
 30
0.0
  9
$USERI1
 70
     0
  9
$USERI2
 70
     0
  9
$USERI3
 70
     0
  9
$USERI4
 70
     0
  9
$USERI5
 70
     0
  9
$USERR1
 40
0.0
  9
$USERR2
 40
0.0
  9
$USERR3
 40
0.0
  9
$USERR4
 40
0.0
  9
$USERR5
 40
0.0
  9
$WORLDVIEW
 70
     1
  9
$SHADEDGE
 70
     3
  9
$SHADEDIF
 70
    70
  9
$TILEMODE
 70
     1
  9
$MAXACTVP
 70
    64
  9
$PINSBASE
 10
0.0
 20
0.0
 30
0.0
  9
$PLIMCHECK
 70
     0
  9
$PEXTMIN
 10
0.0
 20
0.0
 30
0.0
  9
$PEXTMAX
 10
1682.0
 20
2378.0
 30
0.0
  9
$PLIMMIN
 10
0.0
 20
0.0
  9
$PLIMMAX
 10
1682.0
 20
2378.0
  9
$UNITMODE
 70
     0
  9
$VISRETAIN
 70
     1
  9
$PLINEGEN
 70
     0
  9
$PSLTSCALE
 70
     1
  9
$TREEDEPTH
 70
  3020
  9
$CMLSTYLE
  2
Standard
  9
$CMLJUST
 70
     0
  9
$CMLSCALE
 40
20.0
  9
$PROXYGRAPHICS
 70
     1
  9
$MEASUREMENT
 70
     1
  9
$CELWEIGHT
370
    -1
  9
$ENDCAPS
280
     0
  9
$JOINSTYLE
280
     0
  9
$LWDISPLAY
290
     0
  9
$INSUNITS
 70
     4
  9
$HYPERLINKBASE
  1

  9
$STYLESHEET
  1

  9
$XEDIT
290
     1
  9
$CEPSNTYPE
380
     0
  9
$PSTYLEMODE
290
     1
  9
$FINGERPRINTGUID
  2
{AA029E0C-C4AA-49D0-8B05-823B69A84CA6}
  9
$VERSIONGUID
  2
{FAEB1C32-E019-11D5-929B-00C0DF256EC4}
  9
$EXTNAMES
290
     1
  9
$PSVPSCALE
 40
0.0
  9
$OLESTARTUP
290
     0
  0
ENDSEC
  0
SECTION
  2
CLASSES
  0
CLASS
  1
ACDBDICTIONARYWDFLT
  2
AcDbDictionaryWithDefault
  3
ObjectDBX Classes
 90
        0
280
     0
281
     0
  0
CLASS
  1
VISUALSTYLE
  2
AcDbVisualStyle
  3
ObjectDBX Classes
 90
     4095
280
     0
281
     0
  0
CLASS
  1
SCALE
  2
AcDbScale
  3
ObjectDBX Classes
 90
     1153
280
     0
281
     0
  0
CLASS
  1
DICTIONARYVAR
  2
AcDbDictionaryVar
  3
ObjectDBX Classes
 90
        0
280
     0
281
     0
  0
CLASS
  1
ACDBPLACEHOLDER
  2
AcDbPlaceHolder
  3
ObjectDBX Classes
 90
        0
280
     0
281
     0
  0
CLASS
  1
LAYOUT
  2
AcDbLayout
  3
ObjectDBX Classes
 90
        0
280
     0
281
     0
  0
ENDSEC
  0
SECTION
  2
TABLES
  0
TABLE
  2
VPORT
  5
8
330
0
100
AcDbSymbolTable
 70
     1
  0
VPORT
  5
29
330
8
100
AcDbSymbolTableRecord
100
AcDbViewportTableRecord
  2
*Active
 70
     0
 10
0.0
 20
0.0
 11
1.0
 21
1.0
 12
344.1869158879
 22
148.5
 13
0.0
 23
0.0
 14
10.0
 24
10.0
 15
10.0
 25
10.0
 16
0.0
 26
0.0
 36
1.0
 17
0.0
 27
0.0
 37
0.0
 40
297.0
 41
1.9729729729
 42
50.0
 43
0.0
 44
0.0
 50
0.0
 51
0.0
 71
     0
 72
   100
 73
     1
 74
     3
 75
     0
 76
     0
 77
     0
 78
     0
281
     0
 65
     1
110
0.0
120
0.0
130
0.0
111
1.0
121
0.0
131
0.0
112
0.0
122
1.0
132
0.0
 79
     0
146
0.0
  0
ENDTAB
  0
TABLE
  2
LTYPE
  5
5
330
0
100
AcDbSymbolTable
 70
     2
  0
LTYPE
  5
14
330
5
100
AcDbSymbolTableRecord
100
AcDbLinetypeTableRecord
  2
ByBlock
 70
     0
  3

 72
    65
 73
     0
 40
0.0
  0
LTYPE
  5
15
330
5
100
AcDbSymbolTableRecord
100
AcDbLinetypeTableRecord
  2
ByLayer
 70
     0
  3

 72
    65
 73
     0
 40
0.0
  0
LTYPE
  5
16
330
5
100
AcDbSymbolTableRecord
100
AcDbLinetypeTableRecord
  2
Continuous
 70
     0
  3
Solid line
 72
    65
 73
     0
 40
0.0
  0
LTYPE
  5
60
330
5
100
AcDbSymbolTableRecord
100
AcDbLinetypeTableRecord
  2
CENTER2
 70
     0
  3
Center (.5x) ___ _ ___ _ ___ _ ___ _ ___ _ ___
 72
    65
 73
     4
 40
28.575
 49
19.05
 74
     4
 75
     0
340
0
 46
0.0
 50
0.0
 44
0.0
 45
0.0
 49
-3.175
 74
     4
 75
     0
340
0
 46
0.0
 50
0.0
 44
0.0
 45
0.0
 49
3.175
 74
     4
 75
     0
340
0
 46
0.0
 50
0.0
 44
0.0
 45
0.0
 49
-3.175
 74
     4
 75
     0
340
0
 46
0.0
 50
0.0
 44
0.0
 45
0.0
  0
ENDTAB
  0
TABLE
  2
LAYER
  5
2
330
0
100
AcDbSymbolTable
 70
     9
  0
LAYER
  5
10
330
2
100
AcDbSymbolTableRecord
100
AcDbLayerTableRecord
  2
0
 70
     0
 62
     7
  6
Continuous
370
    -3
390
F
  0
LAYER
  5
5D
330
2
100
AcDbSymbolTableRecord
100
AcDbLayerTableRecord
  2
Default
 70
     0
 62
     7
  6
Continuous
370
    -3
390
F
  0
LAYER
  5
77
330
2
100
AcDbSymbolTableRecord
100
AcDbLayerTableRecord
  2
$DDT_AUDIT_GENERATED_(77)
 70
     0
 62
     7
  6
Continuous
370
    -3
390
F
  0
LAYER
  5
9A
330
2
100
AcDbSymbolTableRecord
100
AcDbLayerTableRecord
  2
$DDT_AUDIT_GENERATED_(9A)
 70
     0
 62
     7
  6
Continuous
370
    -3
390
F
  0
LAYER
  5
9F
330
2
100
AcDbSymbolTableRecord
100
AcDbLayerTableRecord
  2
$DDT_AUDIT_GENERATED_(9F)
 70
     0
 62
     7
  6
Continuous
370
    -3
390
F
  0
LAYER
  5
A2
330
2
100
AcDbSymbolTableRecord
100
AcDbLayerTableRecord
  2
12030689_GROHE_A
 70
     0
 62
     7
  6
Continuous
370
    -3
390
F
  0
LAYER
  5
A6
330
2
100
AcDbSymbolTableRecord
100
AcDbLayerTableRecord
  2
$DDT_AUDIT_GENERATED_(A6)
 70
     0
 62
     7
  6
Continuous
370
    -3
390
F
  0
LAYER
  5
B2
330
2
100
AcDbSymbolTableRecord
100
AcDbLayerTableRecord
  2
$DDT_AUDIT_GENERATED_(B2)
 70
     0
 62
     7
  6
Continuous
370
    -3
390
F
  0
LAYER
  5
DF
330
2
100
AcDbSymbolTableRecord
100
AcDbLayerTableRecord
  2
$DDT_AUDIT_GENERATED_(DF)
 70
     0
 62
     7
  6
Continuous
370
    -3
390
F
  0
ENDTAB
  0
TABLE
  2
STYLE
  5
3
330
0
100
AcDbSymbolTable
 70
     2
  0
STYLE
  5
11
330
3
100
AcDbSymbolTableRecord
100
AcDbTextStyleTableRecord
  2
Standard
 70
     0
 40
0.0
 41
1.0
 50
0.0
 71
     0
 42
2.5
  3
txt
  4

  0
STYLE
  5
119
330
3
100
AcDbSymbolTableRecord
100
AcDbTextStyleTableRecord
  2
SEACAD_seiso_ttf
 70
     0
 40
0.0
 41
1.0
 50
0.0
 71
     0
 42
0.2
  3
seiso.ttf
  4

  0
ENDTAB
  0
TABLE
  2
VIEW
  5
6
330
0
100
AcDbSymbolTable
 70
     0
  0
ENDTAB
  0
TABLE
  2
UCS
  5
7
330
0
100
AcDbSymbolTable
 70
     0
  0
ENDTAB
  0
TABLE
  2
APPID
  5
9
330
0
100
AcDbSymbolTable
 70
     1
  0
APPID
  5
12
330
9
100
AcDbSymbolTableRecord
100
AcDbRegAppTableRecord
  2
ACAD
 70
     0
  0
ENDTAB
  0
TABLE
  2
DIMSTYLE
  5
A
330
0
100
AcDbSymbolTable
 70
     1
100
AcDbDimStyleTable
  0
DIMSTYLE
105
27
330
A
100
AcDbSymbolTableRecord
100
AcDbDimStyleTableRecord
  2
ISO-25
 70
     0
 41
2.5
 42
0.625
 43
3.75
 44
1.25
 73
     0
 74
     0
 77
     1
 78
     8
140
2.5
141
2.5
143
0.0393700787
147
0.625
171
     3
172
     1
271
     2
272
     2
274
     3
278
    44
283
     0
284
     8
340
11
  0
ENDTAB
  0
TABLE
  2
BLOCK_RECORD
  5
1
330
0
100
AcDbSymbolTable
 70
     7
  0
BLOCK_RECORD
  5
1F
330
1
100
AcDbSymbolTableRecord
100
AcDbBlockTableRecord
  2
*Model_Space
340
22
  0
BLOCK_RECORD
  5
1B
330
1
100
AcDbSymbolTableRecord
100
AcDbBlockTableRecord
  2
*Paper_Space
340
1E
  0
BLOCK_RECORD
  5
5E
330
1
100
AcDbSymbolTableRecord
100
AcDbBlockTableRecord
  2
SEANNOT_GROUP
340
0
102
{BLKREFS
331
5F
102
}
  0
BLOCK_RECORD
  5
69
330
1
100
AcDbSymbolTableRecord
100
AcDbBlockTableRecord
  2
SEANNOT_GROUP1
340
0
102
{BLKREFS
331
6A
102
}
  0
BLOCK_RECORD
  5
6F
330
1
100
AcDbSymbolTableRecord
100
AcDbBlockTableRecord
  2
SEANNOT_GROUP2
340
0
102
{BLKREFS
331
70
102
}
  0
BLOCK_RECORD
  5
75
330
1
100
AcDbSymbolTableRecord
100
AcDbBlockTableRecord
  2
SE
340
0
102
{BLKREFS
331
76
102
}
  0
BLOCK_RECORD
  5
B8
330
1
100
AcDbSymbolTableRecord
100
AcDbBlockTableRecord
  2
SE1
340
0
102
{BLKREFS
331
B9
102
}
  0
BLOCK_RECORD
  5
DD
330
1
100
AcDbSymbolTableRecord
100
AcDbBlockTableRecord
  2
SE2
340
0
102
{BLKREFS
331
DE
102
}
  0
ENDTAB
  0
ENDSEC
  0
SECTION
  2
BLOCKS
  0
BLOCK
  5
20
330
1F
100
AcDbEntity
  8
0
100
AcDbBlockBegin
  2
*Model_Space
 70
     0
 10
0.0
 20
0.0
 30
0.0
  3
*Model_Space
  1

  0
ENDBLK
  5
21
330
1F
100
AcDbEntity
  8
0
100
AcDbBlockEnd
  0
BLOCK
  5
1C
330
1B
100
AcDbEntity
 67
     1
  8
0
100
AcDbBlockBegin
  2
*Paper_Space
 70
     0
 10
0.0
 20
0.0
 30
0.0
  3
*Paper_Space
  1

  0
ENDBLK
  5
1D
330
1B
100
AcDbEntity
 67
     1
  8
0
100
AcDbBlockEnd
  0
BLOCK
  5
67
330
5E
100
AcDbEntity
  8
0
100
AcDbBlockBegin
  2
SEANNOT_GROUP
 70
     0
 10
0.0
 20
0.0
 30
0.0
  3
SEANNOT_GROUP
  1

  0
LINE
  5
61
330
5E
100
AcDbEntity
  8
Default
  6
CENTER2
 62
     7
100
AcDbLine
 10
124.5283636416
 20
321.9418375026
 30
0.0
 11
84.5283645357
 21
321.9418375026
 31
0.0
  0
LINE
  5
62
330
5E
100
AcDbEntity
  8
Default
  6
CENTER2
 62
     7
100
AcDbLine
 10
104.5283640886
 20
341.9418370555
 30
0.0
 11
104.5283640886
 21
301.9418379496
 31
0.0
  0
LINE
  5
63
330
5E
100
AcDbEntity
  8
Default
  6
CENTER2
 62
     7
100
AcDbLine
 10
129.5283635298
 20
321.9418375026
 30
0.0
 11
193.0283640886
 21
321.9418375026
 31
0.0
  0
LINE
  5
64
330
5E
100
AcDbEntity
  8
Default
  6
CENTER2
 62
     7
100
AcDbLine
 10
104.5283640886
 20
346.9418369438
 30
0.0
 11
104.5283640886
 21
410.4418375026
 31
0.0
  0
LINE
  5
65
330
5E
100
AcDbEntity
  8
Default
  6
CENTER2
 62
     7
100
AcDbLine
 10
79.5283646474
 20
321.9418375026
 30
0.0
 11
16.0283640886
 21
321.9418375026
 31
0.0
  0
LINE
  5
66
330
5E
100
AcDbEntity
  8
Default
  6
CENTER2
 62
     7
100
AcDbLine
 10
104.5283640886
 20
296.9418380613
 30
0.0
 11
104.5283640886
 21
233.4418375026
 31
0.0
  0
ENDBLK
  5
68
330
5E
100
AcDbEntity
  8
0
100
AcDbBlockEnd
  0
BLOCK
  5
6D
330
69
100
AcDbEntity
  8
0
100
AcDbBlockBegin
  2
SEANNOT_GROUP1
 70
     0
 10
0.0
 20
0.0
 30
0.0
  3
SEANNOT_GROUP1
  1

  0
LINE
  5
6B
330
69
100
AcDbEntity
  8
Default
  6
CENTER2
 62
     7
100
AcDbLine
 10
304.3429313974
 20
321.9682281326
 30
0.0
 11
264.3429322915
 21
321.9682281326
 31
0.0
  0
LINE
  5
6C
330
69
100
AcDbEntity
  8
Default
  6
CENTER2
 62
     7
100
AcDbLine
 10
284.3429318444
 20
341.9682276856
 30
0.0
 11
284.3429318444
 21
301.9682285797
 31
0.0
  0
ENDBLK
  5
6E
330
69
100
AcDbEntity
  8
0
100
AcDbBlockEnd
  0
BLOCK
  5
73
330
6F
100
AcDbEntity
  8
0
100
AcDbBlockBegin
  2
SEANNOT_GROUP2
 70
     0
 10
0.0
 20
0.0
 30
0.0
  3
SEANNOT_GROUP2
  1

  0
LINE
  5
71
330
6F
100
AcDbEntity
  8
Default
  6
CENTER2
 62
     7
100
AcDbLine
 10
124.5283636416
 20
150.0920180458
 30
0.0
 11
84.5283645357
 21
150.0920180458
 31
0.0
  0
LINE
  5
72
330
6F
100
AcDbEntity
  8
Default
  6
CENTER2
 62
     7
100
AcDbLine
 10
104.5283640886
 20
170.0920175988
 30
0.0
 11
104.5283640886
 21
130.0920184928
 31
0.0
  0
ENDBLK
  5
74
330
6F
100
AcDbEntity
  8
0
100
AcDbBlockEnd
  0
BLOCK
  5
B6
330
75
100
AcDbEntity
  8
0
100
AcDbBlockBegin
  2
SE
 70
     0
 10
0.0
 20
0.0
 30
0.0
  3
SE
  1

  0
ARC
  5
78
330
75
100
AcDbEntity
  8
$DDT_AUDIT_GENERATED_(77)
  6
Continuous
 62
     7
100
AcDbCircle
 10
142.6032504354
 20
320.0095966581
 30
0.0
 40
1.379999999999978
100
AcDbArc
 50
359.9966279416
 51
89.9966279416
  0
LINE
  5
79
330
75
100
AcDbEntity
  8
$DDT_AUDIT_GENERATED_(77)
  6
Continuous
 62
     7
100
AcDbLine
 10
141.9333963933
 20
322.4896360856
 30
0.0
 11
141.9333316544
 21
321.3896360875
 31
0.0
  0
LINE
  5
7A
330
75
100
AcDbEntity
  8
$DDT_AUDIT_GENERATED_(77)
  6
Continuous
 62
     7
100
AcDbLine
 10
141.9333316544
 20
321.3896360875
 30
0.0
 11
142.6033316533
 21
321.3895966557
 31
0.0
  0
LINE
  5
7B
330
75
100
AcDbEntity
  8
$DDT_AUDIT_GENERATED_(77)
  6
Continuous
 62
     7
100
AcDbLine
 10
143.983250433
 20
320.0095154402
 30
0.0
 11
143.9832110011
 21
319.3395154414
 31
0.0
  0
LINE
  5
7C
330
75
100
AcDbEntity
  8
$DDT_AUDIT_GENERATED_(77)
  6
Continuous
 62
     7
100
AcDbLine
 10
143.9832110011
 20
319.3395154414
 30
0.0
 11
145.0832109992
 21
319.3394507025
 31
0.0
  0
LINE
  5
7D
330
75
100
AcDbEntity
  8
$DDT_AUDIT_GENERATED_(77)
  6
Continuous
 62
     7
100
AcDbLine
 10
145.0832109992
 20
319.3394507025
 30
0.0
 11
145.0832504311
 21
320.0094507013
 31
0.0
  0
ARC
  5
7E
330
75
100
AcDbEntity
  8
$DDT_AUDIT_GENERATED_(77)
  6
Continuous
 62
     7
100
AcDbCircle
 10
146.4632504287
 20
320.0093694835
 30
0.0
 40
1.379999999999976
100
AcDbArc
 50
89.9966279416
 51
179.9966279412
  0
LINE
  5
7F
330
75
100
AcDbEntity
  8
$DDT_AUDIT_GENERATED_(77)
  6
Continuous
 62
     7
100
AcDbLine
 10
146.4633316466
 20
321.3893694811
 30
0.0
 11
147.1333316454
 21
321.3893300492
 31
0.0
  0
LINE
  5
80
330
75
100
AcDbEntity
  8
$DDT_AUDIT_GENERATED_(77)
  6
Continuous
 62
     7
100
AcDbLine
 10
147.1333316454
 20
321.3893300492
 30
0.0
 11
147.1333963843
 21
322.4893300473
 31
0.0
  0
LINE
  5
81
330
75
100
AcDbEntity
  8
$DDT_AUDIT_GENERATED_(77)
  6
Continuous
 62
     7
100
AcDbLine
 10
147.1333963843
 20
322.4893300473
 30
0.0
 11
146.4633963854
 21
322.4893694792
 31
0.0
  0
ARC
  5
82
330
75
100
AcDbEntity
  8
$DDT_AUDIT_GENERATED_(77)
  6
Continuous
 62
     7
100
AcDbCircle
 10
146.4634776033
 20
323.8693694768
 30
0.0
 40
1.379999999999978
100
AcDbArc
 50
179.9966279416
 51
269.9966279412
  0
LINE
  5
83
330
75
100
AcDbEntity
  8
$DDT_AUDIT_GENERATED_(77)
  6
Continuous
 62
     7
100
AcDbLine
 10
145.0834776057
 20
323.8694506946
 30
0.0
 11
145.0835170376
 21
324.5394506935
 31
0.0
  0
LINE
  5
84
330
75
100
AcDbEntity
  8
$DDT_AUDIT_GENERATED_(77)
  6
Continuous
 62
     7
100
AcDbLine
 10
145.0835170376
 20
324.5394506935
 30
0.0
 11
143.9835170395
 21
324.5395154323
 31
0.0
  0
LINE
  5
85
330
75
100
AcDbEntity
  8
$DDT_AUDIT_GENERATED_(77)
  6
Continuous
 62
     7
100
AcDbLine
 10
143.9835170395
 20
324.5395154323
 30
0.0
 11
143.9834776076
 21
323.8695154335
 31
0.0
  0
ARC
  5
86
330
75
100
AcDbEntity
  8
$DDT_AUDIT_GENERATED_(77)
  6
Continuous
 62
     7
100
AcDbCircle
 10
142.60347761
 20
323.8695966514
 30
0.0
 40
1.379999999999971
100
AcDbArc
 50
269.9966279416
 51
359.9966279412
  0
LINE
  5
87
330
75
100
AcDbEntity
  8
$DDT_AUDIT_GENERATED_(77)
  6
Continuous
 62
     7
100
AcDbLine
 10
142.6033963921
 20
322.4895966538
 30
0.0
 11
141.9333963933
 21
322.4896360856
 31
0.0
  0
CIRCLE
  5
88
330
75
100
AcDbEntity
  8
$DDT_AUDIT_GENERATED_(77)
  6
Continuous
 62
     7
100
AcDbCircle
 10
144.5333640193
 20
321.9394830674
 30
0.0
 40
4.199999999999998
  0
ARC
  5
89
330
75
100
AcDbEntity
  8
$DDT_AUDIT_GENERATED_(77)
  6
Continuous
 62
     7
100
AcDbCircle
 10
66.4534777419
 20
323.8740783471
 30
0.0
 40
1.379999999999976
100
AcDbArc
 50
179.9966279416
 51
269.9966279416
  0
LINE
  5
8A
330
75
100
AcDbEntity
  8
$DDT_AUDIT_GENERATED_(77)
  6
Continuous
 62
     7
100
AcDbLine
 10
67.123331784
 20
321.3940389195
 30
0.0
 11
67.1233965229
 21
322.4940389176
 31
0.0
  0
LINE
  5
8B
330
75
100
AcDbEntity
  8
$DDT_AUDIT_GENERATED_(77)
  6
Continuous
 62
     7
100
AcDbLine
 10
67.1233965229
 20
322.4940389176
 30
0.0
 11
66.453396524
 21
322.4940783494
 31
0.0
  0
LINE
  5
8C
330
75
100
AcDbEntity
  8
$DDT_AUDIT_GENERATED_(77)
  6
Continuous
 62
     7
100
AcDbLine
 10
65.0734777443
 20
323.8741595649
 30
0.0
 11
65.0735171761
 21
324.5441595638
 31
0.0
  0
LINE
  5
8D
330
75
100
AcDbEntity
  8
$DDT_AUDIT_GENERATED_(77)
  6
Continuous
 62
     7
100
AcDbLine
 10
65.0735171761
 20
324.5441595638
 30
0.0
 11
63.973517178
 21
324.5442243026
 31
0.0
  0
LINE
  5
8E
330
75
100
AcDbEntity
  8
$DDT_AUDIT_GENERATED_(77)
  6
Continuous
 62
     7
100
AcDbLine
 10
63.973517178
 20
324.5442243026
 30
0.0
 11
63.9734777462
 21
323.8742243038
 31
0.0
  0
ARC
  5
8F
330
75
100
AcDbEntity
  8
$DDT_AUDIT_GENERATED_(77)
  6
Continuous
 62
     7
100
AcDbCircle
 10
62.5934777486
 20
323.8743055216
 30
0.0
 40
1.379999999999977
100
AcDbArc
 50
269.9966279416
 51
359.9966279412
  0
LINE
  5
90
330
75
100
AcDbEntity
  8
$DDT_AUDIT_GENERATED_(77)
  6
Continuous
 62
     7
100
AcDbLine
 10
62.5933965307
 20
322.494305524
 30
0.0
 11
61.9233965319
 21
322.4943449559
 31
0.0
  0
LINE
  5
91
330
75
100
AcDbEntity
  8
$DDT_AUDIT_GENERATED_(77)
  6
Continuous
 62
     7
100
AcDbLine
 10
61.9233965319
 20
322.4943449559
 30
0.0
 11
61.923331793
 21
321.3943449578
 31
0.0
  0
LINE
  5
92
330
75
100
AcDbEntity
  8
$DDT_AUDIT_GENERATED_(77)
  6
Continuous
 62
     7
100
AcDbLine
 10
61.923331793
 20
321.3943449578
 30
0.0
 11
62.5933317918
 21
321.3943055259
 31
0.0
  0
ARC
  5
93
330
75
100
AcDbEntity
  8
$DDT_AUDIT_GENERATED_(77)
  6
Continuous
 62
     7
100
AcDbCircle
 10
62.593250574
 20
320.0143055283
 30
0.0
 40
1.379999999999978
100
AcDbArc
 50
359.9966279416
 51
89.9966279412
  0
LINE
  5
94
330
75
100
AcDbEntity
  8
$DDT_AUDIT_GENERATED_(77)
  6
Continuous
 62
     7
100
AcDbLine
 10
63.9732505716
 20
320.0142243105
 30
0.0
 11
63.9732111397
 21
319.3442243116
 31
0.0
  0
LINE
  5
95
330
75
100
AcDbEntity
  8
$DDT_AUDIT_GENERATED_(77)
  6
Continuous
 62
     7
100
AcDbLine
 10
63.9732111397
 20
319.3442243116
 30
0.0
 11
65.0732111378
 21
319.3441595728
 31
0.0
  0
LINE
  5
96
330
75
100
AcDbEntity
  8
$DDT_AUDIT_GENERATED_(77)
  6
Continuous
 62
     7
100
AcDbLine
 10
65.0732111378
 20
319.3441595728
 30
0.0
 11
65.0732505697
 21
320.0141595716
 31
0.0
  0
ARC
  5
97
330
75
100
AcDbEntity
  8
$DDT_AUDIT_GENERATED_(77)
  6
Continuous
 62
     7
100
AcDbCircle
 10
66.4532505673
 20
320.0140783537
 30
0.0
 40
1.379999999999976
100
AcDbArc
 50
89.9966279416
 51
179.9966279412
  0
LINE
  5
98
330
75
100
AcDbEntity
  8
$DDT_AUDIT_GENERATED_(77)
  6
Continuous
 62
     7
100
AcDbLine
 10
66.4533317851
 20
321.3940783513
 30
0.0
 11
67.123331784
 21
321.3940389195
 31
0.0
  0
CIRCLE
  5
99
330
75
100
AcDbEntity
  8
$DDT_AUDIT_GENERATED_(77)
  6
Continuous
 62
     7
100
AcDbCircle
 10
64.5233641579
 20
321.9441919377
 30
0.0
 40
4.199999999999998
  0
ARC
  5
9B
330
75
100
AcDbEntity
  8
$DDT_AUDIT_GENERATED_(9A)
  6
Continuous
 62
     7
100
AcDbCircle
 10
104.5283640886
 20
321.9418375026
 30
0.0
 40
84.99999999999989
100
AcDbArc
 50
280.8138121449
 51
0.0
  0
ARC
  5
9C
330
75
100
AcDbEntity
  8
$DDT_AUDIT_GENERATED_(9A)
  6
Continuous
 62
     7
100
AcDbCircle
 10
104.5283640886
 20
321.9418375026
 30
0.0
 40
84.99999999999989
100
AcDbArc
 50
0.0
 51
259.167005949
  0
ARC
  5
9D
330
75
100
AcDbEntity
  8
$DDT_AUDIT_GENERATED_(9A)
  6
Continuous
 62
     7
100
AcDbCircle
 10
104.5283640886
 20
321.9418375026
 30
0.0
 40
27.75000000000002
100
AcDbArc
 50
317.7343896578
 51
0.0
  0
ARC
  5
9E
330
75
100
AcDbEntity
  8
$DDT_AUDIT_GENERATED_(9A)
  6
Continuous
 62
     7
100
AcDbCircle
 10
104.5283640886
 20
321.9418375026
 30
0.0
 40
27.75000000000002
100
AcDbArc
 50
0.0
 51
222.241348874
  0
ARC
  5
A0
330
75
100
AcDbEntity
  8
$DDT_AUDIT_GENERATED_(9F)
  6
Continuous
 62
     7
100
AcDbCircle
 10
104.5283640886
 20
321.9418375026
 30
0.0
 40
27.35
100
AcDbArc
 50
318.8255779401
 51
0.0
  0
ARC
  5
A1
330
75
100
AcDbEntity
  8
$DDT_AUDIT_GENERATED_(9F)
  6
Continuous
 62
     7
100
AcDbCircle
 10
104.5283640886
 20
321.9418375026
 30
0.0
 40
27.35
100
AcDbArc
 50
0.0
 51
221.3376490161
  0
LINE
  5
A3
330
75
100
AcDbEntity
  8
12030689_GROHE_A
  6
Continuous
 62
     7
100
AcDbLine
 10
105.5283640886
 20
349.2735498529
 30
0.0
 11
105.5283640886
 21
349.4418375026
 31
0.0
  0
LINE
  5
A4
330
75
100
AcDbEntity
  8
12030689_GROHE_A
  6
Continuous
 62
     7
100
AcDbLine
 10
103.5283640886
 20
349.4418375026
 30
0.0
 11
103.5283640886
 21
349.2735498529
 31
0.0
  0
LINE
  5
A5
330
75
100
AcDbEntity
  8
12030689_GROHE_A
  6
Continuous
 62
     7
100
AcDbLine
 10
105.5283640886
 20
349.4418375026
 30
0.0
 11
103.5283640886
 21
349.4418375026
 31
0.0
  0
SPLINE
  5
A7
330
75
100
AcDbEntity
  8
$DDT_AUDIT_GENERATED_(A6)
  6
Continuous
 62
     7
100
AcDbSpline
210
0.0
220
0.0
230
1.0
 70
     8
 71
     3
 72
     8
 73
     4
 74
     0
 42
0.000000000095427
 43
0.0000000001
 40
0.5388627730134222
 40
0.5388627730134222
 40
0.5388627730134222
 40
0.5388627730134222
 40
1.0
 40
1.0
 40
1.0
 40
1.0
 10
123.0414713184408
 20
272.3002488918841
 30
0.0
 10
124.0667067125858
 20
288.3754455246458
 30
0.0
 10
125.0945154066908
 20
304.4504739686768
 30
0.0
 10
126.1199829946955
 20
320.5256484564949
 30
0.0
  0
SPLINE
  5
A8
330
75
100
AcDbEntity
  8
$DDT_AUDIT_GENERATED_(A6)
  6
Continuous
 62
     7
100
AcDbSpline
210
0.0
220
0.0
230
1.0
 70
     8
 71
     3
 72
     8
 73
     4
 74
     0
 42
0.000000000095427
 43
0.0000000001
 40
0.5913633507679963
 40
0.5913633507679963
 40
0.5913633507679963
 40
0.5913633507679963
 40
1.0
 40
1.0
 40
1.0
 40
1.0
 10
85.6597974362826
 20
277.7929578073688
 30
0.0
 10
84.7524992829948
 20
292.0380662287738
 30
0.0
 10
83.84361976296321
 20
306.2830708572699
 30
0.0
 10
82.93657863672084
 20
320.5281899519266
 30
0.0
  0
ARC
  5
A9
330
75
100
AcDbEntity
  8
$DDT_AUDIT_GENERATED_(A6)
  6
Continuous
 62
     7
100
AcDbCircle
 10
-16.0548254148
 20
327.8344804876
 30
0.0
 40
142.3629047425717
100
AcDbArc
 50
356.4690981773
 51
357.0571655809
  0
ARC
  5
AA
330
75
100
AcDbEntity
  8
$DDT_AUDIT_GENERATED_(A6)
  6
Continuous
 62
     7
100
AcDbCircle
 10
225.1106884752
 20
327.8202078767
 30
0.0
 40
142.3613528540471
100
AcDbArc
 50
182.9360906333
 51
183.5191220404
  0
SPLINE
  5
AB
330
75
100
AcDbEntity
  8
$DDT_AUDIT_GENERATED_(A6)
  6
Continuous
 62
     7
100
AcDbSpline
210
0.0
220
0.0
230
1.0
 70
     8
 71
     3
 72
    24
 73
    20
 74
     0
 42
0.0000000001013534
 43
0.0000000001
 40
0.0
 40
0.0
 40
0.0
 40
0.0
 40
0.4999999999999993
 40
0.4999999999999993
 40
0.6249999999999991
 40
0.6249999999999991
 40
0.6874999999999994
 40
0.6874999999999994
 40
0.7499999999999997
 40
0.7499999999999997
 40
0.8124999999999999
 40
0.8124999999999999
 40
0.8750000000000001
 40
0.8750000000000001
 40
0.9062500000000001
 40
0.9062500000000001
 40
0.9375000000000001
 40
0.9375000000000001
 40
1.0
 40
1.0
 40
1.0
 40
1.0
 10
125.2903419707226
 20
320.3107687557505
 30
0.0
 10
124.172218660274
 20
303.9396092560298
 30
0.0
 10
122.9457234627409
 20
287.5718295507126
 30
0.0
 10
121.4090456179941
 20
267.112370615187
 30
0.0
 10
121.1015153763822
 20
263.0204933937929
 30
0.0
 10
120.6403786007405
 20
256.882665271205
 30
0.0
 10
120.4867029605617
 20
254.8367197524927
 30
0.0
 10
120.1785540813333
 20
250.7448894974835
 30
0.0
 10
120.0321105978378
 20
248.6959138484535
 30
0.0
 10
119.5287352027102
 20
244.6367383540173
 30
0.0
 10
119.1705051332405
 20
242.626515139055
 30
0.0
 10
117.8536790089945
 20
238.7147595379269
 30
0.0
 10
116.8819583767858
 20
236.8548755595984
 30
0.0
 10
114.843281900016
 20
234.5184393633619
 30
0.0
 10
114.0863701245434
 20
233.8294684235509
 30
0.0
 10
112.4216390577995
 20
232.6268227304131
 30
0.0
 10
111.5057869570865
 20
232.1133931053159
 30
0.0
 10
108.6698798256154
 20
230.9011183643273
 30
0.0
 10
106.6020185758402
 20
230.4939814237699
 30
0.0
 10
104.5229821207173
 20
230.4950091005096
 30
0.0
  0
SPLINE
  5
AC
330
75
100
AcDbEntity
  8
$DDT_AUDIT_GENERATED_(A6)
  6
Continuous
 62
     7
100
AcDbSpline
210
0.0
220
0.0
230
1.0
 70
     8
 71
     3
 72
    24
 73
    20
 74
     0
 42
0.0000000001013386
 43
0.0000000001
 40
0.0
 40
0.0
 40
0.0
 40
0.0
 40
0.0625000000000003
 40
0.0625000000000003
 40
0.1250000000000007
 40
0.1250000000000007
 40
0.1562500000000008
 40
0.1562500000000008
 40
0.187500000000001
 40
0.187500000000001
 40
0.2500000000000009
 40
0.2500000000000009
 40
0.3125000000000008
 40
0.3125000000000008
 40
0.3750000000000007
 40
0.3750000000000007
 40
0.5000000000000006
 40
0.5000000000000006
 40
1.0
 40
1.0
 40
1.0
 40
1.0
 10
104.5229821207173
 20
230.4950091005096
 30
0.0
 10
102.4327468880904
 20
230.4942219236222
 30
0.0
 10
100.3513335659479
 20
230.9056845855692
 30
0.0
 10
96.54236434444303
 20
232.5476341197876
 30
0.0
 10
94.81896972885437
 20
233.7953532007173
 30
0.0
 10
92.79707566299956
 20
236.1412187143675
 30
0.0
 10
92.20466753043523
 20
237.0138186011091
 30
0.0
 10
91.22284447649024
 20
238.8358813794692
 30
0.0
 10
90.82398318895596
 20
239.7961326819944
 30
0.0
 10
89.8448693759106
 20
242.761722305587
 30
0.0
 10
89.49656142604638
 20
244.7782885301355
 30
0.0
 10
89.00399469502422
 20
248.8379934952231
 30
0.0
 10
88.85967228904553
 20
250.8811276774883
 30
0.0
 10
88.5526357102752
 20
254.9650555888638
 30
0.0
 10
88.39950319853689
 20
257.0070703127578
 30
0.0
 10
87.93997513162407
 20
263.1330968285009
 30
0.0
 10
87.63352080496037
 20
267.2171066331486
 30
0.0
 10
86.10222943873997
 20
287.6372286475415
 30
0.0
 10
84.88003060703805
 20
303.9735371650392
 30
0.0
 10
83.66053335474388
 20
320.3100468908571
 30
0.0
  0
ARC
  5
AD
330
75
100
AcDbEntity
  8
$DDT_AUDIT_GENERATED_(A6)
  6
Continuous
 62
     7
100
AcDbCircle
 10
104.5283687783
 20
322.0215214245
 30
0.0
 40
20.93784521623763
100
AcDbArc
 50
355.3582376029
 51
184.6350182803
  0
SPLINE
  5
AE
330
75
100
AcDbEntity
  8
$DDT_AUDIT_GENERATED_(A6)
  6
Continuous
 62
     7
100
AcDbSpline
210
0.0
220
0.0
230
1.0
 70
     8
 71
     3
 72
    30
 73
    26
 74
     0
 42
0.0000000001761373
 43
0.0000000001
 40
0.0
 40
0.0
 40
0.0
 40
0.0
 40
0.0200582980791332
 40
0.0451347987269074
 40
0.0703838932918167
 40
0.0957192663598579
 40
0.1210182666121473
 40
0.1461775652914665
 40
0.1711157720183059
 40
0.1957750222556543
 40
0.2201274651570339
 40
0.2441888959133162
 40
0.2674569997788561
 40
0.2905150932265019
 40
0.3145264348349429
 40
0.3395814363753724
 40
0.3657422053614528
 40
0.3929695860063814
 40
0.4218066350256605
 40
0.4544213662127359
 40
0.4913170366404409
 40
0.5359301634387803
 40
0.6044127863725266
 40
0.7829730834176211
 40
1.0
 40
1.0
 40
1.0
 40
1.0
 10
104.5224428833427
 20
225.0778147860853
 30
0.0
 10
104.9397665240131
 20
225.0818783035313
 30
0.0
 10
105.7340226547874
 20
225.093658968573
 30
0.0
 10
107.0868678829122
 20
225.2540647394135
 30
0.0
 10
108.4834315175394
 20
225.5333714974475
 30
0.0
 10
109.8655512889695
 20
225.9354394759318
 30
0.0
 10
111.2039750223219
 20
226.4523656762666
 30
0.0
 10
112.4868105698039
 20
227.0798905834581
 30
0.0
 10
113.6992723736312
 20
227.8109587512366
 30
0.0
 10
114.8298066099264
 20
228.6378809875812
 30
0.0
 10
115.8681833486706
 20
229.5529301686019
 30
0.0
 10
116.8012498731484
 20
230.5395459402521
 30
0.0
 10
117.6183298386364
 20
231.5932478630993
 30
0.0
 10
118.337338488626
 20
232.7145464922942
 30
0.0
 10
118.9761920067559
 20
233.9216764959516
 30
0.0
 10
119.5401592641195
 20
235.2296000365522
 30
0.0
 10
120.0234386371957
 20
236.6339414034594
 30
0.0
 10
120.4204239891887
 20
238.1389319493212
 30
0.0
 10
120.7502683539354
 20
239.7843943518463
 30
0.0
 10
121.0177282100551
 20
241.6261602715835
 30
0.0
 10
121.2340083705899
 20
243.7741188937557
 30
0.0
 10
121.4385474980817
 20
246.6055340218357
 30
0.0
 10
121.8289254396207
 20
252.0929598332857
 30
0.0
 10
122.3864423171888
 20
261.029204253574
 30
0.0
 10
122.8049899413561
 20
267.9268905220975
 30
0.0
 10
123.0736525587868
 20
272.4344645997475
 30
0.0
  0
SPLINE
  5
AF
330
75
100
AcDbEntity
  8
$DDT_AUDIT_GENERATED_(A6)
  6
Continuous
 62
     7
100
AcDbSpline
210
0.0
220
0.0
230
1.0
 70
     8
 71
     3
 72
    30
 73
    26
 74
     0
 42
0.0000000001609245
 43
0.0000000001
 40
0.0
 40
0.0
 40
0.0
 40
0.0
 40
0.2377547334865561
 40
0.4208568029626403
 40
0.5295543532520252
 40
0.5687529952971218
 40
0.6014124350160039
 40
0.630449202119275
 40
0.6563091000702004
 40
0.6802953981288055
 40
0.7058213196220637
 40
0.7301406616464684
 40
0.753280849199237
 40
0.7753902446684375
 40
0.796564528456102
 40
0.8176397560578466
 40
0.8394649391061828
 40
0.8616238295623877
 40
0.8841098314002397
 40
0.9068858904701675
 40
0.9298917862133522
 40
0.9530495008225145
 40
0.9762709115551381
 40
0.9994378176580466
 40
1.0
 40
1.0
 40
1.0
 40
1.0
 10
85.63838677277627
 20
277.7914874493099
 30
0.0
 10
85.96856472961483
 20
272.3869844331337
 30
0.0
 10
86.46492536735627
 20
264.3598756652855
 30
0.0
 10
87.14824379562367
 20
253.2139450680074
 30
0.0
 10
87.61123639971925
 20
246.4032412169927
 30
0.0
 10
87.91171633659344
 20
242.6749762844452
 30
0.0
 10
88.16588618414545
 20
240.6010731346412
 30
0.0
 10
88.47853121711947
 20
238.8145601064368
 30
0.0
 10
88.85466791468671
 20
237.2241709655817
 30
0.0
 10
89.31861133447416
 20
235.7328812784214
 30
0.0
 10
89.88601729293916
 20
234.3115520711095
 30
0.0
 10
90.56544709791537
 20
232.9596745001016
 30
0.0
 10
91.32702269254581
 20
231.7347746382217
 30
0.0
 10
92.1614481491431
 20
230.6388597611509
 30
0.0
 10
93.07008796556732
 20
229.6616728524592
 30
0.0
 10
94.0559017976956
 20
228.7716097856521
 30
0.0
 10
95.13197965788761
 20
227.958575632925
 30
0.0
 10
96.29921390141286
 20
227.2263655428104
 30
0.0
 10
97.54239522520793
 20
226.5880790794156
 30
0.0
 10
98.85194760067613
 20
226.0509960538878
 30
0.0
 10
100.2143061105084
 20
225.6236575500403
 30
0.0
 10
101.6218459534714
 20
225.307632864538
 30
0.0
 10
103.0363695215376
 20
225.1260649669644
 30
0.0
 10
104.0440198115781
 20
225.0509286137815
 30
0.0
 10
104.509873803984
 20
225.0694745399953
 30
0.0
 10
104.5226666290856
 20
225.0699857050298
 30
0.0
  0
ARC
  5
B0
330
75
100
AcDbEntity
  8
$DDT_AUDIT_GENERATED_(A6)
  6
Continuous
 62
     7
100
AcDbCircle
 10
104.5283687783
 20
322.0215214245
 30
0.0
 40
26.94418376142155
100
AcDbArc
 50
0.0
 51
220.1438685499
  0
ARC
  5
B1
330
75
100
AcDbEntity
  8
$DDT_AUDIT_GENERATED_(A6)
  6
Continuous
 62
     7
100
AcDbCircle
 10
104.5283687783
 20
322.0215214245
 30
0.0
 40
26.94418376142155
100
AcDbArc
 50
319.8772875887
 51
0.0
  0
ARC
  5
B3
330
75
100
AcDbEntity
  8
$DDT_AUDIT_GENERATED_(B2)
  6
Continuous
 62
     7
100
AcDbCircle
 10
104.5283640886
 20
321.9418375026
 30
0.0
 40
27.5
100
AcDbArc
 50
0.0
 51
87.9160576654
  0
ARC
  5
B4
330
75
100
AcDbEntity
  8
$DDT_AUDIT_GENERATED_(B2)
  6
Continuous
 62
     7
100
AcDbCircle
 10
104.5283640886
 20
321.9418375026
 30
0.0
 40
27.5
100
AcDbArc
 50
92.0839423346
 51
221.65630194
  0
ARC
  5
B5
330
75
100
AcDbEntity
  8
$DDT_AUDIT_GENERATED_(B2)
  6
Continuous
 62
     7
100
AcDbCircle
 10
104.5283640886
 20
321.9418375026
 30
0.0
 40
27.5
100
AcDbArc
 50
318.3393373507
 51
0.0
  0
ENDBLK
  5
B7
330
75
100
AcDbEntity
  8
0
100
AcDbBlockEnd
  0
BLOCK
  5
DB
330
B8
100
AcDbEntity
  8
0
100
AcDbBlockBegin
  2
SE1
 70
     0
 10
0.0
 20
0.0
 30
0.0
  3
SE1
  1

  0
LINE
  5
BA
330
B8
100
AcDbEntity
  8
$DDT_AUDIT_GENERATED_(9A)
  6
Continuous
 62
     7
100
AcDbLine
 10
189.5283640886
 20
150.0920180458
 30
0.0
 11
19.5283640886
 21
150.0920180458
 31
0.0
  0
LINE
  5
BB
330
B8
100
AcDbEntity
  8
$DDT_AUDIT_GENERATED_(9A)
  6
Continuous
 62
     7
100
AcDbLine
 10
21.0541648004
 20
141.6585992384
 30
0.0
 11
188.0025633769
 21
141.6585992384
 31
0.0
  0
LINE
  5
BC
330
B8
100
AcDbEntity
  8
$DDT_AUDIT_GENERATED_(9A)
  6
Continuous
 62
     7
100
AcDbLine
 10
151.2525926298
 20
140.3285517725
 30
0.0
 11
137.5675683711
 21
140.0252627627
 31
0.0
  0
LINE
  5
BD
330
B8
100
AcDbEntity
  8
$DDT_AUDIT_GENERATED_(9A)
  6
Continuous
 62
     7
100
AcDbLine
 10
71.4891595189
 20
140.0252627722
 30
0.0
 11
57.80413526
 21
140.328551782
 31
0.0
  0
ARC
  5
BE
330
B8
100
AcDbEntity
  8
$DDT_AUDIT_GENERATED_(9A)
  6
Continuous
 62
     7
100
AcDbCircle
 10
104.5283640886
 20
1939.7220180458
 30
0.0
 40
1800.0
100
AcDbArc
 50
271.486745344
 51
272.6580195912
  0
ARC
  5
BF
330
B8
100
AcDbEntity
  8
$DDT_AUDIT_GENERATED_(9A)
  6
Continuous
 62
     7
100
AcDbCircle
 10
104.5283640886
 20
1939.7220180458
 30
0.0
 40
1800.0
100
AcDbArc
 50
270.9480685358
 51
271.0517335928
  0
ARC
  5
C0
330
B8
100
AcDbEntity
  8
$DDT_AUDIT_GENERATED_(9A)
  6
Continuous
 62
     7
100
AcDbCircle
 10
104.5283640886
 20
1939.7220180458
 30
0.0
 40
1800.0
100
AcDbArc
 50
268.9475725839
 51
269.0519314642
  0
ARC
  5
C1
330
B8
100
AcDbEntity
  8
$DDT_AUDIT_GENERATED_(9A)
  6
Continuous
 62
     7
100
AcDbCircle
 10
104.5283640886
 20
1939.7220180458
 30
0.0
 40
1800.0
100
AcDbArc
 50
267.3419804088
 51
268.5125642523
  0
ARC
  5
C2
330
B8
100
AcDbEntity
  8
$DDT_AUDIT_GENERATED_(9A)
  6
Continuous
 62
     7
100
AcDbCircle
 10
21.1283640886
 20
143.2568778329
 30
0.0
 40
1.599999999999977
100
AcDbArc
 50
180.0
 51
267.3419804089
  0
ARC
  5
C3
330
B8
100
AcDbEntity
  8
$DDT_AUDIT_GENERATED_(9A)
  6
Continuous
 62
     7
100
AcDbCircle
 10
187.9283640886
 20
143.2568778329
 30
0.0
 40
1.60000000000013
100
AcDbArc
 50
272.6580195911
 51
0.0
  0
LINE
  5
C4
330
B8
100
AcDbEntity
  8
$DDT_AUDIT_GENERATED_(9A)
  6
Continuous
 62
     7
100
AcDbLine
 10
189.5283640886
 20
143.2568778329
 30
0.0
 11
189.5283640886
 21
150.0920180458
 31
0.0
  0
LINE
  5
C5
330
B8
100
AcDbEntity
  8
$DDT_AUDIT_GENERATED_(9A)
  6
Continuous
 62
     7
100
AcDbLine
 10
19.5283640886
 20
150.0920180458
 30
0.0
 11
19.5283640886
 21
143.2568778329
 31
0.0
  0
LINE
  5
C6
330
B8
100
AcDbEntity
  8
$DDT_AUDIT_GENERATED_(9A)
  6
Continuous
 62
     7
100
AcDbLine
 10
74.7783640886
 20
139.9681590595
 30
0.0
 11
134.2783640886
 21
139.9681590595
 31
0.0
  0
LINE
  5
C7
330
B8
100
AcDbEntity
  8
$DDT_AUDIT_GENERATED_(9F)
  6
Continuous
 62
     7
100
AcDbLine
 10
78.8750567038
 20
115.5906993767
 30
0.0
 11
130.1816714735
 21
115.5906993767
 31
0.0
  0
ARC
  5
C8
330
B8
100
AcDbEntity
  8
$DDT_AUDIT_GENERATED_(9F)
  6
Continuous
 62
     7
100
AcDbCircle
 10
104.5283640886
 20
123.3920180458
 30
0.0
 40
26.30000000000001
100
AcDbArc
 50
335.7532741542
 51
341.4976728641
  0
ARC
  5
C9
330
B8
100
AcDbEntity
  8
$DDT_AUDIT_GENERATED_(9F)
  6
Continuous
 62
     7
100
AcDbCircle
 10
104.5283640886
 20
123.3920180458
 30
0.0
 40
26.30000000000001
100
AcDbArc
 50
198.5023271359
 51
204.2467258458
  0
LINE
  5
CA
330
B8
100
AcDbEntity
  8
$DDT_AUDIT_GENERATED_(9F)
  6
Continuous
 62
     7
100
AcDbLine
 10
77.1783640886
 20
139.9681590595
 30
0.0
 11
77.1783640886
 21
117.3877323716
 31
0.0
  0
LINE
  5
CB
330
B8
100
AcDbEntity
  8
$DDT_AUDIT_GENERATED_(9F)
  6
Continuous
 62
     7
100
AcDbLine
 10
131.8783640886
 20
117.3877323716
 30
0.0
 11
131.8783640886
 21
139.9681590595
 31
0.0
  0
ARC
  5
CC
330
B8
100
AcDbEntity
  8
$DDT_AUDIT_GENERATED_(9F)
  6
Continuous
 62
     7
100
AcDbCircle
 10
78.8291423105
 20
114.7920180458
 30
0.0
 40
0.7999999999757692
100
AcDbArc
 50
18.5023271359
 51
86.7098158035
  0
ARC
  5
CD
330
B8
100
AcDbEntity
  8
$DDT_AUDIT_GENERATED_(9F)
  6
Continuous
 62
     7
100
AcDbCircle
 10
130.2275858667
 20
114.7920180458
 30
0.0
 40
0.7999999999999953
100
AcDbArc
 50
93.2901841965
 51
161.4976728641
  0
ARC
  5
CE
330
B8
100
AcDbEntity
  8
$DDT_AUDIT_GENERATED_(9F)
  6
Continuous
 62
     7
100
AcDbCircle
 10
130.0783640886
 20
117.3877323716
 30
0.0
 40
1.800000000024238
100
AcDbArc
 50
273.2901841529
 51
0.0
  0
ARC
  5
CF
330
B8
100
AcDbEntity
  8
$DDT_AUDIT_GENERATED_(9F)
  6
Continuous
 62
     7
100
AcDbCircle
 10
78.9783640886
 20
117.3877323716
 30
0.0
 40
1.799999999999996
100
AcDbArc
 50
180.0
 51
266.7098158471
  0
LINE
  5
D0
330
B8
100
AcDbEntity
  8
12030689_GROHE_A
  6
Continuous
 62
     7
100
AcDbLine
 10
105.5283640886
 20
139.9681590595
 30
0.0
 11
105.5283640886
 21
139.8081598789
 31
0.0
  0
LINE
  5
D1
330
B8
100
AcDbEntity
  8
12030689_GROHE_A
  6
Continuous
 62
     7
100
AcDbLine
 10
103.5283640886
 20
139.9681590595
 30
0.0
 11
103.5283640886
 21
139.8081598789
 31
0.0
  0
LINE
  5
D2
330
B8
100
AcDbEntity
  8
12030689_GROHE_A
  6
Continuous
 62
     7
100
AcDbLine
 10
105.5283640886
 20
139.8081598789
 30
0.0
 11
103.5283640886
 21
139.8081598789
 31
0.0
  0
LINE
  5
D3
330
B8
100
AcDbEntity
  8
$DDT_AUDIT_GENERATED_(A6)
  6
Continuous
 62
     7
100
AcDbLine
 10
131.1725525397
 20
112.5914825337
 30
0.0
 11
77.8841850169
 21
112.5914825337
 31
0.0
  0
LINE
  5
D4
330
B8
100
AcDbEntity
  8
$DDT_AUDIT_GENERATED_(A6)
  6
Continuous
 62
     7
100
AcDbLine
 10
124.9734055392
 20
76.8201246845
 30
0.0
 11
84.0833320175
 21
76.8201246845
 31
0.0
  0
ARC
  5
D5
330
B8
100
AcDbEntity
  8
$DDT_AUDIT_GENERATED_(A6)
  6
Continuous
 62
     7
100
AcDbCircle
 10
77.8841850169
 20
112.2914825337
 30
0.0
 40
0.2999999999999947
100
AcDbArc
 50
90.0
 51
189.7293905463
  0
ARC
  5
D6
330
B8
100
AcDbEntity
  8
$DDT_AUDIT_GENERATED_(A6)
  6
Continuous
 62
     7
100
AcDbCircle
 10
131.1725525397
 20
112.2914825337
 30
0.0
 40
0.3000000000000067
100
AcDbArc
 50
350.2706094537
 51
90.0
  0
ARC
  5
D7
330
B8
100
AcDbEntity
  8
$DDT_AUDIT_GENERATED_(A6)
  6
Continuous
 62
     7
100
AcDbCircle
 10
124.9734055392
 20
77.3201246845
 30
0.0
 40
0.5000000000000004
100
AcDbArc
 50
270.0
 51
349.9893961744
  0
ARC
  5
D8
330
B8
100
AcDbEntity
  8
$DDT_AUDIT_GENERATED_(A6)
  6
Continuous
 62
     7
100
AcDbCircle
 10
84.0833320175
 20
77.3201246845
 30
0.0
 40
0.5000000000000008
100
AcDbArc
 50
190.7711605011
 51
270.0
  0
LINE
  5
D9
330
B8
100
AcDbEntity
  8
$DDT_AUDIT_GENERATED_(A6)
  6
Continuous
 62
     7
100
AcDbLine
 10
77.5884999437
 20
112.240784038
 30
0.0
 11
83.5916674799
 21
77.2289556045
 31
0.0
  0
LINE
  5
DA
330
B8
100
AcDbEntity
  8
$DDT_AUDIT_GENERATED_(A6)
  6
Continuous
 62
     7
100
AcDbLine
 10
125.4657998122
 20
77.2332115866
 30
0.0
 11
131.468237613
 21
112.240784038
 31
0.0
  0
ENDBLK
  5
DC
330
B8
100
AcDbEntity
  8
0
100
AcDbBlockEnd
  0
BLOCK
  5
117
330
DD
100
AcDbEntity
  8
0
100
AcDbBlockBegin
  2
SE2
 70
     0
 10
0.0
 20
0.0
 30
0.0
  3
SE2
  1

  0
ELLIPSE
  5
E0
330
DD
100
AcDbEntity
  8
$DDT_AUDIT_GENERATED_(DF)
  6
Continuous
 62
     7
100
AcDbEllipse
 10
333.9020707594
 20
297.5733181624
 30
0.0
 11
-3.725939276582865
 21
-0.09756715377254337
 31
0.0
210
0.0
220
0.0
230
1.0
 40
0.0000528791
 41
2.365409154834104
 42
3.949094232788197
  0
LINE
  5
E1
330
DD
100
AcDbEntity
  8
$DDT_AUDIT_GENERATED_(DF)
  6
Continuous
 62
     7
100
AcDbLine
 10
337.6280100349
 20
297.6708853111
 30
0.0
 11
337.8587042881
 21
298.1770976481
 31
0.0
  0
LINE
  5
E2
330
DD
100
AcDbEntity
  8
$DDT_AUDIT_GENERATED_(9A)
  6
Continuous
 62
     7
100
AcDbLine
 10
284.3429318444
 20
236.9949718839
 30
0.0
 11
284.3429318444
 21
406.9418375026
 31
0.0
  0
LINE
  5
E3
330
DD
100
AcDbEntity
  8
$DDT_AUDIT_GENERATED_(9A)
  6
Continuous
 62
     7
100
AcDbLine
 10
292.7763506518
 20
405.4160367908
 30
0.0
 11
292.7763506518
 21
238.4676382143
 31
0.0
  0
ARC
  5
E4
330
DD
100
AcDbEntity
  8
$DDT_AUDIT_GENERATED_(9A)
  6
Continuous
 62
     7
100
AcDbCircle
 10
284.3479996675
 20
151.9986986818
 30
0.0
 40
84.99592023204362
100
AcDbArc
 50
87.9806976368
 51
90.0034162213
  0
SPLINE
  5
E5
330
DD
100
AcDbEntity
  8
$DDT_AUDIT_GENERATED_(9A)
  6
Continuous
 62
     7
100
AcDbSpline
210
0.0
220
0.0
230
1.0
 70
     8
 71
     3
 72
    12
 73
     8
 74
     0
 42
0.0000000002940697
 43
0.0000000001
 40
0.0
 40
0.0
 40
0.0
 40
0.0
 40
0.0624999999999999
 40
0.0624999999999999
 40
0.1249999999999998
 40
0.1249999999999998
 40
0.1838356372572708
 40
0.1838356372572708
 40
0.1838356372572708
 40
0.1838356372572708
 10
294.1063981082228
 20
321.9445873879765
 30
0.0
 10
294.1063981082228
 20
322.8486943179892
 30
0.0
 10
294.1103455168661
 20
323.7358536056212
 30
0.0
 10
294.1255766276321
 20
325.3929005888557
 30
0.0
 10
294.1368481393633
 20
326.1517685408872
 30
0.0
 10
294.1640176429667
 20
327.3766698066473
 30
0.0
 10
294.1797627384055
 20
327.8549103365528
 30
0.0
 10
294.1968639327201
 20
328.1948659863193
 30
0.0
  0
SPLINE
  5
E6
330
DD
100
AcDbEntity
  8
$DDT_AUDIT_GENERATED_(9A)
  6
Continuous
 62
     7
100
AcDbSpline
210
0.0
220
0.0
230
1.0
 70
     8
 71
     3
 72
    18
 73
    14
 74
     0
 42
0.0000000002990204
 43
0.0000000001
 40
0.3182286678866887
 40
0.3182286678866887
 40
0.3182286678866887
 40
0.3182286678866887
 40
0.3749999999999997
 40
0.3749999999999997
 40
0.4374999999999998
 40
0.4374999999999998
 40
0.5
 40
0.5
 40
0.6250000000000002
 40
0.6250000000000002
 40
0.6875000000000003
 40
0.6875000000000003
 40
0.6981355393556338
 40
0.6981355393556338
 40
0.6981355393556338
 40
0.6981355393556338
 10
294.3209829120252
 20
328.1680348470401
 30
0.0
 10
294.3373761124942
 20
327.8307557586425
 30
0.0
 10
294.3523465612293
 20
327.3638152311501
 30
0.0
 10
294.3793706805757
 20
326.1460621141973
 30
0.0
 10
294.3905065884609
 20
325.3930020226192
 30
0.0
 10
294.4057453170028
 20
323.7346878869299
 30
0.0
 10
294.4096801006124
 20
322.8393007236842
 30
0.0
 10
294.4097011528673
 20
320.160020056071
 30
0.0
 10
294.3933062328506
 20
318.3732913608988
 30
0.0
 10
294.3513993284096
 20
316.4795189697689
 30
0.0
 10
294.3345649421316
 20
315.970218457495
 30
0.0
 10
294.3131137930053
 20
315.5682236558699
 30
0.0
 10
294.3099547211411
 20
315.5145307253075
 30
0.0
 10
294.3067613374375
 20
315.4656703961858
 30
0.0
  0
SPLINE
  5
E7
330
DD
100
AcDbEntity
  8
$DDT_AUDIT_GENERATED_(9A)
  6
Continuous
 62
     7
100
AcDbSpline
210
0.0
220
0.0
230
1.0
 70
     8
 71
     3
 72
    10
 73
     6
 74
     0
 42
0.000000000298504
 43
0.0000000001
 40
0.8104507478688603
 40
0.8104507478688603
 40
0.8104507478688603
 40
0.8104507478688603
 40
0.8750000000000002
 40
0.8750000000000002
 40
1.0
 40
1.0
 40
1.0
 40
1.0
 10
294.20188636935
 20
315.5959878848108
 30
0.0
 10
294.1828658524358
 20
315.9388031369187
 30
0.0
 10
294.1653936167661
 20
316.4510776243941
 30
0.0
 10
294.1228877609373
 20
318.3649295457403
 30
0.0
 10
294.1063981082228
 20
320.1363735279512
 30
0.0
 10
294.1063981082228
 20
321.9445873879765
 30
0.0
  0
ARC
  5
E8
330
DD
100
AcDbEntity
  8
$DDT_AUDIT_GENERATED_(9A)
  6
Continuous
 62
     7
100
AcDbCircle
 10
-1505.2870681556
 20
321.9418375026
 30
0.0
 40
1800.0
100
AcDbArc
 50
0.9480685358
 51
2.6580195912
  0
ARC
  5
E9
330
DD
100
AcDbEntity
  8
$DDT_AUDIT_GENERATED_(9A)
  6
Continuous
 62
     7
100
AcDbCircle
 10
-1505.2870681556
 20
321.9418375026
 30
0.0
 40
1800.0
100
AcDbArc
 50
357.3419804088
 51
359.0519314642
  0
ARC
  5
EA
330
DD
100
AcDbEntity
  8
$DDT_AUDIT_GENERATED_(9A)
  6
Continuous
 62
     7
100
AcDbCircle
 10
291.1780720573
 20
238.5418375026
 30
0.0
 40
1.599999999999977
100
AcDbArc
 50
270.0
 51
357.3419804089
  0
ARC
  5
EB
330
DD
100
AcDbEntity
  8
$DDT_AUDIT_GENERATED_(9A)
  6
Continuous
 62
     7
100
AcDbCircle
 10
291.1780720573
 20
405.3418375026
 30
0.0
 40
1.60000000000013
100
AcDbArc
 50
2.6580195911
 51
90.0
  0
LINE
  5
EC
330
DD
100
AcDbEntity
  8
$DDT_AUDIT_GENERATED_(9A)
  6
Continuous
 62
     7
100
AcDbLine
 10
291.1780720573
 20
406.9418375026
 30
0.0
 11
284.3429318444
 21
406.9418375026
 31
0.0
  0
LINE
  5
ED
330
DD
100
AcDbEntity
  8
$DDT_AUDIT_GENERATED_(9A)
  6
Continuous
 62
     7
100
AcDbLine
 10
287.3334783231
 20
236.9418375026
 30
0.0
 11
291.1780720573
 21
236.9418375026
 31
0.0
  0
SPLINE
  5
EE
330
DD
100
AcDbEntity
  8
$DDT_AUDIT_GENERATED_(9A)
  6
Continuous
 62
     7
100
AcDbSpline
210
0.0
220
0.0
230
1.0
 70
     8
 71
     3
 72
    11
 73
     7
 74
     0
 42
0.0000000169960518
 43
0.0000000001
 40
0.5189509101116808
 40
0.5189509101116808
 40
0.5189509101116808
 40
0.5189509101116808
 40
0.547863431590611
 40
0.6775979857467406
 40
0.8428472355450338
 40
1.0
 40
1.0
 40
1.0
 40
1.0
 10
294.2203575764631
 20
315.4006125261164
 30
0.0
 10
294.2203539039414
 20
315.4006207491968
 30
0.0
 10
294.2199544644662
 20
315.4035327343298
 30
0.0
 10
294.2163666634827
 20
315.43662703436
 30
0.0
 10
294.2086724287561
 20
315.531317283722
 30
0.0
 10
294.203230126769
 20
315.6265235665327
 30
0.0
 10
294.20001297849
 20
315.6828670648579
 30
0.0
  0
SPLINE
  5
EF
330
DD
100
AcDbEntity
  8
$DDT_AUDIT_GENERATED_(9A)
  6
Continuous
 62
     7
100
AcDbSpline
210
0.0
220
0.0
230
1.0
 70
     8
 71
     3
 72
    11
 73
     7
 74
     0
 42
0.0000000139122522
 43
0.0000000001
 40
0.0
 40
0.0
 40
0.0
 40
0.0
 40
0.105875600832877
 40
0.288832940406128
 40
0.4412424693977125
 40
0.5215496113571625
 40
0.5215496113571625
 40
0.5215496113571625
 40
0.5215496113571625
 10
294.1954281836331
 20
328.1136638568119
 30
0.0
 10
294.197778954515
 20
328.1626695498583
 30
0.0
 10
294.2031761197474
 20
328.2747726916572
 30
0.0
 10
294.2120121984165
 20
328.4012287564721
 30
0.0
 10
294.2186045134804
 20
328.4741899614598
 30
0.0
 10
294.2203393460303
 20
328.4875521250599
 30
0.0
 10
294.2203193876821
 20
328.4874613487845
 30
0.0
  0
LINE
  5
F0
330
DD
100
AcDbEntity
  8
$DDT_AUDIT_GENERATED_(9A)
  6
Continuous
 62
     7
100
AcDbLine
 10
294.4667908307
 20
292.1918375026
 30
0.0
 11
294.4667908307
 21
351.6918375026
 31
0.0
  0
ARC
  5
F1
330
DD
100
AcDbEntity
  8
$DDT_AUDIT_GENERATED_(9F)
  6
Continuous
 62
     7
100
AcDbCircle
 10
312.3429302575
 20
267.339599238
 30
0.0
 40
27.32552822735014
100
AcDbArc
 50
85.8026738848
 51
94.1973208741
  0
LINE
  5
F2
330
DD
100
AcDbEntity
  8
$DDT_AUDIT_GENERATED_(9F)
  6
Continuous
 62
     7
100
AcDbLine
 10
318.8442505135
 20
347.5951448874
 30
0.0
 11
318.8442505135
 21
296.2885301177
 31
0.0
  0
ARC
  5
F3
330
DD
100
AcDbEntity
  8
$DDT_AUDIT_GENERATED_(9F)
  6
Continuous
 62
     7
100
AcDbCircle
 10
311.0429318444
 20
321.9418375026
 30
0.0
 40
26.3
100
AcDbArc
 50
65.7532741542
 51
71.4976728641
  0
ARC
  5
F4
330
DD
100
AcDbEntity
  8
$DDT_AUDIT_GENERATED_(9F)
  6
Continuous
 62
     7
100
AcDbCircle
 10
311.0429318444
 20
321.9418375026
 30
0.0
 40
26.30000000000001
100
AcDbArc
 50
288.5023271359
 51
294.2467258458
  0
LINE
  5
F5
330
DD
100
AcDbEntity
  8
$DDT_AUDIT_GENERATED_(9F)
  6
Continuous
 62
     7
100
AcDbLine
 10
314.3404024492
 20
294.5918375026
 30
0.0
 11
317.0472175187
 21
294.5918375026
 31
0.0
  0
LINE
  5
F6
330
DD
100
AcDbEntity
  8
$DDT_AUDIT_GENERATED_(9F)
  6
Continuous
 62
     7
100
AcDbLine
 10
294.4667908307
 20
294.5918375026
 30
0.0
 11
310.3683118073
 21
294.5918375026
 31
0.0
  0
LINE
  5
F7
330
DD
100
AcDbEntity
  8
$DDT_AUDIT_GENERATED_(9F)
  6
Continuous
 62
     7
100
AcDbLine
 10
317.0472175187
 20
349.2918375026
 30
0.0
 11
294.6267900113
 21
349.2918375026
 31
0.0
  0
ARC
  5
F8
330
DD
100
AcDbEntity
  8
$DDT_AUDIT_GENERATED_(9F)
  6
Continuous
 62
     7
100
AcDbCircle
 10
319.6429318444
 20
296.2426157245
 30
0.0
 40
0.7999999999757548
100
AcDbArc
 50
108.5023271359
 51
176.7098158035
  0
ARC
  5
F9
330
DD
100
AcDbEntity
  8
$DDT_AUDIT_GENERATED_(9F)
  6
Continuous
 62
     7
100
AcDbCircle
 10
319.6429318444
 20
347.6410592807
 30
0.0
 40
0.7999999999999919
100
AcDbArc
 50
183.2901841965
 51
251.4976728641
  0
ARC
  5
FA
330
DD
100
AcDbEntity
  8
$DDT_AUDIT_GENERATED_(9F)
  6
Continuous
 62
     7
100
AcDbCircle
 10
317.0472175187
 20
347.4918375026
 30
0.0
 40
1.800000000024252
100
AcDbArc
 50
3.2901841529
 51
90.0
  0
ARC
  5
FB
330
DD
100
AcDbEntity
  8
$DDT_AUDIT_GENERATED_(9F)
  6
Continuous
 62
     7
100
AcDbCircle
 10
317.0472175187
 20
296.3918375026
 30
0.0
 40
1.799999999999996
100
AcDbArc
 50
270.0
 51
356.7098158471
  0
LINE
  5
FC
330
DD
100
AcDbEntity
  8
12030689_GROHE_A
  6
Continuous
 62
     7
100
AcDbLine
 10
294.4667908307
 20
349.4418375026
 30
0.0
 11
294.6267900113
 21
349.4418375026
 31
0.0
  0
LINE
  5
FD
330
DD
100
AcDbEntity
  8
$DDT_AUDIT_GENERATED_(A6)
  6
Continuous
 62
     7
100
AcDbLine
 10
353.3362068417
 20
225.2528653202
 30
0.0
 11
354.5066419954
 21
226.7242635986
 31
0.0
  0
LINE
  5
FE
330
DD
100
AcDbEntity
  8
$DDT_AUDIT_GENERATED_(A6)
  6
Continuous
 62
     7
100
AcDbLine
 10
354.6056576062
 20
226.848739866
 30
0.0
 11
357.5061107024
 21
230.4950091005
 31
0.0
  0
LINE
  5
FF
330
DD
100
AcDbEntity
  8
$DDT_AUDIT_GENERATED_(A6)
  6
Continuous
 62
     7
100
AcDbLine
 10
352.4449495306
 20
225.5715850078
 30
0.0
 11
352.444918707
 21
225.5691148644
 31
0.0
  0
ARC
  5
100
330
DD
100
AcDbEntity
  8
$DDT_AUDIT_GENERATED_(A6)
  6
Continuous
 62
     7
100
AcDbCircle
 10
352.9448936698
 20
225.5641112063
 30
0.0
 40
0.5000000000769153
100
AcDbArc
 50
179.4266134449
 51
321.5016739225
  0
ARC
  5
101
330
DD
100
AcDbEntity
  8
$DDT_AUDIT_GENERATED_(A6)
  6
Continuous
 62
     7
100
AcDbCircle
 10
6064.6463463111
 20
287.9620689418
 30
0.0
 40
5711.654397232463
100
AcDbArc
 50
179.6733150731
 51
180.6290725317
  0
ARC
  5
102
330
DD
100
AcDbEntity
  8
$DDT_AUDIT_GENERATED_(A6)
  6
Continuous
 62
     7
100
AcDbCircle
 10
381.6935503765
 20
304.2806705922
 30
0.0
 40
32.90618447944132
100
AcDbArc
 50
150.3830929481
 51
173.3043400071
  0
ARC
  5
103
330
DD
100
AcDbEntity
  8
$DDT_AUDIT_GENERATED_(A6)
  6
Continuous
 62
     7
100
AcDbCircle
 10
14064.1198540651
 20
256.5459197313
 30
0.0
 40
13711.70988961821
100
AcDbArc
 50
179.7922841902
 51
180.1294295297
  0
ARC
  5
104
330
DD
100
AcDbEntity
  8
$DDT_AUDIT_GENERATED_(A6)
  6
Continuous
 62
     7
100
AcDbCircle
 10
350.4581270815
 20
296.8840443152
 30
0.0
 40
3.000000006216095
100
AcDbArc
 50
46.4480273808
 51
99.7293905965
  0
LINE
  5
105
330
DD
100
AcDbEntity
  8
$DDT_AUDIT_GENERATED_(A6)
  6
Continuous
 62
     7
100
AcDbLine
 10
321.8434673565
 20
295.3773376631
 30
0.0
 11
321.8434673565
 21
348.6657051859
 31
0.0
  0
LINE
  5
106
330
DD
100
AcDbEntity
  8
$DDT_AUDIT_GENERATED_(A6)
  6
Continuous
 62
     7
100
AcDbLine
 10
357.6148252057
 20
320.3693963403
 30
0.0
 11
357.6148252057
 21
342.4665581499
 31
0.0
  0
LINE
  5
107
330
DD
100
AcDbEntity
  8
$DDT_AUDIT_GENERATED_(A6)
  6
Continuous
 62
     7
100
AcDbLine
 10
357.6148252057
 20
320.3693963403
 30
0.0
 11
357.6148252057
 21
320.3466178563
 31
0.0
  0
LINE
  5
108
330
DD
100
AcDbEntity
  8
$DDT_AUDIT_GENERATED_(A6)
  6
Continuous
 62
     7
100
AcDbLine
 10
357.6148252057
 20
319.9146845356
 30
0.0
 11
357.6148252057
 21
230.8062897427
 31
0.0
  0
ARC
  5
109
330
DD
100
AcDbEntity
  8
$DDT_AUDIT_GENERATED_(A6)
  6
Continuous
 62
     7
100
AcDbCircle
 10
357.1148252938
 20
230.8062898525
 30
0.0
 40
0.499999911863903
100
AcDbArc
 50
321.49656665
 51
359.9999874195
  0
ARC
  5
10A
330
DD
100
AcDbEntity
  8
$DDT_AUDIT_GENERATED_(A6)
  6
Continuous
 62
     7
100
AcDbCircle
 10
339.8976680551
 20
260.6851853699
 30
0.0
 40
37.10238458322164
100
AcDbArc
 50
95.1336397201
 51
105.8109596223
  0
SPLINE
  5
10B
330
DD
100
AcDbEntity
  8
$DDT_AUDIT_GENERATED_(A6)
  6
Continuous
 62
     7
100
AcDbSpline
210
0.0
220
0.0
230
1.0
 70
     8
 71
     3
 72
     8
 73
     4
 74
     0
 42
0.0000000029159156
 43
0.0000000001
 40
0.0
 40
0.0
 40
0.0
 40
0.0
 40
0.4450739327625607
 40
0.4450739327625607
 40
0.4450739327625607
 40
0.4450739327625607
 10
354.3732072402395
 20
226.5565824352881
 30
0.0
 10
354.6638094406038
 20
226.9219553821706
 30
0.0
 10
354.9805303525462
 20
227.3201412895878
 30
0.0
 10
355.3233699760668
 20
227.7511401575395
 30
0.0
  0
SPLINE
  5
10C
330
DD
100
AcDbEntity
  8
$DDT_AUDIT_GENERATED_(A6)
  6
Continuous
 62
     7
100
AcDbSpline
210
0.0
220
0.0
230
1.0
 70
     8
 71
     3
 72
     8
 73
     4
 74
     0
 42
0.0000000023742914
 43
0.0000000001
 40
0.7704714684213744
 40
0.7704714684213744
 40
0.7704714684213744
 40
0.7704714684213744
 40
0.906329159409424
 40
0.906329159409424
 40
0.906329159409424
 40
0.906329159409424
 10
356.1172122719817
 20
228.7490791271604
 30
0.0
 10
356.2335209805678
 20
228.8952861216535
 30
0.0
 10
356.3522633266584
 20
229.0445504971033
 30
0.0
 10
356.4734393102535
 20
229.1968722535098
 30
0.0
  0
ARC
  5
10D
330
DD
100
AcDbEntity
  8
$DDT_AUDIT_GENERATED_(A6)
  6
Continuous
 62
     7
100
AcDbCircle
 10
352.7703280566
 20
225.5131379397
 30
0.0
 40
0.3180464841953092
100
AcDbArc
 50
185.2375918968
 51
196.0840595173
  0
SPLINE
  5
10E
330
DD
100
AcDbEntity
  8
$DDT_AUDIT_GENERATED_(A6)
  6
Continuous
 62
     7
100
AcDbSpline
210
0.0
220
0.0
230
1.0
 70
     8
 71
     3
 72
     8
 73
     4
 74
     0
 42
0.0000000033008636
 43
0.0000000001
 40
0.0
 40
0.0
 40
0.0
 40
0.0
 40
1.0
 40
1.0
 40
1.0
 40
1.0
 10
354.5066049184205
 20
226.7242940115438
 30
0.0
 10
355.032476866251
 20
227.3854702563378
 30
0.0
 10
355.6611271184877
 20
228.1757671062414
 30
0.0
 10
356.3925556751306
 20
229.0951845612547
 30
0.0
  0
SPLINE
  5
10F
330
DD
100
AcDbEntity
  8
$DDT_AUDIT_GENERATED_(A6)
  6
Continuous
 62
     7
100
AcDbSpline
210
0.0
220
0.0
230
1.0
 70
     8
 71
     3
 72
     8
 73
     4
 74
     0
 42
0.0000000583004313
 43
0.0000000001
 40
0.0
 40
0.0
 40
0.0
 40
0.0
 40
1.0
 40
1.0
 40
1.0
 40
1.0
 10
352.4526251004572
 20
225.4838676788181
 30
0.0
 10
352.4742341762086
 20
225.3936770559239
 30
0.0
 10
352.493862321469
 20
225.3413147126159
 30
0.0
 10
352.5115095362383
 20
225.3267806488942
 30
0.0
  0
SPLINE
  5
110
330
DD
100
AcDbEntity
  8
$DDT_AUDIT_GENERATED_(A6)
  6
Continuous
 62
     7
100
AcDbSpline
210
0.0
220
0.0
230
1.0
 70
     8
 71
     3
 72
     8
 73
     4
 74
     0
 42
0.0000000177929912
 43
0.0000000001
 40
0.0
 40
0.0
 40
0.0
 40
0.0
 40
1.0
 40
1.0
 40
1.0
 40
1.0
 10
352.4973583403797
 20
306.8790338183639
 30
0.0
 10
352.4973694266516
 20
306.8534563764318
 30
0.0
 10
352.4972872046316
 20
306.666116714611
 30
0.0
 10
352.4971116743197
 20
306.3170148329012
 30
0.0
  0
ARC
  5
111
330
DD
100
AcDbEntity
  8
$DDT_AUDIT_GENERATED_(A6)
  6
Continuous
 62
     7
100
AcDbCircle
 10
322.1434673565
 20
295.3773376631
 30
0.0
 40
0.3000000000000017
100
AcDbArc
 50
180.0
 51
279.7293905464
  0
ARC
  5
112
330
DD
100
AcDbEntity
  8
$DDT_AUDIT_GENERATED_(A6)
  6
Continuous
 62
     7
100
AcDbCircle
 10
322.1434673565
 20
348.6657051859
 30
0.0
 40
0.3000000000000067
100
AcDbArc
 50
80.2706094536
 51
180.0
  0
ARC
  5
113
330
DD
100
AcDbEntity
  8
$DDT_AUDIT_GENERATED_(A6)
  6
Continuous
 62
     7
100
AcDbCircle
 10
357.1148252057
 20
342.4665581853
 30
0.0
 40
0.5000000000000004
100
AcDbArc
 50
0.0
 51
79.924301775
  0
LINE
  5
114
330
DD
100
AcDbEntity
  8
$DDT_AUDIT_GENERATED_(A6)
  6
Continuous
 62
     7
100
AcDbLine
 10
337.6562236477
 20
297.732794434
 30
0.0
 11
349.9511458546
 21
299.8408956431
 31
0.0
  0
LINE
  5
115
330
DD
100
AcDbEntity
  8
$DDT_AUDIT_GENERATED_(A6)
  6
Continuous
 62
     7
100
AcDbLine
 10
322.1941658522
 20
295.0816525898
 30
0.0
 11
329.7990167584
 21
296.3855888914
 31
0.0
  0
LINE
  5
116
330
DD
100
AcDbEntity
  8
$DDT_AUDIT_GENERATED_(A6)
  6
Continuous
 62
     7
100
AcDbLine
 10
357.2022966278
 20
342.9588567274
 30
0.0
 11
322.1941658522
 21
348.9613902591
 31
0.0
  0
ENDBLK
  5
118
330
DD
100
AcDbEntity
  8
0
100
AcDbBlockEnd
  0
ENDSEC
  0
SECTION
  2
ENTITIES
  0
INSERT
  5
5F
330
1F
100
AcDbEntity
  8
Default
100
AcDbBlockReference
  2
SEANNOT_GROUP
 10
0.0
 20
0.0
 30
0.0
  0
INSERT
  5
6A
330
1F
100
AcDbEntity
  8
Default
100
AcDbBlockReference
  2
SEANNOT_GROUP1
 10
0.0
 20
0.0
 30
0.0
  0
INSERT
  5
70
330
1F
100
AcDbEntity
  8
Default
100
AcDbBlockReference
  2
SEANNOT_GROUP2
 10
0.0
 20
0.0
 30
0.0
  0
INSERT
  5
76
330
1F
100
AcDbEntity
  8
Default
100
AcDbBlockReference
  2
SE
 10
0.0
 20
0.0
 30
0.0
  0
INSERT
  5
B9
330
1F
100
AcDbEntity
  8
Default
100
AcDbBlockReference
  2
SE1
 10
0.0
 20
0.0
 30
0.0
  0
INSERT
  5
DE
330
1F
100
AcDbEntity
  8
Default
100
AcDbBlockReference
  2
SE2
 10
0.0
 20
0.0
 30
0.0
  0
TEXT
  5
11A
330
1F
100
AcDbEntity
  8
Default
  6
Continuous
 62
     7
100
AcDbText
 10
5.9362635081
 20
53.4225120485
 30
0.0
 40
10.0
  1
Grohe AG^J
  7
SEACAD_seiso_ttf
 11
5.9362635081
 21
63.4225120485
 31
0.0
100
AcDbText
 73
     3
  0
TEXT
  5
11B
330
1F
100
AcDbEntity
  8
Default
  6
Continuous
 62
     7
100
AcDbText
 10
5.9362635081
 20
37.0588756849
 30
0.0
 40
10.0
  1
 
  7
SEACAD_seiso_ttf
 11
5.9362635081
 21
47.0588756849
 31
0.0
100
AcDbText
 73
     3
  0
TEXT
  5
11C
330
1F
100
AcDbEntity
  8
Default
  6
Continuous
 62
     7
100
AcDbText
 10
5.9362635081
 20
20.6952393213
 30
0.0
 40
10.0
  1
ecn: 
  7
SEACAD_seiso_ttf
 11
5.9362635081
 21
30.6952393213
 31
0.0
100
AcDbText
 73
     3
  0
TEXT
  5
11D
330
1F
100
AcDbEntity
  8
Default
  6
Continuous
 62
     7
100
AcDbText
 10
5.9362635081
 20
4.3316029576
 30
0.0
 40
10.0
  1
unit: mm
  7
SEACAD_seiso_ttf
 11
5.9362635081
 21
14.3316029576
 31
0.0
100
AcDbText
 73
     3
  0
LINE
  5
11E
330
1F
100
AcDbEntity
  8
Default
  6
Continuous
 62
     7
100
AcDbLine
 10
0.0
 20
0.0
 30
0.0
 11
100.0
 21
0.0
 31
0.0
  0
LINE
  5
11F
330
1F
100
AcDbEntity
  8
Default
  6
Continuous
 62
     7
100
AcDbLine
 10
0.0
 20
0.0
 30
0.0
 11
0.0
 21
100.0
 31
0.0
  0
TEXT
  5
120
330
1F
100
AcDbEntity
  8
Default
  6
Continuous
 62
     7
100
AcDbText
 10
24.3923665681
 20
-18.2375342018
 30
0.0
 40
10.0
  1
100 mm
  7
SEACAD_seiso_ttf
 11
24.3923665681
 21
-8.2375342018
 31
0.0
100
AcDbText
 73
     3
  0
TEXT
  5
121
330
1F
100
AcDbEntity
  8
Default
  6
Continuous
 62
     7
100
AcDbText
 10
-7.6150308803
 20
24.6231930421
 30
0.0
 40
10.0
  1
100 mm
 50
90.0
  7
SEACAD_seiso_ttf
 11
-17.6150308803
 21
24.6231930421
 31
0.0
100
AcDbText
 73
     3
  0
TEXT
  5
122
330
1F
100
AcDbEntity
  8
Default
  6
Continuous
 62
     7
100
AcDbText
 10
28.4878128572
 20
20.0907663715
 30
0.0
 40
10.0
  1
218645
  7
SEACAD_seiso_ttf
 11
28.4878128572
 21
30.0907663715
 31
0.0
100
AcDbText
 73
     3
  0
TEXT
  5
123
330
1F
100
AcDbEntity
  8
Default
  6
Continuous
 62
     7
100
AcDbText
 10
5.9012241913
 20
36.7242780188
 30
0.0
 40
10.0
  1
19068002
  7
SEACAD_seiso_ttf
 11
5.9012241913
 21
46.7242780188
 31
0.0
100
AcDbText
 73
     3
  0
ENDSEC
  0
SECTION
  2
OBJECTS
  0
DICTIONARY
  5
C
330
0
100
AcDbDictionary
281
     1
  3
ACAD_GROUP
350
D
  3
ACAD_LAYOUT
350
1A
  3
ACAD_MLEADERSTYLE
350
127
  3
ACAD_MLINESTYLE
350
17
  3
ACAD_PLOTSETTINGS
350
19
  3
ACAD_PLOTSTYLENAME
350
E
  3
ACAD_SCALELIST
350
3B
  3
ACAD_TABLESTYLE
350
126
  3
ACAD_VISUALSTYLE
350
2A
  3
AcDbVariableDictionary
350
124
  0
DICTIONARY
  5
D
102
{ACAD_REACTORS
330
C
102
}
330
C
100
AcDbDictionary
281
     1
  0
DICTIONARY
  5
1A
102
{ACAD_REACTORS
330
C
102
}
330
C
100
AcDbDictionary
281
     1
  3
Layout1
350
1E
  3
Model
350
22
  0
DICTIONARY
  5
127
102
{ACAD_REACTORS
330
C
102
}
330
C
100
AcDbDictionary
281
     1
  0
DICTIONARY
  5
17
102
{ACAD_REACTORS
330
C
102
}
330
C
100
AcDbDictionary
281
     1
  3
Standard
350
18
  0
DICTIONARY
  5
19
102
{ACAD_REACTORS
330
C
102
}
330
C
100
AcDbDictionary
281
     1
  0
ACDBDICTIONARYWDFLT
  5
E
102
{ACAD_REACTORS
330
C
102
}
330
C
100
AcDbDictionary
281
     1
  3
Normal
350
F
100
AcDbDictionaryWithDefault
340
F
  0
DICTIONARY
  5
3B
102
{ACAD_REACTORS
330
C
102
}
330
C
100
AcDbDictionary
281
     1
  3
A0
350
3C
  3
A1
350
3D
  3
A2
350
3E
  3
A3
350
3F
  3
A4
350
40
  3
A5
350
41
  3
A6
350
42
  3
A7
350
43
  3
A8
350
44
  3
A9
350
45
  3
B0
350
46
  3
B1
350
47
  3
B2
350
48
  3
B3
350
49
  3
B4
350
4A
  3
B5
350
4B
  3
B6
350
4C
  3
B7
350
4D
  3
B8
350
4E
  3
B9
350
4F
  3
C0
350
50
  3
C1
350
51
  3
C2
350
52
  3
C3
350
53
  3
C4
350
54
  3
C5
350
55
  3
C6
350
56
  3
C7
350
57
  3
C8
350
58
  3
C9
350
59
  3
D0
350
5A
  3
D1
350
5B
  3
D2
350
5C
  0
DICTIONARY
  5
126
102
{ACAD_REACTORS
330
C
102
}
330
C
100
AcDbDictionary
281
     1
  0
DICTIONARY
  5
2A
102
{ACAD_REACTORS
330
C
102
}
330
C
100
AcDbDictionary
281
     1
  3
2dWireframe
350
2F
  3
3D Hidden
350
31
  3
3dWireframe
350
30
  3
Basic
350
32
  3
Brighten
350
36
  3
ColorChange
350
3A
  3
Conceptual
350
34
  3
Dim
350
35
  3
Facepattern
350
39
  3
Flat
350
2B
  3
FlatWithEdges
350
2C
  3
Gouraud
350
2D
  3
GouraudWithEdges
350
2E
  3
Linepattern
350
38
  3
Realistic
350
33
  3
Thicken
350
37
  0
DICTIONARY
  5
124
102
{ACAD_REACTORS
330
C
102
}
330
C
100
AcDbDictionary
281
     1
  3
CANNOSCALE
350
125
  3
PSOLHEIGHT
350
129
  3
PSOLWIDTH
350
128
  0
LAYOUT
  5
1E
102
{ACAD_REACTORS
330
1A
102
}
330
1A
100
AcDbPlotSettings
  1

  2
none_device
  4

  6

 40
0.0
 41
0.0
 42
0.0
 43
0.0
 44
0.0
 45
0.0
 46
0.0
 47
0.0
 48
0.0
 49
0.0
140
0.0
141
0.0
142
1.0
143
1.0
 70
   688
 72
     0
 73
     0
 74
     5
  7

 75
    16
147
1.0
148
0.0
149
0.0
100
AcDbLayout
  1
Layout1
 70
     1
 71
     1
 10
0.0
 20
0.0
 11
1682.0
 21
2378.0
 12
0.0
 22
0.0
 32
0.0
 14
0.0
 24
0.0
 34
0.0
 15
1682.0
 25
2378.0
 35
0.0
146
0.0
 13
0.0
 23
0.0
 33
0.0
 16
1.0
 26
0.0
 36
0.0
 17
0.0
 27
1.0
 37
0.0
 76
     0
330
1B
  0
LAYOUT
  5
22
102
{ACAD_REACTORS
330
1A
102
}
330
1A
100
AcDbPlotSettings
  1

  2
none_device
  4

  6

 40
0.0
 41
0.0
 42
0.0
 43
0.0
 44
0.0
 45
0.0
 46
0.0
 47
0.0
 48
0.0
 49
0.0
140
0.0
141
0.0
142
1.0
143
1.0
 70
  1712
 72
     0
 73
     0
 74
     0
  7

 75
     0
147
1.0
148
0.0
149
0.0
100
AcDbLayout
  1
Model
 70
     1
 71
     0
 10
0.0
 20
0.0
 11
1682.0
 21
2378.0
 12
0.0
 22
0.0
 32
0.0
 14
0.0
 24
0.0
 34
0.0
 15
1682.0
 25
2378.0
 35
0.0
146
0.0
 13
0.0
 23
0.0
 33
0.0
 16
1.0
 26
0.0
 36
0.0
 17
0.0
 27
1.0
 37
0.0
 76
     0
330
1F
331
29
  0
MLINESTYLE
  5
18
102
{ACAD_REACTORS
330
17
102
}
330
17
100
AcDbMlineStyle
  2
Standard
 70
     0
  3

 62
   256
 51
90.0
 52
90.0
 71
     2
 49
0.5
 62
   256
  6
BYLAYER
 49
-0.5
 62
   256
  6
BYLAYER
  0
ACDBPLACEHOLDER
  5
F
102
{ACAD_REACTORS
330
E
102
}
330
E
  0
SCALE
  5
3C
102
{ACAD_REACTORS
330
3B
102
}
330
3B
100
AcDbScale
 70
     0
300
1:1
140
1.0
141
1.0
290
     1
  0
SCALE
  5
3D
102
{ACAD_REACTORS
330
3B
102
}
330
3B
100
AcDbScale
 70
     0
300
1:2
140
1.0
141
2.0
290
     0
  0
SCALE
  5
3E
102
{ACAD_REACTORS
330
3B
102
}
330
3B
100
AcDbScale
 70
     0
300
1:4
140
1.0
141
4.0
290
     0
  0
SCALE
  5
3F
102
{ACAD_REACTORS
330
3B
102
}
330
3B
100
AcDbScale
 70
     0
300
1:5
140
1.0
141
5.0
290
     0
  0
SCALE
  5
40
102
{ACAD_REACTORS
330
3B
102
}
330
3B
100
AcDbScale
 70
     0
300
1:8
140
1.0
141
8.0
290
     0
  0
SCALE
  5
41
102
{ACAD_REACTORS
330
3B
102
}
330
3B
100
AcDbScale
 70
     0
300
1:10
140
1.0
141
10.0
290
     0
  0
SCALE
  5
42
102
{ACAD_REACTORS
330
3B
102
}
330
3B
100
AcDbScale
 70
     0
300
1:16
140
1.0
141
16.0
290
     0
  0
SCALE
  5
43
102
{ACAD_REACTORS
330
3B
102
}
330
3B
100
AcDbScale
 70
     0
300
1:20
140
1.0
141
20.0
290
     0
  0
SCALE
  5
44
102
{ACAD_REACTORS
330
3B
102
}
330
3B
100
AcDbScale
 70
     0
300
1:30
140
1.0
141
30.0
290
     0
  0
SCALE
  5
45
102
{ACAD_REACTORS
330
3B
102
}
330
3B
100
AcDbScale
 70
     0
300
1:40
140
1.0
141
40.0
290
     0
  0
SCALE
  5
46
102
{ACAD_REACTORS
330
3B
102
}
330
3B
100
AcDbScale
 70
     0
300
1:50
140
1.0
141
50.0
290
     0
  0
SCALE
  5
47
102
{ACAD_REACTORS
330
3B
102
}
330
3B
100
AcDbScale
 70
     0
300
1:100
140
1.0
141
100.0
290
     0
  0
SCALE
  5
48
102
{ACAD_REACTORS
330
3B
102
}
330
3B
100
AcDbScale
 70
     0
300
2:1
140
2.0
141
1.0
290
     0
  0
SCALE
  5
49
102
{ACAD_REACTORS
330
3B
102
}
330
3B
100
AcDbScale
 70
     0
300
4:1
140
4.0
141
1.0
290
     0
  0
SCALE
  5
4A
102
{ACAD_REACTORS
330
3B
102
}
330
3B
100
AcDbScale
 70
     0
300
8:1
140
8.0
141
1.0
290
     0
  0
SCALE
  5
4B
102
{ACAD_REACTORS
330
3B
102
}
330
3B
100
AcDbScale
 70
     0
300
10:1
140
10.0
141
1.0
290
     0
  0
SCALE
  5
4C
102
{ACAD_REACTORS
330
3B
102
}
330
3B
100
AcDbScale
 70
     0
300
100:1
140
100.0
141
1.0
290
     0
  0
SCALE
  5
4D
102
{ACAD_REACTORS
330
3B
102
}
330
3B
100
AcDbScale
 70
     0
300
1/128" = 1'-0"
140
0.0078125
141
12.0
290
     0
  0
SCALE
  5
4E
102
{ACAD_REACTORS
330
3B
102
}
330
3B
100
AcDbScale
 70
     0
300
1/64" = 1'-0"
140
0.015625
141
12.0
290
     0
  0
SCALE
  5
4F
102
{ACAD_REACTORS
330
3B
102
}
330
3B
100
AcDbScale
 70
     0
300
1/32" = 1'-0"
140
0.03125
141
12.0
290
     0
  0
SCALE
  5
50
102
{ACAD_REACTORS
330
3B
102
}
330
3B
100
AcDbScale
 70
     0
300
1/16" = 1'-0"
140
0.0625
141
12.0
290
     0
  0
SCALE
  5
51
102
{ACAD_REACTORS
330
3B
102
}
330
3B
100
AcDbScale
 70
     0
300
3/32" = 1'-0"
140
0.09375
141
12.0
290
     0
  0
SCALE
  5
52
102
{ACAD_REACTORS
330
3B
102
}
330
3B
100
AcDbScale
 70
     0
300
1/8" = 1'-0"
140
0.125
141
12.0
290
     0
  0
SCALE
  5
53
102
{ACAD_REACTORS
330
3B
102
}
330
3B
100
AcDbScale
 70
     0
300
3/16" = 1'-0"
140
0.1875
141
12.0
290
     0
  0
SCALE
  5
54
102
{ACAD_REACTORS
330
3B
102
}
330
3B
100
AcDbScale
 70
     0
300
1/4" = 1'-0"
140
0.25
141
12.0
290
     0
  0
SCALE
  5
55
102
{ACAD_REACTORS
330
3B
102
}
330
3B
100
AcDbScale
 70
     0
300
3/8" = 1'-0"
140
0.375
141
12.0
290
     0
  0
SCALE
  5
56
102
{ACAD_REACTORS
330
3B
102
}
330
3B
100
AcDbScale
 70
     0
300
1/2" = 1'-0"
140
0.5
141
12.0
290
     0
  0
SCALE
  5
57
102
{ACAD_REACTORS
330
3B
102
}
330
3B
100
AcDbScale
 70
     0
300
3/4" = 1'-0"
140
0.75
141
12.0
290
     0
  0
SCALE
  5
58
102
{ACAD_REACTORS
330
3B
102
}
330
3B
100
AcDbScale
 70
     0
300
1" = 1'-0"
140
1.0
141
12.0
290
     0
  0
SCALE
  5
59
102
{ACAD_REACTORS
330
3B
102
}
330
3B
100
AcDbScale
 70
     0
300
1-1/2" = 1'-0"
140
1.5
141
12.0
290
     0
  0
SCALE
  5
5A
102
{ACAD_REACTORS
330
3B
102
}
330
3B
100
AcDbScale
 70
     0
300
3" = 1'-0"
140
3.0
141
12.0
290
     0
  0
SCALE
  5
5B
102
{ACAD_REACTORS
330
3B
102
}
330
3B
100
AcDbScale
 70
     0
300
6" = 1'-0"
140
6.0
141
12.0
290
     0
  0
SCALE
  5
5C
102
{ACAD_REACTORS
330
3B
102
}
330
3B
100
AcDbScale
 70
     0
300
1'-0" = 1'-0"
140
12.0
141
12.0
290
     0
  0
VISUALSTYLE
  5
2F
102
{ACAD_REACTORS
330
2A
102
}
330
2A
100
AcDbVisualStyle
  2
2dWireframe
 70
     4
 71
     0
 72
     2
 73
     0
 90
        0
 40
-0.6
 41
-30.0
 62
     5
 63
     7
 74
     1
 91
        4
 64
     7
 65
   257
 75
     1
175
     1
 42
1.0
 92
        0
 66
   257
 43
1.0
 76
     1
 77
     6
 78
     2
 67
     7
 79
     5
170
     0
171
     0
290
     0
174
     0
 93
        1
 44
0.0
173
     0
291
     0
 45
0.0
1001
ACAD
1000
AcDbSavedByObjectVersion
1070
     0
  0
VISUALSTYLE
  5
31
102
{ACAD_REACTORS
330
2A
102
}
330
2A
100
AcDbVisualStyle
  2
3D Hidden
 70
     6
 71
     1
 72
     2
 73
     2
 90
        0
 40
-0.6
 41
-30.0
 62
     5
 63
     7
 74
     2
 91
        2
 64
     7
 65
   257
 75
     2
175
     1
 42
40.0
 92
        0
 66
   257
 43
1.0
 76
     1
 77
     6
 78
     2
 67
     7
 79
     3
170
     0
171
     0
290
     0
174
     0
 93
        1
 44
0.0
173
     0
291
     0
 45
0.0
1001
ACAD
1000
AcDbSavedByObjectVersion
1070
     0
  0
VISUALSTYLE
  5
30
102
{ACAD_REACTORS
330
2A
102
}
330
2A
100
AcDbVisualStyle
  2
3dWireframe
 70
     5
 71
     0
 72
     2
 73
     0
 90
        0
 40
-0.6
 41
-30.0
 62
     5
 63
     7
 74
     1
 91
        4
 64
     7
 65
   257
 75
     1
175
     1
 42
1.0
 92
        0
 66
   257
 43
1.0
 76
     1
 77
     6
 78
     2
 67
     7
 79
     5
170
     0
171
     0
290
     0
174
     0
 93
        1
 44
0.0
173
     0
291
     0
 45
0.0
1001
ACAD
1000
AcDbSavedByObjectVersion
1070
     0
  0
VISUALSTYLE
  5
32
102
{ACAD_REACTORS
330
2A
102
}
330
2A
100
AcDbVisualStyle
  2
Basic
 70
     7
 71
     1
 72
     0
 73
     1
 90
        0
 40
-0.6
 41
-30.0
 62
     5
 63
     7
 74
     0
 91
        4
 64
     7
 65
   257
 75
     1
175
     1
 42
1.0
 92
        8
 66
     7
 43
1.0
 76
     1
 77
     6
 78
     2
 67
     7
 79
     5
170
     0
171
     0
290
     0
174
     0
 93
        1
 44
0.0
173
     0
291
     1
 45
0.0
1001
ACAD
1000
AcDbSavedByObjectVersion
1070
     0
  0
VISUALSTYLE
  5
36
102
{ACAD_REACTORS
330
2A
102
}
330
2A
100
AcDbVisualStyle
  2
Brighten
 70
    12
 71
     2
 72
     2
 73
     0
 90
        0
 40
-0.6
 41
-30.0
 62
     5
 63
     7
 74
     1
 91
        4
 64
     7
 65
   257
 75
     1
175
     1
 42
1.0
 92
        8
 66
     7
 43
1.0
 76
     1
 77
     6
 78
     2
 67
     7
 79
     5
170
     0
171
     0
290
     0
174
     0
 93
        1
 44
50.0
173
     0
291
     1
 45
0.0
1001
ACAD
1000
AcDbSavedByObjectVersion
1070
     0
  0
VISUALSTYLE
  5
3A
102
{ACAD_REACTORS
330
2A
102
}
330
2A
100
AcDbVisualStyle
  2
ColorChange
 70
    16
 71
     2
 72
     2
 73
     3
 90
        0
 40
-0.6
 41
-30.0
 62
     5
 63
     8
 74
     1
 91
        4
 64
     7
 65
   257
 75
     1
175
     1
 42
1.0
 92
        8
 66
     8
 43
1.0
 76
     1
 77
     6
 78
     2
 67
     7
 79
     5
170
     0
171
     0
290
     0
174
     0
 93
        1
 44
0.0
173
     0
291
     1
 45
0.0
1001
ACAD
1000
AcDbSavedByObjectVersion
1070
     0
  0
VISUALSTYLE
  5
34
102
{ACAD_REACTORS
330
2A
102
}
330
2A
100
AcDbVisualStyle
  2
Conceptual
 70
     9
 71
     3
 72
     2
 73
     0
 90
        0
 40
-0.6
 41
-30.0
 62
     5
 63
     7
 74
     2
 91
        2
 64
     7
 65
   257
 75
     1
175
     1
 42
40.0
 92
        8
 66
     7
 43
1.0
 76
     1
 77
     6
 78
     2
 67
     7
 79
     3
170
     0
171
     0
290
     0
174
     0
 93
        1
 44
0.0
173
     0
291
     0
 45
0.0
1001
ACAD
1000
AcDbSavedByObjectVersion
1070
     0
  0
VISUALSTYLE
  5
35
102
{ACAD_REACTORS
330
2A
102
}
330
2A
100
AcDbVisualStyle
  2
Dim
 70
    11
 71
     2
 72
     2
 73
     0
 90
        0
 40
-0.6
 41
-30.0
 62
     5
 63
     7
 74
     1
 91
        4
 64
     7
 65
   257
 75
     1
175
     1
 42
1.0
 92
        8
 66
     7
 43
1.0
 76
     1
 77
     6
 78
     2
 67
     7
 79
     5
170
     0
171
     0
290
     0
174
     0
 93
        1
 44
-50.0
173
     0
291
     1
 45
0.0
1001
ACAD
1000
AcDbSavedByObjectVersion
1070
     0
  0
VISUALSTYLE
  5
39
102
{ACAD_REACTORS
330
2A
102
}
330
2A
100
AcDbVisualStyle
  2
Facepattern
 70
    15
 71
     2
 72
     2
 73
     0
 90
        0
 40
-0.6
 41
-30.0
 62
     5
 63
     7
 74
     1
 91
        4
 64
     7
 65
   257
 75
     1
175
     1
 42
1.0
 92
        8
 66
     7
 43
1.0
 76
     1
 77
     6
 78
     2
 67
     7
 79
     5
170
     0
171
     0
290
     0
174
     0
 93
        1
 44
0.0
173
     0
291
     1
 45
0.0
1001
ACAD
1000
AcDbSavedByObjectVersion
1070
     0
  0
VISUALSTYLE
  5
2B
102
{ACAD_REACTORS
330
2A
102
}
330
2A
100
AcDbVisualStyle
  2
Flat
 70
     0
 71
     2
 72
     1
 73
     1
 90
        2
 40
-0.6
 41
30.0
 62
     5
 63
     7
 74
     0
 91
        4
 64
     7
 65
   257
 75
     1
175
     1
 42
1.0
 92
        8
 66
     7
 43
1.0
 76
     1
 77
     6
 78
     2
 67
     7
 79
     5
170
     0
171
     0
290
     0
174
     0
 93
       13
 44
0.0
173
     0
291
     1
 45
0.0
1001
ACAD
1000
AcDbSavedByObjectVersion
1070
     0
  0
VISUALSTYLE
  5
2C
102
{ACAD_REACTORS
330
2A
102
}
330
2A
100
AcDbVisualStyle
  2
FlatWithEdges
 70
     1
 71
     2
 72
     1
 73
     1
 90
        2
 40
-0.6
 41
30.0
 62
     5
 63
     7
 74
     1
 91
        4
 64
     7
 65
   257
 75
     1
175
     1
 42
1.0
 92
        0
 66
   257
 43
1.0
 76
     1
 77
     6
 78
     2
 67
     7
 79
     5
170
     0
171
     0
290
     0
174
     0
 93
       13
 44
0.0
173
     0
291
     1
 45
0.0
1001
ACAD
1000
AcDbSavedByObjectVersion
1070
     0
  0
VISUALSTYLE
  5
2D
102
{ACAD_REACTORS
330
2A
102
}
330
2A
100
AcDbVisualStyle
  2
Gouraud
 70
     2
 71
     2
 72
     2
 73
     1
 90
        2
 40
-0.6
 41
30.0
 62
     5
 63
     7
 74
     0
 91
        4
 64
     7
 65
   257
 75
     1
175
     1
 42
1.0
 92
        0
 66
     7
 43
1.0
 76
     1
 77
     6
 78
     2
 67
     7
 79
     5
170
     0
171
     0
290
     0
174
     0
 93
       13
 44
0.0
173
     0
291
     1
 45
0.0
1001
ACAD
1000
AcDbSavedByObjectVersion
1070
     0
  0
VISUALSTYLE
  5
2E
102
{ACAD_REACTORS
330
2A
102
}
330
2A
100
AcDbVisualStyle
  2
GouraudWithEdges
 70
     3
 71
     2
 72
     2
 73
     1
 90
        2
 40
-0.6
 41
30.0
 62
     5
 63
     7
 74
     1
 91
        4
 64
     7
 65
   257
 75
     1
175
     1
 42
1.0
 92
        0
 66
   257
 43
1.0
 76
     1
 77
     6
 78
     2
 67
     7
 79
     5
170
     0
171
     0
290
     0
174
     0
 93
       13
 44
0.0
173
     0
291
     1
 45
0.0
1001
ACAD
1000
AcDbSavedByObjectVersion
1070
     0
  0
VISUALSTYLE
  5
38
102
{ACAD_REACTORS
330
2A
102
}
330
2A
100
AcDbVisualStyle
  2
Linepattern
 70
    14
 71
     2
 72
     2
 73
     0
 90
        0
 40
-0.6
 41
-30.0
 62
     5
 63
     7
 74
     1
 91
        4
 64
     7
 65
   257
 75
     7
175
     7
 42
1.0
 92
        8
 66
     7
 43
1.0
 76
     1
 77
     6
 78
     2
 67
     7
 79
     5
170
     0
171
     0
290
     0
174
     0
 93
        1
 44
0.0
173
     0
291
     1
 45
0.0
1001
ACAD
1000
AcDbSavedByObjectVersion
1070
     0
  0
VISUALSTYLE
  5
33
102
{ACAD_REACTORS
330
2A
102
}
330
2A
100
AcDbVisualStyle
  2
Realistic
 70
     8
 71
     2
 72
     2
 73
     0
 90
        0
 40
-0.6
 41
-30.0
 62
     5
 63
     7
 74
     1
 91
        0
 64
     7
 65
   257
 75
     1
175
     1
 42
1.0
 92
        8
 66
     8
 43
1.0
 76
     1
 77
     6
 78
     2
 67
     7
 79
     5
170
     0
171
     0
290
     0
174
     0
 93
       13
 44
0.0
173
     0
291
     0
 45
0.0
1001
ACAD
1000
AcDbSavedByObjectVersion
1070
     0
  0
VISUALSTYLE
  5
37
102
{ACAD_REACTORS
330
2A
102
}
330
2A
100
AcDbVisualStyle
  2
Thicken
 70
    13
 71
     2
 72
     2
 73
     0
 90
        0
 40
-0.6
 41
-30.0
 62
     5
 63
     7
 74
     1
 91
        4
 64
     7
 65
   257
 75
     1
175
     1
 42
1.0
 92
       12
 66
     7
 43
1.0
 76
     1
 77
     6
 78
     2
 67
     7
 79
     5
170
     0
171
     0
290
     0
174
     0
 93
        1
 44
0.0
173
     0
291
     1
 45
0.0
1001
ACAD
1000
AcDbSavedByObjectVersion
1070
     0
  0
DICTIONARYVAR
  5
125
102
{ACAD_REACTORS
330
124
102
}
330
124
100
DictionaryVariables
280
     0
  1
1:1
  0
DICTIONARYVAR
  5
129
102
{ACAD_REACTORS
330
124
102
}
330
124
100
DictionaryVariables
280
     0
  1
80.000000
  0
DICTIONARYVAR
  5
128
102
{ACAD_REACTORS
330
124
102
}
330
124
100
DictionaryVariables
280
     0
  1
5.000000
  0
ENDSEC
  0
EOF
