  0
SECTION
  2
HEADER
  9
$ACADVER
  1
AC1015
  9
$ACADMAINTVER
 70
     6
  9
$DWGCODEPAGE
  3
ANSI_1252
  9
$INSBASE
 10
0.0
 20
0.0
 30
0.0
  9
$EXTMIN
 10
0.0
 20
0.0
 30
0.0
  9
$EXTMAX
 10
1682.0
 20
2378.0
 30
0.0
  9
$LIMMIN
 10
0.0
 20
0.0
  9
$LIMMAX
 10
1682.0
 20
2378.0
  9
$ORTHOMODE
 70
     0
  9
$REGENMODE
 70
     1
  9
$FILLMODE
 70
     1
  9
$QTEXTMODE
 70
     0
  9
$MIRRTEXT
 70
     1
  9
$LTSCALE
 40
1.0
  9
$ATTMODE
 70
     1
  9
$TEXTSIZE
 40
2.5
  9
$TRACEWID
 40
1.0
  9
$TEXTSTYLE
  7
Standard
  9
$CLAYER
  8
0
  9
$CELTYPE
  6
ByLayer
  9
$CECOLOR
 62
   256
  9
$CELTSCALE
 40
1.0
  9
$DISPSILH
 70
     0
  9
$DIMSCALE
 40
1.0
  9
$DIMASZ
 40
2.5
  9
$DIMEXO
 40
0.625
  9
$DIMDLI
 40
3.75
  9
$DIMRND
 40
0.0
  9
$DIMDLE
 40
0.0
  9
$DIMEXE
 40
1.25
  9
$DIMTP
 40
0.0
  9
$DIMTM
 40
0.0
  9
$DIMTXT
 40
2.5
  9
$DIMCEN
 40
2.5
  9
$DIMTSZ
 40
0.0
  9
$DIMTOL
 70
     0
  9
$DIMLIM
 70
     0
  9
$DIMTIH
 70
     0
  9
$DIMTOH
 70
     0
  9
$DIMSE1
 70
     0
  9
$DIMSE2
 70
     0
  9
$DIMTAD
 70
     1
  9
$DIMZIN
 70
     8
  9
$DIMBLK
  1

  9
$DIMASO
 70
     1
  9
$DIMSHO
 70
     1
  9
$DIMPOST
  1

  9
$DIMAPOST
  1

  9
$DIMALT
 70
     0
  9
$DIMALTD
 70
     3
  9
$DIMALTF
 40
0.0393700787
  9
$DIMLFAC
 40
1.0
  9
$DIMTOFL
 70
     1
  9
$DIMTVP
 40
0.0
  9
$DIMTIX
 70
     0
  9
$DIMSOXD
 70
     0
  9
$DIMSAH
 70
     0
  9
$DIMBLK1
  1

  9
$DIMBLK2
  1

  9
$DIMSTYLE
  2
ISO-25
  9
$DIMCLRD
 70
     0
  9
$DIMCLRE
 70
     0
  9
$DIMCLRT
 70
     0
  9
$DIMTFAC
 40
1.0
  9
$DIMGAP
 40
0.625
  9
$DIMJUST
 70
     0
  9
$DIMSD1
 70
     0
  9
$DIMSD2
 70
     0
  9
$DIMTOLJ
 70
     0
  9
$DIMTZIN
 70
     8
  9
$DIMALTZ
 70
     0
  9
$DIMALTTZ
 70
     0
  9
$DIMUPT
 70
     0
  9
$DIMDEC
 70
     2
  9
$DIMTDEC
 70
     2
  9
$DIMALTU
 70
     2
  9
$DIMALTTD
 70
     3
  9
$DIMTXSTY
  7
Standard
  9
$DIMAUNIT
 70
     0
  9
$DIMADEC
 70
     0
  9
$DIMALTRND
 40
0.0
  9
$DIMAZIN
 70
     0
  9
$DIMDSEP
 70
    44
  9
$DIMATFIT
 70
     3
  9
$DIMFRAC
 70
     0
  9
$DIMLDRBLK
  1

  9
$DIMLUNIT
 70
     2
  9
$DIMLWD
 70
    -2
  9
$DIMLWE
 70
    -2
  9
$DIMTMOVE
 70
     0
  9
$LUNITS
 70
     2
  9
$LUPREC
 70
     4
  9
$SKETCHINC
 40
1.0
  9
$FILLETRAD
 40
10.0
  9
$AUNITS
 70
     0
  9
$AUPREC
 70
     0
  9
$MENU
  1
.
  9
$ELEVATION
 40
0.0
  9
$PELEVATION
 40
0.0
  9
$THICKNESS
 40
0.0
  9
$LIMCHECK
 70
     0
  9
$CHAMFERA
 40
10.0
  9
$CHAMFERB
 40
10.0
  9
$CHAMFERC
 40
20.0
  9
$CHAMFERD
 40
0.0
  9
$SKPOLY
 70
     0
  9
$TDCREATE
 40
2455608.604977431
  9
$TDUCREATE
 40
2455608.563310764
  9
$TDUPDATE
 40
2455608.604977442
  9
$TDUUPDATE
 40
2455608.563310775
  9
$TDINDWG
 40
0.0000000116
  9
$TDUSRTIMER
 40
0.0000000116
  9
$USRTIMER
 70
     1
  9
$ANGBASE
 50
0.0
  9
$ANGDIR
 70
     0
  9
$PDMODE
 70
     0
  9
$PDSIZE
 40
0.0
  9
$PLINEWID
 40
0.0
  9
$SPLFRAME
 70
     0
  9
$SPLINETYPE
 70
     6
  9
$SPLINESEGS
 70
     8
  9
$HANDSEED
  5
21D
  9
$SURFTAB1
 70
     6
  9
$SURFTAB2
 70
     6
  9
$SURFTYPE
 70
     6
  9
$SURFU
 70
     6
  9
$SURFV
 70
     6
  9
$UCSBASE
  2

  9
$UCSNAME
  2

  9
$UCSORG
 10
0.0
 20
0.0
 30
0.0
  9
$UCSXDIR
 10
1.0
 20
0.0
 30
0.0
  9
$UCSYDIR
 10
0.0
 20
1.0
 30
0.0
  9
$UCSORTHOREF
  2

  9
$UCSORTHOVIEW
 70
     0
  9
$UCSORGTOP
 10
0.0
 20
0.0
 30
0.0
  9
$UCSORGBOTTOM
 10
0.0
 20
0.0
 30
0.0
  9
$UCSORGLEFT
 10
0.0
 20
0.0
 30
0.0
  9
$UCSORGRIGHT
 10
0.0
 20
0.0
 30
0.0
  9
$UCSORGFRONT
 10
0.0
 20
0.0
 30
0.0
  9
$UCSORGBACK
 10
0.0
 20
0.0
 30
0.0
  9
$PUCSBASE
  2

  9
$PUCSNAME
  2

  9
$PUCSORG
 10
0.0
 20
0.0
 30
0.0
  9
$PUCSXDIR
 10
1.0
 20
0.0
 30
0.0
  9
$PUCSYDIR
 10
0.0
 20
1.0
 30
0.0
  9
$PUCSORTHOREF
  2

  9
$PUCSORTHOVIEW
 70
     0
  9
$PUCSORGTOP
 10
0.0
 20
0.0
 30
0.0
  9
$PUCSORGBOTTOM
 10
0.0
 20
0.0
 30
0.0
  9
$PUCSORGLEFT
 10
0.0
 20
0.0
 30
0.0
  9
$PUCSORGRIGHT
 10
0.0
 20
0.0
 30
0.0
  9
$PUCSORGFRONT
 10
0.0
 20
0.0
 30
0.0
  9
$PUCSORGBACK
 10
0.0
 20
0.0
 30
0.0
  9
$USERI1
 70
     0
  9
$USERI2
 70
     0
  9
$USERI3
 70
     0
  9
$USERI4
 70
     0
  9
$USERI5
 70
     0
  9
$USERR1
 40
0.0
  9
$USERR2
 40
0.0
  9
$USERR3
 40
0.0
  9
$USERR4
 40
0.0
  9
$USERR5
 40
0.0
  9
$WORLDVIEW
 70
     1
  9
$SHADEDGE
 70
     3
  9
$SHADEDIF
 70
    70
  9
$TILEMODE
 70
     1
  9
$MAXACTVP
 70
    64
  9
$PINSBASE
 10
0.0
 20
0.0
 30
0.0
  9
$PLIMCHECK
 70
     0
  9
$PEXTMIN
 10
0.0
 20
0.0
 30
0.0
  9
$PEXTMAX
 10
1682.0
 20
2378.0
 30
0.0
  9
$PLIMMIN
 10
0.0
 20
0.0
  9
$PLIMMAX
 10
1682.0
 20
2378.0
  9
$UNITMODE
 70
     0
  9
$VISRETAIN
 70
     1
  9
$PLINEGEN
 70
     0
  9
$PSLTSCALE
 70
     1
  9
$TREEDEPTH
 70
  3020
  9
$CMLSTYLE
  2
Standard
  9
$CMLJUST
 70
     0
  9
$CMLSCALE
 40
20.0
  9
$PROXYGRAPHICS
 70
     1
  9
$MEASUREMENT
 70
     1
  9
$CELWEIGHT
370
    -1
  9
$ENDCAPS
280
     0
  9
$JOINSTYLE
280
     0
  9
$LWDISPLAY
290
     0
  9
$INSUNITS
 70
     4
  9
$HYPERLINKBASE
  1

  9
$STYLESHEET
  1

  9
$XEDIT
290
     1
  9
$CEPSNTYPE
380
     0
  9
$PSTYLEMODE
290
     1
  9
$FINGERPRINTGUID
  2
{F4BDC1C3-5E5F-4D7E-8F3C-530D8188A0B1}
  9
$VERSIONGUID
  2
{FAEB1C32-E019-11D5-929B-00C0DF256EC4}
  9
$EXTNAMES
290
     1
  9
$PSVPSCALE
 40
0.0
  9
$OLESTARTUP
290
     0
  0
ENDSEC
  0
SECTION
  2
CLASSES
  0
CLASS
  1
ACDBDICTIONARYWDFLT
  2
AcDbDictionaryWithDefault
  3
ObjectDBX Classes
 90
        0
280
     0
281
     0
  0
CLASS
  1
VISUALSTYLE
  2
AcDbVisualStyle
  3
ObjectDBX Classes
 90
     4095
280
     0
281
     0
  0
CLASS
  1
SCALE
  2
AcDbScale
  3
ObjectDBX Classes
 90
     1153
280
     0
281
     0
  0
CLASS
  1
DICTIONARYVAR
  2
AcDbDictionaryVar
  3
ObjectDBX Classes
 90
        0
280
     0
281
     0
  0
CLASS
  1
ACDBPLACEHOLDER
  2
AcDbPlaceHolder
  3
ObjectDBX Classes
 90
        0
280
     0
281
     0
  0
CLASS
  1
LAYOUT
  2
AcDbLayout
  3
ObjectDBX Classes
 90
        0
280
     0
281
     0
  0
ENDSEC
  0
SECTION
  2
TABLES
  0
TABLE
  2
VPORT
  5
8
330
0
100
AcDbSymbolTable
 70
     1
  0
VPORT
  5
29
330
8
100
AcDbSymbolTableRecord
100
AcDbViewportTableRecord
  2
*Active
 70
     0
 10
0.0
 20
0.0
 11
1.0
 21
1.0
 12
344.1869158879
 22
148.5
 13
0.0
 23
0.0
 14
10.0
 24
10.0
 15
10.0
 25
10.0
 16
0.0
 26
0.0
 36
1.0
 17
0.0
 27
0.0
 37
0.0
 40
297.0
 41
1.9729729729
 42
50.0
 43
0.0
 44
0.0
 50
0.0
 51
0.0
 71
     0
 72
   100
 73
     1
 74
     3
 75
     0
 76
     0
 77
     0
 78
     0
281
     0
 65
     1
110
0.0
120
0.0
130
0.0
111
1.0
121
0.0
131
0.0
112
0.0
122
1.0
132
0.0
 79
     0
146
0.0
  0
ENDTAB
  0
TABLE
  2
LTYPE
  5
5
330
0
100
AcDbSymbolTable
 70
     2
  0
LTYPE
  5
14
330
5
100
AcDbSymbolTableRecord
100
AcDbLinetypeTableRecord
  2
ByBlock
 70
     0
  3

 72
    65
 73
     0
 40
0.0
  0
LTYPE
  5
15
330
5
100
AcDbSymbolTableRecord
100
AcDbLinetypeTableRecord
  2
ByLayer
 70
     0
  3

 72
    65
 73
     0
 40
0.0
  0
LTYPE
  5
16
330
5
100
AcDbSymbolTableRecord
100
AcDbLinetypeTableRecord
  2
Continuous
 70
     0
  3
Solid line
 72
    65
 73
     0
 40
0.0
  0
LTYPE
  5
60
330
5
100
AcDbSymbolTableRecord
100
AcDbLinetypeTableRecord
  2
CENTER2
 70
     0
  3
Center (.5x) ___ _ ___ _ ___ _ ___ _ ___ _ ___
 72
    65
 73
     4
 40
28.575
 49
19.05
 74
     4
 75
     0
340
0
 46
0.0
 50
0.0
 44
0.0
 45
0.0
 49
-3.175
 74
     4
 75
     0
340
0
 46
0.0
 50
0.0
 44
0.0
 45
0.0
 49
3.175
 74
     4
 75
     0
340
0
 46
0.0
 50
0.0
 44
0.0
 45
0.0
 49
-3.175
 74
     4
 75
     0
340
0
 46
0.0
 50
0.0
 44
0.0
 45
0.0
  0
ENDTAB
  0
TABLE
  2
LAYER
  5
2
330
0
100
AcDbSymbolTable
 70
     8
  0
LAYER
  5
10
330
2
100
AcDbSymbolTableRecord
100
AcDbLayerTableRecord
  2
0
 70
     0
 62
     7
  6
Continuous
370
    -3
390
F
  0
LAYER
  5
5D
330
2
100
AcDbSymbolTableRecord
100
AcDbLayerTableRecord
  2
Default
 70
     0
 62
     7
  6
Continuous
370
    -3
390
F
  0
LAYER
  5
77
330
2
100
AcDbSymbolTableRecord
100
AcDbLayerTableRecord
  2
401255038_GEH_EH
 70
     0
 62
     7
  6
Continuous
370
    -3
390
F
  0
LAYER
  5
87
330
2
100
AcDbSymbolTableRecord
100
AcDbLayerTableRecord
  2
$DDT_AUDIT_GENERATED_(87)
 70
     0
 62
     7
  6
Continuous
370
    -3
390
F
  0
LAYER
  5
8B
330
2
100
AcDbSymbolTableRecord
100
AcDbLayerTableRecord
  2
$DDT_AUDIT_GENERATED_(8B)
 70
     0
 62
     7
  6
Continuous
370
    -3
390
F
  0
LAYER
  5
90
330
2
100
AcDbSymbolTableRecord
100
AcDbLayerTableRecord
  2
$DDT_AUDIT_GENERATED_(90)
 70
     0
 62
     7
  6
Continuous
370
    -3
390
F
  0
LAYER
  5
C3
330
2
100
AcDbSymbolTableRecord
100
AcDbLayerTableRecord
  2
02636038_GEHÄUSE
 70
     0
 62
     7
  6
Continuous
370
    -3
390
F
  0
LAYER
  5
D9
330
2
100
AcDbSymbolTableRecord
100
AcDbLayerTableRecord
  2
$DDT_AUDIT_GENERATED_(D9)
 70
     0
 62
     7
  6
Continuous
370
    -3
390
F
  0
ENDTAB
  0
TABLE
  2
STYLE
  5
3
330
0
100
AcDbSymbolTable
 70
     2
  0
STYLE
  5
11
330
3
100
AcDbSymbolTableRecord
100
AcDbTextStyleTableRecord
  2
Standard
 70
     0
 40
0.0
 41
1.0
 50
0.0
 71
     0
 42
2.5
  3
txt
  4

  0
STYLE
  5
20C
330
3
100
AcDbSymbolTableRecord
100
AcDbTextStyleTableRecord
  2
SEACAD_seiso_ttf
 70
     0
 40
0.0
 41
1.0
 50
0.0
 71
     0
 42
0.2
  3
seiso.ttf
  4

  0
ENDTAB
  0
TABLE
  2
VIEW
  5
6
330
0
100
AcDbSymbolTable
 70
     0
  0
ENDTAB
  0
TABLE
  2
UCS
  5
7
330
0
100
AcDbSymbolTable
 70
     0
  0
ENDTAB
  0
TABLE
  2
APPID
  5
9
330
0
100
AcDbSymbolTable
 70
     1
  0
APPID
  5
12
330
9
100
AcDbSymbolTableRecord
100
AcDbRegAppTableRecord
  2
ACAD
 70
     0
  0
ENDTAB
  0
TABLE
  2
DIMSTYLE
  5
A
330
0
100
AcDbSymbolTable
 70
     1
100
AcDbDimStyleTable
  0
DIMSTYLE
105
27
330
A
100
AcDbSymbolTableRecord
100
AcDbDimStyleTableRecord
  2
ISO-25
 70
     0
 41
2.5
 42
0.625
 43
3.75
 44
1.25
 73
     0
 74
     0
 77
     1
 78
     8
140
2.5
141
2.5
143
0.0393700787
147
0.625
171
     3
172
     1
271
     2
272
     2
274
     3
278
    44
283
     0
284
     8
340
11
  0
ENDTAB
  0
TABLE
  2
BLOCK_RECORD
  5
1
330
0
100
AcDbSymbolTable
 70
     7
  0
BLOCK_RECORD
  5
1F
330
1
100
AcDbSymbolTableRecord
100
AcDbBlockTableRecord
  2
*Model_Space
340
22
  0
BLOCK_RECORD
  5
1B
330
1
100
AcDbSymbolTableRecord
100
AcDbBlockTableRecord
  2
*Paper_Space
340
1E
  0
BLOCK_RECORD
  5
5E
330
1
100
AcDbSymbolTableRecord
100
AcDbBlockTableRecord
  2
SEANNOT_GROUP
340
0
102
{BLKREFS
331
5F
102
}
  0
BLOCK_RECORD
  5
69
330
1
100
AcDbSymbolTableRecord
100
AcDbBlockTableRecord
  2
SEANNOT_GROUP1
340
0
102
{BLKREFS
331
6A
102
}
  0
BLOCK_RECORD
  5
6F
330
1
100
AcDbSymbolTableRecord
100
AcDbBlockTableRecord
  2
SEANNOT_GROUP2
340
0
102
{BLKREFS
331
70
102
}
  0
BLOCK_RECORD
  5
75
330
1
100
AcDbSymbolTableRecord
100
AcDbBlockTableRecord
  2
SE
340
0
102
{BLKREFS
331
76
102
}
  0
BLOCK_RECORD
  5
191
330
1
100
AcDbSymbolTableRecord
100
AcDbBlockTableRecord
  2
SE1
340
0
102
{BLKREFS
331
192
102
}
  0
BLOCK_RECORD
  5
1D6
330
1
100
AcDbSymbolTableRecord
100
AcDbBlockTableRecord
  2
SE2
340
0
102
{BLKREFS
331
1D7
102
}
  0
ENDTAB
  0
ENDSEC
  0
SECTION
  2
BLOCKS
  0
BLOCK
  5
20
330
1F
100
AcDbEntity
  8
0
100
AcDbBlockBegin
  2
*Model_Space
 70
     0
 10
0.0
 20
0.0
 30
0.0
  3
*Model_Space
  1

  0
ENDBLK
  5
21
330
1F
100
AcDbEntity
  8
0
100
AcDbBlockEnd
  0
BLOCK
  5
1C
330
1B
100
AcDbEntity
 67
     1
  8
0
100
AcDbBlockBegin
  2
*Paper_Space
 70
     0
 10
0.0
 20
0.0
 30
0.0
  3
*Paper_Space
  1

  0
ENDBLK
  5
1D
330
1B
100
AcDbEntity
 67
     1
  8
0
100
AcDbBlockEnd
  0
BLOCK
  5
67
330
5E
100
AcDbEntity
  8
0
100
AcDbBlockBegin
  2
SEANNOT_GROUP
 70
     0
 10
0.0
 20
0.0
 30
0.0
  3
SEANNOT_GROUP
  1

  0
LINE
  5
61
330
5E
100
AcDbEntity
  8
Default
  6
CENTER2
 62
     7
100
AcDbLine
 10
36.0109816166
 20
220.5972032511
 30
0.0
 11
36.0109816166
 21
260.5972023571
 31
0.0
  0
LINE
  5
62
330
5E
100
AcDbEntity
  8
Default
  6
CENTER2
 62
     7
100
AcDbLine
 10
56.0109811696
 20
240.5972028041
 30
0.0
 11
16.0109820637
 21
240.5972028041
 31
0.0
  0
LINE
  5
63
330
5E
100
AcDbEntity
  8
Default
  6
CENTER2
 62
     7
100
AcDbLine
 10
36.0109816166
 20
215.5972033629
 30
0.0
 11
36.0109816166
 21
211.9139461242
 31
0.0
  0
LINE
  5
64
330
5E
100
AcDbEntity
  8
Default
  6
CENTER2
 62
     7
100
AcDbLine
 10
61.0109810578
 20
240.5972028041
 30
0.0
 11
64.5109816166
 21
240.5972028041
 31
0.0
  0
LINE
  5
65
330
5E
100
AcDbEntity
  8
Default
  6
CENTER2
 62
     7
100
AcDbLine
 10
36.0109816166
 20
265.5972022453
 30
0.0
 11
36.0109816166
 21
269.280459484
 31
0.0
  0
LINE
  5
66
330
5E
100
AcDbEntity
  8
Default
  6
CENTER2
 62
     7
100
AcDbLine
 10
11.0109821754
 20
240.5972028041
 30
0.0
 11
7.5109816166
 21
240.5972028041
 31
0.0
  0
ENDBLK
  5
68
330
5E
100
AcDbEntity
  8
0
100
AcDbBlockEnd
  0
BLOCK
  5
6D
330
69
100
AcDbEntity
  8
0
100
AcDbBlockBegin
  2
SEANNOT_GROUP1
 70
     0
 10
0.0
 20
0.0
 30
0.0
  3
SEANNOT_GROUP1
  1

  0
LINE
  5
6B
330
69
100
AcDbEntity
  8
Default
  6
CENTER2
 62
     7
100
AcDbLine
 10
56.0109811696
 20
357.5896277117
 30
0.0
 11
16.0109820637
 21
357.5896277117
 31
0.0
  0
LINE
  5
6C
330
69
100
AcDbEntity
  8
Default
  6
CENTER2
 62
     7
100
AcDbLine
 10
36.0109816166
 20
377.5896272647
 30
0.0
 11
36.0109816166
 21
337.5896281587
 31
0.0
  0
ENDBLK
  5
6E
330
69
100
AcDbEntity
  8
0
100
AcDbBlockEnd
  0
BLOCK
  5
73
330
6F
100
AcDbEntity
  8
0
100
AcDbBlockBegin
  2
SEANNOT_GROUP2
 70
     0
 10
0.0
 20
0.0
 30
0.0
  3
SEANNOT_GROUP2
  1

  0
LINE
  5
71
330
6F
100
AcDbEntity
  8
Default
  6
CENTER2
 62
     7
100
AcDbLine
 10
195.75669427
 20
357.5896277117
 30
0.0
 11
155.7566951641
 21
357.5896277117
 31
0.0
  0
LINE
  5
72
330
6F
100
AcDbEntity
  8
Default
  6
CENTER2
 62
     7
100
AcDbLine
 10
175.756694717
 20
377.5896272647
 30
0.0
 11
175.756694717
 21
337.5896281587
 31
0.0
  0
ENDBLK
  5
74
330
6F
100
AcDbEntity
  8
0
100
AcDbBlockEnd
  0
BLOCK
  5
18F
330
75
100
AcDbEntity
  8
0
100
AcDbBlockBegin
  2
SE
 70
     0
 10
0.0
 20
0.0
 30
0.0
  3
SE
  1

  0
SPLINE
  5
78
330
75
100
AcDbEntity
  8
401255038_GEH_EH
  6
Continuous
 62
     7
100
AcDbSpline
210
0.0
220
0.0
230
1.0
 70
     8
 71
     3
 72
    20
 73
    16
 74
     0
 42
0.0000000006346783
 43
0.0000000001
 40
0.0
 40
0.0
 40
0.0
 40
0.0
 40
0.5000000000000003
 40
0.5000000000000003
 40
0.7500000000000002
 40
0.7500000000000002
 40
0.8125000000000003
 40
0.8125000000000003
 40
0.8750000000000003
 40
0.8750000000000003
 40
0.9375000000000004
 40
0.9375000000000004
 40
0.9687500000000002
 40
0.9687500000000002
 40
1.0
 40
1.0
 40
1.0
 40
1.0
 10
60.9452185869121
 20
468.6371467967183
 30
0.0
 10
59.55850138903335
 20
467.1305899199835
 30
0.0
 10
58.16805496306522
 20
465.6206451878845
 30
0.0
 10
56.06707992880075
 20
463.3483745200634
 30
0.0
 10
55.36295009328921
 20
462.5904052219814
 30
0.0
 10
54.4803899526342
 20
461.6403704989272
 30
0.0
 10
54.30413316796441
 20
461.4498519975568
 30
0.0
 10
53.93961691351332
 20
461.0689534636106
 30
0.0
 10
53.80379322087042
 20
460.878029142845
 30
0.0
 10
53.37503504165572
 20
460.485845617389
 30
0.0
 10
53.0453339213949
 20
460.2840125300499
 30
0.0
 10
51.93616318934547
 20
459.9935540062177
 30
0.0
 10
51.47291201486023
 20
459.8993308379892
 30
0.0
 10
50.34673525892769
 20
459.7223403793915
 30
0.0
 10
49.67034756416681
 20
459.6319833143616
 30
0.0
 10
48.87334957799691
 20
459.5705439979373
 30
0.0
  0
SPLINE
  5
79
330
75
100
AcDbEntity
  8
401255038_GEH_EH
  6
Continuous
 62
     7
100
AcDbSpline
210
0.0
220
0.0
230
1.0
 70
     8
 71
     3
 72
    24
 73
    20
 74
     0
 42
0.0000000006346997
 43
0.0000000001
 40
0.0
 40
0.0
 40
0.0
 40
0.0
 40
0.0312499999999999
 40
0.0312499999999999
 40
0.0624999999999999
 40
0.0624999999999999
 40
0.1249999999999997
 40
0.1249999999999997
 40
0.1874999999999996
 40
0.1874999999999996
 40
0.2499999999999994
 40
0.2499999999999994
 40
0.4999999999999996
 40
0.4999999999999996
 40
0.7499999999999996
 40
0.7499999999999996
 40
0.8749999999999998
 40
0.8749999999999998
 40
1.0
 40
1.0
 40
1.0
 40
1.0
 10
23.148566550313
 20
459.5706442934149
 30
0.0
 10
22.3554918526852
 20
459.6304293811977
 30
0.0
 10
21.67300308777438
 20
459.7230888829467
 30
0.0
 10
20.53931985282673
 20
459.9003160791317
 30
0.0
 10
20.07353722914415
 20
459.9957444209664
 30
0.0
 10
18.97648235247291
 20
460.2862551599596
 30
0.0
 10
18.64526254387247
 20
460.4866694715124
 30
0.0
 10
18.21706863642601
 20
460.879804428891
 30
0.0
 10
18.08129066846956
 20
461.0700452846128
 30
0.0
 10
17.71673181076765
 20
461.4510452778008
 30
0.0
 10
17.54059307778981
 20
461.6414305777049
 30
0.0
 10
16.65805217189168
 20
462.5914963516454
 30
0.0
 10
15.95411374797139
 20
463.3491519785634
 30
0.0
 10
14.55364622787451
 20
464.8638541867493
 30
0.0
 10
13.85609280206013
 20
465.6199468571108
 30
0.0
 10
12.81219228701089
 20
466.7525371947171
 30
0.0
 10
12.46463559032029
 20
467.1298704676915
 30
0.0
 10
11.77020944175364
 20
467.8838129621298
 30
0.0
 10
11.42186576080735
 20
468.2621162724244
 30
0.0
 10
11.0767454385411
 20
468.6371454922062
 30
0.0
  0
ARC
  5
7A
330
75
100
AcDbEntity
  8
401255038_GEH_EH
  6
Continuous
 62
     7
100
AcDbCircle
 10
36.0116418875
 20
634.9644228476
 30
0.0
 40
175.8648238353557
100
AcDbArc
 50
265.8055361834
 51
274.1940170484
  0
SPLINE
  5
7B
330
75
100
AcDbEntity
  8
401255038_GEH_EH
  6
Continuous
 62
     7
100
AcDbSpline
210
0.0
220
0.0
230
1.0
 70
     8
 71
     3
 72
    36
 73
    32
 74
     0
 42
0.0000000001627678
 43
0.0000000001
 40
0.0
 40
0.0
 40
0.0
 40
0.0
 40
0.2499999999999984
 40
0.2499999999999984
 40
0.3749999999999976
 40
0.3749999999999976
 40
0.4062499999999974
 40
0.4062499999999974
 40
0.4374999999999972
 40
0.4374999999999972
 40
0.4531249999999971
 40
0.4531249999999971
 40
0.4687499999999969
 40
0.4687499999999969
 40
0.4999999999999968
 40
0.4999999999999968
 40
0.5312499999999967
 40
0.5312499999999967
 40
0.5468749999999967
 40
0.5468749999999967
 40
0.5624999999999968
 40
0.5624999999999968
 40
0.5781249999999969
 40
0.5781249999999969
 40
0.5937499999999971
 40
0.5937499999999971
 40
0.6249999999999973
 40
0.6249999999999973
 40
0.7499999999999982
 40
0.7499999999999982
 40
1.0
 40
1.0
 40
1.0
 40
1.0
 10
60.89858668818904
 20
479.8716375531102
 30
0.0
 10
59.02741742233579
 20
477.4684727909211
 30
0.0
 10
57.15896702273301
 20
475.0698587214044
 30
0.0
 10
54.35835619120161
 20
471.4848568937637
 30
0.0
 10
53.42442946218684
 20
470.289318460713
 30
0.0
 10
52.25796553382342
 20
468.8051172214849
 30
0.0
 10
52.07173727948042
 20
468.5104898765489
 30
0.0
 10
51.24175587394143
 20
467.9601264587379
 30
0.0
 10
50.57939221540578
 20
467.6927841348448
 30
0.0
 10
48.63302813672243
 20
467.3652108100517
 30
0.0
 10
47.80501908699884
 20
467.263021332706
 30
0.0
 10
45.94661124023835
 20
467.0738702715707
 30
0.0
 10
44.93517730447174
 20
466.9915717121565
 30
0.0
 10
41.64209430123738
 20
466.785476471902
 30
0.0
 10
39.12320061700814
 20
466.7040015803221
 30
0.0
 10
34.04528814512149
 20
466.6836220611623
 30
0.0
 10
31.49401099251038
 20
466.7432250682507
 30
0.0
 10
28.0492819150477
 20
466.9250378291911
 30
0.0
 10
26.96957568856104
 20
467.0001965633535
 30
0.0
 10
24.9977477990738
 20
467.1762308631292
 30
0.0
 10
24.10690552127321
 20
467.274111390238
 30
0.0
 10
22.62748673843067
 20
467.4818504604534
 30
0.0
 10
22.03559992063392
 20
467.5986743540556
 30
0.0
 10
21.13801484900763
 20
467.8459984285855
 30
0.0
 10
20.81452479892472
 20
467.978319485514
 30
0.0
 10
20.06413883950156
 20
468.3891807353697
 30
0.0
 10
19.85980292544891
 20
468.6822125802309
 30
0.0
 10
18.68320045837709
 20
470.1840899179642
 30
0.0
 10
17.73599218390587
 20
471.3920927516975
 30
0.0
 10
14.90384853465654
 20
475.017694700442
 30
0.0
 10
13.0137027383226
 20
477.4438096592017
 30
0.0
 10
11.12124215056901
 20
479.8743680687656
 30
0.0
  0
SPLINE
  5
7C
330
75
100
AcDbEntity
  8
401255038_GEH_EH
  6
Continuous
 62
     7
100
AcDbSpline
210
0.0
220
0.0
230
1.0
 70
     8
 71
     3
 72
    18
 73
    14
 74
     0
 42
0.0000000001326559
 43
0.0000000001
 40
0.0
 40
0.0
 40
0.0
 40
0.0
 40
0.0312499999999998
 40
0.0312499999999998
 40
0.0624999999999996
 40
0.0624999999999996
 40
0.1249999999999996
 40
0.1249999999999996
 40
0.2499999999999993
 40
0.2499999999999993
 40
0.3749999999999991
 40
0.3749999999999991
 40
0.3752881408118415
 40
0.3752881408118415
 40
0.3752881408118415
 40
0.3752881408118415
 10
11.0767454385411
 20
468.6371454922062
 30
0.0
 10
11.13071297197622
 20
467.9164641521642
 30
0.0
 10
11.21060476543596
 20
467.1687918497478
 30
0.0
 10
11.41974953941326
 20
465.7170547185726
 30
0.0
 10
11.54945452933511
 20
464.9951730845283
 30
0.0
 10
12.0132158739517
 20
462.8434999814166
 30
0.0
 10
12.42232670104165
 20
461.4280751864161
 30
0.0
 10
13.96848006791684
 20
457.2403538259275
 30
0.0
 10
15.44265333553718
 20
454.4993802672013
 30
0.0
 10
19.38569974078174
 20
449.512372944695
 30
0.0
 10
21.89159994319528
 20
447.2104448744207
 30
0.0
 10
25.02383222007953
 20
445.4601193013873
 30
0.0
 10
25.03103955061532
 20
445.4560967717499
 30
0.0
 10
25.03825061869864
 20
445.452077164085
 30
0.0
  0
SPLINE
  5
7D
330
75
100
AcDbEntity
  8
401255038_GEH_EH
  6
Continuous
 62
     7
100
AcDbSpline
210
0.0
220
0.0
230
1.0
 70
     8
 71
     3
 72
    20
 73
    16
 74
     0
 42
0.0000000001328618
 43
0.0000000001
 40
0.6257814333360021
 40
0.6257814333360021
 40
0.6257814333360021
 40
0.6257814333360021
 40
0.6874999999999992
 40
0.6874999999999992
 40
0.7499999999999994
 40
0.7499999999999994
 40
0.8124999999999996
 40
0.8124999999999996
 40
0.8749999999999998
 40
0.8749999999999998
 40
0.9374999999999999
 40
0.9374999999999999
 40
0.96875
 40
0.96875
 40
0.9999919255234154
 40
0.9999919255234154
 40
0.9999919255234154
 40
0.9999919255234154
 10
47.02233688531307
 20
445.4737036965585
 30
0.0
 10
48.56257032749158
 20
446.3360446539599
 30
0.0
 10
49.97013717270134
 20
447.3502829510896
 30
0.0
 10
52.47492314598912
 20
449.5357682178047
 30
0.0
 10
53.58632952121826
 20
450.7185613029876
 30
0.0
 10
55.56963317130009
 20
453.2177749648823
 30
0.0
 10
56.43684132244734
 20
454.5343403133807
 30
0.0
 10
57.92088092931304
 20
457.2106271315458
 30
0.0
 10
58.54447351586504
 20
458.580030621664
 30
0.0
 10
59.58354636321464
 20
461.3747772486915
 30
0.0
 10
59.99811681609876
 20
462.7994771123143
 30
0.0
 10
60.46920826960037
 20
464.9765598965818
 30
0.0
 10
60.60024972855674
 20
465.7053762065865
 30
0.0
 10
60.81100888250288
 20
467.1672767767464
 30
0.0
 10
60.89153639332866
 20
467.9092052152573
 30
0.0
 10
60.94517700204921
 20
468.6365828273379
 30
0.0
  0
SPLINE
  5
7E
330
75
100
AcDbEntity
  8
401255038_GEH_EH
  6
Continuous
 62
     7
100
AcDbSpline
210
0.0
220
0.0
230
1.0
 70
     8
 71
     3
 72
    26
 73
    22
 74
     0
 42
0.0000000002070183
 43
0.0000000001
 40
0.0
 40
0.0
 40
0.0
 40
0.0
 40
0.0624999999999997
 40
0.0624999999999997
 40
0.1249999999999993
 40
0.1249999999999993
 40
0.187499999999999
 40
0.187499999999999
 40
0.2499999999999987
 40
0.2499999999999987
 40
0.2812499999999985
 40
0.2812499999999985
 40
0.3124999999999983
 40
0.3124999999999983
 40
0.3749999999999984
 40
0.3749999999999984
 40
0.4374999999999986
 40
0.4374999999999986
 40
0.4999999999999988
 40
0.4999999999999988
 40
0.545646358501097
 40
0.545646358501097
 40
0.545646358501097
 40
0.545646358501097
 10
48.26097865699198
 20
452.723075865012
 30
0.0
 10
48.26097865699199
 20
452.9610287885737
 30
0.0
 10
47.93011295308956
 20
452.8835382924141
 30
0.0
 10
46.75163245885487
 20
452.5132516796704
 30
0.0
 10
45.89656549680059
 20
452.2300604223941
 30
0.0
 10
43.75383923867682
 20
451.7202906463251
 30
0.0
 10
42.42939202275125
 20
451.4851215734715
 30
0.0
 10
39.49926858558446
 20
451.1620512744736
 30
0.0
 10
37.84863149589101
 20
451.0704707360323
 30
0.0
 10
35.37755775154859
 20
451.0609904641782
 30
0.0
 10
34.53825098094834
 20
451.0790922815572
 30
0.0
 10
32.92567615009304
 20
451.1545112870617
 30
0.0
 10
32.14034114428453
 20
451.2123244252298
 30
0.0
 10
29.86945878469002
 20
451.442890444625
 30
0.0
 10
28.52919143470329
 20
451.6695882622687
 30
0.0
 10
26.31219766661775
 20
452.176810142431
 30
0.0
 10
25.42572470476681
 20
452.4621552329199
 30
0.0
 10
24.18328051317719
 20
452.8571259661073
 30
0.0
 10
23.80936494080983
 20
452.9625033651906
 30
0.0
 10
23.73325319976529
 20
452.6231817450476
 30
0.0
 10
23.8856204605609
 20
452.302786897324
 30
0.0
 10
24.20296921496571
 20
451.8654751890562
 30
0.0
  0
SPLINE
  5
7F
330
75
100
AcDbEntity
  8
401255038_GEH_EH
  6
Continuous
 62
     7
100
AcDbSpline
210
0.0
220
0.0
230
1.0
 70
     8
 71
     3
 72
     8
 73
     4
 74
     0
 42
0.0000000004163936
 43
0.0000000001
 40
0.9584885657133668
 40
0.9584885657133668
 40
0.9584885657133668
 40
0.9584885657133668
 40
1.0
 40
1.0
 40
1.0
 40
1.0
 10
47.81363586018566
 20
451.8583742215729
 30
0.0
 10
48.10560938758587
 20
452.2597285820294
 30
0.0
 10
48.26097865699197
 20
452.5650315906161
 30
0.0
 10
48.26097865699198
 20
452.723075865012
 30
0.0
  0
LINE
  5
80
330
75
100
AcDbEntity
  8
401255038_GEH_EH
  6
Continuous
 62
     7
100
AcDbLine
 10
60.7109816166
 20
357.5896277117
 30
0.0
 11
11.3109816166
 21
357.5896277117
 31
0.0
  0
LINE
  5
81
330
75
100
AcDbEntity
  8
401255038_GEH_EH
  6
Continuous
 62
     7
100
AcDbLine
 10
11.0109816166
 20
480.1601584688
 30
0.0
 11
11.0109816166
 21
357.8896277117
 31
0.0
  0
LINE
  5
82
330
75
100
AcDbEntity
  8
401255038_GEH_EH
  6
Continuous
 62
     7
100
AcDbLine
 10
61.0109816166
 20
357.8896277117
 30
0.0
 11
61.0109816166
 21
480.1601584688
 31
0.0
  0
SPLINE
  5
83
330
75
100
AcDbEntity
  8
401255038_GEH_EH
  6
Continuous
 62
     7
100
AcDbSpline
210
0.0
220
0.0
230
1.0
 70
     8
 71
     3
 72
    17
 73
    13
 74
     0
 42
0.0000000004568053
 43
0.0000000001
 40
0.0
 40
0.0
 40
0.0
 40
0.0
 40
0.0054339669064888
 40
0.0141611759049818
 40
0.0230601338177361
 40
0.0325929133191615
 40
0.0432511125984806
 40
0.0554663228276378
 40
0.0692013941215166
 40
0.0836158015927161
 40
0.097803354921676
 40
0.1041500564579964
 40
0.1041500564579964
 40
0.1041500564579964
 40
0.1041500564579964
 10
61.00594108819891
 20
480.1583203088719
 30
0.0
 10
61.00667529753473
 20
480.201704453612
 30
0.0
 10
61.00757098216536
 20
480.2970678580043
 30
0.0
 10
60.9633973344905
 20
480.4611541709394
 30
0.0
 10
60.88493488552009
 20
480.6284035776295
 30
0.0
 10
60.77340232027193
 20
480.7853577198765
 30
0.0
 10
60.62733841254369
 20
480.9360189258255
 30
0.0
 10
60.43782223564492
 20
481.0856788168032
 30
0.0
 10
60.19840750397619
 20
481.2346617031282
 30
0.0
 10
59.91019293479167
 20
481.380007990909
 30
0.0
 10
59.63931101029233
 20
481.4940831626544
 30
0.0
 10
59.46574505308226
 20
481.5593070492434
 30
0.0
 10
59.41071179841714
 20
481.5793093407111
 30
0.0
  0
SPLINE
  5
84
330
75
100
AcDbEntity
  8
401255038_GEH_EH
  6
Continuous
 62
     7
100
AcDbSpline
210
0.0
220
0.0
230
1.0
 70
     8
 71
     3
 72
    17
 73
    13
 74
     0
 42
0.0000000004556354
 43
0.0000000001
 40
0.8949435873711886
 40
0.8949435873711886
 40
0.8949435873711886
 40
0.8949435873711886
 40
0.89794493037387
 40
0.9115659635573512
 40
0.9253970226802769
 40
0.9395147036911687
 40
0.9539464860698588
 40
0.9656202135744341
 40
0.9757187416518236
 40
0.9847831271955446
 40
0.9932710128147046
 40
1.0
 40
1.0
 40
1.0
 40
1.0
 10
12.63656927762943
 20
481.5884642787097
 30
0.0
 10
12.61034335304416
 20
481.5790275414396
 30
0.0
 10
12.46681792336902
 20
481.5265736142255
 30
0.0
 10
12.22128793932253
 20
481.4284695054988
 30
0.0
 10
11.92430748830402
 20
481.2885901491579
 30
0.0
 10
11.65933605673492
 20
481.1368939780578
 30
0.0
 10
11.44199308541492
 20
480.9785340844313
 30
0.0
 10
11.27361000211408
 20
480.8153617941398
 30
0.0
 10
11.15165183538124
 20
480.6530104975957
 30
0.0
 10
11.06773247044396
 20
480.485674767367
 30
0.0
 10
11.01753959666076
 20
480.3155265634402
 30
0.0
 10
11.01565377904254
 20
480.2133403887057
 30
0.0
 10
11.01513585740124
 20
480.1595587076413
 30
0.0
  0
ARC
  5
85
330
75
100
AcDbEntity
  8
401255038_GEH_EH
  6
Continuous
 62
     7
100
AcDbCircle
 10
60.7109816166
 20
357.8896277117
 30
0.0
 40
0.2999999999999984
100
AcDbArc
 50
270.0
 51
0.6952724236
  0
ARC
  5
86
330
75
100
AcDbEntity
  8
401255038_GEH_EH
  6
Continuous
 62
     7
100
AcDbCircle
 10
11.3109816166
 20
357.8896277117
 30
0.0
 40
0.2999999999999989
100
AcDbArc
 50
179.4489157188
 51
270.0
  0
ELLIPSE
  5
88
330
75
100
AcDbEntity
  8
$DDT_AUDIT_GENERATED_(87)
  6
Continuous
 62
     7
100
AcDbEllipse
 10
36.010978657
 20
493.4265648149
 30
0.0
 11
-1.679217777651809E-14
 21
3.829126358332463
 31
0.0
210
0.0
220
0.0
230
1.0
 40
0.9009888098
 41
0.0
 42
6.283185307179586
  0
LINE
  5
89
330
75
100
AcDbEntity
  8
$DDT_AUDIT_GENERATED_(87)
  6
Continuous
 62
     7
100
AcDbLine
 10
32.560978657
 20
493.7047153
 30
0.0
 11
32.560978657
 21
493.4265648149
 31
0.0
  0
LINE
  5
8A
330
75
100
AcDbEntity
  8
$DDT_AUDIT_GENERATED_(87)
  6
Continuous
 62
     7
100
AcDbLine
 10
39.460978657
 20
493.4265648149
 30
0.0
 11
39.460978657
 21
493.7047153
 31
0.0
  0
ELLIPSE
  5
8C
330
75
100
AcDbEntity
  8
$DDT_AUDIT_GENERATED_(8B)
  6
Continuous
 62
     7
100
AcDbEllipse
 10
36.010978657
 20
480.6564321698
 30
0.0
 11
23.64931288642444
 21
-1.387778780781446E-14
 31
0.0
210
0.0
220
0.0
230
1.0
 40
0.1218693434
 41
3.108358458993485
 42
6.283185307179586
  0
ELLIPSE
  5
8D
330
75
100
AcDbEntity
  8
$DDT_AUDIT_GENERATED_(8B)
  6
Continuous
 62
     7
100
AcDbEllipse
 10
36.010978657
 20
480.6564321698
 30
0.0
 11
23.64931288642444
 21
-1.387778780781446E-14
 31
0.0
210
0.0
220
0.0
230
1.0
 40
0.1218693434
 41
0.0000000000000048
 42
0.0332341945962776
  0
ARC
  5
8E
330
75
100
AcDbEntity
  8
$DDT_AUDIT_GENERATED_(8B)
  6
Continuous
 62
     7
100
AcDbCircle
 10
36.010978657
 20
474.3041367993
 30
0.0
 40
24.5
100
AcDbArc
 50
15.2592067034
 51
18.8868186686
  0
ARC
  5
8F
330
75
100
AcDbEntity
  8
$DDT_AUDIT_GENERATED_(8B)
  6
Continuous
 62
     7
100
AcDbCircle
 10
36.010978657
 20
474.3041367993
 30
0.0
 40
24.5
100
AcDbArc
 50
161.1150912698
 51
164.7407932966
  0
LINE
  5
91
330
75
100
AcDbEntity
  8
$DDT_AUDIT_GENERATED_(90)
  6
Continuous
 62
     7
100
AcDbLine
 10
12.7598053228
 20
512.7625655513
 30
0.0
 11
12.7598403552
 21
512.7637001652
 31
0.0
  0
ARC
  5
92
330
75
100
AcDbEntity
  8
$DDT_AUDIT_GENERATED_(90)
  6
Continuous
 62
     7
100
AcDbCircle
 10
13.2546491853
 20
512.7546317302
 30
0.0
 40
0.4948919223644477
100
AcDbArc
 50
116.2555475073
 51
178.9500492756
  0
ARC
  5
93
330
75
100
AcDbEntity
  8
$DDT_AUDIT_GENERATED_(90)
  6
Continuous
 62
     7
100
AcDbCircle
 10
13.6930698596
 20
509.8185904668
 30
0.0
 40
1.060013214301922
100
AcDbArc
 50
176.5131505569
 51
182.0282146517
  0
ARC
  5
94
330
75
100
AcDbEntity
  8
$DDT_AUDIT_GENERATED_(90)
  6
Continuous
 62
     7
100
AcDbCircle
 10
-17.2949371772
 20
570.0086086327
 30
0.0
 40
67.4187407585479
100
AcDbArc
 50
296.711569157
 51
302.5530721647
  0
ARC
  5
95
330
75
100
AcDbEntity
  8
$DDT_AUDIT_GENERATED_(90)
  6
Continuous
 62
     7
100
AcDbCircle
 10
19.0780283179
 20
513.6742321712
 30
0.0
 40
0.5017526882505393
100
AcDbArc
 50
159.3998304681
 51
258.9406382969
  0
SPLINE
  5
96
330
75
100
AcDbEntity
  8
$DDT_AUDIT_GENERATED_(90)
  6
Continuous
 62
     7
100
AcDbSpline
210
0.0
220
0.0
230
1.0
 70
    12
 71
     2
 72
     6
 73
     3
 74
     0
 42
0.0000006115759082
 43
0.0000000001
 40
0.8445261684777557
 40
0.8445261684777557
 40
0.8445261684777557
 40
1.0
 40
1.0
 40
1.0
 10
36.0118900275516
 20
517.8961446363395
 30
0.0
 41
0.9860296485088972
 10
36.01188625952121
 20
517.8973665773697
 30
0.0
 41
0.9917288818200364
 10
36.01188086749306
 20
517.8960463515041
 30
0.0
 41
1.0
  0
SPLINE
  5
97
330
75
100
AcDbEntity
  8
$DDT_AUDIT_GENERATED_(90)
  6
Continuous
 62
     7
100
AcDbSpline
210
0.0
220
0.0
230
1.0
 70
    12
 71
     3
 72
    10
 73
     6
 74
     0
 42
0.0000000001033643
 43
0.0000000001
 40
0.0158079145729389
 40
0.0158079145729389
 40
0.0158079145729389
 40
0.0158079145729389
 40
0.0176959745387938
 40
0.0176959745387938
 40
0.0186921800376332
 40
0.0186921800376332
 40
0.0186921800376332
 40
0.0186921800376332
 10
34.46706237022472
 20
517.892005886112
 30
0.0
 41
1.0
 10
34.40608124670014
 20
517.891683464619
 30
0.0
 41
1.0
 10
34.34516244977351
 20
517.8913417541395
 30
0.0
 41
1.0
 10
34.25219598865993
 20
517.8907902850991
 30
0.0
 41
1.0
 10
34.22010337130941
 20
517.8905944387519
 30
0.0
 41
1.0
 10
34.18802810474715
 20
517.8903932226408
 30
0.0
 41
1.0
  0
SPLINE
  5
98
330
75
100
AcDbEntity
  8
$DDT_AUDIT_GENERATED_(90)
  6
Continuous
 62
     7
100
AcDbSpline
210
0.0
220
0.0
230
1.0
 70
    12
 71
     3
 72
    10
 73
     6
 74
     0
 42
0.0000000001049405
 43
0.0000000001
 40
0.0289213189890282
 40
0.0289213189890282
 40
0.0289213189890282
 40
0.0289213189890282
 40
0.0335088411720262
 40
0.0335088411720262
 40
0.0336106698422284
 40
0.0336106698422284
 40
0.0336106698422284
 40
0.0336106698422284
 10
33.20544389087803
 20
517.8825013994476
 30
0.0
 41
1.0
 10
33.0593676344692
 20
517.8810702778655
 30
0.0
 41
1.0
 10
32.91365153355701
 20
517.8795276944859
 30
0.0
 41
1.0
 10
32.76506377274445
 20
517.8778385957311
 30
0.0
 41
1.0
 10
32.76183738287855
 20
517.877801863043
 30
0.0
 41
1.0
 10
32.75861116789713
 20
517.8777650762312
 30
0.0
 41
1.0
  0
SPLINE
  5
99
330
75
100
AcDbEntity
  8
$DDT_AUDIT_GENERATED_(90)
  6
Continuous
 62
     7
100
AcDbSpline
210
0.0
220
0.0
230
1.0
 70
    12
 71
     3
 72
    10
 73
     6
 74
     0
 42
0.0000000001173392
 43
0.0000000001
 40
0.07454430822796
 40
0.07454430822796
 40
0.07454430822796
 40
0.07454430822796
 40
0.0809474410717225
 40
0.0809474410717225
 40
0.0820307125511394
 40
0.0820307125511394
 40
0.0820307125511394
 40
0.0820307125511394
 10
29.00455777875312
 20
517.8072129142923
 30
0.0
 41
1.0
 10
28.82036669172192
 20
517.8022286151026
 30
0.0
 41
1.0
 10
28.63821649154082
 20
517.7970513604934
 30
0.0
 41
1.0
 10
28.42758913957373
 20
517.7907771124989
 30
0.0
 41
1.0
 10
28.39716893347764
 20
517.7898638249707
 30
0.0
 41
1.0
 10
28.36680601373345
 20
517.7889451213109
 30
0.0
 41
1.0
  0
ARC
  5
9A
330
75
100
AcDbEntity
  8
$DDT_AUDIT_GENERATED_(90)
  6
Continuous
 62
     7
100
AcDbCircle
 10
32.2061377982
 20
598.1436873674
 30
0.0
 40
90.42014638256565
100
AcDbArc
 50
257.7427007649
 51
272.4122660395
  0
SPLINE
  5
9B
330
75
100
AcDbEntity
  8
$DDT_AUDIT_GENERATED_(90)
  6
Continuous
 62
     7
100
AcDbSpline
210
0.0
220
0.0
230
1.0
 70
    12
 71
     3
 72
   140
 73
   136
 74
     0
 42
0.0000000005806314
 43
0.0000000001
 40
0.0
 40
0.0
 40
0.0
 40
0.0
 40
0.0157194533715449
 40
0.0157194533715449
 40
0.0314392148330125
 40
0.0314392148330125
 40
0.0628787377559476
 40
0.0628787377559476
 40
0.0943182606788824
 40
0.0943182606788824
 40
0.1257577836018175
 40
0.1257577836018175
 40
0.1571973065247521
 40
0.1571973065247521
 40
0.1886368294476872
 40
0.1886368294476872
 40
0.2200763523706195
 40
0.2200763523706195
 40
0.2515158752935546
 40
0.2515158752935546
 40
0.2593757560242881
 40
0.2593757560242881
 40
0.2672356367550222
 40
0.2672356367550222
 40
0.28295539821649
 40
0.28295539821649
 40
0.2986751596779564
 40
0.2986751596779564
 40
0.3143949211394229
 40
0.3143949211394229
 40
0.3301146826008921
 40
0.3301146826008921
 40
0.3340446229662588
 40
0.3340446229662588
 40
0.3379745633316253
 40
0.3379745633316253
 40
0.3458344440623586
 40
0.3458344440623586
 40
0.3536943247930946
 40
0.3536943247930946
 40
0.3615542055238278
 40
0.3615542055238278
 40
0.3772739669852943
 40
0.3772739669852943
 40
0.3929937284467607
 40
0.3929937284467607
 40
0.4008536091774967
 40
0.4008536091774967
 40
0.4087134899082299
 40
0.4087134899082299
 40
0.4401530128311656
 40
0.4401530128311656
 40
0.4715925357540985
 40
0.4715925357540985
 40
0.487312297215565
 40
0.487312297215565
 40
0.5030320586770342
 40
0.5030320586770342
 40
0.5187518201385034
 40
0.5187518201385034
 40
0.5226817605038672
 40
0.5226817605038672
 40
0.5266117008692338
 40
0.5266117008692338
 40
0.5344715815999671
 40
0.5344715815999671
 40
0.5501913430614334
 40
0.5501913430614334
 40
0.5580512237921667
 40
0.5580512237921667
 40
0.5659111045229027
 40
0.5659111045229027
 40
0.5973506274458356
 40
0.5973506274458356
 40
0.6287901503687713
 40
0.6287901503687713
 40
0.6602296732917069
 40
0.6602296732917069
 40
0.6759494347531734
 40
0.6759494347531734
 40
0.6798793751185399
 40
0.6798793751185399
 40
0.6838093154839066
 40
0.6838093154839066
 40
0.6916691962146426
 40
0.6916691962146426
 40
0.707388957676109
 40
0.707388957676109
 40
0.7231087191375756
 40
0.7231087191375756
 40
0.7388284805990448
 40
0.7388284805990448
 40
0.7545482420605111
 40
0.7545482420605111
 40
0.7859877649834469
 40
0.7859877649834469
 40
0.8174272879063713
 40
0.8174272879063713
 40
0.8331470493678574
 40
0.8331470493678574
 40
0.841006930098585
 40
0.841006930098585
 40
0.8449368704639488
 40
0.8449368704639488
 40
0.8488668108293125
 40
0.8488668108293125
 40
0.8645865722907706
 40
0.8645865722907706
 40
0.8724464530215263
 40
0.8724464530215263
 40
0.8763763933868901
 40
0.8763763933868901
 40
0.8803063337522539
 40
0.8803063337522539
 40
0.896026095213709
 40
0.896026095213709
 40
0.9117458566751949
 40
0.9117458566751949
 40
0.9274656181366502
 40
0.9274656181366502
 40
0.9431853795981053
 40
0.9431853795981053
 40
0.9746249025210466
 40
0.9746249025210466
 40
0.990344663982533
 40
0.990344663982533
 40
0.9982045447132605
 40
0.9982045447132605
 40
0.9991870298045931
 40
0.9991870298045931
 40
0.9996782723502606
 40
0.9996782723502606
 40
0.9999238936231086
 40
0.9999238936231086
 40
1.0
 40
1.0
 40
1.0
 40
1.0
 10
18.98177914953349
 20
513.1817975484018
 30
0.0
 41
1.0
 10
18.99833915472374
 20
513.191768879033
 30
0.0
 41
1.0
 10
19.01501250614562
 20
513.2018366880491
 30
0.0
 41
1.0
 10
19.04841600798429
 20
513.2219745033119
 30
0.0
 41
1.0
 10
19.06514906971539
 20
513.2320576923371
 30
0.0
 41
1.0
 10
19.11541926106659
 20
513.2623446911475
 30
0.0
 41
1.0
 10
19.14903185826209
 20
513.2825881889897
 30
0.0
 41
1.0
 10
19.21620137874049
 20
513.3231014219433
 30
0.0
 41
1.0
 10
19.24975800894428
 20
513.3433707350346
 30
0.0
 41
1.0
 10
19.31653970592979
 20
513.383769579155
 30
0.0
 41
1.0
 10
19.34973320642749
 20
513.4038803158014
 30
0.0
 41
1.0
 10
19.41571391162989
 20
513.4438736834239
 30
0.0
 41
1.0
 10
19.44852380218859
 20
513.4637627813181
 30
0.0
 41
1.0
 10
19.51394061292499
 20
513.5033193060896
 30
0.0
 41
1.0
 10
19.54654947791839
 20
513.5229866158251
 30
0.0
 41
1.0
 10
19.61171168941339
 20
513.5620927978646
 30
0.0
 41
1.0
 10
19.64423362869799
 20
513.5815224202098
 30
0.0
 41
1.0
 10
19.70926451524139
 20
513.6202720974633
 30
0.0
 41
1.0
 10
19.74178039202619
 20
513.6395940404757
 30
0.0
 41
1.0
 10
19.78254169078889
 20
513.6638606382795
 30
0.0
 41
1.0
 10
19.79069985820628
 20
513.6687200028472
 30
0.0
 41
1.0
 10
19.80703125435079
 20
513.6784566825831
 30
0.0
 41
1.0
 10
19.81520296616749
 20
513.6833341547638
 30
0.0
 41
1.0
 10
19.83996501151149
 20
513.6979758639014
 30
0.0
 41
1.0
 10
19.85680108989669
 20
513.7077487050317
 30
0.0
 41
1.0
 10
19.89238052623039
 20
513.7272357642578
 30
0.0
 41
1.0
 10
19.91112771520349
 20
513.736949720832
 30
0.0
 41
1.0
 10
19.95179708282529
 20
513.7562618030862
 30
0.0
 41
1.0
 10
19.97371623081329
 20
513.7658606764425
 30
0.0
 41
1.0
 10
20.02200147229459
 20
513.7848909928837
 30
0.0
 41
1.0
 10
20.04836766039079
 20
513.7943227253929
 30
0.0
 41
1.0
 10
20.08492853279329
 20
513.8059703883026
 30
0.0
 41
1.0
 10
20.09242147226418
 20
513.8082927325156
 30
0.0
 41
1.0
 10
20.10778636010769
 20
513.8129223405411
 30
0.0
 41
1.0
 10
20.11565683496779
 20
513.8152297711667
 30
0.0
 41
1.0
 10
20.13983298317319
 20
513.8221315695241
 30
0.0
 41
1.0
 10
20.15670330523039
 20
513.8267055282288
 30
0.0
 41
1.0
 10
20.19195499543599
 20
513.8358056931169
 30
0.0
 41
1.0
 10
20.21033637315889
 20
513.8403319061555
 30
0.0
 41
1.0
 10
20.24861774082829
 20
513.8493405372044
 30
0.0
 41
1.0
 10
20.26853013846499
 20
513.8538253714311
 30
0.0
 41
1.0
 10
20.33035239581949
 20
513.8671725233177
 30
0.0
 41
1.0
 10
20.37439743803339
 20
513.8759418397678
 30
0.0
 41
1.0
 10
20.46806348715269
 20
513.8932005596679
 30
0.0
 41
1.0
 10
20.51767841895659
 20
513.9016828878458
 30
0.0
 41
1.0
 10
20.59626771399539
 20
513.9141887415244
 30
0.0
 41
1.0
 10
20.62315974971509
 20
513.9183215287139
 30
0.0
 41
1.0
 10
20.67833998592769
 20
513.9265168545899
 30
0.0
 41
1.0
 10
20.70662954773859
 20
513.9305792177054
 30
0.0
 41
1.0
 10
20.85156594470979
 20
513.9507203565978
 30
0.0
 41
1.0
 10
20.97863529744069
 20
513.9662931669926
 30
0.0
 41
1.0
 10
21.25401996262109
 20
513.9965945098963
 30
0.0
 41
1.0
 10
21.40233778788119
 20
514.01132453913
 30
0.0
 41
1.0
 10
21.64024635213629
 20
514.0329069946603
 30
0.0
 41
1.0
 10
21.72211263608489
 20
514.0400168902091
 30
0.0
 41
1.0
 10
21.89100097562889
 20
514.0540604940597
 30
0.0
 41
1.0
 10
21.97803242191809
 20
514.0609914549614
 30
0.0
 41
1.0
 10
22.15739577846779
 20
514.0746537854278
 30
0.0
 41
1.0
 10
22.24972765461319
 20
514.0813852192057
 30
0.0
 41
1.0
 10
22.36854964825469
 20
514.089670302102
 30
0.0
 41
1.0
 10
22.39247468523669
 20
514.0913201825368
 30
0.0
 41
1.0
 10
22.44058180341289
 20
514.09460127319
 30
0.0
 41
1.0
 10
22.46477317846899
 20
514.0962331337187
 30
0.0
 41
1.0
 10
22.53776061034749
 20
514.1011028260067
 30
0.0
 41
1.0
 10
22.58696995194729
 20
514.104314760209
 30
0.0
 41
1.0
 10
22.73625085819419
 20
514.1138486741139
 30
0.0
 41
1.0
 10
22.83797505900189
 20
514.1200687651975
 30
0.0
 41
1.0
 10
22.99387113365869
 20
514.1292032375634
 30
0.0
 41
1.0
 10
23.04638911697169
 20
514.1322152762007
 30
0.0
 41
1.0
 10
23.15252184438349
 20
514.1381769292442
 30
0.0
 41
1.0
 10
23.20613616021609
 20
514.1411266348914
 30
0.0
 41
1.0
 10
23.47692307334399
 20
514.1557275276907
 30
0.0
 41
1.0
 10
23.70225168101859
 20
514.1669458483065
 30
0.0
 41
1.0
 10
24.16989528800969
 20
514.1885441376089
 30
0.0
 41
1.0
 10
24.4121948487754
 20
514.1989064467856
 30
0.0
 41
1.0
 10
24.91376389982479
 20
514.2186750080075
 30
0.0
 41
1.0
 10
25.173056691307
 20
514.2280773720238
 30
0.0
 41
1.0
 10
25.5751863693696
 20
514.2413947859042
 30
0.0
 41
1.0
 10
25.71142891172099
 20
514.245703549329
 30
0.0
 41
1.0
 10
25.88453154466459
 20
514.2509234489808
 30
0.0
 41
1.0
 10
25.91929205582279
 20
514.251959131457
 30
0.0
 41
1.0
 10
25.98909434867079
 20
514.2540138405831
 30
0.0
 41
1.0
 10
26.02414447039657
 20
514.2550330956756
 30
0.0
 41
1.0
 10
26.12952535277637
 20
514.2580603017731
 30
0.0
 41
1.0
 10
26.20014596403213
 20
514.2600394683951
 30
0.0
 41
1.0
 10
26.41309987430886
 20
514.2658611283481
 30
0.0
 41
1.0
 10
26.5565268783471
 20
514.2695872796309
 30
0.0
 41
1.0
 10
26.84624184341125
 20
514.2767382336616
 30
0.0
 41
1.0
 10
26.99252669991712
 20
514.2801643346613
 30
0.0
 41
1.0
 10
27.28788779358787
 20
514.2867250290279
 30
0.0
 41
1.0
 10
27.43696207032533
 20
514.2898579375566
 30
0.0
 41
1.0
 10
27.73786377093224
 20
514.295834016549
 30
0.0
 41
1.0
 10
27.88970033569822
 20
514.2986785027987
 30
0.0
 41
1.0
 10
28.34939207568108
 20
514.3068209686363
 30
0.0
 41
1.0
 10
28.66141626520984
 20
514.3117272755223
 30
0.0
 41
1.0
 10
29.29704378882357
 20
514.3207345613899
 30
0.0
 41
1.0
 10
29.62065576075396
 20
514.3248330192806
 30
0.0
 41
1.0
 10
30.11530032373368
 20
514.3306058674132
 30
0.0
 41
1.0
 10
30.2817209597729
 20
514.3324683408214
 30
0.0
 41
1.0
 10
30.53374084798681
 20
514.3352050195142
 30
0.0
 41
1.0
 10
30.61814574188999
 20
514.3361077897187
 30
0.0
 41
1.0
 10
30.74536161372761
 20
514.3374527534146
 30
0.0
 41
1.0
 10
30.78787479106463
 20
514.3378996144568
 30
0.0
 41
1.0
 10
30.87307903177215
 20
514.3387908875163
 30
0.0
 41
1.0
 10
30.91571709032702
 20
514.3392347463094
 30
0.0
 41
1.0
 10
31.12908735085469
 20
514.3414475081119
 30
0.0
 41
1.0
 10
31.30035957836665
 20
514.3431960007358
 30
0.0
 41
1.0
 10
31.55813392699828
 20
514.3458430137251
 30
0.0
 41
1.0
 10
31.64420309077243
 20
514.3467294587025
 30
0.0
 41
1.0
 10
31.77352422288882
 20
514.3480729739962
 30
0.0
 41
1.0
 10
31.81666899391986
 20
514.3485233025194
 30
0.0
 41
1.0
 10
31.90300813702699
 20
514.3494293814048
 30
0.0
 41
1.0
 10
31.9462051255647
 20
514.349884816963
 30
0.0
 41
1.0
 10
32.16232591015354
 20
514.3521686843371
 30
0.0
 41
1.0
 10
32.33565670269561
 20
514.3540162052726
 30
0.0
 41
1.0
 10
32.68316361000463
 20
514.3576313150841
 30
0.0
 41
1.0
 10
32.8573398328954
 20
514.3593988285138
 30
0.0
 41
1.0
 10
33.20652660467036
 20
514.3627600737959
 30
0.0
 41
1.0
 10
33.38153726502347
 20
514.3643539595615
 30
0.0
 41
1.0
 10
33.73239027177944
 20
514.3673005747163
 30
0.0
 41
1.0
 10
33.90823297591922
 20
514.3686532914198
 30
0.0
 41
1.0
 10
34.43701280650546
 20
514.3722761979278
 30
0.0
 41
1.0
 10
34.79120544389709
 20
514.3741131105422
 30
0.0
 41
1.0
 10
35.32498115335388
 20
514.3757820760128
 30
0.0
 41
1.0
 10
35.50332008126659
 20
514.3761575336299
 30
0.0
 41
1.0
 10
35.77143583470595
 20
514.376408184089
 30
0.0
 41
1.0
 10
35.86090888875903
 20
514.3764394624111
 30
0.0
 41
1.0
 10
35.96167795326644
 20
514.37641040187
 30
0.0
 41
1.0
 10
35.9728760693246
 20
514.3764062791271
 30
0.0
 41
1.0
 10
35.98967556775838
 20
514.376398738236
 30
0.0
 41
1.0
 10
35.99527578796178
 20
514.37639599847
 30
0.0
 41
1.0
 10
36.00367669862887
 20
514.376391547569
 30
0.0
 41
1.0
 10
36.00647709891305
 20
514.376390007058
 30
0.0
 41
1.0
 10
36.0101453369746
 20
514.3763879144917
 30
0.0
 41
1.0
 10
36.01101308679569
 20
514.3763874140053
 30
0.0
 41
1.0
 10
36.01188086251263
 20
514.3763870881323
 30
0.0
 41
1.0
  0
ARC
  5
9C
330
75
100
AcDbEntity
  8
$DDT_AUDIT_GENERATED_(90)
  6
Continuous
 62
     7
100
AcDbCircle
 10
-1193.979398407
 20
563.6154018154
 30
0.0
 40
1207.810215544908
100
AcDbArc
 50
357.4502179356
 51
357.5869433969
  0
ARC
  5
9D
330
75
100
AcDbEntity
  8
$DDT_AUDIT_GENERATED_(90)
  6
Continuous
 62
     7
100
AcDbCircle
 10
36.0110025722
 20
603.8004056282
 30
0.0
 40
92.20480779601087
100
AcDbArc
 50
259.356992917
 51
270.0005457699
  0
ARC
  5
9E
330
75
100
AcDbEntity
  8
$DDT_AUDIT_GENERATED_(90)
  6
Continuous
 62
     7
100
AcDbCircle
 10
58.7691591607
 20
512.754679423
 30
0.0
 40
0.4948444474356555
100
AcDbArc
 50
1.0445284142
 51
63.7153115518
  0
LINE
  5
9F
330
75
100
AcDbEntity
  8
$DDT_AUDIT_GENERATED_(90)
  6
Continuous
 62
     7
100
AcDbLine
 10
59.2639213798
 20
512.7637001652
 30
0.0
 11
59.2639564122
 21
512.7625655513
 31
0.0
  0
ARC
  5
A0
330
75
100
AcDbEntity
  8
$DDT_AUDIT_GENERATED_(90)
  6
Continuous
 62
     7
100
AcDbCircle
 10
58.3306084711
 20
509.8185894051
 30
0.0
 40
1.060096528742872
100
AcDbArc
 50
357.972002234
 51
3.4866325574
  0
ARC
  5
A1
330
75
100
AcDbEntity
  8
$DDT_AUDIT_GENERATED_(90)
  6
Continuous
 62
     7
100
AcDbCircle
 10
52.9456944895
 20
513.674253891
 30
0.0
 40
0.5017814731761576
100
AcDbArc
 50
281.0632483507
 51
20.5960696525
  0
ARC
  5
A2
330
75
100
AcDbEntity
  8
$DDT_AUDIT_GENERATED_(90)
  6
Continuous
 62
     7
100
AcDbCircle
 10
89.3186989124
 20
570.008608633
 30
0.0
 40
67.41874075887519
100
AcDbArc
 50
237.4469278353
 51
243.288430843
  0
SPLINE
  5
A3
330
75
100
AcDbEntity
  8
$DDT_AUDIT_GENERATED_(90)
  6
Continuous
 62
     7
100
AcDbSpline
210
0.0
220
0.0
230
1.0
 70
    12
 71
     3
 72
     8
 73
     4
 74
     0
 42
0.0000000001105506
 43
0.0000000001
 40
0.9375040474317753
 40
0.9375040474317753
 40
0.9375040474317753
 40
0.9375040474317753
 40
0.9404045358538282
 40
0.9404045358538282
 40
0.9404045358538282
 40
0.9404045358538282
 10
41.95742467291389
 20
517.8332651867638
 30
0.0
 41
1.0
 10
41.87042690308768
 20
517.835186112032
 30
0.0
 41
1.0
 10
41.78299214801975
 20
517.8370657225792
 30
0.0
 41
1.0
 10
41.69511774036433
 20
517.8389037662206
 30
0.0
 41
1.0
  0
SPLINE
  5
A4
330
75
100
AcDbEntity
  8
$DDT_AUDIT_GENERATED_(90)
  6
Continuous
 62
     7
100
AcDbSpline
210
0.0
220
0.0
230
1.0
 70
    12
 71
     3
 72
    10
 73
     6
 74
     0
 42
0.0000000001068388
 43
0.0000000001
 40
0.9491907368938219
 40
0.9491907368938219
 40
0.9491907368938219
 40
0.9491907368938219
 40
0.9506782921947412
 40
0.9506782921947412
 40
0.9550653922341932
 40
0.9550653922341932
 40
0.9550653922341932
 40
0.9550653922341932
 10
40.88474666440313
 20
517.8544518560126
 30
0.0
 41
1.0
 10
40.83849608400862
 20
517.8552613813176
 30
0.0
 41
1.0
 10
40.79220588600629
 20
517.8560586456691
 30
0.0
 41
1.0
 10
40.60924168131297
 20
517.8591592660647
 30
0.0
 41
1.0
 10
40.4722667876705
 20
517.86136950288
 30
0.0
 41
1.0
 10
40.33495920110167
 20
517.8634767770817
 30
0.0
 41
1.0
  0
SPLINE
  5
A5
330
75
100
AcDbEntity
  8
$DDT_AUDIT_GENERATED_(90)
  6
Continuous
 62
     7
100
AcDbSpline
210
0.0
220
0.0
230
1.0
 70
    12
 71
     3
 72
    10
 73
     6
 74
     0
 42
0.0000000001044458
 43
0.0000000001
 40
0.9697581239409908
 40
0.9697581239409908
 40
0.9697581239409908
 40
0.9697581239409908
 40
0.9743975921445894
 40
0.9743975921445894
 40
0.9765231077757852
 40
0.9765231077757852
 40
0.9765231077757852
 40
0.9765231077757852
 10
38.94437629776925
 20
517.8812378488375
 30
0.0
 41
1.0
 10
38.79685522739425
 20
517.8827499363695
 30
0.0
 41
1.0
 10
38.64896734489688
 20
517.8841485019964
 30
0.0
 41
1.0
 10
38.43278365540581
 20
517.8860198219197
 30
0.0
 41
1.0
 10
38.36478140772105
 20
517.8865834276677
 30
0.0
 41
1.0
 10
38.2967003832454
 20
517.8871226533835
 30
0.0
 41
1.0
  0
ARC
  5
A6
330
75
100
AcDbEntity
  8
$DDT_AUDIT_GENERATED_(90)
  6
Continuous
 62
     7
100
AcDbCircle
 10
39.8176239368
 20
598.1436873674
 30
0.0
 40
90.42014638256532
100
AcDbArc
 50
267.5877339605
 51
282.2572992351
  0
SPLINE
  5
A7
330
75
100
AcDbEntity
  8
$DDT_AUDIT_GENERATED_(90)
  6
Continuous
 62
     7
100
AcDbSpline
210
0.0
220
0.0
230
1.0
 70
     8
 71
     3
 72
    21
 73
    17
 74
     0
 42
0.0000000005805075
 43
0.0000000001
 40
0.0
 40
0.0
 40
0.0
 40
0.0
 40
0.1403469123061349
 40
0.2021685260533163
 40
0.2638266549220825
 40
0.2929734067465167
 40
0.3212194417742704
 40
0.3800874522049583
 40
0.503559871457825
 40
0.5658046960960342
 40
0.6282232737391801
 40
0.7520783012189192
 40
0.87549275589027
 40
0.9377562263296819
 40
0.9687450293468065
 40
1.0
 40
1.0
 40
1.0
 40
1.0
 10
53.04198258546059
 20
513.1817975484018
 30
0.0
 10
52.89221658558131
 20
513.2722887267931
 30
0.0
 10
52.67647610903399
 20
513.4026608266273
 30
0.0
 10
52.40242219144341
 20
513.567808393502
 30
0.0
 10
52.24645921662683
 20
513.6612554279483
 30
0.0
 10
52.12045505636092
 20
513.7353708246605
 30
0.0
 10
51.96033922788915
 20
513.8061444321112
 30
0.0
 10
51.476294575956
 20
513.9269383827314
 30
0.0
 10
50.37067956703694
 20
514.0455961941107
 30
0.0
 10
48.80480056133433
 20
514.145446391539
 30
0.0
 10
46.94664645494015
 20
514.2316008260744
 30
0.0
 10
44.14615067809157
 20
514.3092327566517
 30
0.0
 10
40.88796997542472
 20
514.3409693008674
 30
0.0
 10
38.47357301095875
 20
514.3669473900958
 30
0.0
 10
37.07015825816199
 20
514.3754925566107
 30
0.0
 10
36.36564421177766
 20
514.3760880621181
 30
0.0
 10
36.01188086251263
 20
514.3763870881323
 30
0.0
  0
ARC
  5
A8
330
75
100
AcDbEntity
  8
$DDT_AUDIT_GENERATED_(90)
  6
Continuous
 62
     7
100
AcDbCircle
 10
1266.5471992015
 20
563.6389800849
 30
0.0
 40
1208.354764907874
100
AcDbArc
 50
182.413087495
 51
182.5497513405
  0
ARC
  5
A9
330
75
100
AcDbEntity
  8
$DDT_AUDIT_GENERATED_(90)
  6
Continuous
 62
     7
100
AcDbCircle
 10
36.0133102799
 20
603.7944886052
 30
0.0
 40
92.19889077992482
100
AcDbArc
 50
269.9991117106
 51
280.6433496025
  0
SPLINE
  5
AA
330
75
100
AcDbEntity
  8
$DDT_AUDIT_GENERATED_(90)
  6
Continuous
 62
     7
100
AcDbSpline
210
0.0
220
0.0
230
1.0
 70
     8
 71
     3
 72
    11
 73
     7
 74
     0
 42
0.0000000498317297
 43
0.0000000001
 40
0.0
 40
0.0
 40
0.0
 40
0.0
 40
0.9999382739948266
 40
0.9999382739948266
 40
0.9999382739948266
 40
1.0
 40
1.0
 40
1.0
 40
1.0
 10
60.94349485077402
 20
484.2750837037445
 30
0.0
 10
60.94085862995402
 20
484.3419063129271
 30
0.0
 10
60.93770707031251
 20
484.4087215918128
 30
0.0
 10
60.93404005871029
 20
484.475524859742
 30
0.0
 10
60.93403983234635
 20
484.4755289834954
 30
0.0
 10
60.93404004167457
 20
484.475526662848
 30
0.0
 10
60.93404003253417
 20
484.475527564361
 30
0.0
  0
ARC
  5
AB
330
75
100
AcDbEntity
  8
$DDT_AUDIT_GENERATED_(90)
  6
Continuous
 62
     7
100
AcDbCircle
 10
44.9500891219
 20
482.908357731
 30
0.0
 40
16.06059488312983
100
AcDbArc
 50
5.5997505588
 51
6.0851994381
  0
SPLINE
  5
AC
330
75
100
AcDbEntity
  8
$DDT_AUDIT_GENERATED_(90)
  6
Continuous
 62
     7
100
AcDbSpline
210
0.0
220
0.0
230
1.0
 70
     8
 71
     3
 72
    11
 73
     7
 74
     0
 42
0.0000000498317298
 43
0.0000000001
 40
0.0
 40
0.0
 40
0.0
 40
0.0
 40
0.0000617285417404
 40
0.0000617285417404
 40
0.0000617285417404
 40
1.0
 40
1.0
 40
1.0
 40
1.0
 10
11.08972170250777
 20
484.4755275652065
 30
0.0
 10
11.08972169334313
 20
484.4755266632912
 30
0.0
 10
11.08972190263725
 20
484.475528983303
 30
0.0
 10
11.08972167626399
 20
484.4755248593802
 30
0.0
 10
11.08605466467027
 20
484.4087215915715
 30
0.0
 10
11.08290310503538
 20
484.3419063128065
 30
0.0
 10
11.08026688422015
 20
484.2750837037445
 30
0.0
  0
ARC
  5
AD
330
75
100
AcDbEntity
  8
$DDT_AUDIT_GENERATED_(90)
  6
Continuous
 62
     7
100
AcDbCircle
 10
26.8982333051
 20
483.0111855039
 30
0.0
 40
15.87618772762006
100
AcDbArc
 50
174.2205295877
 51
174.7077950583
  0
SPLINE
  5
AE
330
75
100
AcDbEntity
  8
$DDT_AUDIT_GENERATED_(90)
  6
Continuous
 62
     7
100
AcDbSpline
210
0.0
220
0.0
230
1.0
 70
     8
 71
     3
 72
    12
 73
     8
 74
     0
 42
0.0000000003121337
 43
0.0000000001
 40
0.0
 40
0.0
 40
0.0
 40
0.0
 40
0.2500000000000002
 40
0.2500000000000002
 40
0.5000000000000004
 40
0.5000000000000004
 40
0.5729419631981391
 40
0.5729419631981391
 40
0.5729419631981391
 40
0.5729419631981391
 10
36.01122021229355
 20
480.2753353568943
 30
0.0
 10
32.99399862183545
 20
480.2753355785462
 30
0.0
 10
30.05123355040103
 20
480.3413647332454
 30
0.0
 10
24.42138915239031
 20
480.6023499734552
 30
0.0
 10
21.80617087593899
 20
480.7962999180991
 30
0.0
 10
18.90945812694888
 20
481.1118368829103
 30
0.0
 10
18.28493935111186
 20
481.1876221853983
 30
0.0
 10
17.69657779909717
 20
481.2669867322351
 30
0.0
  0
SPLINE
  5
AF
330
75
100
AcDbEntity
  8
$DDT_AUDIT_GENERATED_(90)
  6
Continuous
 62
     7
100
AcDbSpline
210
0.0
220
0.0
230
1.0
 70
     8
 71
     3
 72
    16
 73
    12
 74
     0
 42
0.0000000003086374
 43
0.0000000001
 40
0.4587550483994106
 40
0.4587550483994106
 40
0.4587550483994106
 40
0.4587550483994106
 40
0.5000000000000003
 40
0.5000000000000003
 40
0.6250000000000003
 40
0.6250000000000003
 40
0.7500000000000002
 40
0.7500000000000002
 40
0.8750000000000001
 40
0.8750000000000001
 40
1.0
 40
1.0
 40
1.0
 40
1.0
 10
53.5163603094829
 20
481.1627150264994
 30
0.0
 10
53.16657409300446
 20
481.1197955579649
 30
0.0
 10
52.80620050802234
 20
481.0781722039932
 30
0.0
 10
51.31327283341701
 20
480.9159787026728
 30
0.0
 10
50.09249370018368
 20
480.806105013965
 30
0.0
 10
47.53863391268374
 20
480.6172559274534
 30
0.0
 10
46.20262437639381
 20
480.5376325566075
 30
0.0
 10
43.41258543471196
 20
480.4079532319694
 30
0.0
 10
41.94999196792723
 20
480.3579923956957
 30
0.0
 10
39.01014828326844
 20
480.2920512933154
 30
0.0
 10
37.52115238988102
 20
480.2753354677203
 30
0.0
 10
36.01254152269622
 20
480.2753353667308
 30
0.0
  0
ELLIPSE
  5
B0
330
75
100
AcDbEntity
  8
$DDT_AUDIT_GENERATED_(90)
  6
Continuous
 62
     7
100
AcDbEllipse
 10
11.4896239606
 20
483.2407657552
 30
0.0
 11
0.2193315273576988
 21
0.2046794594162682
 31
0.0
210
0.0
220
0.0
230
1.0
 40
0.9861889216
 41
3.106779901928532
 42
3.143354782569233
  0
ELLIPSE
  5
B1
330
75
100
AcDbEntity
  8
$DDT_AUDIT_GENERATED_(90)
  6
Continuous
 62
     7
100
AcDbEllipse
 10
60.5341377744
 20
483.2407657552
 30
0.0
 11
-0.2193315273575219
 21
0.2046794594164347
 31
0.0
210
0.0
220
0.0
230
1.0
 40
0.9861889216
 41
3.130928488926878
 42
3.179474389069954
  0
ARC
  5
B2
330
75
100
AcDbEntity
  8
$DDT_AUDIT_GENERATED_(90)
  6
Continuous
 62
     7
100
AcDbCircle
 10
13.2856347703
 20
512.5750404399
 30
0.0
 40
0.6731190353660824
100
AcDbArc
 50
110.2660942585
 51
174.3994915973
  0
SPLINE
  5
B3
330
75
100
AcDbEntity
  8
$DDT_AUDIT_GENERATED_(90)
  6
Continuous
 62
     7
100
AcDbSpline
210
0.0
220
0.0
230
1.0
 70
     8
 71
     3
 72
    70
 73
    66
 74
     0
 42
0.0000000006006645
 43
0.0000000001
 40
0.0
 40
0.0
 40
0.0
 40
0.0
 40
0.0082897878637168
 40
0.0238838035963308
 40
0.0385831836824111
 40
0.0521752980308533
 40
0.0647337576473655
 40
0.0763296346189742
 40
0.0870057333753057
 40
0.0966848548153144
 40
0.1053055875312011
 40
0.1129056631242224
 40
0.1195059874966986
 40
0.125116176156481
 40
0.1356025961810896
 40
0.1452714624098367
 40
0.1540533511028875
 40
0.1623168614006356
 40
0.172170164030515
 40
0.1838930514007492
 40
0.1975203380562851
 40
0.2117127979829794
 40
0.2273172791085063
 40
0.2431895473379843
 40
0.2591560397551962
 40
0.2752178349481524
 40
0.2913755888396281
 40
0.3108905730650108
 40
0.3305419949118628
 40
0.3503304784138963
 40
0.3701004301524267
 40
0.3886626694091612
 40
0.4054764226487982
 40
0.4208859202708697
 40
0.4348913477118677
 40
0.4474926163278715
 40
0.4572484630606065
 40
0.4667960480724067
 40
0.4772239136213099
 40
0.4885364512720522
 40
0.5007336214120587
 40
0.5135740619452155
 40
0.5272678930791912
 40
0.5418151583924598
 40
0.5570758253906845
 40
0.5836350196152733
 40
0.6089054011213214
 40
0.6328869462910486
 40
0.6555795402074531
 40
0.6679415092409907
 40
0.6798844919737492
 40
0.6918161743998262
 40
0.7053163953071104
 40
0.7205428500708586
 40
0.7371776887048936
 40
0.7554776483524694
 40
0.7754427663206568
 40
0.7970730319059114
 40
0.8208611891069263
 40
0.8463831557638928
 40
0.8736389341372812
 40
0.9026284669594785
 40
0.9333518552697623
 40
0.9658090695950209
 40
1.0
 40
1.0
 40
1.0
 40
1.0
 10
28.67958264160962
 20
517.7970893923853
 30
0.0
 10
28.43626407065785
 20
517.790376457919
 30
0.0
 10
27.84158178938342
 20
517.7738171633093
 30
0.0
 10
26.85686935967619
 20
517.7381642007208
 30
0.0
 10
25.83325392499107
 20
517.6946250727225
 30
0.0
 10
24.94401166974099
 20
517.6493674441449
 30
0.0
 10
24.18641995297785
 20
517.6044416018586
 30
0.0
 10
23.54290079103502
 20
517.5604058849397
 30
0.0
 10
23.00429396432001
 20
517.517926207654
 30
0.0
 10
22.56104852150686
 20
517.4777844481282
 30
0.0
 10
22.20184083434473
 20
517.440715022176
 30
0.0
 10
21.91430306918991
 20
517.4071752274341
 30
0.0
 10
21.68710964262954
 20
517.3773901941341
 30
0.0
 10
21.44929403403091
 20
517.3425884469442
 30
0.0
 10
21.21307971832054
 20
517.3018378808147
 30
0.0
 10
20.99464118752939
 20
517.2539234590218
 30
0.0
 10
20.83034278325443
 20
517.207257318273
 30
0.0
 10
20.69694114558084
 20
517.1566267626508
 30
0.0
 10
20.58916301841143
 20
517.1031444760147
 30
0.0
 10
20.48309188729378
 20
517.0434412889433
 30
0.0
 10
20.35380115234078
 20
516.978260871745
 30
0.0
 10
20.21130289686751
 20
516.907365158825
 30
0.0
 10
20.06976035546125
 20
516.8344175434851
 30
0.0
 10
19.92381215223912
 20
516.7588143977073
 30
0.0
 10
19.77623258568681
 20
516.6826648694228
 30
0.0
 10
19.62752884759328
 20
516.6061799523538
 30
0.0
 10
19.46799440442457
 20
516.5241896400853
 30
0.0
 10
19.29831518426522
 20
516.4367340874489
 30
0.0
 10
19.11799682663974
 20
516.3437946804562
 30
0.0
 10
18.93726643373485
 20
516.2506873409532
 30
0.0
 10
18.76045075957403
 20
516.1595756324799
 30
0.0
 10
18.59277399677666
 20
516.0731267945797
 30
0.0
 10
18.43842168183996
 20
515.9935488781028
 30
0.0
 10
18.29795736437113
 20
515.9211404367118
 30
0.0
 10
18.17037000888962
 20
515.8553494007334
 30
0.0
 10
18.06003025469885
 20
515.7984323126225
 30
0.0
 10
17.96328631346142
 20
515.7485215620857
 30
0.0
 10
17.8731722924885
 20
515.7020295032321
 30
0.0
 10
17.77833825894069
 20
515.6531010427916
 30
0.0
 10
17.67548773426098
 20
515.600033338939
 30
0.0
 10
17.56534125099785
 20
515.5431957747185
 30
0.0
 10
17.44800050513966
 20
515.4826382339186
 30
0.0
 10
17.32357023523081
 20
515.4184088263297
 30
0.0
 10
17.19183607957164
 20
515.350400691323
 30
0.0
 10
17.0211786788812
 20
515.2622893977207
 30
0.0
 10
16.81809341392561
 20
515.1573962203973
 30
0.0
 10
16.58860081837398
 20
515.0388509107445
 30
0.0
 10
16.37084775501115
 20
514.9263120410267
 30
0.0
 10
16.1921637878429
 20
514.8339359958863
 30
0.0
 10
16.04987657196859
 20
514.7603787284701
 30
0.0
 10
15.94015096476345
 20
514.7036506833606
 30
0.0
 10
15.82696039112951
 20
514.6451225387505
 30
0.0
 10
15.70381061838986
 20
514.5814282445156
 30
0.0
 10
15.56642443747672
 20
514.5103484254682
 30
0.0
 10
15.41450220414879
 20
514.4317363257863
 30
0.0
 10
15.24824174333907
 20
514.3456894937436
 30
0.0
 10
15.06688239413664
 20
514.2518071608877
 30
0.0
 10
14.86894793650952
 20
514.1493180722988
 30
0.0
 10
14.65424862585331
 20
514.0381224498498
 30
0.0
 10
14.42257968052724
 20
513.9180966925419
 30
0.0
 10
14.17540393566705
 20
513.7899720677176
 30
0.0
 10
13.91217538932375
 20
513.6534822123766
 30
0.0
 10
13.63504859021758
 20
513.5097644652315
 30
0.0
 10
13.33542954787328
 20
513.3542172824208
 30
0.0
 10
13.1491616869062
 20
513.2575081374358
 30
0.0
 10
13.0356702390602
 20
513.1985790033973
 30
0.0
  0
ARC
  5
B4
330
75
100
AcDbEntity
  8
$DDT_AUDIT_GENERATED_(90)
  6
Continuous
 62
     7
100
AcDbCircle
 10
35.0023515307
 20
300.3550391652
 30
0.0
 40
217.5339573800937
100
AcDbArc
 50
90.5335980427
 51
91.665574442
  0
ARC
  5
B5
330
75
100
AcDbEntity
  8
$DDT_AUDIT_GENERATED_(90)
  6
Continuous
 62
     7
100
AcDbCircle
 10
35.196513702
 20
334.5458113974
 30
0.0
 40
183.3471925578409
100
AcDbArc
 50
90.226457524
 51
90.6937755386
  0
ARC
  5
B6
330
75
100
AcDbEntity
  8
$DDT_AUDIT_GENERATED_(90)
  6
Continuous
 62
     7
100
AcDbCircle
 10
35.942468269
 20
278.2329959727
 30
0.0
 40
239.6630879339205
100
AcDbArc
 50
89.9834030236
 51
90.3515802999
  0
SPLINE
  5
B7
330
75
100
AcDbEntity
  8
$DDT_AUDIT_GENERATED_(90)
  6
Continuous
 62
     7
100
AcDbSpline
210
0.0
220
0.0
230
1.0
 70
     8
 71
     3
 72
    12
 73
     8
 74
     0
 42
0.0000000130891665
 43
0.0000000001
 40
0.0
 40
0.0
 40
0.0
 40
0.0
 40
0.1144182372050596
 40
0.2155749780093327
 40
0.4205354499823771
 40
0.6907726533042658
 40
1.0
 40
1.0
 40
1.0
 40
1.0
 10
59.40826666270235
 20
512.6351767034088
 30
0.0
 10
59.40528453527291
 20
512.6716364976213
 30
0.0
 10
59.40007890570872
 20
512.729145529109
 30
0.0
 10
59.36693273565621
 20
512.8395031032377
 30
0.0
 10
59.29707515140716
 20
512.9676566576826
 30
0.0
 10
59.15833192813236
 20
513.1076926652311
 30
0.0
 10
59.04494818166692
 20
513.1690415339623
 30
0.0
 10
58.97146810790336
 20
513.2064061833178
 30
0.0
  0
ARC
  5
B8
330
75
100
AcDbEntity
  8
$DDT_AUDIT_GENERATED_(90)
  6
Continuous
 62
     7
100
AcDbCircle
 10
36.1159883303
 20
274.4326223106
 30
0.0
 40
243.4635428439983
100
AcDbArc
 50
89.4773426721
 51
90.0245027863
  0
ARC
  5
B9
330
75
100
AcDbEntity
  8
$DDT_AUDIT_GENERATED_(90)
  6
Continuous
 62
     7
100
AcDbCircle
 10
37.2434431736
 20
335.4664671917
 30
0.0
 40
182.4228453099026
100
AcDbArc
 50
88.9661795905
 51
89.6565769441
  0
ARC
  5
BA
330
75
100
AcDbEntity
  8
$DDT_AUDIT_GENERATED_(90)
  6
Continuous
 62
     7
100
AcDbCircle
 10
38.4869757232
 20
373.3264212291
 30
0.0
 40
144.5477032879058
100
AcDbArc
 50
88.6171306861
 51
89.1882473164
  0
SPLINE
  5
BB
330
75
100
AcDbEntity
  8
$DDT_AUDIT_GENERATED_(90)
  6
Continuous
 62
     7
100
AcDbSpline
210
0.0
220
0.0
230
1.0
 70
     8
 71
     3
 72
    73
 73
    69
 74
     0
 42
0.0000000005550224
 43
0.0000000001
 40
0.0
 40
0.0
 40
0.0
 40
0.0
 40
0.027678491240007
 40
0.0539640020244868
 40
0.0788564774388903
 40
0.1023559047873313
 40
0.1244622596953492
 40
0.1451756175346113
 40
0.1677994088567853
 40
0.1884882126567915
 40
0.2072420492507683
 40
0.2240609253314132
 40
0.2416692651089881
 40
0.2587626553746254
 40
0.2761582645342855
 40
0.2938560606803525
 40
0.3118560603335051
 40
0.3301582576729051
 40
0.3525197239034455
 40
0.3752812994281578
 40
0.3971733382960702
 40
0.417559157616895
 40
0.436438800639607
 40
0.4502161753732885
 40
0.4630637452015773
 40
0.4750093229855519
 40
0.4874934426405073
 40
0.5013273791814683
 40
0.5170361705413421
 40
0.5341854557760763
 40
0.5527752327269113
 40
0.5727328397059924
 40
0.5932357793477198
 40
0.6140528919935521
 40
0.6351840477420826
 40
0.6548300858927347
 40
0.6747398429044809
 40
0.6949139592142817
 40
0.7152253210508345
 40
0.7343455059374326
 40
0.75192160086351
 40
0.7672610999390427
 40
0.7811974764809797
 40
0.7937173415640063
 40
0.8048529696660353
 40
0.8094749654291007
 40
0.8138817418696375
 40
0.8180713327494427
 40
0.8220421501694326
 40
0.8257930809317143
 40
0.8294269037019742
 40
0.8339983407487861
 40
0.8397494634827741
 40
0.8466971780997423
 40
0.8547877849071863
 40
0.8640156367568875
 40
0.8743958130225608
 40
0.885969591309777
 40
0.8988113323113488
 40
0.9128045823348531
 40
0.9227253459870925
 40
0.933154687648382
 40
0.9441357475214257
 40
0.9557235016450666
 40
0.9678013889150197
 40
0.9803225881866144
 40
0.9933534948536008
 40
1.0
 40
1.0
 40
1.0
 40
1.0
 10
58.98834816716504
 20
513.1984523332663
 30
0.0
 10
58.89490131264329
 20
513.2469709830365
 30
0.0
 10
58.74150342346863
 20
513.326611293202
 30
0.0
 10
58.49476301380894
 20
513.4547281486108
 30
0.0
 10
58.26649239625047
 20
513.573152616529
 30
0.0
 10
58.04952902683441
 20
513.685665716568
 30
0.0
 10
57.84571812517135
 20
513.7913409259587
 30
0.0
 10
57.64445996752207
 20
513.8956672602893
 30
0.0
 10
57.44751544831239
 20
513.9977186087112
 30
0.0
 10
57.25653202597528
 20
514.0966417925843
 30
0.0
 10
57.0833946592336
 20
514.1863053729286
 30
0.0
 10
56.91972229777838
 20
514.2710484346485
 30
0.0
 10
56.76116987346263
 20
514.3531245495126
 30
0.0
 10
56.60085090127463
 20
514.4360980188359
 30
0.0
 10
56.44025959727055
 20
514.5191983026128
 30
0.0
 10
56.27687772200976
 20
514.6037268076435
 30
0.0
 10
56.11067250959793
 20
514.6896781191559
 30
0.0
 10
55.93009481757036
 20
514.7830344950211
 30
0.0
 10
55.73487392943534
 20
514.883956318804
 30
0.0
 10
55.5286068857251
 20
514.990580587188
 30
0.0
 10
55.32835231383274
 20
515.0940358332649
 30
0.0
 10
55.14005961219787
 20
515.1912966925875
 30
0.0
 10
54.97675753518691
 20
515.2756322775606
 30
0.0
 10
54.83667680459864
 20
515.3479561017882
 30
0.0
 10
54.71795696721231
 20
515.409244954051
 30
0.0
 10
54.60328354598069
 20
515.4684401840308
 30
0.0
 10
54.48546975534597
 20
515.5292435564642
 30
0.0
 10
54.35592085207544
 20
515.5960933100619
 30
0.0
 10
54.21186763082058
 20
515.6704180256954
 30
0.0
 10
54.05301984592488
 20
515.7523702025713
 30
0.0
 10
53.88094674092414
 20
515.8411422316236
 30
0.0
 10
53.6983281156669
 20
515.9353080835498
 30
0.0
 10
53.5088364889053
 20
516.032985160102
 30
0.0
 10
53.31579003209475
 20
516.1325257075073
 30
0.0
 10
53.12536548129614
 20
516.2306622407278
 30
0.0
 10
52.93771776069138
 20
516.3273331957732
 30
0.0
 10
52.75316416903308
 20
516.42244337631
 30
0.0
 10
52.5665901815834
 20
516.5186421312114
 30
0.0
 10
52.38216160035181
 20
516.613423220849
 30
0.0
 10
52.20430274521565
 20
516.705011811857
 30
0.0
 10
52.04057791888108
 20
516.7896630053476
 30
0.0
 10
51.89138364919711
 20
516.8669998306965
 30
0.0
 10
51.75270123943598
 20
516.9373204759676
 30
0.0
 10
51.62348093059549
 20
517.0012644490718
 30
0.0
 10
51.52905421802806
 20
517.0498522028947
 30
0.0
 10
51.4651204419083
 20
517.0847771126305
 30
0.0
 10
51.42193087372139
 20
517.1080689735301
 30
0.0
 10
51.3780733026298
 20
517.1304595244934
 30
0.0
 10
51.332415024534
 20
517.1518970389528
 30
0.0
 10
51.28393617401343
 20
517.1724603776819
 30
0.0
 10
51.22624531305765
 20
517.1943130094752
 30
0.0
 10
51.15189867889818
 20
517.2189169247448
 30
0.0
 10
51.04570570752214
 20
517.2485330757372
 30
0.0
 10
50.89593241611873
 20
517.2833038977362
 30
0.0
 10
50.6894595466167
 20
517.3229238870387
 30
0.0
 10
50.41137667328629
 20
517.3669365536457
 30
0.0
 10
50.04612774870492
 20
517.4149438938739
 30
0.0
 10
49.57595436798295
 20
517.4666314910586
 30
0.0
 10
48.98135916019405
 20
517.521242912931
 30
0.0
 10
48.33426594354883
 20
517.5706155652537
 30
0.0
 10
47.67039748415323
 20
517.6141468543447
 30
0.0
 10
47.02174117888364
 20
517.6518073434555
 30
0.0
 10
46.2923614827866
 20
517.6890375250327
 30
0.0
 10
45.47801459709898
 20
517.7251568812297
 30
0.0
 10
44.57661273652376
 20
517.7595952100354
 30
0.0
 10
43.60026650187228
 20
517.7912763353098
 30
0.0
 10
42.7052278604931
 20
517.8163818410784
 30
0.0
 10
42.18307193214642
 20
517.8276006233532
 30
0.0
 10
41.97538583903722
 20
517.8320249981535
 30
0.0
  0
ARC
  5
BC
330
75
100
AcDbEntity
  8
$DDT_AUDIT_GENERATED_(90)
  6
Continuous
 62
     7
100
AcDbCircle
 10
1260.7464110327
 20
563.6357457911
 30
0.0
 40
1202.420090303533
100
AcDbArc
 50
182.4306648847
 51
183.7682493109
  0
ARC
  5
BD
330
75
100
AcDbEntity
  8
$DDT_AUDIT_GENERATED_(90)
  6
Continuous
 62
     7
100
AcDbCircle
 10
-1191.404314614
 20
563.7818773143
 30
0.0
 40
1205.105522645726
100
AcDbArc
 50
356.2331542812
 51
357.5677993995
  0
SPLINE
  5
BE
330
75
100
AcDbEntity
  8
$DDT_AUDIT_GENERATED_(90)
  6
Continuous
 62
     7
100
AcDbSpline
210
0.0
220
0.0
230
1.0
 70
     8
 71
     3
 72
    23
 73
    19
 74
     0
 42
0.0000000014879239
 43
0.0000000001
 40
0.0
 40
0.0
 40
0.0
 40
0.0
 40
0.0511623285864854
 40
0.1178057039174596
 40
0.187709541115263
 40
0.2574356990650708
 40
0.3262000842249839
 40
0.3941577021337674
 40
0.4615313133503082
 40
0.5284923031867717
 40
0.5951607538698174
 40
0.6612706378621934
 40
0.7269275523524742
 40
0.7927302108398038
 40
0.8586683306344716
 40
0.9247170911502919
 40
0.9908405521179099
 40
1.0
 40
1.0
 40
1.0
 40
1.0
 10
11.27245905405389
 20
483.0369841900318
 30
0.0
 10
11.31651520689111
 20
482.9918059268375
 30
0.0
 10
11.40347673723428
 20
482.9040595363961
 30
0.0
 10
11.59433594377146
 20
482.7676246619251
 30
0.0
 10
11.83376425800915
 20
482.6292629868951
 30
0.0
 10
12.11783788822098
 20
482.4946186408118
 30
0.0
 10
12.43889670842834
 20
482.3656046246549
 30
0.0
 10
12.7961329846443
 20
482.2413164747416
 30
0.0
 10
13.18917888235876
 20
482.121039673772
 30
0.0
 10
13.61807766275688
 20
482.004260656536
 30
0.0
 10
14.08164205900589
 20
481.8909064778158
 30
0.0
 10
14.57924309775633
 20
481.7810235667657
 30
0.0
 10
15.11054875993698
 20
481.6744406406178
 30
0.0
 10
15.67566337546273
 20
481.5709509239227
 30
0.0
 10
16.27690113797865
 20
481.4699289353489
 30
0.0
 10
16.90704533337377
 20
481.3732484502515
 30
0.0
 10
17.39206322302703
 20
481.3030483788789
 30
0.0
 10
17.64250764620192
 20
481.2704476659869
 30
0.0
 10
17.67800422843084
 20
481.265831041136
 30
0.0
  0
LINE
  5
BF
330
75
100
AcDbEntity
  8
$DDT_AUDIT_GENERATED_(90)
  6
Continuous
 62
     7
100
AcDbLine
 10
36.0112201903
 20
480.2730992036
 30
0.0
 11
36.0125434203
 21
480.2730992122
 31
0.0
  0
SPLINE
  5
C0
330
75
100
AcDbEntity
  8
$DDT_AUDIT_GENERATED_(90)
  6
Continuous
 62
     7
100
AcDbSpline
210
0.0
220
0.0
230
1.0
 70
     8
 71
     3
 72
    14
 73
    10
 74
     0
 42
0.0000000086029164
 43
0.0000000001
 40
0.0
 40
0.0
 40
0.0
 40
0.0
 40
0.0808351742824567
 40
0.2542178490826694
 40
0.4327938291395584
 40
0.6193156065717239
 40
0.8202375355293667
 40
0.937933760977359
 40
1.0
 40
1.0
 40
1.0
 40
1.0
 10
11.07841487245616
 20
484.170534310844
 30
0.0
 10
11.07698626900461
 20
484.1230648211889
 30
0.0
 10
11.07334443897048
 20
483.996456795202
 30
0.0
 10
11.07706257147165
 20
483.7932655076809
 30
0.0
 10
11.09105650439104
 20
483.576260383503
 30
0.0
 10
11.11942133191385
 20
483.3792865573121
 30
0.0
 10
11.16271129142617
 20
483.2295690191364
 30
0.0
 10
11.21548647836911
 20
483.1163474304109
 30
0.0
 10
11.25696475673386
 20
483.069712772078
 30
0.0
 10
11.2739071923597
 20
483.0508175430364
 30
0.0
  0
ARC
  5
C1
330
75
100
AcDbEntity
  8
$DDT_AUDIT_GENERATED_(90)
  6
Continuous
 62
     7
100
AcDbCircle
 10
53.4228026793
 20
496.434770504
 30
0.0
 40
15.26992814811308
100
AcDbArc
 50
270.5380007011
 51
298.6704951243
  0
SPLINE
  5
C2
330
75
100
AcDbEntity
  8
$DDT_AUDIT_GENERATED_(90)
  6
Continuous
 62
     7
100
AcDbSpline
210
0.0
220
0.0
230
1.0
 70
     8
 71
     3
 72
    14
 73
    10
 74
     0
 42
0.0000000079350204
 43
0.0000000001
 40
0.0
 40
0.0
 40
0.0
 40
0.0
 40
0.0718465961813831
 40
0.1800546847905265
 40
0.3202973259835422
 40
0.5075239328624821
 40
0.6736297447202076
 40
0.8493300871340359
 40
1.0
 40
1.0
 40
1.0
 40
1.0
 10
60.7512741850283
 20
483.050507090937
 30
0.0
 10
60.77090290506928
 20
483.0740260706678
 30
0.0
 10
60.81229148849891
 20
483.1241264727743
 30
0.0
 10
60.85830753367625
 20
483.2251387247537
 30
0.0
 10
60.90018755900849
 20
483.3625974515992
 30
0.0
 10
60.92889655210325
 20
483.5400418329696
 30
0.0
 10
60.94573187753183
 20
483.7610379120723
 30
0.0
 10
60.95075087474107
 20
484.0039288166912
 30
0.0
 10
60.94591615150087
 20
484.1752203096088
 30
0.0
 10
60.94302169266858
 20
484.2694056422234
 30
0.0
  0
ELLIPSE
  5
C4
330
75
100
AcDbEntity
  8
02636038_GEHÄUSE
  6
Continuous
 62
     7
100
AcDbEllipse
 10
36.010978657
 20
445.886073023
 30
0.0
 11
10.05000000000001
 21
0.0
 31
0.0
210
0.0
220
0.0
230
1.0
 40
0.2588190451
 41
5.448785912709138
 42
6.283185307179586
  0
ELLIPSE
  5
C5
330
75
100
AcDbEntity
  8
02636038_GEHÄUSE
  6
Continuous
 62
     7
100
AcDbEllipse
 10
36.010978657
 20
445.886073023
 30
0.0
 11
10.05000000000001
 21
0.0
 31
0.0
210
0.0
220
0.0
230
1.0
 40
0.2588190451
 41
0.0
 42
3.975992048060241
  0
ELLIPSE
  5
C6
330
75
100
AcDbEntity
  8
02636038_GEHÄUSE
  6
Continuous
 62
     7
100
AcDbEllipse
 10
36.010978657
 20
445.886073023
 30
0.0
 11
10.75000000000001
 21
0.0
 31
0.0
210
0.0
220
0.0
230
1.0
 40
0.2588190451
 41
0.0
 42
6.283185307179586
  0
LINE
  5
C7
330
75
100
AcDbEntity
  8
02636038_GEHÄUSE
  6
Continuous
 62
     7
100
AcDbLine
 10
25.010978657
 20
446.8622320159
 30
0.0
 11
25.010978657
 21
445.5233593194
 31
0.0
  0
ELLIPSE
  5
C8
330
75
100
AcDbEntity
  8
02636038_GEHÄUSE
  6
Continuous
 62
     7
100
AcDbEllipse
 10
36.010978657
 20
447.0293119714
 30
0.0
 11
-11.8
 21
2.775557561562891E-14
 31
0.0
210
0.0
220
0.0
230
1.0
 40
0.2588190451
 41
3.511935285681537
 42
5.912842675087866
  0
ELLIPSE
  5
C9
330
75
100
AcDbEntity
  8
02636038_GEHÄUSE
  6
Continuous
 62
     7
100
AcDbEllipse
 10
36.010978657
 20
448.7838505018
 30
0.0
 11
11.79999999999975
 21
0.0
 31
0.0
210
0.0
220
0.0
230
1.0
 40
0.2588190451
 41
2.771250021498076
 42
3.511935285681511
  0
LINE
  5
CA
330
75
100
AcDbEntity
  8
02636038_GEHÄUSE
  6
Continuous
 62
     7
100
AcDbLine
 10
25.010978657
 20
449.8892229809
 30
0.0
 11
25.010978657
 21
448.1346844505
 31
0.0
  0
LINE
  5
CB
330
75
100
AcDbEntity
  8
02636038_GEHÄUSE
  6
Continuous
 62
     7
100
AcDbLine
 10
25.010978657
 20
448.1346844505
 30
0.0
 11
25.010978657
 21
446.8622320159
 31
0.0
  0
LINE
  5
CC
330
75
100
AcDbEntity
  8
02636038_GEHÄUSE
  6
Continuous
 62
     7
100
AcDbLine
 10
25.010978657
 20
445.4708069385
 30
0.0
 11
25.010978657
 21
445.5233593194
 31
0.0
  0
ELLIPSE
  5
CD
330
75
100
AcDbEntity
  8
02636038_GEHÄUSE
  6
Continuous
 62
     7
100
AcDbEllipse
 10
36.010978657
 20
446.1927956677
 30
0.0
 11
11.30000000000001
 21
-1.387778780781446E-14
 31
0.0
210
0.0
220
0.0
230
1.0
 40
0.2588190451
 41
3.624212767020518
 42
3.627167475043384
  0
LINE
  5
CE
330
75
100
AcDbEntity
  8
02636038_GEHÄUSE
  6
Continuous
 62
     7
100
AcDbLine
 10
47.010978657
 20
445.5233593194
 30
0.0
 11
47.010978657
 21
446.8622320159
 31
0.0
  0
ELLIPSE
  5
CF
330
75
100
AcDbEntity
  8
02636038_GEHÄUSE
  6
Continuous
 62
     7
100
AcDbEllipse
 10
36.010978657
 20
448.7838505018
 30
0.0
 11
-11.80000000000015
 21
-5.551115123125782E-14
 31
0.0
210
0.0
220
0.0
230
1.0
 40
0.2588190451
 41
2.771250021498077
 42
3.511935285681507
  0
LINE
  5
D0
330
75
100
AcDbEntity
  8
02636038_GEHÄUSE
  6
Continuous
 62
     7
100
AcDbLine
 10
47.010978657
 20
445.5233593194
 30
0.0
 11
47.010978657
 21
445.4702702886
 31
0.0
  0
LINE
  5
D1
330
75
100
AcDbEntity
  8
02636038_GEHÄUSE
  6
Continuous
 62
     7
100
AcDbLine
 10
47.010978657
 20
446.8622320159
 30
0.0
 11
47.010978657
 21
448.1346844505
 31
0.0
  0
LINE
  5
D2
330
75
100
AcDbEntity
  8
02636038_GEHÄUSE
  6
Continuous
 62
     7
100
AcDbLine
 10
47.010978657
 20
448.1346844505
 30
0.0
 11
47.010978657
 21
449.8892229809
 31
0.0
  0
LINE
  5
D3
330
75
100
AcDbEntity
  8
02636038_GEHÄUSE
  6
Continuous
 62
     7
100
AcDbLine
 10
26.0016424442
 20
444.8354584612
 30
0.0
 11
26.4888225253
 21
444.5948009017
 31
0.0
  0
LINE
  5
D4
330
75
100
AcDbEntity
  8
02636038_GEHÄUSE
  6
Continuous
 62
     7
100
AcDbLine
 10
45.5331347887
 20
444.5948009017
 30
0.0
 11
46.0203148698
 21
444.8354584612
 31
0.0
  0
ARC
  5
D5
330
75
100
AcDbEntity
  8
02636038_GEHÄUSE
  6
Continuous
 62
     7
100
AcDbCircle
 10
44.2968014438
 20
448.6069276564
 30
0.0
 40
4.143128655152683
100
AcDbArc
 50
294.6623563309
 51
310.9154374876
  0
ARC
  5
D6
330
75
100
AcDbEntity
  8
02636038_GEHÄUSE
  6
Continuous
 62
     7
100
AcDbCircle
 10
27.9200158245
 20
448.901805124
 30
0.0
 40
4.495261790947573
100
AcDbArc
 50
229.6820229064
 51
245.0069808682
  0
LINE
  5
D7
330
75
100
AcDbEntity
  8
02636038_GEHÄUSE
  6
Continuous
 62
     7
100
AcDbLine
 10
24.210978657
 20
452.8302925635
 30
0.0
 11
24.210978657
 21
448.7838505018
 31
0.0
  0
LINE
  5
D8
330
75
100
AcDbEntity
  8
02636038_GEHÄUSE
  6
Continuous
 62
     7
100
AcDbLine
 10
47.810978657
 20
448.7838505018
 30
0.0
 11
47.810978657
 21
452.8301295759
 31
0.0
  0
ELLIPSE
  5
DA
330
75
100
AcDbEntity
  8
$DDT_AUDIT_GENERATED_(D9)
  6
Continuous
 62
     7
100
AcDbEllipse
 10
36.010978657
 20
445.4997026925
 30
0.0
 11
9.000000000000005
 21
0.0
 31
0.0
210
0.0
220
0.0
230
1.0
 40
0.2588190451
 41
0.0
 42
6.283185307179586
  0
ELLIPSE
  5
DB
330
75
100
AcDbEntity
  8
$DDT_AUDIT_GENERATED_(D9)
  6
Continuous
 62
     7
100
AcDbEllipse
 10
36.010978657
 20
445.4997026925
 30
0.0
 11
5.250000000000002
 21
0.0
 31
0.0
210
0.0
220
0.0
230
1.0
 40
0.2588190451
 41
0.0
 42
6.283185307179586
  0
ELLIPSE
  5
DC
330
75
100
AcDbEntity
  8
$DDT_AUDIT_GENERATED_(D9)
  6
Continuous
 62
     7
100
AcDbEllipse
 10
36.010978657
 20
445.4997026925
 30
0.0
 11
-6.249999999999999
 21
-1.387778780781446E-14
 31
0.0
210
0.0
220
0.0
230
1.0
 40
0.2588190451
 41
0.0
 42
6.283185307179586
  0
ELLIPSE
  5
DD
330
75
100
AcDbEntity
  8
$DDT_AUDIT_GENERATED_(D9)
  6
Continuous
 62
     7
100
AcDbEllipse
 10
36.010978657
 20
445.4997026925
 30
0.0
 11
2.750000000000002
 21
0.0
 31
0.0
210
0.0
220
0.0
230
1.0
 40
0.2588190451
 41
0.0
 42
6.283185307179586
  0
ELLIPSE
  5
DE
330
75
100
AcDbEntity
  8
$DDT_AUDIT_GENERATED_(D9)
  6
Continuous
 62
     7
100
AcDbEllipse
 10
36.010978657
 20
445.4997026925
 30
0.0
 11
2.150000000000002
 21
0.0
 31
0.0
210
0.0
220
0.0
230
1.0
 40
0.2588190451
 41
0.0
 42
6.283185307179586
  0
ELLIPSE
  5
DF
330
75
100
AcDbEntity
  8
$DDT_AUDIT_GENERATED_(D9)
  6
Continuous
 62
     7
100
AcDbEllipse
 10
36.010978657
 20
445.6928878577
 30
0.0
 11
0.5196299438963563
 21
0.0
 31
0.0
210
0.0
220
0.0
230
1.0
 40
0.2588190451
 41
0.0
 42
6.283185307179586
  0
ELLIPSE
  5
E0
330
75
100
AcDbEntity
  8
$DDT_AUDIT_GENERATED_(D9)
  6
Continuous
 62
     7
100
AcDbEllipse
 10
36.010978657
 20
445.4997026925
 30
0.0
 11
-8.700000000000001
 21
0.0
 31
0.0
210
0.0
220
0.0
230
1.0
 40
0.2588190451
 41
0.0
 42
6.283185307179586
  0
ARC
  5
E1
330
75
100
AcDbEntity
  8
$DDT_AUDIT_GENERATED_(D9)
  6
Continuous
 62
     7
100
AcDbCircle
 10
43.9410377731
 20
445.6928878577
 30
0.0
 40
0.5699406006661343
100
AcDbArc
 50
357.3972128852
 51
2.6027871148
  0
ARC
  5
E2
330
75
100
AcDbEntity
  8
$DDT_AUDIT_GENERATED_(D9)
  6
Continuous
 62
     7
100
AcDbCircle
 10
41.8415615859
 20
445.6928878577
 30
0.0
 40
0.4194163591648756
100
AcDbArc
 50
0.0
 51
3.537932298
  0
ELLIPSE
  5
E3
330
75
100
AcDbEntity
  8
$DDT_AUDIT_GENERATED_(D9)
  6
Continuous
 62
     7
100
AcDbEllipse
 10
36.010978657
 20
445.6928878577
 30
0.0
 11
8.50000000003029
 21
8.881784197001252E-13
 31
0.0
210
0.0
220
0.0
230
1.0
 40
0.2588190451
 41
0.0117649772880459
 42
0.2291964453304275
  0
LINE
  5
E4
330
75
100
AcDbEntity
  8
$DDT_AUDIT_GENERATED_(D9)
  6
Continuous
 62
     7
100
AcDbLine
 10
42.260978657
 20
445.6670059532
 30
0.0
 11
44.5103904013
 21
445.6670059532
 31
0.0
  0
LINE
  5
E5
330
75
100
AcDbEntity
  8
$DDT_AUDIT_GENERATED_(D9)
  6
Continuous
 62
     7
100
AcDbLine
 10
42.2601786058
 20
445.7187697622
 30
0.0
 11
44.5103904013
 21
445.7187697622
 31
0.0
  0
LINE
  5
E6
330
75
100
AcDbEntity
  8
$DDT_AUDIT_GENERATED_(D9)
  6
Continuous
 62
     7
100
AcDbLine
 10
42.2601786058
 20
445.7187697622
 30
0.0
 11
42.2601786058
 21
446.0994771679
 31
0.0
  0
ELLIPSE
  5
E7
330
75
100
AcDbEntity
  8
$DDT_AUDIT_GENERATED_(D9)
  6
Continuous
 62
     7
100
AcDbEllipse
 10
36.010978657
 20
445.9317594148
 30
0.0
 11
-0.5196299438963599
 21
-2.775557561562891E-14
 31
0.0
210
0.0
220
0.0
230
1.0
 40
0.2588190451
 41
3.141592653589793
 42
3.643514934614063
  0
LINE
  5
E8
330
75
100
AcDbEntity
  8
$DDT_AUDIT_GENERATED_(D9)
  6
Continuous
 62
     7
100
AcDbLine
 10
36.4665171061
 20
445.9964641761
 30
0.0
 11
36.4665171061
 21
446.0435297768
 31
0.0
  0
LINE
  5
E9
330
75
100
AcDbEntity
  8
$DDT_AUDIT_GENERATED_(D9)
  6
Continuous
 62
     7
100
AcDbLine
 10
36.979811902
 20
445.9964641761
 30
0.0
 11
36.4665171061
 21
445.9964641761
 31
0.0
  0
LINE
  5
EA
330
75
100
AcDbEntity
  8
$DDT_AUDIT_GENERATED_(D9)
  6
Continuous
 62
     7
100
AcDbLine
 10
37.6259018263
 20
445.8670546535
 30
0.0
 11
36.5306086009
 21
445.8670546535
 31
0.0
  0
LINE
  5
EB
330
75
100
AcDbEntity
  8
$DDT_AUDIT_GENERATED_(D9)
  6
Continuous
 62
     7
100
AcDbLine
 10
35.1597771827
 20
445.4207667104
 30
0.0
 11
35.590517229
 21
445.6138621906
 31
0.0
  0
LINE
  5
EC
330
75
100
AcDbEntity
  8
$DDT_AUDIT_GENERATED_(D9)
  6
Continuous
 62
     7
100
AcDbLine
 10
34.7267644808
 20
445.4854714717
 30
0.0
 11
35.4913487131
 21
445.8282252062
 31
0.0
  0
ELLIPSE
  5
ED
330
75
100
AcDbEntity
  8
$DDT_AUDIT_GENERATED_(D9)
  6
Continuous
 62
     7
100
AcDbEllipse
 10
36.010978657
 20
445.9317594148
 30
0.0
 11
-2.149999999999578
 21
-2.636779683484747E-13
 31
0.0
210
0.0
220
0.0
230
1.0
 40
0.2588190451
 41
0.9306548427472535
 42
1.163740259645988
  0
LINE
  5
EE
330
75
100
AcDbEntity
  8
$DDT_AUDIT_GENERATED_(D9)
  6
Continuous
 62
     7
100
AcDbLine
 10
34.7267644808
 20
445.9459906356
 30
0.0
 11
34.7267644808
 21
445.4854714717
 31
0.0
  0
ELLIPSE
  5
EF
330
75
100
AcDbEntity
  8
$DDT_AUDIT_GENERATED_(D9)
  6
Continuous
 62
     7
100
AcDbEllipse
 10
36.010978657
 20
445.9317594148
 30
0.0
 11
-0.5196299438963573
 21
-1.387778780781446E-14
 31
0.0
210
0.0
220
0.0
230
1.0
 40
0.2588190451
 41
-1.12562702574529
 42
-0.5452752701724135
  0
LINE
  5
F0
330
75
100
AcDbEntity
  8
$DDT_AUDIT_GENERATED_(D9)
  6
Continuous
 62
     7
100
AcDbLine
 10
35.4828293034
 20
446.0391127703
 30
0.0
 11
35.5667030815
 21
446.0015131842
 31
0.0
  0
ELLIPSE
  5
F1
330
75
100
AcDbEntity
  8
$DDT_AUDIT_GENERATED_(D9)
  6
Continuous
 62
     7
100
AcDbEllipse
 10
36.010979113
 20
445.6928878261
 30
0.0
 11
8.49999954368975
 21
3.276735827117960E-8
 31
0.0
210
0.0
220
0.0
230
1.0
 40
0.2588190513
 41
-0.2735643733551756
 42
-0.2500344181255461
  0
ELLIPSE
  5
F2
330
75
100
AcDbEntity
  8
$DDT_AUDIT_GENERATED_(D9)
  6
Continuous
 62
     7
100
AcDbEllipse
 10
36.010978657
 20
445.6928878577
 30
0.0
 11
8.500000000032692
 21
-9.714451465470120E-13
 31
0.0
210
0.0
220
0.0
230
1.0
 40
0.2588190451
 41
6.03315089666904
 42
6.271420329891541
  0
LINE
  5
F3
330
75
100
AcDbEntity
  8
$DDT_AUDIT_GENERATED_(D9)
  6
Continuous
 62
     7
100
AcDbLine
 10
44.2466618736
 20
445.1485352295
 30
0.0
 11
44.2466618736
 21
445.6670059532
 31
0.0
  0
LINE
  5
F4
330
75
100
AcDbEntity
  8
$DDT_AUDIT_GENERATED_(D9)
  6
Continuous
 62
     7
100
AcDbLine
 10
42.1788639768
 20
445.2383479074
 30
0.0
 11
44.1948980646
 21
445.0985352295
 31
0.0
  0
LINE
  5
F5
330
75
100
AcDbEntity
  8
$DDT_AUDIT_GENERATED_(D9)
  6
Continuous
 62
     7
100
AcDbLine
 10
42.208189939
 20
445.28990398
 30
0.0
 11
44.2466618736
 21
445.1485352295
 31
0.0
  0
ELLIPSE
  5
F6
330
75
100
AcDbEntity
  8
$DDT_AUDIT_GENERATED_(D9)
  6
Continuous
 62
     7
100
AcDbEllipse
 10
36.0109790069
 20
445.6928878055
 30
0.0
 11
8.499999646471711
 21
4.846309464845433E-8
 31
0.0
210
0.0
220
0.0
230
1.0
 40
0.2588190482
 41
-0.535363764936645
 42
-0.5118338098013764
  0
ELLIPSE
  5
F7
330
75
100
AcDbEntity
  8
$DDT_AUDIT_GENERATED_(D9)
  6
Continuous
 62
     7
100
AcDbEllipse
 10
36.010978657
 20
445.6928878577
 30
0.0
 11
8.499999999994522
 21
3.330669073875470E-13
 31
0.0
210
0.0
220
0.0
230
1.0
 40
0.2588190451
 41
-0.5118337983103869
 42
-0.2735643650873287
  0
LINE
  5
F8
330
75
100
AcDbEntity
  8
$DDT_AUDIT_GENERATED_(D9)
  6
Continuous
 62
     7
100
AcDbLine
 10
43.4216851448
 20
444.6153974287
 30
0.0
 11
43.4216851448
 21
445.1521578193
 31
0.0
  0
LINE
  5
F9
330
75
100
AcDbEntity
  8
$DDT_AUDIT_GENERATED_(D9)
  6
Continuous
 62
     7
100
AcDbLine
 10
41.6761177091
 20
444.8164645552
 30
0.0
 11
43.3216851448
 21
444.5705686551
 31
0.0
  0
LINE
  5
FA
330
75
100
AcDbEntity
  8
$DDT_AUDIT_GENERATED_(D9)
  6
Continuous
 62
     7
100
AcDbLine
 10
41.7581049228
 20
444.8639849659
 30
0.0
 11
43.4216851448
 21
444.6153974287
 31
0.0
  0
ELLIPSE
  5
FB
330
75
100
AcDbEntity
  8
$DDT_AUDIT_GENERATED_(D9)
  6
Continuous
 62
     7
100
AcDbEllipse
 10
36.0109790143
 20
445.6928877652
 30
0.0
 11
8.499999621022509
 21
7.010074465352290E-8
 31
0.0
210
0.0
220
0.0
230
1.0
 40
0.2588190451
 41
-0.7971631580287326
 42
-0.7736332027530457
  0
ELLIPSE
  5
FC
330
75
100
AcDbEntity
  8
$DDT_AUDIT_GENERATED_(D9)
  6
Continuous
 62
     7
100
AcDbEllipse
 10
36.010978657
 20
445.6928878577
 30
0.0
 11
8.49999999999126
 21
1.304512053934559E-12
 31
0.0
210
0.0
220
0.0
230
1.0
 40
0.2588190451
 41
-0.773633186109782
 42
-0.5353637528866599
  0
LINE
  5
FD
330
75
100
AcDbEntity
  8
$DDT_AUDIT_GENERATED_(D9)
  6
Continuous
 62
     7
100
AcDbLine
 10
42.0916810156
 20
444.1556888201
 30
0.0
 11
42.0916810156
 21
444.7543672439
 31
0.0
  0
LINE
  5
FE
330
75
100
AcDbEntity
  8
$DDT_AUDIT_GENERATED_(D9)
  6
Continuous
 62
     7
100
AcDbLine
 10
40.7225259212
 20
444.4368471535
 30
0.0
 11
41.9502596594
 21
444.1190862797
 31
0.0
  0
LINE
  5
FF
330
75
100
AcDbEntity
  8
$DDT_AUDIT_GENERATED_(D9)
  6
Continuous
 62
     7
100
AcDbLine
 10
40.8519603466
 20
444.4765521398
 30
0.0
 11
42.0916810156
 21
444.1556888201
 31
0.0
  0
ELLIPSE
  5
100
330
75
100
AcDbEntity
  8
$DDT_AUDIT_GENERATED_(D9)
  6
Continuous
 62
     7
100
AcDbEllipse
 10
36.0109788764
 20
445.6928877594
 30
0.0
 11
8.499999725778425
 21
5.273409486861169E-8
 31
0.0
210
0.0
220
0.0
230
1.0
 40
0.2588190418
 41
-1.05896254157857
 42
-1.035432586395252
  0
ELLIPSE
  5
101
330
75
100
AcDbEntity
  8
$DDT_AUDIT_GENERATED_(D9)
  6
Continuous
 62
     7
100
AcDbEllipse
 10
36.010978657
 20
445.6928878577
 30
0.0
 11
8.499999999996524
 21
9.298117831235686E-13
 31
0.0
210
0.0
220
0.0
230
1.0
 40
0.2588190451
 41
-1.035432573908722
 42
-0.797163140685683
  0
LINE
  5
102
330
75
100
AcDbEntity
  8
$DDT_AUDIT_GENERATED_(D9)
  6
Continuous
 62
     7
100
AcDbLine
 10
40.3472870695
 20
443.8007377855
 30
0.0
 11
40.3472870695
 21
444.3347602305
 31
0.0
  0
LINE
  5
103
330
75
100
AcDbEntity
  8
$DDT_AUDIT_GENERATED_(D9)
  6
Continuous
 62
     7
100
AcDbLine
 10
39.3695941291
 20
444.1354979223
 30
0.0
 11
40.1740819888
 21
443.774855881
 31
0.0
  0
LINE
  5
104
330
75
100
AcDbEntity
  8
$DDT_AUDIT_GENERATED_(D9)
  6
Continuous
 62
     7
100
AcDbLine
 10
39.536816483
 20
444.1640618099
 30
0.0
 11
40.3472870695
 21
443.8007377855
 31
0.0
  0
ELLIPSE
  5
105
330
75
100
AcDbEntity
  8
$DDT_AUDIT_GENERATED_(D9)
  6
Continuous
 62
     7
100
AcDbEllipse
 10
36.0109787748
 20
445.692887744
 30
0.0
 11
8.499999757283515
 21
3.155206651506148E-8
 31
0.0
210
0.0
220
0.0
230
1.0
 40
0.2588190391
 41
-1.320761924254093
 42
-1.297231969048161
  0
ELLIPSE
  5
106
330
75
100
AcDbEntity
  8
$DDT_AUDIT_GENERATED_(D9)
  6
Continuous
 62
     7
100
AcDbEllipse
 10
36.010978657
 20
445.6928878577
 30
0.0
 11
8.500000000002519
 21
-5.967448757360217E-13
 31
0.0
210
0.0
220
0.0
230
1.0
 40
0.2588190451
 41
-1.297231961707499
 42
-1.05896252848459
  0
LINE
  5
107
330
75
100
AcDbEntity
  8
$DDT_AUDIT_GENERATED_(D9)
  6
Continuous
 62
     7
100
AcDbLine
 10
38.3073808712
 20
443.5747336514
 30
0.0
 11
38.3073808712
 21
443.9952305971
 31
0.0
  0
LINE
  5
108
330
75
100
AcDbEntity
  8
$DDT_AUDIT_GENERATED_(D9)
  6
Continuous
 62
     7
100
AcDbLine
 10
37.7184278407
 20
443.9436185941
 30
0.0
 11
38.114195706
 21
443.5613361918
 31
0.0
  0
LINE
  5
109
330
75
100
AcDbEntity
  8
$DDT_AUDIT_GENERATED_(D9)
  6
Continuous
 62
     7
100
AcDbLine
 10
37.9100120358
 20
443.9585624721
 30
0.0
 11
38.3073808712
 21
443.5747336514
 31
0.0
  0
ARC
  5
10A
330
75
100
AcDbEntity
  8
$DDT_AUDIT_GENERATED_(D9)
  6
Continuous
 62
     7
100
AcDbCircle
 10
36.010978657
 20
476.3322834753
 30
0.0
 40
32.83935750582688
100
AcDbArc
 50
269.82552683
 51
270.17447317
  0
ELLIPSE
  5
10B
330
75
100
AcDbEntity
  8
$DDT_AUDIT_GENERATED_(D9)
  6
Continuous
 62
     7
100
AcDbEllipse
 10
36.010978657
 20
445.6928878577
 30
0.0
 11
8.500000000005391
 21
-4.163336342344337E-13
 31
0.0
210
0.0
220
0.0
230
1.0
 40
0.2588190451
 41
4.724153957672945
 42
4.962423390895764
  0
LINE
  5
10C
330
75
100
AcDbEntity
  8
$DDT_AUDIT_GENERATED_(D9)
  6
Continuous
 62
     7
100
AcDbLine
 10
35.910978657
 20
443.8822907291
 30
0.0
 11
35.910978657
 21
443.4930782261
 31
0.0
  0
LINE
  5
10D
330
75
100
AcDbEntity
  8
$DDT_AUDIT_GENERATED_(D9)
  6
Continuous
 62
     7
100
AcDbLine
 10
36.110978657
 20
443.8822907291
 30
0.0
 11
36.110978657
 21
443.4930782261
 31
0.0
  0
ELLIPSE
  5
10E
330
75
100
AcDbEntity
  8
$DDT_AUDIT_GENERATED_(D9)
  6
Continuous
 62
     7
100
AcDbEllipse
 10
36.0109785394
 20
445.6928877441
 30
0.0
 11
-8.499999757597276
 21
3.151583161109528E-8
 31
0.0
210
0.0
220
0.0
230
1.0
 40
0.2588190391
 41
1.297231969031086
 42
1.320761924236246
  0
ELLIPSE
  5
10F
330
75
100
AcDbEntity
  8
$DDT_AUDIT_GENERATED_(D9)
  6
Continuous
 62
     7
100
AcDbEllipse
 10
36.010978657
 20
445.6928878577
 30
0.0
 11
-8.500000000006647
 21
-3.885780586188048E-13
 31
0.0
210
0.0
220
0.0
230
1.0
 40
0.2588190451
 41
1.320761916283802
 42
1.559031349506588
  0
LINE
  5
110
330
75
100
AcDbEntity
  8
$DDT_AUDIT_GENERATED_(D9)
  6
Continuous
 62
     7
100
AcDbLine
 10
33.7145764428
 20
443.5747336514
 30
0.0
 11
33.7145764428
 21
443.9952305971
 31
0.0
  0
LINE
  5
111
330
75
100
AcDbEntity
  8
$DDT_AUDIT_GENERATED_(D9)
  6
Continuous
 62
     7
100
AcDbLine
 10
34.1119452782
 20
443.9585624721
 30
0.0
 11
33.7145764428
 21
443.5747336514
 31
0.0
  0
LINE
  5
112
330
75
100
AcDbEntity
  8
$DDT_AUDIT_GENERATED_(D9)
  6
Continuous
 62
     7
100
AcDbLine
 10
34.3035294732
 20
443.9436185941
 30
0.0
 11
33.907761608
 21
443.5613361918
 31
0.0
  0
ELLIPSE
  5
113
330
75
100
AcDbEntity
  8
$DDT_AUDIT_GENERATED_(D9)
  6
Continuous
 62
     7
100
AcDbEllipse
 10
36.0109784214
 20
445.6928877521
 30
0.0
 11
-8.499999705469063
 21
5.662516289195452E-8
 31
0.0
210
0.0
220
0.0
230
1.0
 40
0.2588190415
 41
1.035432587313376
 42
1.058962542541798
  0
ELLIPSE
  5
114
330
75
100
AcDbEntity
  8
$DDT_AUDIT_GENERATED_(D9)
  6
Continuous
 62
     7
100
AcDbEllipse
 10
36.010978657
 20
445.6928878577
 30
0.0
 11
-8.499999999980908
 21
3.344546861683284E-12
 31
0.0
210
0.0
220
0.0
230
1.0
 40
0.2588190451
 41
1.058962528485279
 42
1.297231961708714
  0
LINE
  5
115
330
75
100
AcDbEntity
  8
$DDT_AUDIT_GENERATED_(D9)
  6
Continuous
 62
     7
100
AcDbLine
 10
31.6746702444
 20
443.8007377855
 30
0.0
 11
31.6746702444
 21
444.3347602305
 31
0.0
  0
LINE
  5
116
330
75
100
AcDbEntity
  8
$DDT_AUDIT_GENERATED_(D9)
  6
Continuous
 62
     7
100
AcDbLine
 10
32.485140831
 20
444.1640618099
 30
0.0
 11
31.6746702444
 21
443.8007377855
 31
0.0
  0
LINE
  5
117
330
75
100
AcDbEntity
  8
$DDT_AUDIT_GENERATED_(D9)
  6
Continuous
 62
     7
100
AcDbLine
 10
32.6523631849
 20
444.1354979223
 30
0.0
 11
31.8478753252
 21
443.774855881
 31
0.0
  0
ELLIPSE
  5
118
330
75
100
AcDbEntity
  8
$DDT_AUDIT_GENERATED_(D9)
  6
Continuous
 62
     7
100
AcDbEllipse
 10
36.0109783474
 20
445.6928877776
 30
0.0
 11
-8.499999671600488
 21
6.074761527141703E-8
 31
0.0
210
0.0
220
0.0
230
1.0
 40
0.2588190451
 41
0.7736332005326422
 42
0.7971631557149441
  0
ELLIPSE
  5
119
330
75
100
AcDbEntity
  8
$DDT_AUDIT_GENERATED_(D9)
  6
Continuous
 62
     7
100
AcDbEllipse
 10
36.010978657
 20
445.6928878577
 30
0.0
 11
-8.500000000022849
 21
-4.288236432614667E-12
 31
0.0
210
0.0
220
0.0
230
1.0
 40
0.2588190451
 41
0.7971631406846776
 42
1.035432573907177
  0
LINE
  5
11A
330
75
100
AcDbEntity
  8
$DDT_AUDIT_GENERATED_(D9)
  6
Continuous
 62
     7
100
AcDbLine
 10
29.9302762983
 20
444.1556888201
 30
0.0
 11
29.9302762983
 21
444.7543672439
 31
0.0
  0
LINE
  5
11B
330
75
100
AcDbEntity
  8
$DDT_AUDIT_GENERATED_(D9)
  6
Continuous
 62
     7
100
AcDbLine
 10
31.1699969674
 20
444.4765521398
 30
0.0
 11
29.9302762983
 21
444.1556888201
 31
0.0
  0
LINE
  5
11C
330
75
100
AcDbEntity
  8
$DDT_AUDIT_GENERATED_(D9)
  6
Continuous
 62
     7
100
AcDbLine
 10
31.2994313928
 20
444.4368471535
 30
0.0
 11
30.0716976546
 21
444.1190862797
 31
0.0
  0
ELLIPSE
  5
11D
330
75
100
AcDbEntity
  8
$DDT_AUDIT_GENERATED_(D9)
  6
Continuous
 62
     7
100
AcDbEllipse
 10
36.0109782486
 20
445.6928877966
 30
0.0
 11
-8.499999587342002
 21
5.671944858232081E-8
 31
0.0
210
0.0
220
0.0
230
1.0
 40
0.2588190487
 41
0.5118338117244267
 42
0.5353637669533355
  0
ELLIPSE
  5
11E
330
75
100
AcDbEntity
  8
$DDT_AUDIT_GENERATED_(D9)
  6
Continuous
 62
     7
100
AcDbEllipse
 10
36.010978657
 20
445.6928878577
 30
0.0
 11
-8.500000000025576
 21
-4.385380947269368E-12
 31
0.0
210
0.0
220
0.0
230
1.0
 40
0.2588190451
 41
0.5353637528855721
 42
0.7736331861081045
  0
LINE
  5
11F
330
75
100
AcDbEntity
  8
$DDT_AUDIT_GENERATED_(D9)
  6
Continuous
 62
     7
100
AcDbLine
 10
28.6002721692
 20
444.6153974287
 30
0.0
 11
28.6002721692
 21
445.1521578193
 31
0.0
  0
LINE
  5
120
330
75
100
AcDbEntity
  8
$DDT_AUDIT_GENERATED_(D9)
  6
Continuous
 62
     7
100
AcDbLine
 10
30.2638523912
 20
444.8639849659
 30
0.0
 11
28.6002721692
 21
444.6153974287
 31
0.0
  0
LINE
  5
121
330
75
100
AcDbEntity
  8
$DDT_AUDIT_GENERATED_(D9)
  6
Continuous
 62
     7
100
AcDbLine
 10
30.3458396049
 20
444.8164645552
 30
0.0
 11
28.7002721692
 21
444.5705686551
 31
0.0
  0
ELLIPSE
  5
122
330
75
100
AcDbEntity
  8
$DDT_AUDIT_GENERATED_(D9)
  6
Continuous
 62
     7
100
AcDbEllipse
 10
36.0109782009
 20
445.6928878261
 30
0.0
 11
-8.499999543591983
 21
3.277435267623474E-8
 31
0.0
210
0.0
220
0.0
230
1.0
 40
0.2588190513
 41
0.2500344181272814
 42
0.2735643733570612
  0
ELLIPSE
  5
123
330
75
100
AcDbEntity
  8
$DDT_AUDIT_GENERATED_(D9)
  6
Continuous
 62
     7
100
AcDbEllipse
 10
36.010978657
 20
445.6928878577
 30
0.0
 11
-8.500000000020076
 21
-2.400857290751901E-12
 31
0.0
210
0.0
220
0.0
230
1.0
 40
0.2588190451
 41
0.2735643650868693
 42
0.5118337983095379
  0
LINE
  5
124
330
75
100
AcDbEntity
  8
$DDT_AUDIT_GENERATED_(D9)
  6
Continuous
 62
     7
100
AcDbLine
 10
27.7752954403
 20
445.1485352295
 30
0.0
 11
27.7752954403
 21
445.6670059532
 31
0.0
  0
LINE
  5
125
330
75
100
AcDbEntity
  8
$DDT_AUDIT_GENERATED_(D9)
  6
Continuous
 62
     7
100
AcDbLine
 10
29.8137673749
 20
445.28990398
 30
0.0
 11
27.7752954403
 21
445.1485352295
 31
0.0
  0
LINE
  5
126
330
75
100
AcDbEntity
  8
$DDT_AUDIT_GENERATED_(D9)
  6
Continuous
 62
     7
100
AcDbLine
 10
29.8430933372
 20
445.2383479074
 30
0.0
 11
27.8270592494
 21
445.0985352295
 31
0.0
  0
ARC
  5
127
330
75
100
AcDbEntity
  8
$DDT_AUDIT_GENERATED_(D9)
  6
Continuous
 62
     7
100
AcDbCircle
 10
28.0809195409
 20
445.6928878577
 30
0.0
 40
0.5699406006657132
100
AcDbArc
 50
177.3972128852
 51
182.6027871148
  0
ELLIPSE
  5
128
330
75
100
AcDbEntity
  8
$DDT_AUDIT_GENERATED_(D9)
  6
Continuous
 62
     7
100
AcDbEllipse
 10
36.010978657
 20
445.6928878577
 30
0.0
 11
-8.500000000031198
 21
-9.159339953157541E-13
 31
0.0
210
0.0
220
0.0
230
1.0
 40
0.2588190451
 41
0.0117649772879799
 42
0.2500344105105646
  0
ARC
  5
129
330
75
100
AcDbEntity
  8
$DDT_AUDIT_GENERATED_(D9)
  6
Continuous
 62
     7
100
AcDbCircle
 10
30.1803957281
 20
445.6928878577
 30
0.0
 40
0.419416359164763
100
AcDbArc
 50
176.462067702
 51
180.0
  0
LINE
  5
12A
330
75
100
AcDbEntity
  8
$DDT_AUDIT_GENERATED_(D9)
  6
Continuous
 62
     7
100
AcDbLine
 10
29.7617787082
 20
445.7187697622
 30
0.0
 11
29.7617787082
 21
446.0994771679
 31
0.0
  0
LINE
  5
12B
330
75
100
AcDbEntity
  8
$DDT_AUDIT_GENERATED_(D9)
  6
Continuous
 62
     7
100
AcDbLine
 10
29.7617787082
 20
445.7187697622
 30
0.0
 11
27.5115669126
 21
445.7187697622
 31
0.0
  0
LINE
  5
12C
330
75
100
AcDbEntity
  8
$DDT_AUDIT_GENERATED_(D9)
  6
Continuous
 62
     7
100
AcDbLine
 10
29.760978657
 20
445.6670059532
 30
0.0
 11
27.5115669126
 21
445.6670059532
 31
0.0
  0
ELLIPSE
  5
12D
330
75
100
AcDbEntity
  8
$DDT_AUDIT_GENERATED_(D9)
  6
Continuous
 62
     7
100
AcDbEllipse
 10
36.010978657
 20
445.6928878577
 30
0.0
 11
-8.500000000033396
 21
9.992007221626409E-13
 31
0.0
210
0.0
220
0.0
230
1.0
 40
0.2588190451
 41
6.053988861849223
 42
6.271420329891512
  0
ELLIPSE
  5
12E
330
75
100
AcDbEntity
  8
$DDT_AUDIT_GENERATED_(D9)
  6
Continuous
 62
     7
100
AcDbEllipse
 10
36.0109787126
 20
445.6928878539
 30
0.0
 11
-6.250000055659961
 21
3.978900542378483E-9
 31
0.0
210
0.0
220
0.0
230
1.0
 40
0.2588190441
 41
-0.2778000691540417
 42
-0.2457987038108254
  0
LINE
  5
12F
330
75
100
AcDbEntity
  8
$DDT_AUDIT_GENERATED_(D9)
  6
Continuous
 62
     7
100
AcDbLine
 10
30.0005969373
 20
446.1365048776
 30
0.0
 11
30.0005969373
 21
446.5611288134
 31
0.0
  0
LINE
  5
130
330
75
100
AcDbEntity
  8
$DDT_AUDIT_GENERATED_(D9)
  6
Continuous
 62
     7
100
AcDbLine
 10
30.0005969373
 20
446.1365048776
 30
0.0
 11
27.8574079948
 21
446.2851357897
 31
0.0
  0
LINE
  5
131
330
75
100
AcDbEntity
  8
$DDT_AUDIT_GENERATED_(D9)
  6
Continuous
 62
     7
100
AcDbLine
 10
29.9488331283
 20
446.0865048776
 30
0.0
 11
27.7895784229
 21
446.2362499561
 31
0.0
  0
ELLIPSE
  5
132
330
75
100
AcDbEntity
  8
$DDT_AUDIT_GENERATED_(D9)
  6
Continuous
 62
     7
100
AcDbEllipse
 10
36.0109787069
 20
445.6928878503
 30
0.0
 11
-6.250000050438742
 21
6.912706518313882E-9
 31
0.0
210
0.0
220
0.0
230
1.0
 40
0.2588190445
 41
-0.5395994559863144
 42
-0.5075980906432402
  0
LINE
  5
133
330
75
100
AcDbEntity
  8
$DDT_AUDIT_GENERATED_(D9)
  6
Continuous
 62
     7
100
AcDbLine
 10
30.649012748
 20
446.5240082262
 30
0.0
 11
30.649012748
 21
447.0440642138
 31
0.0
  0
LINE
  5
134
330
75
100
AcDbEntity
  8
$DDT_AUDIT_GENERATED_(D9)
  6
Continuous
 62
     7
100
AcDbLine
 10
30.649012748
 20
446.5240082262
 30
0.0
 11
28.8775430841
 21
446.7887176013
 31
0.0
  0
LINE
  5
135
330
75
100
AcDbEntity
  8
$DDT_AUDIT_GENERATED_(D9)
  6
Continuous
 62
     7
100
AcDbLine
 10
30.549012748
 20
446.4791794526
 30
0.0
 11
28.7646374116
 21
446.7458173126
 31
0.0
  0
ELLIPSE
  5
136
330
75
100
AcDbEntity
  8
$DDT_AUDIT_GENERATED_(D9)
  6
Continuous
 62
     7
100
AcDbEllipse
 10
36.0109787074
 20
445.6928878447
 30
0.0
 11
-6.250000053415117
 21
9.853395877001958E-9
 31
0.0
210
0.0
220
0.0
230
1.0
 40
0.2588190451
 41
-0.8013988427909648
 42
-0.7693974774825527
  0
LINE
  5
137
330
75
100
AcDbEntity
  8
$DDT_AUDIT_GENERATED_(D9)
  6
Continuous
 62
     7
100
AcDbLine
 10
31.6628376743
 20
446.8548720952
 30
0.0
 11
31.6628376743
 21
447.4500320569
 31
0.0
  0
LINE
  5
138
330
75
100
AcDbEntity
  8
$DDT_AUDIT_GENERATED_(D9)
  6
Continuous
 62
     7
100
AcDbLine
 10
31.6628376743
 20
446.8548720952
 30
0.0
 11
30.3191027963
 21
447.2026562732
 31
0.0
  0
LINE
  5
139
330
75
100
AcDbEntity
  8
$DDT_AUDIT_GENERATED_(D9)
  6
Continuous
 62
     7
100
AcDbLine
 10
31.5214163181
 20
446.8182695548
 30
0.0
 11
30.1690856096
 21
447.1682784975
 31
0.0
  0
ELLIPSE
  5
13A
330
75
100
AcDbEntity
  8
$DDT_AUDIT_GENERATED_(D9)
  6
Continuous
 62
     7
100
AcDbEllipse
 10
36.0109786859
 20
445.6928878448
 30
0.0
 11
-6.25000003609477
 21
6.939157581875577E-9
 31
0.0
210
0.0
220
0.0
230
1.0
 40
0.2588190457
 41
-1.063198231579284
 42
-1.031196866236486
  0
LINE
  5
13B
330
75
100
AcDbEntity
  8
$DDT_AUDIT_GENERATED_(D9)
  6
Continuous
 62
     7
100
AcDbLine
 10
32.972981223
 20
447.1065486587
 30
0.0
 11
32.972981223
 21
447.609682342
 31
0.0
  0
LINE
  5
13C
330
75
100
AcDbEntity
  8
$DDT_AUDIT_GENERATED_(D9)
  6
Continuous
 62
     7
100
AcDbLine
 10
32.972981223
 20
447.1065486587
 30
0.0
 11
32.0772256146
 21
447.5081049124
 31
0.0
  0
LINE
  5
13D
330
75
100
AcDbEntity
  8
$DDT_AUDIT_GENERATED_(D9)
  6
Continuous
 62
     7
100
AcDbLine
 10
32.7997761422
 20
447.0806667542
 30
0.0
 11
31.8997265832
 21
447.4841479333
 31
0.0
  0
ELLIPSE
  5
13E
330
75
100
AcDbEntity
  8
$DDT_AUDIT_GENERATED_(D9)
  6
Continuous
 62
     7
100
AcDbEllipse
 10
36.0109786717
 20
445.6928878435
 30
0.0
 11
-6.250000030360157
 21
3.943054216470898E-9
 31
0.0
210
0.0
220
0.0
230
1.0
 40
0.2588190461
 41
-1.324997620366004
 42
-1.29299625502102
  0
LINE
  5
13F
330
75
100
AcDbEntity
  8
$DDT_AUDIT_GENERATED_(D9)
  6
Continuous
 62
     7
100
AcDbLine
 10
34.4901592762
 20
447.2618865747
 30
0.0
 11
34.4901592762
 21
447.7167579997
 31
0.0
  0
LINE
  5
140
330
75
100
AcDbEntity
  8
$DDT_AUDIT_GENERATED_(D9)
  6
Continuous
 62
     7
100
AcDbLine
 10
34.4901592762
 20
447.2618865747
 30
0.0
 11
34.0437270398
 21
447.6931070015
 31
0.0
  0
LINE
  5
141
330
75
100
AcDbEntity
  8
$DDT_AUDIT_GENERATED_(D9)
  6
Continuous
 62
     7
100
AcDbLine
 10
34.296974111
 20
447.2484891151
 30
0.0
 11
33.8493920898
 21
447.6808201488
 31
0.0
  0
ARC
  5
142
330
75
100
AcDbEntity
  8
$DDT_AUDIT_GENERATED_(D9)
  6
Continuous
 62
     7
100
AcDbCircle
 10
36.010978657
 20
423.165245324
 30
0.0
 40
24.14526157799508
100
AcDbArc
 50
89.7627031576
 51
90.2372968424
  0
LINE
  5
143
330
75
100
AcDbEntity
  8
$DDT_AUDIT_GENERATED_(D9)
  6
Continuous
 62
     7
100
AcDbLine
 10
36.110978657
 20
447.3102998211
 30
0.0
 11
36.110978657
 21
447.7512796334
 31
0.0
  0
LINE
  5
144
330
75
100
AcDbEntity
  8
$DDT_AUDIT_GENERATED_(D9)
  6
Continuous
 62
     7
100
AcDbLine
 10
35.910978657
 20
447.3102998211
 30
0.0
 11
35.910978657
 21
447.7512796334
 31
0.0
  0
ELLIPSE
  5
145
330
75
100
AcDbEntity
  8
$DDT_AUDIT_GENERATED_(D9)
  6
Continuous
 62
     7
100
AcDbEllipse
 10
36.0109786421
 20
445.6928878433
 30
0.0
 11
6.250000030755587
 21
4.004740983276633E-9
 31
0.0
210
0.0
220
0.0
230
1.0
 40
0.2588190461
 41
1.292996255006107
 42
1.324997620349124
  0
LINE
  5
146
330
75
100
AcDbEntity
  8
$DDT_AUDIT_GENERATED_(D9)
  6
Continuous
 62
     7
100
AcDbLine
 10
37.724983203
 20
447.2484891151
 30
0.0
 11
38.1725652242
 21
447.6808201488
 31
0.0
  0
LINE
  5
147
330
75
100
AcDbEntity
  8
$DDT_AUDIT_GENERATED_(D9)
  6
Continuous
 62
     7
100
AcDbLine
 10
37.5317980378
 20
447.2618865747
 30
0.0
 11
37.9782302742
 21
447.6931070015
 31
0.0
  0
LINE
  5
148
330
75
100
AcDbEntity
  8
$DDT_AUDIT_GENERATED_(D9)
  6
Continuous
 62
     7
100
AcDbLine
 10
37.5317980378
 20
447.2618865747
 30
0.0
 11
37.5317980378
 21
447.7167579997
 31
0.0
  0
ELLIPSE
  5
149
330
75
100
AcDbEntity
  8
$DDT_AUDIT_GENERATED_(D9)
  6
Continuous
 62
     7
100
AcDbEllipse
 10
36.0109786214
 20
445.6928878417
 30
0.0
 11
6.250000044506309
 21
8.546427454625416E-9
 31
0.0
210
0.0
220
0.0
230
1.0
 40
0.2588190458
 41
1.031196865727144
 42
1.063198231035347
  0
LINE
  5
14A
330
75
100
AcDbEntity
  8
$DDT_AUDIT_GENERATED_(D9)
  6
Continuous
 62
     7
100
AcDbLine
 10
39.2221811718
 20
447.0806667542
 30
0.0
 11
40.1222307308
 21
447.4841479333
 31
0.0
  0
LINE
  5
14B
330
75
100
AcDbEntity
  8
$DDT_AUDIT_GENERATED_(D9)
  6
Continuous
 62
     7
100
AcDbLine
 10
39.048976091
 20
447.1065486587
 30
0.0
 11
39.9447316994
 21
447.5081049124
 31
0.0
  0
LINE
  5
14C
330
75
100
AcDbEntity
  8
$DDT_AUDIT_GENERATED_(D9)
  6
Continuous
 62
     7
100
AcDbLine
 10
39.048976091
 20
447.1065486587
 30
0.0
 11
39.048976091
 21
447.609682342
 31
0.0
  0
ELLIPSE
  5
14D
330
75
100
AcDbEntity
  8
$DDT_AUDIT_GENERATED_(D9)
  6
Continuous
 62
     7
100
AcDbEllipse
 10
36.0109786913
 20
445.6928878666
 30
0.0
 11
6.249999963601895
 21
-6.720679568417153E-9
 31
0.0
210
0.0
220
0.0
230
1.0
 40
0.2588190451
 41
0.7693974828097861
 42
0.8013988484246831
  0
LINE
  5
14E
330
75
100
AcDbEntity
  8
$DDT_AUDIT_GENERATED_(D9)
  6
Continuous
 62
     7
100
AcDbLine
 10
40.5005409959
 20
446.8182695548
 30
0.0
 11
41.8528717044
 21
447.1682784975
 31
0.0
  0
LINE
  5
14F
330
75
100
AcDbEntity
  8
$DDT_AUDIT_GENERATED_(D9)
  6
Continuous
 62
     7
100
AcDbLine
 10
40.3591196397
 20
446.8548720952
 30
0.0
 11
41.7028545177
 21
447.2026562732
 31
0.0
  0
LINE
  5
150
330
75
100
AcDbEntity
  8
$DDT_AUDIT_GENERATED_(D9)
  6
Continuous
 62
     7
100
AcDbLine
 10
40.3591196397
 20
446.8548720952
 30
0.0
 11
40.3591196397
 21
447.4500320569
 31
0.0
  0
ELLIPSE
  5
151
330
75
100
AcDbEntity
  8
$DDT_AUDIT_GENERATED_(D9)
  6
Continuous
 62
     7
100
AcDbEllipse
 10
36.0109785954
 20
445.6928878485
 30
0.0
 11
6.250000062248652
 21
8.533632134266611E-9
 31
0.0
210
0.0
220
0.0
230
1.0
 40
0.2588190444
 41
0.5075980901273036
 42
0.5395994554357442
  0
LINE
  5
152
330
75
100
AcDbEntity
  8
$DDT_AUDIT_GENERATED_(D9)
  6
Continuous
 62
     7
100
AcDbLine
 10
41.472944566
 20
446.4791794526
 30
0.0
 11
43.2573199024
 21
446.7458173126
 31
0.0
  0
LINE
  5
153
330
75
100
AcDbEntity
  8
$DDT_AUDIT_GENERATED_(D9)
  6
Continuous
 62
     7
100
AcDbLine
 10
41.372944566
 20
446.5240082262
 30
0.0
 11
43.1444142299
 21
446.7887176013
 31
0.0
  0
LINE
  5
154
330
75
100
AcDbEntity
  8
$DDT_AUDIT_GENERATED_(D9)
  6
Continuous
 62
     7
100
AcDbLine
 10
41.372944566
 20
446.5240082262
 30
0.0
 11
41.372944566
 21
447.0440642138
 31
0.0
  0
ELLIPSE
  5
155
330
75
100
AcDbEntity
  8
$DDT_AUDIT_GENERATED_(D9)
  6
Continuous
 62
     7
100
AcDbEllipse
 10
36.0109786013
 20
445.6928878539
 30
0.0
 11
6.250000055729858
 21
3.983882668201488E-9
 31
0.0
210
0.0
220
0.0
230
1.0
 40
0.2588190441
 41
0.2457987038093407
 42
0.2778000691523707
  0
LINE
  5
156
330
75
100
AcDbEntity
  8
$DDT_AUDIT_GENERATED_(D9)
  6
Continuous
 62
     7
100
AcDbLine
 10
42.0731241857
 20
446.0865048776
 30
0.0
 11
44.2323788911
 21
446.2362499561
 31
0.0
  0
LINE
  5
157
330
75
100
AcDbEntity
  8
$DDT_AUDIT_GENERATED_(D9)
  6
Continuous
 62
     7
100
AcDbLine
 10
42.0213603767
 20
446.1365048776
 30
0.0
 11
44.1645493191
 21
446.2851357897
 31
0.0
  0
LINE
  5
158
330
75
100
AcDbEntity
  8
$DDT_AUDIT_GENERATED_(D9)
  6
Continuous
 62
     7
100
AcDbLine
 10
42.0213603767
 20
446.1365048776
 30
0.0
 11
42.0213603767
 21
446.5611288134
 31
0.0
  0
ELLIPSE
  5
159
330
75
100
AcDbEntity
  8
$DDT_AUDIT_GENERATED_(D9)
  6
Continuous
 62
     7
100
AcDbEllipse
 10
36.010978657
 20
445.6928878577
 30
0.0
 11
-2.749999999998231
 21
0.0
 31
0.0
210
0.0
220
0.0
230
1.0
 40
0.2588190451
 41
3.141592653589793
 42
3.205272045846812
  0
LINE
  5
15A
330
75
100
AcDbEntity
  8
$DDT_AUDIT_GENERATED_(D9)
  6
Continuous
 62
     7
100
AcDbLine
 10
38.7554048265
 20
446.0506851533
 30
0.0
 11
38.7554048265
 21
445.7381811906
 31
0.0
  0
LINE
  5
15B
330
75
100
AcDbEntity
  8
$DDT_AUDIT_GENERATED_(D9)
  6
Continuous
 62
     7
100
AcDbLine
 10
38.760978657
 20
445.6475945248
 30
0.0
 11
41.2297898652
 21
445.6475945248
 31
0.0
  0
LINE
  5
15C
330
75
100
AcDbEntity
  8
$DDT_AUDIT_GENERATED_(D9)
  6
Continuous
 62
     7
100
AcDbLine
 10
38.7554048265
 20
445.7381811906
 30
0.0
 11
41.1794894013
 21
445.7381811906
 31
0.0
  0
ELLIPSE
  5
15D
330
75
100
AcDbEntity
  8
$DDT_AUDIT_GENERATED_(D9)
  6
Continuous
 62
     7
100
AcDbEllipse
 10
36.0109786563
 20
445.6928878578
 30
0.0
 11
5.25000000069735
 21
-8.963663145067358E-11
 31
0.0
210
0.0
220
0.0
230
1.0
 40
0.2588190451
 41
-0.5569382848197435
 42
-0.4902592663021927
  0
LINE
  5
15E
330
75
100
AcDbEntity
  8
$DDT_AUDIT_GENERATED_(D9)
  6
Continuous
 62
     7
100
AcDbLine
 10
38.5930009253
 20
445.2547579828
 30
0.0
 11
40.4675854174
 21
444.9746402368
 31
0.0
  0
LINE
  5
15F
330
75
100
AcDbEntity
  8
$DDT_AUDIT_GENERATED_(D9)
  6
Continuous
 62
     7
100
AcDbLine
 10
38.6945319531
 20
445.3441867497
 30
0.0
 11
40.6425854174
 21
445.0530905906
 31
0.0
  0
LINE
  5
160
330
75
100
AcDbEntity
  8
$DDT_AUDIT_GENERATED_(D9)
  6
Continuous
 62
     7
100
AcDbLine
 10
40.6425854174
 20
445.6475945248
 30
0.0
 11
40.6425854174
 21
445.0530905906
 31
0.0
  0
ELLIPSE
  5
161
330
75
100
AcDbEntity
  8
$DDT_AUDIT_GENERATED_(D9)
  6
Continuous
 62
     7
100
AcDbEllipse
 10
36.0109786587
 20
445.6928878569
 30
0.0
 11
5.249999997805351
 21
4.245492846166598E-10
 31
0.0
210
0.0
220
0.0
230
1.0
 40
0.2588190451
 41
-1.080537060634908
 42
-1.013858042089991
  0
LINE
  5
162
330
75
100
AcDbEntity
  8
$DDT_AUDIT_GENERATED_(D9)
  6
Continuous
 62
     7
100
AcDbLine
 10
37.5540532552
 20
444.9105597737
 30
0.0
 11
38.4829654727
 21
444.4941398187
 31
0.0
  0
LINE
  5
163
330
75
100
AcDbEntity
  8
$DDT_AUDIT_GENERATED_(D9)
  6
Continuous
 62
     7
100
AcDbLine
 10
37.8331404238
 20
444.9666217503
 30
0.0
 11
38.786074364
 21
444.5394331516
 31
0.0
  0
LINE
  5
164
330
75
100
AcDbEntity
  8
$DDT_AUDIT_GENERATED_(D9)
  6
Continuous
 62
     7
100
AcDbLine
 10
38.786074364
 20
445.2259071645
 30
0.0
 11
38.786074364
 21
444.5394331516
 31
0.0
  0
ARC
  5
165
330
75
100
AcDbEntity
  8
$DDT_AUDIT_GENERATED_(D9)
  6
Continuous
 62
     7
100
AcDbCircle
 10
36.010978657
 20
464.608013055
 30
0.0
 40
20.27392537993488
100
AcDbArc
 50
269.5054294744
 51
270.4945705256
  0
LINE
  5
166
330
75
100
AcDbEntity
  8
$DDT_AUDIT_GENERATED_(D9)
  6
Continuous
 62
     7
100
AcDbLine
 10
35.835978657
 20
444.7893929319
 30
0.0
 11
35.835978657
 21
444.3348429696
 31
0.0
  0
LINE
  5
167
330
75
100
AcDbEntity
  8
$DDT_AUDIT_GENERATED_(D9)
  6
Continuous
 62
     7
100
AcDbLine
 10
36.185978657
 20
444.7893929319
 30
0.0
 11
36.185978657
 21
444.3348429696
 31
0.0
  0
ELLIPSE
  5
168
330
75
100
AcDbEntity
  8
$DDT_AUDIT_GENERATED_(D9)
  6
Continuous
 62
     7
100
AcDbEllipse
 10
36.0109786559
 20
445.6928878572
 30
0.0
 11
-5.249999998618113
 21
2.623734562945401E-10
 31
0.0
210
0.0
220
0.0
230
1.0
 40
0.2588190451
 41
1.013858042032756
 42
1.080537060569381
  0
LINE
  5
169
330
75
100
AcDbEntity
  8
$DDT_AUDIT_GENERATED_(D9)
  6
Continuous
 62
     7
100
AcDbLine
 10
34.1888168902
 20
444.9666217503
 30
0.0
 11
33.23588295
 21
444.5394331516
 31
0.0
  0
LINE
  5
16A
330
75
100
AcDbEntity
  8
$DDT_AUDIT_GENERATED_(D9)
  6
Continuous
 62
     7
100
AcDbLine
 10
34.4679040588
 20
444.9105597737
 30
0.0
 11
33.5389918413
 21
444.4941398187
 31
0.0
  0
LINE
  5
16B
330
75
100
AcDbEntity
  8
$DDT_AUDIT_GENERATED_(D9)
  6
Continuous
 62
     7
100
AcDbLine
 10
33.23588295
 20
445.2259071645
 30
0.0
 11
33.23588295
 21
444.5394331516
 31
0.0
  0
ELLIPSE
  5
16C
330
75
100
AcDbEntity
  8
$DDT_AUDIT_GENERATED_(D9)
  6
Continuous
 62
     7
100
AcDbEllipse
 10
36.0109786539
 20
445.6928878573
 30
0.0
 11
-5.249999996873074
 21
4.300448885885544E-10
 31
0.0
210
0.0
220
0.0
230
1.0
 40
0.2588190451
 41
0.4902592664943564
 42
0.5569382850396406
  0
LINE
  5
16D
330
75
100
AcDbEntity
  8
$DDT_AUDIT_GENERATED_(D9)
  6
Continuous
 62
     7
100
AcDbLine
 10
33.3274253609
 20
445.3441867497
 30
0.0
 11
31.3793718966
 21
445.0530905906
 31
0.0
  0
LINE
  5
16E
330
75
100
AcDbEntity
  8
$DDT_AUDIT_GENERATED_(D9)
  6
Continuous
 62
     7
100
AcDbLine
 10
33.4289563887
 20
445.2547579828
 30
0.0
 11
31.5543718966
 21
444.9746402368
 31
0.0
  0
LINE
  5
16F
330
75
100
AcDbEntity
  8
$DDT_AUDIT_GENERATED_(D9)
  6
Continuous
 62
     7
100
AcDbLine
 10
31.3793718966
 20
445.6475945248
 30
0.0
 11
31.3793718966
 21
445.0530905906
 31
0.0
  0
LINE
  5
170
330
75
100
AcDbEntity
  8
$DDT_AUDIT_GENERATED_(D9)
  6
Continuous
 62
     7
100
AcDbLine
 10
33.2665524875
 20
446.0506851533
 30
0.0
 11
33.2665524875
 21
445.7381811906
 31
0.0
  0
ELLIPSE
  5
171
330
75
100
AcDbEntity
  8
$DDT_AUDIT_GENERATED_(D9)
  6
Continuous
 62
     7
100
AcDbEllipse
 10
36.010978657
 20
445.6928878577
 30
0.0
 11
2.749999999996534
 21
0.0
 31
0.0
210
0.0
220
0.0
230
1.0
 40
0.2588190451
 41
3.077913261332752
 42
3.141592653589793
  0
LINE
  5
172
330
75
100
AcDbEntity
  8
$DDT_AUDIT_GENERATED_(D9)
  6
Continuous
 62
     7
100
AcDbLine
 10
33.2665524875
 20
445.7381811906
 30
0.0
 11
30.8424679127
 21
445.7381811906
 31
0.0
  0
LINE
  5
173
330
75
100
AcDbEntity
  8
$DDT_AUDIT_GENERATED_(D9)
  6
Continuous
 62
     7
100
AcDbLine
 10
33.260978657
 20
445.6475945248
 30
0.0
 11
30.7921674487
 21
445.6475945248
 31
0.0
  0
LINE
  5
174
330
75
100
AcDbEntity
  8
$DDT_AUDIT_GENERATED_(D9)
  6
Continuous
 62
     7
100
AcDbLine
 10
33.7217358754
 20
446.6285406559
 30
0.0
 11
33.7217358754
 21
446.0872679149
 31
0.0
  0
ELLIPSE
  5
175
330
75
100
AcDbEntity
  8
$DDT_AUDIT_GENERATED_(D9)
  6
Continuous
 62
     7
100
AcDbEllipse
 10
36.010978657
 20
445.6928878577
 30
0.0
 11
-2.75000000001579
 21
2.192690473634684E-12
 31
0.0
210
0.0
220
0.0
230
1.0
 40
0.2588190451
 41
-0.5872781678534711
 42
-0.4599193833398516
  0
LINE
  5
176
330
75
100
AcDbEntity
  8
$DDT_AUDIT_GENERATED_(D9)
  6
Continuous
 62
     7
100
AcDbLine
 10
33.7217358754
 20
446.0872679149
 30
0.0
 11
31.9310446953
 21
446.3548495466
 31
0.0
  0
LINE
  5
177
330
75
100
AcDbEntity
  8
$DDT_AUDIT_GENERATED_(D9)
  6
Continuous
 62
     7
100
AcDbLine
 10
33.5467358754
 20
446.0088175611
 30
0.0
 11
31.7184164814
 21
446.2820219484
 31
0.0
  0
LINE
  5
178
330
75
100
AcDbEntity
  8
$DDT_AUDIT_GENERATED_(D9)
  6
Continuous
 62
     7
100
AcDbLine
 10
34.7903200179
 20
446.8212645815
 30
0.0
 11
34.7903200179
 21
446.3306808214
 31
0.0
  0
ELLIPSE
  5
179
330
75
100
AcDbEntity
  8
$DDT_AUDIT_GENERATED_(D9)
  6
Continuous
 62
     7
100
AcDbEllipse
 10
36.0109786569
 20
445.6928878577
 30
0.0
 11
-2.749999999945645
 21
-1.119937476090627E-11
 31
0.0
210
0.0
220
0.0
230
1.0
 40
0.2588190451
 41
-1.110876943462549
 42
-0.9835181589464987
  0
LINE
  5
17A
330
75
100
AcDbEntity
  8
$DDT_AUDIT_GENERATED_(D9)
  6
Continuous
 62
     7
100
AcDbLine
 10
34.7903200179
 20
446.3306808214
 30
0.0
 11
33.8750883031
 21
446.7409679748
 31
0.0
  0
LINE
  5
17B
330
75
100
AcDbEntity
  8
$DDT_AUDIT_GENERATED_(D9)
  6
Continuous
 62
     7
100
AcDbLine
 10
34.4872111266
 20
446.2853874885
 30
0.0
 11
33.5595006855
 21
446.7012687018
 31
0.0
  0
ARC
  5
17C
330
75
100
AcDbEntity
  8
$DDT_AUDIT_GENERATED_(D9)
  6
Continuous
 62
     7
100
AcDbCircle
 10
36.010978657
 20
435.7995491563
 30
0.0
 40
10.60509244207715
100
AcDbArc
 50
89.0544904184
 51
90.9455095816
  0
LINE
  5
17D
330
75
100
AcDbEntity
  8
$DDT_AUDIT_GENERATED_(D9)
  6
Continuous
 62
     7
100
AcDbLine
 10
36.185978657
 20
446.4031976183
 30
0.0
 11
36.185978657
 21
446.8577475806
 31
0.0
  0
LINE
  5
17E
330
75
100
AcDbEntity
  8
$DDT_AUDIT_GENERATED_(D9)
  6
Continuous
 62
     7
100
AcDbLine
 10
35.835978657
 20
446.4031976183
 30
0.0
 11
35.835978657
 21
446.8577475806
 31
0.0
  0
ELLIPSE
  5
17F
330
75
100
AcDbEntity
  8
$DDT_AUDIT_GENERATED_(D9)
  6
Continuous
 62
     7
100
AcDbEllipse
 10
36.010978657
 20
445.6928878577
 30
0.0
 11
2.74999999999784
 21
7.216449660063518E-13
 31
0.0
210
0.0
220
0.0
230
1.0
 40
0.2588190451
 41
0.9835181589397749
 42
1.110876943453898
  0
LINE
  5
180
330
75
100
AcDbEntity
  8
$DDT_AUDIT_GENERATED_(D9)
  6
Continuous
 62
     7
100
AcDbLine
 10
37.2316372961
 20
446.8212645815
 30
0.0
 11
37.2316372961
 21
446.3306808214
 31
0.0
  0
LINE
  5
181
330
75
100
AcDbEntity
  8
$DDT_AUDIT_GENERATED_(D9)
  6
Continuous
 62
     7
100
AcDbLine
 10
37.5347461874
 20
446.2853874885
 30
0.0
 11
38.4624566284
 21
446.7012687018
 31
0.0
  0
LINE
  5
182
330
75
100
AcDbEntity
  8
$DDT_AUDIT_GENERATED_(D9)
  6
Continuous
 62
     7
100
AcDbLine
 10
37.2316372961
 20
446.3306808214
 30
0.0
 11
38.1468690108
 21
446.7409679748
 31
0.0
  0
ELLIPSE
  5
183
330
75
100
AcDbEntity
  8
$DDT_AUDIT_GENERATED_(D9)
  6
Continuous
 62
     7
100
AcDbEllipse
 10
36.010978657
 20
445.6928878577
 30
0.0
 11
2.750000000006289
 21
9.020562075079397E-13
 31
0.0
210
0.0
220
0.0
230
1.0
 40
0.2588190451
 41
0.4599193833407406
 42
0.5872781678546048
  0
LINE
  5
184
330
75
100
AcDbEntity
  8
$DDT_AUDIT_GENERATED_(D9)
  6
Continuous
 62
     7
100
AcDbLine
 10
38.3002214386
 20
446.6285406559
 30
0.0
 11
38.3002214386
 21
446.0872679149
 31
0.0
  0
LINE
  5
185
330
75
100
AcDbEntity
  8
$DDT_AUDIT_GENERATED_(D9)
  6
Continuous
 62
     7
100
AcDbLine
 10
38.4752214386
 20
446.0088175611
 30
0.0
 11
40.3035408326
 21
446.2820219484
 31
0.0
  0
LINE
  5
186
330
75
100
AcDbEntity
  8
$DDT_AUDIT_GENERATED_(D9)
  6
Continuous
 62
     7
100
AcDbLine
 10
38.3002214386
 20
446.0872679149
 30
0.0
 11
40.0909126187
 21
446.3548495466
 31
0.0
  0
LINE
  5
187
330
75
100
AcDbEntity
  8
$DDT_AUDIT_GENERATED_(D9)
  6
Continuous
 62
     7
100
AcDbLine
 10
27.010978657
 20
447.0436193203
 30
0.0
 11
27.010978657
 21
445.4997026925
 31
0.0
  0
LINE
  5
188
330
75
100
AcDbEntity
  8
$DDT_AUDIT_GENERATED_(D9)
  6
Continuous
 62
     7
100
AcDbLine
 10
45.010978657
 20
445.4997026925
 30
0.0
 11
45.010978657
 21
447.0436193203
 31
0.0
  0
LINE
  5
189
330
75
100
AcDbEntity
  8
$DDT_AUDIT_GENERATED_(D9)
  6
Continuous
 62
     7
100
AcDbLine
 10
29.760978657
 20
445.6928878577
 30
0.0
 11
29.760978657
 21
445.4997026925
 31
0.0
  0
LINE
  5
18A
330
75
100
AcDbEntity
  8
$DDT_AUDIT_GENERATED_(D9)
  6
Continuous
 62
     7
100
AcDbLine
 10
42.260978657
 20
445.4997026925
 30
0.0
 11
42.260978657
 21
445.6928878577
 31
0.0
  0
LINE
  5
18B
330
75
100
AcDbEntity
  8
$DDT_AUDIT_GENERATED_(D9)
  6
Continuous
 62
     7
100
AcDbLine
 10
33.260978657
 20
445.6928878577
 30
0.0
 11
33.260978657
 21
445.4997026925
 31
0.0
  0
LINE
  5
18C
330
75
100
AcDbEntity
  8
$DDT_AUDIT_GENERATED_(D9)
  6
Continuous
 62
     7
100
AcDbLine
 10
38.760978657
 20
445.4997026925
 30
0.0
 11
38.760978657
 21
445.6928878577
 31
0.0
  0
LINE
  5
18D
330
75
100
AcDbEntity
  8
$DDT_AUDIT_GENERATED_(D9)
  6
Continuous
 62
     7
100
AcDbLine
 10
35.4913487131
 20
446.0352936234
 30
0.0
 11
35.4913487131
 21
445.6928878577
 31
0.0
  0
LINE
  5
18E
330
75
100
AcDbEntity
  8
$DDT_AUDIT_GENERATED_(D9)
  6
Continuous
 62
     7
100
AcDbLine
 10
36.5306086009
 20
445.6928878577
 30
0.0
 11
36.5306086009
 21
445.9317594148
 31
0.0
  0
ENDBLK
  5
190
330
75
100
AcDbEntity
  8
0
100
AcDbBlockEnd
  0
BLOCK
  5
1D4
330
191
100
AcDbEntity
  8
0
100
AcDbBlockBegin
  2
SE1
 70
     0
 10
0.0
 20
0.0
 30
0.0
  3
SE1
  1

  0
ARC
  5
193
330
191
100
AcDbEntity
  8
401255038_GEH_EH
  6
Continuous
 62
     7
100
AcDbCircle
 10
-1147.8781884865
 20
-16952.3937669043
 30
0.0
 40
17472.41815783348
100
AcDbArc
 50
85.2324195202
 51
85.6046315189
  0
LINE
  5
194
330
191
100
AcDbEntity
  8
401255038_GEH_EH
  6
Continuous
 62
     7
100
AcDbLine
 10
193.1106663977
 20
480.3764706513
 30
0.0
 11
166.5131908298
 21
483.6422313121
 31
0.0
  0
LINE
  5
195
330
191
100
AcDbEntity
  8
401255038_GEH_EH
  6
Continuous
 62
     7
100
AcDbLine
 10
193.1106550012
 20
480.3764720506
 30
0.0
 11
303.22568989
 21
466.8560404523
 31
0.0
  0
SPLINE
  5
196
330
191
100
AcDbEntity
  8
401255038_GEH_EH
  6
Continuous
 62
     7
100
AcDbSpline
210
0.0
220
0.0
230
1.0
 70
     8
 71
     3
 72
    24
 73
    20
 74
     0
 42
0.0000000001379228
 43
0.0000000001
 40
0.5001979667510955
 40
0.5001979667510955
 40
0.5001979667510955
 40
0.5001979667510955
 40
0.5625000000000003
 40
0.5625000000000003
 40
0.6250000000000002
 40
0.6250000000000002
 40
0.6875000000000002
 40
0.6875000000000002
 40
0.7500000000000001
 40
0.7500000000000001
 40
0.8125
 40
0.8125
 40
0.8749999999999999
 40
0.8749999999999999
 40
0.9374999999999999
 40
0.9374999999999999
 40
0.96875
 40
0.96875
 40
1.0
 40
1.0
 40
1.0
 40
1.0
 10
210.8018242078962
 20
438.1715428288031
 30
0.0
 10
210.8018166320649
 20
438.1713460692417
 30
0.0
 10
210.5956708738822
 20
438.4922357886906
 30
0.0
 10
209.8205331697626
 20
439.6997999763066
 30
0.0
 10
209.2683546389799
 20
440.5591066918743
 30
0.0
 10
207.9276323195344
 20
442.645871689597
 30
0.0
 10
207.1608623582714
 20
443.8392114894522
 30
0.0
 10
205.4854808168755
 20
446.4450152642255
 30
0.0
 10
204.5712604903152
 20
447.8668717266283
 30
0.0
 10
202.6882195795921
 20
450.7933219321281
 30
0.0
 10
201.7118160819959
 20
452.309985699359
 30
0.0
 10
199.7015786418402
 20
455.4323930793719
 30
0.0
 10
198.6610148438014
 20
457.0456941637458
 30
0.0
 10
196.558634659198
 20
460.3099430083005
 30
0.0
 10
195.4959235120221
 20
461.9563871416607
 30
0.0
 10
193.888057975365
 20
464.4469868759498
 30
0.0
 10
193.34860644881
 20
465.2798906505528
 30
0.0
 10
192.2669424432572
 20
466.9538017430305
 30
0.0
 10
191.722569268494
 20
467.8096577419547
 30
0.0
 10
191.1805225174438
 20
468.6371454922062
 30
0.0
  0
SPLINE
  5
197
330
191
100
AcDbEntity
  8
401255038_GEH_EH
  6
Continuous
 62
     7
100
AcDbSpline
210
0.0
220
0.0
230
1.0
 70
     8
 71
     3
 72
    26
 73
    22
 74
     0
 42
0.0000000001893832
 43
0.0000000001
 40
0.2523908817176365
 40
0.2523908817176365
 40
0.2523908817176365
 40
0.2523908817176365
 40
0.2812499999999985
 40
0.2812499999999985
 40
0.3124999999999983
 40
0.3124999999999983
 40
0.3749999999999984
 40
0.3749999999999984
 40
0.4374999999999986
 40
0.4374999999999986
 40
0.4999999999999988
 40
0.4999999999999988
 40
0.5624999999999989
 40
0.5624999999999989
 40
0.624999999999999
 40
0.624999999999999
 40
0.6874999999999991
 40
0.6874999999999991
 40
0.7499999999999991
 40
0.7499999999999991
 40
0.7523322336957181
 40
0.7523322336957181
 40
0.7523322336957181
 40
0.7523322336957181
 10
303.0163139416816
 20
451.0637978654692
 30
0.0
 10
303.0160753147696
 20
451.0638751133717
 30
0.0
 10
302.9360350722479
 20
451.0819773682999
 30
0.0
 10
302.612583609444
 20
451.1545112870617
 30
0.0
 10
302.3565675336928
 20
451.2123244252298
 30
0.0
 10
301.3355961641416
 20
451.442890444625
 30
0.0
 10
300.3420300989067
 20
451.6695882622687
 30
0.0
 10
297.9484906626855
 20
452.176810142431
 30
0.0
 10
296.5382863074211
 20
452.4621552329199
 30
0.0
 10
293.5189236113581
 20
452.8571259661073
 30
0.0
 10
291.863960727373
 20
452.9625033651906
 30
0.0
 10
288.5717955559345
 20
452.5703015092451
 30
0.0
 10
286.967212277953
 20
452.0420399688783
 30
0.0
 10
284.2192384328677
 20
450.6305536048297
 30
0.0
 10
283.0528270405047
 20
449.7745039057918
 30
0.0
 10
281.1263593020799
 20
448.195078407478
 30
0.0
 10
280.3765311549853
 20
447.455504745871
 30
0.0
 10
279.313015195221
 20
446.3745115931249
 30
0.0
 10
279.0229313018421
 20
446.0517850542394
 30
0.0
 10
279.0017116858401
 20
446.0287818803952
 30
0.0
 10
279.0013251818438
 20
446.0283651274606
 30
0.0
 10
279.0013145388178
 20
446.0283570661091
 30
0.0
  0
LINE
  5
198
330
191
100
AcDbEntity
  8
401255038_GEH_EH
  6
Continuous
 62
     7
100
AcDbLine
 10
200.6421875532
 20
357.5896277117
 30
0.0
 11
150.8712018808
 21
357.5896277117
 31
0.0
  0
ARC
  5
199
330
191
100
AcDbEntity
  8
401255038_GEH_EH
  6
Continuous
 62
     7
100
AcDbCircle
 10
297.4205586331
 20
463.3496028361
 30
0.0
 40
13.26265766229773
100
AcDbArc
 50
313.1456323963
 51
341.6470835386
  0
ARC
  5
19A
330
191
100
AcDbEntity
  8
401255038_GEH_EH
  6
Continuous
 62
     7
100
AcDbCircle
 10
294.019136189
 20
466.7388814396
 30
0.0
 40
18.06134087995394
100
AcDbArc
 50
299.7464495954
 51
313.7960097645
  0
ARC
  5
19B
330
191
100
AcDbEntity
  8
401255038_GEH_EH
  6
Continuous
 62
     7
100
AcDbCircle
 10
106.8029659061
 20
3012.033031847
 30
0.0
 40
2571.776100164582
100
AcDbArc
 50
272.4220176756
 51
273.8396952844
  0
LINE
  5
19C
330
191
100
AcDbEntity
  8
401255038_GEH_EH
  6
Continuous
 62
     7
100
AcDbLine
 10
309.8792477509
 20
459.6014023823
 30
0.0
 11
303.5003345267
 21
466.736805366
 31
0.0
  0
LINE
  5
19D
330
191
100
AcDbEntity
  8
401255038_GEH_EH
  6
Continuous
 62
     7
100
AcDbLine
 10
165.9559804891
 20
483.2068932507
 30
0.0
 11
150.5734380371
 21
357.9261885291
 31
0.0
  0
LINE
  5
19E
330
191
100
AcDbEntity
  8
401255038_GEH_EH
  6
Continuous
 62
     7
100
AcDbLine
 10
200.939951397
 20
357.8530668943
 30
0.0
 11
210.8018265508
 21
438.1715625534
 31
0.0
  0
ARC
  5
19F
330
191
100
AcDbEntity
  8
401255038_GEH_EH
  6
Continuous
 62
     7
100
AcDbCircle
 10
309.5106807891
 20
459.2634701909
 30
0.0
 40
0.500000000001766
100
AcDbArc
 50
340.2634242049
 51
42.620689273
  0
ARC
  5
1A0
330
191
100
AcDbEntity
  8
401255038_GEH_EH
  6
Continuous
 62
     7
100
AcDbCircle
 10
166.452253562
 20
483.145958555
 30
0.0
 40
0.5000000000000054
100
AcDbArc
 50
82.9999972367
 51
172.9999972367
  0
ARC
  5
1A1
330
191
100
AcDbEntity
  8
401255038_GEH_EH
  6
Continuous
 62
     7
100
AcDbCircle
 10
303.1666156001
 20
466.3595575178
 30
0.0
 40
0.4999815712369906
100
AcDbArc
 50
44.985734244
 51
83.0830440747
  0
ARC
  5
1A2
330
191
100
AcDbEntity
  8
401255038_GEH_EH
  6
Continuous
 62
     7
100
AcDbCircle
 10
215.7454187035
 20
437.5839320291
 30
0.0
 40
4.968268200136015
100
AcDbArc
 50
92.9879951952
 51
173.2176699457
  0
ARC
  5
1A3
330
191
100
AcDbEntity
  8
401255038_GEH_EH
  6
Continuous
 62
     7
100
AcDbCircle
 10
150.8712018808
 20
357.8896277117
 30
0.0
 40
0.3
100
AcDbArc
 50
172.9999972367
 51
270.0
  0
ARC
  5
1A4
330
191
100
AcDbEntity
  8
401255038_GEH_EH
  6
Continuous
 62
     7
100
AcDbCircle
 10
200.6421875532
 20
357.8896277117
 30
0.0
 40
0.3
100
AcDbArc
 50
270.0
 51
353.0436370939
  0
LINE
  5
1A5
330
191
100
AcDbEntity
  8
$DDT_AUDIT_GENERATED_(87)
  6
Continuous
 62
     7
100
AcDbLine
 10
217.0702676131
 20
489.5974384566
 30
0.0
 11
217.6057848106
 21
497.2556911733
 31
0.0
  0
LINE
  5
1A6
330
191
100
AcDbEntity
  8
$DDT_AUDIT_GENERATED_(87)
  6
Continuous
 62
     7
100
AcDbLine
 10
216.8193778164
 20
489.7422897482
 30
0.0
 11
217.0702676131
 21
489.5974384566
 31
0.0
  0
LINE
  5
1A7
330
191
100
AcDbEntity
  8
$DDT_AUDIT_GENERATED_(87)
  6
Continuous
 62
     7
100
AcDbLine
 10
217.6057848106
 20
497.2556911733
 30
0.0
 11
217.5122965721
 21
497.309666633
 31
0.0
  0
LINE
  5
1A8
330
191
100
AcDbEntity
  8
$DDT_AUDIT_GENERATED_(8B)
  6
Continuous
 62
     7
100
AcDbLine
 10
214.3035982077
 20
477.7743059364
 30
0.0
 11
167.3575292189
 21
483.5385584033
 31
0.0
  0
ARC
  5
1A9
330
191
100
AcDbEntity
  8
$DDT_AUDIT_GENERATED_(8B)
  6
Continuous
 62
     7
100
AcDbCircle
 10
190.0505999155
 20
474.3041367993
 30
0.0
 40
24.5
100
AcDbArc
 50
120.7520013062
 51
157.8572685595
  0
ARC
  5
1AA
330
191
100
AcDbEntity
  8
$DDT_AUDIT_GENERATED_(8B)
  6
Continuous
 62
     7
100
AcDbCircle
 10
190.0505999155
 20
474.3041367993
 30
0.0
 40
24.5
100
AcDbArc
 50
8.1427314405
 51
14.6710632542
  0
LINE
  5
1AB
330
191
100
AcDbEntity
  8
$DDT_AUDIT_GENERATED_(90)
  6
Continuous
 62
     7
100
AcDbLine
 10
198.1811756344
 20
513.2495183749
 30
0.0
 11
172.7732990485
 21
511.9179483841
 31
0.0
  0
ARC
  5
1AC
330
191
100
AcDbEntity
  8
$DDT_AUDIT_GENERATED_(90)
  6
Continuous
 62
     7
100
AcDbCircle
 10
172.7994670171
 20
511.4186336278
 30
0.0
 40
0.4999999884904529
100
AcDbArc
 50
92.999998972
 51
166.6601229896
  0
ARC
  5
1AD
330
191
100
AcDbEntity
  8
$DDT_AUDIT_GENERATED_(90)
  6
Continuous
 62
     7
100
AcDbCircle
 10
-153.0909898724
 20
7832.9957416867
 30
0.0
 40
7331.796272071265
100
AcDbArc
 50
272.773014422
 51
273.2761381071
  0
ARC
  5
1AE
330
191
100
AcDbEntity
  8
$DDT_AUDIT_GENERATED_(90)
  6
Continuous
 62
     7
100
AcDbCircle
 10
286.868405577
 20
517.3967315669
 30
0.0
 40
0.5000000160428477
100
AcDbArc
 50
55.4538474919
 51
92.9999973393
  0
LINE
  5
1AF
330
191
100
AcDbEntity
  8
$DDT_AUDIT_GENERATED_(90)
  6
Continuous
 62
     7
100
AcDbLine
 10
286.8422379581
 20
517.8960463734
 30
0.0
 11
198.1811756179
 21
513.249518374
 31
0.0
  0
ARC
  5
1B0
330
191
100
AcDbEntity
  8
$DDT_AUDIT_GENERATED_(90)
  6
Continuous
 62
     7
100
AcDbCircle
 10
221.2260584099
 20
504.814253931
 30
0.0
 40
3.00000003535214
100
AcDbArc
 50
94.8148241607
 51
174.7699729273
  0
ARC
  5
1B1
330
191
100
AcDbEntity
  8
$DDT_AUDIT_GENERATED_(90)
  6
Continuous
 62
     7
100
AcDbCircle
 10
225.518516187
 20
587.7283460433
 30
0.0
 40
82.96066200983834
100
AcDbArc
 50
252.9171440245
 51
264.965702758
  0
ARC
  5
1B2
330
191
100
AcDbEntity
  8
$DDT_AUDIT_GENERATED_(90)
  6
Continuous
 62
     7
100
AcDbCircle
 10
290.5458016759
 20
514.8649632894
 30
0.0
 40
0.5000001138631771
100
AcDbArc
 50
282.2712948469
 51
55.4537764096
  0
ARC
  5
1B3
330
191
100
AcDbEntity
  8
$DDT_AUDIT_GENERATED_(90)
  6
Continuous
 62
     7
100
AcDbCircle
 10
317.5307635433
 20
-299.2263097204
 30
0.0
 40
814.0465664236668
100
AcDbArc
 50
91.8921712954
 51
93.6358309785
  0
ARC
  5
1B4
330
191
100
AcDbEntity
  8
$DDT_AUDIT_GENERATED_(90)
  6
Continuous
 62
     7
100
AcDbCircle
 10
249.2223377304
 20
771.0457843808
 30
0.0
 40
259.9915429375193
100
AcDbArc
 50
273.6980692619
 51
279.1691882339
  0
LINE
  5
1B5
330
191
100
AcDbEntity
  8
$DDT_AUDIT_GENERATED_(90)
  6
Continuous
 62
     7
100
AcDbLine
 10
220.9742514167
 20
507.8036674895
 30
0.0
 11
265.9914492479
 21
511.5955978364
 31
0.0
  0
LINE
  5
1B6
330
191
100
AcDbEntity
  8
$DDT_AUDIT_GENERATED_(90)
  6
Continuous
 62
     7
100
AcDbLine
 10
217.5258629548
 20
497.3018340784
 30
0.0
 11
218.2385481059
 21
505.0877173801
 31
0.0
  0
LINE
  5
1B7
330
191
100
AcDbEntity
  8
$DDT_AUDIT_GENERATED_(90)
  6
Continuous
 62
     7
100
AcDbLine
 10
191.3889347232
 20
484.0233942358
 30
0.0
 11
170.0932426733
 21
501.3063167888
 31
0.0
  0
LINE
  5
1B8
330
191
100
AcDbEntity
  8
$DDT_AUDIT_GENERATED_(90)
  6
Continuous
 62
     7
100
AcDbLine
 10
215.9920857432
 20
480.5457528614
 30
0.0
 11
216.8331671116
 21
489.7343284888
 31
0.0
  0
SPLINE
  5
1B9
330
191
100
AcDbEntity
  8
$DDT_AUDIT_GENERATED_(90)
  6
Continuous
 62
     7
100
AcDbSpline
210
0.0
220
0.0
230
1.0
 70
     8
 71
     3
 72
     8
 73
     4
 74
     0
 42
0.0000000162574547
 43
0.0000000001
 40
0.9764640160299105
 40
0.9764640160299105
 40
0.9764640160299105
 40
0.9764640160299105
 40
1.0
 40
1.0
 40
1.0
 40
1.0
 10
215.9777172514617
 20
480.5475223698047
 30
0.0
 10
215.9872929251135
 20
480.546343110154
 30
0.0
 10
215.9920855725111
 20
480.5457528888501
 30
0.0
 10
215.992085743241
 20
480.5457528613988
 30
0.0
  0
LINE
  5
1BA
330
191
100
AcDbEntity
  8
$DDT_AUDIT_GENERATED_(90)
  6
Continuous
 62
     7
100
AcDbLine
 10
215.6567739132
 20
480.2753353569
 30
0.0
 11
193.9303733524
 21
482.9430019097
 31
0.0
  0
ARC
  5
1BB
330
191
100
AcDbEntity
  8
$DDT_AUDIT_GENERATED_(90)
  6
Continuous
 62
     7
100
AcDbCircle
 10
194.5397200694
 20
487.905732668
 30
0.0
 40
4.99999999999956
100
AcDbArc
 50
230.9382882293
 51
263.0
  0
ARC
  5
1BC
330
191
100
AcDbEntity
  8
$DDT_AUDIT_GENERATED_(90)
  6
Continuous
 62
     7
100
AcDbCircle
 10
215.6933347162
 20
480.5730992024
 30
0.0
 40
0.299999997525656
100
AcDbArc
 50
263.0
 51
354.7699735849
  0
LINE
  5
1BD
330
191
100
AcDbEntity
  8
$DDT_AUDIT_GENERATED_(90)
  6
Continuous
 62
     7
100
AcDbLine
 10
172.3157733398
 20
511.5457720469
 30
0.0
 11
169.9644439933
 21
501.6295254821
 31
0.0
  0
ARC
  5
1BE
330
191
100
AcDbEntity
  8
$DDT_AUDIT_GENERATED_(90)
  6
Continuous
 62
     7
100
AcDbCircle
 10
172.7929021437
 20
511.4351841566
 30
0.0
 40
0.482198068009105
100
AcDbArc
 50
110.5532304973
 51
168.128965066
  0
LINE
  5
1BF
330
191
100
AcDbEntity
  8
$DDT_AUDIT_GENERATED_(90)
  6
Continuous
 62
     7
100
AcDbLine
 10
286.8484578336
 20
517.7892222436
 30
0.0
 11
286.9550415908
 21
517.8262257995
 31
0.0
  0
LINE
  5
1C0
330
191
100
AcDbEntity
  8
$DDT_AUDIT_GENERATED_(90)
  6
Continuous
 62
     7
100
AcDbLine
 10
290.8291570442
 20
515.2769227978
 30
0.0
 11
287.1248271461
 21
517.8272333691
 31
0.0
  0
LINE
  5
1C1
330
191
100
AcDbEntity
  8
$DDT_AUDIT_GENERATED_(90)
  6
Continuous
 62
     7
100
AcDbLine
 10
217.4809189354
 20
496.9669198619
 30
0.0
 11
218.2245916341
 21
505.0905800729
 31
0.0
  0
LINE
  5
1C2
330
191
100
AcDbEntity
  8
$DDT_AUDIT_GENERATED_(90)
  6
Continuous
 62
     7
100
AcDbLine
 10
215.9775258196
 20
480.5486300467
 30
0.0
 11
216.8538659675
 21
490.1189404111
 31
0.0
  0
ARC
  5
1C3
330
191
100
AcDbEntity
  8
$DDT_AUDIT_GENERATED_(90)
  6
Continuous
 62
     7
100
AcDbCircle
 10
170.2563499505
 20
501.5603090665
 30
0.0
 40
0.3000000000000017
100
AcDbArc
 50
170.1081951818
 51
230.9382882293
  0
LINE
  5
1C4
330
191
100
AcDbEntity
  8
02636038_GEHÄUSE
  6
Continuous
 62
     7
100
AcDbLine
 10
281.337883226
 20
443.1037682881
 30
0.0
 11
302.1052884912
 21
448.6683777578
 31
0.0
  0
SPLINE
  5
1C5
330
191
100
AcDbEntity
  8
02636038_GEHÄUSE
  6
Continuous
 62
     7
100
AcDbSpline
210
0.0
220
0.0
230
1.0
 70
     8
 71
     3
 72
    10
 73
     6
 74
     0
 42
0.0000000019260148
 43
0.0000000001
 40
0.0
 40
0.0
 40
0.0
 40
0.0
 40
0.5
 40
0.5
 40
1.0
 40
1.0
 40
1.0
 40
1.0
 10
294.1377702376826
 20
446.862232015918
 30
0.0
 10
293.3346061698108
 20
446.5290884255768
 30
0.0
 10
292.5172319434526
 20
446.2487054656112
 30
0.0
 10
290.8516568942983
 20
445.8023950362319
 30
0.0
 10
290.0034556562551
 20
445.6364691085815
 30
0.0
 10
289.1410293095739
 20
445.5233593194437
 30
0.0
  0
LINE
  5
1C6
330
191
100
AcDbEntity
  8
02636038_GEHÄUSE
  6
Continuous
 62
     7
100
AcDbLine
 10
295.0704349764
 20
449.8892229809
 30
0.0
 11
286.8198224701
 21
447.6784780228
 31
0.0
  0
LINE
  5
1C7
330
191
100
AcDbEntity
  8
02636038_GEHÄUSE
  6
Continuous
 62
     7
100
AcDbLine
 10
295.0704349764
 20
449.8892229809
 30
0.0
 11
295.5405621588
 21
448.1346844505
 31
0.0
  0
SPLINE
  5
1C8
330
191
100
AcDbEntity
  8
02636038_GEHÄUSE
  6
Continuous
 62
     7
100
AcDbSpline
210
0.0
220
0.0
230
1.0
 70
     8
 71
     3
 72
    14
 73
    10
 74
     0
 42
0.0000000049321089
 43
0.0000000001
 40
0.0
 40
0.0
 40
0.0
 40
0.0
 40
0.1250000000000004
 40
0.1250000000000004
 40
0.2500000000000009
 40
0.2500000000000009
 40
0.5000000000000008
 40
0.5000000000000008
 40
1.0
 40
1.0
 40
1.0
 40
1.0
 10
295.5405621587648
 20
448.1346844504889
 30
0.0
 10
295.5623654113109
 20
448.0533136042167
 30
0.0
 10
295.5531050978618
 20
447.9637270154452
 30
0.0
 10
295.4965987905504
 20
447.8044779245045
 30
0.0
 10
295.4508972322332
 20
447.7311349879166
 30
0.0
 10
295.2945937951575
 20
447.5328017309829
 30
0.0
 10
295.1624003036679
 20
447.4234569849522
 30
0.0
 10
294.7520295519008
 20
447.1360810041026
 30
0.0
 10
294.4469091839531
 20
446.9904594386757
 30
0.0
 10
294.1377702376826
 20
446.862232015918
 30
0.0
  0
SPLINE
  5
1C9
330
191
100
AcDbEntity
  8
02636038_GEHÄUSE
  6
Continuous
 62
     7
100
AcDbSpline
210
0.0
220
0.0
230
1.0
 70
     8
 71
     3
 72
    18
 73
    14
 74
     0
 42
0.0000000049401632
 43
0.0000000001
 40
0.0
 40
0.0
 40
0.0
 40
0.0
 40
0.2499999999999998
 40
0.2499999999999998
 40
0.4999999999999997
 40
0.4999999999999997
 40
0.6249999999999992
 40
0.6249999999999992
 40
0.7499999999999989
 40
0.7499999999999989
 40
0.8749999999999994
 40
0.8749999999999994
 40
1.0
 40
1.0
 40
1.0
 40
1.0
 10
289.1410293095739
 20
445.5233593194437
 30
0.0
 10
288.9746150147809
 20
445.501533588045
 30
0.0
 10
288.8076961916233
 20
445.4848371581764
 30
0.0
 10
288.4722148421741
 20
445.4681550516819
 30
0.0
 10
288.3037446788524
 20
445.4679992828255
 30
0.0
 10
288.0540560024576
 20
445.4900563277011
 30
0.0
 10
287.9711906704671
 20
445.5011560608236
 30
0.0
 10
287.8065656009255
 20
445.5347305487407
 30
0.0
 10
287.7243374524489
 20
445.5573552335296
 30
0.0
 10
287.5689265759957
 20
445.6195500246582
 30
0.0
 10
287.4936339250284
 20
445.6595344555573
 30
0.0
 10
287.3641621515739
 20
445.7699454060586
 30
0.0
 10
287.3121436400025
 20
445.8411104030217
 30
0.0
 10
287.2899496524076
 20
445.9239394923484
 30
0.0
  0
LINE
  5
1CA
330
191
100
AcDbEntity
  8
02636038_GEHÄUSE
  6
Continuous
 62
     7
100
AcDbLine
 10
287.2899496524
 20
445.9239394923
 30
0.0
 11
286.8198224701
 21
447.6784780228
 31
0.0
  0
LINE
  5
1CB
330
191
100
AcDbEntity
  8
02636038_GEHÄUSE
  6
Continuous
 62
     7
100
AcDbLine
 10
280.7244379366
 20
443.268140458
 30
0.0
 11
281.337883226
 21
443.1037682881
 31
0.0
  0
LINE
  5
1CC
330
191
100
AcDbEntity
  8
02636038_GEHÄUSE
  6
Continuous
 62
     7
100
AcDbLine
 10
302.1052884912
 20
448.6683777578
 30
0.0
 11
302.5543616107
 21
449.1174508773
 31
0.0
  0
ARC
  5
1CD
330
191
100
AcDbEntity
  8
02636038_GEHÄUSE
  6
Continuous
 62
     7
100
AcDbCircle
 10
280.9832569817
 20
444.2340662843
 30
0.0
 40
1.000000000000004
100
AcDbArc
 50
195.0
 51
255.0
  0
ARC
  5
1CE
330
191
100
AcDbEntity
  8
02636038_GEHÄUSE
  6
Continuous
 62
     7
100
AcDbCircle
 10
301.8472548295
 20
449.8245576585
 30
0.0
 40
1.000000000000006
100
AcDbArc
 50
315.0
 51
15.0
  0
LINE
  5
1CF
330
191
100
AcDbEntity
  8
02636038_GEHÄUSE
  6
Continuous
 62
     7
100
AcDbLine
 10
279.3637678026
 20
446.4143788778
 30
0.0
 11
280.0173311554
 21
443.9752472392
 31
0.0
  0
LINE
  5
1D0
330
191
100
AcDbEntity
  8
02636038_GEHÄUSE
  6
Continuous
 62
     7
100
AcDbLine
 10
302.8131806558
 20
450.0833767036
 30
0.0
 11
302.5205774351
 21
451.1753867899
 31
0.0
  0
LINE
  5
1D1
330
191
100
AcDbEntity
  8
$DDT_AUDIT_GENERATED_(D9)
  6
Continuous
 62
     7
100
AcDbLine
 10
283.13178104
 20
443.1703312865
 30
0.0
 11
300.5184459132
 21
447.8290740984
 31
0.0
  0
LINE
  5
1D2
330
191
100
AcDbEntity
  8
$DDT_AUDIT_GENERATED_(D9)
  6
Continuous
 62
     7
100
AcDbLine
 10
283.028253422
 20
443.5567016171
 30
0.0
 11
283.13178104
 21
443.1703312865
 31
0.0
  0
LINE
  5
1D3
330
191
100
AcDbEntity
  8
$DDT_AUDIT_GENERATED_(D9)
  6
Continuous
 62
     7
100
AcDbLine
 10
300.5184459132
 20
447.8290740984
 30
0.0
 11
300.4149182952
 21
448.2154444289
 31
0.0
  0
ENDBLK
  5
1D5
330
191
100
AcDbEntity
  8
0
100
AcDbBlockEnd
  0
BLOCK
  5
20A
330
1D6
100
AcDbEntity
  8
0
100
AcDbBlockBegin
  2
SE2
 70
     0
 10
0.0
 20
0.0
 30
0.0
  3
SE2
  1

  0
SPLINE
  5
1D8
330
1D6
100
AcDbEntity
  8
401255038_GEH_EH
  6
Continuous
 62
     7
100
AcDbSpline
210
0.0
220
0.0
230
1.0
 70
     8
 71
     3
 72
     8
 73
     4
 74
     0
 42
0.0000000000873098
 43
0.0000000001
 40
0.0546834794926217
 40
0.0546834794926217
 40
0.0546834794926217
 40
0.0546834794926217
 40
0.2079235829536694
 40
0.2079235829536694
 40
0.2079235829536694
 40
0.2079235829536694
 10
60.49009317137095
 20
218.9267499137633
 30
0.0
 10
60.06481806499477
 20
213.0917674054599
 30
0.0
 10
59.63912616155928
 20
207.2568417183012
 30
0.0
 10
59.21283107873729
 20
201.4219900994029
 30
0.0
  0
SPLINE
  5
1D9
330
1D6
100
AcDbEntity
  8
401255038_GEH_EH
  6
Continuous
 62
     7
100
AcDbSpline
210
0.0
220
0.0
230
1.0
 70
     8
 71
     3
 72
    10
 73
     6
 74
     0
 42
0.000000000087283
 43
0.0000000001
 40
0.7917124975203257
 40
0.7917124975203257
 40
0.7917124975203257
 40
0.7917124975203257
 40
0.875
 40
0.875
 40
0.9450117388922631
 40
0.9450117388922631
 40
0.9450117388922631
 40
0.9450117388922631
 10
12.8119440871884
 20
201.3848521653295
 30
0.0
 10
12.58027122573453
 20
204.5556380729917
 30
0.0
 10
12.34877059431974
 20
207.7264454450916
 30
0.0
 10
11.92295058726333
 20
213.5626875503158
 30
0.0
 10
11.72812398131248
 20
216.2343995865529
 30
0.0
 10
11.53370770890639
 20
218.9017382040385
 30
0.0
  0
SPLINE
  5
1DA
330
1D6
100
AcDbEntity
  8
401255038_GEH_EH
  6
Continuous
 62
     7
100
AcDbSpline
210
0.0
220
0.0
230
1.0
 70
     8
 71
     3
 72
    14
 73
    10
 74
     0
 42
0.0000000000872998
 43
0.0000000001
 40
0.6195368169746683
 40
0.6195368169746683
 40
0.6195368169746683
 40
0.6195368169746683
 40
0.7500000000000006
 40
0.7500000000000006
 40
0.8750000000000004
 40
0.8750000000000004
 40
0.9375000000000002
 40
0.9375000000000002
 40
0.9453846020976846
 40
0.9453846020976846
 40
0.9453846020976846
 40
0.9453846020976846
 10
57.77495825800359
 20
181.709378355172
 30
0.0
 10
58.1381611556754
 20
186.6775232236581
 30
0.0
 10
58.50098967164293
 20
191.645665680593
 30
0.0
 10
59.21093544375866
 20
201.3738975492493
 30
0.0
 10
59.55805955934103
 20
206.1339867946155
 30
0.0
 10
60.07846910098201
 20
213.2741112022959
 30
0.0
 10
60.25188892238432
 20
215.6541506772671
 30
0.0
 10
60.44714009302302
 20
218.3344371591852
 30
0.0
 10
60.46902986071731
 20
218.6349355163859
 30
0.0
 10
60.49093007160537
 20
218.9355862660204
 30
0.0
  0
SPLINE
  5
1DB
330
1D6
100
AcDbEntity
  8
401255038_GEH_EH
  6
Continuous
 62
     7
100
AcDbSpline
210
0.0
220
0.0
230
1.0
 70
     8
 71
     3
 72
     8
 73
     4
 74
     0
 42
0.0000000000873391
 43
0.0000000001
 40
0.0548134420334763
 40
0.0548134420334763
 40
0.0548134420334763
 40
0.0548134420334763
 40
0.3885075612307637
 40
0.3885075612307637
 40
0.3885075612307637
 40
0.3885075612307637
 10
11.53258670379159
 20
218.9141168303952
 30
0.0
 10
12.45777603379933
 20
206.2123661921818
 30
0.0
 10
13.38403900995447
 20
193.5105316492507
 30
0.0
 10
14.31280569276391
 20
180.8086859818679
 30
0.0
  0
ELLIPSE
  5
1DC
330
1D6
100
AcDbEntity
  8
401255038_GEH_EH
  6
Continuous
 62
     7
100
AcDbEllipse
 10
36.0109816166
 20
225.584263388
 30
0.0
 11
24.99999999999957
 21
4.744468706796568E-12
 31
0.0
210
0.0
220
0.0
230
1.0
 40
0.9925461458
 41
-0.0591632342460537
 42
3.199419016781339
  0
SPLINE
  5
1DD
330
1D6
100
AcDbEntity
  8
401255038_GEH_EH
  6
Continuous
 62
     7
100
AcDbSpline
210
0.0
220
0.0
230
1.0
 70
     8
 71
     3
 72
     8
 73
     4
 74
     0
 42
0.000000000042036
 43
0.0000000001
 40
0.003150787344802
 40
0.003150787344802
 40
0.003150787344802
 40
0.003150787344802
 40
0.1634396748060708
 40
0.1634396748060708
 40
0.1634396748060708
 40
0.1634396748060708
 10
60.82784010377686
 20
222.4892371777587
 30
0.0
 10
59.62817334759712
 20
209.8358204450486
 30
0.0
 10
58.4296173095349
 20
197.1820660369404
 30
0.0
 10
57.23181818994966
 20
184.5278801508267
 30
0.0
  0
SPLINE
  5
1DE
330
1D6
100
AcDbEntity
  8
401255038_GEH_EH
  6
Continuous
 62
     7
100
AcDbSpline
210
0.0
220
0.0
230
1.0
 70
     8
 71
     3
 72
    36
 73
    32
 74
     0
 42
0.000000000041598
 43
0.0000000001
 40
0.1634396748060708
 40
0.1634396748060708
 40
0.1634396748060708
 40
0.1634396748060708
 40
0.2499999999999984
 40
0.2499999999999984
 40
0.3749999999999976
 40
0.3749999999999976
 40
0.4062499999999974
 40
0.4062499999999974
 40
0.4374999999999972
 40
0.4374999999999972
 40
0.4531249999999971
 40
0.4531249999999971
 40
0.4687499999999969
 40
0.4687499999999969
 40
0.4999999999999968
 40
0.4999999999999968
 40
0.5312499999999967
 40
0.5312499999999967
 40
0.5468749999999967
 40
0.5468749999999967
 40
0.5624999999999968
 40
0.5624999999999968
 40
0.5781249999999969
 40
0.5781249999999969
 40
0.5937499999999971
 40
0.5937499999999971
 40
0.6249999999999973
 40
0.6249999999999973
 40
0.7499999999999982
 40
0.7499999999999982
 40
0.8434044875036818
 40
0.8434044875036818
 40
0.8434044875036818
 40
0.8434044875036818
 10
57.23181818994966
 20
184.5278801508267
 30
0.0
 10
56.58497433851078
 20
177.6942782541819
 30
0.0
 10
55.93835122656272
 20
170.8605505259738
 30
0.0
 10
54.3583561912016
 20
154.1580323281586
 30
0.0
 10
53.42442946218684
 20
144.2894951718937
 30
0.0
 10
52.25796553382341
 20
131.9524684483757
 30
0.0
 10
52.07173727948042
 20
129.478457030213
 30
0.0
 10
51.24175587394142
 20
124.5875998485735
 30
0.0
 10
50.57939221540577
 20
122.1177794744238
 30
0.0
 10
48.63302813672242
 20
118.9093963151496
 30
0.0
 10
47.80501908699884
 20
117.9308739607931
 30
0.0
 10
45.94661124023834
 20
116.2120598636344
 30
0.0
 10
44.93517730447174
 20
115.4719108389279
 30
0.0
 10
41.64209430123737
 20
113.6265332080919
 30
0.0
 10
39.12320061700814
 20
112.9140163524727
 30
0.0
 10
34.04528814512148
 20
112.733587428849
 30
0.0
 10
31.49401099251037
 20
113.255653504323
 30
0.0
 10
28.0492819150477
 20
114.8750156566986
 30
0.0
 10
26.96957568856104
 20
115.5501662904651
 30
0.0
 10
24.99774779907379
 20
117.1417741525278
 30
0.0
 10
24.1069055212732
 20
118.0351848262699
 30
0.0
 10
22.62748673843067
 20
120.0479616841242
 30
0.0
 10
22.03559992063391
 20
121.1884889642013
 30
0.0
 10
21.13801484900762
 20
123.5236284773337
 30
0.0
 10
20.81452479892471
 20
124.7308293329155
 30
0.0
 10
20.06413883950155
 20
128.4221825213671
 30
0.0
 10
19.8598029254489
 20
130.9315507274062
 30
0.0
 10
18.68320045837708
 20
143.4097527326701
 30
0.0
 10
17.73599218390586
 20
153.3909401236145
 30
0.0
 10
16.08651783123624
 20
170.8308683981827
 30
0.0
 10
15.38080519717482
 20
178.2891774339409
 30
0.0
 10
14.67479259042081
 20
185.7473336498192
 30
0.0
  0
SPLINE
  5
1DF
330
1D6
100
AcDbEntity
  8
401255038_GEH_EH
  6
Continuous
 62
     7
100
AcDbSpline
210
0.0
220
0.0
230
1.0
 70
     8
 71
     3
 72
     8
 73
     4
 74
     0
 42
0.0000000000415612
 43
0.0000000001
 40
0.8434044875036818
 40
0.8434044875036818
 40
0.8434044875036818
 40
0.8434044875036818
 40
0.9973606041669087
 40
0.9973606041669087
 40
0.9973606041669087
 40
0.9973606041669087
 10
14.67479259042081
 20
185.7473336498192
 30
0.0
 10
13.5110909080274
 20
198.0404129134792
 30
0.0
 10
12.34657425842694
 20
210.3330769953781
 30
0.0
 10
11.18118080791808
 20
222.6254493965779
 30
0.0
  0
ELLIPSE
  5
1E0
330
1D6
100
AcDbEntity
  8
401255038_GEH_EH
  6
Continuous
 62
     7
100
AcDbEllipse
 10
36.0109816166
 20
240.5972028041
 30
0.0
 11
-4.420322864560427E-12
 21
-25.18325667992569
 31
0.0
210
0.0
220
0.0
230
1.0
 40
0.9927230746
 41
1.570796326795071
 42
4.712388980384864
  0
LINE
  5
1E1
330
1D6
100
AcDbEntity
  8
401255038_GEH_EH
  6
Continuous
 62
     7
100
AcDbLine
 10
61.0109816166
 20
225.584263388
 30
0.0
 11
61.0109816166
 21
240.5972028041
 31
0.0
  0
LINE
  5
1E2
330
1D6
100
AcDbEntity
  8
401255038_GEH_EH
  6
Continuous
 62
     7
100
AcDbLine
 10
11.0109816166
 20
240.5972028041
 30
0.0
 11
11.0109816166
 21
225.584263388
 31
0.0
  0
SPLINE
  5
1E3
330
1D6
100
AcDbEntity
  8
401255038_GEH_EH
  6
Continuous
 62
     7
100
AcDbSpline
210
0.0
220
0.0
230
1.0
 70
     8
 71
     3
 72
    29
 73
    25
 74
     0
 42
0.0000000001409293
 43
0.0000000001
 40
0.0
 40
0.0
 40
0.0
 40
0.0
 40
0.0081048059911639
 40
0.0191409512389744
 40
0.0293313199025182
 40
0.040206343644769
 40
0.0505128847989787
 40
0.0621776835483611
 40
0.0741365021988298
 40
0.0864154018282448
 40
0.0990140807960078
 40
0.1119621256656002
 40
0.1249703049432534
 40
0.1386485961111412
 40
0.1531374880193619
 40
0.1686490542881519
 40
0.1854955476626889
 40
0.20419271312614
 40
0.2257299999246999
 40
0.2550874035346352
 40
0.3411963929904239
 40
0.4510713552183289
 40
0.5861098537681634
 40
1.0
 40
1.0
 40
1.0
 40
1.0
 10
48.88149711103522
 20
112.0036120302996
 30
0.0
 10
49.02106612996783
 20
112.1614116599245
 30
0.0
 10
49.29908382339564
 20
112.4774968796212
 30
0.0
 10
49.74125073038116
 20
113.0330278882269
 30
0.0
 10
50.18573042275997
 20
113.6440391254222
 30
0.0
 10
50.58743490121496
 20
114.2699303063561
 30
0.0
 10
50.97430911416337
 20
114.943348193228
 30
0.0
 10
51.34283869869601
 20
115.6564947783851
 30
0.0
 10
51.69728937135429
 20
116.4281828668825
 30
0.0
 10
52.02504476310664
 20
117.2354509890455
 30
0.0
 10
52.32540675183867
 20
118.0781577071608
 30
0.0
 10
52.59313789515991
 20
118.9498455238613
 30
0.0
 10
52.8304962226084
 20
119.8566245740073
 30
0.0
 10
53.04065721285721
 20
120.8074180237236
 30
0.0
 10
53.22737052558738
 20
121.8233336450593
 30
0.0
 10
53.3920168991338
 20
122.9188913657202
 30
0.0
 10
53.53675592514532
 20
124.1175915146596
 30
0.0
 10
53.66578878265486
 20
125.4613854799073
 30
0.0
 10
53.79107416460823
 20
127.1025795923727
 30
0.0
 10
54.03615737142816
 20
130.3333694428839
 30
0.0
 10
54.41628436062403
 20
135.6534097118532
 30
0.0
 10
54.97314680063177
 20
143.4438173630112
 30
0.0
 10
56.13267477926907
 20
159.1432208498443
 30
0.0
 10
56.99228961848451
 20
170.9726599937928
 30
0.0
 10
57.77630517421161
 20
181.7123823334854
 30
0.0
  0
ARC
  5
1E4
330
1D6
100
AcDbEntity
  8
401255038_GEH_EH
  6
Continuous
 62
     7
100
AcDbCircle
 10
36.009104332
 20
123.8396973974
 30
0.0
 40
17.48969739742628
100
AcDbArc
 50
222.6061937331
 51
317.4014387226
  0
SPLINE
  5
1E5
330
1D6
100
AcDbEntity
  8
401255038_GEH_EH
  6
Continuous
 62
     7
100
AcDbSpline
210
0.0
220
0.0
230
1.0
 70
     8
 71
     3
 72
    28
 73
    24
 74
     0
 42
0.0000000001427441
 43
0.0000000001
 40
0.0
 40
0.0
 40
0.0
 40
0.0
 40
0.4882026664530185
 40
0.6569017356268659
 40
0.7241654012765267
 40
0.7577557136040506
 40
0.785825518512786
 40
0.8072021966198653
 40
0.8252478245922622
 40
0.8408403243307782
 40
0.8556806943289449
 40
0.8697919655004355
 40
0.8847565453941871
 40
0.8990244328679946
 40
0.912699598710316
 40
0.9258911080914148
 40
0.9386911922033432
 40
0.9511475355928485
 40
0.963177669852245
 40
0.9748315960524018
 40
0.9861738141194233
 40
0.997264748959192
 40
1.0
 40
1.0
 40
1.0
 40
1.0
 10
14.3132810635917
 20
180.8119794252587
 30
0.0
 10
15.22646060608411
 20
168.3053051375032
 30
0.0
 10
16.25584655227711
 20
154.3286761413684
 30
0.0
 10
17.49509646672706
 20
137.2685909314005
 30
0.0
 10
17.97258765556622
 20
131.0021643247092
 30
0.0
 10
18.16289737383563
 20
127.9965305171701
 30
0.0
 10
18.30004707852233
 20
126.0624151056987
 30
0.0
 10
18.4426161015691
 20
124.4928275764931
 30
0.0
 10
18.58711390283725
 20
123.216414773012
 30
0.0
 10
18.74583133685179
 20
122.0956266086271
 30
0.0
 10
18.92730443718982
 20
121.0714972008812
 30
0.0
 10
19.14186833245197
 20
120.068824591913
 30
0.0
 10
19.39273349069085
 20
119.0883408026337
 30
0.0
 10
19.6833109446724
 20
118.1295222401266
 30
0.0
 10
20.00337347381186
 20
117.2239179555348
 30
0.0
 10
20.3526273937354
 20
116.3660128693391
 30
0.0
 10
20.73078268775576
 20
115.5517221801551
 30
0.0
 10
21.13591375757958
 20
114.780780127063
 30
0.0
 10
21.56583292094393
 20
114.0551133717569
 30
0.0
 10
22.02028475105867
 20
113.372630246183
 30
0.0
 10
22.49306268382637
 20
112.7401554188812
 30
0.0
 10
22.88026740726061
 20
112.2736242785291
 30
0.0
 10
23.0853132188806
 20
112.0496055275578
 30
0.0
 10
23.13278823944484
 20
111.9978752494545
 30
0.0
  0
ELLIPSE
  5
1E6
330
1D6
100
AcDbEntity
  8
$DDT_AUDIT_GENERATED_(8B)
  6
Continuous
 62
     7
100
AcDbEllipse
 10
36.010978657
 20
225.5233338079
 30
0.0
 11
23.6493128864244
 21
-3.339342691255354E-12
 31
0.0
210
0.0
220
0.0
230
1.0
 40
0.9925461516
 41
0.4640977630177662
 42
2.678480232033003
  0
LINE
  5
1E7
330
1D6
100
AcDbEntity
  8
$DDT_AUDIT_GENERATED_(90)
  6
Continuous
 62
     7
100
AcDbLine
 10
12.7598053228
 20
218.0944196411
 30
0.0
 11
12.7598403552
 21
218.0943784748
 31
0.0
  0
ARC
  5
1E8
330
1D6
100
AcDbEntity
  8
$DDT_AUDIT_GENERATED_(90)
  6
Continuous
 62
     7
100
AcDbCircle
 10
13.4235095689
 20
215.4995723157
 30
0.0
 40
2.678334525143481
100
AcDbArc
 50
93.5657186604
 51
104.3468780353
  0
ARC
  5
1E9
330
1D6
100
AcDbEntity
  8
$DDT_AUDIT_GENERATED_(90)
  6
Continuous
 62
     7
100
AcDbCircle
 10
36.0058197642
 20
220.6292017359
 30
0.0
 40
23.41161696032001
100
AcDbArc
 50
92.9741438044
 51
138.1207745884
  0
ARC
  5
1EA
330
1D6
100
AcDbEntity
  8
$DDT_AUDIT_GENERATED_(90)
  6
Continuous
 62
     7
100
AcDbCircle
 10
35.9494443301
 20
220.682950648
 30
0.0
 40
23.33376178192333
100
AcDbArc
 50
138.126630474
 51
180.1130439494
  0
SPLINE
  5
1EB
330
1D6
100
AcDbEntity
  8
$DDT_AUDIT_GENERATED_(90)
  6
Continuous
 62
     7
100
AcDbSpline
210
0.0
220
0.0
230
1.0
 70
     8
 71
     3
 72
    10
 73
     6
 74
     0
 42
0.0000002900430173
 43
0.0000000001
 40
0.0
 40
0.0
 40
0.0
 40
0.0
 40
0.4999310748782213
 40
0.4999310748782213
 40
1.0
 40
1.0
 40
1.0
 40
1.0
 10
12.63372072240007
 20
218.5135037777497
 30
0.0
 10
12.63338487422357
 20
218.5199109580747
 30
0.0
 10
12.63304544701027
 20
218.5277554702548
 30
0.0
 10
12.63310819915697
 20
218.5385277511943
 30
0.0
 10
12.63343922653977
 20
218.5422768326517
 30
0.0
 10
12.63501895870617
 20
218.536827507379
 30
0.0
  0
SPLINE
  5
1EC
330
1D6
100
AcDbEntity
  8
$DDT_AUDIT_GENERATED_(90)
  6
Continuous
 62
     7
100
AcDbSpline
210
0.0
220
0.0
230
1.0
 70
     8
 71
     3
 72
     9
 73
     5
 74
     0
 42
0.0000000587654786
 43
0.0000000001
 40
0.780743752870246
 40
0.780743752870246
 40
0.780743752870246
 40
0.780743752870246
 40
0.8429516512393253
 40
1.0
 40
1.0
 40
1.0
 40
1.0
 10
18.57582552028009
 20
150.4369297533507
 30
0.0
 10
18.57542643144912
 20
150.4379198018003
 30
0.0
 10
18.57789879963372
 20
150.4417514446058
 30
0.0
 10
18.59564621891339
 20
150.4468313806404
 30
0.0
 10
18.60835845183058
 20
150.450470035597
 30
0.0
  0
SPLINE
  5
1ED
330
1D6
100
AcDbEntity
  8
$DDT_AUDIT_GENERATED_(90)
  6
Continuous
 62
     7
100
AcDbSpline
210
0.0
220
0.0
230
1.0
 70
    12
 71
     3
 72
   168
 73
   164
 74
     0
 42
0.0000000001017673
 43
0.0000000001
 40
0.0
 40
0.0
 40
0.0
 40
0.0
 40
0.0255987962048819
 40
0.0255987962048819
 40
0.0572254203057118
 40
0.0572254203057118
 40
0.0888520444065426
 40
0.0888520444065426
 40
0.1204786685073734
 40
0.1204786685073734
 40
0.1521052926082044
 40
0.1521052926082044
 40
0.1837319167090341
 40
0.1837319167090341
 40
0.2469851649106949
 40
0.2469851649106949
 40
0.2786117890115358
 40
0.2786117890115358
 40
0.3102384131123656
 40
0.3102384131123656
 40
0.3418650372131964
 40
0.3418650372131964
 40
0.3734916613140263
 40
0.3734916613140263
 40
0.4051182854148571
 40
0.4051182854148571
 40
0.436744909515687
 40
0.436744909515687
 40
0.4999981577173476
 40
0.4999981577173476
 40
0.5316247818181784
 40
0.5316247818181784
 40
0.5632514059190193
 40
0.5632514059190193
 40
0.5948780300198493
 40
0.5948780300198493
 40
0.6265046541206781
 40
0.6265046541206781
 40
0.6423179661710935
 40
0.6423179661710935
 40
0.6581312782215089
 40
0.6581312782215089
 40
0.6739445902719243
 40
0.6739445902719243
 40
0.6897579023223408
 40
0.6897579023223408
 40
0.7055712143727572
 40
0.7055712143727572
 40
0.7213845264231716
 40
0.7213845264231716
 40
0.7292911824483803
 40
0.7292911824483803
 40
0.7332445104609842
 40
0.7332445104609842
 40
0.7371978384735881
 40
0.7371978384735881
 40
0.7530111505240035
 40
0.7530111505240035
 40
0.754987814530306
 40
0.754987814530306
 40
0.7559761465334567
 40
0.7559761465334567
 40
0.7569644785366084
 40
0.7569644785366084
 40
0.7609178065492122
 40
0.7609178065492122
 40
0.7688244625744199
 40
0.7688244625744199
 40
0.7767311185996276
 40
0.7767311185996276
 40
0.778707782605929
 40
0.778707782605929
 40
0.7796961146090807
 40
0.7796961146090807
 40
0.7806844466122305
 40
0.7806844466122305
 40
0.7846377746248342
 40
0.7846377746248342
 40
0.7885911026374401
 40
0.7885911026374401
 40
0.7905677666437426
 40
0.7905677666437426
 40
0.7925444306500441
 40
0.7925444306500441
 40
0.8004510866752507
 40
0.8004510866752507
 40
0.8044044146878546
 40
0.8044044146878546
 40
0.8083577427004585
 40
0.8083577427004585
 40
0.8162643987256681
 40
0.8162643987256681
 40
0.8241710547508749
 40
0.8241710547508749
 40
0.8320777107760826
 40
0.8320777107760826
 40
0.8399843668012902
 40
0.8399843668012902
 40
0.8409726988044419
 40
0.8409726988044419
 40
0.8419610308075917
 40
0.8419610308075917
 40
0.8439376948138941
 40
0.8439376948138941
 40
0.847891022826499
 40
0.847891022826499
 40
0.8557976788517068
 40
0.8557976788517068
 40
0.8637043348769144
 40
0.8637043348769144
 40
0.8716109909021221
 40
0.8716109909021221
 40
0.8795176469273308
 40
0.8795176469273308
 40
0.8874243029525375
 40
0.8874243029525375
 40
0.8913776309651414
 40
0.8913776309651414
 40
0.8933542949714438
 40
0.8933542949714438
 40
0.8953309589777453
 40
0.8953309589777453
 40
0.903237615002954
 40
0.903237615002954
 40
0.9111442710281619
 40
0.9111442710281619
 40
0.9190509270533694
 40
0.9190509270533694
 40
0.926957583078578
 40
0.926957583078578
 40
0.9348642391037855
 40
0.9348642391037855
 40
0.9427708951289933
 40
0.9427708951289933
 40
0.946724223141597
 40
0.946724223141597
 40
0.9477125551447486
 40
0.9477125551447486
 40
0.948700887147899
 40
0.948700887147899
 40
0.9506775511542008
 40
0.9506775511542008
 40
0.9585842071794094
 40
0.9585842071794094
 40
0.9664908632046172
 40
0.9664908632046172
 40
0.9743975192298248
 40
0.9743975192298248
 40
0.9823041752550333
 40
0.9823041752550333
 40
0.9902108312802409
 40
0.9902108312802409
 40
0.9981174873054486
 40
0.9981174873054486
 40
0.9991058193086
 40
0.9991058193086
 40
0.9995999853101751
 40
0.9995999853101751
 40
0.9998470683109628
 40
0.9998470683109628
 40
0.9999706098113571
 40
0.9999706098113571
 40
1.0
 40
1.0
 40
1.0
 40
1.0
 10
12.75984035524027
 20
218.0943784748455
 30
0.0
 41
1.0
 10
12.84370128201537
 20
217.2641066037538
 30
0.0
 41
1.0
 10
12.92759941958907
 20
216.433841219926
 30
0.0
 41
1.0
 10
13.11516794510056
 20
214.57783460234
 30
0.0
 41
1.0
 10
13.21884527609527
 20
213.552058154701
 30
0.0
 41
1.0
 10
13.42639270385167
 20
211.5005227539272
 30
0.0
 41
1.0
 10
13.53023786192317
 20
210.4747707496332
 30
0.0
 41
1.0
 10
13.73800416981667
 20
208.4232781063973
 30
0.0
 41
1.0
 10
13.84192562758917
 20
207.3975388154121
 30
0.0
 41
1.0
 10
14.04985809117387
 20
205.3460605996111
 30
0.0
 41
1.0
 10
14.15387203777208
 20
204.320323458445
 30
0.0
 41
1.0
 10
14.36201684573577
 20
202.2688565553353
 30
0.0
 41
1.0
 10
14.46614472687137
 20
201.2431335072984
 30
0.0
 41
1.0
 10
14.77864138983627
 20
198.1659756640742
 30
0.0
 41
1.0
 10
14.98715521138298
 20
196.114545819783
 30
0.0
 41
1.0
 10
15.30018465961257
 20
193.0374395839293
 30
0.0
 41
1.0
 10
15.40456188077557
 20
192.01173883317
 30
0.0
 41
1.0
 10
15.61344380433727
 20
189.9603334993173
 30
0.0
 41
1.0
 10
15.71794417106888
 20
188.9346417410204
 30
0.0
 41
1.0
 10
15.92700585070687
 20
186.8832724995531
 30
0.0
 41
1.0
 10
16.03156008603517
 20
185.8575986855381
 30
0.0
 41
1.0
 10
16.24074663919797
 20
183.8062312239574
 30
0.0
 41
1.0
 10
16.34540373192377
 20
182.7805404355093
 30
0.0
 41
1.0
 10
16.55479421132557
 20
180.7291972043773
 30
0.0
 41
1.0
 10
16.65951514036287
 20
179.703529494887
 30
0.0
 41
1.0
 10
16.86905504404317
 20
177.6521876194114
 30
0.0
 41
1.0
 10
16.97386688575037
 20
176.626527900948
 30
0.0
 41
1.0
 10
17.28838658050758
 20
173.5495462755951
 30
0.0
 41
1.0
 10
17.49824024478878
 20
171.4982345383423
 30
0.0
 41
1.0
 10
17.81315791099557
 20
168.4212888626942
 30
0.0
 41
1.0
 10
17.91816013896378
 20
167.3956338462402
 30
0.0
 41
1.0
 10
18.12828657639068
 20
165.3443264654393
 30
0.0
 41
1.0
 10
18.23338371830958
 20
164.3187029187862
 30
0.0
 41
1.0
 10
18.44358169943568
 20
162.2674304359701
 30
0.0
 41
1.0
 10
18.54872539750988
 20
161.241771354757
 30
0.0
 41
1.0
 10
18.75910457056998
 20
159.1904965365871
 30
0.0
 41
1.0
 10
18.86433594113178
 20
158.1648760335454
 30
0.0
 41
1.0
 10
19.02211323571468
 20
156.6264476621845
 30
0.0
 41
1.0
 10
19.07468614799038
 20
156.1136320750583
 30
0.0
 41
1.0
 10
19.17990401770598
 20
155.0879697990581
 30
0.0
 41
1.0
 10
19.23255971523518
 20
154.5751166379187
 30
0.0
 41
1.0
 10
19.33800935891558
 20
153.5494576119437
 30
0.0
 41
1.0
 10
19.39077603403938
 20
153.0366628681884
 30
0.0
 41
1.0
 10
19.49615931669778
 20
152.0111166639761
 30
0.0
 41
1.0
 10
19.54875374426068
 20
151.4983660718616
 30
0.0
 41
1.0
 10
19.65373626150158
 20
150.4728115766674
 30
0.0
 41
1.0
 10
19.70612749987288
 20
149.960028907386
 30
0.0
 41
1.0
 10
19.81078851908208
 20
148.9344016321311
 30
0.0
 41
1.0
 10
19.86314948160168
 20
148.4214029262777
 30
0.0
 41
1.0
 10
19.94278023534638
 20
147.6517400360984
 30
0.0
 41
1.0
 10
19.96950571824168
 20
147.3951578500125
 30
0.0
 41
1.0
 10
20.01000878118638
 20
147.010253754032
 30
0.0
 41
1.0
 10
20.02358278146018
 20
146.8819589371522
 30
0.0
 41
1.0
 10
20.05071920651308
 20
146.6255215974874
 30
0.0
 41
1.0
 10
20.06428870494539
 20
146.4973585462565
 30
0.0
 41
1.0
 10
20.13188022788268
 20
145.856793550522
 30
0.0
 41
1.0
 10
20.18509788749579
 20
145.3451515702908
 30
0.0
 41
1.0
 10
20.24043109189659
 20
144.7699625450122
 30
0.0
 41
1.0
 10
20.24651697332318
 20
144.7060582034042
 30
0.0
 41
1.0
 10
20.25554425123368
 20
144.6102085891295
 30
0.0
 41
1.0
 10
20.25853496786098
 20
144.5782612095934
 30
0.0
 41
1.0
 10
20.26451593751338
 20
144.5143124731114
 30
0.0
 41
1.0
 10
20.26750296661268
 20
144.4823181879545
 30
0.0
 41
1.0
 10
20.28244199811208
 20
144.3222494133237
 30
0.0
 41
1.0
 10
20.29440504006588
 20
144.1938829459787
 30
0.0
 41
1.0
 10
20.33115557878948
 20
143.8079332057559
 30
0.0
 41
1.0
 10
20.35678947655508
 20
143.5494990547902
 30
0.0
 41
1.0
 10
20.41500234714378
 20
143.0308045046008
 30
0.0
 41
1.0
 10
20.44757210765658
 20
142.770540539894
 30
0.0
 41
1.0
 10
20.49590703396048
 20
142.4443796716616
 30
0.0
 41
1.0
 10
20.50595698669308
 20
142.3791062706116
 30
0.0
 41
1.0
 10
20.52167404637978
 20
142.2811414486608
 30
0.0
 41
1.0
 10
20.52702011534128
 20
142.2484773947631
 30
0.0
 41
1.0
 10
20.53793797237158
 20
142.1831323383218
 30
0.0
 41
1.0
 10
20.54351242727338
 20
142.1504484743561
 30
0.0
 41
1.0
 10
20.57188397000109
 20
141.987115282135
 30
0.0
 41
1.0
 10
20.59623189581658
 20
141.8566275878994
 30
0.0
 41
1.0
 10
20.64829674118308
 20
141.5960255013377
 30
0.0
 41
1.0
 10
20.67601366926178
 20
141.4659111160378
 30
0.0
 41
1.0
 10
20.72016782684948
 20
141.2710315763101
 30
0.0
 41
1.0
 10
20.73531709195878
 20
141.2061174208361
 30
0.0
 41
1.0
 10
20.76640619769069
 20
141.0767010981455
 30
0.0
 41
1.0
 10
20.78235471435789
 20
141.0121597926057
 30
0.0
 41
1.0
 10
20.86411543742908
 20
140.6902900830948
 30
0.0
 41
1.0
 10
20.93598291131248
 20
140.4354726564025
 30
0.0
 41
1.0
 10
21.05343031603468
 20
140.057307418409
 30
0.0
 41
1.0
 10
21.09419205343129
 20
139.9319241537962
 30
0.0
 41
1.0
 10
21.17889969450618
 20
139.6825378074687
 30
0.0
 41
1.0
 10
21.22282122410239
 20
139.5585546569689
 30
0.0
 41
1.0
 10
21.35920271495788
 20
139.1886731482262
 30
0.0
 41
1.0
 10
21.45627067941208
 20
138.9448384696867
 30
0.0
 41
1.0
 10
21.66246703107038
 20
138.462451884641
 30
0.0
 41
1.0
 10
21.77159582973778
 20
138.2239002276133
 30
0.0
 41
1.0
 10
22.00196242660608
 20
137.7519909005129
 30
0.0
 41
1.0
 10
22.12318417785188
 20
137.5186340657593
 30
0.0
 41
1.0
 10
22.37820754992708
 20
137.057115805682
 30
0.0
 41
1.0
 10
22.51200671080309
 20
136.8289819349483
 30
0.0
 41
1.0
 10
22.66978352735729
 20
136.5754132032973
 30
0.0
 41
1.0
 10
22.68741495906598
 20
136.5472816695276
 30
0.0
 41
1.0
 10
22.72287969343748
 20
136.4911045272837
 30
0.0
 41
1.0
 10
22.74071969917888
 20
136.4630485118477
 30
0.0
 41
1.0
 10
22.79447933268408
 20
136.3791093901068
 30
0.0
 41
1.0
 10
22.83064255111308
 20
136.3234481904756
 30
0.0
 41
1.0
 10
22.94009341300318
 20
136.157353980195
 30
0.0
 41
1.0
 10
23.01434236609668
 20
136.0478105234569
 30
0.0
 41
1.0
 10
23.24085683732578
 20
135.7226900187296
 30
0.0
 41
1.0
 10
23.39690374213068
 20
135.5106271896676
 30
0.0
 41
1.0
 10
23.71849192187178
 20
135.0955571956353
 30
0.0
 41
1.0
 10
23.88404038283538
 20
134.8925160314915
 30
0.0
 41
1.0
 10
24.22453834173949
 20
134.4950913618367
 30
0.0
 41
1.0
 10
24.39948798191869
 20
134.3007086877552
 30
0.0
 41
1.0
 10
24.75897562504729
 20
133.9205690726086
 30
0.0
 41
1.0
 10
24.94353181378658
 20
133.7348091716716
 30
0.0
 41
1.0
 10
25.32262786654649
 20
133.3721878287723
 30
0.0
 41
1.0
 10
25.51715416515739
 20
133.1953381235694
 30
0.0
 41
1.0
 10
25.81655023733269
 20
132.9369571516808
 30
0.0
 41
1.0
 10
25.91761608197238
 20
132.8519784853437
 30
0.0
 41
1.0
 10
26.07112736177
 20
132.7262524228978
 30
0.0
 41
1.0
 10
26.12261650111636
 20
132.6846340159337
 30
0.0
 41
1.0
 10
26.22623369589066
 20
132.6019804859359
 30
0.0
 41
1.0
 10
26.27838572062514
 20
132.5609274533411
 30
0.0
 41
1.0
 10
26.53998989697472
 20
132.3577067292704
 30
0.0
 41
1.0
 10
26.75250895039608
 20
132.2012453922096
 30
0.0
 41
1.0
 10
27.18363393893232
 20
131.9000409407746
 30
0.0
 41
1.0
 10
27.40223706452777
 20
131.7552733074437
 30
0.0
 41
1.0
 10
27.84545957518925
 20
131.4769745423051
 30
0.0
 41
1.0
 10
28.0700790379366
 20
131.3434445426812
 30
0.0
 41
1.0
 10
28.52544131117056
 20
131.0875416951694
 30
0.0
 41
1.0
 10
28.75618455020811
 20
130.9651682827686
 30
0.0
 41
1.0
 10
29.22407606120101
 20
130.7318372163458
 30
0.0
 41
1.0
 10
29.46122622411475
 20
130.6209014795533
 30
0.0
 41
1.0
 10
29.94202797955962
 20
130.4108537814735
 30
0.0
 41
1.0
 10
30.18567948078067
 20
130.3117424370693
 30
0.0
 41
1.0
 10
30.55603818855788
 20
130.1720964322795
 30
0.0
 41
1.0
 10
30.68030400853674
 20
130.1270499443027
 30
0.0
 41
1.0
 10
30.83664825221821
 20
130.0726252855086
 30
0.0
 41
1.0
 10
30.86797900276283
 20
130.0618306757785
 30
0.0
 41
1.0
 10
30.93066702884018
 20
130.0404550473556
 30
0.0
 41
1.0
 10
30.96202703220367
 20
130.0298729831187
 30
0.0
 41
1.0
 10
31.05615442887576
 20
129.9984419553896
 30
0.0
 41
1.0
 10
31.11896922189216
 20
129.9779081701389
 30
0.0
 41
1.0
 10
31.43335119033647
 20
129.8773117072551
 30
0.0
 41
1.0
 10
31.685833165026
 20
129.8034460826489
 30
0.0
 41
1.0
 10
32.19282297377277
 20
129.6683804311202
 30
0.0
 41
1.0
 10
32.44733056626696
 20
129.6071824311223
 30
0.0
 41
1.0
 10
32.95850327911866
 20
129.4973561385421
 30
0.0
 41
1.0
 10
33.21516787390897
 20
129.4487276132413
 30
0.0
 41
1.0
 10
33.73085615887796
 20
129.3643711732166
 30
0.0
 41
1.0
 10
33.98984213494181
 20
129.3286961156556
 30
0.0
 41
1.0
 10
34.50992111554446
 20
129.2704161157404
 30
0.0
 41
1.0
 10
34.77103689994751
 20
129.2478042891477
 30
0.0
 41
1.0
 10
35.2953938537287
 20
129.2156330396585
 30
0.0
 41
1.0
 10
35.55863496356632
 20
129.2060736205614
 30
0.0
 41
1.0
 10
35.85596213811176
 20
129.2026455568754
 30
0.0
 41
1.0
 10
35.88901489412127
 20
129.2023663994776
 30
0.0
 41
1.0
 10
35.93861859736855
 20
129.2021002106287
 30
0.0
 41
1.0
 10
35.95515725999748
 20
129.2020369055137
 30
0.0
 41
1.0
 10
35.97997139184999
 20
129.2019800765968
 30
0.0
 41
1.0
 10
35.98824379212057
 20
129.2019674884175
 30
0.0
 41
1.0
 10
36.00065392645628
 20
129.2019581373085
 30
0.0
 41
1.0
 10
36.00479089355782
 20
129.2019566087995
 30
0.0
 41
1.0
 10
36.00991235035509
 20
129.2019566829883
 30
0.0
 41
1.0
 10
36.01089660287063
 20
129.201956787145
 30
0.0
 41
1.0
 10
36.01188086749711
 20
129.2019569862038
 30
0.0
 41
1.0
  0
ELLIPSE
  5
1EE
330
1D6
100
AcDbEntity
  8
$DDT_AUDIT_GENERATED_(90)
  6
Continuous
 62
     7
100
AcDbEllipse
 10
-1222.3583783608
 20
210.0205413826
 30
0.0
 11
1236.189156598175
 21
0.2671178337008729
 31
0.0
210
0.0
220
0.0
230
1.0
 40
0.1518704373
 41
0.0415959240627461
 42
0.0439547106938293
  0
ARC
  5
1EF
330
1D6
100
AcDbEntity
  8
$DDT_AUDIT_GENERATED_(90)
  6
Continuous
 62
     7
100
AcDbCircle
 10
58.5959636448
 20
215.4723615781
 30
0.0
 40
2.705760547844507
100
AcDbArc
 50
75.7079203017
 51
86.3794846249
  0
LINE
  5
1F0
330
1D6
100
AcDbEntity
  8
$DDT_AUDIT_GENERATED_(90)
  6
Continuous
 62
     7
100
AcDbLine
 10
59.2639213798
 20
218.0943784748
 30
0.0
 11
59.2639564122
 21
218.0944196411
 31
0.0
  0
ARC
  5
1F1
330
1D6
100
AcDbEntity
  8
$DDT_AUDIT_GENERATED_(90)
  6
Continuous
 62
     7
100
AcDbCircle
 10
36.0738843275
 20
220.6827855196
 30
0.0
 40
23.33419448244022
100
AcDbArc
 50
359.8871286865
 51
41.8729616418
  0
ARC
  5
1F2
330
1D6
100
AcDbEntity
  8
$DDT_AUDIT_GENERATED_(90)
  6
Continuous
 62
     7
100
AcDbCircle
 10
36.0185665519
 20
220.6299125064
 30
0.0
 40
23.41067744255752
100
AcDbArc
 50
41.8789506664
 51
87.024384526
  0
SPLINE
  5
1F3
330
1D6
100
AcDbEntity
  8
$DDT_AUDIT_GENERATED_(90)
  6
Continuous
 62
     7
100
AcDbSpline
210
0.0
220
0.0
230
1.0
 70
     8
 71
     3
 72
    10
 73
     6
 74
     0
 42
0.0000002900630989
 43
0.0000000001
 40
0.0
 40
0.0
 40
0.0
 40
0.0
 40
0.4999602785231705
 40
0.4999602785231705
 40
1.0
 40
1.0
 40
1.0
 40
1.0
 10
59.38874277628797
 20
218.536827507379
 30
0.0
 10
59.39032216523398
 20
218.5422756486933
 30
0.0
 10
59.39065335782527
 20
218.5385290868809
 30
0.0
 10
59.39071643864337
 20
218.5277588155596
 30
0.0
 10
59.39037693375648
 20
218.5199123505034
 30
0.0
 10
59.39004101259397
 20
218.5135037777498
 30
0.0
  0
SPLINE
  5
1F4
330
1D6
100
AcDbEntity
  8
$DDT_AUDIT_GENERATED_(90)
  6
Continuous
 62
     7
100
AcDbSpline
210
0.0
220
0.0
230
1.0
 70
     8
 71
     3
 72
    10
 73
     6
 74
     0
 42
0.0000000598569294
 43
0.0000000001
 40
0.0
 40
0.0
 40
0.0
 40
0.0
 40
0.0832082138359025
 40
0.167741570842401
 40
0.2191521543108931
 40
0.2191521543108931
 40
0.2191521543108931
 40
0.2191521543108931
 10
53.4154039319526
 20
150.4504698783781
 30
0.0
 10
53.42298478015152
 20
150.4484839051504
 30
0.0
 10
53.43826686700622
 20
150.444480356716
 30
0.0
 10
53.44681491412835
 20
150.4401201056619
 30
0.0
 10
53.44775534483347
 20
150.4377944291795
 30
0.0
 10
53.44745310515493
 20
150.4369746801026
 30
0.0
  0
SPLINE
  5
1F5
330
1D6
100
AcDbEntity
  8
$DDT_AUDIT_GENERATED_(90)
  6
Continuous
 62
     7
100
AcDbSpline
210
0.0
220
0.0
230
1.0
 70
    12
 71
     3
 72
   168
 73
   164
 74
     0
 42
0.0000000001017673
 43
0.0000000001
 40
0.0
 40
0.0
 40
0.0
 40
0.0
 40
0.0000293901886429
 40
0.0000293901886429
 40
0.0001529316890372
 40
0.0001529316890372
 40
0.0004000146898248
 40
0.0004000146898248
 40
0.0008941806914
 40
0.0008941806914
 40
0.0018825126945515
 40
0.0018825126945515
 40
0.0097891687197592
 40
0.0097891687197592
 40
0.0176958247449668
 40
0.0176958247449668
 40
0.0256024807701756
 40
0.0256024807701756
 40
0.0335091367953832
 40
0.0335091367953832
 40
0.041415792820591
 40
0.041415792820591
 40
0.0493224488457997
 40
0.0493224488457997
 40
0.0512991128521015
 40
0.0512991128521015
 40
0.0522874448552519
 40
0.0522874448552519
 40
0.0532757768584034
 40
0.0532757768584034
 40
0.0572291048710073
 40
0.0572291048710073
 40
0.0651357608962151
 40
0.0651357608962151
 40
0.0730424169214227
 40
0.0730424169214227
 40
0.0809490729466314
 40
0.0809490729466314
 40
0.0888557289718391
 40
0.0888557289718391
 40
0.096762384997046
 40
0.096762384997046
 40
0.1046690410222558
 40
0.1046690410222558
 40
0.1066457050285572
 40
0.1066457050285572
 40
0.1086223690348596
 40
0.1086223690348596
 40
0.1125756970474635
 40
0.1125756970474635
 40
0.1204823530726702
 40
0.1204823530726702
 40
0.1283890090978789
 40
0.1283890090978789
 40
0.1362956651230866
 40
0.1362956651230866
 40
0.1442023211482943
 40
0.1442023211482943
 40
0.152108977173503
 40
0.152108977173503
 40
0.1560623051861069
 40
0.1560623051861069
 40
0.1580389691924093
 40
0.1580389691924093
 40
0.1590273011955601
 40
0.1590273011955601
 40
0.1600156331987107
 40
0.1600156331987107
 40
0.1679222892239184
 40
0.1679222892239184
 40
0.1758289452491272
 40
0.1758289452491272
 40
0.1837356012743339
 40
0.1837356012743339
 40
0.1916422572995436
 40
0.1916422572995436
 40
0.1955955853121475
 40
0.1955955853121475
 40
0.1995489133247513
 40
0.1995489133247513
 40
0.207455569349958
 40
0.207455569349958
 40
0.2094322333562594
 40
0.2094322333562594
 40
0.2114088973625619
 40
0.2114088973625619
 40
0.2153622253751677
 40
0.2153622253751677
 40
0.2193155533877716
 40
0.2193155533877716
 40
0.2203038853909213
 40
0.2203038853909213
 40
0.221292217394073
 40
0.221292217394073
 40
0.2232688814003744
 40
0.2232688814003744
 40
0.2311755374255822
 40
0.2311755374255822
 40
0.2390821934507909
 40
0.2390821934507909
 40
0.2430355214633947
 40
0.2430355214633947
 40
0.2440238534665454
 40
0.2440238534665454
 40
0.2450121854696972
 40
0.2450121854696972
 40
0.2469888494759986
 40
0.2469888494759986
 40
0.262802161526415
 40
0.262802161526415
 40
0.2667554895390189
 40
0.2667554895390189
 40
0.2707088175516227
 40
0.2707088175516227
 40
0.2786154735768304
 40
0.2786154735768304
 40
0.2944287856272459
 40
0.2944287856272459
 40
0.3102420976776623
 40
0.3102420976776623
 40
0.3260554097280788
 40
0.3260554097280788
 40
0.3418687217784941
 40
0.3418687217784941
 40
0.3576820338289106
 40
0.3576820338289106
 40
0.373495345879325
 40
0.373495345879325
 40
0.4051219699801548
 40
0.4051219699801548
 40
0.4367485940809847
 40
0.4367485940809847
 40
0.4683752181818256
 40
0.4683752181818256
 40
0.5000018422826575
 40
0.5000018422826575
 40
0.5632550904843181
 40
0.5632550904843181
 40
0.5948817145851489
 40
0.5948817145851489
 40
0.6265083386859798
 40
0.6265083386859798
 40
0.6581349627868106
 40
0.6581349627868106
 40
0.6897615868876416
 40
0.6897615868876416
 40
0.7213882109884713
 40
0.7213882109884713
 40
0.7530148350893123
 40
0.7530148350893123
 40
0.816268083290974
 40
0.816268083290974
 40
0.8478947073918047
 40
0.8478947073918047
 40
0.8795213314926357
 40
0.8795213314926357
 40
0.9111479555934665
 40
0.9111479555934665
 40
0.9427745796942972
 40
0.9427745796942972
 40
0.9744012037951272
 40
0.9744012037951272
 40
1.0
 40
1.0
 40
1.0
 40
1.0
 10
36.01188086749711
 20
129.2019569862038
 30
0.0
 41
1.0
 10
36.01286513212348
 20
129.201956787145
 30
0.0
 41
1.0
 10
36.01384938463902
 20
129.2019566829883
 30
0.0
 41
1.0
 10
36.0189708414364
 20
129.2019566087995
 30
0.0
 41
1.0
 10
36.02310780853783
 20
129.2019581373085
 30
0.0
 41
1.0
 10
36.03551794287354
 20
129.2019674884175
 30
0.0
 41
1.0
 10
36.04379034314412
 20
129.2019800765968
 30
0.0
 41
1.0
 10
36.06860447499664
 20
129.2020369055137
 30
0.0
 41
1.0
 10
36.08514313762556
 20
129.2021002106287
 30
0.0
 41
1.0
 10
36.13474684087284
 20
129.2023663994776
 30
0.0
 41
1.0
 10
36.16779959688235
 20
129.2026455568754
 30
0.0
 41
1.0
 10
36.46512677142779
 20
129.2060736205614
 30
0.0
 41
1.0
 10
36.72836788126541
 20
129.2156330396585
 30
0.0
 41
1.0
 10
37.25272483504661
 20
129.2478042891477
 30
0.0
 41
1.0
 10
37.51384061944965
 20
129.2704161157404
 30
0.0
 41
1.0
 10
38.0339196000523
 20
129.3286961156556
 30
0.0
 41
1.0
 10
38.29290557611615
 20
129.3643711732166
 30
0.0
 41
1.0
 10
38.80859386108513
 20
129.4487276132413
 30
0.0
 41
1.0
 10
39.06525845587544
 20
129.4973561385421
 30
0.0
 41
1.0
 10
39.57643116872716
 20
129.6071824311223
 30
0.0
 41
1.0
 10
39.83093876122134
 20
129.6683804311202
 30
0.0
 41
1.0
 10
40.3379285699681
 20
129.8034460826489
 30
0.0
 41
1.0
 10
40.59041054465764
 20
129.8773117072551
 30
0.0
 41
1.0
 10
40.90479251310195
 20
129.9779081701389
 30
0.0
 41
1.0
 10
40.96760730611835
 20
129.9984419553896
 30
0.0
 41
1.0
 10
41.06173470279045
 20
130.0298729831187
 30
0.0
 41
1.0
 10
41.09309470615393
 20
130.0404550473556
 30
0.0
 41
1.0
 10
41.15578273223129
 20
130.0618306757785
 30
0.0
 41
1.0
 10
41.1871134827759
 20
130.0726252855086
 30
0.0
 41
1.0
 10
41.34345772645738
 20
130.1270499443027
 30
0.0
 41
1.0
 10
41.46772354643624
 20
130.1720964322795
 30
0.0
 41
1.0
 10
41.83808225421343
 20
130.3117424370693
 30
0.0
 41
1.0
 10
42.08173375543449
 20
130.4108537814735
 30
0.0
 41
1.0
 10
42.56253551087936
 20
130.6209014795533
 30
0.0
 41
1.0
 10
42.7996856737931
 20
130.7318372163458
 30
0.0
 41
1.0
 10
43.26757718478598
 20
130.9651682827686
 30
0.0
 41
1.0
 10
43.49832042382356
 20
131.0875416951694
 30
0.0
 41
1.0
 10
43.95368269705752
 20
131.3434445426812
 30
0.0
 41
1.0
 10
44.17830215980486
 20
131.4769745423051
 30
0.0
 41
1.0
 10
44.62152467046634
 20
131.7552733074437
 30
0.0
 41
1.0
 10
44.84012779606191
 20
131.9000409407746
 30
0.0
 41
1.0
 10
45.27125278459803
 20
132.2012453922096
 30
0.0
 41
1.0
 10
45.48377183801939
 20
132.3577067292704
 30
0.0
 41
1.0
 10
45.74537601436897
 20
132.5609274533411
 30
0.0
 41
1.0
 10
45.79752803910346
 20
132.6019804859359
 30
0.0
 41
1.0
 10
45.90114523387776
 20
132.6846340159337
 30
0.0
 41
1.0
 10
45.95263437322411
 20
132.7262524228978
 30
0.0
 41
1.0
 10
46.10614565302168
 20
132.8519784853437
 30
0.0
 41
1.0
 10
46.20721149766149
 20
132.9369571516808
 30
0.0
 41
1.0
 10
46.50660756983669
 20
133.1953381235694
 30
0.0
 41
1.0
 10
46.70113386844769
 20
133.3721878287723
 30
0.0
 41
1.0
 10
47.08022992120749
 20
133.7348091716716
 30
0.0
 41
1.0
 10
47.26478610994689
 20
133.9205690726086
 30
0.0
 41
1.0
 10
47.62427375307539
 20
134.3007086877552
 30
0.0
 41
1.0
 10
47.79922339325459
 20
134.4950913618367
 30
0.0
 41
1.0
 10
48.13972135215879
 20
134.8925160314915
 30
0.0
 41
1.0
 10
48.30526981312229
 20
135.0955571956353
 30
0.0
 41
1.0
 10
48.62685799286339
 20
135.5106271896676
 30
0.0
 41
1.0
 10
48.78290489766839
 20
135.7226900187296
 30
0.0
 41
1.0
 10
49.00941936889739
 20
136.0478105234569
 30
0.0
 41
1.0
 10
49.08366832199089
 20
136.157353980195
 30
0.0
 41
1.0
 10
49.19311918388099
 20
136.3234481904756
 30
0.0
 41
1.0
 10
49.22928240230999
 20
136.3791093901068
 30
0.0
 41
1.0
 10
49.28304203581529
 20
136.4630485118477
 30
0.0
 41
1.0
 10
49.30088204155669
 20
136.4911045272837
 30
0.0
 41
1.0
 10
49.33634677592809
 20
136.5472816695276
 30
0.0
 41
1.0
 10
49.35397820763689
 20
136.5754132032973
 30
0.0
 41
1.0
 10
49.51175502419099
 20
136.8289819349483
 30
0.0
 41
1.0
 10
49.64555418506699
 20
137.057115805682
 30
0.0
 41
1.0
 10
49.90057755714229
 20
137.5186340657593
 30
0.0
 41
1.0
 10
50.02179930838809
 20
137.7519909005129
 30
0.0
 41
1.0
 10
50.25216590525639
 20
138.2239002276133
 30
0.0
 41
1.0
 10
50.36129470392369
 20
138.462451884641
 30
0.0
 41
1.0
 10
50.56749105558199
 20
138.9448384696867
 30
0.0
 41
1.0
 10
50.66455902003619
 20
139.1886731482262
 30
0.0
 41
1.0
 10
50.80094051089169
 20
139.5585546569689
 30
0.0
 41
1.0
 10
50.84486204048789
 20
139.6825378074687
 30
0.0
 41
1.0
 10
50.92956968156289
 20
139.9319241537962
 30
0.0
 41
1.0
 10
50.97033141895939
 20
140.057307418409
 30
0.0
 41
1.0
 10
51.0877788236816
 20
140.4354726564025
 30
0.0
 41
1.0
 10
51.15964629756499
 20
140.6902900830948
 30
0.0
 41
1.0
 10
51.24140702063619
 20
141.0121597926057
 30
0.0
 41
1.0
 10
51.2573555373034
 20
141.0767010981455
 30
0.0
 41
1.0
 10
51.28844464303528
 20
141.2061174208361
 30
0.0
 41
1.0
 10
51.30359390814459
 20
141.2710315763101
 30
0.0
 41
1.0
 10
51.34774806573229
 20
141.4659111160378
 30
0.0
 41
1.0
 10
51.37546499381099
 20
141.5960255013377
 30
0.0
 41
1.0
 10
51.42752983917749
 20
141.8566275878994
 30
0.0
 41
1.0
 10
51.45187776499299
 20
141.987115282135
 30
0.0
 41
1.0
 10
51.48024930772069
 20
142.1504484743561
 30
0.0
 41
1.0
 10
51.48582376262259
 20
142.1831323383218
 30
0.0
 41
1.0
 10
51.49674161965279
 20
142.2484773947631
 30
0.0
 41
1.0
 10
51.50208768861439
 20
142.2811414486608
 30
0.0
 41
1.0
 10
51.51780474830099
 20
142.3791062706116
 30
0.0
 41
1.0
 10
51.52785470103359
 20
142.4443796716616
 30
0.0
 41
1.0
 10
51.57618962733749
 20
142.770540539894
 30
0.0
 41
1.0
 10
51.60875938785039
 20
143.0308045046008
 30
0.0
 41
1.0
 10
51.66697225843899
 20
143.5494990547902
 30
0.0
 41
1.0
 10
51.69260615620469
 20
143.8079332057559
 30
0.0
 41
1.0
 10
51.72935669492829
 20
144.1938829459787
 30
0.0
 41
1.0
 10
51.74131973688198
 20
144.3222494133237
 30
0.0
 41
1.0
 10
51.75625876838139
 20
144.4823181879545
 30
0.0
 41
1.0
 10
51.75924579748079
 20
144.5143124731114
 30
0.0
 41
1.0
 10
51.76522676713309
 20
144.5782612095934
 30
0.0
 41
1.0
 10
51.76821748376039
 20
144.6102085891295
 30
0.0
 41
1.0
 10
51.77724476167089
 20
144.7060582034042
 30
0.0
 41
1.0
 10
51.78333064309759
 20
144.7699625450122
 30
0.0
 41
1.0
 10
51.83866384749829
 20
145.3451515702908
 30
0.0
 41
1.0
 10
51.89188150711139
 20
145.856793550522
 30
0.0
 41
1.0
 10
51.95947303004869
 20
146.4973585462565
 30
0.0
 41
1.0
 10
51.97304252848099
 20
146.6255215974874
 30
0.0
 41
1.0
 10
52.00017895353388
 20
146.8819589371522
 30
0.0
 41
1.0
 10
52.01375295380779
 20
147.010253754032
 30
0.0
 41
1.0
 10
52.05425601675238
 20
147.3951578500125
 30
0.0
 41
1.0
 10
52.08098149964768
 20
147.6517400360984
 30
0.0
 41
1.0
 10
52.16061225339239
 20
148.4214029262777
 30
0.0
 41
1.0
 10
52.21297321591209
 20
148.9344016321311
 30
0.0
 41
1.0
 10
52.31763423512118
 20
149.960028907386
 30
0.0
 41
1.0
 10
52.37002547349259
 20
150.4728115766674
 30
0.0
 41
1.0
 10
52.47500799073339
 20
151.4983660718616
 30
0.0
 41
1.0
 10
52.52760241829628
 20
152.0111166639761
 30
0.0
 41
1.0
 10
52.63298570095469
 20
153.0366628681884
 30
0.0
 41
1.0
 10
52.68575237607859
 20
153.5494576119437
 30
0.0
 41
1.0
 10
52.79120201975888
 20
154.5751166379187
 30
0.0
 41
1.0
 10
52.84385771728808
 20
155.0879697990581
 30
0.0
 41
1.0
 10
52.94907558700368
 20
156.1136320750583
 30
0.0
 41
1.0
 10
53.00164849927948
 20
156.6264476621845
 30
0.0
 41
1.0
 10
53.15942579386228
 20
158.1648760335454
 30
0.0
 41
1.0
 10
53.26465716442409
 20
159.1904965365871
 30
0.0
 41
1.0
 10
53.47503633748418
 20
161.241771354757
 30
0.0
 41
1.0
 10
53.58018003555848
 20
162.2674304359701
 30
0.0
 41
1.0
 10
53.79037801668449
 20
164.3187029187862
 30
0.0
 41
1.0
 10
53.89547515860338
 20
165.3443264654393
 30
0.0
 41
1.0
 10
54.10560159603028
 20
167.3956338462402
 30
0.0
 41
1.0
 10
54.21060382399858
 20
168.4212888626942
 30
0.0
 41
1.0
 10
54.52552149020529
 20
171.4982345383423
 30
0.0
 41
1.0
 10
54.73537515448648
 20
173.5495462755951
 30
0.0
 41
1.0
 10
55.04989484924378
 20
176.626527900948
 30
0.0
 41
1.0
 10
55.15470669095088
 20
177.6521876194114
 30
0.0
 41
1.0
 10
55.36424659463128
 20
179.703529494887
 30
0.0
 41
1.0
 10
55.46896752366858
 20
180.7291972043773
 30
0.0
 41
1.0
 10
55.67835800307038
 20
182.7805404355093
 30
0.0
 41
1.0
 10
55.78301509579618
 20
183.8062312239574
 30
0.0
 41
1.0
 10
55.99220164895898
 20
185.8575986855381
 30
0.0
 41
1.0
 10
56.09675588428718
 20
186.8832724995531
 30
0.0
 41
1.0
 10
56.30581756392519
 20
188.9346417410204
 30
0.0
 41
1.0
 10
56.41031793065678
 20
189.9603334993173
 30
0.0
 41
1.0
 10
56.61919985421858
 20
192.01173883317
 30
0.0
 41
1.0
 10
56.72357707538148
 20
193.0374395839293
 30
0.0
 41
1.0
 10
57.03660652361108
 20
196.114545819783
 30
0.0
 41
1.0
 10
57.24512034515788
 20
198.1659756640742
 30
0.0
 41
1.0
 10
57.55761700812278
 20
201.2431335072984
 30
0.0
 41
1.0
 10
57.66174488925839
 20
202.2688565553353
 30
0.0
 41
1.0
 10
57.86988969722199
 20
204.320323458445
 30
0.0
 41
1.0
 10
57.97390364382018
 20
205.3460605996111
 30
0.0
 41
1.0
 10
58.18183610740498
 20
207.3975388154121
 30
0.0
 41
1.0
 10
58.28575756517738
 20
208.4232781063973
 30
0.0
 41
1.0
 10
58.49352387307088
 20
210.4747707496332
 30
0.0
 41
1.0
 10
58.59736903114238
 20
211.5005227539272
 30
0.0
 41
1.0
 10
58.80491645889878
 20
213.552058154701
 30
0.0
 41
1.0
 10
58.90859378989358
 20
214.57783460234
 30
0.0
 41
1.0
 10
59.09616231540508
 20
216.4338412199256
 30
0.0
 41
1.0
 10
59.18006045297867
 20
217.2641066037534
 30
0.0
 41
1.0
 10
59.26392137975368
 20
218.0943784748441
 30
0.0
 41
1.0
  0
ARC
  5
1F6
330
1D6
100
AcDbEntity
  8
$DDT_AUDIT_GENERATED_(90)
  6
Continuous
 62
     7
100
AcDbCircle
 10
90.0320754018
 20
209.6547109344
 30
0.0
 40
31.90463648462774
100
AcDbArc
 50
163.8355160707
 51
164.6610189502
  0
ARC
  5
1F7
330
1D6
100
AcDbEntity
  8
$DDT_AUDIT_GENERATED_(90)
  6
Continuous
 62
     7
100
AcDbCircle
 10
36.0923465917
 20
225.2729370071
 30
0.0
 40
24.91125305991028
100
AcDbArc
 50
337.7860253328
 51
353.2643944786
  0
ARC
  5
1F8
330
1D6
100
AcDbEntity
  8
$DDT_AUDIT_GENERATED_(90)
  6
Continuous
 62
     7
100
AcDbCircle
 10
41.900144979
 20
224.5240054519
 30
0.0
 40
19.05580249893254
100
AcDbArc
 50
353.4525500671
 51
354.2766923462
  0
ARC
  5
1F9
330
1D6
100
AcDbEntity
  8
$DDT_AUDIT_GENERATED_(90)
  6
Continuous
 62
     7
100
AcDbCircle
 10
44.4822338758
 20
224.3283542988
 30
0.0
 40
16.46719370968622
100
AcDbArc
 50
354.0581105145
 51
1.538042498
  0
SPLINE
  5
1FA
330
1D6
100
AcDbEntity
  8
$DDT_AUDIT_GENERATED_(90)
  6
Continuous
 62
     7
100
AcDbSpline
210
0.0
220
0.0
230
1.0
 70
     8
 71
     3
 72
    11
 73
     7
 74
     0
 42
0.0000000400192896
 43
0.0000000001
 40
0.0
 40
0.0
 40
0.0
 40
0.0
 40
0.9999382739948266
 40
0.9999382739948266
 40
0.9999382739948266
 40
1.0
 40
1.0
 40
1.0
 40
1.0
 10
60.94349485077401
 20
224.7703450054502
 30
0.0
 10
60.94085862995401
 20
224.85358170747
 30
0.0
 10
60.9377070703125
 20
224.9368095708214
 30
0.0
 10
60.93404005871029
 20
225.0200227653353
 30
0.0
 10
60.93403983234634
 20
225.0200279020704
 30
0.0
 10
60.93404004167456
 20
225.0200358236293
 30
0.0
 10
60.93404003253416
 20
225.0200423527809
 30
0.0
  0
ARC
  5
1FB
330
1D6
100
AcDbEntity
  8
$DDT_AUDIT_GENERATED_(90)
  6
Continuous
 62
     7
100
AcDbCircle
 10
39.7425945715
 20
223.8855761869
 30
0.0
 40
21.22179008018752
100
AcDbArc
 50
3.0643560976
 51
28.6518608501
  0
ARC
  5
1FC
330
1D6
100
AcDbEntity
  8
$DDT_AUDIT_GENERATED_(90)
  6
Continuous
 62
     7
100
AcDbCircle
 10
35.9313980956
 20
225.2729177658
 30
0.0
 40
24.91123387311931
100
AcDbArc
 50
186.7355661707
 51
202.1628887781
  0
ARC
  5
1FD
330
1D6
100
AcDbEntity
  8
$DDT_AUDIT_GENERATED_(90)
  6
Continuous
 62
     7
100
AcDbCircle
 10
30.1236067899
 20
224.5240043806
 30
0.0
 40
19.05579247566324
100
AcDbArc
 50
185.723307437
 51
186.5474501496
  0
ARC
  5
1FE
330
1D6
100
AcDbEntity
  8
$DDT_AUDIT_GENERATED_(90)
  6
Continuous
 62
     7
100
AcDbCircle
 10
27.696808241
 20
224.33432479
 30
0.0
 40
16.62226098610733
100
AcDbArc
 50
178.4968961836
 51
185.9069508039
  0
ARC
  5
1FF
330
1D6
100
AcDbEntity
  8
$DDT_AUDIT_GENERATED_(90)
  6
Continuous
 62
     7
100
AcDbCircle
 10
32.2170875467
 20
223.9157228152
 30
0.0
 40
21.15620734341421
100
AcDbArc
 50
151.2792974567
 51
177.0078939035
  0
ARC
  5
200
330
1D6
100
AcDbEntity
  8
$DDT_AUDIT_GENERATED_(90)
  6
Continuous
 62
     7
100
AcDbCircle
 10
33.099517018
 20
220.5603283734
 30
0.0
 40
20.56882505895873
100
AcDbArc
 50
185.8294351228
 51
185.8366463648
  0
ARC
  5
201
330
1D6
100
AcDbEntity
  8
$DDT_AUDIT_GENERATED_(90)
  6
Continuous
 62
     7
100
AcDbCircle
 10
25566.1721301441
 20
2414.6429336967
 30
0.0
 40
25647.73442895744
100
AcDbArc
 50
184.912914663
 51
185.0647183027
  0
SPLINE
  5
202
330
1D6
100
AcDbEntity
  8
$DDT_AUDIT_GENERATED_(90)
  6
Continuous
 62
     7
100
AcDbSpline
210
0.0
220
0.0
230
1.0
 70
     8
 71
     3
 72
    50
 73
    46
 74
     0
 42
0.0000000002888567
 43
0.0000000001
 40
0.0
 40
0.0
 40
0.0
 40
0.0
 40
0.0526221525430087
 40
0.1005254291088237
 40
0.1437208784951231
 40
0.1822244557014256
 40
0.2160264834399917
 40
0.2406008872672909
 40
0.261920194630383
 40
0.2800836775846878
 40
0.2973645923284783
 40
0.3101486543639294
 40
0.3189625843387611
 40
0.3291050299515957
 40
0.3425011684183925
 40
0.3587355817055459
 40
0.3769295153747406
 40
0.3998512290359434
 40
0.4207833327704411
 40
0.4404346883291141
 40
0.4625632745840883
 40
0.4793507727818782
 40
0.4976094997536192
 40
0.5173891188819976
 40
0.5366886420307164
 40
0.552406297444661
 40
0.5645498030752011
 40
0.5716037746746009
 40
0.5764782187627611
 40
0.5806597442481791
 40
0.5871367696510214
 40
0.5959926723563641
 40
0.6072285066510864
 40
0.6264003266880863
 40
0.6500708486281871
 40
0.6783582483071303
 40
0.7111112186167318
 40
0.7480446486822283
 40
0.7821450165112389
 40
0.8194788848086377
 40
0.8602665622193224
 40
0.8927141700707406
 40
0.9266878821286387
 40
0.9623769887566154
 40
1.0
 40
1.0
 40
1.0
 40
1.0
 10
18.57627194385255
 20
150.4369263520748
 30
0.0
 10
18.63590330873643
 20
149.7724505704413
 30
0.0
 10
18.73165137123749
 20
148.7044123568175
 30
0.0
 10
18.88331853625745
 20
147.0232427859177
 30
0.0
 10
19.01529352924256
 20
145.5425270556226
 30
0.0
 10
19.1333290280373
 20
144.2147980494378
 30
0.0
 10
19.23261743558741
 20
143.1028254299751
 30
0.0
 10
19.3147052759178
 20
142.1877264689324
 30
0.0
 10
19.38034428681981
 20
141.4521540354083
 30
0.0
 10
19.44051534461701
 20
140.8006608143362
 30
0.0
 10
19.49900499177997
 20
140.2479483405497
 30
0.0
 10
19.55447689110467
 20
139.8033992636041
 30
0.0
 10
19.60614918793524
 20
139.4412969308241
 30
0.0
 10
19.66544107531919
 20
139.0731502963924
 30
0.0
 10
19.74979492895107
 20
138.6224494035408
 30
0.0
 10
19.86838556969679
 20
138.0838493691269
 30
0.0
 10
20.0344531576982
 20
137.4435485291889
 30
0.0
 10
20.24469901127421
 20
136.7592399901831
 30
0.0
 10
20.49324434716871
 20
136.0699712288683
 30
0.0
 10
20.76790621372762
 20
135.4005519707649
 30
0.0
 10
21.05127677553831
 20
134.7869798273359
 30
0.0
 10
21.35110829828743
 20
134.1993675422839
 30
0.0
 10
21.6580609608954
 20
133.646182721646
 30
0.0
 10
22.00100147398174
 20
133.0803035533178
 30
0.0
 10
22.35002809119071
 20
132.5529409120269
 30
0.0
 10
22.66664361960812
 20
132.1102522091045
 30
0.0
 10
22.91046393073032
 20
131.7894627076899
 30
0.0
 10
23.08289836813064
 20
131.5716799506992
 30
0.0
 10
23.20008017880892
 20
131.4273597282696
 30
0.0
 10
23.31434737312269
 20
131.2892765778075
 30
0.0
 10
23.45978998218186
 20
131.1173845030989
 30
0.0
 10
23.66146289396674
 20
130.8864816515399
 30
0.0
 10
23.9664201756013
 20
130.5513973818658
 30
0.0
 10
24.40060382884603
 20
130.1029852711351
 30
0.0
 10
24.99689331017527
 20
129.5384541910262
 30
0.0
 10
25.7420727153547
 20
128.9047873276916
 30
0.0
 10
26.6487491062287
 20
128.2276434300633
 30
0.0
 10
27.65808810647739
 20
127.5802379791472
 30
0.0
 10
28.75716272837519
 20
126.9809115023593
 30
0.0
 10
29.9383863782452
 20
126.4454929480613
 30
0.0
 10
31.14218871054324
 20
126.0171734772463
 30
0.0
 10
32.34106579676285
 20
125.6994074341662
 30
0.0
 10
33.49458747025762
 20
125.4820906252336
 30
0.0
 10
34.75002623985922
 20
125.3365891907703
 30
0.0
 10
35.534322845169
 20
125.3172299447618
 30
0.0
 10
36.01200470775509
 20
125.3080956332918
 30
0.0
  0
ARC
  5
203
330
1D6
100
AcDbEntity
  8
$DDT_AUDIT_GENERATED_(90)
  6
Continuous
 62
     7
100
AcDbCircle
 10
38.9307579147
 20
220.5591251204
 30
0.0
 40
20.56222334042628
100
AcDbArc
 50
354.164843472
 51
354.172057031
  0
ARC
  5
204
330
1D6
100
AcDbEntity
  8
$DDT_AUDIT_GENERATED_(90)
  6
Continuous
 62
     7
100
AcDbCircle
 10
-25475.4573940955
 20
2413.014179293
 30
0.0
 40
25628.97264409073
100
AcDbArc
 50
354.9352198576
 51
355.0871340663
  0
SPLINE
  5
205
330
1D6
100
AcDbEntity
  8
$DDT_AUDIT_GENERATED_(90)
  6
Continuous
 62
     7
100
AcDbSpline
210
0.0
220
0.0
230
1.0
 70
     8
 71
     3
 72
    51
 73
    47
 74
     0
 42
0.0000000002888782
 43
0.0000000001
 40
0.0
 40
0.0
 40
0.0
 40
0.0
 40
0.0409258097789722
 40
0.0784105922037578
 40
0.1127183193979987
 40
0.1440173863003336
 40
0.1722292257108243
 40
0.1969993238357724
 40
0.2184141992048851
 40
0.2372221107454575
 40
0.2562450507171382
 40
0.2758237498531199
 40
0.2984650486820509
 40
0.3219186306221223
 40
0.3460241461858945
 40
0.36915844759369
 40
0.3883210596825452
 40
0.4005668629806444
 40
0.4103526318262948
 40
0.4195900629469544
 40
0.43170540267921
 40
0.4467871101929186
 40
0.4638362468720263
 40
0.4836217788575976
 40
0.5054490623583145
 40
0.5264439413192311
 40
0.5463312855790536
 40
0.5651594144460369
 40
0.5863948454524391
 40
0.6061824148951117
 40
0.6243223551959763
 40
0.6390882358464659
 40
0.6500557179525519
 40
0.6549512638273055
 40
0.6600526798329702
 40
0.6677898259128614
 40
0.6781641427031917
 40
0.6959984334602176
 40
0.7183077000749211
 40
0.7449800515851184
 40
0.7760692155476209
 40
0.8117253044203012
 40
0.8519475242377882
 40
0.8967241908996557
 40
0.9460705496387954
 40
1.0
 40
1.0
 40
1.0
 40
1.0
 10
36.0117570067775
 20
125.3080956332831
 30
0.0
 10
36.531369908809
 20
125.3188807956673
 30
0.0
 10
37.36990721352581
 20
125.3412904131859
 30
0.0
 10
38.68743013852373
 20
125.5057361667377
 30
0.0
 10
39.84970363857805
 20
125.7380661224826
 30
0.0
 10
40.89569004464982
 20
126.0276683863505
 30
0.0
 10
41.81417618533998
 20
126.3495924892298
 30
0.0
 10
42.60750806469041
 20
126.679787760827
 30
0.0
 10
43.2855029134754
 20
127.0016253557642
 30
0.0
 10
43.89082663445457
 20
127.3203057650888
 30
0.0
 10
44.46511191906179
 20
127.6513624063169
 30
0.0
 10
45.06360138584617
 20
128.0279690004288
 30
0.0
 10
45.68764571045139
 20
128.4588356833578
 30
0.0
 10
46.33207335644214
 20
128.9505463285575
 30
0.0
 10
46.95589723306392
 20
129.4769871251091
 30
0.0
 10
47.51709914833447
 20
129.9992974238772
 30
0.0
 10
47.95912120896007
 20
130.4476619842279
 30
0.0
 10
48.28193948674951
 20
130.7966933696048
 30
0.0
 10
48.52096811894999
 20
131.0670364983859
 30
0.0
 10
48.75372834453638
 20
131.3408201283266
 30
0.0
 10
49.01899850782419
 20
131.6670832162093
 30
0.0
 10
49.329934289111
 20
132.0721755104081
 30
0.0
 10
49.67865338705436
 20
132.5594368832327
 30
0.0
 10
50.05143310363123
 20
133.1246188125749
 30
0.0
 10
50.42337564190921
 20
133.7441138015784
 30
0.0
 10
50.76890260441417
 20
134.3799809714059
 30
0.0
 10
51.07305877716574
 20
134.9982333052397
 30
0.0
 10
51.35366958529823
 20
135.6304834662334
 30
0.0
 10
51.60721884221495
 20
136.2728414934034
 30
0.0
 10
51.82946936318914
 20
136.9181799440773
 30
0.0
 10
52.00340974605513
 20
137.5005901805376
 30
0.0
 10
52.13094429754069
 20
137.9902368564368
 30
0.0
 10
52.21046089316153
 20
138.3343426399168
 30
0.0
 10
52.2608648529571
 20
138.5707486561995
 30
0.0
 10
52.30134866633814
 20
138.7711222510233
 30
0.0
 10
52.35072720746314
 20
139.034014009046
 30
0.0
 10
52.41912456465538
 20
139.4424774137589
 30
0.0
 10
52.49911301983229
 20
140.0190889043722
 30
0.0
 10
52.58281754714368
 20
140.7845473596517
 30
0.0
 10
52.66558669857788
 20
141.7038335847906
 30
0.0
 10
52.76179710488798
 20
142.7766466745948
 30
0.0
 10
52.87159412861213
 20
144.0044577166647
 30
0.0
 10
52.9949769290324
 20
145.3915308805092
 30
0.0
 10
53.13169583659137
 20
146.9265046620785
 30
0.0
 10
53.2879562736266
 20
148.6585002953692
 30
0.0
 10
53.38635753686573
 20
149.7559050862097
 30
0.0
 10
53.44748979114155
 20
150.4369263520747
 30
0.0
  0
ARC
  5
206
330
1D6
100
AcDbEntity
  8
$DDT_AUDIT_GENERATED_(90)
  6
Continuous
 62
     7
100
AcDbCircle
 10
13.0408122778
 20
224.8355071734
 30
0.0
 40
1.957486401140892
100
AcDbArc
 50
175.1871567196
 51
180.3412630307
  0
ARC
  5
207
330
1D6
100
AcDbEntity
  8
$DDT_AUDIT_GENERATED_(90)
  6
Continuous
 62
     7
100
AcDbCircle
 10
35.2690104692
 20
221.2564189294
 30
0.0
 40
25.11911085165387
100
AcDbArc
 50
91.0853151578
 51
149.2411063046
  0
ARC
  5
208
330
1D6
100
AcDbEntity
  8
$DDT_AUDIT_GENERATED_(90)
  6
Continuous
 62
     7
100
AcDbCircle
 10
36.0145927195
 20
218.087760076
 30
0.0
 40
28.30978795706075
100
AcDbArc
 50
87.5057826681
 51
92.4727259487
  0
ARC
  5
209
330
1D6
100
AcDbEntity
  8
$DDT_AUDIT_GENERATED_(90)
  6
Continuous
 62
     7
100
AcDbCircle
 10
36.771184351
 20
221.2646403804
 30
0.0
 40
25.10111860215744
100
AcDbArc
 50
30.7130167066
 51
88.9497460469
  0
ENDBLK
  5
20B
330
1D6
100
AcDbEntity
  8
0
100
AcDbBlockEnd
  0
ENDSEC
  0
SECTION
  2
ENTITIES
  0
INSERT
  5
5F
330
1F
100
AcDbEntity
  8
Default
100
AcDbBlockReference
  2
SEANNOT_GROUP
 10
0.0
 20
0.0
 30
0.0
  0
INSERT
  5
6A
330
1F
100
AcDbEntity
  8
Default
100
AcDbBlockReference
  2
SEANNOT_GROUP1
 10
0.0
 20
0.0
 30
0.0
  0
INSERT
  5
70
330
1F
100
AcDbEntity
  8
Default
100
AcDbBlockReference
  2
SEANNOT_GROUP2
 10
0.0
 20
0.0
 30
0.0
  0
INSERT
  5
76
330
1F
100
AcDbEntity
  8
Default
100
AcDbBlockReference
  2
SE
 10
0.0
 20
0.0
 30
0.0
  0
INSERT
  5
192
330
1F
100
AcDbEntity
  8
Default
100
AcDbBlockReference
  2
SE1
 10
0.0
 20
0.0
 30
0.0
  0
INSERT
  5
1D7
330
1F
100
AcDbEntity
  8
Default
100
AcDbBlockReference
  2
SE2
 10
0.0
 20
0.0
 30
0.0
  0
TEXT
  5
20D
330
1F
100
AcDbEntity
  8
Default
  6
Continuous
 62
     7
100
AcDbText
 10
5.9362635081
 20
53.4225120485
 30
0.0
 40
10.0
  1
Grohe AG^J
  7
SEACAD_seiso_ttf
 11
5.9362635081
 21
63.4225120485
 31
0.0
100
AcDbText
 73
     3
  0
TEXT
  5
20E
330
1F
100
AcDbEntity
  8
Default
  6
Continuous
 62
     7
100
AcDbText
 10
5.9362635081
 20
37.0588756849
 30
0.0
 40
10.0
  1
 
  7
SEACAD_seiso_ttf
 11
5.9362635081
 21
47.0588756849
 31
0.0
100
AcDbText
 73
     3
  0
TEXT
  5
20F
330
1F
100
AcDbEntity
  8
Default
  6
Continuous
 62
     7
100
AcDbText
 10
5.9362635081
 20
20.6952393213
 30
0.0
 40
10.0
  1
ecn: 
  7
SEACAD_seiso_ttf
 11
5.9362635081
 21
30.6952393213
 31
0.0
100
AcDbText
 73
     3
  0
TEXT
  5
210
330
1F
100
AcDbEntity
  8
Default
  6
Continuous
 62
     7
100
AcDbText
 10
5.9362635081
 20
4.3316029576
 30
0.0
 40
10.0
  1
unit: mm
  7
SEACAD_seiso_ttf
 11
5.9362635081
 21
14.3316029576
 31
0.0
100
AcDbText
 73
     3
  0
LINE
  5
211
330
1F
100
AcDbEntity
  8
Default
  6
Continuous
 62
     7
100
AcDbLine
 10
0.0
 20
0.0
 30
0.0
 11
100.0
 21
0.0
 31
0.0
  0
LINE
  5
212
330
1F
100
AcDbEntity
  8
Default
  6
Continuous
 62
     7
100
AcDbLine
 10
0.0
 20
0.0
 30
0.0
 11
0.0
 21
100.0
 31
0.0
  0
TEXT
  5
213
330
1F
100
AcDbEntity
  8
Default
  6
Continuous
 62
     7
100
AcDbText
 10
24.3923665681
 20
-18.2375342018
 30
0.0
 40
10.0
  1
100 mm
  7
SEACAD_seiso_ttf
 11
24.3923665681
 21
-8.2375342018
 31
0.0
100
AcDbText
 73
     3
  0
TEXT
  5
214
330
1F
100
AcDbEntity
  8
Default
  6
Continuous
 62
     7
100
AcDbText
 10
-7.6150308803
 20
24.6231930421
 30
0.0
 40
10.0
  1
100 mm
 50
90.0
  7
SEACAD_seiso_ttf
 11
-17.6150308803
 21
24.6231930421
 31
0.0
100
AcDbText
 73
     3
  0
TEXT
  5
215
330
1F
100
AcDbEntity
  8
Default
  6
Continuous
 62
     7
100
AcDbText
 10
28.4878128572
 20
20.0907663715
 30
0.0
 40
10.0
  1
218645
  7
SEACAD_seiso_ttf
 11
28.4878128572
 21
30.0907663715
 31
0.0
100
AcDbText
 73
     3
  0
TEXT
  5
216
330
1F
100
AcDbEntity
  8
Default
  6
Continuous
 62
     7
100
AcDbText
 10
5.9012241913
 20
36.7242780188
 30
0.0
 40
10.0
  1
32469002
  7
SEACAD_seiso_ttf
 11
5.9012241913
 21
46.7242780188
 31
0.0
100
AcDbText
 73
     3
  0
ENDSEC
  0
SECTION
  2
OBJECTS
  0
DICTIONARY
  5
C
330
0
100
AcDbDictionary
281
     1
  3
ACAD_GROUP
350
D
  3
ACAD_LAYOUT
350
1A
  3
ACAD_MLEADERSTYLE
350
21A
  3
ACAD_MLINESTYLE
350
17
  3
ACAD_PLOTSETTINGS
350
19
  3
ACAD_PLOTSTYLENAME
350
E
  3
ACAD_SCALELIST
350
3B
  3
ACAD_TABLESTYLE
350
219
  3
ACAD_VISUALSTYLE
350
2A
  3
AcDbVariableDictionary
350
217
  0
DICTIONARY
  5
D
102
{ACAD_REACTORS
330
C
102
}
330
C
100
AcDbDictionary
281
     1
  0
DICTIONARY
  5
1A
102
{ACAD_REACTORS
330
C
102
}
330
C
100
AcDbDictionary
281
     1
  3
Layout1
350
1E
  3
Model
350
22
  0
DICTIONARY
  5
21A
102
{ACAD_REACTORS
330
C
102
}
330
C
100
AcDbDictionary
281
     1
  0
DICTIONARY
  5
17
102
{ACAD_REACTORS
330
C
102
}
330
C
100
AcDbDictionary
281
     1
  3
Standard
350
18
  0
DICTIONARY
  5
19
102
{ACAD_REACTORS
330
C
102
}
330
C
100
AcDbDictionary
281
     1
  0
ACDBDICTIONARYWDFLT
  5
E
102
{ACAD_REACTORS
330
C
102
}
330
C
100
AcDbDictionary
281
     1
  3
Normal
350
F
100
AcDbDictionaryWithDefault
340
F
  0
DICTIONARY
  5
3B
102
{ACAD_REACTORS
330
C
102
}
330
C
100
AcDbDictionary
281
     1
  3
A0
350
3C
  3
A1
350
3D
  3
A2
350
3E
  3
A3
350
3F
  3
A4
350
40
  3
A5
350
41
  3
A6
350
42
  3
A7
350
43
  3
A8
350
44
  3
A9
350
45
  3
B0
350
46
  3
B1
350
47
  3
B2
350
48
  3
B3
350
49
  3
B4
350
4A
  3
B5
350
4B
  3
B6
350
4C
  3
B7
350
4D
  3
B8
350
4E
  3
B9
350
4F
  3
C0
350
50
  3
C1
350
51
  3
C2
350
52
  3
C3
350
53
  3
C4
350
54
  3
C5
350
55
  3
C6
350
56
  3
C7
350
57
  3
C8
350
58
  3
C9
350
59
  3
D0
350
5A
  3
D1
350
5B
  3
D2
350
5C
  0
DICTIONARY
  5
219
102
{ACAD_REACTORS
330
C
102
}
330
C
100
AcDbDictionary
281
     1
  0
DICTIONARY
  5
2A
102
{ACAD_REACTORS
330
C
102
}
330
C
100
AcDbDictionary
281
     1
  3
2dWireframe
350
2F
  3
3D Hidden
350
31
  3
3dWireframe
350
30
  3
Basic
350
32
  3
Brighten
350
36
  3
ColorChange
350
3A
  3
Conceptual
350
34
  3
Dim
350
35
  3
Facepattern
350
39
  3
Flat
350
2B
  3
FlatWithEdges
350
2C
  3
Gouraud
350
2D
  3
GouraudWithEdges
350
2E
  3
Linepattern
350
38
  3
Realistic
350
33
  3
Thicken
350
37
  0
DICTIONARY
  5
217
102
{ACAD_REACTORS
330
C
102
}
330
C
100
AcDbDictionary
281
     1
  3
CANNOSCALE
350
218
  3
PSOLHEIGHT
350
21C
  3
PSOLWIDTH
350
21B
  0
LAYOUT
  5
1E
102
{ACAD_REACTORS
330
1A
102
}
330
1A
100
AcDbPlotSettings
  1

  2
none_device
  4

  6

 40
0.0
 41
0.0
 42
0.0
 43
0.0
 44
0.0
 45
0.0
 46
0.0
 47
0.0
 48
0.0
 49
0.0
140
0.0
141
0.0
142
1.0
143
1.0
 70
   688
 72
     0
 73
     0
 74
     5
  7

 75
    16
147
1.0
148
0.0
149
0.0
100
AcDbLayout
  1
Layout1
 70
     1
 71
     1
 10
0.0
 20
0.0
 11
1682.0
 21
2378.0
 12
0.0
 22
0.0
 32
0.0
 14
0.0
 24
0.0
 34
0.0
 15
1682.0
 25
2378.0
 35
0.0
146
0.0
 13
0.0
 23
0.0
 33
0.0
 16
1.0
 26
0.0
 36
0.0
 17
0.0
 27
1.0
 37
0.0
 76
     0
330
1B
  0
LAYOUT
  5
22
102
{ACAD_REACTORS
330
1A
102
}
330
1A
100
AcDbPlotSettings
  1

  2
none_device
  4

  6

 40
0.0
 41
0.0
 42
0.0
 43
0.0
 44
0.0
 45
0.0
 46
0.0
 47
0.0
 48
0.0
 49
0.0
140
0.0
141
0.0
142
1.0
143
1.0
 70
  1712
 72
     0
 73
     0
 74
     0
  7

 75
     0
147
1.0
148
0.0
149
0.0
100
AcDbLayout
  1
Model
 70
     1
 71
     0
 10
0.0
 20
0.0
 11
1682.0
 21
2378.0
 12
0.0
 22
0.0
 32
0.0
 14
0.0
 24
0.0
 34
0.0
 15
1682.0
 25
2378.0
 35
0.0
146
0.0
 13
0.0
 23
0.0
 33
0.0
 16
1.0
 26
0.0
 36
0.0
 17
0.0
 27
1.0
 37
0.0
 76
     0
330
1F
331
29
  0
MLINESTYLE
  5
18
102
{ACAD_REACTORS
330
17
102
}
330
17
100
AcDbMlineStyle
  2
Standard
 70
     0
  3

 62
   256
 51
90.0
 52
90.0
 71
     2
 49
0.5
 62
   256
  6
BYLAYER
 49
-0.5
 62
   256
  6
BYLAYER
  0
ACDBPLACEHOLDER
  5
F
102
{ACAD_REACTORS
330
E
102
}
330
E
  0
SCALE
  5
3C
102
{ACAD_REACTORS
330
3B
102
}
330
3B
100
AcDbScale
 70
     0
300
1:1
140
1.0
141
1.0
290
     1
  0
SCALE
  5
3D
102
{ACAD_REACTORS
330
3B
102
}
330
3B
100
AcDbScale
 70
     0
300
1:2
140
1.0
141
2.0
290
     0
  0
SCALE
  5
3E
102
{ACAD_REACTORS
330
3B
102
}
330
3B
100
AcDbScale
 70
     0
300
1:4
140
1.0
141
4.0
290
     0
  0
SCALE
  5
3F
102
{ACAD_REACTORS
330
3B
102
}
330
3B
100
AcDbScale
 70
     0
300
1:5
140
1.0
141
5.0
290
     0
  0
SCALE
  5
40
102
{ACAD_REACTORS
330
3B
102
}
330
3B
100
AcDbScale
 70
     0
300
1:8
140
1.0
141
8.0
290
     0
  0
SCALE
  5
41
102
{ACAD_REACTORS
330
3B
102
}
330
3B
100
AcDbScale
 70
     0
300
1:10
140
1.0
141
10.0
290
     0
  0
SCALE
  5
42
102
{ACAD_REACTORS
330
3B
102
}
330
3B
100
AcDbScale
 70
     0
300
1:16
140
1.0
141
16.0
290
     0
  0
SCALE
  5
43
102
{ACAD_REACTORS
330
3B
102
}
330
3B
100
AcDbScale
 70
     0
300
1:20
140
1.0
141
20.0
290
     0
  0
SCALE
  5
44
102
{ACAD_REACTORS
330
3B
102
}
330
3B
100
AcDbScale
 70
     0
300
1:30
140
1.0
141
30.0
290
     0
  0
SCALE
  5
45
102
{ACAD_REACTORS
330
3B
102
}
330
3B
100
AcDbScale
 70
     0
300
1:40
140
1.0
141
40.0
290
     0
  0
SCALE
  5
46
102
{ACAD_REACTORS
330
3B
102
}
330
3B
100
AcDbScale
 70
     0
300
1:50
140
1.0
141
50.0
290
     0
  0
SCALE
  5
47
102
{ACAD_REACTORS
330
3B
102
}
330
3B
100
AcDbScale
 70
     0
300
1:100
140
1.0
141
100.0
290
     0
  0
SCALE
  5
48
102
{ACAD_REACTORS
330
3B
102
}
330
3B
100
AcDbScale
 70
     0
300
2:1
140
2.0
141
1.0
290
     0
  0
SCALE
  5
49
102
{ACAD_REACTORS
330
3B
102
}
330
3B
100
AcDbScale
 70
     0
300
4:1
140
4.0
141
1.0
290
     0
  0
SCALE
  5
4A
102
{ACAD_REACTORS
330
3B
102
}
330
3B
100
AcDbScale
 70
     0
300
8:1
140
8.0
141
1.0
290
     0
  0
SCALE
  5
4B
102
{ACAD_REACTORS
330
3B
102
}
330
3B
100
AcDbScale
 70
     0
300
10:1
140
10.0
141
1.0
290
     0
  0
SCALE
  5
4C
102
{ACAD_REACTORS
330
3B
102
}
330
3B
100
AcDbScale
 70
     0
300
100:1
140
100.0
141
1.0
290
     0
  0
SCALE
  5
4D
102
{ACAD_REACTORS
330
3B
102
}
330
3B
100
AcDbScale
 70
     0
300
1/128" = 1'-0"
140
0.0078125
141
12.0
290
     0
  0
SCALE
  5
4E
102
{ACAD_REACTORS
330
3B
102
}
330
3B
100
AcDbScale
 70
     0
300
1/64" = 1'-0"
140
0.015625
141
12.0
290
     0
  0
SCALE
  5
4F
102
{ACAD_REACTORS
330
3B
102
}
330
3B
100
AcDbScale
 70
     0
300
1/32" = 1'-0"
140
0.03125
141
12.0
290
     0
  0
SCALE
  5
50
102
{ACAD_REACTORS
330
3B
102
}
330
3B
100
AcDbScale
 70
     0
300
1/16" = 1'-0"
140
0.0625
141
12.0
290
     0
  0
SCALE
  5
51
102
{ACAD_REACTORS
330
3B
102
}
330
3B
100
AcDbScale
 70
     0
300
3/32" = 1'-0"
140
0.09375
141
12.0
290
     0
  0
SCALE
  5
52
102
{ACAD_REACTORS
330
3B
102
}
330
3B
100
AcDbScale
 70
     0
300
1/8" = 1'-0"
140
0.125
141
12.0
290
     0
  0
SCALE
  5
53
102
{ACAD_REACTORS
330
3B
102
}
330
3B
100
AcDbScale
 70
     0
300
3/16" = 1'-0"
140
0.1875
141
12.0
290
     0
  0
SCALE
  5
54
102
{ACAD_REACTORS
330
3B
102
}
330
3B
100
AcDbScale
 70
     0
300
1/4" = 1'-0"
140
0.25
141
12.0
290
     0
  0
SCALE
  5
55
102
{ACAD_REACTORS
330
3B
102
}
330
3B
100
AcDbScale
 70
     0
300
3/8" = 1'-0"
140
0.375
141
12.0
290
     0
  0
SCALE
  5
56
102
{ACAD_REACTORS
330
3B
102
}
330
3B
100
AcDbScale
 70
     0
300
1/2" = 1'-0"
140
0.5
141
12.0
290
     0
  0
SCALE
  5
57
102
{ACAD_REACTORS
330
3B
102
}
330
3B
100
AcDbScale
 70
     0
300
3/4" = 1'-0"
140
0.75
141
12.0
290
     0
  0
SCALE
  5
58
102
{ACAD_REACTORS
330
3B
102
}
330
3B
100
AcDbScale
 70
     0
300
1" = 1'-0"
140
1.0
141
12.0
290
     0
  0
SCALE
  5
59
102
{ACAD_REACTORS
330
3B
102
}
330
3B
100
AcDbScale
 70
     0
300
1-1/2" = 1'-0"
140
1.5
141
12.0
290
     0
  0
SCALE
  5
5A
102
{ACAD_REACTORS
330
3B
102
}
330
3B
100
AcDbScale
 70
     0
300
3" = 1'-0"
140
3.0
141
12.0
290
     0
  0
SCALE
  5
5B
102
{ACAD_REACTORS
330
3B
102
}
330
3B
100
AcDbScale
 70
     0
300
6" = 1'-0"
140
6.0
141
12.0
290
     0
  0
SCALE
  5
5C
102
{ACAD_REACTORS
330
3B
102
}
330
3B
100
AcDbScale
 70
     0
300
1'-0" = 1'-0"
140
12.0
141
12.0
290
     0
  0
VISUALSTYLE
  5
2F
102
{ACAD_REACTORS
330
2A
102
}
330
2A
100
AcDbVisualStyle
  2
2dWireframe
 70
     4
 71
     0
 72
     2
 73
     0
 90
        0
 40
-0.6
 41
-30.0
 62
     5
 63
     7
 74
     1
 91
        4
 64
     7
 65
   257
 75
     1
175
     1
 42
1.0
 92
        0
 66
   257
 43
1.0
 76
     1
 77
     6
 78
     2
 67
     7
 79
     5
170
     0
171
     0
290
     0
174
     0
 93
        1
 44
0.0
173
     0
291
     0
 45
0.0
1001
ACAD
1000
AcDbSavedByObjectVersion
1070
     0
  0
VISUALSTYLE
  5
31
102
{ACAD_REACTORS
330
2A
102
}
330
2A
100
AcDbVisualStyle
  2
3D Hidden
 70
     6
 71
     1
 72
     2
 73
     2
 90
        0
 40
-0.6
 41
-30.0
 62
     5
 63
     7
 74
     2
 91
        2
 64
     7
 65
   257
 75
     2
175
     1
 42
40.0
 92
        0
 66
   257
 43
1.0
 76
     1
 77
     6
 78
     2
 67
     7
 79
     3
170
     0
171
     0
290
     0
174
     0
 93
        1
 44
0.0
173
     0
291
     0
 45
0.0
1001
ACAD
1000
AcDbSavedByObjectVersion
1070
     0
  0
VISUALSTYLE
  5
30
102
{ACAD_REACTORS
330
2A
102
}
330
2A
100
AcDbVisualStyle
  2
3dWireframe
 70
     5
 71
     0
 72
     2
 73
     0
 90
        0
 40
-0.6
 41
-30.0
 62
     5
 63
     7
 74
     1
 91
        4
 64
     7
 65
   257
 75
     1
175
     1
 42
1.0
 92
        0
 66
   257
 43
1.0
 76
     1
 77
     6
 78
     2
 67
     7
 79
     5
170
     0
171
     0
290
     0
174
     0
 93
        1
 44
0.0
173
     0
291
     0
 45
0.0
1001
ACAD
1000
AcDbSavedByObjectVersion
1070
     0
  0
VISUALSTYLE
  5
32
102
{ACAD_REACTORS
330
2A
102
}
330
2A
100
AcDbVisualStyle
  2
Basic
 70
     7
 71
     1
 72
     0
 73
     1
 90
        0
 40
-0.6
 41
-30.0
 62
     5
 63
     7
 74
     0
 91
        4
 64
     7
 65
   257
 75
     1
175
     1
 42
1.0
 92
        8
 66
     7
 43
1.0
 76
     1
 77
     6
 78
     2
 67
     7
 79
     5
170
     0
171
     0
290
     0
174
     0
 93
        1
 44
0.0
173
     0
291
     1
 45
0.0
1001
ACAD
1000
AcDbSavedByObjectVersion
1070
     0
  0
VISUALSTYLE
  5
36
102
{ACAD_REACTORS
330
2A
102
}
330
2A
100
AcDbVisualStyle
  2
Brighten
 70
    12
 71
     2
 72
     2
 73
     0
 90
        0
 40
-0.6
 41
-30.0
 62
     5
 63
     7
 74
     1
 91
        4
 64
     7
 65
   257
 75
     1
175
     1
 42
1.0
 92
        8
 66
     7
 43
1.0
 76
     1
 77
     6
 78
     2
 67
     7
 79
     5
170
     0
171
     0
290
     0
174
     0
 93
        1
 44
50.0
173
     0
291
     1
 45
0.0
1001
ACAD
1000
AcDbSavedByObjectVersion
1070
     0
  0
VISUALSTYLE
  5
3A
102
{ACAD_REACTORS
330
2A
102
}
330
2A
100
AcDbVisualStyle
  2
ColorChange
 70
    16
 71
     2
 72
     2
 73
     3
 90
        0
 40
-0.6
 41
-30.0
 62
     5
 63
     8
 74
     1
 91
        4
 64
     7
 65
   257
 75
     1
175
     1
 42
1.0
 92
        8
 66
     8
 43
1.0
 76
     1
 77
     6
 78
     2
 67
     7
 79
     5
170
     0
171
     0
290
     0
174
     0
 93
        1
 44
0.0
173
     0
291
     1
 45
0.0
1001
ACAD
1000
AcDbSavedByObjectVersion
1070
     0
  0
VISUALSTYLE
  5
34
102
{ACAD_REACTORS
330
2A
102
}
330
2A
100
AcDbVisualStyle
  2
Conceptual
 70
     9
 71
     3
 72
     2
 73
     0
 90
        0
 40
-0.6
 41
-30.0
 62
     5
 63
     7
 74
     2
 91
        2
 64
     7
 65
   257
 75
     1
175
     1
 42
40.0
 92
        8
 66
     7
 43
1.0
 76
     1
 77
     6
 78
     2
 67
     7
 79
     3
170
     0
171
     0
290
     0
174
     0
 93
        1
 44
0.0
173
     0
291
     0
 45
0.0
1001
ACAD
1000
AcDbSavedByObjectVersion
1070
     0
  0
VISUALSTYLE
  5
35
102
{ACAD_REACTORS
330
2A
102
}
330
2A
100
AcDbVisualStyle
  2
Dim
 70
    11
 71
     2
 72
     2
 73
     0
 90
        0
 40
-0.6
 41
-30.0
 62
     5
 63
     7
 74
     1
 91
        4
 64
     7
 65
   257
 75
     1
175
     1
 42
1.0
 92
        8
 66
     7
 43
1.0
 76
     1
 77
     6
 78
     2
 67
     7
 79
     5
170
     0
171
     0
290
     0
174
     0
 93
        1
 44
-50.0
173
     0
291
     1
 45
0.0
1001
ACAD
1000
AcDbSavedByObjectVersion
1070
     0
  0
VISUALSTYLE
  5
39
102
{ACAD_REACTORS
330
2A
102
}
330
2A
100
AcDbVisualStyle
  2
Facepattern
 70
    15
 71
     2
 72
     2
 73
     0
 90
        0
 40
-0.6
 41
-30.0
 62
     5
 63
     7
 74
     1
 91
        4
 64
     7
 65
   257
 75
     1
175
     1
 42
1.0
 92
        8
 66
     7
 43
1.0
 76
     1
 77
     6
 78
     2
 67
     7
 79
     5
170
     0
171
     0
290
     0
174
     0
 93
        1
 44
0.0
173
     0
291
     1
 45
0.0
1001
ACAD
1000
AcDbSavedByObjectVersion
1070
     0
  0
VISUALSTYLE
  5
2B
102
{ACAD_REACTORS
330
2A
102
}
330
2A
100
AcDbVisualStyle
  2
Flat
 70
     0
 71
     2
 72
     1
 73
     1
 90
        2
 40
-0.6
 41
30.0
 62
     5
 63
     7
 74
     0
 91
        4
 64
     7
 65
   257
 75
     1
175
     1
 42
1.0
 92
        8
 66
     7
 43
1.0
 76
     1
 77
     6
 78
     2
 67
     7
 79
     5
170
     0
171
     0
290
     0
174
     0
 93
       13
 44
0.0
173
     0
291
     1
 45
0.0
1001
ACAD
1000
AcDbSavedByObjectVersion
1070
     0
  0
VISUALSTYLE
  5
2C
102
{ACAD_REACTORS
330
2A
102
}
330
2A
100
AcDbVisualStyle
  2
FlatWithEdges
 70
     1
 71
     2
 72
     1
 73
     1
 90
        2
 40
-0.6
 41
30.0
 62
     5
 63
     7
 74
     1
 91
        4
 64
     7
 65
   257
 75
     1
175
     1
 42
1.0
 92
        0
 66
   257
 43
1.0
 76
     1
 77
     6
 78
     2
 67
     7
 79
     5
170
     0
171
     0
290
     0
174
     0
 93
       13
 44
0.0
173
     0
291
     1
 45
0.0
1001
ACAD
1000
AcDbSavedByObjectVersion
1070
     0
  0
VISUALSTYLE
  5
2D
102
{ACAD_REACTORS
330
2A
102
}
330
2A
100
AcDbVisualStyle
  2
Gouraud
 70
     2
 71
     2
 72
     2
 73
     1
 90
        2
 40
-0.6
 41
30.0
 62
     5
 63
     7
 74
     0
 91
        4
 64
     7
 65
   257
 75
     1
175
     1
 42
1.0
 92
        0
 66
     7
 43
1.0
 76
     1
 77
     6
 78
     2
 67
     7
 79
     5
170
     0
171
     0
290
     0
174
     0
 93
       13
 44
0.0
173
     0
291
     1
 45
0.0
1001
ACAD
1000
AcDbSavedByObjectVersion
1070
     0
  0
VISUALSTYLE
  5
2E
102
{ACAD_REACTORS
330
2A
102
}
330
2A
100
AcDbVisualStyle
  2
GouraudWithEdges
 70
     3
 71
     2
 72
     2
 73
     1
 90
        2
 40
-0.6
 41
30.0
 62
     5
 63
     7
 74
     1
 91
        4
 64
     7
 65
   257
 75
     1
175
     1
 42
1.0
 92
        0
 66
   257
 43
1.0
 76
     1
 77
     6
 78
     2
 67
     7
 79
     5
170
     0
171
     0
290
     0
174
     0
 93
       13
 44
0.0
173
     0
291
     1
 45
0.0
1001
ACAD
1000
AcDbSavedByObjectVersion
1070
     0
  0
VISUALSTYLE
  5
38
102
{ACAD_REACTORS
330
2A
102
}
330
2A
100
AcDbVisualStyle
  2
Linepattern
 70
    14
 71
     2
 72
     2
 73
     0
 90
        0
 40
-0.6
 41
-30.0
 62
     5
 63
     7
 74
     1
 91
        4
 64
     7
 65
   257
 75
     7
175
     7
 42
1.0
 92
        8
 66
     7
 43
1.0
 76
     1
 77
     6
 78
     2
 67
     7
 79
     5
170
     0
171
     0
290
     0
174
     0
 93
        1
 44
0.0
173
     0
291
     1
 45
0.0
1001
ACAD
1000
AcDbSavedByObjectVersion
1070
     0
  0
VISUALSTYLE
  5
33
102
{ACAD_REACTORS
330
2A
102
}
330
2A
100
AcDbVisualStyle
  2
Realistic
 70
     8
 71
     2
 72
     2
 73
     0
 90
        0
 40
-0.6
 41
-30.0
 62
     5
 63
     7
 74
     1
 91
        0
 64
     7
 65
   257
 75
     1
175
     1
 42
1.0
 92
        8
 66
     8
 43
1.0
 76
     1
 77
     6
 78
     2
 67
     7
 79
     5
170
     0
171
     0
290
     0
174
     0
 93
       13
 44
0.0
173
     0
291
     0
 45
0.0
1001
ACAD
1000
AcDbSavedByObjectVersion
1070
     0
  0
VISUALSTYLE
  5
37
102
{ACAD_REACTORS
330
2A
102
}
330
2A
100
AcDbVisualStyle
  2
Thicken
 70
    13
 71
     2
 72
     2
 73
     0
 90
        0
 40
-0.6
 41
-30.0
 62
     5
 63
     7
 74
     1
 91
        4
 64
     7
 65
   257
 75
     1
175
     1
 42
1.0
 92
       12
 66
     7
 43
1.0
 76
     1
 77
     6
 78
     2
 67
     7
 79
     5
170
     0
171
     0
290
     0
174
     0
 93
        1
 44
0.0
173
     0
291
     1
 45
0.0
1001
ACAD
1000
AcDbSavedByObjectVersion
1070
     0
  0
DICTIONARYVAR
  5
218
102
{ACAD_REACTORS
330
217
102
}
330
217
100
DictionaryVariables
280
     0
  1
1:1
  0
DICTIONARYVAR
  5
21C
102
{ACAD_REACTORS
330
217
102
}
330
217
100
DictionaryVariables
280
     0
  1
80.000000
  0
DICTIONARYVAR
  5
21B
102
{ACAD_REACTORS
330
217
102
}
330
217
100
DictionaryVariables
280
     0
  1
5.000000
  0
ENDSEC
  0
EOF
