  0
SECTION
  2
HEADER
  9
$ACADVER
  1
AC1009
  9
$DWGCODEPAGE
  3
ansi_1252
  9
$INSBASE
 10
0.0
 20
0.0
 30
0.0
  9
$EXTMIN
 10
1.000000000000000E+20
 20
1.000000000000000E+20
 30
1.000000000000000E+20
  9
$EXTMAX
 10
-1.000000000000000E+20
 20
-1.000000000000000E+20
 30
-1.000000000000000E+20
  9
$LIMMIN
 10
0.0
 20
0.0
  9
$LIMMAX
 10
12.0
 20
9.0
  9
$ORTHOMODE
 70
     0
  9
$REGENMODE
 70
     1
  9
$FILLMODE
 70
     1
  9
$QTEXTMODE
 70
     0
  9
$MIRRTEXT
 70
     1
  9
$DRAGMODE
 70
     2
  9
$LTSCALE
 40
1.0
  9
$OSMODE
 70
    37
  9
$ATTMODE
 70
     1
  9
$TEXTSIZE
 40
0.2
  9
$TRACEWID
 40
0.05
  9
$TEXTSTYLE
  7
STANDARD
  9
$CLAYER
  8
0
  9
$CELTYPE
  6
BYLAYER
  9
$CECOLOR
 62
   256
  9
$DIMSCALE
 40
1.0
  9
$DIMASZ
 40
0.18
  9
$DIMEXO
 40
0.0625
  9
$DIMDLI
 40
0.38
  9
$DIMRND
 40
0.0
  9
$DIMDLE
 40
0.0
  9
$DIMEXE
 40
0.18
  9
$DIMTP
 40
0.0
  9
$DIMTM
 40
0.0
  9
$DIMTXT
 40
0.18
  9
$DIMCEN
 40
0.09
  9
$DIMTSZ
 40
0.0
  9
$DIMTOL
 70
     0
  9
$DIMLIM
 70
     0
  9
$DIMTIH
 70
     1
  9
$DIMTOH
 70
     1
  9
$DIMSE1
 70
     0
  9
$DIMSE2
 70
     0
  9
$DIMTAD
 70
     0
  9
$DIMZIN
 70
     0
  9
$DIMBLK
  1

  9
$DIMASO
 70
     1
  9
$DIMSHO
 70
     1
  9
$DIMPOST
  1

  9
$DIMAPOST
  1

  9
$DIMALT
 70
     0
  9
$DIMALTD
 70
     2
  9
$DIMALTF
 40
25.4
  9
$DIMLFAC
 40
1.0
  9
$DIMTOFL
 70
     0
  9
$DIMTVP
 40
0.0
  9
$DIMTIX
 70
     0
  9
$DIMSOXD
 70
     0
  9
$DIMSAH
 70
     0
  9
$DIMBLK1
  1

  9
$DIMBLK2
  1

  9
$DIMSTYLE
  2
STANDARD
  9
$DIMCLRD
 70
     0
  9
$DIMCLRE
 70
     0
  9
$DIMCLRT
 70
     0
  9
$DIMTFAC
 40
1.0
  9
$DIMGAP
 40
0.09
  9
$LUNITS
 70
     2
  9
$LUPREC
 70
     4
  9
$SKETCHINC
 40
0.1
  9
$FILLETRAD
 40
0.5
  9
$AUNITS
 70
     0
  9
$AUPREC
 70
     0
  9
$MENU
  1
.
  9
$ELEVATION
 40
0.0
  9
$PELEVATION
 40
0.0
  9
$THICKNESS
 40
0.0
  9
$LIMCHECK
 70
     0
  9
$CHAMFERA
 40
0.5
  9
$CHAMFERB
 40
0.5
  9
$SKPOLY
 70
     0
  9
$TDCREATE
 40
2455601.341075798
  9
$TDUPDATE
 40
2455601.341075798
  9
$TDINDWG
 40
0.0000000116
  9
$TDUSRTIMER
 40
0.0000000116
  9
$USRTIMER
 70
     1
  9
$ANGBASE
 50
0.0
  9
$ANGDIR
 70
     0
  9
$PDMODE
 70
     0
  9
$PDSIZE
 40
0.0
  9
$PLINEWID
 40
0.0
  9
$COORDS
 70
     1
  9
$SPLFRAME
 70
     0
  9
$SPLINETYPE
 70
     6
  9
$SPLINESEGS
 70
     8
  9
$ATTDIA
 70
     0
  9
$ATTREQ
 70
     1
  9
$HANDLING
 70
     1
  9
$HANDSEED
  5
ACB
  9
$SURFTAB1
 70
     6
  9
$SURFTAB2
 70
     6
  9
$SURFTYPE
 70
     6
  9
$SURFU
 70
     6
  9
$SURFV
 70
     6
  9
$UCSNAME
  2

  9
$UCSORG
 10
0.0
 20
0.0
 30
0.0
  9
$UCSXDIR
 10
1.0
 20
0.0
 30
0.0
  9
$UCSYDIR
 10
0.0
 20
1.0
 30
0.0
  9
$PUCSNAME
  2

  9
$PUCSORG
 10
0.0
 20
0.0
 30
0.0
  9
$PUCSXDIR
 10
1.0
 20
0.0
 30
0.0
  9
$PUCSYDIR
 10
0.0
 20
1.0
 30
0.0
  9
$USERI1
 70
     0
  9
$USERI2
 70
     0
  9
$USERI3
 70
     0
  9
$USERI4
 70
     0
  9
$USERI5
 70
     0
  9
$USERR1
 40
0.0
  9
$USERR2
 40
0.0
  9
$USERR3
 40
0.0
  9
$USERR4
 40
0.0
  9
$USERR5
 40
0.0
  9
$WORLDVIEW
 70
     1
  9
$SHADEDGE
 70
     3
  9
$SHADEDIF
 70
    70
  9
$TILEMODE
 70
     1
  9
$MAXACTVP
 70
    64
  9
$PLIMCHECK
 70
     0
  9
$PEXTMIN
 10
1.000000000000000E+20
 20
1.000000000000000E+20
 30
1.000000000000000E+20
  9
$PEXTMAX
 10
-1.000000000000000E+20
 20
-1.000000000000000E+20
 30
-1.000000000000000E+20
  9
$PLIMMIN
 10
0.0
 20
0.0
  9
$PLIMMAX
 10
12.0
 20
9.0
  9
$UNITMODE
 70
     0
  9
$VISRETAIN
 70
     1
  9
$PLINEGEN
 70
     0
  9
$PSLTSCALE
 70
     1
  0
ENDSEC
  0
SECTION
  2
TABLES
  0
TABLE
  2
VPORT
 70
     1
  0
VPORT
  2
*ACTIVE
 70
     0
 10
0.0
 20
0.0
 11
1.0
 21
1.0
 12
0.0
 22
0.0
 13
0.0
 23
0.0
 14
0.5
 24
0.5
 15
0.5
 25
0.5
 16
349.542236328125
 26
-349.542236328125
 36
349.542236328125
 17
105.0299377441406
 27
0.000518798828125
 37
67.609619140625
 40
385.9993495397266
 41
1.972972972850329
 42
50.0
 43
0.0
 44
0.0
 50
0.0
 51
0.0
 71
     0
 72
   100
 73
     1
 74
     3
 75
     0
 76
     0
 77
     0
 78
     0
  0
ENDTAB
  0
TABLE
  2
LTYPE
 70
     1
  0
LTYPE
  2
CONTINUOUS
 70
     0
  3
Solid line
 72
    65
 73
     0
 40
0.0
  0
ENDTAB
  0
TABLE
  2
LAYER
 70
     2
  0
LAYER
  2
0
 70
     0
 62
     7
  6
CONTINUOUS
  0
LAYER
  2
LAYER_1
 70
     0
 62
     7
  6
CONTINUOUS
  0
ENDTAB
  0
TABLE
  2
STYLE
 70
     1
  0
STYLE
  2
STANDARD
 70
     0
 40
0.0
 41
1.0
 50
0.0
 71
     0
 42
0.2
  3
txt
  4

  0
ENDTAB
  0
TABLE
  2
VIEW
 70
     0
  0
ENDTAB
  0
TABLE
  2
UCS
 70
     0
  0
ENDTAB
  0
TABLE
  2
APPID
 70
     1
  0
APPID
  2
ACAD
 70
     0
  0
ENDTAB
  0
TABLE
  2
DIMSTYLE
 70
     1
  0
DIMSTYLE
  2
STANDARD
 70
     0
  3

  4

  5

  6

  7

 40
1.0
 41
0.18
 42
0.0625
 43
0.38
 44
0.18
 45
0.0
 46
0.0
 47
0.0
 48
0.0
140
0.18
141
0.09
142
0.0
143
25.4
144
1.0
145
0.0
146
1.0
147
0.09
 71
     0
 72
     0
 73
     1
 74
     1
 75
     0
 76
     0
 77
     0
 78
     0
170
     0
171
     2
172
     0
173
     0
174
     0
175
     0
176
     0
177
     0
178
     0
  0
ENDTAB
  0
ENDSEC
  0
SECTION
  2
BLOCKS
  0
BLOCK
  8
0
  2
$MODEL_SPACE
 70
     0
 10
0.0
 20
0.0
 30
0.0
  3
$MODEL_SPACE
  1

  0
ENDBLK
  5
21
  8
0
  0
BLOCK
 67
     1
  8
0
  2
$PAPER_SPACE
 70
     0
 10
0.0
 20
0.0
 30
0.0
  3
$PAPER_SPACE
  1

  0
ENDBLK
  5
1D
 67
     1
  8
0
  0
BLOCK
  8
0
  2
38
 70
     0
 10
0.0
 20
0.0
 30
0.0
  3
38
  1

  0
POLYLINE
  5
3C
  8
0
 62
     9
 66
     1
 10
0.0
 20
0.0
 30
0.0
 70
    64
 71
    93
 72
   182
  0
VERTEX
  5
3D
  8
0
 10
236.5039215087891
 20
0.0004009780241176
 30
95.86766815185547
 70
   192
  0
VERTEX
  5
3E
  8
0
 10
236.6002044677734
 20
-2.465963125228882
 30
98.73384857177734
 70
   192
  0
VERTEX
  5
3F
  8
0
 10
236.2056121826172
 20
-2.505944490432739
 30
95.82839965820312
 70
   192
  0
VERTEX
  5
40
  8
0
 10
221.4516448974609
 20
-10.39409255981445
 30
96.739501953125
 70
   192
  0
VERTEX
  5
41
  8
0
 10
222.4088287353516
 20
-9.818802833557129
 30
94.01201629638672
 70
   192
  0
VERTEX
  5
42
  8
0
 10
224.8485107421875
 20
-10.42386627197266
 30
94.33320617675781
 70
   192
  0
VERTEX
  5
43
  8
0
 10
225.7267456054688
 20
-11.24773502349854
 30
97.30233001708984
 70
   192
  0
VERTEX
  5
44
  8
0
 10
220.3934478759766
 20
-10.34855461120605
 30
99.54081726074219
 70
   192
  0
VERTEX
  5
45
  8
0
 10
222.8031616210938
 20
-11.20622539520264
 30
99.85806274414062
 70
   192
  0
VERTEX
  5
46
  8
0
 10
218.0421752929688
 20
-8.171217918395996
 30
96.29063415527344
 70
   192
  0
VERTEX
  5
47
  8
0
 10
220.1899108886719
 20
-8.645349502563477
 30
93.71988677978516
 70
   192
  0
VERTEX
  5
48
  8
0
 10
218.3115539550781
 20
-6.969350814819336
 30
93.47260284423828
 70
   192
  0
VERTEX
  5
49
  8
0
 10
215.076904296875
 20
-4.978897571563721
 30
98.84088134765625
 70
   192
  0
VERTEX
  5
4A
  8
0
 10
215.8787536621094
 20
-5.3156418800354
 30
96.00581359863281
 70
   192
  0
VERTEX
  5
4B
  8
0
 10
216.4323577880859
 20
-7.156560897827148
 30
99.01933288574219
 70
   192
  0
VERTEX
  5
4C
  8
0
 10
216.8798675537109
 20
-4.883170127868652
 30
93.28411102294922
 70
   192
  0
VERTEX
  5
4D
  8
0
 10
215.6858520507812
 20
0.000399565207772
 30
93.12691497802734
 70
   192
  0
VERTEX
  5
4E
  8
0
 10
215.9905548095703
 20
-2.519102334976196
 30
93.16703033447266
 70
   192
  0
VERTEX
  5
4F
  8
0
 10
214.8368682861328
 20
-2.477537393569946
 30
95.86864471435547
 70
   192
  0
VERTEX
  5
50
  8
0
 10
214.5748443603516
 20
0.000399565207772
 30
95.83415222167969
 70
   192
  0
VERTEX
  5
51
  8
0
 10
230.0259552001953
 20
-10.36004447937012
 30
97.86833190917969
 70
   192
  0
VERTEX
  5
52
  8
0
 10
227.3604278564453
 20
-10.4210729598999
 30
94.66390991210938
 70
   192
  0
VERTEX
  5
53
  8
0
 10
213.944580078125
 20
0.000399565207772
 30
98.69181060791016
 70
   192
  0
VERTEX
  5
54
  8
0
 10
227.8809509277344
 20
-11.21070861816406
 30
100.5265655517578
 70
   192
  0
VERTEX
  5
55
  8
0
 10
229.79736328125
 20
-9.813399314880371
 30
94.98473358154297
 70
   192
  0
VERTEX
  5
56
  8
0
 10
232.0175628662109
 20
-8.634886741638184
 30
95.27703094482422
 70
   192
  0
VERTEX
  5
57
  8
0
 10
233.4129791259766
 20
-8.119023323059082
 30
98.31423950195312
 70
   192
  0
VERTEX
  5
58
  8
0
 10
232.4566192626953
 20
-8.996834754943848
 30
101.1289672851562
 70
   192
  0
VERTEX
  5
59
  8
0
 10
235.5554962158203
 20
-5.279897212982178
 30
98.59630584716797
 70
   192
  0
VERTEX
  5
5A
  8
0
 10
234.2632141113281
 20
-7.174843311309814
 30
101.3668060302734
 70
   192
  0
VERTEX
  5
5B
  8
0
 10
233.8940887451172
 20
-6.954697608947754
 30
95.52407836914062
 70
   192
  0
VERTEX
  5
5C
  8
0
 10
235.3179168701172
 20
-4.870617866516113
 30
95.71153259277344
 70
   192
  0
VERTEX
  5
5D
  8
0
 10
235.6226043701172
 20
-4.993512630462646
 30
101.5457763671875
 70
   192
  0
VERTEX
  5
5E
  8
0
 10
236.8786468505859
 20
0.000399565207772
 30
98.77050018310547
 70
   192
  0
VERTEX
  5
5F
  8
0
 10
236.7478179931641
 20
0.000399565207772
 30
101.6939086914062
 70
   192
  0
VERTEX
  5
60
  8
0
 10
236.4673919677734
 20
-2.561435461044312
 30
101.6569976806641
 70
   192
  0
VERTEX
  5
61
  8
0
 10
230.2920227050781
 20
-10.36524868011475
 30
100.843994140625
 70
   192
  0
VERTEX
  5
62
  8
0
 10
225.3462066650391
 20
-11.49960041046143
 30
100.1928634643555
 70
   192
  0
VERTEX
  5
63
  8
0
 10
218.2348022460938
 20
-8.976082801818848
 30
99.25662994384766
 70
   192
  0
VERTEX
  5
64
  8
0
 10
214.2348022460938
 20
-2.55229926109314
 30
98.73001861572266
 70
   192
  0
VERTEX
  5
65
  8
0
 10
220.3530883789062
 20
-10.93627166748047
 30
110.8880615234375
 70
   192
  0
VERTEX
  5
66
  8
0
 10
217.1730194091797
 20
-9.301251411437988
 30
110.4693984985352
 70
   192
  0
VERTEX
  5
67
  8
0
 10
214.6519012451172
 20
-6.756441116333008
 30
110.1374893188477
 70
   192
  0
VERTEX
  5
68
  8
0
 10
213.0334167480469
 20
-3.553054094314575
 30
109.9244079589844
 70
   192
  0
VERTEX
  5
69
  8
0
 10
212.4775695800781
 20
0.000398411124479
 30
109.8512344360352
 70
   192
  0
VERTEX
  5
6A
  8
0
 10
223.8716430664062
 20
-11.49834728240967
 30
111.3512954711914
 70
   192
  0
VERTEX
  5
6B
  8
0
 10
227.3988494873047
 20
-10.93772506713867
 30
111.8156585693359
 70
   192
  0
VERTEX
  5
6C
  8
0
 10
230.577392578125
 20
-9.304081916809082
 30
112.2341232299805
 70
   192
  0
VERTEX
  5
6D
  8
0
 10
233.0980072021484
 20
-6.762666702270508
 30
112.5659637451172
 70
   192
  0
VERTEX
  5
6E
  8
0
 10
234.7190399169922
 20
-3.557363510131836
 30
112.7793807983398
 70
   192
  0
VERTEX
  5
6F
  8
0
 10
235.2786865234375
 20
0.000399565207772
 30
112.8530578613281
 70
   192
  0
VERTEX
  5
70
  8
0
 10
227.4048919677734
 20
10.93561363220215
 30
111.8164520263672
 70
   192
  0
VERTEX
  5
71
  8
0
 10
223.8814392089844
 20
11.49958324432373
 30
111.3525772094727
 70
   192
  0
VERTEX
  5
72
  8
0
 10
220.3543395996094
 20
10.93771171569824
 30
110.8882293701172
 70
   192
  0
VERTEX
  5
73
  8
0
 10
217.1810913085938
 20
9.306856155395508
 30
110.4704666137695
 70
   192
  0
VERTEX
  5
74
  8
0
 10
214.6534271240234
 20
6.760432720184326
 30
110.1376876831055
 70
   192
  0
VERTEX
  5
75
  8
0
 10
213.0340118408203
 20
3.554575204849243
 30
109.9244918823242
 70
   192
  0
VERTEX
  5
76
  8
0
 10
233.1041412353516
 20
6.754414081573486
 30
112.5667724609375
 70
   192
  0
VERTEX
  5
77
  8
0
 10
230.5801544189453
 20
9.302752494812012
 30
112.2344818115234
 70
   192
  0
VERTEX
  5
78
  8
0
 10
234.7216491699219
 20
3.551696300506592
 30
112.7797241210938
 70
   192
  0
VERTEX
  5
79
  8
0
 10
214.2801666259766
 20
2.744874954223633
 30
98.73599243164062
 70
   192
  0
VERTEX
  5
7A
  8
0
 10
223.9651489257812
 20
11.4141902923584
 30
100.0110397338867
 70
   192
  0
VERTEX
  5
7B
  8
0
 10
221.2985687255859
 20
10.74449729919434
 30
99.65998077392578
 70
   192
  0
VERTEX
  5
7C
  8
0
 10
216.8118133544922
 20
7.612547874450684
 30
99.06929016113281
 70
   192
  0
VERTEX
  5
7D
  8
0
 10
231.8271636962891
 20
9.468927383422852
 30
101.0460968017578
 70
   192
  0
VERTEX
  5
7E
  8
0
 10
233.88427734375
 20
7.630699634552002
 30
101.3169174194336
 70
   192
  0
VERTEX
  5
7F
  8
0
 10
229.3869323730469
 20
10.75545215606689
 30
100.7248306274414
 70
   192
  0
VERTEX
  5
80
  8
0
 10
226.7151031494141
 20
11.41647529602051
 30
100.3730773925781
 70
   192
  0
VERTEX
  5
81
  8
0
 10
235.4454193115234
 20
5.349382400512695
 30
101.5224456787109
 70
   192
  0
VERTEX
  5
82
  8
0
 10
236.4215087890625
 20
2.756560564041138
 30
101.6509552001953
 70
   192
  0
VERTEX
  5
83
  8
0
 10
218.8684844970703
 20
9.452397346496582
 30
99.34005737304688
 70
   192
  0
VERTEX
  5
84
  8
0
 10
215.2529907226562
 20
5.332679271697998
 30
98.86406707763672
 70
   192
  0
VERTEX
  5
85
  8
0
 10
215.9880065917969
 20
2.511502981185913
 30
93.16670227050781
 70
   192
  0
VERTEX
  5
86
  8
0
 10
214.8532867431641
 20
2.46676230430603
 30
95.87081146240234
 70
   192
  0
VERTEX
  5
87
  8
0
 10
215.8979949951172
 20
5.280696392059326
 30
96.00834655761719
 70
   192
  0
VERTEX
  5
88
  8
0
 10
218.2979125976562
 20
6.954713344573975
 30
93.4708023071289
 70
   192
  0
VERTEX
  5
89
  8
0
 10
218.0405120849609
 20
8.119821548461914
 30
96.29041290283203
 70
   192
  0
VERTEX
  5
8A
  8
0
 10
220.1769104003906
 20
8.637838363647461
 30
93.71817779541016
 70
   192
  0
VERTEX
  5
8B
  8
0
 10
216.8751525878906
 20
4.87279748916626
 30
93.28349304199219
 70
   192
  0
VERTEX
  5
8C
  8
0
 10
224.8318939208984
 20
10.42198753356934
 30
94.33101654052734
 70
   192
  0
VERTEX
  5
8D
  8
0
 10
222.4007720947266
 20
9.816574096679688
 30
94.01095581054688
 70
   192
  0
VERTEX
  5
8E
  8
0
 10
221.4275360107422
 20
10.36084365844727
 30
96.736328125
 70
   192
  0
VERTEX
  5
8F
  8
0
 10
229.7789916992188
 20
9.821613311767578
 30
94.98231506347656
 70
   192
  0
VERTEX
  5
90
  8
0
 10
227.3418884277344
 20
10.42430782318115
 30
94.66146850585938
 70
   192
  0
VERTEX
  5
91
  8
0
 10
230.0018463134766
 20
10.3948917388916
 30
97.86515045166016
 70
   192
  0
VERTEX
  5
92
  8
0
 10
225.7267456054688
 20
11.24853420257568
 30
97.30233001708984
 70
   192
  0
VERTEX
  5
93
  8
0
 10
233.8831787109375
 20
6.968853950500488
 30
95.52264404296875
 70
   192
  0
VERTEX
  5
94
  8
0
 10
235.5747375488281
 20
5.316441059112549
 30
98.59883880615234
 70
   192
  0
VERTEX
  5
95
  8
0
 10
235.3090972900391
 20
4.888463973999023
 30
95.71037292480469
 70
   192
  0
VERTEX
  5
96
  8
0
 10
233.4113159179688
 20
8.172017097473145
 30
98.31401824951172
 70
   192
  0
VERTEX
  5
97
  8
0
 10
231.9999084472656
 20
8.64759349822998
 30
95.27470397949219
 70
   192
  0
VERTEX
  5
98
  8
0
 10
236.6166229248047
 20
2.478336572647095
 30
98.73600769042969
 70
   192
  0
VERTEX
  5
99
  8
0
 10
236.2005615234375
 20
2.523806571960449
 30
95.82772827148438
 70
   192
  0
VERTEX
  5
9A
  8
0
 62
     9
 10
0.0
 20
0.0
 30
0.0
 70
   128
 71
     3
 72
     2
 73
     1
  0
VERTEX
  5
9B
  8
0
 62
     9
 10
0.0
 20
0.0
 30
0.0
 70
   128
 71
     6
 72
     5
 73
     4
  0
VERTEX
  5
9C
  8
0
 62
     9
 10
0.0
 20
0.0
 30
0.0
 70
   128
 71
     6
 72
     4
 73
     7
  0
VERTEX
  5
9D
  8
0
 62
     9
 10
0.0
 20
0.0
 30
0.0
 70
   128
 71
     9
 72
     4
 73
     8
  0
VERTEX
  5
9E
  8
0
 62
     9
 10
0.0
 20
0.0
 30
0.0
 70
   128
 71
     4
 72
    11
 73
    10
  0
VERTEX
  5
9F
  8
0
 62
     9
 10
0.0
 20
0.0
 30
0.0
 70
   128
 71
    10
 72
    11
 73
    12
  0
VERTEX
  5
A0
  8
0
 62
     9
 10
0.0
 20
0.0
 30
0.0
 70
   128
 71
     5
 72
    11
 73
     4
  0
VERTEX
  5
A1
  8
0
 62
     9
 10
0.0
 20
0.0
 30
0.0
 70
   128
 71
    15
 72
    14
 73
    13
  0
VERTEX
  5
A2
  8
0
 62
     9
 10
0.0
 20
0.0
 30
0.0
 70
   128
 71
    12
 72
    14
 73
    10
  0
VERTEX
  5
A3
  8
0
 62
     9
 10
0.0
 20
0.0
 30
0.0
 70
   128
 71
    14
 72
    12
 73
    16
  0
VERTEX
  5
A4
  8
0
 62
     9
 10
0.0
 20
0.0
 30
0.0
 70
   128
 71
    19
 72
    18
 73
    17
  0
VERTEX
  5
A5
  8
0
 62
     9
 10
0.0
 20
0.0
 30
0.0
 70
   128
 71
    17
 72
    20
 73
    19
  0
VERTEX
  5
A6
  8
0
 62
     9
 10
0.0
 20
0.0
 30
0.0
 70
   128
 71
    14
 72
    16
 73
    19
  0
VERTEX
  5
A7
  8
0
 62
     9
 10
0.0
 20
0.0
 30
0.0
 70
   128
 71
    16
 72
    18
 73
    19
  0
VERTEX
  5
A8
  8
0
 62
     9
 10
0.0
 20
0.0
 30
0.0
 70
   128
 71
    22
 72
     7
 73
    21
  0
VERTEX
  5
A9
  8
0
 62
     9
 10
0.0
 20
0.0
 30
0.0
 70
   128
 71
    19
 72
    20
 73
    23
  0
VERTEX
  5
AA
  8
0
 62
     9
 10
0.0
 20
0.0
 30
0.0
 70
   128
 71
    21
 72
     7
 73
    24
  0
VERTEX
  5
AB
  8
0
 62
     9
 10
0.0
 20
0.0
 30
0.0
 70
   128
 71
    26
 72
    25
 73
    21
  0
VERTEX
  5
AC
  8
0
 62
     9
 10
0.0
 20
0.0
 30
0.0
 70
   128
 71
    21
 72
    25
 73
    22
  0
VERTEX
  5
AD
  8
0
 62
     9
 10
0.0
 20
0.0
 30
0.0
 70
   128
 71
    28
 72
    27
 73
    21
  0
VERTEX
  5
AE
  8
0
 62
     9
 10
0.0
 20
0.0
 30
0.0
 70
   128
 71
    27
 72
    26
 73
    21
  0
VERTEX
  5
AF
  8
0
 62
     9
 10
0.0
 20
0.0
 30
0.0
 70
   128
 71
    27
 72
    30
 73
    29
  0
VERTEX
  5
B0
  8
0
 62
     9
 10
0.0
 20
0.0
 30
0.0
 70
   128
 71
    27
 72
    29
 73
    31
  0
VERTEX
  5
B1
  8
0
 62
     9
 10
0.0
 20
0.0
 30
0.0
 70
   128
 71
     3
 72
    32
 73
    29
  0
VERTEX
  5
B2
  8
0
 62
     9
 10
0.0
 20
0.0
 30
0.0
 70
   128
 71
    29
 72
    32
 73
    31
  0
VERTEX
  5
B3
  8
0
 62
     9
 10
0.0
 20
0.0
 30
0.0
 70
   128
 71
     2
 72
    29
 73
    33
  0
VERTEX
  5
B4
  8
0
 62
     9
 10
0.0
 20
0.0
 30
0.0
 70
   128
 71
     2
 72
     3
 73
    29
  0
VERTEX
  5
B5
  8
0
 62
     9
 10
0.0
 20
0.0
 30
0.0
 70
   128
 71
     1
 72
     2
 73
    34
  0
VERTEX
  5
B6
  8
0
 62
     9
 10
0.0
 20
0.0
 30
0.0
 70
   128
 71
    34
 72
    36
 73
    35
  0
VERTEX
  5
B7
  8
0
 62
     9
 10
0.0
 20
0.0
 30
0.0
 70
   128
 71
     2
 72
    36
 73
    34
  0
VERTEX
  5
B8
  8
0
 62
     9
 10
0.0
 20
0.0
 30
0.0
 70
   128
 71
    36
 72
     2
 73
    33
  0
VERTEX
  5
B9
  8
0
 62
     9
 10
0.0
 20
0.0
 30
0.0
 70
   128
 71
    29
 72
    30
 73
    33
  0
VERTEX
  5
BA
  8
0
 62
     9
 10
0.0
 20
0.0
 30
0.0
 70
   128
 71
    27
 72
    28
 73
    30
  0
VERTEX
  5
BB
  8
0
 62
     9
 10
0.0
 20
0.0
 30
0.0
 70
   128
 71
    37
 72
    28
 73
    21
  0
VERTEX
  5
BC
  8
0
 62
     9
 10
0.0
 20
0.0
 30
0.0
 70
   128
 71
    27
 72
    31
 73
    26
  0
VERTEX
  5
BD
  8
0
 62
     9
 10
0.0
 20
0.0
 30
0.0
 70
   128
 71
    21
 72
    24
 73
    37
  0
VERTEX
  5
BE
  8
0
 62
     9
 10
0.0
 20
0.0
 30
0.0
 70
   128
 71
     7
 72
    38
 73
    24
  0
VERTEX
  5
BF
  8
0
 62
     9
 10
0.0
 20
0.0
 30
0.0
 70
   128
 71
    38
 72
     7
 73
     9
  0
VERTEX
  5
C0
  8
0
 62
     9
 10
0.0
 20
0.0
 30
0.0
 70
   128
 71
     7
 72
    22
 73
     6
  0
VERTEX
  5
C1
  8
0
 62
     9
 10
0.0
 20
0.0
 30
0.0
 70
   128
 71
     7
 72
     4
 73
     9
  0
VERTEX
  5
C2
  8
0
 62
     9
 10
0.0
 20
0.0
 30
0.0
 70
   128
 71
    39
 72
     8
 73
     4
  0
VERTEX
  5
C3
  8
0
 62
     9
 10
0.0
 20
0.0
 30
0.0
 70
   128
 71
    10
 72
    39
 73
     4
  0
VERTEX
  5
C4
  8
0
 62
     9
 10
0.0
 20
0.0
 30
0.0
 70
   128
 71
    39
 72
    10
 73
    15
  0
VERTEX
  5
C5
  8
0
 62
     9
 10
0.0
 20
0.0
 30
0.0
 70
   128
 71
    10
 72
    14
 73
    15
  0
VERTEX
  5
C6
  8
0
 62
     9
 10
0.0
 20
0.0
 30
0.0
 70
   128
 71
    19
 72
    40
 73
    13
  0
VERTEX
  5
C7
  8
0
 62
     9
 10
0.0
 20
0.0
 30
0.0
 70
   128
 71
    14
 72
    19
 73
    13
  0
VERTEX
  5
C8
  8
0
 62
     9
 10
0.0
 20
0.0
 30
0.0
 70
   128
 71
    40
 72
    19
 73
    23
  0
VERTEX
  5
C9
  8
0
 62
     9
 10
0.0
 20
0.0
 30
0.0
 70
   128
 71
    41
 72
     9
 73
     8
  0
VERTEX
  5
CA
  8
0
 62
     9
 10
0.0
 20
0.0
 30
0.0
 70
   128
 71
     8
 72
    39
 73
    42
  0
VERTEX
  5
CB
  8
0
 62
     9
 10
0.0
 20
0.0
 30
0.0
 70
   128
 71
    42
 72
    41
 73
     8
  0
VERTEX
  5
CC
  8
0
 62
     9
 10
0.0
 20
0.0
 30
0.0
 70
   128
 71
    43
 72
    42
 73
    15
  0
VERTEX
  5
CD
  8
0
 62
     9
 10
0.0
 20
0.0
 30
0.0
 70
   128
 71
    39
 72
    15
 73
    42
  0
VERTEX
  5
CE
  8
0
 62
     9
 10
0.0
 20
0.0
 30
0.0
 70
   128
 71
    43
 72
    13
 73
    44
  0
VERTEX
  5
CF
  8
0
 62
     9
 10
0.0
 20
0.0
 30
0.0
 70
   128
 71
    13
 72
    43
 73
    15
  0
VERTEX
  5
D0
  8
0
 62
     9
 10
0.0
 20
0.0
 30
0.0
 70
   128
 71
    40
 72
    45
 73
    44
  0
VERTEX
  5
D1
  8
0
 62
     9
 10
0.0
 20
0.0
 30
0.0
 70
   128
 71
    44
 72
    13
 73
    40
  0
VERTEX
  5
D2
  8
0
 62
     9
 10
0.0
 20
0.0
 30
0.0
 70
   128
 71
    40
 72
    23
 73
    45
  0
VERTEX
  5
D3
  8
0
 62
     9
 10
0.0
 20
0.0
 30
0.0
 70
   128
 71
     9
 72
    41
 73
    46
  0
VERTEX
  5
D4
  8
0
 62
     9
 10
0.0
 20
0.0
 30
0.0
 70
   128
 71
    46
 72
    24
 73
    38
  0
VERTEX
  5
D5
  8
0
 62
     9
 10
0.0
 20
0.0
 30
0.0
 70
   128
 71
     9
 72
    46
 73
    38
  0
VERTEX
  5
D6
  8
0
 62
     9
 10
0.0
 20
0.0
 30
0.0
 70
   128
 71
    37
 72
    24
 73
    47
  0
VERTEX
  5
D7
  8
0
 62
     9
 10
0.0
 20
0.0
 30
0.0
 70
   128
 71
    46
 72
    47
 73
    24
  0
VERTEX
  5
D8
  8
0
 62
     9
 10
0.0
 20
0.0
 30
0.0
 70
   128
 71
    37
 72
    48
 73
    28
  0
VERTEX
  5
D9
  8
0
 62
     9
 10
0.0
 20
0.0
 30
0.0
 70
   128
 71
    48
 72
    37
 73
    47
  0
VERTEX
  5
DA
  8
0
 62
     9
 10
0.0
 20
0.0
 30
0.0
 70
   128
 71
    48
 72
    49
 73
    30
  0
VERTEX
  5
DB
  8
0
 62
     9
 10
0.0
 20
0.0
 30
0.0
 70
   128
 71
    30
 72
    28
 73
    48
  0
VERTEX
  5
DC
  8
0
 62
     9
 10
0.0
 20
0.0
 30
0.0
 70
   128
 71
    50
 72
    33
 73
    49
  0
VERTEX
  5
DD
  8
0
 62
     9
 10
0.0
 20
0.0
 30
0.0
 70
   128
 71
    30
 72
    49
 73
    33
  0
VERTEX
  5
DE
  8
0
 62
     9
 10
0.0
 20
0.0
 30
0.0
 70
   128
 71
    36
 72
    50
 73
    51
  0
VERTEX
  5
DF
  8
0
 62
     9
 10
0.0
 20
0.0
 30
0.0
 70
   128
 71
    50
 72
    36
 73
    33
  0
VERTEX
  5
E0
  8
0
 62
     9
 10
0.0
 20
0.0
 30
0.0
 70
   128
 71
    35
 72
    36
 73
    51
  0
VERTEX
  5
E1
  8
0
 62
     9
 10
0.0
 20
0.0
 30
0.0
 70
   128
 71
    52
 72
    44
 73
    45
  0
VERTEX
  5
E2
  8
0
 62
     9
 10
0.0
 20
0.0
 30
0.0
 70
   128
 71
    54
 72
    53
 73
    45
  0
VERTEX
  5
E3
  8
0
 62
     9
 10
0.0
 20
0.0
 30
0.0
 70
   128
 71
    57
 72
    56
 73
    55
  0
VERTEX
  5
E4
  8
0
 62
     9
 10
0.0
 20
0.0
 30
0.0
 70
   128
 71
    55
 72
    54
 73
    57
  0
VERTEX
  5
E5
  8
0
 62
     9
 10
0.0
 20
0.0
 30
0.0
 70
   128
 71
    54
 72
    45
 73
    57
  0
VERTEX
  5
E6
  8
0
 62
     9
 10
0.0
 20
0.0
 30
0.0
 70
   128
 71
    44
 72
    52
 73
    43
  0
VERTEX
  5
E7
  8
0
 62
     9
 10
0.0
 20
0.0
 30
0.0
 70
   128
 71
    53
 72
    52
 73
    45
  0
VERTEX
  5
E8
  8
0
 62
     9
 10
0.0
 20
0.0
 30
0.0
 70
   128
 71
    43
 72
    59
 73
    58
  0
VERTEX
  5
E9
  8
0
 62
     9
 10
0.0
 20
0.0
 30
0.0
 70
   128
 71
    52
 72
    59
 73
    43
  0
VERTEX
  5
EA
  8
0
 62
     9
 10
0.0
 20
0.0
 30
0.0
 70
   128
 71
    42
 72
    43
 73
    58
  0
VERTEX
  5
EB
  8
0
 62
     9
 10
0.0
 20
0.0
 30
0.0
 70
   128
 71
    41
 72
    42
 73
    58
  0
VERTEX
  5
EC
  8
0
 62
     9
 10
0.0
 20
0.0
 30
0.0
 70
   128
 71
    46
 72
    41
 73
    60
  0
VERTEX
  5
ED
  8
0
 62
     9
 10
0.0
 20
0.0
 30
0.0
 70
   128
 71
    58
 72
    60
 73
    41
  0
VERTEX
  5
EE
  8
0
 62
     9
 10
0.0
 20
0.0
 30
0.0
 70
   128
 71
    47
 72
    46
 73
    50
  0
VERTEX
  5
EF
  8
0
 62
     9
 10
0.0
 20
0.0
 30
0.0
 70
   128
 71
    51
 72
    46
 73
    60
  0
VERTEX
  5
F0
  8
0
 62
     9
 10
0.0
 20
0.0
 30
0.0
 70
   128
 71
    50
 72
    49
 73
    47
  0
VERTEX
  5
F1
  8
0
 62
     9
 10
0.0
 20
0.0
 30
0.0
 70
   128
 71
    49
 72
    48
 73
    47
  0
VERTEX
  5
F2
  8
0
 62
     9
 10
0.0
 20
0.0
 30
0.0
 70
   128
 71
    46
 72
    51
 73
    50
  0
VERTEX
  5
F3
  8
0
 62
     9
 10
0.0
 20
0.0
 30
0.0
 70
   128
 71
    57
 72
    45
 73
    61
  0
VERTEX
  5
F4
  8
0
 62
     9
 10
0.0
 20
0.0
 30
0.0
 70
   128
 71
    54
 72
    63
 73
    62
  0
VERTEX
  5
F5
  8
0
 62
     9
 10
0.0
 20
0.0
 30
0.0
 70
   128
 71
    56
 72
    64
 73
    55
  0
VERTEX
  5
F6
  8
0
 62
     9
 10
0.0
 20
0.0
 30
0.0
 70
   128
 71
    66
 72
    59
 73
    65
  0
VERTEX
  5
F7
  8
0
 62
     9
 10
0.0
 20
0.0
 30
0.0
 70
   128
 71
    68
 72
    67
 73
    52
  0
VERTEX
  5
F8
  8
0
 62
     9
 10
0.0
 20
0.0
 30
0.0
 70
   128
 71
    60
 72
    58
 73
    69
  0
VERTEX
  5
F9
  8
0
 62
     9
 10
0.0
 20
0.0
 30
0.0
 70
   128
 71
    66
 72
    69
 73
    58
  0
VERTEX
  5
FA
  8
0
 62
     9
 10
0.0
 20
0.0
 30
0.0
 70
   128
 71
    60
 72
    70
 73
    51
  0
VERTEX
  5
FB
  8
0
 62
     9
 10
0.0
 20
0.0
 30
0.0
 70
   128
 71
    70
 72
    60
 73
    69
  0
VERTEX
  5
FC
  8
0
 62
     9
 10
0.0
 20
0.0
 30
0.0
 70
   128
 71
    51
 72
    70
 73
    35
  0
VERTEX
  5
FD
  8
0
 62
     9
 10
0.0
 20
0.0
 30
0.0
 70
   128
 71
    67
 72
    65
 73
    59
  0
VERTEX
  5
FE
  8
0
 62
     9
 10
0.0
 20
0.0
 30
0.0
 70
   128
 71
    66
 72
    58
 73
    59
  0
VERTEX
  5
FF
  8
0
 62
     9
 10
0.0
 20
0.0
 30
0.0
 70
   128
 71
    68
 72
    52
 73
    53
  0
VERTEX
  5
100
  8
0
 62
     9
 10
0.0
 20
0.0
 30
0.0
 70
   128
 71
    67
 72
    59
 73
    52
  0
VERTEX
  5
101
  8
0
 62
     9
 10
0.0
 20
0.0
 30
0.0
 70
   128
 71
    54
 72
    62
 73
    53
  0
VERTEX
  5
102
  8
0
 62
     9
 10
0.0
 20
0.0
 30
0.0
 70
   128
 71
    68
 72
    53
 73
    62
  0
VERTEX
  5
103
  8
0
 62
     9
 10
0.0
 20
0.0
 30
0.0
 70
   128
 71
    55
 72
    71
 73
    63
  0
VERTEX
  5
104
  8
0
 62
     9
 10
0.0
 20
0.0
 30
0.0
 70
   128
 71
    54
 72
    55
 73
    63
  0
VERTEX
  5
105
  8
0
 62
     9
 10
0.0
 20
0.0
 30
0.0
 70
   128
 71
    56
 72
    72
 73
    64
  0
VERTEX
  5
106
  8
0
 62
     9
 10
0.0
 20
0.0
 30
0.0
 70
   128
 71
    55
 72
    64
 73
    71
  0
VERTEX
  5
107
  8
0
 62
     9
 10
0.0
 20
0.0
 30
0.0
 70
   128
 71
    72
 72
    57
 73
    61
  0
VERTEX
  5
108
  8
0
 62
     9
 10
0.0
 20
0.0
 30
0.0
 70
   128
 71
    57
 72
    72
 73
    56
  0
VERTEX
  5
109
  8
0
 62
     9
 10
0.0
 20
0.0
 30
0.0
 70
   128
 71
    23
 72
    61
 73
    45
  0
VERTEX
  5
10A
  8
0
 62
     9
 10
0.0
 20
0.0
 30
0.0
 70
   128
 71
    75
 72
    74
 73
    73
  0
VERTEX
  5
10B
  8
0
 62
     9
 10
0.0
 20
0.0
 30
0.0
 70
   128
 71
    78
 72
    77
 73
    76
  0
VERTEX
  5
10C
  8
0
 62
     9
 10
0.0
 20
0.0
 30
0.0
 70
   128
 71
    79
 72
    75
 73
    73
  0
VERTEX
  5
10D
  8
0
 62
     9
 10
0.0
 20
0.0
 30
0.0
 70
   128
 71
    74
 72
    61
 73
    23
  0
VERTEX
  5
10E
  8
0
 62
     9
 10
0.0
 20
0.0
 30
0.0
 70
   128
 71
    82
 72
    81
 73
    80
  0
VERTEX
  5
10F
  8
0
 62
     9
 10
0.0
 20
0.0
 30
0.0
 70
   128
 71
    85
 72
    84
 73
    83
  0
VERTEX
  5
110
  8
0
 62
     9
 10
0.0
 20
0.0
 30
0.0
 70
   128
 71
    68
 72
    86
 73
    85
  0
VERTEX
  5
111
  8
0
 62
     9
 10
0.0
 20
0.0
 30
0.0
 70
   128
 71
    89
 72
    88
 73
    87
  0
VERTEX
  5
112
  8
0
 62
     9
 10
0.0
 20
0.0
 30
0.0
 70
   128
 71
    91
 72
    87
 73
    90
  0
VERTEX
  5
113
  8
0
 62
     9
 10
0.0
 20
0.0
 30
0.0
 70
   128
 71
    88
 72
    89
 73
    92
  0
VERTEX
  5
114
  8
0
 62
     9
 10
0.0
 20
0.0
 30
0.0
 70
   128
 71
    34
 72
    92
 73
     1
  0
VERTEX
  5
115
  8
0
 62
     9
 10
0.0
 20
0.0
 30
0.0
 70
   128
 71
    92
 72
    93
 73
     1
  0
VERTEX
  5
116
  8
0
 62
     9
 10
0.0
 20
0.0
 30
0.0
 70
   128
 71
    93
 72
    92
 73
    89
  0
VERTEX
  5
117
  8
0
 62
     9
 10
0.0
 20
0.0
 30
0.0
 70
   128
 71
    35
 72
    92
 73
    34
  0
VERTEX
  5
118
  8
0
 62
     9
 10
0.0
 20
0.0
 30
0.0
 70
   128
 71
    91
 72
    90
 73
    85
  0
VERTEX
  5
119
  8
0
 62
     9
 10
0.0
 20
0.0
 30
0.0
 70
   128
 71
    88
 72
    90
 73
    87
  0
VERTEX
  5
11A
  8
0
 62
     9
 10
0.0
 20
0.0
 30
0.0
 70
   128
 71
    91
 72
    85
 73
    83
  0
VERTEX
  5
11B
  8
0
 62
     9
 10
0.0
 20
0.0
 30
0.0
 70
   128
 71
    75
 72
    61
 73
    74
  0
VERTEX
  5
11C
  8
0
 62
     9
 10
0.0
 20
0.0
 30
0.0
 70
   128
 71
    86
 72
    82
 73
    80
  0
VERTEX
  5
11D
  8
0
 62
     9
 10
0.0
 20
0.0
 30
0.0
 70
   128
 71
    85
 72
    86
 73
    84
  0
VERTEX
  5
11E
  8
0
 62
     9
 10
0.0
 20
0.0
 30
0.0
 70
   128
 71
    84
 72
    86
 73
    80
  0
VERTEX
  5
11F
  8
0
 62
     9
 10
0.0
 20
0.0
 30
0.0
 70
   128
 71
    78
 72
    82
 73
    77
  0
VERTEX
  5
120
  8
0
 62
     9
 10
0.0
 20
0.0
 30
0.0
 70
   128
 71
    86
 72
    68
 73
    62
  0
VERTEX
  5
121
  8
0
 62
     9
 10
0.0
 20
0.0
 30
0.0
 70
   128
 71
    76
 72
    77
 73
    75
  0
VERTEX
  5
122
  8
0
 62
     9
 10
0.0
 20
0.0
 30
0.0
 70
   128
 71
    82
 72
    78
 73
    81
  0
VERTEX
  5
123
  8
0
 62
     9
 10
0.0
 20
0.0
 30
0.0
 70
   128
 71
    76
 72
    75
 73
    79
  0
VERTEX
  5
124
  8
0
 62
     9
 10
0.0
 20
0.0
 30
0.0
 70
   128
 71
    72
 72
    61
 73
    75
  0
VERTEX
  5
125
  8
0
 62
     9
 10
0.0
 20
0.0
 30
0.0
 70
   128
 71
    17
 72
    74
 73
    20
  0
VERTEX
  5
126
  8
0
 62
     9
 10
0.0
 20
0.0
 30
0.0
 70
   128
 71
    73
 72
    74
 73
    17
  0
VERTEX
  5
127
  8
0
 62
     9
 10
0.0
 20
0.0
 30
0.0
 70
   128
 71
    20
 72
    74
 73
    23
  0
VERTEX
  5
128
  8
0
 62
     9
 10
0.0
 20
0.0
 30
0.0
 70
   128
 71
    75
 72
    64
 73
    72
  0
VERTEX
  5
129
  8
0
 62
     9
 10
0.0
 20
0.0
 30
0.0
 70
   128
 71
    77
 72
    64
 73
    75
  0
VERTEX
  5
12A
  8
0
 62
     9
 10
0.0
 20
0.0
 30
0.0
 70
   128
 71
    77
 72
    71
 73
    64
  0
VERTEX
  5
12B
  8
0
 62
     9
 10
0.0
 20
0.0
 30
0.0
 70
   128
 71
    82
 72
    63
 73
    71
  0
VERTEX
  5
12C
  8
0
 62
     9
 10
0.0
 20
0.0
 30
0.0
 70
   128
 71
    77
 72
    82
 73
    71
  0
VERTEX
  5
12D
  8
0
 62
     9
 10
0.0
 20
0.0
 30
0.0
 70
   128
 71
    63
 72
    82
 73
    62
  0
VERTEX
  5
12E
  8
0
 62
     9
 10
0.0
 20
0.0
 30
0.0
 70
   128
 71
    82
 72
    86
 73
    62
  0
VERTEX
  5
12F
  8
0
 62
     9
 10
0.0
 20
0.0
 30
0.0
 70
   128
 71
    67
 72
    68
 73
    85
  0
VERTEX
  5
130
  8
0
 62
     9
 10
0.0
 20
0.0
 30
0.0
 70
   128
 71
    85
 72
    65
 73
    67
  0
VERTEX
  5
131
  8
0
 62
     9
 10
0.0
 20
0.0
 30
0.0
 70
   128
 71
    90
 72
    66
 73
    65
  0
VERTEX
  5
132
  8
0
 62
     9
 10
0.0
 20
0.0
 30
0.0
 70
   128
 71
    85
 72
    90
 73
    65
  0
VERTEX
  5
133
  8
0
 62
     9
 10
0.0
 20
0.0
 30
0.0
 70
   128
 71
    69
 72
    66
 73
    88
  0
VERTEX
  5
134
  8
0
 62
     9
 10
0.0
 20
0.0
 30
0.0
 70
   128
 71
    90
 72
    88
 73
    66
  0
VERTEX
  5
135
  8
0
 62
     9
 10
0.0
 20
0.0
 30
0.0
 70
   128
 71
    69
 72
    88
 73
    70
  0
VERTEX
  5
136
  8
0
 62
     9
 10
0.0
 20
0.0
 30
0.0
 70
   128
 71
    92
 72
    70
 73
    88
  0
VERTEX
  5
137
  8
0
 62
     9
 10
0.0
 20
0.0
 30
0.0
 70
   128
 71
    70
 72
    92
 73
    35
  0
VERTEX
  5
138
  8
0
 62
     9
 10
0.0
 20
0.0
 30
0.0
 70
   128
 71
     3
 72
    81
 73
    32
  0
VERTEX
  5
139
  8
0
 62
     9
 10
0.0
 20
0.0
 30
0.0
 70
   128
 71
    84
 72
    93
 73
    83
  0
VERTEX
  5
13A
  8
0
 62
     9
 10
0.0
 20
0.0
 30
0.0
 70
   128
 71
    93
 72
    91
 73
    83
  0
VERTEX
  5
13B
  8
0
 62
     9
 10
0.0
 20
0.0
 30
0.0
 70
   128
 71
    84
 72
    80
 73
     1
  0
VERTEX
  5
13C
  8
0
 62
     9
 10
0.0
 20
0.0
 30
0.0
 70
   128
 71
    93
 72
    89
 73
    91
  0
VERTEX
  5
13D
  8
0
 62
     9
 10
0.0
 20
0.0
 30
0.0
 70
   128
 71
    89
 72
    87
 73
    91
  0
VERTEX
  5
13E
  8
0
 62
     9
 10
0.0
 20
0.0
 30
0.0
 70
   128
 71
    93
 72
    84
 73
     1
  0
VERTEX
  5
13F
  8
0
 62
     9
 10
0.0
 20
0.0
 30
0.0
 70
   128
 71
    80
 72
    81
 73
     3
  0
VERTEX
  5
140
  8
0
 62
     9
 10
0.0
 20
0.0
 30
0.0
 70
   128
 71
    80
 72
     3
 73
     1
  0
VERTEX
  5
141
  8
0
 62
     9
 10
0.0
 20
0.0
 30
0.0
 70
   128
 71
    78
 72
    31
 73
    32
  0
VERTEX
  5
142
  8
0
 62
     9
 10
0.0
 20
0.0
 30
0.0
 70
   128
 71
    78
 72
    32
 73
    81
  0
VERTEX
  5
143
  8
0
 62
     9
 10
0.0
 20
0.0
 30
0.0
 70
   128
 71
    78
 72
    76
 73
    31
  0
VERTEX
  5
144
  8
0
 62
     9
 10
0.0
 20
0.0
 30
0.0
 70
   128
 71
    76
 72
    26
 73
    31
  0
VERTEX
  5
145
  8
0
 62
     9
 10
0.0
 20
0.0
 30
0.0
 70
   128
 71
    26
 72
    79
 73
    25
  0
VERTEX
  5
146
  8
0
 62
     9
 10
0.0
 20
0.0
 30
0.0
 70
   128
 71
    79
 72
    26
 73
    76
  0
VERTEX
  5
147
  8
0
 62
     9
 10
0.0
 20
0.0
 30
0.0
 70
   128
 71
    79
 72
    73
 73
    25
  0
VERTEX
  5
148
  8
0
 62
     9
 10
0.0
 20
0.0
 30
0.0
 70
   128
 71
    22
 72
    73
 73
    17
  0
VERTEX
  5
149
  8
0
 62
     9
 10
0.0
 20
0.0
 30
0.0
 70
   128
 71
    73
 72
    22
 73
    25
  0
VERTEX
  5
14A
  8
0
 62
     9
 10
0.0
 20
0.0
 30
0.0
 70
   128
 71
     5
 72
     6
 73
    18
  0
VERTEX
  5
14B
  8
0
 62
     9
 10
0.0
 20
0.0
 30
0.0
 70
   128
 71
     6
 72
    22
 73
    17
  0
VERTEX
  5
14C
  8
0
 62
     9
 10
0.0
 20
0.0
 30
0.0
 70
   128
 71
    18
 72
    12
 73
     5
  0
VERTEX
  5
14D
  8
0
 62
     9
 10
0.0
 20
0.0
 30
0.0
 70
   128
 71
    12
 72
    11
 73
     5
  0
VERTEX
  5
14E
  8
0
 62
     9
 10
0.0
 20
0.0
 30
0.0
 70
   128
 71
     6
 72
    17
 73
    18
  0
VERTEX
  5
14F
  8
0
 62
     9
 10
0.0
 20
0.0
 30
0.0
 70
   128
 71
    18
 72
    16
 73
    12
  0
SEQEND
  5
150
  8
0
 62
     9
  0
ENDBLK
  5
154
  8
0
  0
BLOCK
  8
0
  2
39
 70
     0
 10
0.0
 20
0.0
 30
0.0
  3
39
  1

  0
POLYLINE
  5
156
  8
0
 66
     1
 10
0.0
 20
0.0
 30
0.0
 70
    64
 71
   442
 72
   880
  0
VERTEX
  5
157
  8
0
 10
0.1654785126447678
 20
20.28358459472656
 30
133.6591949462891
 70
   192
  0
VERTEX
  5
158
  8
0
 10
2.217482566833496
 20
26.93813323974609
 30
101.2441329956055
 70
   192
  0
VERTEX
  5
159
  8
0
 10
0.1586295664310455
 20
23.5101432800293
 30
118.0970611572266
 70
   192
  0
VERTEX
  5
15A
  8
0
 10
6.635234355926514
 20
-19.67534065246582
 30
132.0460968017578
 70
   192
  0
VERTEX
  5
15B
  8
0
 10
3.422620058059692
 20
-20.24054718017578
 30
132.846923828125
 70
   192
  0
VERTEX
  5
15C
  8
0
 10
7.903168678283691
 20
-25.97697830200195
 30
101.2441329956055
 70
   192
  0
VERTEX
  5
15D
  8
0
 10
3.424880743026733
 20
20.2393856048584
 30
132.8463897705078
 70
   192
  0
VERTEX
  5
15E
  8
0
 10
12.59237003326416
 20
17.00502395629883
 30
130.5608062744141
 70
   192
  0
VERTEX
  5
15F
  8
0
 10
13.24775886535645
 20
23.81076622009277
 30
101.2441329956055
 70
   192
  0
VERTEX
  5
160
  8
0
 10
9.722236633300781
 20
18.59589576721191
 30
131.2764129638672
 70
   192
  0
VERTEX
  5
161
  8
0
 10
7.900316715240479
 20
25.9770336151123
 30
101.2441329956055
 70
   192
  0
VERTEX
  5
162
  8
0
 10
6.637091159820557
 20
19.67560195922852
 30
132.045654296875
 70
   192
  0
VERTEX
  5
163
  8
0
 10
21.85922241210938
 20
16.24677658081055
 30
101.2441329956055
 70
   192
  0
VERTEX
  5
164
  8
0
 10
17.37406158447266
 20
12.47660160064697
 30
129.3686065673828
 70
   192
  0
VERTEX
  5
165
  8
0
 10
19.16132736206055
 20
9.668813705444336
 30
128.9229888916016
 70
   192
  0
VERTEX
  5
166
  8
0
 10
17.97152900695801
 20
20.50605773925781
 30
101.2441329956055
 70
   192
  0
VERTEX
  5
167
  8
0
 10
15.16449451446533
 20
14.94629287719727
 30
129.9195251464844
 70
   192
  0
VERTEX
  5
168
  8
0
 10
26.55354881286621
 20
5.769218921661377
 30
101.2441329956055
 70
   192
  0
VERTEX
  5
169
  8
0
 10
20.4791202545166
 20
6.598145484924316
 30
128.5944213867188
 70
   192
  0
VERTEX
  5
16A
  8
0
 10
21.28865242004395
 20
3.34477424621582
 30
128.3925933837891
 70
   192
  0
VERTEX
  5
16B
  8
0
 10
24.75521278381348
 20
11.26298332214355
 30
101.2441329956055
 70
   192
  0
VERTEX
  5
16C
  8
0
 10
21.28797340393066
 20
-3.347810983657837
 30
128.3927612304688
 70
   192
  0
VERTEX
  5
16D
  8
0
 10
20.47843170166016
 20
-6.599891185760498
 30
128.5946044921875
 70
   192
  0
VERTEX
  5
16E
  8
0
 10
26.55424690246582
 20
-5.767012596130371
 30
101.2441329956055
 70
   192
  0
VERTEX
  5
16F
  8
0
 10
27.16701889038086
 20
-0.0000000000269189
 30
101.2441329956055
 70
   192
  0
VERTEX
  5
170
  8
0
 10
21.56191825866699
 20
-0.0000000000269545
 30
128.324462890625
 70
   192
  0
VERTEX
  5
171
  8
0
 10
21.85981369018555
 20
-16.24562644958496
 30
101.2441329956055
 70
   192
  0
VERTEX
  5
172
  8
0
 10
24.75617027282715
 20
-11.26084804534912
 30
101.2441329956055
 70
   192
  0
VERTEX
  5
173
  8
0
 10
19.16069412231445
 20
-9.670053482055664
 30
128.9231414794922
 70
   192
  0
VERTEX
  5
174
  8
0
 10
15.16437721252441
 20
-14.94643497467041
 30
129.9195404052734
 70
   192
  0
VERTEX
  5
175
  8
0
 10
17.97253036499023
 20
-20.50497436523438
 30
101.2441329956055
 70
   192
  0
VERTEX
  5
176
  8
0
 10
9.720754623413086
 20
-18.59607887268066
 30
131.2767944335938
 70
   192
  0
VERTEX
  5
177
  8
0
 10
13.25021457672119
 20
-23.80932426452637
 30
101.2441329956055
 70
   192
  0
VERTEX
  5
178
  8
0
 10
12.59020042419434
 20
-17.00672912597656
 30
130.5613555908203
 70
   192
  0
VERTEX
  5
179
  8
0
 10
0.1654785126447678
 20
-20.28358459472656
 30
133.6591949462891
 70
   192
  0
VERTEX
  5
17A
  8
0
 10
2.217482566833496
 20
-26.93813323974609
 30
101.2441329956055
 70
   192
  0
VERTEX
  5
17B
  8
0
 10
0.1586295664310455
 20
-23.5101432800293
 30
118.0970611572266
 70
   192
  0
VERTEX
  5
17C
  8
0
 10
0.1525231897830963
 20
-26.72860908508301
 30
102.5344619750977
 70
   192
  0
VERTEX
  5
17D
  8
0
 10
17.37260437011719
 20
-12.47849178314209
 30
129.3689575195312
 70
   192
  0
VERTEX
  5
17E
  8
0
 10
0.1528766751289368
 20
26.72454261779785
 30
102.5342407226562
 70
   192
  0
VERTEX
  5
17F
  8
0
 10
-7.762998580932617
 20
21.83773040771484
 30
119.3434448242188
 70
   192
  0
VERTEX
  5
180
  8
0
 10
-3.760354518890381
 20
22.88155746459961
 30
119.5355758666992
 70
   192
  0
VERTEX
  5
181
  8
0
 10
-7.526480197906494
 20
24.55925369262695
 30
107.3328399658203
 70
   192
  0
VERTEX
  5
182
  8
0
 10
-3.747291088104248
 20
25.93658828735352
 30
104.9713363647461
 70
   192
  0
VERTEX
  5
183
  8
0
 10
-11.70196151733398
 20
19.93014907836914
 30
119.1370086669922
 70
   192
  0
VERTEX
  5
184
  8
0
 10
-7.956411838531494
 20
18.00521469116211
 30
135.8619232177734
 70
   192
  0
VERTEX
  5
185
  8
0
 10
-19.78433227539062
 20
13.20260906219482
 30
114.9923934936523
 70
   192
  0
VERTEX
  5
186
  8
0
 10
-16.16805076599121
 20
10.61595439910889
 30
134.8916778564453
 70
   192
  0
VERTEX
  5
187
  8
0
 10
-14.51276206970215
 20
12.87245655059814
 30
135.0919342041016
 70
   192
  0
VERTEX
  5
188
  8
0
 10
-14.41429042816162
 20
20.01336479187012
 30
111.6368179321289
 70
   192
  0
VERTEX
  5
189
  8
0
 10
-15.36752986907959
 20
17.14960289001465
 30
118.9316482543945
 70
   192
  0
VERTEX
  5
18A
  8
0
 10
-18.4957275390625
 20
5.535041809082031
 30
134.6032867431641
 70
   192
  0
VERTEX
  5
18B
  8
0
 10
-21.65102767944336
 20
9.084887504577637
 30
116.1588363647461
 70
   192
  0
VERTEX
  5
18C
  8
0
 10
-22.82756996154785
 20
4.636558532714844
 30
116.8940200805664
 70
   192
  0
VERTEX
  5
18D
  8
0
 10
-19.1032543182373
 20
2.797518491744995
 30
134.5263671875
 70
   192
  0
VERTEX
  5
18E
  8
0
 10
-23.23031234741211
 20
-0.0013963986421004
 30
117.1456832885742
 70
   192
  0
VERTEX
  5
18F
  8
0
 10
-19.30742835998535
 20
-0.0000000003752705
 30
134.5000305175781
 70
   192
  0
VERTEX
  5
190
  8
0
 10
-10.37603092193604
 20
16.6136302947998
 30
135.5787506103516
 70
   192
  0
VERTEX
  5
191
  8
0
 10
-12.57070350646973
 20
14.88435363769531
 30
135.3219451904297
 70
   192
  0
VERTEX
  5
192
  8
0
 10
-11.11448669433594
 20
22.58383369445801
 30
109.5748748779297
 70
   192
  0
VERTEX
  5
193
  8
0
 10
0.1668840944766998
 20
19.62141418457031
 30
136.8529205322266
 70
   192
  0
VERTEX
  5
194
  8
0
 10
-2.615554332733154
 20
19.5151309967041
 30
136.5023345947266
 70
   192
  0
VERTEX
  5
195
  8
0
 10
-17.51069450378418
 20
8.158575057983398
 30
134.726318359375
 70
   192
  0
VERTEX
  5
196
  8
0
 10
-17.33920860290527
 20
16.86565780639648
 30
113.4645080566406
 70
   192
  0
VERTEX
  5
197
  8
0
 10
-5.349703788757324
 20
18.99251174926758
 30
136.1699829101562
 70
   192
  0
VERTEX
  5
198
  8
0
 10
-22.82608795166016
 20
-4.641069412231445
 30
116.8930969238281
 70
   192
  0
VERTEX
  5
199
  8
0
 10
-19.00741767883301
 20
-3.380397081375122
 30
134.5387115478516
 70
   192
  0
VERTEX
  5
19A
  8
0
 10
-7.526506900787354
 20
-24.55811500549316
 30
107.3328552246094
 70
   192
  0
VERTEX
  5
19B
  8
0
 10
-3.731055021286011
 20
-22.87784576416016
 30
119.5355911254883
 70
   192
  0
VERTEX
  5
19C
  8
0
 10
-7.708372592926025
 20
-21.85268402099609
 30
119.3450469970703
 70
   192
  0
VERTEX
  5
19D
  8
0
 10
-18.13298988342285
 20
-6.642583847045898
 30
134.6485900878906
 70
   192
  0
VERTEX
  5
19E
  8
0
 10
-6.759280204772949
 20
-18.52001762390137
 30
136.0028076171875
 70
   192
  0
VERTEX
  5
19F
  8
0
 10
-11.62744235992432
 20
-19.97421455383301
 30
119.1399993896484
 70
   192
  0
VERTEX
  5
1A0
  8
0
 10
0.1668644398450851
 20
-19.62282562255859
 30
136.8529357910156
 70
   192
  0
VERTEX
  5
1A1
  8
0
 10
-1.680772066116333
 20
-19.58765029907227
 30
136.6200256347656
 70
   192
  0
VERTEX
  5
1A2
  8
0
 10
-3.510362386703491
 20
-19.39861869812012
 30
136.3930358886719
 70
   192
  0
VERTEX
  5
1A3
  8
0
 10
-3.746362924575806
 20
-25.93649101257324
 30
104.9707565307617
 70
   192
  0
VERTEX
  5
1A4
  8
0
 10
-17.3346004486084
 20
-16.87018013000488
 30
113.4616317749023
 70
   192
  0
VERTEX
  5
1A5
  8
0
 10
-15.27287673950195
 20
-17.23247528076172
 30
118.9362030029297
 70
   192
  0
VERTEX
  5
1A6
  8
0
 10
-14.81185436248779
 20
-12.51331615447998
 30
135.0557403564453
 70
   192
  0
VERTEX
  5
1A7
  8
0
 10
-11.11136627197266
 20
-22.58525276184082
 30
109.5729217529297
 70
   192
  0
VERTEX
  5
1A8
  8
0
 10
-14.41259479522705
 20
-20.01370048522949
 30
111.6357574462891
 70
   192
  0
VERTEX
  5
1A9
  8
0
 10
-9.787175178527832
 20
-16.99957084655762
 30
135.6472778320312
 70
   192
  0
VERTEX
  5
1AA
  8
0
 10
-12.47718906402588
 20
-14.9707555770874
 30
135.3331146240234
 70
   192
  0
VERTEX
  5
1AB
  8
0
 10
-19.78121948242188
 20
-13.20504093170166
 30
114.9904479980469
 70
   192
  0
VERTEX
  5
1AC
  8
0
 10
-16.6948356628418
 20
-9.742070198059082
 30
134.8268585205078
 70
   192
  0
VERTEX
  5
1AD
  8
0
 10
-21.6467342376709
 20
-9.094206809997559
 30
116.1561508178711
 70
   192
  0
VERTEX
  5
1AE
  8
0
 10
78.25582885742188
 20
19.92709541320801
 30
143.2471618652344
 70
   192
  0
VERTEX
  5
1AF
  8
0
 10
82.52151489257812
 20
18.43166732788086
 30
143.7709045410156
 70
   192
  0
VERTEX
  5
1B0
  8
0
 10
76.78466033935547
 20
10.44013023376465
 30
141.9823150634766
 70
   192
  0
VERTEX
  5
1B1
  8
0
 10
83.3047103881836
 20
4.876914978027344
 30
142.7742614746094
 70
   192
  0
VERTEX
  5
1B2
  8
0
 10
89.44950866699219
 20
12.67343521118164
 30
144.6215515136719
 70
   192
  0
VERTEX
  5
1B3
  8
0
 10
91.85098266601562
 20
8.815732955932617
 30
144.9164276123047
 70
   192
  0
VERTEX
  5
1B4
  8
0
 10
73.79158782958984
 20
10.98519802093506
 30
141.6404724121094
 70
   192
  0
VERTEX
  5
1B5
  8
0
 10
73.7542953491211
 20
20.2836742401123
 30
142.6943206787109
 70
   192
  0
VERTEX
  5
1B6
  8
0
 10
80.36640167236328
 20
8.566427230834961
 30
142.4181060791016
 70
   192
  0
VERTEX
  5
1B7
  8
0
 10
74.25660705566406
 20
1.563688993453979
 30
141.2654113769531
 70
   192
  0
VERTEX
  5
1B8
  8
0
 10
73.75647735595703
 20
1.637432217597961
 30
141.2049713134766
 70
   192
  0
VERTEX
  5
1B9
  8
0
 10
86.29668426513672
 20
15.93578624725342
 30
144.2344360351562
 70
   192
  0
VERTEX
  5
1BA
  8
0
 10
93.36620330810547
 20
4.525974750518799
 30
145.1024780273438
 70
   192
  0
VERTEX
  5
1BB
  8
0
 10
75.29483795166016
 20
0.5116780996322632
 30
141.3874359130859
 70
   192
  0
VERTEX
  5
1BC
  8
0
 10
84.36042022705078
 20
0.0000000011790046
 30
142.8999633789062
 70
   192
  0
VERTEX
  5
1BD
  8
0
 10
75.3786392211914
 20
-0.0000000000366057
 30
141.3970642089844
 70
   192
  0
VERTEX
  5
1BE
  8
0
 10
93.8856201171875
 20
-0.000000048658432
 30
145.1662750244141
 70
   192
  0
VERTEX
  5
1BF
  8
0
 10
75.05937957763672
 20
0.9704793691635132
 30
141.3602142333984
 70
   192
  0
VERTEX
  5
1C0
  8
0
 10
74.69901275634766
 20
1.335056900978088
 30
141.3180847167969
 70
   192
  0
VERTEX
  5
1C1
  8
0
 10
73.75505828857422
 20
-0.0000010217721638
 30
141.1946868896484
 70
   192
  0
VERTEX
  5
1C2
  8
0
 10
75.2942886352539
 20
-0.511479914188385
 30
141.3874053955078
 70
   192
  0
VERTEX
  5
1C3
  8
0
 10
75.05933380126953
 20
-0.9707008600234985
 30
141.3602752685547
 70
   192
  0
VERTEX
  5
1C4
  8
0
 10
74.69902801513672
 20
-1.335120558738708
 30
141.3181610107422
 70
   192
  0
VERTEX
  5
1C5
  8
0
 10
74.25653839111328
 20
-1.563540101051331
 30
141.2654418945312
 70
   192
  0
VERTEX
  5
1C6
  8
0
 10
73.75513458251953
 20
-1.637447595596313
 30
141.2042541503906
 70
   192
  0
VERTEX
  5
1C7
  8
0
 10
73.7525634765625
 20
-20.2824821472168
 30
142.6998596191406
 70
   192
  0
VERTEX
  5
1C8
  8
0
 10
24.60034942626953
 20
-20.23265075683594
 30
136.6595611572266
 70
   192
  0
VERTEX
  5
1C9
  8
0
 10
24.90495491027832
 20
-18.23070335388184
 30
136.4136199951172
 70
   192
  0
VERTEX
  5
1CA
  8
0
 10
25.17469024658203
 20
-16.22591400146484
 30
136.1930084228516
 70
   192
  0
VERTEX
  5
1CB
  8
0
 10
25.41000556945801
 20
-14.21385097503662
 30
135.9973449707031
 70
   192
  0
VERTEX
  5
1CC
  8
0
 10
25.61073684692383
 20
-12.19454193115234
 30
135.8267211914062
 70
   192
  0
VERTEX
  5
1CD
  8
0
 10
73.77225494384766
 20
-10.98370456695557
 30
141.6365966796875
 70
   192
  0
VERTEX
  5
1CE
  8
0
 10
26.00274085998535
 20
-6.11368465423584
 30
135.4682312011719
 70
   192
  0
VERTEX
  5
1CF
  8
0
 10
26.06371307373047
 20
-4.077287673950195
 30
135.3997802734375
 70
   192
  0
VERTEX
  5
1D0
  8
0
 10
25.77634429931641
 20
-10.17182731628418
 30
135.6816558837891
 70
   192
  0
VERTEX
  5
1D1
  8
0
 10
26.08940315246582
 20
-2.041876316070557
 30
135.3574829101562
 70
   192
  0
VERTEX
  5
1D2
  8
0
 10
26.08149147033691
 20
0.0000285347869067
 30
135.3412322998047
 70
   192
  0
VERTEX
  5
1D3
  8
0
 10
26.02066040039062
 20
2.056334257125854
 30
135.3490753173828
 70
   192
  0
VERTEX
  5
1D4
  8
0
 10
25.5899715423584
 20
6.14279842376709
 30
135.4180908203125
 70
   192
  0
VERTEX
  5
1D5
  8
0
 10
25.86099243164062
 20
4.105404376983643
 30
135.3753662109375
 70
   192
  0
VERTEX
  5
1D6
  8
0
 10
24.73902130126953
 20
10.16136360168457
 30
135.552490234375
 70
   192
  0
VERTEX
  5
1D7
  8
0
 10
25.21475028991699
 20
8.162986755371094
 30
135.4773254394531
 70
   192
  0
VERTEX
  5
1D8
  8
0
 10
23.50407028198242
 20
14.07715129852295
 30
135.7477569580078
 70
   192
  0
VERTEX
  5
1D9
  8
0
 10
24.16716384887695
 20
12.1339054107666
 30
135.6428833007812
 70
   192
  0
VERTEX
  5
1DA
  8
0
 10
22.75465202331543
 20
15.98950004577637
 30
135.8663177490234
 70
   192
  0
VERTEX
  5
1DB
  8
0
 10
21.92403984069824
 20
17.86887741088867
 30
135.9977874755859
 70
   192
  0
VERTEX
  5
1DC
  8
0
 10
20.1312255859375
 20
19.71853446960449
 30
136.0331268310547
 70
   192
  0
VERTEX
  5
1DD
  8
0
 10
25.90690231323242
 20
-8.145711898803711
 30
135.5622253417969
 70
   192
  0
VERTEX
  5
1DE
  8
0
 10
86.29808044433594
 20
-15.93525314331055
 30
144.2345886230469
 70
   192
  0
VERTEX
  5
1DF
  8
0
 10
82.52024841308594
 20
-18.43432235717773
 30
143.7707366943359
 70
   192
  0
VERTEX
  5
1E0
  8
0
 10
80.341796875
 20
-8.551907539367676
 30
142.4130859375
 70
   192
  0
VERTEX
  5
1E1
  8
0
 10
93.36637115478516
 20
-4.523504734039307
 30
145.1025085449219
 70
   192
  0
VERTEX
  5
1E2
  8
0
 10
83.30072784423828
 20
-4.819880485534668
 30
142.7750091552734
 70
   192
  0
VERTEX
  5
1E3
  8
0
 10
76.73014831542969
 20
-10.42194271087646
 30
141.9707183837891
 70
   192
  0
VERTEX
  5
1E4
  8
0
 10
91.85147094726562
 20
-8.813908576965332
 30
144.9164733886719
 70
   192
  0
VERTEX
  5
1E5
  8
0
 10
89.45049285888672
 20
-12.67180156707764
 30
144.6216735839844
 70
   192
  0
VERTEX
  5
1E6
  8
0
 10
78.25439453125
 20
-19.92703056335449
 30
143.2469635009766
 70
   192
  0
VERTEX
  5
1E7
  8
0
 10
73.7546615600586
 20
-19.62126159667969
 30
145.8890991210938
 70
   192
  0
VERTEX
  5
1E8
  8
0
 10
69.44380950927734
 20
-19.61672592163086
 30
145.3803100585938
 70
   192
  0
VERTEX
  5
1E9
  8
0
 10
13.12107563018799
 20
-19.60797119140625
 30
138.4937744140625
 70
   192
  0
VERTEX
  5
1EA
  8
0
 10
8.822822570800781
 20
-19.61197090148926
 30
137.9508819580078
 70
   192
  0
VERTEX
  5
1EB
  8
0
 10
21.10976791381836
 20
-20.23414993286133
 30
136.2308349609375
 70
   192
  0
VERTEX
  5
1EC
  8
0
 10
65.10938262939453
 20
-19.61287879943848
 30
144.8651123046875
 70
   192
  0
VERTEX
  5
1ED
  8
0
 10
60.77201461791992
 20
-19.60958099365234
 30
144.3464965820312
 70
   192
  0
VERTEX
  5
1EE
  8
0
 10
56.44984817504883
 20
-19.60669708251953
 30
143.8276672363281
 70
   192
  0
VERTEX
  5
1EF
  8
0
 10
52.12247085571289
 20
-19.60426330566406
 30
143.3061065673828
 70
   192
  0
VERTEX
  5
1F0
  8
0
 10
47.78116607666016
 20
-19.60233879089355
 30
142.7805328369141
 70
   192
  0
VERTEX
  5
1F1
  8
0
 10
43.39849472045898
 20
-19.60092353820801
 30
142.24755859375
 70
   192
  0
VERTEX
  5
1F2
  8
0
 10
34.75908279418945
 20
-19.59982109069824
 30
141.1892852783203
 70
   192
  0
VERTEX
  5
1F3
  8
0
 10
39.07681274414062
 20
-19.60008811950684
 30
141.7194519042969
 70
   192
  0
VERTEX
  5
1F4
  8
0
 10
26.10639381408691
 20
-19.60104751586914
 30
140.1191253662109
 70
   192
  0
VERTEX
  5
1F5
  8
0
 10
30.45185089111328
 20
-19.60012626647949
 30
140.6578674316406
 70
   192
  0
VERTEX
  5
1F6
  8
0
 10
17.45370292663574
 20
-19.60488128662109
 30
139.0386657714844
 70
   192
  0
VERTEX
  5
1F7
  8
0
 10
21.78902626037598
 20
-19.60260391235352
 30
139.5813293457031
 70
   192
  0
VERTEX
  5
1F8
  8
0
 10
14.12890434265137
 20
-20.24208831787109
 30
135.3736877441406
 70
   192
  0
VERTEX
  5
1F9
  8
0
 10
17.6185302734375
 20
-20.23718070983887
 30
135.8021545410156
 70
   192
  0
VERTEX
  5
1FA
  8
0
 10
4.456399440765381
 20
-19.61721801757812
 30
137.3974609375
 70
   192
  0
VERTEX
  5
1FB
  8
0
 10
7.146860122680664
 20
-20.26168823242188
 30
134.5164031982422
 70
   192
  0
VERTEX
  5
1FC
  8
0
 10
10.6373987197876
 20
-20.25059700012207
 30
134.9449768066406
 70
   192
  0
VERTEX
  5
1FD
  8
0
 10
3.656169176101685
 20
-20.27263641357422
 30
134.0877990722656
 70
   192
  0
VERTEX
  5
1FE
  8
0
 10
80.82115936279297
 20
-18.46904373168945
 30
146.7475280761719
 70
   192
  0
VERTEX
  5
1FF
  8
0
 10
84.01494598388672
 20
-16.80133819580078
 30
147.1540679931641
 70
   192
  0
VERTEX
  5
200
  8
0
 10
92.43348693847656
 20
5.332872867584229
 30
148.1981201171875
 70
   192
  0
VERTEX
  5
201
  8
0
 10
91.162109375
 20
8.720812797546387
 30
148.0463714599609
 70
   192
  0
VERTEX
  5
202
  8
0
 10
86.85951232910156
 20
14.49356651306152
 30
147.5143127441406
 70
   192
  0
VERTEX
  5
203
  8
0
 10
89.2745590209961
 20
11.80816650390625
 30
147.8158416748047
 70
   192
  0
VERTEX
  5
204
  8
0
 10
84.06372833251953
 20
16.76882934570312
 30
147.1601409912109
 70
   192
  0
VERTEX
  5
205
  8
0
 10
80.87472534179688
 20
18.44524574279785
 30
146.7554016113281
 70
   192
  0
VERTEX
  5
206
  8
0
 10
77.40643310546875
 20
19.39853668212891
 30
146.3248748779297
 70
   192
  0
VERTEX
  5
207
  8
0
 10
73.81300354003906
 20
19.62118911743164
 30
145.8965911865234
 70
   192
  0
VERTEX
  5
208
  8
0
 10
93.14447784423828
 20
1.782063841819763
 30
148.2806549072266
 70
   192
  0
VERTEX
  5
209
  8
0
 10
93.13102722167969
 20
-1.841704249382019
 30
148.2790832519531
 70
   192
  0
VERTEX
  5
20A
  8
0
 10
92.45465087890625
 20
-5.403384685516357
 30
148.2008666992188
 70
   192
  0
VERTEX
  5
20B
  8
0
 10
91.1336898803711
 20
-8.777178764343262
 30
148.0437622070312
 70
   192
  0
VERTEX
  5
20C
  8
0
 10
89.2067642211914
 20
-11.83561038970947
 30
147.8076019287109
 70
   192
  0
VERTEX
  5
20D
  8
0
 10
86.84566497802734
 20
-14.56474494934082
 30
147.5130004882812
 70
   192
  0
VERTEX
  5
20E
  8
0
 10
77.34846496582031
 20
-19.40877342224121
 30
146.3182830810547
 70
   192
  0
VERTEX
  5
20F
  8
0
 10
77.24512481689453
 20
18.82117462158203
 30
146.8152008056641
 70
   192
  0
VERTEX
  5
210
  8
0
 10
73.76560974121094
 20
19.44659996032715
 30
146.2981262207031
 70
   192
  0
VERTEX
  5
211
  8
0
 10
73.75385284423828
 20
19.0175666809082
 30
146.3994903564453
 70
   192
  0
VERTEX
  5
212
  8
0
 10
61.74189376831055
 20
-19.43824577331543
 30
144.8709106445312
 70
   192
  0
VERTEX
  5
213
  8
0
 10
57.28676986694336
 20
-19.435791015625
 30
144.3373870849609
 70
   192
  0
VERTEX
  5
214
  8
0
 10
66.16848754882812
 20
-19.44121170043945
 30
145.3983612060547
 70
   192
  0
VERTEX
  5
215
  8
0
 10
52.83125686645508
 20
-19.43386459350586
 30
143.8011779785156
 70
   192
  0
VERTEX
  5
216
  8
0
 10
48.39278793334961
 20
-19.43246459960938
 30
143.2643890380859
 70
   192
  0
VERTEX
  5
217
  8
0
 10
43.98018646240234
 20
-19.43158340454102
 30
142.7281036376953
 70
   192
  0
VERTEX
  5
218
  8
0
 10
35.22922897338867
 20
-19.43126678466797
 30
141.6566619873047
 70
   192
  0
VERTEX
  5
219
  8
0
 10
39.59403610229492
 20
-19.43119430541992
 30
142.1923828125
 70
   192
  0
VERTEX
  5
21A
  8
0
 10
30.87779426574707
 20
-19.43178176879883
 30
141.1199645996094
 70
   192
  0
VERTEX
  5
21B
  8
0
 10
26.53071403503418
 20
-19.4327335357666
 30
140.5812225341797
 70
   192
  0
VERTEX
  5
21C
  8
0
 10
22.18054580688477
 20
-19.43415260314941
 30
140.0395050048828
 70
   192
  0
VERTEX
  5
21D
  8
0
 10
17.8245735168457
 20
-19.43610000610352
 30
139.4944610595703
 70
   192
  0
VERTEX
  5
21E
  8
0
 10
13.46612071990967
 20
-19.43865203857422
 30
138.9464721679688
 70
   192
  0
VERTEX
  5
21F
  8
0
 10
9.118579864501953
 20
-19.44184303283691
 30
138.3973388671875
 70
   192
  0
VERTEX
  5
220
  8
0
 10
4.807217597961426
 20
-19.44561576843262
 30
137.8505554199219
 70
   192
  0
VERTEX
  5
221
  8
0
 10
0.5707500576972961
 20
-19.44733238220215
 30
137.3117218017578
 70
   192
  0
VERTEX
  5
222
  8
0
 10
-3.531208992004395
 20
-19.2219352722168
 30
136.7958374023438
 70
   192
  0
VERTEX
  5
223
  8
0
 10
0.1032328829169273
 20
-19.01983070373535
 30
137.3554229736328
 70
   192
  0
VERTEX
  5
224
  8
0
 10
-3.475249528884888
 20
-18.79685211181641
 30
136.9032135009766
 70
   192
  0
VERTEX
  5
225
  8
0
 10
70.5246353149414
 20
-19.44634628295898
 30
145.9147338867188
 70
   192
  0
VERTEX
  5
226
  8
0
 10
74.75167846679688
 20
-19.45016860961914
 30
146.4137573242188
 70
   192
  0
VERTEX
  5
227
  8
0
 10
78.71275329589844
 20
-18.95737075805664
 30
146.8919677734375
 70
   192
  0
VERTEX
  5
228
  8
0
 10
82.2627944946289
 20
-17.61277198791504
 30
147.3372802734375
 70
   192
  0
VERTEX
  5
229
  8
0
 10
85.38064575195312
 20
-15.59378719329834
 30
147.7331390380859
 70
   192
  0
VERTEX
  5
22A
  8
0
 10
86.4174575805664
 20
-14.14169406890869
 30
147.9697265625
 70
   192
  0
VERTEX
  5
22B
  8
0
 10
83.6665267944336
 20
-16.31670570373535
 30
147.6202239990234
 70
   192
  0
VERTEX
  5
22C
  8
0
 10
88.04490661621094
 20
-13.05070686340332
 30
148.0685577392578
 70
   192
  0
VERTEX
  5
22D
  8
0
 10
90.21833038330078
 20
-10.0725269317627
 30
148.3363494873047
 70
   192
  0
VERTEX
  5
22E
  8
0
 10
91.83124542236328
 20
-6.724637985229492
 30
148.5301666259766
 70
   192
  0
VERTEX
  5
22F
  8
0
 10
92.79898071289062
 20
-3.069484949111938
 30
148.6439819335938
 70
   192
  0
VERTEX
  5
230
  8
0
 10
93.02992248535156
 20
0.8019133806228638
 30
148.6708679199219
 70
   192
  0
VERTEX
  5
231
  8
0
 10
92.44768524169922
 20
4.750063419342041
 30
148.6032104492188
 70
   192
  0
VERTEX
  5
232
  8
0
 10
92.54158782958984
 20
-1.790940880775452
 30
148.7187957763672
 70
   192
  0
VERTEX
  5
233
  8
0
 10
91.02629089355469
 20
8.589945793151855
 30
148.4342193603516
 70
   192
  0
VERTEX
  5
234
  8
0
 10
92.54586791992188
 20
1.730748057365417
 30
148.71923828125
 70
   192
  0
VERTEX
  5
235
  8
0
 10
91.89249420166016
 20
5.190615177154541
 30
148.6424102783203
 70
   192
  0
VERTEX
  5
236
  8
0
 10
88.79777526855469
 20
12.13984203338623
 30
148.1622924804688
 70
   192
  0
VERTEX
  5
237
  8
0
 10
88.77869415283203
 20
11.46703910827637
 30
148.26513671875
 70
   192
  0
VERTEX
  5
238
  8
0
 10
85.83690643310547
 20
15.22507667541504
 30
147.7905120849609
 70
   192
  0
VERTEX
  5
239
  8
0
 10
82.25076293945312
 20
17.62968063354492
 30
147.3353424072266
 70
   192
  0
VERTEX
  5
23A
  8
0
 10
78.14706420898438
 20
19.08469200134277
 30
146.8220062255859
 70
   192
  0
VERTEX
  5
23B
  8
0
 10
83.71410369873047
 20
16.27629280090332
 30
147.6265716552734
 70
   192
  0
VERTEX
  5
23C
  8
0
 10
86.4566650390625
 20
14.09653949737549
 30
147.9747161865234
 70
   192
  0
VERTEX
  5
23D
  8
0
 10
80.60980224609375
 20
17.88972091674805
 30
147.2328338623047
 70
   192
  0
VERTEX
  5
23E
  8
0
 10
90.61370086669922
 20
8.467921257019043
 30
148.4894104003906
 70
   192
  0
VERTEX
  5
23F
  8
0
 10
91.87647247314453
 20
-5.24875545501709
 30
148.640625
 70
   192
  0
VERTEX
  5
240
  8
0
 10
90.549072265625
 20
-8.501507759094238
 30
148.4814453125
 70
   192
  0
VERTEX
  5
241
  8
0
 10
88.74099731445312
 20
-11.51409721374512
 30
148.260498046875
 70
   192
  0
VERTEX
  5
242
  8
0
 10
80.54940795898438
 20
-17.90100479125977
 30
147.2250213623047
 70
   192
  0
VERTEX
  5
243
  8
0
 10
77.18545532226562
 20
-18.82626533508301
 30
146.8079833984375
 70
   192
  0
VERTEX
  5
244
  8
0
 10
73.6952896118164
 20
-19.01932525634766
 30
146.3925476074219
 70
   192
  0
VERTEX
  5
245
  8
0
 10
69.36370086669922
 20
-19.01609039306641
 30
145.8821105957031
 70
   192
  0
VERTEX
  5
246
  8
0
 10
65.0324935913086
 20
-19.01317596435547
 30
145.3690643310547
 70
   192
  0
VERTEX
  5
247
  8
0
 10
60.70163726806641
 20
-19.01060676574707
 30
144.8533935546875
 70
   192
  0
VERTEX
  5
248
  8
0
 10
56.37110137939453
 20
-19.00840759277344
 30
144.3350830078125
 70
   192
  0
VERTEX
  5
249
  8
0
 10
52.04087448120117
 20
-19.00661277770996
 30
143.8141326904297
 70
   192
  0
VERTEX
  5
24A
  8
0
 10
47.71095275878906
 20
-19.00525283813477
 30
143.2905120849609
 70
   192
  0
VERTEX
  5
24B
  8
0
 10
43.38134384155273
 20
-19.00436973571777
 30
142.7642364501953
 70
   192
  0
VERTEX
  5
24C
  8
0
 10
39.05321502685547
 20
-19.00404167175293
 30
142.2353515625
 70
   192
  0
VERTEX
  5
24D
  8
0
 10
34.72279739379883
 20
-19.00418663024902
 30
141.7036590576172
 70
   192
  0
VERTEX
  5
24E
  8
0
 10
30.3946590423584
 20
-19.00469017028809
 30
141.1694641113281
 70
   192
  0
VERTEX
  5
24F
  8
0
 10
26.06575965881348
 20
-19.00558090209961
 30
140.6324768066406
 70
   192
  0
VERTEX
  5
250
  8
0
 10
21.73806190490723
 20
-19.00704765319824
 30
140.0929260253906
 70
   192
  0
VERTEX
  5
251
  8
0
 10
17.41049385070801
 20
-19.00954246520996
 30
139.5506591796875
 70
   192
  0
VERTEX
  5
252
  8
0
 10
13.08364486694336
 20
-19.01213645935059
 30
139.0021209716797
 70
   192
  0
VERTEX
  5
253
  8
0
 10
8.756840705871582
 20
-19.01469993591309
 30
138.4532165527344
 70
   192
  0
VERTEX
  5
254
  8
0
 10
4.430036544799805
 20
-19.01726531982422
 30
137.9043273925781
 70
   192
  0
VERTEX
  5
255
  8
0
 10
22.20272064208984
 20
10.69723987579346
 30
135.1250610351562
 70
   192
  0
VERTEX
  5
256
  8
0
 10
23.47748374938965
 20
6.539131164550781
 30
135.0568389892578
 70
   192
  0
VERTEX
  5
257
  8
0
 10
22.90145683288574
 20
8.638984680175781
 30
135.0807189941406
 70
   192
  0
VERTEX
  5
258
  8
0
 10
23.91414642333984
 20
4.395989418029785
 30
135.0478515625
 70
   192
  0
VERTEX
  5
259
  8
0
 10
20.42330932617188
 20
7.585654735565186
 30
133.3042907714844
 70
   192
  0
VERTEX
  5
25A
  8
0
 10
19.56946182250977
 20
8.298129081726074
 30
131.9598846435547
 70
   192
  0
VERTEX
  5
25B
  8
0
 10
19.5268497467041
 20
9.771214485168457
 30
133.2972412109375
 70
   192
  0
VERTEX
  5
25C
  8
0
 10
24.19109725952148
 20
2.212683916091919
 30
135.0472717285156
 70
   192
  0
VERTEX
  5
25D
  8
0
 10
24.64830207824707
 20
-0.0000000000295392
 30
135.1366424560547
 70
   192
  0
VERTEX
  5
25E
  8
0
 10
23.26774597167969
 20
-0.0000000000268845
 30
134.6977996826172
 70
   192
  0
VERTEX
  5
25F
  8
0
 10
22.69391250610352
 20
2.420393705368042
 30
134.4335174560547
 70
   192
  0
VERTEX
  5
260
  8
0
 10
21.74534606933594
 20
6.974080085754395
 30
134.3662109375
 70
   192
  0
VERTEX
  5
261
  8
0
 10
20.97348594665527
 20
3.22350001335144
 30
130.299072265625
 70
   192
  0
VERTEX
  5
262
  8
0
 10
21.39322662353516
 20
12.71673488616943
 30
135.1944732666016
 70
   192
  0
VERTEX
  5
263
  8
0
 10
20.48113059997559
 20
14.69722270965576
 30
135.2922821044922
 70
   192
  0
VERTEX
  5
264
  8
0
 10
18.03609085083008
 20
15.06012344360352
 30
134.5841064453125
 70
   192
  0
VERTEX
  5
265
  8
0
 10
19.47453498840332
 20
16.6329460144043
 30
135.4206085205078
 70
   192
  0
VERTEX
  5
266
  8
0
 10
18.3884449005127
 20
18.51624488830566
 30
135.5812225341797
 70
   192
  0
VERTEX
  5
267
  8
0
 10
16.7552604675293
 20
16.92354202270508
 30
134.7784271240234
 70
   192
  0
VERTEX
  5
268
  8
0
 10
10.16526699066162
 20
19.99530601501465
 30
134.7039642333984
 70
   192
  0
VERTEX
  5
269
  8
0
 10
12.37945175170898
 20
18.95601844787598
 30
134.4429779052734
 70
   192
  0
VERTEX
  5
26A
  8
0
 10
9.45002555847168
 20
19.31345176696777
 30
133.8508148193359
 70
   192
  0
VERTEX
  5
26B
  8
0
 10
14.23967456817627
 20
17.38491058349609
 30
134.0301361083984
 70
   192
  0
VERTEX
  5
26C
  8
0
 10
15.32902526855469
 20
18.68709564208984
 30
135.0364837646484
 70
   192
  0
VERTEX
  5
26D
  8
0
 10
3.502991914749146
 20
20.22429466247559
 30
133.9759216308594
 70
   192
  0
VERTEX
  5
26E
  8
0
 10
6.837504863739014
 20
20.1348876953125
 30
134.3136138916016
 70
   192
  0
VERTEX
  5
26F
  8
0
 10
6.443511962890625
 20
19.74985504150391
 30
133.3160247802734
 70
   192
  0
VERTEX
  5
270
  8
0
 10
11.79443359375
 20
18.00911331176758
 30
133.26513671875
 70
   192
  0
VERTEX
  5
271
  8
0
 10
22.11314964294434
 20
-0.0000000000243605
 30
133.8383178710938
 70
   192
  0
VERTEX
  5
272
  8
0
 10
21.61773872375488
 20
2.69511079788208
 30
133.3987731933594
 70
   192
  0
VERTEX
  5
273
  8
0
 10
22.3173828125
 20
4.750285625457764
 30
134.3988952636719
 70
   192
  0
VERTEX
  5
274
  8
0
 10
21.01673698425293
 20
9.098411560058594
 30
134.3539886474609
 70
   192
  0
VERTEX
  5
275
  8
0
 10
20.15488815307617
 20
11.14285659790039
 30
134.3783111572266
 70
   192
  0
VERTEX
  5
276
  8
0
 10
19.16478538513184
 20
13.1278018951416
 30
134.4521026611328
 70
   192
  0
VERTEX
  5
277
  8
0
 10
16.8077449798584
 20
19.77653884887695
 30
135.5927276611328
 70
   192
  0
VERTEX
  5
278
  8
0
 10
21.41030502319336
 20
-0.0000000000229034
 30
132.5928955078125
 70
   192
  0
VERTEX
  5
279
  8
0
 10
20.26940155029297
 20
6.25465726852417
 30
130.3506622314453
 70
   192
  0
VERTEX
  5
27A
  8
0
 10
21.04182624816895
 20
2.981318712234497
 30
131.9871368408203
 70
   192
  0
VERTEX
  5
27B
  8
0
 10
21.13851547241211
 20
5.231435775756836
 30
133.3476715087891
 70
   192
  0
VERTEX
  5
27C
  8
0
 10
18.47636413574219
 20
11.82261085510254
 30
133.3510131835938
 70
   192
  0
VERTEX
  5
27D
  8
0
 10
17.26710319519043
 20
13.7747974395752
 30
133.4846649169922
 70
   192
  0
VERTEX
  5
27E
  8
0
 10
15.86749935150146
 20
15.6388053894043
 30
133.7099761962891
 70
   192
  0
VERTEX
  5
27F
  8
0
 10
9.269621849060059
 20
18.7882194519043
 30
132.5857238769531
 70
   192
  0
VERTEX
  5
280
  8
0
 10
13.48555946350098
 20
19.86042976379395
 30
135.1444702148438
 70
   192
  0
VERTEX
  5
281
  8
0
 10
21.1923770904541
 20
-0.0000000000227127
 30
131.1773223876953
 70
   192
  0
VERTEX
  5
282
  8
0
 10
21.2935905456543
 20
-0.000000000022114
 30
129.7413482666016
 70
   192
  0
VERTEX
  5
283
  8
0
 10
20.45328330993652
 20
5.759530067443848
 30
131.9590148925781
 70
   192
  0
VERTEX
  5
284
  8
0
 10
18.45381355285645
 20
10.60451984405518
 30
132.0207366943359
 70
   192
  0
VERTEX
  5
285
  8
0
 10
17.13764572143555
 20
12.71126842498779
 30
132.1673736572266
 70
   192
  0
VERTEX
  5
286
  8
0
 10
15.6148738861084
 20
14.6517505645752
 30
132.4188537597656
 70
   192
  0
VERTEX
  5
287
  8
0
 10
13.84836006164551
 20
16.4315071105957
 30
132.7850952148438
 70
   192
  0
VERTEX
  5
288
  8
0
 10
19.17985916137695
 20
9.035775184631348
 30
130.4698333740234
 70
   192
  0
VERTEX
  5
289
  8
0
 10
17.76523971557617
 20
11.54545211791992
 30
130.6767578125
 70
   192
  0
VERTEX
  5
28A
  8
0
 10
16.06363677978516
 20
13.78359889984131
 30
130.9867706298828
 70
   192
  0
VERTEX
  5
28B
  8
0
 10
14.08674144744873
 20
15.75269508361816
 30
131.4091339111328
 70
   192
  0
VERTEX
  5
28C
  8
0
 10
11.8254451751709
 20
17.43647193908691
 30
131.9449768066406
 70
   192
  0
VERTEX
  5
28D
  8
0
 10
22.87866592407227
 20
-16.5156364440918
 30
135.9457244873047
 70
   192
  0
VERTEX
  5
28E
  8
0
 10
24.34143447875977
 20
-2.197609663009644
 30
135.0835723876953
 70
   192
  0
VERTEX
  5
28F
  8
0
 10
23.65054702758789
 20
-6.502276420593262
 30
135.1002807617188
 70
   192
  0
VERTEX
  5
290
  8
0
 10
24.0739688873291
 20
-4.36777925491333
 30
135.0873107910156
 70
   192
  0
VERTEX
  5
291
  8
0
 10
20.46829986572266
 20
-5.740007400512695
 30
132.0120086669922
 70
   192
  0
VERTEX
  5
292
  8
0
 10
20.48293495178223
 20
-7.545165061950684
 30
133.3684387207031
 70
   192
  0
VERTEX
  5
293
  8
0
 10
19.59103202819824
 20
-8.269855499267578
 30
132.0098571777344
 70
   192
  0
VERTEX
  5
294
  8
0
 10
21.66310501098633
 20
-2.679190158843994
 30
133.4640045166016
 70
   192
  0
VERTEX
  5
295
  8
0
 10
21.18966865539551
 20
-5.201374530792236
 30
133.4127197265625
 70
   192
  0
VERTEX
  5
296
  8
0
 10
21.05305671691895
 20
-2.97172212600708
 30
132.0421752929688
 70
   192
  0
VERTEX
  5
297
  8
0
 10
20.9704704284668
 20
-3.22044825553894
 30
130.3307037353516
 70
   192
  0
VERTEX
  5
298
  8
0
 10
23.08951377868652
 20
-8.598735809326172
 30
135.1280517578125
 70
   192
  0
VERTEX
  5
299
  8
0
 10
24.3446044921875
 20
-12.53200149536133
 30
135.7017059326172
 70
   192
  0
VERTEX
  5
29A
  8
0
 10
23.65911102294922
 20
-14.54082012176514
 30
135.8166656494141
 70
   192
  0
VERTEX
  5
29B
  8
0
 10
21.61245536804199
 20
-12.68182849884033
 30
135.2465057373047
 70
   192
  0
VERTEX
  5
29C
  8
0
 10
18.66751480102539
 20
-18.50593948364258
 30
135.6257629394531
 70
   192
  0
VERTEX
  5
29D
  8
0
 10
15.54059028625488
 20
-18.67155647277832
 30
135.0771026611328
 70
   192
  0
VERTEX
  5
29E
  8
0
 10
22.00747108459473
 20
-18.45218276977539
 30
136.0874481201172
 70
   192
  0
VERTEX
  5
29F
  8
0
 10
12.53421497344971
 20
-18.93949699401855
 30
134.4748687744141
 70
   192
  0
VERTEX
  5
2A0
  8
0
 10
17.36195182800293
 20
-13.72922420501709
 30
133.5389099121094
 70
   192
  0
VERTEX
  5
2A1
  8
0
 10
18.20034027099609
 20
-15.02174186706543
 30
134.6402587890625
 70
   192
  0
VERTEX
  5
2A2
  8
0
 10
15.97855472564697
 20
-15.59890174865723
 30
133.7579956054688
 70
   192
  0
VERTEX
  5
2A3
  8
0
 10
11.88131523132324
 20
-17.98398590087891
 30
133.2908782958984
 70
   192
  0
VERTEX
  5
2A4
  8
0
 10
9.553803443908691
 20
-19.29960250854492
 30
133.8711242675781
 70
   192
  0
VERTEX
  5
2A5
  8
0
 10
6.497071743011475
 20
-19.74172592163086
 30
133.3248748779297
 70
   192
  0
VERTEX
  5
2A6
  8
0
 10
9.315521240234375
 20
-18.77344703674316
 30
132.5962371826172
 70
   192
  0
VERTEX
  5
2A7
  8
0
 10
13.91902923583984
 20
-16.39788818359375
 30
132.8162231445312
 70
   192
  0
VERTEX
  5
2A8
  8
0
 10
11.86205196380615
 20
-17.41642570495605
 30
131.9578094482422
 70
   192
  0
VERTEX
  5
2A9
  8
0
 10
20.71737098693848
 20
-14.66869163513184
 30
135.3440399169922
 70
   192
  0
VERTEX
  5
2AA
  8
0
 10
19.73048210144043
 20
-16.61257171630859
 30
135.4699401855469
 70
   192
  0
VERTEX
  5
2AB
  8
0
 10
22.40622711181641
 20
-10.65811061859131
 30
135.1754760742188
 70
   192
  0
VERTEX
  5
2AC
  8
0
 10
22.41909790039062
 20
-4.715726375579834
 30
134.4583587646484
 70
   192
  0
VERTEX
  5
2AD
  8
0
 10
21.85744094848633
 20
-6.929123401641846
 30
134.4277801513672
 70
   192
  0
VERTEX
  5
2AE
  8
0
 10
19.31327819824219
 20
-13.08275699615479
 30
134.5126495361328
 70
   192
  0
VERTEX
  5
2AF
  8
0
 10
16.94007301330566
 20
-16.89487838745117
 30
134.8279266357422
 70
   192
  0
VERTEX
  5
2B0
  8
0
 10
20.29053115844727
 20
-11.0940523147583
 30
134.4410400390625
 70
   192
  0
VERTEX
  5
2B1
  8
0
 10
21.14040756225586
 20
-9.049074172973633
 30
134.4168853759766
 70
   192
  0
VERTEX
  5
2B2
  8
0
 10
22.7879524230957
 20
-2.401577472686768
 30
134.4908752441406
 70
   192
  0
VERTEX
  5
2B3
  8
0
 10
18.55801963806152
 20
-11.77523517608643
 30
133.4100189208984
 70
   192
  0
VERTEX
  5
2B4
  8
0
 10
14.37044143676758
 20
-17.35490989685059
 30
134.0706939697266
 70
   192
  0
VERTEX
  5
2B5
  8
0
 10
19.59683609008789
 20
-9.725153923034668
 30
133.3594818115234
 70
   192
  0
VERTEX
  5
2B6
  8
0
 10
15.67015647888184
 20
-14.6142749786377
 30
132.4553833007812
 70
   192
  0
VERTEX
  5
2B7
  8
0
 10
17.17973518371582
 20
-12.67414665222168
 30
132.2090301513672
 70
   192
  0
VERTEX
  5
2B8
  8
0
 10
18.48456192016602
 20
-10.57033538818359
 30
132.06689453125
 70
   192
  0
VERTEX
  5
2B9
  8
0
 10
14.1128511428833
 20
-15.7309627532959
 30
131.4249877929688
 70
   192
  0
VERTEX
  5
2BA
  8
0
 10
16.08028030395508
 20
-13.76327705383301
 30
131.0060882568359
 70
   192
  0
VERTEX
  5
2BB
  8
0
 10
17.77392578125
 20
-11.52797889709473
 30
130.6996307373047
 70
   192
  0
VERTEX
  5
2BC
  8
0
 10
19.18251609802246
 20
-9.022652626037598
 30
130.4961700439453
 70
   192
  0
VERTEX
  5
2BD
  8
0
 10
20.26820755004883
 20
-6.246910572052002
 30
130.3800506591797
 70
   192
  0
VERTEX
  5
2BE
  8
0
 10
-16.1527156829834
 20
-9.380645751953125
 30
135.3793792724609
 70
   192
  0
VERTEX
  5
2BF
  8
0
 10
18.13179397583008
 20
-6.415934562683105
 30
140.02978515625
 70
   192
  0
VERTEX
  5
2C0
  8
0
 10
-17.56490707397461
 20
-6.431977272033691
 30
135.2029876708984
 70
   192
  0
VERTEX
  5
2C1
  8
0
 10
18.13179397583008
 20
6.416200637817383
 30
140.02978515625
 70
   192
  0
VERTEX
  5
2C2
  8
0
 10
-18.70088005065918
 20
0.0003638678463176
 30
135.0576629638672
 70
   192
  0
VERTEX
  5
2C3
  8
0
 10
26.06625556945801
 20
19.00591850280762
 30
140.6325988769531
 70
   192
  0
VERTEX
  5
2C4
  8
0
 10
30.39491653442383
 20
19.00481033325195
 30
141.1695556640625
 70
   192
  0
VERTEX
  5
2C5
  8
0
 10
17.41082954406738
 20
19.00973510742188
 30
139.5506591796875
 70
   192
  0
VERTEX
  5
2C6
  8
0
 10
21.73818206787109
 20
19.0075798034668
 30
140.0929565429688
 70
   192
  0
VERTEX
  5
2C7
  8
0
 10
39.05226516723633
 20
19.00400924682617
 30
142.2353515625
 70
   192
  0
VERTEX
  5
2C8
  8
0
 10
55.686767578125
 20
6.416200637817383
 30
144.6414947509766
 70
   192
  0
VERTEX
  5
2C9
  8
0
 10
-18.40855026245117
 20
3.300496101379395
 30
135.0952606201172
 70
   192
  0
VERTEX
  5
2CA
  8
0
 10
13.08323574066162
 20
19.01217269897461
 30
139.0057678222656
 70
   192
  0
VERTEX
  5
2CB
  8
0
 10
-17.54023551940918
 20
6.497394561767578
 30
135.2059478759766
 70
   192
  0
VERTEX
  5
2CC
  8
0
 10
-16.14125442504883
 20
9.497854232788086
 30
135.3811492919922
 70
   192
  0
VERTEX
  5
2CD
  8
0
 10
-14.26650333404541
 20
12.22299194335938
 30
135.61083984375
 70
   192
  0
VERTEX
  5
2CE
  8
0
 10
8.756328582763672
 20
19.01471328735352
 30
138.4583435058594
 70
   192
  0
VERTEX
  5
2CF
  8
0
 10
-11.97774600982666
 20
14.60531902313232
 30
135.885498046875
 70
   192
  0
VERTEX
  5
2D0
  8
0
 10
4.429748058319092
 20
19.01735305786133
 30
137.9082641601562
 70
   192
  0
VERTEX
  5
2D1
  8
0
 10
-9.328927993774414
 20
16.57226943969727
 30
136.1994171142578
 70
   192
  0
VERTEX
  5
2D2
  8
0
 10
-6.370715618133545
 20
18.02334594726562
 30
136.5511779785156
 70
   192
  0
VERTEX
  5
2D3
  8
0
 10
0.1033492907881737
 20
19.02009582519531
 30
137.3554382324219
 70
   192
  0
VERTEX
  5
2D4
  8
0
 10
-3.183184385299683
 20
18.84238052368164
 30
136.9395141601562
 70
   192
  0
VERTEX
  5
2D5
  8
0
 10
-12.11345958709717
 20
-14.48749542236328
 30
135.8692474365234
 70
   192
  0
VERTEX
  5
2D6
  8
0
 10
-14.35709190368652
 20
-12.11213397979736
 30
135.5998992919922
 70
   192
  0
VERTEX
  5
2D7
  8
0
 10
-9.515974998474121
 20
-16.45890045166016
 30
136.1770935058594
 70
   192
  0
VERTEX
  5
2D8
  8
0
 10
-6.609926223754883
 20
-17.93818473815918
 30
136.5220031738281
 70
   192
  0
VERTEX
  5
2D9
  8
0
 10
55.686767578125
 20
-6.415934562683105
 30
144.6414947509766
 70
   192
  0
VERTEX
  5
2DA
  8
0
 10
-18.41360092163086
 20
-3.268845319747925
 30
135.0948333740234
 70
   192
  0
VERTEX
  5
2DB
  8
0
 10
34.72320175170898
 20
19.00415992736816
 30
141.7037811279297
 70
   192
  0
VERTEX
  5
2DC
  8
0
 10
43.38162612915039
 20
19.00439071655273
 30
142.7642669677734
 70
   192
  0
VERTEX
  5
2DD
  8
0
 10
47.71126556396484
 20
19.00531387329102
 30
143.2904357910156
 70
   192
  0
VERTEX
  5
2DE
  8
0
 10
56.37149429321289
 20
19.00845718383789
 30
144.3351287841797
 70
   192
  0
VERTEX
  5
2DF
  8
0
 10
52.04124450683594
 20
19.00673866271973
 30
143.8138122558594
 70
   192
  0
VERTEX
  5
2E0
  8
0
 10
60.70236968994141
 20
19.010498046875
 30
144.8535766601562
 70
   192
  0
VERTEX
  5
2E1
  8
0
 10
69.3641128540039
 20
19.0150203704834
 30
145.8822021484375
 70
   192
  0
VERTEX
  5
2E2
  8
0
 10
65.0333480834961
 20
19.01272201538086
 30
145.3692321777344
 70
   192
  0
VERTEX
  5
2E3
  8
0
 10
4.493381023406982
 20
19.61612701416016
 30
137.4028472900391
 70
   192
  0
VERTEX
  5
2E4
  8
0
 10
8.819751739501953
 20
19.61162185668945
 30
137.9508361816406
 70
   192
  0
VERTEX
  5
2E5
  8
0
 10
13.14682292938232
 20
19.6078987121582
 30
138.4971008300781
 70
   192
  0
VERTEX
  5
2E6
  8
0
 10
17.47418022155762
 20
19.60492706298828
 30
139.0411834716797
 70
   192
  0
VERTEX
  5
2E7
  8
0
 10
21.80129432678223
 20
19.60268211364746
 30
139.5826263427734
 70
   192
  0
VERTEX
  5
2E8
  8
0
 10
26.12937355041504
 20
19.60111236572266
 30
140.1216278076172
 70
   192
  0
VERTEX
  5
2E9
  8
0
 10
30.45746612548828
 20
19.60020446777344
 30
140.6581420898438
 70
   192
  0
VERTEX
  5
2EA
  8
0
 10
34.7857551574707
 20
19.59988784790039
 30
141.1922760009766
 70
   192
  0
VERTEX
  5
2EB
  8
0
 10
39.11446380615234
 20
19.60014533996582
 30
141.7239074707031
 70
   192
  0
VERTEX
  5
2EC
  8
0
 10
43.44363021850586
 20
19.60121917724609
 30
142.2518005371094
 70
   192
  0
VERTEX
  5
2ED
  8
0
 10
47.77277755737305
 20
19.60238075256348
 30
142.7792510986328
 70
   192
  0
VERTEX
  5
2EE
  8
0
 10
52.1023063659668
 20
19.60412788391113
 30
143.3042297363281
 70
   192
  0
VERTEX
  5
2EF
  8
0
 10
56.43232727050781
 20
19.60664558410645
 30
143.8258819580078
 70
   192
  0
VERTEX
  5
2F0
  8
0
 10
60.76254653930664
 20
19.60978698730469
 30
144.3446197509766
 70
   192
  0
VERTEX
  5
2F1
  8
0
 10
65.093017578125
 20
19.61308288574219
 30
144.8613128662109
 70
   192
  0
VERTEX
  5
2F2
  8
0
 10
69.42372131347656
 20
19.61684989929199
 30
145.3762969970703
 70
   192
  0
VERTEX
  5
2F3
  8
0
 10
50.3669319152832
 20
19.43314170837402
 30
143.5035400390625
 70
   192
  0
VERTEX
  5
2F4
  8
0
 10
-18.72105598449707
 20
3.946664810180664
 30
134.9705810546875
 70
   192
  0
VERTEX
  5
2F5
  8
0
 10
-19.13007736206055
 20
0.3290244042873383
 30
134.918701171875
 70
   192
  0
VERTEX
  5
2F6
  8
0
 10
-18.84920120239258
 20
-3.283060550689697
 30
134.9546203613281
 70
   192
  0
VERTEX
  5
2F7
  8
0
 10
-17.88581466674805
 20
-6.808231830596924
 30
135.0769348144531
 70
   192
  0
VERTEX
  5
2F8
  8
0
 10
-16.25049591064453
 20
-10.16191005706787
 30
135.2804260253906
 70
   192
  0
VERTEX
  5
2F9
  8
0
 10
-13.96092510223389
 20
-13.24621772766113
 30
135.5578155517578
 70
   192
  0
VERTEX
  5
2FA
  8
0
 10
-11.04484462738037
 20
-15.93001079559326
 30
135.9026031494141
 70
   192
  0
VERTEX
  5
2FB
  8
0
 10
-7.543281078338623
 20
-18.0135669708252
 30
136.3137512207031
 70
   192
  0
VERTEX
  5
2FC
  8
0
 10
-17.61159515380859
 20
7.491655826568604
 30
135.1112518310547
 70
   192
  0
VERTEX
  5
2FD
  8
0
 10
-15.80151462554932
 20
10.8663158416748
 30
135.3352813720703
 70
   192
  0
VERTEX
  5
2FE
  8
0
 10
-13.30817413330078
 20
13.93633842468262
 30
135.6358642578125
 70
   192
  0
VERTEX
  5
2FF
  8
0
 10
-10.17550754547119
 20
16.53536605834961
 30
136.0051879882812
 70
   192
  0
VERTEX
  5
300
  8
0
 10
-6.436679363250732
 20
18.45195388793945
 30
136.4458160400391
 70
   192
  0
VERTEX
  5
301
  8
0
 10
-2.122591018676758
 20
19.39079284667969
 30
136.9703369140625
 70
   192
  0
VERTEX
  5
302
  8
0
 10
2.579368829727173
 20
19.45543670654297
 30
137.5670623779297
 70
   192
  0
VERTEX
  5
303
  8
0
 10
17.26944541931152
 20
19.4362735748291
 30
139.4249114990234
 70
   192
  0
VERTEX
  5
304
  8
0
 10
7.395318031311035
 20
19.4426383972168
 30
138.1791229248047
 70
   192
  0
VERTEX
  5
305
  8
0
 10
12.2990837097168
 20
19.43909454345703
 30
138.7994842529297
 70
   192
  0
VERTEX
  5
306
  8
0
 10
31.68081474304199
 20
19.4316349029541
 30
141.2191162109375
 70
   192
  0
VERTEX
  5
307
  8
0
 10
26.9822940826416
 20
19.43259429931641
 30
140.6372833251953
 70
   192
  0
VERTEX
  5
308
  8
0
 10
22.18150901794434
 20
19.43412590026855
 30
140.0396728515625
 70
   192
  0
VERTEX
  5
309
  8
0
 10
40.97249984741211
 20
19.43132400512695
 30
142.3609924316406
 70
   192
  0
VERTEX
  5
30A
  8
0
 10
36.32632827758789
 20
19.43121719360352
 30
141.7914733886719
 70
   192
  0
VERTEX
  5
30B
  8
0
 10
55.03371047973633
 20
19.43493843078613
 30
144.0666351318359
 70
   192
  0
VERTEX
  5
30C
  8
0
 10
45.65646743774414
 20
19.43194961547852
 30
142.9321594238281
 70
   192
  0
VERTEX
  5
30D
  8
0
 10
59.54287338256836
 20
19.43726921081543
 30
144.6078491210938
 70
   192
  0
VERTEX
  5
30E
  8
0
 10
67.4856185913086
 20
19.44213104248047
 30
145.5546569824219
 70
   192
  0
VERTEX
  5
30F
  8
0
 10
63.74573516845703
 20
19.43980026245117
 30
145.1098022460938
 70
   192
  0
VERTEX
  5
310
  8
0
 10
70.70092010498047
 20
19.44471740722656
 30
145.9359130859375
 70
   192
  0
VERTEX
  5
311
  8
0
 62
     9
 10
0.0
 20
0.0
 30
0.0
 70
   128
 71
     3
 72
     2
 73
     1
  0
VERTEX
  5
312
  8
0
 62
     9
 10
0.0
 20
0.0
 30
0.0
 70
   128
 71
     6
 72
     5
 73
     4
  0
VERTEX
  5
313
  8
0
 62
     9
 10
0.0
 20
0.0
 30
0.0
 70
   128
 71
     1
 72
     2
 73
     7
  0
VERTEX
  5
314
  8
0
 62
     9
 10
0.0
 20
0.0
 30
0.0
 70
   128
 71
    10
 72
     9
 73
     8
  0
VERTEX
  5
315
  8
0
 62
     9
 10
0.0
 20
0.0
 30
0.0
 70
   128
 71
    12
 72
     7
 73
    11
  0
VERTEX
  5
316
  8
0
 62
     9
 10
0.0
 20
0.0
 30
0.0
 70
   128
 71
    15
 72
    14
 73
    13
  0
VERTEX
  5
317
  8
0
 62
     9
 10
0.0
 20
0.0
 30
0.0
 70
   128
 71
    17
 72
     8
 73
    16
  0
VERTEX
  5
318
  8
0
 62
     9
 10
0.0
 20
0.0
 30
0.0
 70
   128
 71
    20
 72
    19
 73
    18
  0
VERTEX
  5
319
  8
0
 62
     9
 10
0.0
 20
0.0
 30
0.0
 70
   128
 71
    21
 72
    19
 73
    15
  0
VERTEX
  5
31A
  8
0
 62
     9
 10
0.0
 20
0.0
 30
0.0
 70
   128
 71
    24
 72
    23
 73
    22
  0
VERTEX
  5
31B
  8
0
 62
     9
 10
0.0
 20
0.0
 30
0.0
 70
   128
 71
    26
 72
    25
 73
    22
  0
VERTEX
  5
31C
  8
0
 62
     9
 10
0.0
 20
0.0
 30
0.0
 70
   128
 71
    29
 72
    28
 73
    27
  0
VERTEX
  5
31D
  8
0
 62
     9
 10
0.0
 20
0.0
 30
0.0
 70
   128
 71
    31
 72
    30
 73
    27
  0
VERTEX
  5
31E
  8
0
 62
     9
 10
0.0
 20
0.0
 30
0.0
 70
   128
 71
    34
 72
    33
 73
    32
  0
VERTEX
  5
31F
  8
0
 62
     9
 10
0.0
 20
0.0
 30
0.0
 70
   128
 71
    34
 72
    30
 73
    31
  0
VERTEX
  5
320
  8
0
 62
     9
 10
0.0
 20
0.0
 30
0.0
 70
   128
 71
     6
 72
     4
 73
    32
  0
VERTEX
  5
321
  8
0
 62
     9
 10
0.0
 20
0.0
 30
0.0
 70
   128
 71
    32
 72
    33
 73
     6
  0
VERTEX
  5
322
  8
0
 62
     9
 10
0.0
 20
0.0
 30
0.0
 70
   128
 71
     5
 72
    36
 73
    35
  0
VERTEX
  5
323
  8
0
 62
     9
 10
0.0
 20
0.0
 30
0.0
 70
   128
 71
    36
 72
     5
 73
     6
  0
VERTEX
  5
324
  8
0
 62
     9
 10
0.0
 20
0.0
 30
0.0
 70
   128
 71
    35
 72
    36
 73
    37
  0
VERTEX
  5
325
  8
0
 62
     9
 10
0.0
 20
0.0
 30
0.0
 70
   128
 71
    38
 72
    37
 73
    36
  0
VERTEX
  5
326
  8
0
 62
     9
 10
0.0
 20
0.0
 30
0.0
 70
   128
 71
    33
 72
    34
 73
    31
  0
VERTEX
  5
327
  8
0
 62
     9
 10
0.0
 20
0.0
 30
0.0
 70
   128
 71
    27
 72
    30
 73
    39
  0
VERTEX
  5
328
  8
0
 62
     9
 10
0.0
 20
0.0
 30
0.0
 70
   128
 71
    27
 72
    39
 73
    29
  0
VERTEX
  5
329
  8
0
 62
     9
 10
0.0
 20
0.0
 30
0.0
 70
   128
 71
    28
 72
    29
 73
    23
  0
VERTEX
  5
32A
  8
0
 62
     9
 10
0.0
 20
0.0
 30
0.0
 70
   128
 71
    22
 72
    25
 73
    24
  0
VERTEX
  5
32B
  8
0
 62
     9
 10
0.0
 20
0.0
 30
0.0
 70
   128
 71
    23
 72
    24
 73
    28
  0
VERTEX
  5
32C
  8
0
 62
     9
 10
0.0
 20
0.0
 30
0.0
 70
   128
 71
    25
 72
    20
 73
    18
  0
VERTEX
  5
32D
  8
0
 62
     9
 10
0.0
 20
0.0
 30
0.0
 70
   128
 71
    26
 72
    20
 73
    25
  0
VERTEX
  5
32E
  8
0
 62
     9
 10
0.0
 20
0.0
 30
0.0
 70
   128
 71
    13
 72
    21
 73
    15
  0
VERTEX
  5
32F
  8
0
 62
     9
 10
0.0
 20
0.0
 30
0.0
 70
   128
 71
    19
 72
    21
 73
    18
  0
VERTEX
  5
330
  8
0
 62
     9
 10
0.0
 20
0.0
 30
0.0
 70
   128
 71
    17
 72
    16
 73
    13
  0
VERTEX
  5
331
  8
0
 62
     9
 10
0.0
 20
0.0
 30
0.0
 70
   128
 71
    17
 72
    13
 73
    14
  0
VERTEX
  5
332
  8
0
 62
     9
 10
0.0
 20
0.0
 30
0.0
 70
   128
 71
     9
 72
    10
 73
    11
  0
VERTEX
  5
333
  8
0
 62
     9
 10
0.0
 20
0.0
 30
0.0
 70
   128
 71
     9
 72
    16
 73
     8
  0
VERTEX
  5
334
  8
0
 62
     9
 10
0.0
 20
0.0
 30
0.0
 70
   128
 71
     7
 72
     2
 73
    11
  0
VERTEX
  5
335
  8
0
 62
     9
 10
0.0
 20
0.0
 30
0.0
 70
   128
 71
    10
 72
    12
 73
    11
  0
VERTEX
  5
336
  8
0
 62
     9
 10
0.0
 20
0.0
 30
0.0
 70
   128
 71
     3
 72
    40
 73
     2
  0
VERTEX
  5
337
  8
0
 62
     9
 10
0.0
 20
0.0
 30
0.0
 70
   128
 71
    16
 72
     9
 73
    11
  0
VERTEX
  5
338
  8
0
 62
     9
 10
0.0
 20
0.0
 30
0.0
 70
   128
 71
    11
 72
     2
 73
    13
  0
VERTEX
  5
339
  8
0
 62
     9
 10
0.0
 20
0.0
 30
0.0
 70
   128
 71
    13
 72
    16
 73
    11
  0
VERTEX
  5
33A
  8
0
 62
     9
 10
0.0
 20
0.0
 30
0.0
 70
   128
 71
     2
 72
    21
 73
    13
  0
VERTEX
  5
33B
  8
0
 62
     9
 10
0.0
 20
0.0
 30
0.0
 70
   128
 71
    28
 72
    24
 73
    36
  0
VERTEX
  5
33C
  8
0
 62
     9
 10
0.0
 20
0.0
 30
0.0
 70
   128
 71
    21
 72
    36
 73
    18
  0
VERTEX
  5
33D
  8
0
 62
     9
 10
0.0
 20
0.0
 30
0.0
 70
   128
 71
     6
 72
    33
 73
    31
  0
VERTEX
  5
33E
  8
0
 62
     9
 10
0.0
 20
0.0
 30
0.0
 70
   128
 71
    36
 72
     6
 73
    27
  0
VERTEX
  5
33F
  8
0
 62
     9
 10
0.0
 20
0.0
 30
0.0
 70
   128
 71
    27
 72
    28
 73
    36
  0
VERTEX
  5
340
  8
0
 62
     9
 10
0.0
 20
0.0
 30
0.0
 70
   128
 71
    31
 72
    27
 73
     6
  0
VERTEX
  5
341
  8
0
 62
     9
 10
0.0
 20
0.0
 30
0.0
 70
   128
 71
    25
 72
    36
 73
    24
  0
VERTEX
  5
342
  8
0
 62
     9
 10
0.0
 20
0.0
 30
0.0
 70
   128
 71
    25
 72
    18
 73
    36
  0
VERTEX
  5
343
  8
0
 62
     9
 10
0.0
 20
0.0
 30
0.0
 70
   128
 71
    21
 72
     2
 73
    36
  0
VERTEX
  5
344
  8
0
 62
     9
 10
0.0
 20
0.0
 30
0.0
 70
   128
 71
    43
 72
    42
 73
    41
  0
VERTEX
  5
345
  8
0
 62
     9
 10
0.0
 20
0.0
 30
0.0
 70
   128
 71
    44
 72
    40
 73
     3
  0
VERTEX
  5
346
  8
0
 62
     9
 10
0.0
 20
0.0
 30
0.0
 70
   128
 71
    46
 72
    45
 73
    41
  0
VERTEX
  5
347
  8
0
 62
     9
 10
0.0
 20
0.0
 30
0.0
 70
   128
 71
    43
 72
    44
 73
    42
  0
VERTEX
  5
348
  8
0
 62
     9
 10
0.0
 20
0.0
 30
0.0
 70
   128
 71
    49
 72
    48
 73
    47
  0
VERTEX
  5
349
  8
0
 62
     9
 10
0.0
 20
0.0
 30
0.0
 70
   128
 71
    45
 72
    51
 73
    50
  0
VERTEX
  5
34A
  8
0
 62
     9
 10
0.0
 20
0.0
 30
0.0
 70
   128
 71
    54
 72
    53
 73
    52
  0
VERTEX
  5
34B
  8
0
 62
     9
 10
0.0
 20
0.0
 30
0.0
 70
   128
 71
    54
 72
    52
 73
    55
  0
VERTEX
  5
34C
  8
0
 62
     9
 10
0.0
 20
0.0
 30
0.0
 70
   128
 71
    57
 72
    56
 73
    55
  0
VERTEX
  5
34D
  8
0
 62
     9
 10
0.0
 20
0.0
 30
0.0
 70
   128
 71
    58
 72
    51
 73
    45
  0
VERTEX
  5
34E
  8
0
 62
     9
 10
0.0
 20
0.0
 30
0.0
 70
   128
 71
    49
 72
    51
 73
    59
  0
VERTEX
  5
34F
  8
0
 62
     9
 10
0.0
 20
0.0
 30
0.0
 70
   128
 71
    41
 72
    45
 73
    60
  0
VERTEX
  5
350
  8
0
 62
     9
 10
0.0
 20
0.0
 30
0.0
 70
   128
 71
    58
 72
    45
 73
    46
  0
VERTEX
  5
351
  8
0
 62
     9
 10
0.0
 20
0.0
 30
0.0
 70
   128
 71
     1
 72
    42
 73
     3
  0
VERTEX
  5
352
  8
0
 62
     9
 10
0.0
 20
0.0
 30
0.0
 70
   128
 71
     3
 72
    42
 73
    44
  0
VERTEX
  5
353
  8
0
 62
     9
 10
0.0
 20
0.0
 30
0.0
 70
   128
 71
    62
 72
     1
 73
    61
  0
VERTEX
  5
354
  8
0
 62
     9
 10
0.0
 20
0.0
 30
0.0
 70
   128
 71
    52
 72
    53
 73
    63
  0
VERTEX
  5
355
  8
0
 62
     9
 10
0.0
 20
0.0
 30
0.0
 70
   128
 71
    56
 72
    54
 73
    55
  0
VERTEX
  5
356
  8
0
 62
     9
 10
0.0
 20
0.0
 30
0.0
 70
   128
 71
    48
 72
    63
 73
    47
  0
VERTEX
  5
357
  8
0
 62
     9
 10
0.0
 20
0.0
 30
0.0
 70
   128
 71
    63
 72
    53
 73
    47
  0
VERTEX
  5
358
  8
0
 62
     9
 10
0.0
 20
0.0
 30
0.0
 70
   128
 71
    51
 72
    49
 73
    64
  0
VERTEX
  5
359
  8
0
 62
     9
 10
0.0
 20
0.0
 30
0.0
 70
   128
 71
    49
 72
    47
 73
    64
  0
VERTEX
  5
35A
  8
0
 62
     9
 10
0.0
 20
0.0
 30
0.0
 70
   128
 71
    59
 72
    51
 73
    58
  0
VERTEX
  5
35B
  8
0
 62
     9
 10
0.0
 20
0.0
 30
0.0
 70
   128
 71
    51
 72
    64
 73
    50
  0
VERTEX
  5
35C
  8
0
 62
     9
 10
0.0
 20
0.0
 30
0.0
 70
   128
 71
    65
 72
    46
 73
    41
  0
VERTEX
  5
35D
  8
0
 62
     9
 10
0.0
 20
0.0
 30
0.0
 70
   128
 71
    45
 72
    50
 73
    60
  0
VERTEX
  5
35E
  8
0
 62
     9
 10
0.0
 20
0.0
 30
0.0
 70
   128
 71
    62
 72
    65
 73
    42
  0
VERTEX
  5
35F
  8
0
 62
     9
 10
0.0
 20
0.0
 30
0.0
 70
   128
 71
    41
 72
    60
 73
    43
  0
VERTEX
  5
360
  8
0
 62
     9
 10
0.0
 20
0.0
 30
0.0
 70
   128
 71
    41
 72
    42
 73
    65
  0
VERTEX
  5
361
  8
0
 62
     9
 10
0.0
 20
0.0
 30
0.0
 70
   128
 71
     1
 72
    62
 73
    42
  0
VERTEX
  5
362
  8
0
 62
     9
 10
0.0
 20
0.0
 30
0.0
 70
   128
 71
    56
 72
    67
 73
    66
  0
VERTEX
  5
363
  8
0
 62
     9
 10
0.0
 20
0.0
 30
0.0
 70
   128
 71
    70
 72
    69
 73
    68
  0
VERTEX
  5
364
  8
0
 62
     9
 10
0.0
 20
0.0
 30
0.0
 70
   128
 71
    71
 72
    66
 73
    67
  0
VERTEX
  5
365
  8
0
 62
     9
 10
0.0
 20
0.0
 30
0.0
 70
   128
 71
    70
 72
    73
 73
    72
  0
VERTEX
  5
366
  8
0
 62
     9
 10
0.0
 20
0.0
 30
0.0
 70
   128
 71
    35
 72
    75
 73
    74
  0
VERTEX
  5
367
  8
0
 62
     9
 10
0.0
 20
0.0
 30
0.0
 70
   128
 71
    76
 72
    70
 73
    72
  0
VERTEX
  5
368
  8
0
 62
     9
 10
0.0
 20
0.0
 30
0.0
 70
   128
 71
    69
 72
    75
 73
    37
  0
VERTEX
  5
369
  8
0
 62
     9
 10
0.0
 20
0.0
 30
0.0
 70
   128
 71
    37
 72
    75
 73
    35
  0
VERTEX
  5
36A
  8
0
 62
     9
 10
0.0
 20
0.0
 30
0.0
 70
   128
 71
    77
 72
    37
 73
    38
  0
VERTEX
  5
36B
  8
0
 62
     9
 10
0.0
 20
0.0
 30
0.0
 70
   128
 71
    68
 72
    69
 73
    77
  0
VERTEX
  5
36C
  8
0
 62
     9
 10
0.0
 20
0.0
 30
0.0
 70
   128
 71
    70
 72
    76
 73
    69
  0
VERTEX
  5
36D
  8
0
 62
     9
 10
0.0
 20
0.0
 30
0.0
 70
   128
 71
    80
 72
    79
 73
    78
  0
VERTEX
  5
36E
  8
0
 62
     9
 10
0.0
 20
0.0
 30
0.0
 70
   128
 71
    73
 72
    70
 73
    81
  0
VERTEX
  5
36F
  8
0
 62
     9
 10
0.0
 20
0.0
 30
0.0
 70
   128
 71
    73
 72
    82
 73
    79
  0
VERTEX
  5
370
  8
0
 62
     9
 10
0.0
 20
0.0
 30
0.0
 70
   128
 71
    73
 72
    79
 73
    83
  0
VERTEX
  5
371
  8
0
 62
     9
 10
0.0
 20
0.0
 30
0.0
 70
   128
 71
    57
 72
    67
 73
    56
  0
VERTEX
  5
372
  8
0
 62
     9
 10
0.0
 20
0.0
 30
0.0
 70
   128
 71
    77
 72
    69
 73
    37
  0
VERTEX
  5
373
  8
0
 62
     9
 10
0.0
 20
0.0
 30
0.0
 70
   128
 71
    69
 72
    76
 73
    75
  0
VERTEX
  5
374
  8
0
 62
     9
 10
0.0
 20
0.0
 30
0.0
 70
   128
 71
    83
 72
    72
 73
    73
  0
VERTEX
  5
375
  8
0
 62
     9
 10
0.0
 20
0.0
 30
0.0
 70
   128
 71
    70
 72
    68
 73
    81
  0
VERTEX
  5
376
  8
0
 62
     9
 10
0.0
 20
0.0
 30
0.0
 70
   128
 71
    84
 72
    83
 73
    79
  0
VERTEX
  5
377
  8
0
 62
     9
 10
0.0
 20
0.0
 30
0.0
 70
   128
 71
    73
 72
    81
 73
    82
  0
VERTEX
  5
378
  8
0
 62
     9
 10
0.0
 20
0.0
 30
0.0
 70
   128
 71
    84
 72
    79
 73
    80
  0
VERTEX
  5
379
  8
0
 62
     9
 10
0.0
 20
0.0
 30
0.0
 70
   128
 71
    79
 72
    82
 73
    78
  0
VERTEX
  5
37A
  8
0
 62
     9
 10
0.0
 20
0.0
 30
0.0
 70
   128
 71
    86
 72
    80
 73
    85
  0
VERTEX
  5
37B
  8
0
 62
     9
 10
0.0
 20
0.0
 30
0.0
 70
   128
 71
    80
 72
    78
 73
    85
  0
VERTEX
  5
37C
  8
0
 62
     9
 10
0.0
 20
0.0
 30
0.0
 70
   128
 71
    71
 72
    86
 73
    87
  0
VERTEX
  5
37D
  8
0
 62
     9
 10
0.0
 20
0.0
 30
0.0
 70
   128
 71
    86
 72
    85
 73
    87
  0
VERTEX
  5
37E
  8
0
 62
     9
 10
0.0
 20
0.0
 30
0.0
 70
   128
 71
    66
 72
    71
 73
    87
  0
VERTEX
  5
37F
  8
0
 62
     9
 10
0.0
 20
0.0
 30
0.0
 70
   128
 71
    90
 72
    89
 73
    88
  0
VERTEX
  5
380
  8
0
 62
     9
 10
0.0
 20
0.0
 30
0.0
 70
   128
 71
    93
 72
    92
 73
    91
  0
VERTEX
  5
381
  8
0
 62
     9
 10
0.0
 20
0.0
 30
0.0
 70
   128
 71
    95
 72
    94
 73
    90
  0
VERTEX
  5
382
  8
0
 62
     9
 10
0.0
 20
0.0
 30
0.0
 70
   128
 71
    96
 72
    89
 73
    90
  0
VERTEX
  5
383
  8
0
 62
     9
 10
0.0
 20
0.0
 30
0.0
 70
   128
 71
    90
 72
    88
 73
    95
  0
VERTEX
  5
384
  8
0
 62
     9
 10
0.0
 20
0.0
 30
0.0
 70
   128
 71
    94
 72
    98
 73
    97
  0
VERTEX
  5
385
  8
0
 62
     9
 10
0.0
 20
0.0
 30
0.0
 70
   128
 71
    92
 72
    99
 73
    96
  0
VERTEX
  5
386
  8
0
 62
     9
 10
0.0
 20
0.0
 30
0.0
 70
   128
 71
    96
 72
    99
 73
    89
  0
VERTEX
  5
387
  8
0
 62
     9
 10
0.0
 20
0.0
 30
0.0
 70
   128
 71
    91
 72
   100
 73
    93
  0
VERTEX
  5
388
  8
0
 62
     9
 10
0.0
 20
0.0
 30
0.0
 70
   128
 71
    91
 72
    92
 73
    96
  0
VERTEX
  5
389
  8
0
 62
     9
 10
0.0
 20
0.0
 30
0.0
 70
   128
 71
   102
 72
    91
 73
   101
  0
VERTEX
  5
38A
  8
0
 62
     9
 10
0.0
 20
0.0
 30
0.0
 70
   128
 71
   102
 72
   100
 73
    91
  0
VERTEX
  5
38B
  8
0
 62
     9
 10
0.0
 20
0.0
 30
0.0
 70
   128
 71
   101
 72
   103
 73
   102
  0
VERTEX
  5
38C
  8
0
 62
     9
 10
0.0
 20
0.0
 30
0.0
 70
   128
 71
   102
 72
   104
 73
   100
  0
VERTEX
  5
38D
  8
0
 62
     9
 10
0.0
 20
0.0
 30
0.0
 70
   128
 71
    91
 72
   105
 73
   101
  0
VERTEX
  5
38E
  8
0
 62
     9
 10
0.0
 20
0.0
 30
0.0
 70
   128
 71
   105
 72
    96
 73
   106
  0
VERTEX
  5
38F
  8
0
 62
     9
 10
0.0
 20
0.0
 30
0.0
 70
   128
 71
    91
 72
    96
 73
   105
  0
VERTEX
  5
390
  8
0
 62
     9
 10
0.0
 20
0.0
 30
0.0
 70
   128
 71
    90
 72
    97
 73
   106
  0
VERTEX
  5
391
  8
0
 62
     9
 10
0.0
 20
0.0
 30
0.0
 70
   128
 71
    96
 72
    90
 73
   106
  0
VERTEX
  5
392
  8
0
 62
     9
 10
0.0
 20
0.0
 30
0.0
 70
   128
 71
    97
 72
    90
 73
    94
  0
VERTEX
  5
393
  8
0
 62
     9
 10
0.0
 20
0.0
 30
0.0
 70
   128
 71
   107
 72
   106
 73
    97
  0
VERTEX
  5
394
  8
0
 62
     9
 10
0.0
 20
0.0
 30
0.0
 70
   128
 71
   107
 72
   101
 73
   105
  0
VERTEX
  5
395
  8
0
 62
     9
 10
0.0
 20
0.0
 30
0.0
 70
   128
 71
   107
 72
    97
 73
    98
  0
VERTEX
  5
396
  8
0
 62
     9
 10
0.0
 20
0.0
 30
0.0
 70
   128
 71
   107
 72
   103
 73
   101
  0
VERTEX
  5
397
  8
0
 62
     9
 10
0.0
 20
0.0
 30
0.0
 70
   128
 71
   107
 72
   105
 73
   106
  0
VERTEX
  5
398
  8
0
 62
     9
 10
0.0
 20
0.0
 30
0.0
 70
   128
 71
   107
 72
   109
 73
   108
  0
VERTEX
  5
399
  8
0
 62
     9
 10
0.0
 20
0.0
 30
0.0
 70
   128
 71
   107
 72
   111
 73
   110
  0
VERTEX
  5
39A
  8
0
 62
     9
 10
0.0
 20
0.0
 30
0.0
 70
   128
 71
   107
 72
   108
 73
   103
  0
VERTEX
  5
39B
  8
0
 62
     9
 10
0.0
 20
0.0
 30
0.0
 70
   128
 71
   107
 72
   112
 73
   111
  0
VERTEX
  5
39C
  8
0
 62
     9
 10
0.0
 20
0.0
 30
0.0
 70
   128
 71
   107
 72
   110
 73
   109
  0
VERTEX
  5
39D
  8
0
 62
     9
 10
0.0
 20
0.0
 30
0.0
 70
   128
 71
   115
 72
   114
 73
   113
  0
VERTEX
  5
39E
  8
0
 62
     9
 10
0.0
 20
0.0
 30
0.0
 70
   128
 71
   113
 72
   116
 73
   115
  0
VERTEX
  5
39F
  8
0
 62
     9
 10
0.0
 20
0.0
 30
0.0
 70
   128
 71
   119
 72
   118
 73
   117
  0
VERTEX
  5
3A0
  8
0
 62
     9
 10
0.0
 20
0.0
 30
0.0
 70
   128
 71
   116
 72
   119
 73
   117
  0
VERTEX
  5
3A1
  8
0
 62
     9
 10
0.0
 20
0.0
 30
0.0
 70
   128
 71
   121
 72
   120
 73
   112
  0
VERTEX
  5
3A2
  8
0
 62
     9
 10
0.0
 20
0.0
 30
0.0
 70
   128
 71
   118
 72
   119
 73
   122
  0
VERTEX
  5
3A3
  8
0
 62
     9
 10
0.0
 20
0.0
 30
0.0
 70
   128
 71
   124
 72
   123
 73
   112
  0
VERTEX
  5
3A4
  8
0
 62
     9
 10
0.0
 20
0.0
 30
0.0
 70
   128
 71
   112
 72
   123
 73
   121
  0
VERTEX
  5
3A5
  8
0
 62
     9
 10
0.0
 20
0.0
 30
0.0
 70
   128
 71
   124
 72
    98
 73
   125
  0
VERTEX
  5
3A6
  8
0
 62
     9
 10
0.0
 20
0.0
 30
0.0
 70
   128
 71
    98
 72
   124
 73
   107
  0
VERTEX
  5
3A7
  8
0
 62
     9
 10
0.0
 20
0.0
 30
0.0
 70
   128
 71
   126
 72
    98
 73
    94
  0
VERTEX
  5
3A8
  8
0
 62
     9
 10
0.0
 20
0.0
 30
0.0
 70
   128
 71
    98
 72
   126
 73
   127
  0
VERTEX
  5
3A9
  8
0
 62
     9
 10
0.0
 20
0.0
 30
0.0
 70
   128
 71
   129
 72
    94
 73
   128
  0
VERTEX
  5
3AA
  8
0
 62
     9
 10
0.0
 20
0.0
 30
0.0
 70
   128
 71
   129
 72
   126
 73
    94
  0
VERTEX
  5
3AB
  8
0
 62
     9
 10
0.0
 20
0.0
 30
0.0
 70
   128
 71
   131
 72
    94
 73
   130
  0
VERTEX
  5
3AC
  8
0
 62
     9
 10
0.0
 20
0.0
 30
0.0
 70
   128
 71
   131
 72
   128
 73
    94
  0
VERTEX
  5
3AD
  8
0
 62
     9
 10
0.0
 20
0.0
 30
0.0
 70
   128
 71
    94
 72
    95
 73
   132
  0
VERTEX
  5
3AE
  8
0
 62
     9
 10
0.0
 20
0.0
 30
0.0
 70
   128
 71
   132
 72
   130
 73
    94
  0
VERTEX
  5
3AF
  8
0
 62
     9
 10
0.0
 20
0.0
 30
0.0
 70
   128
 71
    95
 72
   134
 73
   133
  0
VERTEX
  5
3B0
  8
0
 62
     9
 10
0.0
 20
0.0
 30
0.0
 70
   128
 71
   132
 72
    95
 73
   133
  0
VERTEX
  5
3B1
  8
0
 62
     9
 10
0.0
 20
0.0
 30
0.0
 70
   128
 71
    98
 72
   127
 73
   125
  0
VERTEX
  5
3B2
  8
0
 62
     9
 10
0.0
 20
0.0
 30
0.0
 70
   128
 71
   107
 72
   124
 73
   112
  0
VERTEX
  5
3B3
  8
0
 62
     9
 10
0.0
 20
0.0
 30
0.0
 70
   128
 71
   112
 72
   120
 73
   119
  0
VERTEX
  5
3B4
  8
0
 62
     9
 10
0.0
 20
0.0
 30
0.0
 70
   128
 71
   119
 72
   135
 73
   122
  0
VERTEX
  5
3B5
  8
0
 62
     9
 10
0.0
 20
0.0
 30
0.0
 70
   128
 71
   120
 72
   135
 73
   119
  0
VERTEX
  5
3B6
  8
0
 62
     9
 10
0.0
 20
0.0
 30
0.0
 70
   128
 71
   119
 72
   116
 73
   113
  0
VERTEX
  5
3B7
  8
0
 62
     9
 10
0.0
 20
0.0
 30
0.0
 70
   128
 71
   138
 72
   137
 73
   136
  0
VERTEX
  5
3B8
  8
0
 62
     9
 10
0.0
 20
0.0
 30
0.0
 70
   128
 71
   139
 72
   104
 73
   102
  0
VERTEX
  5
3B9
  8
0
 62
     9
 10
0.0
 20
0.0
 30
0.0
 70
   128
 71
   140
 72
   108
 73
   109
  0
VERTEX
  5
3BA
  8
0
 62
     9
 10
0.0
 20
0.0
 30
0.0
 70
   128
 71
   141
 72
   111
 73
   112
  0
VERTEX
  5
3BB
  8
0
 62
     9
 10
0.0
 20
0.0
 30
0.0
 70
   128
 71
   108
 72
   102
 73
   103
  0
VERTEX
  5
3BC
  8
0
 62
     9
 10
0.0
 20
0.0
 30
0.0
 70
   128
 71
   140
 72
   102
 73
   108
  0
VERTEX
  5
3BD
  8
0
 62
     9
 10
0.0
 20
0.0
 30
0.0
 70
   128
 71
   139
 72
   140
 73
   142
  0
VERTEX
  5
3BE
  8
0
 62
     9
 10
0.0
 20
0.0
 30
0.0
 70
   128
 71
   140
 72
   138
 73
   143
  0
VERTEX
  5
3BF
  8
0
 62
     9
 10
0.0
 20
0.0
 30
0.0
 70
   128
 71
   143
 72
   142
 73
   140
  0
VERTEX
  5
3C0
  8
0
 62
     9
 10
0.0
 20
0.0
 30
0.0
 70
   128
 71
   137
 72
   138
 73
   141
  0
VERTEX
  5
3C1
  8
0
 62
     9
 10
0.0
 20
0.0
 30
0.0
 70
   128
 71
   144
 72
   137
 73
   141
  0
VERTEX
  5
3C2
  8
0
 62
     9
 10
0.0
 20
0.0
 30
0.0
 70
   128
 71
   138
 72
   111
 73
   141
  0
VERTEX
  5
3C3
  8
0
 62
     9
 10
0.0
 20
0.0
 30
0.0
 70
   128
 71
   144
 72
   119
 73
   113
  0
VERTEX
  5
3C4
  8
0
 62
     9
 10
0.0
 20
0.0
 30
0.0
 70
   128
 71
   141
 72
   112
 73
   119
  0
VERTEX
  5
3C5
  8
0
 62
     9
 10
0.0
 20
0.0
 30
0.0
 70
   128
 71
   144
 72
   141
 73
   119
  0
VERTEX
  5
3C6
  8
0
 62
     9
 10
0.0
 20
0.0
 30
0.0
 70
   128
 71
   110
 72
   111
 73
   138
  0
VERTEX
  5
3C7
  8
0
 62
     9
 10
0.0
 20
0.0
 30
0.0
 70
   128
 71
   110
 72
   138
 73
   109
  0
VERTEX
  5
3C8
  8
0
 62
     9
 10
0.0
 20
0.0
 30
0.0
 70
   128
 71
   138
 72
   136
 73
   143
  0
VERTEX
  5
3C9
  8
0
 62
     9
 10
0.0
 20
0.0
 30
0.0
 70
   128
 71
   138
 72
   140
 73
   109
  0
VERTEX
  5
3CA
  8
0
 62
     9
 10
0.0
 20
0.0
 30
0.0
 70
   128
 71
   102
 72
   140
 73
   139
  0
VERTEX
  5
3CB
  8
0
 62
     9
 10
0.0
 20
0.0
 30
0.0
 70
   128
 71
   146
 72
   145
 73
   113
  0
VERTEX
  5
3CC
  8
0
 62
     9
 10
0.0
 20
0.0
 30
0.0
 70
   128
 71
   149
 72
   148
 73
   147
  0
VERTEX
  5
3CD
  8
0
 62
     9
 10
0.0
 20
0.0
 30
0.0
 70
   128
 71
   113
 72
   150
 73
   146
  0
VERTEX
  5
3CE
  8
0
 62
     9
 10
0.0
 20
0.0
 30
0.0
 70
   128
 71
   152
 72
   151
 73
   113
  0
VERTEX
  5
3CF
  8
0
 62
     9
 10
0.0
 20
0.0
 30
0.0
 70
   128
 71
   113
 72
   151
 73
   150
  0
VERTEX
  5
3D0
  8
0
 62
     9
 10
0.0
 20
0.0
 30
0.0
 70
   128
 71
   154
 72
   153
 73
   113
  0
VERTEX
  5
3D1
  8
0
 62
     9
 10
0.0
 20
0.0
 30
0.0
 70
   128
 71
   113
 72
   153
 73
   152
  0
VERTEX
  5
3D2
  8
0
 62
     9
 10
0.0
 20
0.0
 30
0.0
 70
   128
 71
   155
 72
   113
 73
   114
  0
VERTEX
  5
3D3
  8
0
 62
     9
 10
0.0
 20
0.0
 30
0.0
 70
   128
 71
   113
 72
   155
 73
   154
  0
VERTEX
  5
3D4
  8
0
 62
     9
 10
0.0
 20
0.0
 30
0.0
 70
   128
 71
   157
 72
   114
 73
   156
  0
VERTEX
  5
3D5
  8
0
 62
     9
 10
0.0
 20
0.0
 30
0.0
 70
   128
 71
   157
 72
   155
 73
   114
  0
VERTEX
  5
3D6
  8
0
 62
     9
 10
0.0
 20
0.0
 30
0.0
 70
   128
 71
   159
 72
   114
 73
   158
  0
VERTEX
  5
3D7
  8
0
 62
     9
 10
0.0
 20
0.0
 30
0.0
 70
   128
 71
   159
 72
   156
 73
   114
  0
VERTEX
  5
3D8
  8
0
 62
     9
 10
0.0
 20
0.0
 30
0.0
 70
   128
 71
   161
 72
   114
 73
   160
  0
VERTEX
  5
3D9
  8
0
 62
     9
 10
0.0
 20
0.0
 30
0.0
 70
   128
 71
   161
 72
   158
 73
   114
  0
VERTEX
  5
3DA
  8
0
 62
     9
 10
0.0
 20
0.0
 30
0.0
 70
   128
 71
   164
 72
   163
 73
   162
  0
VERTEX
  5
3DB
  8
0
 62
     9
 10
0.0
 20
0.0
 30
0.0
 70
   128
 71
   147
 72
   160
 73
   114
  0
VERTEX
  5
3DC
  8
0
 62
     9
 10
0.0
 20
0.0
 30
0.0
 70
   128
 71
    74
 72
   166
 73
   165
  0
VERTEX
  5
3DD
  8
0
 62
     9
 10
0.0
 20
0.0
 30
0.0
 70
   128
 71
   167
 72
    74
 73
   165
  0
VERTEX
  5
3DE
  8
0
 62
     9
 10
0.0
 20
0.0
 30
0.0
 70
   128
 71
   167
 72
    35
 73
    74
  0
VERTEX
  5
3DF
  8
0
 62
     9
 10
0.0
 20
0.0
 30
0.0
 70
   128
 71
    74
 72
   162
 73
   166
  0
VERTEX
  5
3E0
  8
0
 62
     9
 10
0.0
 20
0.0
 30
0.0
 70
   128
 71
   148
 72
   163
 73
   164
  0
VERTEX
  5
3E1
  8
0
 62
     9
 10
0.0
 20
0.0
 30
0.0
 70
   128
 71
   164
 72
   162
 73
    74
  0
VERTEX
  5
3E2
  8
0
 62
     9
 10
0.0
 20
0.0
 30
0.0
 70
   128
 71
   114
 72
   149
 73
   147
  0
VERTEX
  5
3E3
  8
0
 62
     9
 10
0.0
 20
0.0
 30
0.0
 70
   128
 71
   149
 72
   163
 73
   148
  0
VERTEX
  5
3E4
  8
0
 62
     9
 10
0.0
 20
0.0
 30
0.0
 70
   128
 71
   169
 72
   137
 73
   168
  0
VERTEX
  5
3E5
  8
0
 62
     9
 10
0.0
 20
0.0
 30
0.0
 70
   128
 71
   170
 72
    93
 73
   100
  0
VERTEX
  5
3E6
  8
0
 62
     9
 10
0.0
 20
0.0
 30
0.0
 70
   128
 71
    93
 72
   170
 73
   171
  0
VERTEX
  5
3E7
  8
0
 62
     9
 10
0.0
 20
0.0
 30
0.0
 70
   128
 71
   172
 72
    99
 73
    92
  0
VERTEX
  5
3E8
  8
0
 62
     9
 10
0.0
 20
0.0
 30
0.0
 70
   128
 71
   173
 72
    92
 73
    93
  0
VERTEX
  5
3E9
  8
0
 62
     9
 10
0.0
 20
0.0
 30
0.0
 70
   128
 71
   172
 72
    92
 73
   173
  0
VERTEX
  5
3EA
  8
0
 62
     9
 10
0.0
 20
0.0
 30
0.0
 70
   128
 71
   174
 72
    99
 73
   172
  0
VERTEX
  5
3EB
  8
0
 62
     9
 10
0.0
 20
0.0
 30
0.0
 70
   128
 71
   171
 72
   173
 73
    93
  0
VERTEX
  5
3EC
  8
0
 62
     9
 10
0.0
 20
0.0
 30
0.0
 70
   128
 71
   176
 72
    88
 73
   175
  0
VERTEX
  5
3ED
  8
0
 62
     9
 10
0.0
 20
0.0
 30
0.0
 70
   128
 71
   174
 72
   175
 73
    89
  0
VERTEX
  5
3EE
  8
0
 62
     9
 10
0.0
 20
0.0
 30
0.0
 70
   128
 71
    95
 72
    88
 73
   176
  0
VERTEX
  5
3EF
  8
0
 62
     9
 10
0.0
 20
0.0
 30
0.0
 70
   128
 71
   175
 72
    88
 73
    89
  0
VERTEX
  5
3F0
  8
0
 62
     9
 10
0.0
 20
0.0
 30
0.0
 70
   128
 71
    89
 72
    99
 73
   174
  0
VERTEX
  5
3F1
  8
0
 62
     9
 10
0.0
 20
0.0
 30
0.0
 70
   128
 71
    95
 72
   176
 73
   177
  0
VERTEX
  5
3F2
  8
0
 62
     9
 10
0.0
 20
0.0
 30
0.0
 70
   128
 71
   100
 72
   178
 73
   170
  0
VERTEX
  5
3F3
  8
0
 62
     9
 10
0.0
 20
0.0
 30
0.0
 70
   128
 71
   179
 72
   178
 73
   104
  0
VERTEX
  5
3F4
  8
0
 62
     9
 10
0.0
 20
0.0
 30
0.0
 70
   128
 71
   100
 72
   104
 73
   178
  0
VERTEX
  5
3F5
  8
0
 62
     9
 10
0.0
 20
0.0
 30
0.0
 70
   128
 71
   179
 72
   139
 73
   180
  0
VERTEX
  5
3F6
  8
0
 62
     9
 10
0.0
 20
0.0
 30
0.0
 70
   128
 71
   139
 72
   179
 73
   104
  0
VERTEX
  5
3F7
  8
0
 62
     9
 10
0.0
 20
0.0
 30
0.0
 70
   128
 71
   142
 72
   181
 73
   180
  0
VERTEX
  5
3F8
  8
0
 62
     9
 10
0.0
 20
0.0
 30
0.0
 70
   128
 71
   180
 72
   139
 73
   142
  0
VERTEX
  5
3F9
  8
0
 62
     9
 10
0.0
 20
0.0
 30
0.0
 70
   128
 71
   143
 72
   182
 73
   142
  0
VERTEX
  5
3FA
  8
0
 62
     9
 10
0.0
 20
0.0
 30
0.0
 70
   128
 71
   181
 72
   142
 73
   182
  0
VERTEX
  5
3FB
  8
0
 62
     9
 10
0.0
 20
0.0
 30
0.0
 70
   128
 71
   183
 72
   143
 73
   136
  0
VERTEX
  5
3FC
  8
0
 62
     9
 10
0.0
 20
0.0
 30
0.0
 70
   128
 71
   143
 72
   183
 73
   182
  0
VERTEX
  5
3FD
  8
0
 62
     9
 10
0.0
 20
0.0
 30
0.0
 70
   128
 71
   136
 72
   137
 73
   169
  0
VERTEX
  5
3FE
  8
0
 62
     9
 10
0.0
 20
0.0
 30
0.0
 70
   128
 71
   169
 72
   183
 73
   136
  0
VERTEX
  5
3FF
  8
0
 62
     9
 10
0.0
 20
0.0
 30
0.0
 70
   128
 71
   168
 72
   137
 73
   144
  0
VERTEX
  5
400
  8
0
 62
     9
 10
0.0
 20
0.0
 30
0.0
 70
   128
 71
   113
 72
   184
 73
   144
  0
VERTEX
  5
401
  8
0
 62
     9
 10
0.0
 20
0.0
 30
0.0
 70
   128
 71
   168
 72
   144
 73
   184
  0
VERTEX
  5
402
  8
0
 62
     9
 10
0.0
 20
0.0
 30
0.0
 70
   128
 71
   113
 72
   145
 73
   184
  0
VERTEX
  5
403
  8
0
 62
     9
 10
0.0
 20
0.0
 30
0.0
 70
   128
 71
   187
 72
   186
 73
   185
  0
VERTEX
  5
404
  8
0
 62
     9
 10
0.0
 20
0.0
 30
0.0
 70
   128
 71
   150
 72
   151
 73
   188
  0
VERTEX
  5
405
  8
0
 62
     9
 10
0.0
 20
0.0
 30
0.0
 70
   128
 71
   151
 72
   189
 73
   188
  0
VERTEX
  5
406
  8
0
 62
     9
 10
0.0
 20
0.0
 30
0.0
 70
   128
 71
   146
 72
   150
 73
   190
  0
VERTEX
  5
407
  8
0
 62
     9
 10
0.0
 20
0.0
 30
0.0
 70
   128
 71
   190
 72
   150
 73
   188
  0
VERTEX
  5
408
  8
0
 62
     9
 10
0.0
 20
0.0
 30
0.0
 70
   128
 71
   153
 72
   191
 73
   152
  0
VERTEX
  5
409
  8
0
 62
     9
 10
0.0
 20
0.0
 30
0.0
 70
   128
 71
   153
 72
   192
 73
   191
  0
VERTEX
  5
40A
  8
0
 62
     9
 10
0.0
 20
0.0
 30
0.0
 70
   128
 71
   152
 72
   191
 73
   189
  0
VERTEX
  5
40B
  8
0
 62
     9
 10
0.0
 20
0.0
 30
0.0
 70
   128
 71
   192
 72
   153
 73
   154
  0
VERTEX
  5
40C
  8
0
 62
     9
 10
0.0
 20
0.0
 30
0.0
 70
   128
 71
   155
 72
   193
 73
   154
  0
VERTEX
  5
40D
  8
0
 62
     9
 10
0.0
 20
0.0
 30
0.0
 70
   128
 71
   192
 72
   154
 73
   193
  0
VERTEX
  5
40E
  8
0
 62
     9
 10
0.0
 20
0.0
 30
0.0
 70
   128
 71
   157
 72
   156
 73
   194
  0
VERTEX
  5
40F
  8
0
 62
     9
 10
0.0
 20
0.0
 30
0.0
 70
   128
 71
   155
 72
   195
 73
   193
  0
VERTEX
  5
410
  8
0
 62
     9
 10
0.0
 20
0.0
 30
0.0
 70
   128
 71
   155
 72
   157
 73
   195
  0
VERTEX
  5
411
  8
0
 62
     9
 10
0.0
 20
0.0
 30
0.0
 70
   128
 71
   194
 72
   195
 73
   157
  0
VERTEX
  5
412
  8
0
 62
     9
 10
0.0
 20
0.0
 30
0.0
 70
   128
 71
   159
 72
   196
 73
   156
  0
VERTEX
  5
413
  8
0
 62
     9
 10
0.0
 20
0.0
 30
0.0
 70
   128
 71
   151
 72
   152
 73
   189
  0
VERTEX
  5
414
  8
0
 62
     9
 10
0.0
 20
0.0
 30
0.0
 70
   128
 71
   158
 72
   198
 73
   197
  0
VERTEX
  5
415
  8
0
 62
     9
 10
0.0
 20
0.0
 30
0.0
 70
   128
 71
   197
 72
   196
 73
   159
  0
VERTEX
  5
416
  8
0
 62
     9
 10
0.0
 20
0.0
 30
0.0
 70
   128
 71
   198
 72
   161
 73
   199
  0
VERTEX
  5
417
  8
0
 62
     9
 10
0.0
 20
0.0
 30
0.0
 70
   128
 71
   198
 72
   158
 73
   161
  0
VERTEX
  5
418
  8
0
 62
     9
 10
0.0
 20
0.0
 30
0.0
 70
   128
 71
   160
 72
   200
 73
   199
  0
VERTEX
  5
419
  8
0
 62
     9
 10
0.0
 20
0.0
 30
0.0
 70
   128
 71
   161
 72
   160
 73
   199
  0
VERTEX
  5
41A
  8
0
 62
     9
 10
0.0
 20
0.0
 30
0.0
 70
   128
 71
   201
 72
   200
 73
   147
  0
VERTEX
  5
41B
  8
0
 62
     9
 10
0.0
 20
0.0
 30
0.0
 70
   128
 71
   158
 72
   197
 73
   159
  0
VERTEX
  5
41C
  8
0
 62
     9
 10
0.0
 20
0.0
 30
0.0
 70
   128
 71
   201
 72
   148
 73
   202
  0
VERTEX
  5
41D
  8
0
 62
     9
 10
0.0
 20
0.0
 30
0.0
 70
   128
 71
   201
 72
   147
 73
   148
  0
VERTEX
  5
41E
  8
0
 62
     9
 10
0.0
 20
0.0
 30
0.0
 70
   128
 71
   203
 72
   164
 73
    74
  0
VERTEX
  5
41F
  8
0
 62
     9
 10
0.0
 20
0.0
 30
0.0
 70
   128
 71
   164
 72
   203
 73
   202
  0
VERTEX
  5
420
  8
0
 62
     9
 10
0.0
 20
0.0
 30
0.0
 70
   128
 71
   160
 72
   147
 73
   200
  0
VERTEX
  5
421
  8
0
 62
     9
 10
0.0
 20
0.0
 30
0.0
 70
   128
 71
   164
 72
   202
 73
   148
  0
VERTEX
  5
422
  8
0
 62
     9
 10
0.0
 20
0.0
 30
0.0
 70
   128
 71
    76
 72
   204
 73
    75
  0
VERTEX
  5
423
  8
0
 62
     9
 10
0.0
 20
0.0
 30
0.0
 70
   128
 71
   204
 72
   206
 73
   205
  0
VERTEX
  5
424
  8
0
 62
     9
 10
0.0
 20
0.0
 30
0.0
 70
   128
 71
    75
 72
   203
 73
    74
  0
VERTEX
  5
425
  8
0
 62
     9
 10
0.0
 20
0.0
 30
0.0
 70
   128
 71
   156
 72
   196
 73
   194
  0
VERTEX
  5
426
  8
0
 62
     9
 10
0.0
 20
0.0
 30
0.0
 70
   128
 71
    75
 72
   204
 73
   203
  0
VERTEX
  5
427
  8
0
 62
     9
 10
0.0
 20
0.0
 30
0.0
 70
   128
 71
   190
 72
   207
 73
   146
  0
VERTEX
  5
428
  8
0
 62
     9
 10
0.0
 20
0.0
 30
0.0
 70
   128
 71
   207
 72
   145
 73
   146
  0
VERTEX
  5
429
  8
0
 62
     9
 10
0.0
 20
0.0
 30
0.0
 70
   128
 71
   145
 72
   208
 73
   184
  0
VERTEX
  5
42A
  8
0
 62
     9
 10
0.0
 20
0.0
 30
0.0
 70
   128
 71
   208
 72
   145
 73
   207
  0
VERTEX
  5
42B
  8
0
 62
     9
 10
0.0
 20
0.0
 30
0.0
 70
   128
 71
   209
 72
   168
 73
   184
  0
VERTEX
  5
42C
  8
0
 62
     9
 10
0.0
 20
0.0
 30
0.0
 70
   128
 71
   184
 72
   208
 73
   209
  0
VERTEX
  5
42D
  8
0
 62
     9
 10
0.0
 20
0.0
 30
0.0
 70
   128
 71
   169
 72
   168
 73
   210
  0
VERTEX
  5
42E
  8
0
 62
     9
 10
0.0
 20
0.0
 30
0.0
 70
   128
 71
   209
 72
   210
 73
   168
  0
VERTEX
  5
42F
  8
0
 62
     9
 10
0.0
 20
0.0
 30
0.0
 70
   128
 71
   169
 72
   211
 73
   183
  0
VERTEX
  5
430
  8
0
 62
     9
 10
0.0
 20
0.0
 30
0.0
 70
   128
 71
   211
 72
   169
 73
   210
  0
VERTEX
  5
431
  8
0
 62
     9
 10
0.0
 20
0.0
 30
0.0
 70
   128
 71
   211
 72
   213
 73
   212
  0
VERTEX
  5
432
  8
0
 62
     9
 10
0.0
 20
0.0
 30
0.0
 70
   128
 71
   183
 72
   211
 73
   214
  0
VERTEX
  5
433
  8
0
 62
     9
 10
0.0
 20
0.0
 30
0.0
 70
   128
 71
   214
 72
   182
 73
   183
  0
VERTEX
  5
434
  8
0
 62
     9
 10
0.0
 20
0.0
 30
0.0
 70
   128
 71
   214
 72
   215
 73
   182
  0
VERTEX
  5
435
  8
0
 62
     9
 10
0.0
 20
0.0
 30
0.0
 70
   128
 71
   181
 72
   182
 73
   215
  0
VERTEX
  5
436
  8
0
 62
     9
 10
0.0
 20
0.0
 30
0.0
 70
   128
 71
   216
 72
   181
 73
   215
  0
VERTEX
  5
437
  8
0
 62
     9
 10
0.0
 20
0.0
 30
0.0
 70
   128
 71
   181
 72
   216
 73
   180
  0
VERTEX
  5
438
  8
0
 62
     9
 10
0.0
 20
0.0
 30
0.0
 70
   128
 71
   180
 72
   216
 73
   217
  0
VERTEX
  5
439
  8
0
 62
     9
 10
0.0
 20
0.0
 30
0.0
 70
   128
 71
   218
 72
   179
 73
   217
  0
VERTEX
  5
43A
  8
0
 62
     9
 10
0.0
 20
0.0
 30
0.0
 70
   128
 71
   218
 72
   219
 73
   178
  0
VERTEX
  5
43B
  8
0
 62
     9
 10
0.0
 20
0.0
 30
0.0
 70
   128
 71
   220
 72
   218
 73
   217
  0
VERTEX
  5
43C
  8
0
 62
     9
 10
0.0
 20
0.0
 30
0.0
 70
   128
 71
   221
 72
   170
 73
   219
  0
VERTEX
  5
43D
  8
0
 62
     9
 10
0.0
 20
0.0
 30
0.0
 70
   128
 71
   219
 72
   218
 73
   222
  0
VERTEX
  5
43E
  8
0
 62
     9
 10
0.0
 20
0.0
 30
0.0
 70
   128
 71
   173
 72
   171
 73
   221
  0
VERTEX
  5
43F
  8
0
 62
     9
 10
0.0
 20
0.0
 30
0.0
 70
   128
 71
   219
 72
   223
 73
   221
  0
VERTEX
  5
440
  8
0
 62
     9
 10
0.0
 20
0.0
 30
0.0
 70
   128
 71
   173
 72
   221
 73
   224
  0
VERTEX
  5
441
  8
0
 62
     9
 10
0.0
 20
0.0
 30
0.0
 70
   128
 71
   221
 72
   225
 73
   224
  0
VERTEX
  5
442
  8
0
 62
     9
 10
0.0
 20
0.0
 30
0.0
 70
   128
 71
   224
 72
   226
 73
   172
  0
VERTEX
  5
443
  8
0
 62
     9
 10
0.0
 20
0.0
 30
0.0
 70
   128
 71
   172
 72
   173
 73
   224
  0
VERTEX
  5
444
  8
0
 62
     9
 10
0.0
 20
0.0
 30
0.0
 70
   128
 71
   227
 72
   174
 73
   226
  0
VERTEX
  5
445
  8
0
 62
     9
 10
0.0
 20
0.0
 30
0.0
 70
   128
 71
   172
 72
   226
 73
   174
  0
VERTEX
  5
446
  8
0
 62
     9
 10
0.0
 20
0.0
 30
0.0
 70
   128
 71
   175
 72
   227
 73
   228
  0
VERTEX
  5
447
  8
0
 62
     9
 10
0.0
 20
0.0
 30
0.0
 70
   128
 71
   226
 72
   230
 73
   229
  0
VERTEX
  5
448
  8
0
 62
     9
 10
0.0
 20
0.0
 30
0.0
 70
   128
 71
   186
 72
   176
 73
   228
  0
VERTEX
  5
449
  8
0
 62
     9
 10
0.0
 20
0.0
 30
0.0
 70
   128
 71
   227
 72
   175
 73
   174
  0
VERTEX
  5
44A
  8
0
 62
     9
 10
0.0
 20
0.0
 30
0.0
 70
   128
 71
   228
 72
   185
 73
   186
  0
VERTEX
  5
44B
  8
0
 62
     9
 10
0.0
 20
0.0
 30
0.0
 70
   128
 71
   186
 72
   177
 73
   176
  0
VERTEX
  5
44C
  8
0
 62
     9
 10
0.0
 20
0.0
 30
0.0
 70
   128
 71
   185
 72
   228
 73
   231
  0
VERTEX
  5
44D
  8
0
 62
     9
 10
0.0
 20
0.0
 30
0.0
 70
   128
 71
   228
 72
   176
 73
   175
  0
VERTEX
  5
44E
  8
0
 62
     9
 10
0.0
 20
0.0
 30
0.0
 70
   128
 71
   227
 72
   231
 73
   228
  0
VERTEX
  5
44F
  8
0
 62
     9
 10
0.0
 20
0.0
 30
0.0
 70
   128
 71
   231
 72
   227
 73
   229
  0
VERTEX
  5
450
  8
0
 62
     9
 10
0.0
 20
0.0
 30
0.0
 70
   128
 71
   227
 72
   226
 73
   229
  0
VERTEX
  5
451
  8
0
 62
     9
 10
0.0
 20
0.0
 30
0.0
 70
   128
 71
   224
 72
   225
 73
   230
  0
VERTEX
  5
452
  8
0
 62
     9
 10
0.0
 20
0.0
 30
0.0
 70
   128
 71
   226
 72
   224
 73
   230
  0
VERTEX
  5
453
  8
0
 62
     9
 10
0.0
 20
0.0
 30
0.0
 70
   128
 71
   221
 72
   232
 73
   225
  0
VERTEX
  5
454
  8
0
 62
     9
 10
0.0
 20
0.0
 30
0.0
 70
   128
 71
   232
 72
   221
 73
   223
  0
VERTEX
  5
455
  8
0
 62
     9
 10
0.0
 20
0.0
 30
0.0
 70
   128
 71
   221
 72
   171
 73
   170
  0
VERTEX
  5
456
  8
0
 62
     9
 10
0.0
 20
0.0
 30
0.0
 70
   128
 71
   223
 72
   219
 73
   222
  0
VERTEX
  5
457
  8
0
 62
     9
 10
0.0
 20
0.0
 30
0.0
 70
   128
 71
   219
 72
   170
 73
   178
  0
VERTEX
  5
458
  8
0
 62
     9
 10
0.0
 20
0.0
 30
0.0
 70
   128
 71
   222
 72
   218
 73
   220
  0
VERTEX
  5
459
  8
0
 62
     9
 10
0.0
 20
0.0
 30
0.0
 70
   128
 71
   218
 72
   178
 73
   179
  0
VERTEX
  5
45A
  8
0
 62
     9
 10
0.0
 20
0.0
 30
0.0
 70
   128
 71
   220
 72
   217
 73
   233
  0
VERTEX
  5
45B
  8
0
 62
     9
 10
0.0
 20
0.0
 30
0.0
 70
   128
 71
   217
 72
   179
 73
   180
  0
VERTEX
  5
45C
  8
0
 62
     9
 10
0.0
 20
0.0
 30
0.0
 70
   128
 71
   216
 72
   233
 73
   217
  0
VERTEX
  5
45D
  8
0
 62
     9
 10
0.0
 20
0.0
 30
0.0
 70
   128
 71
   233
 72
   216
 73
   234
  0
VERTEX
  5
45E
  8
0
 62
     9
 10
0.0
 20
0.0
 30
0.0
 70
   128
 71
   215
 72
   234
 73
   216
  0
VERTEX
  5
45F
  8
0
 62
     9
 10
0.0
 20
0.0
 30
0.0
 70
   128
 71
   234
 72
   215
 73
   235
  0
VERTEX
  5
460
  8
0
 62
     9
 10
0.0
 20
0.0
 30
0.0
 70
   128
 71
   214
 72
   235
 73
   215
  0
VERTEX
  5
461
  8
0
 62
     9
 10
0.0
 20
0.0
 30
0.0
 70
   128
 71
   235
 72
   214
 73
   212
  0
VERTEX
  5
462
  8
0
 62
     9
 10
0.0
 20
0.0
 30
0.0
 70
   128
 71
   214
 72
   211
 73
   212
  0
VERTEX
  5
463
  8
0
 62
     9
 10
0.0
 20
0.0
 30
0.0
 70
   128
 71
   210
 72
   236
 73
   213
  0
VERTEX
  5
464
  8
0
 62
     9
 10
0.0
 20
0.0
 30
0.0
 70
   128
 71
   211
 72
   210
 73
   213
  0
VERTEX
  5
465
  8
0
 62
     9
 10
0.0
 20
0.0
 30
0.0
 70
   128
 71
   209
 72
   237
 73
   236
  0
VERTEX
  5
466
  8
0
 62
     9
 10
0.0
 20
0.0
 30
0.0
 70
   128
 71
   210
 72
   209
 73
   236
  0
VERTEX
  5
467
  8
0
 62
     9
 10
0.0
 20
0.0
 30
0.0
 70
   128
 71
   208
 72
   238
 73
   237
  0
VERTEX
  5
468
  8
0
 62
     9
 10
0.0
 20
0.0
 30
0.0
 70
   128
 71
   209
 72
   208
 73
   237
  0
VERTEX
  5
469
  8
0
 62
     9
 10
0.0
 20
0.0
 30
0.0
 70
   128
 71
   207
 72
   239
 73
   238
  0
VERTEX
  5
46A
  8
0
 62
     9
 10
0.0
 20
0.0
 30
0.0
 70
   128
 71
   208
 72
   207
 73
   238
  0
VERTEX
  5
46B
  8
0
 62
     9
 10
0.0
 20
0.0
 30
0.0
 70
   128
 71
   190
 72
   240
 73
   239
  0
VERTEX
  5
46C
  8
0
 62
     9
 10
0.0
 20
0.0
 30
0.0
 70
   128
 71
   207
 72
   190
 73
   239
  0
VERTEX
  5
46D
  8
0
 62
     9
 10
0.0
 20
0.0
 30
0.0
 70
   128
 71
   188
 72
   241
 73
   240
  0
VERTEX
  5
46E
  8
0
 62
     9
 10
0.0
 20
0.0
 30
0.0
 70
   128
 71
   190
 72
   188
 73
   240
  0
VERTEX
  5
46F
  8
0
 62
     9
 10
0.0
 20
0.0
 30
0.0
 70
   128
 71
   189
 72
   242
 73
   241
  0
VERTEX
  5
470
  8
0
 62
     9
 10
0.0
 20
0.0
 30
0.0
 70
   128
 71
   188
 72
   189
 73
   241
  0
VERTEX
  5
471
  8
0
 62
     9
 10
0.0
 20
0.0
 30
0.0
 70
   128
 71
   191
 72
   243
 73
   242
  0
VERTEX
  5
472
  8
0
 62
     9
 10
0.0
 20
0.0
 30
0.0
 70
   128
 71
   189
 72
   191
 73
   242
  0
VERTEX
  5
473
  8
0
 62
     9
 10
0.0
 20
0.0
 30
0.0
 70
   128
 71
   192
 72
   244
 73
   243
  0
VERTEX
  5
474
  8
0
 62
     9
 10
0.0
 20
0.0
 30
0.0
 70
   128
 71
   191
 72
   192
 73
   243
  0
VERTEX
  5
475
  8
0
 62
     9
 10
0.0
 20
0.0
 30
0.0
 70
   128
 71
   193
 72
   245
 73
   244
  0
VERTEX
  5
476
  8
0
 62
     9
 10
0.0
 20
0.0
 30
0.0
 70
   128
 71
   192
 72
   193
 73
   244
  0
VERTEX
  5
477
  8
0
 62
     9
 10
0.0
 20
0.0
 30
0.0
 70
   128
 71
   195
 72
   246
 73
   245
  0
VERTEX
  5
478
  8
0
 62
     9
 10
0.0
 20
0.0
 30
0.0
 70
   128
 71
   193
 72
   195
 73
   245
  0
VERTEX
  5
479
  8
0
 62
     9
 10
0.0
 20
0.0
 30
0.0
 70
   128
 71
   194
 72
   247
 73
   246
  0
VERTEX
  5
47A
  8
0
 62
     9
 10
0.0
 20
0.0
 30
0.0
 70
   128
 71
   195
 72
   194
 73
   246
  0
VERTEX
  5
47B
  8
0
 62
     9
 10
0.0
 20
0.0
 30
0.0
 70
   128
 71
   196
 72
   248
 73
   247
  0
VERTEX
  5
47C
  8
0
 62
     9
 10
0.0
 20
0.0
 30
0.0
 70
   128
 71
   194
 72
   196
 73
   247
  0
VERTEX
  5
47D
  8
0
 62
     9
 10
0.0
 20
0.0
 30
0.0
 70
   128
 71
   197
 72
   249
 73
   248
  0
VERTEX
  5
47E
  8
0
 62
     9
 10
0.0
 20
0.0
 30
0.0
 70
   128
 71
   196
 72
   197
 73
   248
  0
VERTEX
  5
47F
  8
0
 62
     9
 10
0.0
 20
0.0
 30
0.0
 70
   128
 71
   198
 72
   250
 73
   249
  0
VERTEX
  5
480
  8
0
 62
     9
 10
0.0
 20
0.0
 30
0.0
 70
   128
 71
   197
 72
   198
 73
   249
  0
VERTEX
  5
481
  8
0
 62
     9
 10
0.0
 20
0.0
 30
0.0
 70
   128
 71
   199
 72
   251
 73
   250
  0
VERTEX
  5
482
  8
0
 62
     9
 10
0.0
 20
0.0
 30
0.0
 70
   128
 71
   198
 72
   199
 73
   250
  0
VERTEX
  5
483
  8
0
 62
     9
 10
0.0
 20
0.0
 30
0.0
 70
   128
 71
   200
 72
   252
 73
   251
  0
VERTEX
  5
484
  8
0
 62
     9
 10
0.0
 20
0.0
 30
0.0
 70
   128
 71
   199
 72
   200
 73
   251
  0
VERTEX
  5
485
  8
0
 62
     9
 10
0.0
 20
0.0
 30
0.0
 70
   128
 71
   201
 72
   253
 73
   252
  0
VERTEX
  5
486
  8
0
 62
     9
 10
0.0
 20
0.0
 30
0.0
 70
   128
 71
   200
 72
   201
 73
   252
  0
VERTEX
  5
487
  8
0
 62
     9
 10
0.0
 20
0.0
 30
0.0
 70
   128
 71
   202
 72
   254
 73
   253
  0
VERTEX
  5
488
  8
0
 62
     9
 10
0.0
 20
0.0
 30
0.0
 70
   128
 71
   201
 72
   202
 73
   253
  0
VERTEX
  5
489
  8
0
 62
     9
 10
0.0
 20
0.0
 30
0.0
 70
   128
 71
   203
 72
   205
 73
   254
  0
VERTEX
  5
48A
  8
0
 62
     9
 10
0.0
 20
0.0
 30
0.0
 70
   128
 71
   202
 72
   203
 73
   254
  0
VERTEX
  5
48B
  8
0
 62
     9
 10
0.0
 20
0.0
 30
0.0
 70
   128
 71
   205
 72
   203
 73
   204
  0
VERTEX
  5
48C
  8
0
 62
     9
 10
0.0
 20
0.0
 30
0.0
 70
   128
 71
   255
 72
   128
 73
   131
  0
VERTEX
  5
48D
  8
0
 62
     9
 10
0.0
 20
0.0
 30
0.0
 70
   128
 71
   257
 72
   256
 73
   129
  0
VERTEX
  5
48E
  8
0
 62
     9
 10
0.0
 20
0.0
 30
0.0
 70
   128
 71
   256
 72
   126
 73
   129
  0
VERTEX
  5
48F
  8
0
 62
     9
 10
0.0
 20
0.0
 30
0.0
 70
   128
 71
   256
 72
   258
 73
   126
  0
VERTEX
  5
490
  8
0
 62
     9
 10
0.0
 20
0.0
 30
0.0
 70
   128
 71
   261
 72
   260
 73
   259
  0
VERTEX
  5
491
  8
0
 62
     9
 10
0.0
 20
0.0
 30
0.0
 70
   128
 71
   126
 72
   258
 73
   127
  0
VERTEX
  5
492
  8
0
 62
     9
 10
0.0
 20
0.0
 30
0.0
 70
   128
 71
   263
 72
   125
 73
   262
  0
VERTEX
  5
493
  8
0
 62
     9
 10
0.0
 20
0.0
 30
0.0
 70
   128
 71
   262
 72
   265
 73
   264
  0
VERTEX
  5
494
  8
0
 62
     9
 10
0.0
 20
0.0
 30
0.0
 70
   128
 71
   264
 72
   263
 73
   262
  0
VERTEX
  5
495
  8
0
 62
     9
 10
0.0
 20
0.0
 30
0.0
 70
   128
 71
   125
 72
   263
 73
   124
  0
VERTEX
  5
496
  8
0
 62
     9
 10
0.0
 20
0.0
 30
0.0
 70
   128
 71
   258
 72
   262
 73
   127
  0
VERTEX
  5
497
  8
0
 62
     9
 10
0.0
 20
0.0
 30
0.0
 70
   128
 71
   257
 72
   266
 73
   256
  0
VERTEX
  5
498
  8
0
 62
     9
 10
0.0
 20
0.0
 30
0.0
 70
   128
 71
   257
 72
   128
 73
   255
  0
VERTEX
  5
499
  8
0
 62
     9
 10
0.0
 20
0.0
 30
0.0
 70
   128
 71
    26
 72
   267
 73
    20
  0
VERTEX
  5
49A
  8
0
 62
     9
 10
0.0
 20
0.0
 30
0.0
 70
   128
 71
   268
 72
   255
 73
   131
  0
VERTEX
  5
49B
  8
0
 62
     9
 10
0.0
 20
0.0
 30
0.0
 70
   128
 71
   128
 72
   257
 73
   129
  0
VERTEX
  5
49C
  8
0
 62
     9
 10
0.0
 20
0.0
 30
0.0
 70
   128
 71
   130
 72
   269
 73
   268
  0
VERTEX
  5
49D
  8
0
 62
     9
 10
0.0
 20
0.0
 30
0.0
 70
   128
 71
   271
 72
   270
 73
   269
  0
VERTEX
  5
49E
  8
0
 62
     9
 10
0.0
 20
0.0
 30
0.0
 70
   128
 71
   268
 72
   131
 73
   130
  0
VERTEX
  5
49F
  8
0
 62
     9
 10
0.0
 20
0.0
 30
0.0
 70
   128
 71
   273
 72
   271
 73
   272
  0
VERTEX
  5
4A0
  8
0
 62
     9
 10
0.0
 20
0.0
 30
0.0
 70
   128
 71
   130
 72
   132
 73
   269
  0
VERTEX
  5
4A1
  8
0
 62
     9
 10
0.0
 20
0.0
 30
0.0
 70
   128
 71
   276
 72
   275
 73
   274
  0
VERTEX
  5
4A2
  8
0
 62
     9
 10
0.0
 20
0.0
 30
0.0
 70
   128
 71
   273
 72
   278
 73
   277
  0
VERTEX
  5
4A3
  8
0
 62
     9
 10
0.0
 20
0.0
 30
0.0
 70
   128
 71
   281
 72
   280
 73
   279
  0
VERTEX
  5
4A4
  8
0
 62
     9
 10
0.0
 20
0.0
 30
0.0
 70
   128
 71
   275
 72
   276
 73
   282
  0
VERTEX
  5
4A5
  8
0
 62
     9
 10
0.0
 20
0.0
 30
0.0
 70
   128
 71
   279
 72
     1
 73
     7
  0
VERTEX
  5
4A6
  8
0
 62
     9
 10
0.0
 20
0.0
 30
0.0
 70
   128
 71
   280
 72
   281
 73
   276
  0
VERTEX
  5
4A7
  8
0
 62
     9
 10
0.0
 20
0.0
 30
0.0
 70
   128
 71
   275
 72
   277
 73
   278
  0
VERTEX
  5
4A8
  8
0
 62
     9
 10
0.0
 20
0.0
 30
0.0
 70
   128
 71
   272
 72
   278
 73
   273
  0
VERTEX
  5
4A9
  8
0
 62
     9
 10
0.0
 20
0.0
 30
0.0
 70
   128
 71
   133
 72
   272
 73
   271
  0
VERTEX
  5
4AA
  8
0
 62
     9
 10
0.0
 20
0.0
 30
0.0
 70
   128
 71
   271
 72
   269
 73
   132
  0
VERTEX
  5
4AB
  8
0
 62
     9
 10
0.0
 20
0.0
 30
0.0
 70
   128
 71
   127
 72
   262
 73
   125
  0
VERTEX
  5
4AC
  8
0
 62
     9
 10
0.0
 20
0.0
 30
0.0
 70
   128
 71
   264
 72
   265
 73
   283
  0
VERTEX
  5
4AD
  8
0
 62
     9
 10
0.0
 20
0.0
 30
0.0
 70
   128
 71
   265
 72
   284
 73
   283
  0
VERTEX
  5
4AE
  8
0
 62
     9
 10
0.0
 20
0.0
 30
0.0
 70
   128
 71
   285
 72
   258
 73
   256
  0
VERTEX
  5
4AF
  8
0
 62
     9
 10
0.0
 20
0.0
 30
0.0
 70
   128
 71
   285
 72
   265
 73
   258
  0
VERTEX
  5
4B0
  8
0
 62
     9
 10
0.0
 20
0.0
 30
0.0
 70
   128
 71
   266
 72
   286
 73
   259
  0
VERTEX
  5
4B1
  8
0
 62
     9
 10
0.0
 20
0.0
 30
0.0
 70
   128
 71
   256
 72
   266
 73
   285
  0
VERTEX
  5
4B2
  8
0
 62
     9
 10
0.0
 20
0.0
 30
0.0
 70
   128
 71
   257
 72
   255
 73
   286
  0
VERTEX
  5
4B3
  8
0
 62
     9
 10
0.0
 20
0.0
 30
0.0
 70
   128
 71
   286
 72
   266
 73
   257
  0
VERTEX
  5
4B4
  8
0
 62
     9
 10
0.0
 20
0.0
 30
0.0
 70
   128
 71
   255
 72
   268
 73
   287
  0
VERTEX
  5
4B5
  8
0
 62
     9
 10
0.0
 20
0.0
 30
0.0
 70
   128
 71
   287
 72
   286
 73
   255
  0
VERTEX
  5
4B6
  8
0
 62
     9
 10
0.0
 20
0.0
 30
0.0
 70
   128
 71
   268
 72
   269
 73
   288
  0
VERTEX
  5
4B7
  8
0
 62
     9
 10
0.0
 20
0.0
 30
0.0
 70
   128
 71
   268
 72
   288
 73
   287
  0
VERTEX
  5
4B8
  8
0
 62
     9
 10
0.0
 20
0.0
 30
0.0
 70
   128
 71
   270
 72
   288
 73
   269
  0
VERTEX
  5
4B9
  8
0
 62
     9
 10
0.0
 20
0.0
 30
0.0
 70
   128
 71
   134
 72
   272
 73
   133
  0
VERTEX
  5
4BA
  8
0
 62
     9
 10
0.0
 20
0.0
 30
0.0
 70
   128
 71
   133
 72
   271
 73
   132
  0
VERTEX
  5
4BB
  8
0
 62
     9
 10
0.0
 20
0.0
 30
0.0
 70
   128
 71
   273
 72
   270
 73
   271
  0
VERTEX
  5
4BC
  8
0
 62
     9
 10
0.0
 20
0.0
 30
0.0
 70
   128
 71
   272
 72
   134
 73
   289
  0
VERTEX
  5
4BD
  8
0
 62
     9
 10
0.0
 20
0.0
 30
0.0
 70
   128
 71
   258
 72
   265
 73
   262
  0
VERTEX
  5
4BE
  8
0
 62
     9
 10
0.0
 20
0.0
 30
0.0
 70
   128
 71
   283
 72
   284
 73
   290
  0
VERTEX
  5
4BF
  8
0
 62
     9
 10
0.0
 20
0.0
 30
0.0
 70
   128
 71
    20
 72
   267
 73
   291
  0
VERTEX
  5
4C0
  8
0
 62
     9
 10
0.0
 20
0.0
 30
0.0
 70
   128
 71
   290
 72
   284
 73
   292
  0
VERTEX
  5
4C1
  8
0
 62
     9
 10
0.0
 20
0.0
 30
0.0
 70
   128
 71
   284
 72
   285
 73
   293
  0
VERTEX
  5
4C2
  8
0
 62
     9
 10
0.0
 20
0.0
 30
0.0
 70
   128
 71
   287
 72
   261
 73
   286
  0
VERTEX
  5
4C3
  8
0
 62
     9
 10
0.0
 20
0.0
 30
0.0
 70
   128
 71
   266
 72
   259
 73
   293
  0
VERTEX
  5
4C4
  8
0
 62
     9
 10
0.0
 20
0.0
 30
0.0
 70
   128
 71
   288
 72
   294
 73
   287
  0
VERTEX
  5
4C5
  8
0
 62
     9
 10
0.0
 20
0.0
 30
0.0
 70
   128
 71
   286
 72
   261
 73
   259
  0
VERTEX
  5
4C6
  8
0
 62
     9
 10
0.0
 20
0.0
 30
0.0
 70
   128
 71
   270
 72
   295
 73
   288
  0
VERTEX
  5
4C7
  8
0
 62
     9
 10
0.0
 20
0.0
 30
0.0
 70
   128
 71
   287
 72
   294
 73
   261
  0
VERTEX
  5
4C8
  8
0
 62
     9
 10
0.0
 20
0.0
 30
0.0
 70
   128
 71
   273
 72
   296
 73
   270
  0
VERTEX
  5
4C9
  8
0
 62
     9
 10
0.0
 20
0.0
 30
0.0
 70
   128
 71
   288
 72
   295
 73
   294
  0
VERTEX
  5
4CA
  8
0
 62
     9
 10
0.0
 20
0.0
 30
0.0
 70
   128
 71
   276
 72
   281
 73
   297
  0
VERTEX
  5
4CB
  8
0
 62
     9
 10
0.0
 20
0.0
 30
0.0
 70
   128
 71
   270
 72
   296
 73
   295
  0
VERTEX
  5
4CC
  8
0
 62
     9
 10
0.0
 20
0.0
 30
0.0
 70
   128
 71
   289
 72
   278
 73
   272
  0
VERTEX
  5
4CD
  8
0
 62
     9
 10
0.0
 20
0.0
 30
0.0
 70
   128
 71
   296
 72
   273
 73
   277
  0
VERTEX
  5
4CE
  8
0
 62
     9
 10
0.0
 20
0.0
 30
0.0
 70
   128
 71
   278
 72
   289
 73
   298
  0
VERTEX
  5
4CF
  8
0
 62
     9
 10
0.0
 20
0.0
 30
0.0
 70
   128
 71
   285
 72
   284
 73
   265
  0
VERTEX
  5
4D0
  8
0
 62
     9
 10
0.0
 20
0.0
 30
0.0
 70
   128
 71
   290
 72
   292
 73
   299
  0
VERTEX
  5
4D1
  8
0
 62
     9
 10
0.0
 20
0.0
 30
0.0
 70
   128
 71
   300
 72
   292
 73
   267
  0
VERTEX
  5
4D2
  8
0
 62
     9
 10
0.0
 20
0.0
 30
0.0
 70
   128
 71
   266
 72
   293
 73
   285
  0
VERTEX
  5
4D3
  8
0
 62
     9
 10
0.0
 20
0.0
 30
0.0
 70
   128
 71
   301
 72
   292
 73
   293
  0
VERTEX
  5
4D4
  8
0
 62
     9
 10
0.0
 20
0.0
 30
0.0
 70
   128
 71
   294
 72
   302
 73
   261
  0
VERTEX
  5
4D5
  8
0
 62
     9
 10
0.0
 20
0.0
 30
0.0
 70
   128
 71
   260
 72
   301
 73
   259
  0
VERTEX
  5
4D6
  8
0
 62
     9
 10
0.0
 20
0.0
 30
0.0
 70
   128
 71
   295
 72
   303
 73
   294
  0
VERTEX
  5
4D7
  8
0
 62
     9
 10
0.0
 20
0.0
 30
0.0
 70
   128
 71
   302
 72
   260
 73
   261
  0
VERTEX
  5
4D8
  8
0
 62
     9
 10
0.0
 20
0.0
 30
0.0
 70
   128
 71
   296
 72
   304
 73
   295
  0
VERTEX
  5
4D9
  8
0
 62
     9
 10
0.0
 20
0.0
 30
0.0
 70
   128
 71
   303
 72
   302
 73
   294
  0
VERTEX
  5
4DA
  8
0
 62
     9
 10
0.0
 20
0.0
 30
0.0
 70
   128
 71
   277
 72
   305
 73
   296
  0
VERTEX
  5
4DB
  8
0
 62
     9
 10
0.0
 20
0.0
 30
0.0
 70
   128
 71
   304
 72
   303
 73
   295
  0
VERTEX
  5
4DC
  8
0
 62
     9
 10
0.0
 20
0.0
 30
0.0
 70
   128
 71
   275
 72
   282
 73
   277
  0
VERTEX
  5
4DD
  8
0
 62
     9
 10
0.0
 20
0.0
 30
0.0
 70
   128
 71
   296
 72
   305
 73
   304
  0
VERTEX
  5
4DE
  8
0
 62
     9
 10
0.0
 20
0.0
 30
0.0
 70
   128
 71
   298
 72
   275
 73
   278
  0
VERTEX
  5
4DF
  8
0
 62
     9
 10
0.0
 20
0.0
 30
0.0
 70
   128
 71
   282
 72
   305
 73
   277
  0
VERTEX
  5
4E0
  8
0
 62
     9
 10
0.0
 20
0.0
 30
0.0
 70
   128
 71
   275
 72
   298
 73
   274
  0
VERTEX
  5
4E1
  8
0
 62
     9
 10
0.0
 20
0.0
 30
0.0
 70
   128
 71
   293
 72
   292
 73
   284
  0
VERTEX
  5
4E2
  8
0
 62
     9
 10
0.0
 20
0.0
 30
0.0
 70
   128
 71
   292
 72
   300
 73
   299
  0
VERTEX
  5
4E3
  8
0
 62
     9
 10
0.0
 20
0.0
 30
0.0
 70
   128
 71
   301
 72
   260
 73
   291
  0
VERTEX
  5
4E4
  8
0
 62
     9
 10
0.0
 20
0.0
 30
0.0
 70
   128
 71
   259
 72
   301
 73
   293
  0
VERTEX
  5
4E5
  8
0
 62
     9
 10
0.0
 20
0.0
 30
0.0
 70
   128
 71
   291
 72
   267
 73
   301
  0
VERTEX
  5
4E6
  8
0
 62
     9
 10
0.0
 20
0.0
 30
0.0
 70
   128
 71
   260
 72
   302
 73
   306
  0
VERTEX
  5
4E7
  8
0
 62
     9
 10
0.0
 20
0.0
 30
0.0
 70
   128
 71
   306
 72
   291
 73
   260
  0
VERTEX
  5
4E8
  8
0
 62
     9
 10
0.0
 20
0.0
 30
0.0
 70
   128
 71
   302
 72
   303
 73
   307
  0
VERTEX
  5
4E9
  8
0
 62
     9
 10
0.0
 20
0.0
 30
0.0
 70
   128
 71
   307
 72
   306
 73
   302
  0
VERTEX
  5
4EA
  8
0
 62
     9
 10
0.0
 20
0.0
 30
0.0
 70
   128
 71
   303
 72
   304
 73
   308
  0
VERTEX
  5
4EB
  8
0
 62
     9
 10
0.0
 20
0.0
 30
0.0
 70
   128
 71
   308
 72
   307
 73
   303
  0
VERTEX
  5
4EC
  8
0
 62
     9
 10
0.0
 20
0.0
 30
0.0
 70
   128
 71
   304
 72
   305
 73
   309
  0
VERTEX
  5
4ED
  8
0
 62
     9
 10
0.0
 20
0.0
 30
0.0
 70
   128
 71
   309
 72
   308
 73
   304
  0
VERTEX
  5
4EE
  8
0
 62
     9
 10
0.0
 20
0.0
 30
0.0
 70
   128
 71
   305
 72
   282
 73
   310
  0
VERTEX
  5
4EF
  8
0
 62
     9
 10
0.0
 20
0.0
 30
0.0
 70
   128
 71
   310
 72
   309
 73
   305
  0
VERTEX
  5
4F0
  8
0
 62
     9
 10
0.0
 20
0.0
 30
0.0
 70
   128
 71
   282
 72
   276
 73
   297
  0
VERTEX
  5
4F1
  8
0
 62
     9
 10
0.0
 20
0.0
 30
0.0
 70
   128
 71
   282
 72
   297
 73
   310
  0
VERTEX
  5
4F2
  8
0
 62
     9
 10
0.0
 20
0.0
 30
0.0
 70
   128
 71
   276
 72
   274
 73
   280
  0
VERTEX
  5
4F3
  8
0
 62
     9
 10
0.0
 20
0.0
 30
0.0
 70
   128
 71
   301
 72
   267
 73
   292
  0
VERTEX
  5
4F4
  8
0
 62
     9
 10
0.0
 20
0.0
 30
0.0
 70
   128
 71
   300
 72
   267
 73
    26
  0
VERTEX
  5
4F5
  8
0
 62
     9
 10
0.0
 20
0.0
 30
0.0
 70
   128
 71
   291
 72
    19
 73
    20
  0
VERTEX
  5
4F6
  8
0
 62
     9
 10
0.0
 20
0.0
 30
0.0
 70
   128
 71
   306
 72
    19
 73
   291
  0
VERTEX
  5
4F7
  8
0
 62
     9
 10
0.0
 20
0.0
 30
0.0
 70
   128
 71
   306
 72
    15
 73
    19
  0
VERTEX
  5
4F8
  8
0
 62
     9
 10
0.0
 20
0.0
 30
0.0
 70
   128
 71
   307
 72
    15
 73
   306
  0
VERTEX
  5
4F9
  8
0
 62
     9
 10
0.0
 20
0.0
 30
0.0
 70
   128
 71
   307
 72
    14
 73
    15
  0
VERTEX
  5
4FA
  8
0
 62
     9
 10
0.0
 20
0.0
 30
0.0
 70
   128
 71
   308
 72
    14
 73
   307
  0
VERTEX
  5
4FB
  8
0
 62
     9
 10
0.0
 20
0.0
 30
0.0
 70
   128
 71
   308
 72
    17
 73
    14
  0
VERTEX
  5
4FC
  8
0
 62
     9
 10
0.0
 20
0.0
 30
0.0
 70
   128
 71
   309
 72
    17
 73
   308
  0
VERTEX
  5
4FD
  8
0
 62
     9
 10
0.0
 20
0.0
 30
0.0
 70
   128
 71
   309
 72
     8
 73
    17
  0
VERTEX
  5
4FE
  8
0
 62
     9
 10
0.0
 20
0.0
 30
0.0
 70
   128
 71
   310
 72
     8
 73
   309
  0
VERTEX
  5
4FF
  8
0
 62
     9
 10
0.0
 20
0.0
 30
0.0
 70
   128
 71
   310
 72
    10
 73
     8
  0
VERTEX
  5
500
  8
0
 62
     9
 10
0.0
 20
0.0
 30
0.0
 70
   128
 71
   297
 72
    10
 73
   310
  0
VERTEX
  5
501
  8
0
 62
     9
 10
0.0
 20
0.0
 30
0.0
 70
   128
 71
   297
 72
    12
 73
    10
  0
VERTEX
  5
502
  8
0
 62
     9
 10
0.0
 20
0.0
 30
0.0
 70
   128
 71
   281
 72
    12
 73
   297
  0
VERTEX
  5
503
  8
0
 62
     9
 10
0.0
 20
0.0
 30
0.0
 70
   128
 71
   281
 72
     7
 73
    12
  0
VERTEX
  5
504
  8
0
 62
     9
 10
0.0
 20
0.0
 30
0.0
 70
   128
 71
     7
 72
   281
 73
   279
  0
VERTEX
  5
505
  8
0
 62
     9
 10
0.0
 20
0.0
 30
0.0
 70
   128
 71
   115
 72
   116
 73
   311
  0
VERTEX
  5
506
  8
0
 62
     9
 10
0.0
 20
0.0
 30
0.0
 70
   128
 71
   312
 72
   121
 73
   123
  0
VERTEX
  5
507
  8
0
 62
     9
 10
0.0
 20
0.0
 30
0.0
 70
   128
 71
   313
 72
   135
 73
   120
  0
VERTEX
  5
508
  8
0
 62
     9
 10
0.0
 20
0.0
 30
0.0
 70
   128
 71
   121
 72
   312
 73
   314
  0
VERTEX
  5
509
  8
0
 62
     9
 10
0.0
 20
0.0
 30
0.0
 70
   128
 71
   317
 72
   316
 73
   315
  0
VERTEX
  5
50A
  8
0
 62
     9
 10
0.0
 20
0.0
 30
0.0
 70
   128
 71
   320
 72
   319
 73
   318
  0
VERTEX
  5
50B
  8
0
 62
     9
 10
0.0
 20
0.0
 30
0.0
 70
   128
 71
    26
 72
   321
 73
   300
  0
VERTEX
  5
50C
  8
0
 62
     9
 10
0.0
 20
0.0
 30
0.0
 70
   128
 71
   299
 72
   321
 73
   320
  0
VERTEX
  5
50D
  8
0
 62
     9
 10
0.0
 20
0.0
 30
0.0
 70
   128
 71
   314
 72
   313
 73
   120
  0
VERTEX
  5
50E
  8
0
 62
     9
 10
0.0
 20
0.0
 30
0.0
 70
   128
 71
   313
 72
   322
 73
   135
  0
VERTEX
  5
50F
  8
0
 62
     9
 10
0.0
 20
0.0
 30
0.0
 70
   128
 71
   124
 72
   263
 73
   123
  0
VERTEX
  5
510
  8
0
 62
     9
 10
0.0
 20
0.0
 30
0.0
 70
   128
 71
   325
 72
   324
 73
   323
  0
VERTEX
  5
511
  8
0
 62
     9
 10
0.0
 20
0.0
 30
0.0
 70
   128
 71
   117
 72
   118
 73
   323
  0
VERTEX
  5
512
  8
0
 62
     9
 10
0.0
 20
0.0
 30
0.0
 70
   128
 71
   324
 72
   117
 73
   323
  0
VERTEX
  5
513
  8
0
 62
     9
 10
0.0
 20
0.0
 30
0.0
 70
   128
 71
   324
 72
   116
 73
   117
  0
VERTEX
  5
514
  8
0
 62
     9
 10
0.0
 20
0.0
 30
0.0
 70
   128
 71
   163
 72
   149
 73
   326
  0
VERTEX
  5
515
  8
0
 62
     9
 10
0.0
 20
0.0
 30
0.0
 70
   128
 71
   326
 72
   327
 73
   163
  0
VERTEX
  5
516
  8
0
 62
     9
 10
0.0
 20
0.0
 30
0.0
 70
   128
 71
   149
 72
   114
 73
   328
  0
VERTEX
  5
517
  8
0
 62
     9
 10
0.0
 20
0.0
 30
0.0
 70
   128
 71
   115
 72
   328
 73
   114
  0
VERTEX
  5
518
  8
0
 62
     9
 10
0.0
 20
0.0
 30
0.0
 70
   128
 71
   324
 72
   311
 73
   116
  0
VERTEX
  5
519
  8
0
 62
     9
 10
0.0
 20
0.0
 30
0.0
 70
   128
 71
   329
 72
   162
 73
   327
  0
VERTEX
  5
51A
  8
0
 62
     9
 10
0.0
 20
0.0
 30
0.0
 70
   128
 71
   332
 72
   331
 73
   330
  0
VERTEX
  5
51B
  8
0
 62
     9
 10
0.0
 20
0.0
 30
0.0
 70
   128
 71
   334
 72
   329
 73
   333
  0
VERTEX
  5
51C
  8
0
 62
     9
 10
0.0
 20
0.0
 30
0.0
 70
   128
 71
   336
 72
   335
 73
   334
  0
VERTEX
  5
51D
  8
0
 62
     9
 10
0.0
 20
0.0
 30
0.0
 70
   128
 71
     5
 72
   335
 73
     4
  0
VERTEX
  5
51E
  8
0
 62
     9
 10
0.0
 20
0.0
 30
0.0
 70
   128
 71
   167
 72
     5
 73
    35
  0
VERTEX
  5
51F
  8
0
 62
     9
 10
0.0
 20
0.0
 30
0.0
 70
   128
 71
   335
 72
   336
 73
     4
  0
VERTEX
  5
520
  8
0
 62
     9
 10
0.0
 20
0.0
 30
0.0
 70
   128
 71
   338
 72
   333
 73
   337
  0
VERTEX
  5
521
  8
0
 62
     9
 10
0.0
 20
0.0
 30
0.0
 70
   128
 71
   311
 72
   328
 73
   115
  0
VERTEX
  5
522
  8
0
 62
     9
 10
0.0
 20
0.0
 30
0.0
 70
   128
 71
   328
 72
   326
 73
   149
  0
VERTEX
  5
523
  8
0
 62
     9
 10
0.0
 20
0.0
 30
0.0
 70
   128
 71
   325
 72
   339
 73
   324
  0
VERTEX
  5
524
  8
0
 62
     9
 10
0.0
 20
0.0
 30
0.0
 70
   128
 71
   311
 72
   340
 73
   328
  0
VERTEX
  5
525
  8
0
 62
     9
 10
0.0
 20
0.0
 30
0.0
 70
   128
 71
   341
 72
   325
 73
   323
  0
VERTEX
  5
526
  8
0
 62
     9
 10
0.0
 20
0.0
 30
0.0
 70
   128
 71
   324
 72
   339
 73
   311
  0
VERTEX
  5
527
  8
0
 62
     9
 10
0.0
 20
0.0
 30
0.0
 70
   128
 71
   122
 72
   322
 73
   341
  0
VERTEX
  5
528
  8
0
 62
     9
 10
0.0
 20
0.0
 30
0.0
 70
   128
 71
   122
 72
   323
 73
   118
  0
VERTEX
  5
529
  8
0
 62
     9
 10
0.0
 20
0.0
 30
0.0
 70
   128
 71
   122
 72
   341
 73
   323
  0
VERTEX
  5
52A
  8
0
 62
     9
 10
0.0
 20
0.0
 30
0.0
 70
   128
 71
   343
 72
   313
 73
   342
  0
VERTEX
  5
52B
  8
0
 62
     9
 10
0.0
 20
0.0
 30
0.0
 70
   128
 71
   322
 72
   122
 73
   135
  0
VERTEX
  5
52C
  8
0
 62
     9
 10
0.0
 20
0.0
 30
0.0
 70
   128
 71
   121
 72
   314
 73
   120
  0
VERTEX
  5
52D
  8
0
 62
     9
 10
0.0
 20
0.0
 30
0.0
 70
   128
 71
   313
 72
   343
 73
   322
  0
VERTEX
  5
52E
  8
0
 62
     9
 10
0.0
 20
0.0
 30
0.0
 70
   128
 71
   328
 72
   340
 73
   326
  0
VERTEX
  5
52F
  8
0
 62
     9
 10
0.0
 20
0.0
 30
0.0
 70
   128
 71
   163
 72
   327
 73
   162
  0
VERTEX
  5
530
  8
0
 62
     9
 10
0.0
 20
0.0
 30
0.0
 70
   128
 71
   344
 72
   331
 73
   339
  0
VERTEX
  5
531
  8
0
 62
     9
 10
0.0
 20
0.0
 30
0.0
 70
   128
 71
   311
 72
   339
 73
   340
  0
VERTEX
  5
532
  8
0
 62
     9
 10
0.0
 20
0.0
 30
0.0
 70
   128
 71
   340
 72
   345
 73
   326
  0
VERTEX
  5
533
  8
0
 62
     9
 10
0.0
 20
0.0
 30
0.0
 70
   128
 71
   346
 72
   344
 73
   325
  0
VERTEX
  5
534
  8
0
 62
     9
 10
0.0
 20
0.0
 30
0.0
 70
   128
 71
   339
 72
   331
 73
   340
  0
VERTEX
  5
535
  8
0
 62
     9
 10
0.0
 20
0.0
 30
0.0
 70
   128
 71
   347
 72
   346
 73
   341
  0
VERTEX
  5
536
  8
0
 62
     9
 10
0.0
 20
0.0
 30
0.0
 70
   128
 71
   325
 72
   344
 73
   339
  0
VERTEX
  5
537
  8
0
 62
     9
 10
0.0
 20
0.0
 30
0.0
 70
   128
 71
   343
 72
   347
 73
   322
  0
VERTEX
  5
538
  8
0
 62
     9
 10
0.0
 20
0.0
 30
0.0
 70
   128
 71
   325
 72
   341
 73
   346
  0
VERTEX
  5
539
  8
0
 62
     9
 10
0.0
 20
0.0
 30
0.0
 70
   128
 71
   316
 72
   347
 73
   343
  0
VERTEX
  5
53A
  8
0
 62
     9
 10
0.0
 20
0.0
 30
0.0
 70
   128
 71
   341
 72
   322
 73
   347
  0
VERTEX
  5
53B
  8
0
 62
     9
 10
0.0
 20
0.0
 30
0.0
 70
   128
 71
   348
 72
   312
 73
   264
  0
VERTEX
  5
53C
  8
0
 62
     9
 10
0.0
 20
0.0
 30
0.0
 70
   128
 71
   312
 72
   123
 73
   263
  0
VERTEX
  5
53D
  8
0
 62
     9
 10
0.0
 20
0.0
 30
0.0
 70
   128
 71
   348
 72
   342
 73
   314
  0
VERTEX
  5
53E
  8
0
 62
     9
 10
0.0
 20
0.0
 30
0.0
 70
   128
 71
   312
 72
   263
 73
   264
  0
VERTEX
  5
53F
  8
0
 62
     9
 10
0.0
 20
0.0
 30
0.0
 70
   128
 71
   326
 72
   345
 73
   327
  0
VERTEX
  5
540
  8
0
 62
     9
 10
0.0
 20
0.0
 30
0.0
 70
   128
 71
   162
 72
   329
 73
   166
  0
VERTEX
  5
541
  8
0
 62
     9
 10
0.0
 20
0.0
 30
0.0
 70
   128
 71
   344
 72
   349
 73
   330
  0
VERTEX
  5
542
  8
0
 62
     9
 10
0.0
 20
0.0
 30
0.0
 70
   128
 71
   340
 72
   331
 73
   345
  0
VERTEX
  5
543
  8
0
 62
     9
 10
0.0
 20
0.0
 30
0.0
 70
   128
 71
   327
 72
   345
 73
   350
  0
VERTEX
  5
544
  8
0
 62
     9
 10
0.0
 20
0.0
 30
0.0
 70
   128
 71
   346
 72
   351
 73
   349
  0
VERTEX
  5
545
  8
0
 62
     9
 10
0.0
 20
0.0
 30
0.0
 70
   128
 71
   345
 72
   331
 73
   332
  0
VERTEX
  5
546
  8
0
 62
     9
 10
0.0
 20
0.0
 30
0.0
 70
   128
 71
   347
 72
   316
 73
   351
  0
VERTEX
  5
547
  8
0
 62
     9
 10
0.0
 20
0.0
 30
0.0
 70
   128
 71
   331
 72
   344
 73
   330
  0
VERTEX
  5
548
  8
0
 62
     9
 10
0.0
 20
0.0
 30
0.0
 70
   128
 71
   319
 72
   315
 73
   316
  0
VERTEX
  5
549
  8
0
 62
     9
 10
0.0
 20
0.0
 30
0.0
 70
   128
 71
   344
 72
   346
 73
   349
  0
VERTEX
  5
54A
  8
0
 62
     9
 10
0.0
 20
0.0
 30
0.0
 70
   128
 71
   343
 72
   319
 73
   316
  0
VERTEX
  5
54B
  8
0
 62
     9
 10
0.0
 20
0.0
 30
0.0
 70
   128
 71
   351
 72
   346
 73
   347
  0
VERTEX
  5
54C
  8
0
 62
     9
 10
0.0
 20
0.0
 30
0.0
 70
   128
 71
   318
 72
   348
 73
   283
  0
VERTEX
  5
54D
  8
0
 62
     9
 10
0.0
 20
0.0
 30
0.0
 70
   128
 71
   312
 72
   348
 73
   314
  0
VERTEX
  5
54E
  8
0
 62
     9
 10
0.0
 20
0.0
 30
0.0
 70
   128
 71
   314
 72
   342
 73
   313
  0
VERTEX
  5
54F
  8
0
 62
     9
 10
0.0
 20
0.0
 30
0.0
 70
   128
 71
   318
 72
   319
 73
   342
  0
VERTEX
  5
550
  8
0
 62
     9
 10
0.0
 20
0.0
 30
0.0
 70
   128
 71
   283
 72
   348
 73
   264
  0
VERTEX
  5
551
  8
0
 62
     9
 10
0.0
 20
0.0
 30
0.0
 70
   128
 71
   327
 72
   350
 73
   329
  0
VERTEX
  5
552
  8
0
 62
     9
 10
0.0
 20
0.0
 30
0.0
 70
   128
 71
   166
 72
   334
 73
   165
  0
VERTEX
  5
553
  8
0
 62
     9
 10
0.0
 20
0.0
 30
0.0
 70
   128
 71
   350
 72
   332
 73
   337
  0
VERTEX
  5
554
  8
0
 62
     9
 10
0.0
 20
0.0
 30
0.0
 70
   128
 71
   345
 72
   332
 73
   350
  0
VERTEX
  5
555
  8
0
 62
     9
 10
0.0
 20
0.0
 30
0.0
 70
   128
 71
   337
 72
   333
 73
   350
  0
VERTEX
  5
556
  8
0
 62
     9
 10
0.0
 20
0.0
 30
0.0
 70
   128
 71
   332
 72
   330
 73
   352
  0
VERTEX
  5
557
  8
0
 62
     9
 10
0.0
 20
0.0
 30
0.0
 70
   128
 71
   352
 72
   337
 73
   332
  0
VERTEX
  5
558
  8
0
 62
     9
 10
0.0
 20
0.0
 30
0.0
 70
   128
 71
   330
 72
   349
 73
   353
  0
VERTEX
  5
559
  8
0
 62
     9
 10
0.0
 20
0.0
 30
0.0
 70
   128
 71
   353
 72
   352
 73
   330
  0
VERTEX
  5
55A
  8
0
 62
     9
 10
0.0
 20
0.0
 30
0.0
 70
   128
 71
   349
 72
   351
 73
   354
  0
VERTEX
  5
55B
  8
0
 62
     9
 10
0.0
 20
0.0
 30
0.0
 70
   128
 71
   354
 72
   353
 73
   349
  0
VERTEX
  5
55C
  8
0
 62
     9
 10
0.0
 20
0.0
 30
0.0
 70
   128
 71
   351
 72
   316
 73
   317
  0
VERTEX
  5
55D
  8
0
 62
     9
 10
0.0
 20
0.0
 30
0.0
 70
   128
 71
   351
 72
   317
 73
   354
  0
VERTEX
  5
55E
  8
0
 62
     9
 10
0.0
 20
0.0
 30
0.0
 70
   128
 71
   320
 72
   318
 73
   290
  0
VERTEX
  5
55F
  8
0
 62
     9
 10
0.0
 20
0.0
 30
0.0
 70
   128
 71
   348
 72
   318
 73
   342
  0
VERTEX
  5
560
  8
0
 62
     9
 10
0.0
 20
0.0
 30
0.0
 70
   128
 71
   342
 72
   319
 73
   343
  0
VERTEX
  5
561
  8
0
 62
     9
 10
0.0
 20
0.0
 30
0.0
 70
   128
 71
   320
 72
   315
 73
   319
  0
VERTEX
  5
562
  8
0
 62
     9
 10
0.0
 20
0.0
 30
0.0
 70
   128
 71
   290
 72
   318
 73
   283
  0
VERTEX
  5
563
  8
0
 62
     9
 10
0.0
 20
0.0
 30
0.0
 70
   128
 71
   329
 72
   334
 73
   166
  0
VERTEX
  5
564
  8
0
 62
     9
 10
0.0
 20
0.0
 30
0.0
 70
   128
 71
   167
 72
   165
 73
   335
  0
VERTEX
  5
565
  8
0
 62
     9
 10
0.0
 20
0.0
 30
0.0
 70
   128
 71
   352
 72
   355
 73
   337
  0
VERTEX
  5
566
  8
0
 62
     9
 10
0.0
 20
0.0
 30
0.0
 70
   128
 71
   350
 72
   333
 73
   329
  0
VERTEX
  5
567
  8
0
 62
     9
 10
0.0
 20
0.0
 30
0.0
 70
   128
 71
   338
 72
   336
 73
   333
  0
VERTEX
  5
568
  8
0
 62
     9
 10
0.0
 20
0.0
 30
0.0
 70
   128
 71
   353
 72
   356
 73
   352
  0
VERTEX
  5
569
  8
0
 62
     9
 10
0.0
 20
0.0
 30
0.0
 70
   128
 71
   355
 72
   338
 73
   337
  0
VERTEX
  5
56A
  8
0
 62
     9
 10
0.0
 20
0.0
 30
0.0
 70
   128
 71
   354
 72
   357
 73
   353
  0
VERTEX
  5
56B
  8
0
 62
     9
 10
0.0
 20
0.0
 30
0.0
 70
   128
 71
   356
 72
   355
 73
   352
  0
VERTEX
  5
56C
  8
0
 62
     9
 10
0.0
 20
0.0
 30
0.0
 70
   128
 71
   317
 72
   358
 73
   354
  0
VERTEX
  5
56D
  8
0
 62
     9
 10
0.0
 20
0.0
 30
0.0
 70
   128
 71
   357
 72
   356
 73
   353
  0
VERTEX
  5
56E
  8
0
 62
     9
 10
0.0
 20
0.0
 30
0.0
 70
   128
 71
   315
 72
   359
 73
   317
  0
VERTEX
  5
56F
  8
0
 62
     9
 10
0.0
 20
0.0
 30
0.0
 70
   128
 71
   358
 72
   357
 73
   354
  0
VERTEX
  5
570
  8
0
 62
     9
 10
0.0
 20
0.0
 30
0.0
 70
   128
 71
    22
 72
   321
 73
    26
  0
VERTEX
  5
571
  8
0
 62
     9
 10
0.0
 20
0.0
 30
0.0
 70
   128
 71
   359
 72
   358
 73
   317
  0
VERTEX
  5
572
  8
0
 62
     9
 10
0.0
 20
0.0
 30
0.0
 70
   128
 71
   321
 72
   315
 73
   320
  0
VERTEX
  5
573
  8
0
 62
     9
 10
0.0
 20
0.0
 30
0.0
 70
   128
 71
   315
 72
   321
 73
   359
  0
VERTEX
  5
574
  8
0
 62
     9
 10
0.0
 20
0.0
 30
0.0
 70
   128
 71
   299
 72
   320
 73
   290
  0
VERTEX
  5
575
  8
0
 62
     9
 10
0.0
 20
0.0
 30
0.0
 70
   128
 71
   334
 72
   335
 73
   165
  0
VERTEX
  5
576
  8
0
 62
     9
 10
0.0
 20
0.0
 30
0.0
 70
   128
 71
   335
 72
     5
 73
   167
  0
VERTEX
  5
577
  8
0
 62
     9
 10
0.0
 20
0.0
 30
0.0
 70
   128
 71
     4
 72
   336
 73
    32
  0
VERTEX
  5
578
  8
0
 62
     9
 10
0.0
 20
0.0
 30
0.0
 70
   128
 71
   333
 72
   336
 73
   334
  0
VERTEX
  5
579
  8
0
 62
     9
 10
0.0
 20
0.0
 30
0.0
 70
   128
 71
   338
 72
    32
 73
   336
  0
VERTEX
  5
57A
  8
0
 62
     9
 10
0.0
 20
0.0
 30
0.0
 70
   128
 71
    32
 72
   338
 73
    34
  0
VERTEX
  5
57B
  8
0
 62
     9
 10
0.0
 20
0.0
 30
0.0
 70
   128
 71
   355
 72
    34
 73
   338
  0
VERTEX
  5
57C
  8
0
 62
     9
 10
0.0
 20
0.0
 30
0.0
 70
   128
 71
    34
 72
   355
 73
    30
  0
VERTEX
  5
57D
  8
0
 62
     9
 10
0.0
 20
0.0
 30
0.0
 70
   128
 71
   356
 72
    30
 73
   355
  0
VERTEX
  5
57E
  8
0
 62
     9
 10
0.0
 20
0.0
 30
0.0
 70
   128
 71
    30
 72
   356
 73
    39
  0
VERTEX
  5
57F
  8
0
 62
     9
 10
0.0
 20
0.0
 30
0.0
 70
   128
 71
   357
 72
    39
 73
   356
  0
VERTEX
  5
580
  8
0
 62
     9
 10
0.0
 20
0.0
 30
0.0
 70
   128
 71
    39
 72
   357
 73
    29
  0
VERTEX
  5
581
  8
0
 62
     9
 10
0.0
 20
0.0
 30
0.0
 70
   128
 71
   358
 72
    29
 73
   357
  0
VERTEX
  5
582
  8
0
 62
     9
 10
0.0
 20
0.0
 30
0.0
 70
   128
 71
    29
 72
   358
 73
    23
  0
VERTEX
  5
583
  8
0
 62
     9
 10
0.0
 20
0.0
 30
0.0
 70
   128
 71
   359
 72
    23
 73
   358
  0
VERTEX
  5
584
  8
0
 62
     9
 10
0.0
 20
0.0
 30
0.0
 70
   128
 71
    23
 72
   359
 73
    22
  0
VERTEX
  5
585
  8
0
 62
     9
 10
0.0
 20
0.0
 30
0.0
 70
   128
 71
   359
 72
   321
 73
    22
  0
VERTEX
  5
586
  8
0
 62
     9
 10
0.0
 20
0.0
 30
0.0
 70
   128
 71
   300
 72
   321
 73
   299
  0
VERTEX
  5
587
  8
0
 62
     9
 10
0.0
 20
0.0
 30
0.0
 70
   128
 71
   362
 72
   361
 73
   360
  0
VERTEX
  5
588
  8
0
 62
     9
 10
0.0
 20
0.0
 30
0.0
 70
   128
 71
   361
 72
   364
 73
   363
  0
VERTEX
  5
589
  8
0
 62
     9
 10
0.0
 20
0.0
 30
0.0
 70
   128
 71
   366
 72
   363
 73
   365
  0
VERTEX
  5
58A
  8
0
 62
     9
 10
0.0
 20
0.0
 30
0.0
 70
   128
 71
   368
 72
   363
 73
   367
  0
VERTEX
  5
58B
  8
0
 62
     9
 10
0.0
 20
0.0
 30
0.0
 70
   128
 71
   363
 72
   368
 73
   365
  0
VERTEX
  5
58C
  8
0
 62
     9
 10
0.0
 20
0.0
 30
0.0
 70
   128
 71
   370
 72
   363
 73
   369
  0
VERTEX
  5
58D
  8
0
 62
     9
 10
0.0
 20
0.0
 30
0.0
 70
   128
 71
   363
 72
   364
 73
   371
  0
VERTEX
  5
58E
  8
0
 62
     9
 10
0.0
 20
0.0
 30
0.0
 70
   128
 71
   363
 72
   372
 73
   367
  0
VERTEX
  5
58F
  8
0
 62
     9
 10
0.0
 20
0.0
 30
0.0
 70
   128
 71
   373
 72
   363
 73
   371
  0
VERTEX
  5
590
  8
0
 62
     9
 10
0.0
 20
0.0
 30
0.0
 70
   128
 71
   375
 72
   363
 73
   374
  0
VERTEX
  5
591
  8
0
 62
     9
 10
0.0
 20
0.0
 30
0.0
 70
   128
 71
   376
 72
   372
 73
   363
  0
VERTEX
  5
592
  8
0
 62
     9
 10
0.0
 20
0.0
 30
0.0
 70
   128
 71
   363
 72
   375
 73
   377
  0
VERTEX
  5
593
  8
0
 62
     9
 10
0.0
 20
0.0
 30
0.0
 70
   128
 71
   363
 72
   377
 73
   376
  0
VERTEX
  5
594
  8
0
 62
     9
 10
0.0
 20
0.0
 30
0.0
 70
   128
 71
   379
 72
   378
 73
   377
  0
VERTEX
  5
595
  8
0
 62
     9
 10
0.0
 20
0.0
 30
0.0
 70
   128
 71
   376
 72
   377
 73
   378
  0
VERTEX
  5
596
  8
0
 62
     9
 10
0.0
 20
0.0
 30
0.0
 70
   128
 71
   381
 72
   379
 73
   380
  0
VERTEX
  5
597
  8
0
 62
     9
 10
0.0
 20
0.0
 30
0.0
 70
   128
 71
   379
 72
   381
 73
   378
  0
VERTEX
  5
598
  8
0
 62
     9
 10
0.0
 20
0.0
 30
0.0
 70
   128
 71
   381
 72
   380
 73
   382
  0
VERTEX
  5
599
  8
0
 62
     9
 10
0.0
 20
0.0
 30
0.0
 70
   128
 71
   361
 72
   250
 73
   251
  0
VERTEX
  5
59A
  8
0
 62
     9
 10
0.0
 20
0.0
 30
0.0
 70
   128
 71
   361
 72
   248
 73
   249
  0
VERTEX
  5
59B
  8
0
 62
     9
 10
0.0
 20
0.0
 30
0.0
 70
   128
 71
   384
 72
   361
 73
   383
  0
VERTEX
  5
59C
  8
0
 62
     9
 10
0.0
 20
0.0
 30
0.0
 70
   128
 71
   252
 72
   361
 73
   251
  0
VERTEX
  5
59D
  8
0
 62
     9
 10
0.0
 20
0.0
 30
0.0
 70
   128
 71
   383
 72
   361
 73
   253
  0
VERTEX
  5
59E
  8
0
 62
     9
 10
0.0
 20
0.0
 30
0.0
 70
   128
 71
   361
 72
   252
 73
   253
  0
VERTEX
  5
59F
  8
0
 62
     9
 10
0.0
 20
0.0
 30
0.0
 70
   128
 71
   254
 72
   385
 73
   383
  0
VERTEX
  5
5A0
  8
0
 62
     9
 10
0.0
 20
0.0
 30
0.0
 70
   128
 71
   205
 72
   385
 73
   254
  0
VERTEX
  5
5A1
  8
0
 62
     9
 10
0.0
 20
0.0
 30
0.0
 70
   128
 71
   206
 72
   386
 73
   205
  0
VERTEX
  5
5A2
  8
0
 62
     9
 10
0.0
 20
0.0
 30
0.0
 70
   128
 71
   253
 72
   254
 73
   383
  0
VERTEX
  5
5A3
  8
0
 62
     9
 10
0.0
 20
0.0
 30
0.0
 70
   128
 71
   205
 72
   386
 73
   385
  0
VERTEX
  5
5A4
  8
0
 62
     9
 10
0.0
 20
0.0
 30
0.0
 70
   128
 71
   361
 72
   384
 73
   360
  0
VERTEX
  5
5A5
  8
0
 62
     9
 10
0.0
 20
0.0
 30
0.0
 70
   128
 71
   250
 72
   361
 73
   249
  0
VERTEX
  5
5A6
  8
0
 62
     9
 10
0.0
 20
0.0
 30
0.0
 70
   128
 71
   247
 72
   361
 73
   387
  0
VERTEX
  5
5A7
  8
0
 62
     9
 10
0.0
 20
0.0
 30
0.0
 70
   128
 71
   361
 72
   247
 73
   248
  0
VERTEX
  5
5A8
  8
0
 62
     9
 10
0.0
 20
0.0
 30
0.0
 70
   128
 71
   361
 72
   388
 73
   364
  0
VERTEX
  5
5A9
  8
0
 62
     9
 10
0.0
 20
0.0
 30
0.0
 70
   128
 71
   244
 72
   245
 73
   387
  0
VERTEX
  5
5AA
  8
0
 62
     9
 10
0.0
 20
0.0
 30
0.0
 70
   128
 71
   387
 72
   222
 73
   220
  0
VERTEX
  5
5AB
  8
0
 62
     9
 10
0.0
 20
0.0
 30
0.0
 70
   128
 71
   242
 72
   243
 73
   387
  0
VERTEX
  5
5AC
  8
0
 62
     9
 10
0.0
 20
0.0
 30
0.0
 70
   128
 71
   244
 72
   387
 73
   243
  0
VERTEX
  5
5AD
  8
0
 62
     9
 10
0.0
 20
0.0
 30
0.0
 70
   128
 71
   220
 72
   233
 73
   387
  0
VERTEX
  5
5AE
  8
0
 62
     9
 10
0.0
 20
0.0
 30
0.0
 70
   128
 71
   233
 72
   234
 73
   387
  0
VERTEX
  5
5AF
  8
0
 62
     9
 10
0.0
 20
0.0
 30
0.0
 70
   128
 71
   242
 72
   387
 73
   241
  0
VERTEX
  5
5B0
  8
0
 62
     9
 10
0.0
 20
0.0
 30
0.0
 70
   128
 71
   235
 72
   387
 73
   234
  0
VERTEX
  5
5B1
  8
0
 62
     9
 10
0.0
 20
0.0
 30
0.0
 70
   128
 71
   240
 72
   387
 73
   212
  0
VERTEX
  5
5B2
  8
0
 62
     9
 10
0.0
 20
0.0
 30
0.0
 70
   128
 71
   241
 72
   387
 73
   240
  0
VERTEX
  5
5B3
  8
0
 62
     9
 10
0.0
 20
0.0
 30
0.0
 70
   128
 71
   239
 72
   240
 73
   212
  0
VERTEX
  5
5B4
  8
0
 62
     9
 10
0.0
 20
0.0
 30
0.0
 70
   128
 71
   235
 72
   212
 73
   387
  0
VERTEX
  5
5B5
  8
0
 62
     9
 10
0.0
 20
0.0
 30
0.0
 70
   128
 71
   245
 72
   246
 73
   387
  0
VERTEX
  5
5B6
  8
0
 62
     9
 10
0.0
 20
0.0
 30
0.0
 70
   128
 71
   239
 72
   212
 73
   213
  0
VERTEX
  5
5B7
  8
0
 62
     9
 10
0.0
 20
0.0
 30
0.0
 70
   128
 71
   236
 72
   238
 73
   213
  0
VERTEX
  5
5B8
  8
0
 62
     9
 10
0.0
 20
0.0
 30
0.0
 70
   128
 71
   213
 72
   238
 73
   239
  0
VERTEX
  5
5B9
  8
0
 62
     9
 10
0.0
 20
0.0
 30
0.0
 70
   128
 71
   238
 72
   236
 73
   237
  0
VERTEX
  5
5BA
  8
0
 62
     9
 10
0.0
 20
0.0
 30
0.0
 70
   128
 71
   363
 72
   389
 73
   369
  0
VERTEX
  5
5BB
  8
0
 62
     9
 10
0.0
 20
0.0
 30
0.0
 70
   128
 71
   247
 72
   387
 73
   246
  0
VERTEX
  5
5BC
  8
0
 62
     9
 10
0.0
 20
0.0
 30
0.0
 70
   128
 71
   223
 72
   370
 73
   232
  0
VERTEX
  5
5BD
  8
0
 62
     9
 10
0.0
 20
0.0
 30
0.0
 70
   128
 71
   391
 72
   370
 73
   390
  0
VERTEX
  5
5BE
  8
0
 62
     9
 10
0.0
 20
0.0
 30
0.0
 70
   128
 71
   370
 72
   369
 73
   390
  0
VERTEX
  5
5BF
  8
0
 62
     9
 10
0.0
 20
0.0
 30
0.0
 70
   128
 71
   393
 72
   392
 73
   370
  0
VERTEX
  5
5C0
  8
0
 62
     9
 10
0.0
 20
0.0
 30
0.0
 70
   128
 71
   393
 72
   370
 73
   391
  0
VERTEX
  5
5C1
  8
0
 62
     9
 10
0.0
 20
0.0
 30
0.0
 70
   128
 71
   394
 72
   370
 73
   392
  0
VERTEX
  5
5C2
  8
0
 62
     9
 10
0.0
 20
0.0
 30
0.0
 70
   128
 71
   370
 72
   230
 73
   225
  0
VERTEX
  5
5C3
  8
0
 62
     9
 10
0.0
 20
0.0
 30
0.0
 70
   128
 71
   230
 72
   370
 73
   395
  0
VERTEX
  5
5C4
  8
0
 62
     9
 10
0.0
 20
0.0
 30
0.0
 70
   128
 71
   396
 72
   370
 73
   394
  0
VERTEX
  5
5C5
  8
0
 62
     9
 10
0.0
 20
0.0
 30
0.0
 70
   128
 71
   229
 72
   230
 73
   395
  0
VERTEX
  5
5C6
  8
0
 62
     9
 10
0.0
 20
0.0
 30
0.0
 70
   128
 71
   370
 72
   396
 73
   395
  0
VERTEX
  5
5C7
  8
0
 62
     9
 10
0.0
 20
0.0
 30
0.0
 70
   128
 71
   229
 72
   187
 73
   231
  0
VERTEX
  5
5C8
  8
0
 62
     9
 10
0.0
 20
0.0
 30
0.0
 70
   128
 71
   187
 72
   229
 73
   395
  0
VERTEX
  5
5C9
  8
0
 62
     9
 10
0.0
 20
0.0
 30
0.0
 70
   128
 71
   185
 72
   231
 73
   187
  0
VERTEX
  5
5CA
  8
0
 62
     9
 10
0.0
 20
0.0
 30
0.0
 70
   128
 71
   370
 72
   223
 73
   222
  0
VERTEX
  5
5CB
  8
0
 62
     9
 10
0.0
 20
0.0
 30
0.0
 70
   128
 71
   366
 72
   389
 73
   363
  0
VERTEX
  5
5CC
  8
0
 62
     9
 10
0.0
 20
0.0
 30
0.0
 70
   128
 71
   370
 72
   387
 73
   361
  0
VERTEX
  5
5CD
  8
0
 62
     9
 10
0.0
 20
0.0
 30
0.0
 70
   128
 71
   361
 72
   362
 73
   388
  0
VERTEX
  5
5CE
  8
0
 62
     9
 10
0.0
 20
0.0
 30
0.0
 70
   128
 71
   222
 72
   387
 73
   370
  0
VERTEX
  5
5CF
  8
0
 62
     9
 10
0.0
 20
0.0
 30
0.0
 70
   128
 71
   225
 72
   232
 73
   370
  0
VERTEX
  5
5D0
  8
0
 62
     9
 10
0.0
 20
0.0
 30
0.0
 70
   128
 71
   374
 72
   363
 73
   373
  0
VERTEX
  5
5D1
  8
0
 62
     9
 10
0.0
 20
0.0
 30
0.0
 70
   128
 71
   363
 72
   370
 73
   361
  0
VERTEX
  5
5D2
  8
0
 62
     9
 10
0.0
 20
0.0
 30
0.0
 70
   128
 71
   397
 72
    61
 73
   134
  0
VERTEX
  5
5D3
  8
0
 62
     9
 10
0.0
 20
0.0
 30
0.0
 70
   128
 71
   397
 72
   134
 73
   398
  0
VERTEX
  5
5D4
  8
0
 62
     9
 10
0.0
 20
0.0
 30
0.0
 70
   128
 71
   274
 72
   298
 73
    61
  0
VERTEX
  5
5D5
  8
0
 62
     9
 10
0.0
 20
0.0
 30
0.0
 70
   128
 71
    61
 72
   298
 73
   289
  0
VERTEX
  5
5D6
  8
0
 62
     9
 10
0.0
 20
0.0
 30
0.0
 70
   128
 71
   279
 72
   280
 73
    61
  0
VERTEX
  5
5D7
  8
0
 62
     9
 10
0.0
 20
0.0
 30
0.0
 70
   128
 71
    61
 72
   280
 73
   274
  0
VERTEX
  5
5D8
  8
0
 62
     9
 10
0.0
 20
0.0
 30
0.0
 70
   128
 71
    61
 72
     1
 73
   279
  0
VERTEX
  5
5D9
  8
0
 62
     9
 10
0.0
 20
0.0
 30
0.0
 70
   128
 71
   134
 72
    61
 73
   289
  0
VERTEX
  5
5DA
  8
0
 62
     9
 10
0.0
 20
0.0
 30
0.0
 70
   128
 71
   134
 72
   400
 73
   399
  0
VERTEX
  5
5DB
  8
0
 62
     9
 10
0.0
 20
0.0
 30
0.0
 70
   128
 71
   398
 72
   134
 73
   399
  0
VERTEX
  5
5DC
  8
0
 62
     9
 10
0.0
 20
0.0
 30
0.0
 70
   128
 71
   134
 72
   402
 73
   401
  0
VERTEX
  5
5DD
  8
0
 62
     9
 10
0.0
 20
0.0
 30
0.0
 70
   128
 71
   400
 72
   134
 73
   401
  0
VERTEX
  5
5DE
  8
0
 62
     9
 10
0.0
 20
0.0
 30
0.0
 70
   128
 71
   134
 72
   404
 73
   403
  0
VERTEX
  5
5DF
  8
0
 62
     9
 10
0.0
 20
0.0
 30
0.0
 70
   128
 71
   402
 72
   134
 73
   403
  0
VERTEX
  5
5E0
  8
0
 62
     9
 10
0.0
 20
0.0
 30
0.0
 70
   128
 71
   134
 72
   406
 73
   405
  0
VERTEX
  5
5E1
  8
0
 62
     9
 10
0.0
 20
0.0
 30
0.0
 70
   128
 71
   404
 72
   134
 73
   405
  0
VERTEX
  5
5E2
  8
0
 62
     9
 10
0.0
 20
0.0
 30
0.0
 70
   128
 71
    95
 72
   407
 73
   134
  0
VERTEX
  5
5E3
  8
0
 62
     9
 10
0.0
 20
0.0
 30
0.0
 70
   128
 71
   406
 72
   134
 73
   407
  0
VERTEX
  5
5E4
  8
0
 62
     9
 10
0.0
 20
0.0
 30
0.0
 70
   128
 71
   409
 72
   408
 73
    95
  0
VERTEX
  5
5E5
  8
0
 62
     9
 10
0.0
 20
0.0
 30
0.0
 70
   128
 71
    95
 72
   408
 73
   407
  0
VERTEX
  5
5E6
  8
0
 62
     9
 10
0.0
 20
0.0
 30
0.0
 70
   128
 71
   411
 72
   410
 73
    95
  0
VERTEX
  5
5E7
  8
0
 62
     9
 10
0.0
 20
0.0
 30
0.0
 70
   128
 71
    95
 72
   410
 73
   409
  0
VERTEX
  5
5E8
  8
0
 62
     9
 10
0.0
 20
0.0
 30
0.0
 70
   128
 71
   177
 72
   412
 73
    95
  0
VERTEX
  5
5E9
  8
0
 62
     9
 10
0.0
 20
0.0
 30
0.0
 70
   128
 71
    95
 72
   412
 73
   411
  0
VERTEX
  5
5EA
  8
0
 62
     9
 10
0.0
 20
0.0
 30
0.0
 70
   128
 71
   413
 72
   407
 73
   408
  0
VERTEX
  5
5EB
  8
0
 62
     9
 10
0.0
 20
0.0
 30
0.0
 70
   128
 71
   415
 72
    55
 73
   414
  0
VERTEX
  5
5EC
  8
0
 62
     9
 10
0.0
 20
0.0
 30
0.0
 70
   128
 71
   415
 72
   364
 73
   416
  0
VERTEX
  5
5ED
  8
0
 62
     9
 10
0.0
 20
0.0
 30
0.0
 70
   128
 71
   414
 72
    55
 73
    52
  0
VERTEX
  5
5EE
  8
0
 62
     9
 10
0.0
 20
0.0
 30
0.0
 70
   128
 71
   417
 72
    71
 73
    67
  0
VERTEX
  5
5EF
  8
0
 62
     9
 10
0.0
 20
0.0
 30
0.0
 70
   128
 71
   362
 72
   417
 73
   416
  0
VERTEX
  5
5F0
  8
0
 62
     9
 10
0.0
 20
0.0
 30
0.0
 70
   128
 71
   418
 72
    80
 73
    86
  0
VERTEX
  5
5F1
  8
0
 62
     9
 10
0.0
 20
0.0
 30
0.0
 70
   128
 71
    86
 72
   417
 73
   418
  0
VERTEX
  5
5F2
  8
0
 62
     9
 10
0.0
 20
0.0
 30
0.0
 70
   128
 71
    71
 72
   417
 73
    86
  0
VERTEX
  5
5F3
  8
0
 62
     9
 10
0.0
 20
0.0
 30
0.0
 70
   128
 71
   418
 72
   419
 73
    80
  0
VERTEX
  5
5F4
  8
0
 62
     9
 10
0.0
 20
0.0
 30
0.0
 70
   128
 71
   416
 72
    57
 73
   415
  0
VERTEX
  5
5F5
  8
0
 62
     9
 10
0.0
 20
0.0
 30
0.0
 70
   128
 71
    67
 72
   416
 73
   417
  0
VERTEX
  5
5F6
  8
0
 62
     9
 10
0.0
 20
0.0
 30
0.0
 70
   128
 71
   384
 72
   383
 73
   419
  0
VERTEX
  5
5F7
  8
0
 62
     9
 10
0.0
 20
0.0
 30
0.0
 70
   128
 71
   420
 72
    84
 73
   419
  0
VERTEX
  5
5F8
  8
0
 62
     9
 10
0.0
 20
0.0
 30
0.0
 70
   128
 71
   420
 72
   385
 73
   421
  0
VERTEX
  5
5F9
  8
0
 62
     9
 10
0.0
 20
0.0
 30
0.0
 70
   128
 71
   421
 72
    83
 73
   420
  0
VERTEX
  5
5FA
  8
0
 62
     9
 10
0.0
 20
0.0
 30
0.0
 70
   128
 71
   386
 72
   206
 73
   204
  0
VERTEX
  5
5FB
  8
0
 62
     9
 10
0.0
 20
0.0
 30
0.0
 70
   128
 71
   421
 72
   385
 73
   386
  0
VERTEX
  5
5FC
  8
0
 62
     9
 10
0.0
 20
0.0
 30
0.0
 70
   128
 71
   204
 72
    76
 73
    72
  0
VERTEX
  5
5FD
  8
0
 62
     9
 10
0.0
 20
0.0
 30
0.0
 70
   128
 71
   204
 72
   421
 73
   386
  0
VERTEX
  5
5FE
  8
0
 62
     9
 10
0.0
 20
0.0
 30
0.0
 70
   128
 71
    84
 72
    80
 73
   419
  0
VERTEX
  5
5FF
  8
0
 62
     9
 10
0.0
 20
0.0
 30
0.0
 70
   128
 71
   422
 72
   373
 73
   414
  0
VERTEX
  5
600
  8
0
 62
     9
 10
0.0
 20
0.0
 30
0.0
 70
   128
 71
    63
 72
   422
 73
    52
  0
VERTEX
  5
601
  8
0
 62
     9
 10
0.0
 20
0.0
 30
0.0
 70
   128
 71
   414
 72
    52
 73
   422
  0
VERTEX
  5
602
  8
0
 62
     9
 10
0.0
 20
0.0
 30
0.0
 70
   128
 71
   422
 72
    48
 73
   423
  0
VERTEX
  5
603
  8
0
 62
     9
 10
0.0
 20
0.0
 30
0.0
 70
   128
 71
    48
 72
   422
 73
    63
  0
VERTEX
  5
604
  8
0
 62
     9
 10
0.0
 20
0.0
 30
0.0
 70
   128
 71
    49
 72
   424
 73
   423
  0
VERTEX
  5
605
  8
0
 62
     9
 10
0.0
 20
0.0
 30
0.0
 70
   128
 71
   423
 72
    48
 73
    49
  0
VERTEX
  5
606
  8
0
 62
     9
 10
0.0
 20
0.0
 30
0.0
 70
   128
 71
    49
 72
    59
 73
   424
  0
VERTEX
  5
607
  8
0
 62
     9
 10
0.0
 20
0.0
 30
0.0
 70
   128
 71
    59
 72
   425
 73
   424
  0
VERTEX
  5
608
  8
0
 62
     9
 10
0.0
 20
0.0
 30
0.0
 70
   128
 71
    58
 72
    46
 73
   425
  0
VERTEX
  5
609
  8
0
 62
     9
 10
0.0
 20
0.0
 30
0.0
 70
   128
 71
    58
 72
   425
 73
    59
  0
VERTEX
  5
60A
  8
0
 62
     9
 10
0.0
 20
0.0
 30
0.0
 70
   128
 71
    46
 72
   426
 73
   425
  0
VERTEX
  5
60B
  8
0
 62
     9
 10
0.0
 20
0.0
 30
0.0
 70
   128
 71
    65
 72
   426
 73
    46
  0
VERTEX
  5
60C
  8
0
 62
     9
 10
0.0
 20
0.0
 30
0.0
 70
   128
 71
   427
 72
   426
 73
    65
  0
VERTEX
  5
60D
  8
0
 62
     9
 10
0.0
 20
0.0
 30
0.0
 70
   128
 71
   382
 72
   426
 73
   427
  0
VERTEX
  5
60E
  8
0
 62
     9
 10
0.0
 20
0.0
 30
0.0
 70
   128
 71
   378
 72
   381
 73
   428
  0
VERTEX
  5
60F
  8
0
 62
     9
 10
0.0
 20
0.0
 30
0.0
 70
   128
 71
   427
 72
    65
 73
    62
  0
VERTEX
  5
610
  8
0
 62
     9
 10
0.0
 20
0.0
 30
0.0
 70
   128
 71
   397
 72
   428
 73
    61
  0
VERTEX
  5
611
  8
0
 62
     9
 10
0.0
 20
0.0
 30
0.0
 70
   128
 71
   400
 72
   429
 73
   399
  0
VERTEX
  5
612
  8
0
 62
     9
 10
0.0
 20
0.0
 30
0.0
 70
   128
 71
   398
 72
   431
 73
   430
  0
VERTEX
  5
613
  8
0
 62
     9
 10
0.0
 20
0.0
 30
0.0
 70
   128
 71
   433
 72
   432
 73
   366
  0
VERTEX
  5
614
  8
0
 62
     9
 10
0.0
 20
0.0
 30
0.0
 70
   128
 71
   401
 72
   434
 73
   429
  0
VERTEX
  5
615
  8
0
 62
     9
 10
0.0
 20
0.0
 30
0.0
 70
   128
 71
   436
 72
   405
 73
   435
  0
VERTEX
  5
616
  8
0
 62
     9
 10
0.0
 20
0.0
 30
0.0
 70
   128
 71
   405
 72
   436
 73
   404
  0
VERTEX
  5
617
  8
0
 62
     9
 10
0.0
 20
0.0
 30
0.0
 70
   128
 71
   437
 72
   413
 73
   408
  0
VERTEX
  5
618
  8
0
 62
     9
 10
0.0
 20
0.0
 30
0.0
 70
   128
 71
   407
 72
   438
 73
   406
  0
VERTEX
  5
619
  8
0
 62
     9
 10
0.0
 20
0.0
 30
0.0
 70
   128
 71
   439
 72
   409
 73
   410
  0
VERTEX
  5
61A
  8
0
 62
     9
 10
0.0
 20
0.0
 30
0.0
 70
   128
 71
   409
 72
   439
 73
   437
  0
VERTEX
  5
61B
  8
0
 62
     9
 10
0.0
 20
0.0
 30
0.0
 70
   128
 71
   441
 72
   411
 73
   440
  0
VERTEX
  5
61C
  8
0
 62
     9
 10
0.0
 20
0.0
 30
0.0
 70
   128
 71
   411
 72
   441
 73
   410
  0
VERTEX
  5
61D
  8
0
 62
     9
 10
0.0
 20
0.0
 30
0.0
 70
   128
 71
   440
 72
   442
 73
   395
  0
VERTEX
  5
61E
  8
0
 62
     9
 10
0.0
 20
0.0
 30
0.0
 70
   128
 71
   440
 72
   411
 73
   412
  0
VERTEX
  5
61F
  8
0
 62
     9
 10
0.0
 20
0.0
 30
0.0
 70
   128
 71
   442
 72
   186
 73
   187
  0
VERTEX
  5
620
  8
0
 62
     9
 10
0.0
 20
0.0
 30
0.0
 70
   128
 71
   177
 72
   442
 73
   412
  0
VERTEX
  5
621
  8
0
 62
     9
 10
0.0
 20
0.0
 30
0.0
 70
   128
 71
   441
 72
   439
 73
   410
  0
VERTEX
  5
622
  8
0
 62
     9
 10
0.0
 20
0.0
 30
0.0
 70
   128
 71
   438
 72
   407
 73
   413
  0
VERTEX
  5
623
  8
0
 62
     9
 10
0.0
 20
0.0
 30
0.0
 70
   128
 71
   409
 72
   437
 73
   408
  0
VERTEX
  5
624
  8
0
 62
     9
 10
0.0
 20
0.0
 30
0.0
 70
   128
 71
   438
 72
   435
 73
   406
  0
VERTEX
  5
625
  8
0
 62
     9
 10
0.0
 20
0.0
 30
0.0
 70
   128
 71
   399
 72
   429
 73
   431
  0
VERTEX
  5
626
  8
0
 62
     9
 10
0.0
 20
0.0
 30
0.0
 70
   128
 71
   438
 72
   391
 73
   390
  0
VERTEX
  5
627
  8
0
 62
     9
 10
0.0
 20
0.0
 30
0.0
 70
   128
 71
   406
 72
   435
 73
   405
  0
VERTEX
  5
628
  8
0
 62
     9
 10
0.0
 20
0.0
 30
0.0
 70
   128
 71
   432
 72
   404
 73
   436
  0
VERTEX
  5
629
  8
0
 62
     9
 10
0.0
 20
0.0
 30
0.0
 70
   128
 71
   402
 72
   433
 73
   434
  0
VERTEX
  5
62A
  8
0
 62
     9
 10
0.0
 20
0.0
 30
0.0
 70
   128
 71
   403
 72
   432
 73
   433
  0
VERTEX
  5
62B
  8
0
 62
     9
 10
0.0
 20
0.0
 30
0.0
 70
   128
 71
   434
 72
   433
 73
   365
  0
VERTEX
  5
62C
  8
0
 62
     9
 10
0.0
 20
0.0
 30
0.0
 70
   128
 71
   401
 72
   429
 73
   400
  0
VERTEX
  5
62D
  8
0
 62
     9
 10
0.0
 20
0.0
 30
0.0
 70
   128
 71
   367
 72
   429
 73
   434
  0
VERTEX
  5
62E
  8
0
 62
     9
 10
0.0
 20
0.0
 30
0.0
 70
   128
 71
   430
 72
   397
 73
   398
  0
VERTEX
  5
62F
  8
0
 62
     9
 10
0.0
 20
0.0
 30
0.0
 70
   128
 71
   398
 72
   399
 73
   431
  0
VERTEX
  5
630
  8
0
 62
     9
 10
0.0
 20
0.0
 30
0.0
 70
   128
 71
   430
 72
   428
 73
   397
  0
VERTEX
  5
631
  8
0
 62
     9
 10
0.0
 20
0.0
 30
0.0
 70
   128
 71
   428
 72
   427
 73
    61
  0
VERTEX
  5
632
  8
0
 62
     9
 10
0.0
 20
0.0
 30
0.0
 70
   128
 71
   421
 72
    72
 73
    83
  0
VERTEX
  5
633
  8
0
 62
     9
 10
0.0
 20
0.0
 30
0.0
 70
   128
 71
    72
 72
   421
 73
   204
  0
VERTEX
  5
634
  8
0
 62
     9
 10
0.0
 20
0.0
 30
0.0
 70
   128
 71
   385
 72
   420
 73
   383
  0
VERTEX
  5
635
  8
0
 62
     9
 10
0.0
 20
0.0
 30
0.0
 70
   128
 71
    84
 72
   420
 73
    83
  0
VERTEX
  5
636
  8
0
 62
     9
 10
0.0
 20
0.0
 30
0.0
 70
   128
 71
   420
 72
   419
 73
   383
  0
VERTEX
  5
637
  8
0
 62
     9
 10
0.0
 20
0.0
 30
0.0
 70
   128
 71
   418
 72
   360
 73
   384
  0
VERTEX
  5
638
  8
0
 62
     9
 10
0.0
 20
0.0
 30
0.0
 70
   128
 71
   419
 72
   418
 73
   384
  0
VERTEX
  5
639
  8
0
 62
     9
 10
0.0
 20
0.0
 30
0.0
 70
   128
 71
   417
 72
   362
 73
   360
  0
VERTEX
  5
63A
  8
0
 62
     9
 10
0.0
 20
0.0
 30
0.0
 70
   128
 71
   418
 72
   417
 73
   360
  0
VERTEX
  5
63B
  8
0
 62
     9
 10
0.0
 20
0.0
 30
0.0
 70
   128
 71
   416
 72
   388
 73
   362
  0
VERTEX
  5
63C
  8
0
 62
     9
 10
0.0
 20
0.0
 30
0.0
 70
   128
 71
   388
 72
   416
 73
   364
  0
VERTEX
  5
63D
  8
0
 62
     9
 10
0.0
 20
0.0
 30
0.0
 70
   128
 71
   416
 72
    67
 73
    57
  0
VERTEX
  5
63E
  8
0
 62
     9
 10
0.0
 20
0.0
 30
0.0
 70
   128
 71
   364
 72
   415
 73
   371
  0
VERTEX
  5
63F
  8
0
 62
     9
 10
0.0
 20
0.0
 30
0.0
 70
   128
 71
   415
 72
    57
 73
    55
  0
VERTEX
  5
640
  8
0
 62
     9
 10
0.0
 20
0.0
 30
0.0
 70
   128
 71
   414
 72
   371
 73
   415
  0
VERTEX
  5
641
  8
0
 62
     9
 10
0.0
 20
0.0
 30
0.0
 70
   128
 71
   371
 72
   414
 73
   373
  0
VERTEX
  5
642
  8
0
 62
     9
 10
0.0
 20
0.0
 30
0.0
 70
   128
 71
   422
 72
   374
 73
   373
  0
VERTEX
  5
643
  8
0
 62
     9
 10
0.0
 20
0.0
 30
0.0
 70
   128
 71
   423
 72
   374
 73
   422
  0
VERTEX
  5
644
  8
0
 62
     9
 10
0.0
 20
0.0
 30
0.0
 70
   128
 71
   423
 72
   375
 73
   374
  0
VERTEX
  5
645
  8
0
 62
     9
 10
0.0
 20
0.0
 30
0.0
 70
   128
 71
   375
 72
   424
 73
   377
  0
VERTEX
  5
646
  8
0
 62
     9
 10
0.0
 20
0.0
 30
0.0
 70
   128
 71
   423
 72
   424
 73
   375
  0
VERTEX
  5
647
  8
0
 62
     9
 10
0.0
 20
0.0
 30
0.0
 70
   128
 71
   425
 72
   379
 73
   377
  0
VERTEX
  5
648
  8
0
 62
     9
 10
0.0
 20
0.0
 30
0.0
 70
   128
 71
   424
 72
   425
 73
   377
  0
VERTEX
  5
649
  8
0
 62
     9
 10
0.0
 20
0.0
 30
0.0
 70
   128
 71
   426
 72
   380
 73
   379
  0
VERTEX
  5
64A
  8
0
 62
     9
 10
0.0
 20
0.0
 30
0.0
 70
   128
 71
   425
 72
   426
 73
   379
  0
VERTEX
  5
64B
  8
0
 62
     9
 10
0.0
 20
0.0
 30
0.0
 70
   128
 71
   380
 72
   426
 73
   382
  0
VERTEX
  5
64C
  8
0
 62
     9
 10
0.0
 20
0.0
 30
0.0
 70
   128
 71
   382
 72
   427
 73
   381
  0
VERTEX
  5
64D
  8
0
 62
     9
 10
0.0
 20
0.0
 30
0.0
 70
   128
 71
   427
 72
    62
 73
    61
  0
VERTEX
  5
64E
  8
0
 62
     9
 10
0.0
 20
0.0
 30
0.0
 70
   128
 71
   427
 72
   428
 73
   381
  0
VERTEX
  5
64F
  8
0
 62
     9
 10
0.0
 20
0.0
 30
0.0
 70
   128
 71
   430
 72
   376
 73
   378
  0
VERTEX
  5
650
  8
0
 62
     9
 10
0.0
 20
0.0
 30
0.0
 70
   128
 71
   428
 72
   430
 73
   378
  0
VERTEX
  5
651
  8
0
 62
     9
 10
0.0
 20
0.0
 30
0.0
 70
   128
 71
   431
 72
   372
 73
   376
  0
VERTEX
  5
652
  8
0
 62
     9
 10
0.0
 20
0.0
 30
0.0
 70
   128
 71
   430
 72
   431
 73
   376
  0
VERTEX
  5
653
  8
0
 62
     9
 10
0.0
 20
0.0
 30
0.0
 70
   128
 71
   429
 72
   367
 73
   372
  0
VERTEX
  5
654
  8
0
 62
     9
 10
0.0
 20
0.0
 30
0.0
 70
   128
 71
   431
 72
   429
 73
   372
  0
VERTEX
  5
655
  8
0
 62
     9
 10
0.0
 20
0.0
 30
0.0
 70
   128
 71
   434
 72
   368
 73
   367
  0
VERTEX
  5
656
  8
0
 62
     9
 10
0.0
 20
0.0
 30
0.0
 70
   128
 71
   368
 72
   434
 73
   365
  0
VERTEX
  5
657
  8
0
 62
     9
 10
0.0
 20
0.0
 30
0.0
 70
   128
 71
   434
 72
   401
 73
   402
  0
VERTEX
  5
658
  8
0
 62
     9
 10
0.0
 20
0.0
 30
0.0
 70
   128
 71
   365
 72
   433
 73
   366
  0
VERTEX
  5
659
  8
0
 62
     9
 10
0.0
 20
0.0
 30
0.0
 70
   128
 71
   433
 72
   402
 73
   403
  0
VERTEX
  5
65A
  8
0
 62
     9
 10
0.0
 20
0.0
 30
0.0
 70
   128
 71
   366
 72
   432
 73
   389
  0
VERTEX
  5
65B
  8
0
 62
     9
 10
0.0
 20
0.0
 30
0.0
 70
   128
 71
   432
 72
   403
 73
   404
  0
VERTEX
  5
65C
  8
0
 62
     9
 10
0.0
 20
0.0
 30
0.0
 70
   128
 71
   436
 72
   389
 73
   432
  0
VERTEX
  5
65D
  8
0
 62
     9
 10
0.0
 20
0.0
 30
0.0
 70
   128
 71
   389
 72
   436
 73
   369
  0
VERTEX
  5
65E
  8
0
 62
     9
 10
0.0
 20
0.0
 30
0.0
 70
   128
 71
   435
 72
   369
 73
   436
  0
VERTEX
  5
65F
  8
0
 62
     9
 10
0.0
 20
0.0
 30
0.0
 70
   128
 71
   369
 72
   435
 73
   390
  0
VERTEX
  5
660
  8
0
 62
     9
 10
0.0
 20
0.0
 30
0.0
 70
   128
 71
   435
 72
   438
 73
   390
  0
VERTEX
  5
661
  8
0
 62
     9
 10
0.0
 20
0.0
 30
0.0
 70
   128
 71
   413
 72
   393
 73
   391
  0
VERTEX
  5
662
  8
0
 62
     9
 10
0.0
 20
0.0
 30
0.0
 70
   128
 71
   438
 72
   413
 73
   391
  0
VERTEX
  5
663
  8
0
 62
     9
 10
0.0
 20
0.0
 30
0.0
 70
   128
 71
   437
 72
   392
 73
   393
  0
VERTEX
  5
664
  8
0
 62
     9
 10
0.0
 20
0.0
 30
0.0
 70
   128
 71
   413
 72
   437
 73
   393
  0
VERTEX
  5
665
  8
0
 62
     9
 10
0.0
 20
0.0
 30
0.0
 70
   128
 71
   439
 72
   394
 73
   392
  0
VERTEX
  5
666
  8
0
 62
     9
 10
0.0
 20
0.0
 30
0.0
 70
   128
 71
   437
 72
   439
 73
   392
  0
VERTEX
  5
667
  8
0
 62
     9
 10
0.0
 20
0.0
 30
0.0
 70
   128
 71
   441
 72
   396
 73
   394
  0
VERTEX
  5
668
  8
0
 62
     9
 10
0.0
 20
0.0
 30
0.0
 70
   128
 71
   439
 72
   441
 73
   394
  0
VERTEX
  5
669
  8
0
 62
     9
 10
0.0
 20
0.0
 30
0.0
 70
   128
 71
   440
 72
   395
 73
   396
  0
VERTEX
  5
66A
  8
0
 62
     9
 10
0.0
 20
0.0
 30
0.0
 70
   128
 71
   441
 72
   440
 73
   396
  0
VERTEX
  5
66B
  8
0
 62
     9
 10
0.0
 20
0.0
 30
0.0
 70
   128
 71
   442
 72
   187
 73
   395
  0
VERTEX
  5
66C
  8
0
 62
     9
 10
0.0
 20
0.0
 30
0.0
 70
   128
 71
   186
 72
   442
 73
   177
  0
VERTEX
  5
66D
  8
0
 62
     9
 10
0.0
 20
0.0
 30
0.0
 70
   128
 71
   442
 72
   440
 73
   412
  0
VERTEX
  5
66E
  8
0
 62
     9
 10
0.0
 20
0.0
 30
0.0
 70
   128
 71
    43
 72
    68
 73
    44
  0
VERTEX
  5
66F
  8
0
 62
     9
 10
0.0
 20
0.0
 30
0.0
 70
   128
 71
    47
 72
    85
 73
    64
  0
VERTEX
  5
670
  8
0
 62
     9
 10
0.0
 20
0.0
 30
0.0
 70
   128
 71
    66
 72
    87
 73
    53
  0
VERTEX
  5
671
  8
0
 62
     9
 10
0.0
 20
0.0
 30
0.0
 70
   128
 71
    68
 72
    43
 73
    81
  0
VERTEX
  5
672
  8
0
 62
     9
 10
0.0
 20
0.0
 30
0.0
 70
   128
 71
    82
 72
    50
 73
    78
  0
VERTEX
  5
673
  8
0
 62
     9
 10
0.0
 20
0.0
 30
0.0
 70
   128
 71
    40
 72
    44
 73
    77
  0
VERTEX
  5
674
  8
0
 62
     9
 10
0.0
 20
0.0
 30
0.0
 70
   128
 71
    68
 72
    77
 73
    44
  0
VERTEX
  5
675
  8
0
 62
     9
 10
0.0
 20
0.0
 30
0.0
 70
   128
 71
    40
 72
    38
 73
     2
  0
VERTEX
  5
676
  8
0
 62
     9
 10
0.0
 20
0.0
 30
0.0
 70
   128
 71
    38
 72
    40
 73
    77
  0
VERTEX
  5
677
  8
0
 62
     9
 10
0.0
 20
0.0
 30
0.0
 70
   128
 71
     2
 72
    38
 73
    36
  0
VERTEX
  5
678
  8
0
 62
     9
 10
0.0
 20
0.0
 30
0.0
 70
   128
 71
    60
 72
    81
 73
    43
  0
VERTEX
  5
679
  8
0
 62
     9
 10
0.0
 20
0.0
 30
0.0
 70
   128
 71
    60
 72
    50
 73
    82
  0
VERTEX
  5
67A
  8
0
 62
     9
 10
0.0
 20
0.0
 30
0.0
 70
   128
 71
    82
 72
    81
 73
    60
  0
VERTEX
  5
67B
  8
0
 62
     9
 10
0.0
 20
0.0
 30
0.0
 70
   128
 71
    64
 72
    85
 73
    78
  0
VERTEX
  5
67C
  8
0
 62
     9
 10
0.0
 20
0.0
 30
0.0
 70
   128
 71
    64
 72
    78
 73
    50
  0
VERTEX
  5
67D
  8
0
 62
     9
 10
0.0
 20
0.0
 30
0.0
 70
   128
 71
    53
 72
    87
 73
    47
  0
VERTEX
  5
67E
  8
0
 62
     9
 10
0.0
 20
0.0
 30
0.0
 70
   128
 71
    87
 72
    85
 73
    47
  0
VERTEX
  5
67F
  8
0
 62
     9
 10
0.0
 20
0.0
 30
0.0
 70
   128
 71
    66
 72
    54
 73
    56
  0
VERTEX
  5
680
  8
0
 62
     9
 10
0.0
 20
0.0
 30
0.0
 70
   128
 71
    66
 72
    53
 73
    54
  0
SEQEND
  5
681
  8
0
  0
ENDBLK
  5
684
  8
0
  0
BLOCK
  8
0
  2
40
 70
     0
 10
0.0
 20
0.0
 30
0.0
  3
40
  1

  0
POLYLINE
  5
686
  8
0
 62
     9
 66
     1
 10
0.0
 20
0.0
 30
0.0
 70
    64
 71
   190
 72
   356
  0
VERTEX
  5
687
  8
0
 10
27.57098579406738
 20
6.808926105499268
 30
55.5
 70
   192
  0
VERTEX
  5
688
  8
0
 10
28.18734931945801
 20
3.447500228881836
 30
55.5
 70
   192
  0
VERTEX
  5
689
  8
0
 10
28.5498046875
 20
5.016946792602539
 30
55.98984527587891
 70
   192
  0
VERTEX
  5
68A
  8
0
 10
27.77520942687988
 20
8.299306869506836
 30
55.98984527587891
 70
   192
  0
VERTEX
  5
68B
  8
0
 10
23.36948585510254
 20
16.13859367370605
 30
55.5
 70
   192
  0
VERTEX
  5
68C
  8
0
 10
25.11979293823242
 20
14.48243236541748
 30
55.98984527587891
 70
   192
  0
VERTEX
  5
68D
  8
0
 10
23.26863098144531
 20
17.30493545532227
 30
55.98984527587891
 70
   192
  0
VERTEX
  5
68E
  8
0
 10
28.94165992736816
 20
1.672622442245483
 30
55.98984527587891
 70
   192
  0
VERTEX
  5
68F
  8
0
 10
26.62599945068359
 20
11.4680757522583
 30
55.98984527587891
 70
   192
  0
VERTEX
  5
690
  8
0
 10
26.55050086975098
 20
10.08193778991699
 30
55.5
 70
   192
  0
VERTEX
  5
691
  8
0
 10
25.14310646057129
 20
13.20679378509521
 30
55.5
 70
   192
  0
VERTEX
  5
692
  8
0
 10
21.2523136138916
 20
18.83958053588867
 30
55.5
 70
   192
  0
VERTEX
  5
693
  8
0
 10
21.10782241821289
 20
19.88727951049805
 30
55.98984527587891
 70
   192
  0
VERTEX
  5
694
  8
0
 10
18.81478691101074
 20
21.27101516723633
 30
55.5
 70
   192
  0
VERTEX
  5
695
  8
0
 10
18.65053558349609
 20
22.20745277404785
 30
55.98984527587891
 70
   192
  0
VERTEX
  5
696
  8
0
 10
16.11196517944336
 20
23.38494300842285
 30
55.5
 70
   192
  0
VERTEX
  5
697
  8
0
 10
15.95276737213135
 20
24.21513175964355
 30
55.98984527587891
 70
   192
  0
VERTEX
  5
698
  8
0
 10
13.02184772491455
 20
25.90282440185547
 30
55.98984527587891
 70
   192
  0
VERTEX
  5
699
  8
0
 10
13.18346118927002
 20
25.1539192199707
 30
55.5
 70
   192
  0
VERTEX
  5
69A
  8
0
 10
28.39719200134277
 20
0.0260792933404446
 30
55.5
 70
   192
  0
VERTEX
  5
69B
  8
0
 10
10.05861854553223
 20
26.55999755859375
 30
55.5
 70
   192
  0
VERTEX
  5
69C
  8
0
 10
9.927536010742188
 20
27.17131996154785
 30
55.98984527587891
 70
   192
  0
VERTEX
  5
69D
  8
0
 10
6.793872356414795
 20
27.57590103149414
 30
55.5
 70
   192
  0
VERTEX
  5
69E
  8
0
 10
6.665319919586182
 20
28.02678489685059
 30
55.98984527587891
 70
   192
  0
VERTEX
  5
69F
  8
0
 10
3.437598705291748
 20
28.19024467468262
 30
55.5
 70
   192
  0
VERTEX
  5
6A0
  8
0
 10
3.365209102630615
 20
28.6438102722168
 30
55.98984527587891
 70
   192
  0
VERTEX
  5
6A1
  8
0
 10
0.0000000000000116
 20
28.89047431945801
 30
55.98984527587891
 70
   192
  0
VERTEX
  5
6A2
  8
0
 10
0.0000000000000114
 20
28.4006290435791
 30
55.5
 70
   192
  0
VERTEX
  5
6A3
  8
0
 10
28.19492149353027
 20
-3.408140182495117
 30
55.5
 70
   192
  0
VERTEX
  5
6A4
  8
0
 10
28.9375
 20
-1.704836487770081
 30
55.98984527587891
 70
   192
  0
VERTEX
  5
6A5
  8
0
 10
28.54512596130371
 20
-5.048425197601318
 30
55.98984527587891
 70
   192
  0
VERTEX
  5
6A6
  8
0
 10
27.5773754119873
 20
-6.791557788848877
 30
55.5
 70
   192
  0
VERTEX
  5
6A7
  8
0
 10
26.55887985229492
 20
-10.06123447418213
 30
55.5
 70
   192
  0
VERTEX
  5
6A8
  8
0
 10
27.75888633728027
 20
-8.33585262298584
 30
55.98984527587891
 70
   192
  0
VERTEX
  5
6A9
  8
0
 10
25.15194702148438
 20
-13.18839931488037
 30
55.5
 70
   192
  0
VERTEX
  5
6AA
  8
0
 10
26.60601615905762
 20
-11.49438667297363
 30
55.98984527587891
 70
   192
  0
VERTEX
  5
6AB
  8
0
 10
25.08245658874512
 20
-14.51246547698975
 30
55.98984527587891
 70
   192
  0
VERTEX
  5
6AC
  8
0
 10
23.3770580291748
 20
-16.12700271606445
 30
55.5
 70
   192
  0
VERTEX
  5
6AD
  8
0
 10
21.26746940612793
 20
-18.81868553161621
 30
55.5
 70
   192
  0
VERTEX
  5
6AE
  8
0
 10
23.2359790802002
 20
-17.31698036193848
 30
55.98984527587891
 70
   192
  0
VERTEX
  5
6AF
  8
0
 10
18.84857368469238
 20
-21.24007987976074
 30
55.5
 70
   192
  0
VERTEX
  5
6B0
  8
0
 10
21.05975151062012
 20
-19.90585327148438
 30
55.98984527587891
 70
   192
  0
VERTEX
  5
6B1
  8
0
 10
18.62135124206543
 20
-22.20794677734375
 30
55.98984527587891
 70
   192
  0
VERTEX
  5
6B2
  8
0
 10
16.14796257019043
 20
-23.36199569702148
 30
55.5
 70
   192
  0
VERTEX
  5
6B3
  8
0
 10
13.206130027771
 20
-25.14468765258789
 30
55.5
 70
   192
  0
VERTEX
  5
6B4
  8
0
 10
15.91080570220947
 20
-24.24410629272461
 30
55.98984527587891
 70
   192
  0
VERTEX
  5
6B5
  8
0
 10
10.08459854125977
 20
-26.54958152770996
 30
55.5
 70
   192
  0
VERTEX
  5
6B6
  8
0
 10
13.00716114044189
 20
-25.90301132202148
 30
55.98984527587891
 70
   192
  0
VERTEX
  5
6B7
  8
0
 10
9.877208709716797
 20
-27.1101188659668
 30
55.98984527587891
 70
   192
  0
VERTEX
  5
6B8
  8
0
 10
6.814087390899658
 20
-27.56950569152832
 30
55.5
 70
   192
  0
VERTEX
  5
6B9
  8
0
 10
3.436010360717773
 20
-28.19090270996094
 30
55.5
 70
   192
  0
VERTEX
  5
6BA
  8
0
 10
6.658282279968262
 20
-28.0184326171875
 30
55.98984527587891
 70
   192
  0
VERTEX
  5
6BB
  8
0
 10
-0.0000000000000113
 20
-28.4006290435791
 30
55.5
 70
   192
  0
VERTEX
  5
6BC
  8
0
 10
3.36587929725647
 20
-28.64521789550781
 30
55.98984527587891
 70
   192
  0
VERTEX
  5
6BD
  8
0
 10
-0.0000000000000115
 20
-28.89047431945801
 30
55.98984527587891
 70
   192
  0
VERTEX
  5
6BE
  8
0
 10
15.6980447769165
 20
-21.64941024780273
 30
98.99662017822266
 70
   192
  0
VERTEX
  5
6BF
  8
0
 10
21.6264591217041
 20
-15.73367786407471
 30
98.99662017822266
 70
   192
  0
VERTEX
  5
6C0
  8
0
 10
8.256077766418457
 20
-25.43823432922363
 30
98.99662017822266
 70
   192
  0
VERTEX
  5
6C1
  8
0
 10
-0.0000000000000101
 20
-26.74468421936035
 30
98.99662017822266
 70
   192
  0
VERTEX
  5
6C2
  8
0
 10
25.43153190612793
 20
-8.275514602661133
 30
98.99662017822266
 70
   192
  0
VERTEX
  5
6C3
  8
0
 10
26.74468421936035
 20
0.0000000000000072
 30
98.99662017822266
 70
   192
  0
VERTEX
  5
6C4
  8
0
 10
25.43894577026367
 20
8.251503944396973
 30
98.99662017822266
 70
   192
  0
VERTEX
  5
6C5
  8
0
 10
21.64941024780273
 20
15.6980447769165
 30
98.99662017822266
 70
   192
  0
VERTEX
  5
6C6
  8
0
 10
15.73367786407471
 20
21.6264591217041
 30
98.99662017822266
 70
   192
  0
VERTEX
  5
6C7
  8
0
 10
8.275514602661133
 20
25.43153190612793
 30
98.99662017822266
 70
   192
  0
VERTEX
  5
6C8
  8
0
 10
0.0000000000000047
 20
26.74468421936035
 30
98.99662017822266
 70
   192
  0
VERTEX
  5
6C9
  8
0
 10
5.189756393432617
 20
20.44997215270996
 30
106.5704956054688
 70
   192
  0
VERTEX
  5
6CA
  8
0
 10
4.215408802032471
 20
14.37905693054199
 30
112.5
 70
   192
  0
VERTEX
  5
6CB
  8
0
 10
-0.0000000000000001
 20
15.0
 30
112.5
 70
   192
  0
VERTEX
  5
6CC
  8
0
 10
20.61208915710449
 20
-4.610893249511719
 30
106.5704956054688
 70
   192
  0
VERTEX
  5
6CD
  8
0
 10
25.01560974121094
 20
0.0125885000452399
 30
98.99662017822266
 70
   192
  0
VERTEX
  5
6CE
  8
0
 10
24.1679859161377
 20
-6.46453857421875
 30
98.99662017822266
 70
   192
  0
VERTEX
  5
6CF
  8
0
 10
21.67142868041992
 20
-12.49835681915283
 30
98.99662017822266
 70
   192
  0
VERTEX
  5
6D0
  8
0
 10
16.9496898651123
 20
-12.64242267608643
 30
106.5704956054688
 70
   192
  0
VERTEX
  5
6D1
  8
0
 10
12.5119047164917
 20
-21.66607284545898
 30
98.99662017822266
 70
   192
  0
VERTEX
  5
6D2
  8
0
 10
11.21830749511719
 20
-17.94215965270996
 30
106.5704956054688
 70
   192
  0
VERTEX
  5
6D3
  8
0
 10
17.70235443115234
 20
-17.67526245117188
 30
98.99662017822266
 70
   192
  0
VERTEX
  5
6D4
  8
0
 10
6.48776388168335
 20
-24.16140365600586
 30
98.99662017822266
 70
   192
  0
VERTEX
  5
6D5
  8
0
 10
5.224420547485352
 20
-20.49309158325195
 30
106.5704956054688
 70
   192
  0
VERTEX
  5
6D6
  8
0
 10
8.143588066101074
 20
-12.63598155975342
 30
112.5
 70
   192
  0
VERTEX
  5
6D7
  8
0
 10
-0.0000000000000097
 20
-25.01842498779297
 30
98.99662017822266
 70
   192
  0
VERTEX
  5
6D8
  8
0
 10
4.241929531097412
 20
-14.41476154327393
 30
112.5
 70
   192
  0
VERTEX
  5
6D9
  8
0
 10
-0.0000000000000094
 20
-21.11739730834961
 30
106.5704956054688
 70
   192
  0
VERTEX
  5
6DA
  8
0
 10
-0.0000000000000084
 20
-15.0
 30
112.5
 70
   192
  0
VERTEX
  5
6DB
  8
0
 10
20.57023811340332
 20
4.661304473876953
 30
106.5704956054688
 70
   192
  0
VERTEX
  5
6DC
  8
0
 10
24.16353225708008
 20
6.479260444641113
 30
98.99662017822266
 70
   192
  0
VERTEX
  5
6DD
  8
0
 10
14.79384994506836
 20
2.143332004547119
 30
112.5
 70
   192
  0
VERTEX
  5
6DE
  8
0
 10
21.66757392883301
 20
12.50746154785156
 30
98.99662017822266
 70
   192
  0
VERTEX
  5
6DF
  8
0
 10
16.82782936096191
 20
12.66974067687988
 30
106.5704956054688
 70
   192
  0
VERTEX
  5
6E0
  8
0
 10
11.11794567108154
 20
17.90270805358887
 30
106.5704956054688
 70
   192
  0
VERTEX
  5
6E1
  8
0
 10
17.6906852722168
 20
17.68932914733887
 30
98.99662017822266
 70
   192
  0
VERTEX
  5
6E2
  8
0
 10
13.54835033416748
 20
6.197867870330811
 30
112.5
 70
   192
  0
VERTEX
  5
6E3
  8
0
 10
12.503662109375
 20
21.66835784912109
 30
98.99662017822266
 70
   192
  0
VERTEX
  5
6E4
  8
0
 10
6.483628273010254
 20
24.16461181640625
 30
98.99662017822266
 70
   192
  0
VERTEX
  5
6E5
  8
0
 10
-0.0000000000000028
 20
21.11739730834961
 30
106.5704956054688
 70
   192
  0
VERTEX
  5
6E6
  8
0
 10
0.0000044800262913
 20
25.01358222961426
 30
98.99662017822266
 70
   192
  0
VERTEX
  5
6E7
  8
0
 10
8.077835083007812
 20
12.61366558074951
 30
112.5
 70
   192
  0
VERTEX
  5
6E8
  8
0
 10
11.27004241943359
 20
9.794478416442871
 30
112.5
 70
   192
  0
VERTEX
  5
6E9
  8
0
 10
14.8601188659668
 20
-2.098194122314453
 30
112.5
 70
   192
  0
VERTEX
  5
6EA
  8
0
 10
13.6008186340332
 20
-6.147995948791504
 30
112.5
 70
   192
  0
VERTEX
  5
6EB
  8
0
 10
11.13253879547119
 20
-9.6221342086792
 30
112.5
 70
   192
  0
VERTEX
  5
6EC
  8
0
 10
-5.189756393432617
 20
-20.44997215270996
 30
106.5704956054688
 70
   192
  0
VERTEX
  5
6ED
  8
0
 10
-11.11794567108154
 20
-17.90270805358887
 30
106.5704956054688
 70
   192
  0
VERTEX
  5
6EE
  8
0
 10
-4.215408802032471
 20
-14.37905693054199
 30
112.5
 70
   192
  0
VERTEX
  5
6EF
  8
0
 10
-20.57023811340332
 20
-4.661304473876953
 30
106.5704956054688
 70
   192
  0
VERTEX
  5
6F0
  8
0
 10
-21.6622142791748
 20
-12.51644420623779
 30
98.99662017822266
 70
   192
  0
VERTEX
  5
6F1
  8
0
 10
-24.16156959533691
 20
-6.486667156219482
 30
98.99662017822266
 70
   192
  0
VERTEX
  5
6F2
  8
0
 10
-16.82782936096191
 20
-12.66974067687988
 30
106.5704956054688
 70
   192
  0
VERTEX
  5
6F3
  8
0
 10
-17.67389678955078
 20
-17.70292282104492
 30
98.99662017822266
 70
   192
  0
VERTEX
  5
6F4
  8
0
 10
-16.9496898651123
 20
12.64242267608643
 30
106.5704956054688
 70
   192
  0
VERTEX
  5
6F5
  8
0
 10
-21.66628646850586
 20
12.50774574279785
 30
98.99662017822266
 70
   192
  0
VERTEX
  5
6F6
  8
0
 10
-17.69020652770996
 20
17.68867301940918
 30
98.99662017822266
 70
   192
  0
VERTEX
  5
6F7
  8
0
 10
-20.61208915710449
 20
4.610893249511719
 30
106.5704956054688
 70
   192
  0
VERTEX
  5
6F8
  8
0
 10
-25.01651382446289
 20
-0.0103601468726993
 30
98.99662017822266
 70
   192
  0
VERTEX
  5
6F9
  8
0
 10
-6.475135326385498
 20
24.16476821899414
 30
98.99662017822266
 70
   192
  0
VERTEX
  5
6FA
  8
0
 10
-11.21830749511719
 20
17.94215965270996
 30
106.5704956054688
 70
   192
  0
VERTEX
  5
6FB
  8
0
 10
-12.5133581161499
 20
21.66286087036133
 30
98.99662017822266
 70
   192
  0
VERTEX
  5
6FC
  8
0
 10
-5.224420547485352
 20
20.49309158325195
 30
106.5704956054688
 70
   192
  0
VERTEX
  5
6FD
  8
0
 10
-8.143588066101074
 20
12.63598155975342
 30
112.5
 70
   192
  0
VERTEX
  5
6FE
  8
0
 10
-4.241929531097412
 20
14.41476154327393
 30
112.5
 70
   192
  0
VERTEX
  5
6FF
  8
0
 10
-12.49888134002686
 20
-21.67091751098633
 30
98.99662017822266
 70
   192
  0
VERTEX
  5
700
  8
0
 10
-24.1658763885498
 20
6.477582931518555
 30
98.99662017822266
 70
   192
  0
VERTEX
  5
701
  8
0
 10
-6.469961643218994
 20
-24.16704177856445
 30
98.99662017822266
 70
   192
  0
VERTEX
  5
702
  8
0
 10
-14.79384994506836
 20
-2.143332004547119
 30
112.5
 70
   192
  0
VERTEX
  5
703
  8
0
 10
-13.54835033416748
 20
-6.197867870330811
 30
112.5
 70
   192
  0
VERTEX
  5
704
  8
0
 10
-8.077835083007812
 20
-12.61366558074951
 30
112.5
 70
   192
  0
VERTEX
  5
705
  8
0
 10
-11.27004241943359
 20
-9.794478416442871
 30
112.5
 70
   192
  0
VERTEX
  5
706
  8
0
 10
-14.8601188659668
 20
2.098194122314453
 30
112.5
 70
   192
  0
VERTEX
  5
707
  8
0
 10
-13.6008186340332
 20
6.147995948791504
 30
112.5
 70
   192
  0
VERTEX
  5
708
  8
0
 10
-11.13253879547119
 20
9.6221342086792
 30
112.5
 70
   192
  0
VERTEX
  5
709
  8
0
 10
-21.64941024780273
 20
-15.6980447769165
 30
98.99662017822266
 70
   192
  0
VERTEX
  5
70A
  8
0
 10
-15.73367786407471
 20
-21.6264591217041
 30
98.99662017822266
 70
   192
  0
VERTEX
  5
70B
  8
0
 10
-8.275514602661133
 20
-25.43153190612793
 30
98.99662017822266
 70
   192
  0
VERTEX
  5
70C
  8
0
 10
-25.43153190612793
 20
8.275514602661133
 30
98.99662017822266
 70
   192
  0
VERTEX
  5
70D
  8
0
 10
-21.6264591217041
 20
15.73367786407471
 30
98.99662017822266
 70
   192
  0
VERTEX
  5
70E
  8
0
 10
-26.74468421936035
 20
-0.0000000000000029
 30
98.99662017822266
 70
   192
  0
VERTEX
  5
70F
  8
0
 10
-15.6980447769165
 20
21.64941024780273
 30
98.99662017822266
 70
   192
  0
VERTEX
  5
710
  8
0
 10
-8.256077766418457
 20
25.43823432922363
 30
98.99662017822266
 70
   192
  0
VERTEX
  5
711
  8
0
 10
-25.43894577026367
 20
-8.251503944396973
 30
98.99662017822266
 70
   192
  0
VERTEX
  5
712
  8
0
 10
-3.481817007064819
 20
-28.52757263183594
 30
55.98984527587891
 70
   192
  0
VERTEX
  5
713
  8
0
 10
-6.884670257568359
 20
-27.86211585998535
 30
55.98984527587891
 70
   192
  0
VERTEX
  5
714
  8
0
 10
-23.75423049926758
 20
-16.42311477661133
 30
55.98984527587891
 70
   192
  0
VERTEX
  5
715
  8
0
 10
-21.59995269775391
 20
-19.16727447509766
 30
55.98984527587891
 70
   192
  0
VERTEX
  5
716
  8
0
 10
-25.58989906311035
 20
13.41965389251709
 30
55.98984527587891
 70
   192
  0
VERTEX
  5
717
  8
0
 10
-28.67442512512207
 20
-3.504050493240356
 30
55.98984527587891
 70
   192
  0
VERTEX
  5
718
  8
0
 10
-28.89047431945801
 20
0.0000000000000098
 30
55.98984527587891
 70
   192
  0
VERTEX
  5
719
  8
0
 10
-10.257080078125
 20
26.9535026550293
 30
55.98984527587891
 70
   192
  0
VERTEX
  5
71A
  8
0
 10
-13.44215297698975
 20
25.57472038269043
 30
55.98984527587891
 70
   192
  0
VERTEX
  5
71B
  8
0
 10
-19.17847633361816
 20
21.6188907623291
 30
55.98984527587891
 70
   192
  0
VERTEX
  5
71C
  8
0
 10
-16.43148612976074
 20
23.77294921875
 30
55.98984527587891
 70
   192
  0
VERTEX
  5
71D
  8
0
 10
-6.898650169372559
 20
27.87872505187988
 30
55.98984527587891
 70
   192
  0
VERTEX
  5
71E
  8
0
 10
-3.481152296066284
 20
28.52617645263672
 30
55.98984527587891
 70
   192
  0
VERTEX
  5
71F
  8
0
 10
-27.01932334899902
 20
10.22413730621338
 30
55.98984527587891
 70
   192
  0
VERTEX
  5
720
  8
0
 10
-21.64201736450195
 20
19.1545581817627
 30
55.98984527587891
 70
   192
  0
VERTEX
  5
721
  8
0
 10
-23.79339599609375
 20
16.39768409729004
 30
55.98984527587891
 70
   192
  0
VERTEX
  5
722
  8
0
 10
-28.05025482177734
 20
6.908792972564697
 30
55.98984527587891
 70
   192
  0
VERTEX
  5
723
  8
0
 10
-28.68013572692871
 20
3.461583375930786
 30
55.98984527587891
 70
   192
  0
VERTEX
  5
724
  8
0
 10
-28.04389190673828
 20
-6.924251556396484
 30
55.98984527587891
 70
   192
  0
VERTEX
  5
725
  8
0
 10
-13.41902732849121
 20
-25.58515548706055
 30
55.98984527587891
 70
   192
  0
VERTEX
  5
726
  8
0
 10
-16.39202880859375
 20
-23.79706382751465
 30
55.98984527587891
 70
   192
  0
VERTEX
  5
727
  8
0
 10
-26.99752426147461
 20
-10.26421737670898
 30
55.98984527587891
 70
   192
  0
VERTEX
  5
728
  8
0
 10
-25.56242561340332
 20
-13.43848133087158
 30
55.98984527587891
 70
   192
  0
VERTEX
  5
729
  8
0
 10
-19.13938331604004
 20
-21.62907028198242
 30
55.98984527587891
 70
   192
  0
VERTEX
  5
72A
  8
0
 10
-10.2085599899292
 20
-26.89410781860352
 30
55.98984527587891
 70
   192
  0
VERTEX
  5
72B
  8
0
 10
-3.436010360717773
 20
28.19090270996094
 30
55.5
 70
   192
  0
VERTEX
  5
72C
  8
0
 10
-6.814087390899658
 20
27.56950569152832
 30
55.5
 70
   192
  0
VERTEX
  5
72D
  8
0
 10
-16.14796257019043
 20
23.36199569702148
 30
55.5
 70
   192
  0
VERTEX
  5
72E
  8
0
 10
-18.84857368469238
 20
21.24007987976074
 30
55.5
 70
   192
  0
VERTEX
  5
72F
  8
0
 10
-13.206130027771
 20
25.14468765258789
 30
55.5
 70
   192
  0
VERTEX
  5
730
  8
0
 10
-10.08459854125977
 20
26.54958152770996
 30
55.5
 70
   192
  0
VERTEX
  5
731
  8
0
 10
-25.15194702148438
 20
13.18839931488037
 30
55.5
 70
   192
  0
VERTEX
  5
732
  8
0
 10
-21.26746940612793
 20
18.81868553161621
 30
55.5
 70
   192
  0
VERTEX
  5
733
  8
0
 10
-28.19492149353027
 20
3.408140182495117
 30
55.5
 70
   192
  0
VERTEX
  5
734
  8
0
 10
-28.39719200134277
 20
-0.0260792933404446
 30
55.5
 70
   192
  0
VERTEX
  5
735
  8
0
 10
-26.55887985229492
 20
10.06123447418213
 30
55.5
 70
   192
  0
VERTEX
  5
736
  8
0
 10
-27.5773754119873
 20
6.791557788848877
 30
55.5
 70
   192
  0
VERTEX
  5
737
  8
0
 10
-27.57098579406738
 20
-6.808926105499268
 30
55.5
 70
   192
  0
VERTEX
  5
738
  8
0
 10
-28.18734931945801
 20
-3.447500228881836
 30
55.5
 70
   192
  0
VERTEX
  5
739
  8
0
 10
-23.36948585510254
 20
-16.13859367370605
 30
55.5
 70
   192
  0
VERTEX
  5
73A
  8
0
 10
-25.14310646057129
 20
-13.20679378509521
 30
55.5
 70
   192
  0
VERTEX
  5
73B
  8
0
 10
-26.55050086975098
 20
-10.08193778991699
 30
55.5
 70
   192
  0
VERTEX
  5
73C
  8
0
 10
-18.81478691101074
 20
-21.27101516723633
 30
55.5
 70
   192
  0
VERTEX
  5
73D
  8
0
 10
-21.2523136138916
 20
-18.83958053588867
 30
55.5
 70
   192
  0
VERTEX
  5
73E
  8
0
 10
-16.11196517944336
 20
-23.38494300842285
 30
55.5
 70
   192
  0
VERTEX
  5
73F
  8
0
 10
-13.18346118927002
 20
-25.1539192199707
 30
55.5
 70
   192
  0
VERTEX
  5
740
  8
0
 10
-10.05861854553223
 20
-26.55999755859375
 30
55.5
 70
   192
  0
VERTEX
  5
741
  8
0
 10
-6.793872356414795
 20
-27.57590103149414
 30
55.5
 70
   192
  0
VERTEX
  5
742
  8
0
 10
-3.422617673873901
 20
-28.19250869750977
 30
55.5
 70
   192
  0
VERTEX
  5
743
  8
0
 10
-23.3770580291748
 20
16.12700271606445
 30
55.5
 70
   192
  0
VERTEX
  5
744
  8
0
 10
-14.20031452178955
 20
-14.20031452178955
 30
55.5
 70
   192
  0
VERTEX
  5
745
  8
0
 62
     9
 10
0.0
 20
0.0
 30
0.0
 70
   128
 71
     3
 72
     2
 73
     1
  0
VERTEX
  5
746
  8
0
 62
     9
 10
0.0
 20
0.0
 30
0.0
 70
   128
 71
     1
 72
     4
 73
     3
  0
VERTEX
  5
747
  8
0
 62
     9
 10
0.0
 20
0.0
 30
0.0
 70
   128
 71
     7
 72
     6
 73
     5
  0
VERTEX
  5
748
  8
0
 62
     9
 10
0.0
 20
0.0
 30
0.0
 70
   128
 71
     8
 72
     2
 73
     3
  0
VERTEX
  5
749
  8
0
 62
     9
 10
0.0
 20
0.0
 30
0.0
 70
   128
 71
    10
 72
     9
 73
     4
  0
VERTEX
  5
74A
  8
0
 62
     9
 10
0.0
 20
0.0
 30
0.0
 70
   128
 71
     9
 72
    11
 73
     6
  0
VERTEX
  5
74B
  8
0
 62
     9
 10
0.0
 20
0.0
 30
0.0
 70
   128
 71
     9
 72
    10
 73
    11
  0
VERTEX
  5
74C
  8
0
 62
     9
 10
0.0
 20
0.0
 30
0.0
 70
   128
 71
     4
 72
     1
 73
    10
  0
VERTEX
  5
74D
  8
0
 62
     9
 10
0.0
 20
0.0
 30
0.0
 70
   128
 71
     6
 72
    11
 73
     5
  0
VERTEX
  5
74E
  8
0
 62
     9
 10
0.0
 20
0.0
 30
0.0
 70
   128
 71
    12
 72
     7
 73
     5
  0
VERTEX
  5
74F
  8
0
 62
     9
 10
0.0
 20
0.0
 30
0.0
 70
   128
 71
     7
 72
    12
 73
    13
  0
VERTEX
  5
750
  8
0
 62
     9
 10
0.0
 20
0.0
 30
0.0
 70
   128
 71
    14
 72
    13
 73
    12
  0
VERTEX
  5
751
  8
0
 62
     9
 10
0.0
 20
0.0
 30
0.0
 70
   128
 71
    15
 72
    13
 73
    14
  0
VERTEX
  5
752
  8
0
 62
     9
 10
0.0
 20
0.0
 30
0.0
 70
   128
 71
    14
 72
    16
 73
    15
  0
VERTEX
  5
753
  8
0
 62
     9
 10
0.0
 20
0.0
 30
0.0
 70
   128
 71
    19
 72
    18
 73
    17
  0
VERTEX
  5
754
  8
0
 62
     9
 10
0.0
 20
0.0
 30
0.0
 70
   128
 71
     2
 72
     8
 73
    20
  0
VERTEX
  5
755
  8
0
 62
     9
 10
0.0
 20
0.0
 30
0.0
 70
   128
 71
    18
 72
    19
 73
    21
  0
VERTEX
  5
756
  8
0
 62
     9
 10
0.0
 20
0.0
 30
0.0
 70
   128
 71
    19
 72
    17
 73
    16
  0
VERTEX
  5
757
  8
0
 62
     9
 10
0.0
 20
0.0
 30
0.0
 70
   128
 71
    23
 72
    22
 73
    21
  0
VERTEX
  5
758
  8
0
 62
     9
 10
0.0
 20
0.0
 30
0.0
 70
   128
 71
    21
 72
    22
 73
    18
  0
VERTEX
  5
759
  8
0
 62
     9
 10
0.0
 20
0.0
 30
0.0
 70
   128
 71
    23
 72
    24
 73
    22
  0
VERTEX
  5
75A
  8
0
 62
     9
 10
0.0
 20
0.0
 30
0.0
 70
   128
 71
    24
 72
    23
 73
    25
  0
VERTEX
  5
75B
  8
0
 62
     9
 10
0.0
 20
0.0
 30
0.0
 70
   128
 71
    17
 72
    15
 73
    16
  0
VERTEX
  5
75C
  8
0
 62
     9
 10
0.0
 20
0.0
 30
0.0
 70
   128
 71
    24
 72
    25
 73
    26
  0
VERTEX
  5
75D
  8
0
 62
     9
 10
0.0
 20
0.0
 30
0.0
 70
   128
 71
    26
 72
    28
 73
    27
  0
VERTEX
  5
75E
  8
0
 62
     9
 10
0.0
 20
0.0
 30
0.0
 70
   128
 71
    26
 72
    25
 73
    28
  0
VERTEX
  5
75F
  8
0
 62
     9
 10
0.0
 20
0.0
 30
0.0
 70
   128
 71
    20
 72
    30
 73
    29
  0
VERTEX
  5
760
  8
0
 62
     9
 10
0.0
 20
0.0
 30
0.0
 70
   128
 71
    30
 72
    20
 73
     8
  0
VERTEX
  5
761
  8
0
 62
     9
 10
0.0
 20
0.0
 30
0.0
 70
   128
 71
    32
 72
    29
 73
    31
  0
VERTEX
  5
762
  8
0
 62
     9
 10
0.0
 20
0.0
 30
0.0
 70
   128
 71
    30
 72
    31
 73
    29
  0
VERTEX
  5
763
  8
0
 62
     9
 10
0.0
 20
0.0
 30
0.0
 70
   128
 71
    34
 72
    33
 73
    32
  0
VERTEX
  5
764
  8
0
 62
     9
 10
0.0
 20
0.0
 30
0.0
 70
   128
 71
    32
 72
    31
 73
    34
  0
VERTEX
  5
765
  8
0
 62
     9
 10
0.0
 20
0.0
 30
0.0
 70
   128
 71
    33
 72
    36
 73
    35
  0
VERTEX
  5
766
  8
0
 62
     9
 10
0.0
 20
0.0
 30
0.0
 70
   128
 71
    36
 72
    33
 73
    34
  0
VERTEX
  5
767
  8
0
 62
     9
 10
0.0
 20
0.0
 30
0.0
 70
   128
 71
    38
 72
    35
 73
    37
  0
VERTEX
  5
768
  8
0
 62
     9
 10
0.0
 20
0.0
 30
0.0
 70
   128
 71
    36
 72
    37
 73
    35
  0
VERTEX
  5
769
  8
0
 62
     9
 10
0.0
 20
0.0
 30
0.0
 70
   128
 71
    40
 72
    39
 73
    38
  0
VERTEX
  5
76A
  8
0
 62
     9
 10
0.0
 20
0.0
 30
0.0
 70
   128
 71
    38
 72
    37
 73
    40
  0
VERTEX
  5
76B
  8
0
 62
     9
 10
0.0
 20
0.0
 30
0.0
 70
   128
 71
    39
 72
    42
 73
    41
  0
VERTEX
  5
76C
  8
0
 62
     9
 10
0.0
 20
0.0
 30
0.0
 70
   128
 71
    42
 72
    39
 73
    40
  0
VERTEX
  5
76D
  8
0
 62
     9
 10
0.0
 20
0.0
 30
0.0
 70
   128
 71
    44
 72
    41
 73
    43
  0
VERTEX
  5
76E
  8
0
 62
     9
 10
0.0
 20
0.0
 30
0.0
 70
   128
 71
    42
 72
    43
 73
    41
  0
VERTEX
  5
76F
  8
0
 62
     9
 10
0.0
 20
0.0
 30
0.0
 70
   128
 71
    46
 72
    45
 73
    44
  0
VERTEX
  5
770
  8
0
 62
     9
 10
0.0
 20
0.0
 30
0.0
 70
   128
 71
    44
 72
    43
 73
    46
  0
VERTEX
  5
771
  8
0
 62
     9
 10
0.0
 20
0.0
 30
0.0
 70
   128
 71
    45
 72
    48
 73
    47
  0
VERTEX
  5
772
  8
0
 62
     9
 10
0.0
 20
0.0
 30
0.0
 70
   128
 71
    48
 72
    45
 73
    46
  0
VERTEX
  5
773
  8
0
 62
     9
 10
0.0
 20
0.0
 30
0.0
 70
   128
 71
    50
 72
    47
 73
    49
  0
VERTEX
  5
774
  8
0
 62
     9
 10
0.0
 20
0.0
 30
0.0
 70
   128
 71
    48
 72
    49
 73
    47
  0
VERTEX
  5
775
  8
0
 62
     9
 10
0.0
 20
0.0
 30
0.0
 70
   128
 71
    52
 72
    51
 73
    50
  0
VERTEX
  5
776
  8
0
 62
     9
 10
0.0
 20
0.0
 30
0.0
 70
   128
 71
    50
 72
    49
 73
    52
  0
VERTEX
  5
777
  8
0
 62
     9
 10
0.0
 20
0.0
 30
0.0
 70
   128
 71
    51
 72
    54
 73
    53
  0
VERTEX
  5
778
  8
0
 62
     9
 10
0.0
 20
0.0
 30
0.0
 70
   128
 71
    54
 72
    51
 73
    52
  0
VERTEX
  5
779
  8
0
 62
     9
 10
0.0
 20
0.0
 30
0.0
 70
   128
 71
    54
 72
    55
 73
    53
  0
VERTEX
  5
77A
  8
0
 62
     9
 10
0.0
 20
0.0
 30
0.0
 70
   128
 71
    56
 72
    46
 73
    43
  0
VERTEX
  5
77B
  8
0
 62
     9
 10
0.0
 20
0.0
 30
0.0
 70
   128
 71
    42
 72
    57
 73
    56
  0
VERTEX
  5
77C
  8
0
 62
     9
 10
0.0
 20
0.0
 30
0.0
 70
   128
 71
    48
 72
    56
 73
    58
  0
VERTEX
  5
77D
  8
0
 62
     9
 10
0.0
 20
0.0
 30
0.0
 70
   128
 71
    46
 72
    56
 73
    48
  0
VERTEX
  5
77E
  8
0
 62
     9
 10
0.0
 20
0.0
 30
0.0
 70
   128
 71
    58
 72
    52
 73
    49
  0
VERTEX
  5
77F
  8
0
 62
     9
 10
0.0
 20
0.0
 30
0.0
 70
   128
 71
    56
 72
    43
 73
    42
  0
VERTEX
  5
780
  8
0
 62
     9
 10
0.0
 20
0.0
 30
0.0
 70
   128
 71
    58
 72
    59
 73
    54
  0
VERTEX
  5
781
  8
0
 62
     9
 10
0.0
 20
0.0
 30
0.0
 70
   128
 71
    49
 72
    48
 73
    58
  0
VERTEX
  5
782
  8
0
 62
     9
 10
0.0
 20
0.0
 30
0.0
 70
   128
 71
    52
 72
    58
 73
    54
  0
VERTEX
  5
783
  8
0
 62
     9
 10
0.0
 20
0.0
 30
0.0
 70
   128
 71
    54
 72
    59
 73
    55
  0
VERTEX
  5
784
  8
0
 62
     9
 10
0.0
 20
0.0
 30
0.0
 70
   128
 71
    40
 72
    37
 73
    57
  0
VERTEX
  5
785
  8
0
 62
     9
 10
0.0
 20
0.0
 30
0.0
 70
   128
 71
    40
 72
    57
 73
    42
  0
VERTEX
  5
786
  8
0
 62
     9
 10
0.0
 20
0.0
 30
0.0
 70
   128
 71
    60
 72
    37
 73
    36
  0
VERTEX
  5
787
  8
0
 62
     9
 10
0.0
 20
0.0
 30
0.0
 70
   128
 71
    37
 72
    60
 73
    57
  0
VERTEX
  5
788
  8
0
 62
     9
 10
0.0
 20
0.0
 30
0.0
 70
   128
 71
    60
 72
    34
 73
    31
  0
VERTEX
  5
789
  8
0
 62
     9
 10
0.0
 20
0.0
 30
0.0
 70
   128
 71
    36
 72
    34
 73
    60
  0
VERTEX
  5
78A
  8
0
 62
     9
 10
0.0
 20
0.0
 30
0.0
 70
   128
 71
    30
 72
    61
 73
    31
  0
VERTEX
  5
78B
  8
0
 62
     9
 10
0.0
 20
0.0
 30
0.0
 70
   128
 71
    60
 72
    31
 73
    61
  0
VERTEX
  5
78C
  8
0
 62
     9
 10
0.0
 20
0.0
 30
0.0
 70
   128
 71
     3
 72
    61
 73
     8
  0
VERTEX
  5
78D
  8
0
 62
     9
 10
0.0
 20
0.0
 30
0.0
 70
   128
 71
    61
 72
    30
 73
     8
  0
VERTEX
  5
78E
  8
0
 62
     9
 10
0.0
 20
0.0
 30
0.0
 70
   128
 71
     3
 72
     4
 73
    62
  0
VERTEX
  5
78F
  8
0
 62
     9
 10
0.0
 20
0.0
 30
0.0
 70
   128
 71
    62
 72
    61
 73
     3
  0
VERTEX
  5
790
  8
0
 62
     9
 10
0.0
 20
0.0
 30
0.0
 70
   128
 71
     9
 72
     6
 73
    62
  0
VERTEX
  5
791
  8
0
 62
     9
 10
0.0
 20
0.0
 30
0.0
 70
   128
 71
     9
 72
    62
 73
     4
  0
VERTEX
  5
792
  8
0
 62
     9
 10
0.0
 20
0.0
 30
0.0
 70
   128
 71
    63
 72
     6
 73
     7
  0
VERTEX
  5
793
  8
0
 62
     9
 10
0.0
 20
0.0
 30
0.0
 70
   128
 71
     6
 72
    63
 73
    62
  0
VERTEX
  5
794
  8
0
 62
     9
 10
0.0
 20
0.0
 30
0.0
 70
   128
 71
    64
 72
    63
 73
    13
  0
VERTEX
  5
795
  8
0
 62
     9
 10
0.0
 20
0.0
 30
0.0
 70
   128
 71
     7
 72
    13
 73
    63
  0
VERTEX
  5
796
  8
0
 62
     9
 10
0.0
 20
0.0
 30
0.0
 70
   128
 71
    17
 72
    64
 73
    15
  0
VERTEX
  5
797
  8
0
 62
     9
 10
0.0
 20
0.0
 30
0.0
 70
   128
 71
    64
 72
    13
 73
    15
  0
VERTEX
  5
798
  8
0
 62
     9
 10
0.0
 20
0.0
 30
0.0
 70
   128
 71
    18
 72
    65
 73
    64
  0
VERTEX
  5
799
  8
0
 62
     9
 10
0.0
 20
0.0
 30
0.0
 70
   128
 71
    64
 72
    17
 73
    18
  0
VERTEX
  5
79A
  8
0
 62
     9
 10
0.0
 20
0.0
 30
0.0
 70
   128
 71
    22
 72
    24
 73
    65
  0
VERTEX
  5
79B
  8
0
 62
     9
 10
0.0
 20
0.0
 30
0.0
 70
   128
 71
    22
 72
    65
 73
    18
  0
VERTEX
  5
79C
  8
0
 62
     9
 10
0.0
 20
0.0
 30
0.0
 70
   128
 71
    65
 72
    26
 73
    66
  0
VERTEX
  5
79D
  8
0
 62
     9
 10
0.0
 20
0.0
 30
0.0
 70
   128
 71
    26
 72
    65
 73
    24
  0
VERTEX
  5
79E
  8
0
 62
     9
 10
0.0
 20
0.0
 30
0.0
 70
   128
 71
    26
 72
    27
 73
    66
  0
VERTEX
  5
79F
  8
0
 62
     9
 10
0.0
 20
0.0
 30
0.0
 70
   128
 71
    69
 72
    68
 73
    67
  0
VERTEX
  5
7A0
  8
0
 62
     9
 10
0.0
 20
0.0
 30
0.0
 70
   128
 71
    72
 72
    71
 73
    70
  0
VERTEX
  5
7A1
  8
0
 62
     9
 10
0.0
 20
0.0
 30
0.0
 70
   128
 71
    73
 72
    72
 73
    70
  0
VERTEX
  5
7A2
  8
0
 62
     9
 10
0.0
 20
0.0
 30
0.0
 70
   128
 71
    73
 72
    70
 73
    74
  0
VERTEX
  5
7A3
  8
0
 62
     9
 10
0.0
 20
0.0
 30
0.0
 70
   128
 71
    77
 72
    76
 73
    75
  0
VERTEX
  5
7A4
  8
0
 62
     9
 10
0.0
 20
0.0
 30
0.0
 70
   128
 71
    73
 72
    74
 73
    77
  0
VERTEX
  5
7A5
  8
0
 62
     9
 10
0.0
 20
0.0
 30
0.0
 70
   128
 71
    79
 72
    78
 73
    76
  0
VERTEX
  5
7A6
  8
0
 62
     9
 10
0.0
 20
0.0
 30
0.0
 70
   128
 71
    74
 72
    76
 73
    77
  0
VERTEX
  5
7A7
  8
0
 62
     9
 10
0.0
 20
0.0
 30
0.0
 70
   128
 71
    80
 72
    79
 73
    76
  0
VERTEX
  5
7A8
  8
0
 62
     9
 10
0.0
 20
0.0
 30
0.0
 70
   128
 71
    78
 72
    79
 73
    81
  0
VERTEX
  5
7A9
  8
0
 62
     9
 10
0.0
 20
0.0
 30
0.0
 70
   128
 71
    84
 72
    83
 73
    82
  0
VERTEX
  5
7AA
  8
0
 62
     9
 10
0.0
 20
0.0
 30
0.0
 70
   128
 71
    78
 72
    75
 73
    76
  0
VERTEX
  5
7AB
  8
0
 62
     9
 10
0.0
 20
0.0
 30
0.0
 70
   128
 71
    71
 72
    85
 73
    70
  0
VERTEX
  5
7AC
  8
0
 62
     9
 10
0.0
 20
0.0
 30
0.0
 70
   128
 71
    85
 72
    71
 73
    86
  0
VERTEX
  5
7AD
  8
0
 62
     9
 10
0.0
 20
0.0
 30
0.0
 70
   128
 71
    70
 72
    85
 73
    87
  0
VERTEX
  5
7AE
  8
0
 62
     9
 10
0.0
 20
0.0
 30
0.0
 70
   128
 71
    89
 72
    85
 73
    88
  0
VERTEX
  5
7AF
  8
0
 62
     9
 10
0.0
 20
0.0
 30
0.0
 70
   128
 71
    86
 72
    88
 73
    85
  0
VERTEX
  5
7B0
  8
0
 62
     9
 10
0.0
 20
0.0
 30
0.0
 70
   128
 71
    91
 72
    90
 73
    89
  0
VERTEX
  5
7B1
  8
0
 62
     9
 10
0.0
 20
0.0
 30
0.0
 70
   128
 71
    85
 72
    92
 73
    87
  0
VERTEX
  5
7B2
  8
0
 62
     9
 10
0.0
 20
0.0
 30
0.0
 70
   128
 71
    67
 72
    90
 73
    93
  0
VERTEX
  5
7B3
  8
0
 62
     9
 10
0.0
 20
0.0
 30
0.0
 70
   128
 71
    89
 72
    88
 73
    91
  0
VERTEX
  5
7B4
  8
0
 62
     9
 10
0.0
 20
0.0
 30
0.0
 70
   128
 71
    94
 72
    67
 73
    93
  0
VERTEX
  5
7B5
  8
0
 62
     9
 10
0.0
 20
0.0
 30
0.0
 70
   128
 71
    67
 72
    68
 73
    90
  0
VERTEX
  5
7B6
  8
0
 62
     9
 10
0.0
 20
0.0
 30
0.0
 70
   128
 71
    69
 72
    67
 73
    95
  0
VERTEX
  5
7B7
  8
0
 62
     9
 10
0.0
 20
0.0
 30
0.0
 70
   128
 71
    96
 72
    95
 73
    94
  0
VERTEX
  5
7B8
  8
0
 62
     9
 10
0.0
 20
0.0
 30
0.0
 70
   128
 71
    97
 72
    90
 73
    68
  0
VERTEX
  5
7B9
  8
0
 62
     9
 10
0.0
 20
0.0
 30
0.0
 70
   128
 71
    95
 72
    67
 73
    94
  0
VERTEX
  5
7BA
  8
0
 62
     9
 10
0.0
 20
0.0
 30
0.0
 70
   128
 71
    97
 72
    98
 73
    89
  0
VERTEX
  5
7BB
  8
0
 62
     9
 10
0.0
 20
0.0
 30
0.0
 70
   128
 71
    93
 72
    90
 73
    91
  0
VERTEX
  5
7BC
  8
0
 62
     9
 10
0.0
 20
0.0
 30
0.0
 70
   128
 71
    89
 72
    90
 73
    97
  0
VERTEX
  5
7BD
  8
0
 62
     9
 10
0.0
 20
0.0
 30
0.0
 70
   128
 71
    89
 72
    98
 73
    92
  0
VERTEX
  5
7BE
  8
0
 62
     9
 10
0.0
 20
0.0
 30
0.0
 70
   128
 71
    85
 72
    89
 73
    92
  0
VERTEX
  5
7BF
  8
0
 62
     9
 10
0.0
 20
0.0
 30
0.0
 70
   128
 71
    99
 72
    70
 73
    87
  0
VERTEX
  5
7C0
  8
0
 62
     9
 10
0.0
 20
0.0
 30
0.0
 70
   128
 71
   100
 72
    70
 73
    99
  0
VERTEX
  5
7C1
  8
0
 62
     9
 10
0.0
 20
0.0
 30
0.0
 70
   128
 71
   101
 72
    74
 73
   100
  0
VERTEX
  5
7C2
  8
0
 62
     9
 10
0.0
 20
0.0
 30
0.0
 70
   128
 71
    74
 72
    70
 73
   100
  0
VERTEX
  5
7C3
  8
0
 62
     9
 10
0.0
 20
0.0
 30
0.0
 70
   128
 71
    80
 72
    76
 73
   101
  0
VERTEX
  5
7C4
  8
0
 62
     9
 10
0.0
 20
0.0
 30
0.0
 70
   128
 71
    76
 72
    74
 73
   101
  0
VERTEX
  5
7C5
  8
0
 62
     9
 10
0.0
 20
0.0
 30
0.0
 70
   128
 71
    82
 72
    79
 73
    80
  0
VERTEX
  5
7C6
  8
0
 62
     9
 10
0.0
 20
0.0
 30
0.0
 70
   128
 71
    83
 72
    79
 73
    82
  0
VERTEX
  5
7C7
  8
0
 62
     9
 10
0.0
 20
0.0
 30
0.0
 70
   128
 71
    79
 72
    83
 73
    81
  0
VERTEX
  5
7C8
  8
0
 62
     9
 10
0.0
 20
0.0
 30
0.0
 70
   128
 71
   104
 72
   103
 73
   102
  0
VERTEX
  5
7C9
  8
0
 62
     9
 10
0.0
 20
0.0
 30
0.0
 70
   128
 71
   107
 72
   106
 73
   105
  0
VERTEX
  5
7CA
  8
0
 62
     9
 10
0.0
 20
0.0
 30
0.0
 70
   128
 71
   109
 72
   108
 73
   106
  0
VERTEX
  5
7CB
  8
0
 62
     9
 10
0.0
 20
0.0
 30
0.0
 70
   128
 71
   104
 72
   102
 73
    84
  0
VERTEX
  5
7CC
  8
0
 62
     9
 10
0.0
 20
0.0
 30
0.0
 70
   128
 71
   112
 72
   111
 73
   110
  0
VERTEX
  5
7CD
  8
0
 62
     9
 10
0.0
 20
0.0
 30
0.0
 70
   128
 71
   114
 72
   105
 73
   113
  0
VERTEX
  5
7CE
  8
0
 62
     9
 10
0.0
 20
0.0
 30
0.0
 70
   128
 71
   117
 72
   116
 73
   115
  0
VERTEX
  5
7CF
  8
0
 62
     9
 10
0.0
 20
0.0
 30
0.0
 70
   128
 71
   116
 72
   112
 73
   110
  0
VERTEX
  5
7D0
  8
0
 62
     9
 10
0.0
 20
0.0
 30
0.0
 70
   128
 71
   115
 72
   116
 73
   118
  0
VERTEX
  5
7D1
  8
0
 62
     9
 10
0.0
 20
0.0
 30
0.0
 70
   128
 71
   118
 72
   116
 73
   119
  0
VERTEX
  5
7D2
  8
0
 62
     9
 10
0.0
 20
0.0
 30
0.0
 70
   128
 71
    95
 72
   120
 73
    69
  0
VERTEX
  5
7D3
  8
0
 62
     9
 10
0.0
 20
0.0
 30
0.0
 70
   128
 71
    96
 72
   115
 73
   118
  0
VERTEX
  5
7D4
  8
0
 62
     9
 10
0.0
 20
0.0
 30
0.0
 70
   128
 71
   116
 72
   117
 73
   112
  0
VERTEX
  5
7D5
  8
0
 62
     9
 10
0.0
 20
0.0
 30
0.0
 70
   128
 71
   103
 72
   121
 73
   102
  0
VERTEX
  5
7D6
  8
0
 62
     9
 10
0.0
 20
0.0
 30
0.0
 70
   128
 71
   122
 72
   113
 73
   111
  0
VERTEX
  5
7D7
  8
0
 62
     9
 10
0.0
 20
0.0
 30
0.0
 70
   128
 71
   113
 72
   110
 73
   111
  0
VERTEX
  5
7D8
  8
0
 62
     9
 10
0.0
 20
0.0
 30
0.0
 70
   128
 71
   114
 72
   113
 73
   122
  0
VERTEX
  5
7D9
  8
0
 62
     9
 10
0.0
 20
0.0
 30
0.0
 70
   128
 71
   123
 72
    81
 73
    83
  0
VERTEX
  5
7DA
  8
0
 62
     9
 10
0.0
 20
0.0
 30
0.0
 70
   128
 71
   105
 72
   114
 73
   107
  0
VERTEX
  5
7DB
  8
0
 62
     9
 10
0.0
 20
0.0
 30
0.0
 70
   128
 71
   113
 72
   105
 73
   124
  0
VERTEX
  5
7DC
  8
0
 62
     9
 10
0.0
 20
0.0
 30
0.0
 70
   128
 71
   108
 72
   105
 73
   106
  0
VERTEX
  5
7DD
  8
0
 62
     9
 10
0.0
 20
0.0
 30
0.0
 70
   128
 71
   108
 72
   109
 73
   103
  0
VERTEX
  5
7DE
  8
0
 62
     9
 10
0.0
 20
0.0
 30
0.0
 70
   128
 71
   125
 72
   124
 73
   105
  0
VERTEX
  5
7DF
  8
0
 62
     9
 10
0.0
 20
0.0
 30
0.0
 70
   128
 71
   126
 72
   103
 73
   104
  0
VERTEX
  5
7E0
  8
0
 62
     9
 10
0.0
 20
0.0
 30
0.0
 70
   128
 71
   102
 72
   121
 73
   123
  0
VERTEX
  5
7E1
  8
0
 62
     9
 10
0.0
 20
0.0
 30
0.0
 70
   128
 71
    83
 72
   102
 73
   123
  0
VERTEX
  5
7E2
  8
0
 62
     9
 10
0.0
 20
0.0
 30
0.0
 70
   128
 71
   102
 72
    83
 73
    84
  0
VERTEX
  5
7E3
  8
0
 62
     9
 10
0.0
 20
0.0
 30
0.0
 70
   128
 71
   126
 72
   127
 73
   108
  0
VERTEX
  5
7E4
  8
0
 62
     9
 10
0.0
 20
0.0
 30
0.0
 70
   128
 71
   121
 72
   103
 73
   109
  0
VERTEX
  5
7E5
  8
0
 62
     9
 10
0.0
 20
0.0
 30
0.0
 70
   128
 71
   108
 72
   103
 73
   126
  0
VERTEX
  5
7E6
  8
0
 62
     9
 10
0.0
 20
0.0
 30
0.0
 70
   128
 71
   108
 72
   127
 73
   125
  0
VERTEX
  5
7E7
  8
0
 62
     9
 10
0.0
 20
0.0
 30
0.0
 70
   128
 71
   105
 72
   108
 73
   125
  0
VERTEX
  5
7E8
  8
0
 62
     9
 10
0.0
 20
0.0
 30
0.0
 70
   128
 71
   128
 72
   113
 73
   124
  0
VERTEX
  5
7E9
  8
0
 62
     9
 10
0.0
 20
0.0
 30
0.0
 70
   128
 71
   129
 72
   113
 73
   128
  0
VERTEX
  5
7EA
  8
0
 62
     9
 10
0.0
 20
0.0
 30
0.0
 70
   128
 71
   130
 72
   110
 73
   129
  0
VERTEX
  5
7EB
  8
0
 62
     9
 10
0.0
 20
0.0
 30
0.0
 70
   128
 71
   110
 72
   113
 73
   129
  0
VERTEX
  5
7EC
  8
0
 62
     9
 10
0.0
 20
0.0
 30
0.0
 70
   128
 71
   119
 72
   116
 73
   130
  0
VERTEX
  5
7ED
  8
0
 62
     9
 10
0.0
 20
0.0
 30
0.0
 70
   128
 71
   116
 72
   110
 73
   130
  0
VERTEX
  5
7EE
  8
0
 62
     9
 10
0.0
 20
0.0
 30
0.0
 70
   128
 71
   120
 72
   118
 73
   119
  0
VERTEX
  5
7EF
  8
0
 62
     9
 10
0.0
 20
0.0
 30
0.0
 70
   128
 71
    95
 72
   118
 73
   120
  0
VERTEX
  5
7F0
  8
0
 62
     9
 10
0.0
 20
0.0
 30
0.0
 70
   128
 71
   118
 72
    95
 73
    96
  0
VERTEX
  5
7F1
  8
0
 62
     9
 10
0.0
 20
0.0
 30
0.0
 70
   128
 71
   132
 72
   109
 73
   131
  0
VERTEX
  5
7F2
  8
0
 62
     9
 10
0.0
 20
0.0
 30
0.0
 70
   128
 71
    59
 72
   123
 73
   133
  0
VERTEX
  5
7F3
  8
0
 62
     9
 10
0.0
 20
0.0
 30
0.0
 70
   128
 71
   121
 72
   132
 73
   133
  0
VERTEX
  5
7F4
  8
0
 62
     9
 10
0.0
 20
0.0
 30
0.0
 70
   128
 71
   123
 72
    59
 73
    81
  0
VERTEX
  5
7F5
  8
0
 62
     9
 10
0.0
 20
0.0
 30
0.0
 70
   128
 71
    60
 72
    73
 73
    57
  0
VERTEX
  5
7F6
  8
0
 62
     9
 10
0.0
 20
0.0
 30
0.0
 70
   128
 71
    59
 72
    58
 73
    78
  0
VERTEX
  5
7F7
  8
0
 62
     9
 10
0.0
 20
0.0
 30
0.0
 70
   128
 71
   135
 72
   134
 73
   111
  0
VERTEX
  5
7F8
  8
0
 62
     9
 10
0.0
 20
0.0
 30
0.0
 70
   128
 71
   136
 72
   122
 73
   134
  0
VERTEX
  5
7F9
  8
0
 62
     9
 10
0.0
 20
0.0
 30
0.0
 70
   128
 71
    61
 72
    72
 73
    60
  0
VERTEX
  5
7FA
  8
0
 62
     9
 10
0.0
 20
0.0
 30
0.0
 70
   128
 71
    62
 72
    63
 73
    88
  0
VERTEX
  5
7FB
  8
0
 62
     9
 10
0.0
 20
0.0
 30
0.0
 70
   128
 71
   137
 72
   135
 73
   112
  0
VERTEX
  5
7FC
  8
0
 62
     9
 10
0.0
 20
0.0
 30
0.0
 70
   128
 71
    91
 72
    63
 73
    64
  0
VERTEX
  5
7FD
  8
0
 62
     9
 10
0.0
 20
0.0
 30
0.0
 70
   128
 71
   137
 72
   117
 73
   138
  0
VERTEX
  5
7FE
  8
0
 62
     9
 10
0.0
 20
0.0
 30
0.0
 70
   128
 71
    66
 72
    94
 73
    65
  0
VERTEX
  5
7FF
  8
0
 62
     9
 10
0.0
 20
0.0
 30
0.0
 70
   128
 71
    65
 72
    93
 73
    64
  0
VERTEX
  5
800
  8
0
 62
     9
 10
0.0
 20
0.0
 30
0.0
 70
   128
 71
    77
 72
    75
 73
    56
  0
VERTEX
  5
801
  8
0
 62
     9
 10
0.0
 20
0.0
 30
0.0
 70
   128
 71
   106
 72
   139
 73
   131
  0
VERTEX
  5
802
  8
0
 62
     9
 10
0.0
 20
0.0
 30
0.0
 70
   128
 71
    56
 72
    57
 73
    77
  0
VERTEX
  5
803
  8
0
 62
     9
 10
0.0
 20
0.0
 30
0.0
 70
   128
 71
   123
 72
   121
 73
   133
  0
VERTEX
  5
804
  8
0
 62
     9
 10
0.0
 20
0.0
 30
0.0
 70
   128
 71
   121
 72
   109
 73
   132
  0
VERTEX
  5
805
  8
0
 62
     9
 10
0.0
 20
0.0
 30
0.0
 70
   128
 71
   109
 72
   106
 73
   131
  0
VERTEX
  5
806
  8
0
 62
     9
 10
0.0
 20
0.0
 30
0.0
 70
   128
 71
   139
 72
   107
 73
   136
  0
VERTEX
  5
807
  8
0
 62
     9
 10
0.0
 20
0.0
 30
0.0
 70
   128
 71
   106
 72
   107
 73
   139
  0
VERTEX
  5
808
  8
0
 62
     9
 10
0.0
 20
0.0
 30
0.0
 70
   128
 71
   114
 72
   122
 73
   136
  0
VERTEX
  5
809
  8
0
 62
     9
 10
0.0
 20
0.0
 30
0.0
 70
   128
 71
   107
 72
   114
 73
   136
  0
VERTEX
  5
80A
  8
0
 62
     9
 10
0.0
 20
0.0
 30
0.0
 70
   128
 71
   122
 72
   111
 73
   134
  0
VERTEX
  5
80B
  8
0
 62
     9
 10
0.0
 20
0.0
 30
0.0
 70
   128
 71
   111
 72
   112
 73
   135
  0
VERTEX
  5
80C
  8
0
 62
     9
 10
0.0
 20
0.0
 30
0.0
 70
   128
 71
   112
 72
   117
 73
   137
  0
VERTEX
  5
80D
  8
0
 62
     9
 10
0.0
 20
0.0
 30
0.0
 70
   128
 71
   138
 72
   115
 73
    66
  0
VERTEX
  5
80E
  8
0
 62
     9
 10
0.0
 20
0.0
 30
0.0
 70
   128
 71
   117
 72
   115
 73
   138
  0
VERTEX
  5
80F
  8
0
 62
     9
 10
0.0
 20
0.0
 30
0.0
 70
   128
 71
    96
 72
    94
 73
    66
  0
VERTEX
  5
810
  8
0
 62
     9
 10
0.0
 20
0.0
 30
0.0
 70
   128
 71
   115
 72
    96
 73
    66
  0
VERTEX
  5
811
  8
0
 62
     9
 10
0.0
 20
0.0
 30
0.0
 70
   128
 71
    94
 72
    93
 73
    65
  0
VERTEX
  5
812
  8
0
 62
     9
 10
0.0
 20
0.0
 30
0.0
 70
   128
 71
    93
 72
    91
 73
    64
  0
VERTEX
  5
813
  8
0
 62
     9
 10
0.0
 20
0.0
 30
0.0
 70
   128
 71
    91
 72
    88
 73
    63
  0
VERTEX
  5
814
  8
0
 62
     9
 10
0.0
 20
0.0
 30
0.0
 70
   128
 71
    62
 72
    86
 73
    61
  0
VERTEX
  5
815
  8
0
 62
     9
 10
0.0
 20
0.0
 30
0.0
 70
   128
 71
    88
 72
    86
 73
    62
  0
VERTEX
  5
816
  8
0
 62
     9
 10
0.0
 20
0.0
 30
0.0
 70
   128
 71
    71
 72
    72
 73
    61
  0
VERTEX
  5
817
  8
0
 62
     9
 10
0.0
 20
0.0
 30
0.0
 70
   128
 71
    86
 72
    71
 73
    61
  0
VERTEX
  5
818
  8
0
 62
     9
 10
0.0
 20
0.0
 30
0.0
 70
   128
 71
    72
 72
    73
 73
    60
  0
VERTEX
  5
819
  8
0
 62
     9
 10
0.0
 20
0.0
 30
0.0
 70
   128
 71
    73
 72
    77
 73
    57
  0
VERTEX
  5
81A
  8
0
 62
     9
 10
0.0
 20
0.0
 30
0.0
 70
   128
 71
    75
 72
    58
 73
    56
  0
VERTEX
  5
81B
  8
0
 62
     9
 10
0.0
 20
0.0
 30
0.0
 70
   128
 71
    78
 72
    81
 73
    59
  0
VERTEX
  5
81C
  8
0
 62
     9
 10
0.0
 20
0.0
 30
0.0
 70
   128
 71
    75
 72
    78
 73
    58
  0
VERTEX
  5
81D
  8
0
 62
     9
 10
0.0
 20
0.0
 30
0.0
 70
   128
 71
   133
 72
   141
 73
   140
  0
VERTEX
  5
81E
  8
0
 62
     9
 10
0.0
 20
0.0
 30
0.0
 70
   128
 71
   143
 72
   131
 73
   142
  0
VERTEX
  5
81F
  8
0
 62
     9
 10
0.0
 20
0.0
 30
0.0
 70
   128
 71
   144
 72
   134
 73
   135
  0
VERTEX
  5
820
  8
0
 62
     9
 10
0.0
 20
0.0
 30
0.0
 70
   128
 71
   136
 72
   146
 73
   145
  0
VERTEX
  5
821
  8
0
 62
     9
 10
0.0
 20
0.0
 30
0.0
 70
   128
 71
   148
 72
   138
 73
   147
  0
VERTEX
  5
822
  8
0
 62
     9
 10
0.0
 20
0.0
 30
0.0
 70
   128
 71
   137
 72
   150
 73
   149
  0
VERTEX
  5
823
  8
0
 62
     9
 10
0.0
 20
0.0
 30
0.0
 70
   128
 71
   138
 72
   152
 73
   151
  0
VERTEX
  5
824
  8
0
 62
     9
 10
0.0
 20
0.0
 30
0.0
 70
   128
 71
   147
 72
   138
 73
   151
  0
VERTEX
  5
825
  8
0
 62
     9
 10
0.0
 20
0.0
 30
0.0
 70
   128
 71
   152
 72
    66
 73
    27
  0
VERTEX
  5
826
  8
0
 62
     9
 10
0.0
 20
0.0
 30
0.0
 70
   128
 71
    66
 72
   152
 73
   138
  0
VERTEX
  5
827
  8
0
 62
     9
 10
0.0
 20
0.0
 30
0.0
 70
   128
 71
   144
 72
   153
 73
   134
  0
VERTEX
  5
828
  8
0
 62
     9
 10
0.0
 20
0.0
 30
0.0
 70
   128
 71
   137
 72
   148
 73
   150
  0
VERTEX
  5
829
  8
0
 62
     9
 10
0.0
 20
0.0
 30
0.0
 70
   128
 71
   148
 72
   137
 73
   138
  0
VERTEX
  5
82A
  8
0
 62
     9
 10
0.0
 20
0.0
 30
0.0
 70
   128
 71
   149
 72
   135
 73
   137
  0
VERTEX
  5
82B
  8
0
 62
     9
 10
0.0
 20
0.0
 30
0.0
 70
   128
 71
   149
 72
   154
 73
   135
  0
VERTEX
  5
82C
  8
0
 62
     9
 10
0.0
 20
0.0
 30
0.0
 70
   128
 71
   155
 72
   144
 73
   135
  0
VERTEX
  5
82D
  8
0
 62
     9
 10
0.0
 20
0.0
 30
0.0
 70
   128
 71
   154
 72
   155
 73
   135
  0
VERTEX
  5
82E
  8
0
 62
     9
 10
0.0
 20
0.0
 30
0.0
 70
   128
 71
   153
 72
   156
 73
   134
  0
VERTEX
  5
82F
  8
0
 62
     9
 10
0.0
 20
0.0
 30
0.0
 70
   128
 71
   136
 72
   134
 73
   157
  0
VERTEX
  5
830
  8
0
 62
     9
 10
0.0
 20
0.0
 30
0.0
 70
   128
 71
   156
 72
   157
 73
   134
  0
VERTEX
  5
831
  8
0
 62
     9
 10
0.0
 20
0.0
 30
0.0
 70
   128
 71
   136
 72
   157
 73
   146
  0
VERTEX
  5
832
  8
0
 62
     9
 10
0.0
 20
0.0
 30
0.0
 70
   128
 71
   140
 72
    55
 73
    59
  0
VERTEX
  5
833
  8
0
 62
     9
 10
0.0
 20
0.0
 30
0.0
 70
   128
 71
   139
 72
   145
 73
   158
  0
VERTEX
  5
834
  8
0
 62
     9
 10
0.0
 20
0.0
 30
0.0
 70
   128
 71
   136
 72
   145
 73
   139
  0
VERTEX
  5
835
  8
0
 62
     9
 10
0.0
 20
0.0
 30
0.0
 70
   128
 71
   160
 72
   159
 73
   132
  0
VERTEX
  5
836
  8
0
 62
     9
 10
0.0
 20
0.0
 30
0.0
 70
   128
 71
   162
 72
   139
 73
   161
  0
VERTEX
  5
837
  8
0
 62
     9
 10
0.0
 20
0.0
 30
0.0
 70
   128
 71
   139
 72
   158
 73
   161
  0
VERTEX
  5
838
  8
0
 62
     9
 10
0.0
 20
0.0
 30
0.0
 70
   128
 71
   131
 72
   139
 73
   162
  0
VERTEX
  5
839
  8
0
 62
     9
 10
0.0
 20
0.0
 30
0.0
 70
   128
 71
   143
 72
   163
 73
   131
  0
VERTEX
  5
83A
  8
0
 62
     9
 10
0.0
 20
0.0
 30
0.0
 70
   128
 71
   142
 72
   131
 73
   162
  0
VERTEX
  5
83B
  8
0
 62
     9
 10
0.0
 20
0.0
 30
0.0
 70
   128
 71
   160
 72
   132
 73
   163
  0
VERTEX
  5
83C
  8
0
 62
     9
 10
0.0
 20
0.0
 30
0.0
 70
   128
 71
   132
 72
   131
 73
   163
  0
VERTEX
  5
83D
  8
0
 62
     9
 10
0.0
 20
0.0
 30
0.0
 70
   128
 71
   133
 72
   159
 73
   164
  0
VERTEX
  5
83E
  8
0
 62
     9
 10
0.0
 20
0.0
 30
0.0
 70
   128
 71
   159
 72
   133
 73
   132
  0
VERTEX
  5
83F
  8
0
 62
     9
 10
0.0
 20
0.0
 30
0.0
 70
   128
 71
    59
 72
   133
 73
   140
  0
VERTEX
  5
840
  8
0
 62
     9
 10
0.0
 20
0.0
 30
0.0
 70
   128
 71
   164
 72
   141
 73
   133
  0
VERTEX
  5
841
  8
0
 62
     9
 10
0.0
 20
0.0
 30
0.0
 70
   128
 71
    28
 72
   165
 73
   152
  0
VERTEX
  5
842
  8
0
 62
     9
 10
0.0
 20
0.0
 30
0.0
 70
   128
 71
   147
 72
   151
 73
   166
  0
VERTEX
  5
843
  8
0
 62
     9
 10
0.0
 20
0.0
 30
0.0
 70
   128
 71
   168
 72
   149
 73
   167
  0
VERTEX
  5
844
  8
0
 62
     9
 10
0.0
 20
0.0
 30
0.0
 70
   128
 71
   148
 72
   170
 73
   169
  0
VERTEX
  5
845
  8
0
 62
     9
 10
0.0
 20
0.0
 30
0.0
 70
   128
 71
   144
 72
   171
 73
   153
  0
VERTEX
  5
846
  8
0
 62
     9
 10
0.0
 20
0.0
 30
0.0
 70
   128
 71
   154
 72
   172
 73
   155
  0
VERTEX
  5
847
  8
0
 62
     9
 10
0.0
 20
0.0
 30
0.0
 70
   128
 71
   174
 72
   146
 73
   173
  0
VERTEX
  5
848
  8
0
 62
     9
 10
0.0
 20
0.0
 30
0.0
 70
   128
 71
   176
 72
   156
 73
   175
  0
VERTEX
  5
849
  8
0
 62
     9
 10
0.0
 20
0.0
 30
0.0
 70
   128
 71
   161
 72
   158
 73
   177
  0
VERTEX
  5
84A
  8
0
 62
     9
 10
0.0
 20
0.0
 30
0.0
 70
   128
 71
   145
 72
   174
 73
   178
  0
VERTEX
  5
84B
  8
0
 62
     9
 10
0.0
 20
0.0
 30
0.0
 70
   128
 71
   142
 72
   180
 73
   179
  0
VERTEX
  5
84C
  8
0
 62
     9
 10
0.0
 20
0.0
 30
0.0
 70
   128
 71
   181
 72
   180
 73
   162
  0
VERTEX
  5
84D
  8
0
 62
     9
 10
0.0
 20
0.0
 30
0.0
 70
   128
 71
   163
 72
   183
 73
   182
  0
VERTEX
  5
84E
  8
0
 62
     9
 10
0.0
 20
0.0
 30
0.0
 70
   128
 71
   179
 72
   183
 73
   143
  0
VERTEX
  5
84F
  8
0
 62
     9
 10
0.0
 20
0.0
 30
0.0
 70
   128
 71
   184
 72
   160
 73
   182
  0
VERTEX
  5
850
  8
0
 62
     9
 10
0.0
 20
0.0
 30
0.0
 70
   128
 71
   163
 72
   182
 73
   160
  0
VERTEX
  5
851
  8
0
 62
     9
 10
0.0
 20
0.0
 30
0.0
 70
   128
 71
   184
 72
   185
 73
   159
  0
VERTEX
  5
852
  8
0
 62
     9
 10
0.0
 20
0.0
 30
0.0
 70
   128
 71
   159
 72
   160
 73
   184
  0
VERTEX
  5
853
  8
0
 62
     9
 10
0.0
 20
0.0
 30
0.0
 70
   128
 71
   164
 72
   185
 73
   186
  0
VERTEX
  5
854
  8
0
 62
     9
 10
0.0
 20
0.0
 30
0.0
 70
   128
 71
   185
 72
   164
 73
   159
  0
VERTEX
  5
855
  8
0
 62
     9
 10
0.0
 20
0.0
 30
0.0
 70
   128
 71
   187
 72
   141
 73
   186
  0
VERTEX
  5
856
  8
0
 62
     9
 10
0.0
 20
0.0
 30
0.0
 70
   128
 71
   164
 72
   186
 73
   141
  0
VERTEX
  5
857
  8
0
 62
     9
 10
0.0
 20
0.0
 30
0.0
 70
   128
 71
   187
 72
   188
 73
   140
  0
VERTEX
  5
858
  8
0
 62
     9
 10
0.0
 20
0.0
 30
0.0
 70
   128
 71
   140
 72
   141
 73
   187
  0
VERTEX
  5
859
  8
0
 62
     9
 10
0.0
 20
0.0
 30
0.0
 70
   128
 71
    55
 72
   188
 73
    53
  0
VERTEX
  5
85A
  8
0
 62
     9
 10
0.0
 20
0.0
 30
0.0
 70
   128
 71
   188
 72
    55
 73
   140
  0
VERTEX
  5
85B
  8
0
 62
     9
 10
0.0
 20
0.0
 30
0.0
 70
   128
 71
   163
 72
   143
 73
   183
  0
VERTEX
  5
85C
  8
0
 62
     9
 10
0.0
 20
0.0
 30
0.0
 70
   128
 71
   162
 72
   180
 73
   142
  0
VERTEX
  5
85D
  8
0
 62
     9
 10
0.0
 20
0.0
 30
0.0
 70
   128
 71
   179
 72
   143
 73
   142
  0
VERTEX
  5
85E
  8
0
 62
     9
 10
0.0
 20
0.0
 30
0.0
 70
   128
 71
   161
 72
   181
 73
   162
  0
VERTEX
  5
85F
  8
0
 62
     9
 10
0.0
 20
0.0
 30
0.0
 70
   128
 71
   181
 72
   161
 73
   177
  0
VERTEX
  5
860
  8
0
 62
     9
 10
0.0
 20
0.0
 30
0.0
 70
   128
 71
   146
 72
   174
 73
   145
  0
VERTEX
  5
861
  8
0
 62
     9
 10
0.0
 20
0.0
 30
0.0
 70
   128
 71
   178
 72
   158
 73
   145
  0
VERTEX
  5
862
  8
0
 62
     9
 10
0.0
 20
0.0
 30
0.0
 70
   128
 71
   177
 72
   158
 73
   178
  0
VERTEX
  5
863
  8
0
 62
     9
 10
0.0
 20
0.0
 30
0.0
 70
   128
 71
   148
 72
   169
 73
   150
  0
VERTEX
  5
864
  8
0
 62
     9
 10
0.0
 20
0.0
 30
0.0
 70
   128
 71
   176
 72
   173
 73
   157
  0
VERTEX
  5
865
  8
0
 62
     9
 10
0.0
 20
0.0
 30
0.0
 70
   128
 71
   173
 72
   146
 73
   157
  0
VERTEX
  5
866
  8
0
 62
     9
 10
0.0
 20
0.0
 30
0.0
 70
   128
 71
   171
 72
   144
 73
   189
  0
VERTEX
  5
867
  8
0
 62
     9
 10
0.0
 20
0.0
 30
0.0
 70
   128
 71
   153
 72
   175
 73
   156
  0
VERTEX
  5
868
  8
0
 62
     9
 10
0.0
 20
0.0
 30
0.0
 70
   128
 71
   156
 72
   176
 73
   157
  0
VERTEX
  5
869
  8
0
 62
     9
 10
0.0
 20
0.0
 30
0.0
 70
   128
 71
   153
 72
   171
 73
   175
  0
VERTEX
  5
86A
  8
0
 62
     9
 10
0.0
 20
0.0
 30
0.0
 70
   128
 71
   144
 72
   155
 73
   189
  0
VERTEX
  5
86B
  8
0
 62
     9
 10
0.0
 20
0.0
 30
0.0
 70
   128
 71
   189
 72
   155
 73
   172
  0
VERTEX
  5
86C
  8
0
 62
     9
 10
0.0
 20
0.0
 30
0.0
 70
   128
 71
    27
 72
    28
 73
   152
  0
VERTEX
  5
86D
  8
0
 62
     9
 10
0.0
 20
0.0
 30
0.0
 70
   128
 71
   168
 72
   154
 73
   149
  0
VERTEX
  5
86E
  8
0
 62
     9
 10
0.0
 20
0.0
 30
0.0
 70
   128
 71
   172
 72
   154
 73
   168
  0
VERTEX
  5
86F
  8
0
 62
     9
 10
0.0
 20
0.0
 30
0.0
 70
   128
 71
   169
 72
   167
 73
   150
  0
VERTEX
  5
870
  8
0
 62
     9
 10
0.0
 20
0.0
 30
0.0
 70
   128
 71
   167
 72
   149
 73
   150
  0
VERTEX
  5
871
  8
0
 62
     9
 10
0.0
 20
0.0
 30
0.0
 70
   128
 71
   170
 72
   148
 73
   147
  0
VERTEX
  5
872
  8
0
 62
     9
 10
0.0
 20
0.0
 30
0.0
 70
   128
 71
   147
 72
   166
 73
   170
  0
VERTEX
  5
873
  8
0
 62
     9
 10
0.0
 20
0.0
 30
0.0
 70
   128
 71
   151
 72
   152
 73
   165
  0
VERTEX
  5
874
  8
0
 62
     9
 10
0.0
 20
0.0
 30
0.0
 70
   128
 71
   151
 72
   165
 73
   166
  0
VERTEX
  5
875
  8
0
 62
     9
 10
0.0
 20
0.0
 30
0.0
 70
   128
 71
     1
 72
   190
 73
    10
  0
VERTEX
  5
876
  8
0
 62
     9
 10
0.0
 20
0.0
 30
0.0
 70
   128
 71
   190
 72
   179
 73
   180
  0
VERTEX
  5
877
  8
0
 62
     9
 10
0.0
 20
0.0
 30
0.0
 70
   128
 71
    20
 72
   190
 73
     2
  0
VERTEX
  5
878
  8
0
 62
     9
 10
0.0
 20
0.0
 30
0.0
 70
   128
 71
     2
 72
   190
 73
     1
  0
VERTEX
  5
879
  8
0
 62
     9
 10
0.0
 20
0.0
 30
0.0
 70
   128
 71
    33
 72
   190
 73
    32
  0
VERTEX
  5
87A
  8
0
 62
     9
 10
0.0
 20
0.0
 30
0.0
 70
   128
 71
   190
 72
    20
 73
    29
  0
VERTEX
  5
87B
  8
0
 62
     9
 10
0.0
 20
0.0
 30
0.0
 70
   128
 71
    35
 72
   190
 73
    33
  0
VERTEX
  5
87C
  8
0
 62
     9
 10
0.0
 20
0.0
 30
0.0
 70
   128
 71
    39
 72
    41
 73
   190
  0
VERTEX
  5
87D
  8
0
 62
     9
 10
0.0
 20
0.0
 30
0.0
 70
   128
 71
    47
 72
    50
 73
   190
  0
VERTEX
  5
87E
  8
0
 62
     9
 10
0.0
 20
0.0
 30
0.0
 70
   128
 71
    38
 72
   190
 73
    35
  0
VERTEX
  5
87F
  8
0
 62
     9
 10
0.0
 20
0.0
 30
0.0
 70
   128
 71
    38
 72
    39
 73
   190
  0
VERTEX
  5
880
  8
0
 62
     9
 10
0.0
 20
0.0
 30
0.0
 70
   128
 71
    45
 72
    47
 73
   190
  0
VERTEX
  5
881
  8
0
 62
     9
 10
0.0
 20
0.0
 30
0.0
 70
   128
 71
    44
 72
    45
 73
   190
  0
VERTEX
  5
882
  8
0
 62
     9
 10
0.0
 20
0.0
 30
0.0
 70
   128
 71
    50
 72
    51
 73
   190
  0
VERTEX
  5
883
  8
0
 62
     9
 10
0.0
 20
0.0
 30
0.0
 70
   128
 71
   190
 72
    41
 73
    44
  0
VERTEX
  5
884
  8
0
 62
     9
 10
0.0
 20
0.0
 30
0.0
 70
   128
 71
    53
 72
   190
 73
    51
  0
VERTEX
  5
885
  8
0
 62
     9
 10
0.0
 20
0.0
 30
0.0
 70
   128
 71
   190
 72
    29
 73
    32
  0
VERTEX
  5
886
  8
0
 62
     9
 10
0.0
 20
0.0
 30
0.0
 70
   128
 71
   190
 72
   188
 73
   187
  0
VERTEX
  5
887
  8
0
 62
     9
 10
0.0
 20
0.0
 30
0.0
 70
   128
 71
   190
 72
    53
 73
   188
  0
VERTEX
  5
888
  8
0
 62
     9
 10
0.0
 20
0.0
 30
0.0
 70
   128
 71
   187
 72
   186
 73
   190
  0
VERTEX
  5
889
  8
0
 62
     9
 10
0.0
 20
0.0
 30
0.0
 70
   128
 71
   184
 72
   190
 73
   185
  0
VERTEX
  5
88A
  8
0
 62
     9
 10
0.0
 20
0.0
 30
0.0
 70
   128
 71
   190
 72
   186
 73
   185
  0
VERTEX
  5
88B
  8
0
 62
     9
 10
0.0
 20
0.0
 30
0.0
 70
   128
 71
   190
 72
   184
 73
   182
  0
VERTEX
  5
88C
  8
0
 62
     9
 10
0.0
 20
0.0
 30
0.0
 70
   128
 71
    11
 72
    10
 73
   190
  0
VERTEX
  5
88D
  8
0
 62
     9
 10
0.0
 20
0.0
 30
0.0
 70
   128
 71
   190
 72
     5
 73
    11
  0
VERTEX
  5
88E
  8
0
 62
     9
 10
0.0
 20
0.0
 30
0.0
 70
   128
 71
   190
 72
   183
 73
   179
  0
VERTEX
  5
88F
  8
0
 62
     9
 10
0.0
 20
0.0
 30
0.0
 70
   128
 71
    12
 72
     5
 73
   190
  0
VERTEX
  5
890
  8
0
 62
     9
 10
0.0
 20
0.0
 30
0.0
 70
   128
 71
    16
 72
    14
 73
   190
  0
VERTEX
  5
891
  8
0
 62
     9
 10
0.0
 20
0.0
 30
0.0
 70
   128
 71
    16
 72
   190
 73
    19
  0
VERTEX
  5
892
  8
0
 62
     9
 10
0.0
 20
0.0
 30
0.0
 70
   128
 71
   190
 72
   180
 73
   181
  0
VERTEX
  5
893
  8
0
 62
     9
 10
0.0
 20
0.0
 30
0.0
 70
   128
 71
    21
 72
    19
 73
   190
  0
VERTEX
  5
894
  8
0
 62
     9
 10
0.0
 20
0.0
 30
0.0
 70
   128
 71
   177
 72
   190
 73
   181
  0
VERTEX
  5
895
  8
0
 62
     9
 10
0.0
 20
0.0
 30
0.0
 70
   128
 71
   190
 72
    23
 73
    21
  0
VERTEX
  5
896
  8
0
 62
     9
 10
0.0
 20
0.0
 30
0.0
 70
   128
 71
   177
 72
   178
 73
   190
  0
VERTEX
  5
897
  8
0
 62
     9
 10
0.0
 20
0.0
 30
0.0
 70
   128
 71
    23
 72
   190
 73
    25
  0
VERTEX
  5
898
  8
0
 62
     9
 10
0.0
 20
0.0
 30
0.0
 70
   128
 71
   190
 72
   178
 73
   174
  0
VERTEX
  5
899
  8
0
 62
     9
 10
0.0
 20
0.0
 30
0.0
 70
   128
 71
    28
 72
    25
 73
   190
  0
VERTEX
  5
89A
  8
0
 62
     9
 10
0.0
 20
0.0
 30
0.0
 70
   128
 71
   190
 72
   174
 73
   173
  0
VERTEX
  5
89B
  8
0
 62
     9
 10
0.0
 20
0.0
 30
0.0
 70
   128
 71
   165
 72
   190
 73
   166
  0
VERTEX
  5
89C
  8
0
 62
     9
 10
0.0
 20
0.0
 30
0.0
 70
   128
 71
   170
 72
   166
 73
   190
  0
VERTEX
  5
89D
  8
0
 62
     9
 10
0.0
 20
0.0
 30
0.0
 70
   128
 71
   171
 72
   190
 73
   175
  0
VERTEX
  5
89E
  8
0
 62
     9
 10
0.0
 20
0.0
 30
0.0
 70
   128
 71
   189
 72
   172
 73
   190
  0
VERTEX
  5
89F
  8
0
 62
     9
 10
0.0
 20
0.0
 30
0.0
 70
   128
 71
   168
 72
   190
 73
   172
  0
VERTEX
  5
8A0
  8
0
 62
     9
 10
0.0
 20
0.0
 30
0.0
 70
   128
 71
   168
 72
   167
 73
   190
  0
VERTEX
  5
8A1
  8
0
 62
     9
 10
0.0
 20
0.0
 30
0.0
 70
   128
 71
   171
 72
   189
 73
   190
  0
VERTEX
  5
8A2
  8
0
 62
     9
 10
0.0
 20
0.0
 30
0.0
 70
   128
 71
   167
 72
   169
 73
   190
  0
VERTEX
  5
8A3
  8
0
 62
     9
 10
0.0
 20
0.0
 30
0.0
 70
   128
 71
   170
 72
   190
 73
   169
  0
VERTEX
  5
8A4
  8
0
 62
     9
 10
0.0
 20
0.0
 30
0.0
 70
   128
 71
   190
 72
   173
 73
   176
  0
VERTEX
  5
8A5
  8
0
 62
     9
 10
0.0
 20
0.0
 30
0.0
 70
   128
 71
   176
 72
   175
 73
   190
  0
VERTEX
  5
8A6
  8
0
 62
     9
 10
0.0
 20
0.0
 30
0.0
 70
   128
 71
    28
 72
   190
 73
   165
  0
VERTEX
  5
8A7
  8
0
 62
     9
 10
0.0
 20
0.0
 30
0.0
 70
   128
 71
   190
 72
    14
 73
    12
  0
VERTEX
  5
8A8
  8
0
 62
     9
 10
0.0
 20
0.0
 30
0.0
 70
   128
 71
   183
 72
   190
 73
   182
  0
SEQEND
  5
8A9
  8
0
 62
     9
  0
ENDBLK
  5
8AC
  8
0
  0
BLOCK
  8
0
  2
41
 70
     0
 10
0.0
 20
0.0
 30
0.0
  3
41
  1

  0
POLYLINE
  5
8AE
  8
0
 62
     9
 66
     1
 10
0.0
 20
0.0
 30
0.0
 70
    64
 71
    80
 72
   120
  0
VERTEX
  5
8AF
  8
0
 10
229.2936401367188
 20
-13.61601734161377
 30
113.4771881103516
 70
   192
  0
VERTEX
  5
8B0
  8
0
 10
234.0317230224609
 20
-10.41645622253418
 30
114.1009750366211
 70
   192
  0
VERTEX
  5
8B1
  8
0
 10
228.3647155761719
 20
-11.08615493774414
 30
112.4471282958984
 70
   192
  0
VERTEX
  5
8B2
  8
0
 10
223.8118133544922
 20
-11.99960041046143
 30
111.8477249145508
 70
   192
  0
VERTEX
  5
8B3
  8
0
 10
223.6943359375
 20
-14.74960041046143
 30
112.7400283813477
 70
   192
  0
VERTEX
  5
8B4
  8
0
 10
237.19873046875
 20
-5.636128902435303
 30
114.5179138183594
 70
   192
  0
VERTEX
  5
8B5
  8
0
 10
232.2245025634766
 20
-8.484881401062012
 30
112.9552764892578
 70
   192
  0
VERTEX
  5
8B6
  8
0
 10
234.8035125732422
 20
-4.591801643371582
 30
113.2948150634766
 70
   192
  0
VERTEX
  5
8B7
  8
0
 10
235.7091522216797
 20
0.000399565207772
 30
113.4140396118164
 70
   192
  0
VERTEX
  5
8B8
  8
0
 10
238.3181457519531
 20
0.000399565207772
 30
114.6652908325195
 70
   192
  0
VERTEX
  5
8B9
  8
0
 10
218.0961303710938
 20
-13.62992000579834
 30
112.0030136108398
 70
   192
  0
VERTEX
  5
8BA
  8
0
 10
219.2588958740234
 20
-11.08615493774414
 30
111.2483291625977
 70
   192
  0
VERTEX
  5
8BB
  8
0
 10
215.3991241455078
 20
-8.484881401062012
 30
110.7401733398438
 70
   192
  0
VERTEX
  5
8BC
  8
0
 10
213.345458984375
 20
-10.43198871612549
 30
111.377571105957
 70
   192
  0
VERTEX
  5
8BD
  8
0
 10
212.8200988769531
 20
-4.591801643371582
 30
110.4006423950195
 70
   192
  0
VERTEX
  5
8BE
  8
0
 10
210.1752624511719
 20
-5.644124031066895
 30
110.9602127075195
 70
   192
  0
VERTEX
  5
8BF
  8
0
 10
211.9144744873047
 20
0.000399565207772
 30
110.2814178466797
 70
   192
  0
VERTEX
  5
8C0
  8
0
 10
209.0705261230469
 20
0.000399565207772
 30
110.8147659301758
 70
   192
  0
VERTEX
  5
8C1
  8
0
 10
221.331787109375
 20
-10.03890895843506
 30
110.0082855224609
 70
   192
  0
VERTEX
  5
8C2
  8
0
 10
223.8031158447266
 20
-10.39836406707764
 30
111.8465805053711
 70
   192
  0
VERTEX
  5
8C3
  8
0
 10
224.0075988769531
 20
-10.3996000289917
 30
110.3605575561523
 70
   192
  0
VERTEX
  5
8C4
  8
0
 10
221.1392364501953
 20
-10.04378128051758
 30
111.4958801269531
 70
   192
  0
VERTEX
  5
8C5
  8
0
 10
218.8484497070312
 20
-8.994627952575684
 30
109.6813430786133
 70
   192
  0
VERTEX
  5
8C6
  8
0
 10
216.7188568115234
 20
-7.344366550445557
 30
109.4009780883789
 70
   192
  0
VERTEX
  5
8C7
  8
0
 10
218.6546325683594
 20
-9.00574016571045
 30
111.1687698364258
 70
   192
  0
VERTEX
  5
8C8
  8
0
 10
215.0798492431641
 20
-5.188299179077148
 30
109.1852035522461
 70
   192
  0
VERTEX
  5
8C9
  8
0
 10
216.5168151855469
 20
-7.347992897033691
 30
110.887321472168
 70
   192
  0
VERTEX
  5
8CA
  8
0
 10
214.8801422119141
 20
-5.195220947265625
 30
110.6718521118164
 70
   192
  0
VERTEX
  5
8CB
  8
0
 10
214.0516662597656
 20
-2.683150291442871
 30
109.0498352050781
 70
   192
  0
VERTEX
  5
8CC
  8
0
 10
213.6965637207031
 20
0.000399565207772
 30
109.0030899047852
 70
   192
  0
VERTEX
  5
8CD
  8
0
 10
213.8516082763672
 20
-2.689921140670776
 30
110.5364456176758
 70
   192
  0
VERTEX
  5
8CE
  8
0
 10
213.5007781982422
 20
0.000399565207772
 30
110.4902572631836
 70
   192
  0
VERTEX
  5
8CF
  8
0
 10
226.4788970947266
 20
-10.04596519470215
 30
112.198860168457
 70
   192
  0
VERTEX
  5
8D0
  8
0
 10
228.9629974365234
 20
-9.008240699768066
 30
112.5258941650391
 70
   192
  0
VERTEX
  5
8D1
  8
0
 10
226.6724090576172
 20
-10.04557323455811
 30
110.7113876342773
 70
   192
  0
VERTEX
  5
8D2
  8
0
 10
231.0980682373047
 20
-7.357263088226318
 30
112.8069839477539
 70
   192
  0
VERTEX
  5
8D3
  8
0
 10
229.1619567871094
 20
-9.0114164352417
 30
111.0391464233398
 70
   192
  0
VERTEX
  5
8D4
  8
0
 10
231.3044281005859
 20
-7.355318069458008
 30
111.3212051391602
 70
   192
  0
VERTEX
  5
8D5
  8
0
 10
232.7394714355469
 20
-5.202822685241699
 30
113.023078918457
 70
   192
  0
VERTEX
  5
8D6
  8
0
 10
233.7694091796875
 20
-2.697284460067749
 30
113.1586685180664
 70
   192
  0
VERTEX
  5
8D7
  8
0
 10
232.9410095214844
 20
-5.202935695648193
 30
111.5366668701172
 70
   192
  0
VERTEX
  5
8D8
  8
0
 10
234.1228332519531
 20
0.000399565207772
 30
113.2052001953125
 70
   192
  0
VERTEX
  5
8D9
  8
0
 10
233.9715423583984
 20
-2.695663928985596
 30
111.6723403930664
 70
   192
  0
VERTEX
  5
8DA
  8
0
 10
234.3186187744141
 20
0.000399565207772
 30
111.7180328369141
 70
   192
  0
VERTEX
  5
8DB
  8
0
 10
214.0436553955078
 20
2.696463108062744
 30
109.0487823486328
 70
   192
  0
VERTEX
  5
8DC
  8
0
 10
213.8542175292969
 20
2.698083639144897
 30
110.5367889404297
 70
   192
  0
VERTEX
  5
8DD
  8
0
 10
221.3427886962891
 20
10.04637241363525
 30
110.0097351074219
 70
   192
  0
VERTEX
  5
8DE
  8
0
 10
218.6606140136719
 20
9.009039878845215
 30
111.169563293457
 70
   192
  0
VERTEX
  5
8DF
  8
0
 10
218.8532409667969
 20
9.012215614318848
 30
109.6819763183594
 70
   192
  0
VERTEX
  5
8E0
  8
0
 10
214.8841400146484
 20
5.203621864318848
 30
110.6723785400391
 70
   192
  0
VERTEX
  5
8E1
  8
0
 10
215.0741882324219
 20
5.203734874725342
 30
109.184455871582
 70
   192
  0
VERTEX
  5
8E2
  8
0
 10
216.7107543945312
 20
7.356117248535156
 30
109.3999176025391
 70
   192
  0
VERTEX
  5
8E3
  8
0
 10
226.6834106445312
 20
10.03970813751221
 30
110.7128372192383
 70
   192
  0
VERTEX
  5
8E4
  8
0
 10
229.166748046875
 20
8.995427131652832
 30
111.0397796630859
 70
   192
  0
VERTEX
  5
8E5
  8
0
 10
226.484375
 20
10.04458045959473
 30
112.199577331543
 70
   192
  0
VERTEX
  5
8E6
  8
0
 10
221.1447143554688
 20
10.0467643737793
 30
111.4965972900391
 70
   192
  0
VERTEX
  5
8E7
  8
0
 10
224.0075988769531
 20
10.40039920806885
 30
110.3605575561523
 70
   192
  0
VERTEX
  5
8E8
  8
0
 10
223.8204956054688
 20
10.39916324615479
 30
111.848876953125
 70
   192
  0
VERTEX
  5
8E9
  8
0
 10
231.2963256835938
 20
7.345165729522705
 30
111.3201446533203
 70
   192
  0
VERTEX
  5
8EA
  8
0
 10
232.9353485107422
 20
5.189098358154297
 30
111.5359191894531
 70
   192
  0
VERTEX
  5
8EB
  8
0
 10
231.1067962646484
 20
7.34879207611084
 30
112.8081359863281
 70
   192
  0
VERTEX
  5
8EC
  8
0
 10
228.968994140625
 20
9.006539344787598
 30
112.5266876220703
 70
   192
  0
VERTEX
  5
8ED
  8
0
 10
233.9635314941406
 20
2.68394947052002
 30
111.6712875366211
 70
   192
  0
VERTEX
  5
8EE
  8
0
 10
232.7434692382812
 20
5.196020126342773
 30
113.0236053466797
 70
   192
  0
VERTEX
  5
8EF
  8
0
 10
233.7720184326172
 20
2.690720319747925
 30
113.1590118408203
 70
   192
  0
VERTEX
  5
8F0
  8
0
 10
216.5255584716797
 20
7.358062267303467
 30
110.8884735107422
 70
   192
  0
VERTEX
  5
8F1
  8
0
 10
237.2134094238281
 20
5.644923210144043
 30
114.5198516845703
 70
   192
  0
VERTEX
  5
8F2
  8
0
 10
234.8034973144531
 20
4.592590808868408
 30
113.294807434082
 70
   192
  0
VERTEX
  5
8F3
  8
0
 10
232.2245025634766
 20
8.48568058013916
 30
112.9552764892578
 70
   192
  0
VERTEX
  5
8F4
  8
0
 10
234.043212890625
 20
10.43278789520264
 30
114.1024856567383
 70
   192
  0
VERTEX
  5
8F5
  8
0
 10
229.2925262451172
 20
13.63071918487549
 30
113.4770431518555
 70
   192
  0
VERTEX
  5
8F6
  8
0
 10
218.0950317382812
 20
13.61681652069092
 30
112.0028686523438
 70
   192
  0
VERTEX
  5
8F7
  8
0
 10
213.3569488525391
 20
10.41725540161133
 30
111.3790893554688
 70
   192
  0
VERTEX
  5
8F8
  8
0
 10
219.2588958740234
 20
11.08693027496338
 30
111.2483291625977
 70
   192
  0
VERTEX
  5
8F9
  8
0
 10
223.8118133544922
 20
12.00039958953857
 30
111.8477249145508
 70
   192
  0
VERTEX
  5
8FA
  8
0
 10
228.3647155761719
 20
11.08693027496338
 30
112.4471282958984
 70
   192
  0
VERTEX
  5
8FB
  8
0
 10
223.6943359375
 20
14.75039958953857
 30
112.7400283813477
 70
   192
  0
VERTEX
  5
8FC
  8
0
 10
210.18994140625
 20
5.636928081512451
 30
110.9621429443359
 70
   192
  0
VERTEX
  5
8FD
  8
0
 10
212.8201293945312
 20
4.592590808868408
 30
110.4006423950195
 70
   192
  0
VERTEX
  5
8FE
  8
0
 10
215.3991241455078
 20
8.48568058013916
 30
110.7401733398438
 70
   192
  0
VERTEX
  5
8FF
  8
0
 62
     9
 10
0.0
 20
0.0
 30
0.0
 70
   128
 71
     3
 72
     2
 73
     1
  0
VERTEX
  5
900
  8
0
 62
     9
 10
0.0
 20
0.0
 30
0.0
 70
   128
 71
     1
 72
     5
 73
     4
  0
VERTEX
  5
901
  8
0
 62
     9
 10
0.0
 20
0.0
 30
0.0
 70
   128
 71
     2
 72
     7
 73
     6
  0
VERTEX
  5
902
  8
0
 62
     9
 10
0.0
 20
0.0
 30
0.0
 70
   128
 71
     3
 72
     1
 73
     4
  0
VERTEX
  5
903
  8
0
 62
     9
 10
0.0
 20
0.0
 30
0.0
 70
   128
 71
     3
 72
     7
 73
     2
  0
VERTEX
  5
904
  8
0
 62
     9
 10
0.0
 20
0.0
 30
0.0
 70
   128
 71
     8
 72
     6
 73
     7
  0
VERTEX
  5
905
  8
0
 62
     9
 10
0.0
 20
0.0
 30
0.0
 70
   128
 71
    10
 72
     8
 73
     9
  0
VERTEX
  5
906
  8
0
 62
     9
 10
0.0
 20
0.0
 30
0.0
 70
   128
 71
    10
 72
     6
 73
     8
  0
VERTEX
  5
907
  8
0
 62
     9
 10
0.0
 20
0.0
 30
0.0
 70
   128
 71
    12
 72
     5
 73
    11
  0
VERTEX
  5
908
  8
0
 62
     9
 10
0.0
 20
0.0
 30
0.0
 70
   128
 71
     5
 72
    12
 73
     4
  0
VERTEX
  5
909
  8
0
 62
     9
 10
0.0
 20
0.0
 30
0.0
 70
   128
 71
    14
 72
    13
 73
    11
  0
VERTEX
  5
90A
  8
0
 62
     9
 10
0.0
 20
0.0
 30
0.0
 70
   128
 71
    12
 72
    11
 73
    13
  0
VERTEX
  5
90B
  8
0
 62
     9
 10
0.0
 20
0.0
 30
0.0
 70
   128
 71
    14
 72
    16
 73
    15
  0
VERTEX
  5
90C
  8
0
 62
     9
 10
0.0
 20
0.0
 30
0.0
 70
   128
 71
    15
 72
    13
 73
    14
  0
VERTEX
  5
90D
  8
0
 62
     9
 10
0.0
 20
0.0
 30
0.0
 70
   128
 71
    16
 72
    17
 73
    15
  0
VERTEX
  5
90E
  8
0
 62
     9
 10
0.0
 20
0.0
 30
0.0
 70
   128
 71
    16
 72
    18
 73
    17
  0
VERTEX
  5
90F
  8
0
 62
     9
 10
0.0
 20
0.0
 30
0.0
 70
   128
 71
    21
 72
    20
 73
    19
  0
VERTEX
  5
910
  8
0
 62
     9
 10
0.0
 20
0.0
 30
0.0
 70
   128
 71
    23
 72
    19
 73
    22
  0
VERTEX
  5
911
  8
0
 62
     9
 10
0.0
 20
0.0
 30
0.0
 70
   128
 71
    20
 72
    22
 73
    19
  0
VERTEX
  5
912
  8
0
 62
     9
 10
0.0
 20
0.0
 30
0.0
 70
   128
 71
    25
 72
    24
 73
    23
  0
VERTEX
  5
913
  8
0
 62
     9
 10
0.0
 20
0.0
 30
0.0
 70
   128
 71
    23
 72
    22
 73
    25
  0
VERTEX
  5
914
  8
0
 62
     9
 10
0.0
 20
0.0
 30
0.0
 70
   128
 71
    24
 72
    27
 73
    26
  0
VERTEX
  5
915
  8
0
 62
     9
 10
0.0
 20
0.0
 30
0.0
 70
   128
 71
    27
 72
    24
 73
    25
  0
VERTEX
  5
916
  8
0
 62
     9
 10
0.0
 20
0.0
 30
0.0
 70
   128
 71
    29
 72
    26
 73
    28
  0
VERTEX
  5
917
  8
0
 62
     9
 10
0.0
 20
0.0
 30
0.0
 70
   128
 71
    27
 72
    28
 73
    26
  0
VERTEX
  5
918
  8
0
 62
     9
 10
0.0
 20
0.0
 30
0.0
 70
   128
 71
    31
 72
    30
 73
    29
  0
VERTEX
  5
919
  8
0
 62
     9
 10
0.0
 20
0.0
 30
0.0
 70
   128
 71
    29
 72
    28
 73
    31
  0
VERTEX
  5
91A
  8
0
 62
     9
 10
0.0
 20
0.0
 30
0.0
 70
   128
 71
    32
 72
    30
 73
    31
  0
VERTEX
  5
91B
  8
0
 62
     9
 10
0.0
 20
0.0
 30
0.0
 70
   128
 71
    33
 72
    20
 73
    21
  0
VERTEX
  5
91C
  8
0
 62
     9
 10
0.0
 20
0.0
 30
0.0
 70
   128
 71
    35
 72
    34
 73
    33
  0
VERTEX
  5
91D
  8
0
 62
     9
 10
0.0
 20
0.0
 30
0.0
 70
   128
 71
    33
 72
    21
 73
    35
  0
VERTEX
  5
91E
  8
0
 62
     9
 10
0.0
 20
0.0
 30
0.0
 70
   128
 71
    34
 72
    37
 73
    36
  0
VERTEX
  5
91F
  8
0
 62
     9
 10
0.0
 20
0.0
 30
0.0
 70
   128
 71
    37
 72
    34
 73
    35
  0
VERTEX
  5
920
  8
0
 62
     9
 10
0.0
 20
0.0
 30
0.0
 70
   128
 71
    39
 72
    36
 73
    38
  0
VERTEX
  5
921
  8
0
 62
     9
 10
0.0
 20
0.0
 30
0.0
 70
   128
 71
    37
 72
    38
 73
    36
  0
VERTEX
  5
922
  8
0
 62
     9
 10
0.0
 20
0.0
 30
0.0
 70
   128
 71
    41
 72
    40
 73
    39
  0
VERTEX
  5
923
  8
0
 62
     9
 10
0.0
 20
0.0
 30
0.0
 70
   128
 71
    39
 72
    38
 73
    41
  0
VERTEX
  5
924
  8
0
 62
     9
 10
0.0
 20
0.0
 30
0.0
 70
   128
 71
    40
 72
    43
 73
    42
  0
VERTEX
  5
925
  8
0
 62
     9
 10
0.0
 20
0.0
 30
0.0
 70
   128
 71
    43
 72
    40
 73
    41
  0
VERTEX
  5
926
  8
0
 62
     9
 10
0.0
 20
0.0
 30
0.0
 70
   128
 71
    43
 72
    44
 73
    42
  0
VERTEX
  5
927
  8
0
 62
     9
 10
0.0
 20
0.0
 30
0.0
 70
   128
 71
    32
 72
    46
 73
    45
  0
VERTEX
  5
928
  8
0
 62
     9
 10
0.0
 20
0.0
 30
0.0
 70
   128
 71
    49
 72
    48
 73
    47
  0
VERTEX
  5
929
  8
0
 62
     9
 10
0.0
 20
0.0
 30
0.0
 70
   128
 71
    52
 72
    51
 73
    50
  0
VERTEX
  5
92A
  8
0
 62
     9
 10
0.0
 20
0.0
 30
0.0
 70
   128
 71
    55
 72
    54
 73
    53
  0
VERTEX
  5
92B
  8
0
 62
     9
 10
0.0
 20
0.0
 30
0.0
 70
   128
 71
    58
 72
    57
 73
    56
  0
VERTEX
  5
92C
  8
0
 62
     9
 10
0.0
 20
0.0
 30
0.0
 70
   128
 71
    61
 72
    60
 73
    59
  0
VERTEX
  5
92D
  8
0
 62
     9
 10
0.0
 20
0.0
 30
0.0
 70
   128
 71
    59
 72
    54
 73
    62
  0
VERTEX
  5
92E
  8
0
 62
     9
 10
0.0
 20
0.0
 30
0.0
 70
   128
 71
    60
 72
    64
 73
    63
  0
VERTEX
  5
92F
  8
0
 62
     9
 10
0.0
 20
0.0
 30
0.0
 70
   128
 71
    64
 72
    60
 73
    61
  0
VERTEX
  5
930
  8
0
 62
     9
 10
0.0
 20
0.0
 30
0.0
 70
   128
 71
    44
 72
    63
 73
    65
  0
VERTEX
  5
931
  8
0
 62
     9
 10
0.0
 20
0.0
 30
0.0
 70
   128
 71
    64
 72
    65
 73
    63
  0
VERTEX
  5
932
  8
0
 62
     9
 10
0.0
 20
0.0
 30
0.0
 70
   128
 71
    44
 72
    65
 73
    42
  0
VERTEX
  5
933
  8
0
 62
     9
 10
0.0
 20
0.0
 30
0.0
 70
   128
 71
    54
 72
    55
 73
    62
  0
VERTEX
  5
934
  8
0
 62
     9
 10
0.0
 20
0.0
 30
0.0
 70
   128
 71
    61
 72
    59
 73
    62
  0
VERTEX
  5
935
  8
0
 62
     9
 10
0.0
 20
0.0
 30
0.0
 70
   128
 71
    58
 72
    53
 73
    57
  0
VERTEX
  5
936
  8
0
 62
     9
 10
0.0
 20
0.0
 30
0.0
 70
   128
 71
    55
 72
    53
 73
    58
  0
VERTEX
  5
937
  8
0
 62
     9
 10
0.0
 20
0.0
 30
0.0
 70
   128
 71
    48
 72
    56
 73
    47
  0
VERTEX
  5
938
  8
0
 62
     9
 10
0.0
 20
0.0
 30
0.0
 70
   128
 71
    56
 72
    57
 73
    47
  0
VERTEX
  5
939
  8
0
 62
     9
 10
0.0
 20
0.0
 30
0.0
 70
   128
 71
    52
 72
    66
 73
    49
  0
VERTEX
  5
93A
  8
0
 62
     9
 10
0.0
 20
0.0
 30
0.0
 70
   128
 71
    66
 72
    48
 73
    49
  0
VERTEX
  5
93B
  8
0
 62
     9
 10
0.0
 20
0.0
 30
0.0
 70
   128
 71
    51
 72
    46
 73
    50
  0
VERTEX
  5
93C
  8
0
 62
     9
 10
0.0
 20
0.0
 30
0.0
 70
   128
 71
    52
 72
    50
 73
    66
  0
VERTEX
  5
93D
  8
0
 62
     9
 10
0.0
 20
0.0
 30
0.0
 70
   128
 71
    45
 72
    30
 73
    32
  0
VERTEX
  5
93E
  8
0
 62
     9
 10
0.0
 20
0.0
 30
0.0
 70
   128
 71
    51
 72
    45
 73
    46
  0
VERTEX
  5
93F
  8
0
 62
     9
 10
0.0
 20
0.0
 30
0.0
 70
   128
 71
     9
 72
    68
 73
    67
  0
VERTEX
  5
940
  8
0
 62
     9
 10
0.0
 20
0.0
 30
0.0
 70
   128
 71
    71
 72
    70
 73
    69
  0
VERTEX
  5
941
  8
0
 62
     9
 10
0.0
 20
0.0
 30
0.0
 70
   128
 71
    74
 72
    73
 73
    72
  0
VERTEX
  5
942
  8
0
 62
     9
 10
0.0
 20
0.0
 30
0.0
 70
   128
 71
    77
 72
    76
 73
    75
  0
VERTEX
  5
943
  8
0
 62
     9
 10
0.0
 20
0.0
 30
0.0
 70
   128
 71
    80
 72
    79
 73
    78
  0
VERTEX
  5
944
  8
0
 62
     9
 10
0.0
 20
0.0
 30
0.0
 70
   128
 71
    78
 72
    73
 73
    80
  0
VERTEX
  5
945
  8
0
 62
     9
 10
0.0
 20
0.0
 30
0.0
 70
   128
 71
    18
 72
    79
 73
    17
  0
VERTEX
  5
946
  8
0
 62
     9
 10
0.0
 20
0.0
 30
0.0
 70
   128
 71
    79
 72
    18
 73
    78
  0
VERTEX
  5
947
  8
0
 62
     9
 10
0.0
 20
0.0
 30
0.0
 70
   128
 71
    72
 72
    77
 73
    75
  0
VERTEX
  5
948
  8
0
 62
     9
 10
0.0
 20
0.0
 30
0.0
 70
   128
 71
    74
 72
    72
 73
    75
  0
VERTEX
  5
949
  8
0
 62
     9
 10
0.0
 20
0.0
 30
0.0
 70
   128
 71
    74
 72
    80
 73
    73
  0
VERTEX
  5
94A
  8
0
 62
     9
 10
0.0
 20
0.0
 30
0.0
 70
   128
 71
    76
 72
    77
 73
    71
  0
VERTEX
  5
94B
  8
0
 62
     9
 10
0.0
 20
0.0
 30
0.0
 70
   128
 71
    68
 72
    69
 73
    70
  0
VERTEX
  5
94C
  8
0
 62
     9
 10
0.0
 20
0.0
 30
0.0
 70
   128
 71
    71
 72
    69
 73
    76
  0
VERTEX
  5
94D
  8
0
 62
     9
 10
0.0
 20
0.0
 30
0.0
 70
   128
 71
    70
 72
    67
 73
    68
  0
VERTEX
  5
94E
  8
0
 62
     9
 10
0.0
 20
0.0
 30
0.0
 70
   128
 71
    67
 72
    10
 73
     9
  0
VERTEX
  5
94F
  8
0
 62
     9
 10
0.0
 20
0.0
 30
0.0
 70
   128
 71
    17
 72
    79
 73
    46
  0
VERTEX
  5
950
  8
0
 62
     9
 10
0.0
 20
0.0
 30
0.0
 70
   128
 71
    75
 72
    76
 73
    55
  0
VERTEX
  5
951
  8
0
 62
     9
 10
0.0
 20
0.0
 30
0.0
 70
   128
 71
    75
 72
    58
 73
    56
  0
VERTEX
  5
952
  8
0
 62
     9
 10
0.0
 20
0.0
 30
0.0
 70
   128
 71
    69
 72
    61
 73
    62
  0
VERTEX
  5
953
  8
0
 62
     9
 10
0.0
 20
0.0
 30
0.0
 70
   128
 71
    80
 72
    74
 73
    48
  0
VERTEX
  5
954
  8
0
 62
     9
 10
0.0
 20
0.0
 30
0.0
 70
   128
 71
     8
 72
    40
 73
     9
  0
VERTEX
  5
955
  8
0
 62
     9
 10
0.0
 20
0.0
 30
0.0
 70
   128
 71
     4
 72
    12
 73
    22
  0
VERTEX
  5
956
  8
0
 62
     9
 10
0.0
 20
0.0
 30
0.0
 70
   128
 71
    36
 72
     7
 73
    34
  0
VERTEX
  5
957
  8
0
 62
     9
 10
0.0
 20
0.0
 30
0.0
 70
   128
 71
     4
 72
    20
 73
    33
  0
VERTEX
  5
958
  8
0
 62
     9
 10
0.0
 20
0.0
 30
0.0
 70
   128
 71
    13
 72
    27
 73
    25
  0
VERTEX
  5
959
  8
0
 62
     9
 10
0.0
 20
0.0
 30
0.0
 70
   128
 71
    68
 72
     9
 73
    65
  0
VERTEX
  5
95A
  8
0
 62
     9
 10
0.0
 20
0.0
 30
0.0
 70
   128
 71
    80
 72
    66
 73
    50
  0
VERTEX
  5
95B
  8
0
 62
     9
 10
0.0
 20
0.0
 30
0.0
 70
   128
 71
    69
 72
    68
 73
    64
  0
VERTEX
  5
95C
  8
0
 62
     9
 10
0.0
 20
0.0
 30
0.0
 70
   128
 71
    15
 72
    28
 73
    13
  0
VERTEX
  5
95D
  8
0
 62
     9
 10
0.0
 20
0.0
 30
0.0
 70
   128
 71
    42
 72
    65
 73
     9
  0
VERTEX
  5
95E
  8
0
 62
     9
 10
0.0
 20
0.0
 30
0.0
 70
   128
 71
     3
 72
    34
 73
     7
  0
VERTEX
  5
95F
  8
0
 62
     9
 10
0.0
 20
0.0
 30
0.0
 70
   128
 71
    65
 72
    64
 73
    68
  0
VERTEX
  5
960
  8
0
 62
     9
 10
0.0
 20
0.0
 30
0.0
 70
   128
 71
    64
 72
    61
 73
    69
  0
VERTEX
  5
961
  8
0
 62
     9
 10
0.0
 20
0.0
 30
0.0
 70
   128
 71
    62
 72
    55
 73
    76
  0
VERTEX
  5
962
  8
0
 62
     9
 10
0.0
 20
0.0
 30
0.0
 70
   128
 71
    62
 72
    76
 73
    69
  0
VERTEX
  5
963
  8
0
 62
     9
 10
0.0
 20
0.0
 30
0.0
 70
   128
 71
    55
 72
    58
 73
    75
  0
VERTEX
  5
964
  8
0
 62
     9
 10
0.0
 20
0.0
 30
0.0
 70
   128
 71
    56
 72
    48
 73
    74
  0
VERTEX
  5
965
  8
0
 62
     9
 10
0.0
 20
0.0
 30
0.0
 70
   128
 71
    56
 72
    74
 73
    75
  0
VERTEX
  5
966
  8
0
 62
     9
 10
0.0
 20
0.0
 30
0.0
 70
   128
 71
    48
 72
    66
 73
    80
  0
VERTEX
  5
967
  8
0
 62
     9
 10
0.0
 20
0.0
 30
0.0
 70
   128
 71
    50
 72
    46
 73
    79
  0
VERTEX
  5
968
  8
0
 62
     9
 10
0.0
 20
0.0
 30
0.0
 70
   128
 71
    50
 72
    79
 73
    80
  0
VERTEX
  5
969
  8
0
 62
     9
 10
0.0
 20
0.0
 30
0.0
 70
   128
 71
    46
 72
    32
 73
    17
  0
VERTEX
  5
96A
  8
0
 62
     9
 10
0.0
 20
0.0
 30
0.0
 70
   128
 71
    31
 72
    17
 73
    32
  0
VERTEX
  5
96B
  8
0
 62
     9
 10
0.0
 20
0.0
 30
0.0
 70
   128
 71
    31
 72
    28
 73
    15
  0
VERTEX
  5
96C
  8
0
 62
     9
 10
0.0
 20
0.0
 30
0.0
 70
   128
 71
    31
 72
    15
 73
    17
  0
VERTEX
  5
96D
  8
0
 62
     9
 10
0.0
 20
0.0
 30
0.0
 70
   128
 71
    28
 72
    27
 73
    13
  0
VERTEX
  5
96E
  8
0
 62
     9
 10
0.0
 20
0.0
 30
0.0
 70
   128
 71
    25
 72
    22
 73
    12
  0
VERTEX
  5
96F
  8
0
 62
     9
 10
0.0
 20
0.0
 30
0.0
 70
   128
 71
    25
 72
    12
 73
    13
  0
VERTEX
  5
970
  8
0
 62
     9
 10
0.0
 20
0.0
 30
0.0
 70
   128
 71
    22
 72
    20
 73
     4
  0
VERTEX
  5
971
  8
0
 62
     9
 10
0.0
 20
0.0
 30
0.0
 70
   128
 71
    33
 72
    34
 73
     3
  0
VERTEX
  5
972
  8
0
 62
     9
 10
0.0
 20
0.0
 30
0.0
 70
   128
 71
    33
 72
     3
 73
     4
  0
VERTEX
  5
973
  8
0
 62
     9
 10
0.0
 20
0.0
 30
0.0
 70
   128
 71
    39
 72
     7
 73
    36
  0
VERTEX
  5
974
  8
0
 62
     9
 10
0.0
 20
0.0
 30
0.0
 70
   128
 71
     8
 72
    39
 73
    40
  0
VERTEX
  5
975
  8
0
 62
     9
 10
0.0
 20
0.0
 30
0.0
 70
   128
 71
    39
 72
     8
 73
     7
  0
VERTEX
  5
976
  8
0
 62
     9
 10
0.0
 20
0.0
 30
0.0
 70
   128
 71
    40
 72
    42
 73
     9
  0
SEQEND
  5
977
  8
0
 62
     9
  0
ENDBLK
  5
97A
  8
0
  0
BLOCK
  8
0
  2
42
 70
     0
 10
0.0
 20
0.0
 30
0.0
  3
42
  1

  0
POLYLINE
  5
97C
  8
0
 62
     9
 66
     1
 10
0.0
 20
0.0
 30
0.0
 70
    64
 71
    73
 72
   132
  0
VERTEX
  5
97D
  8
0
 10
24.62016105651855
 20
15.32512950897217
 30
25.63507270812988
 70
   192
  0
VERTEX
  5
97E
  8
0
 10
56.41446304321289
 20
15.32624530792236
 30
48.10176849365234
 70
   192
  0
VERTEX
  5
97F
  8
0
 10
55.41323089599609
 20
14.09220695495605
 30
50.52235412597656
 70
   192
  0
VERTEX
  5
980
  8
0
 10
117.9030151367188
 20
15.33085918426514
 30
86.78572082519531
 70
   192
  0
VERTEX
  5
981
  8
0
 10
86.25080871582031
 20
14.09448146820068
 30
70.83185577392578
 70
   192
  0
VERTEX
  5
982
  8
0
 10
86.59717559814453
 20
15.32844829559326
 30
68.3306884765625
 70
   192
  0
VERTEX
  5
983
  8
0
 10
219.9237518310547
 20
15.32318496704102
 30
123.590446472168
 70
   192
  0
VERTEX
  5
984
  8
0
 10
185.8688659667969
 20
14.09356021881104
 30
118.4625778198242
 70
   192
  0
VERTEX
  5
985
  8
0
 10
184.5013732910156
 20
15.32738494873047
 30
115.6247863769531
 70
   192
  0
VERTEX
  5
986
  8
0
 10
150.4724578857422
 20
15.33085155487061
 30
102.9031753540039
 70
   192
  0
VERTEX
  5
987
  8
0
 10
151.3176727294922
 20
14.09643173217773
 30
105.5285186767578
 70
   192
  0
VERTEX
  5
988
  8
0
 10
118.0840530395508
 20
14.09665584564209
 30
89.49192810058594
 70
   192
  0
VERTEX
  5
989
  8
0
 10
221.9161224365234
 20
14.08990287780762
 30
126.2469024658203
 70
   192
  0
VERTEX
  5
98A
  8
0
 10
222.1280975341797
 20
15.49812889099121
 30
124.6371078491211
 70
   192
  0
VERTEX
  5
98B
  8
0
 10
229.8293914794922
 20
13.38765048980713
 30
125.4530563354492
 70
   192
  0
VERTEX
  5
98C
  8
0
 10
233.2372894287109
 20
7.167647838592529
 30
127.8175201416016
 70
   192
  0
VERTEX
  5
98D
  8
0
 10
229.1558074951172
 20
11.73350048065186
 30
127.2292709350586
 70
   192
  0
VERTEX
  5
98E
  8
0
 10
235.5101318359375
 20
7.77494478225708
 30
125.8420028686523
 70
   192
  0
VERTEX
  5
98F
  8
0
 10
235.1211090087891
 20
0.0003359555557836
 30
128.0914764404297
 70
   192
  0
VERTEX
  5
990
  8
0
 10
237.5912933349609
 20
0.0003359555557836
 30
125.9178009033203
 70
   192
  0
VERTEX
  5
991
  8
0
 10
221.7848510742188
 20
0.0003365366719663
 30
127.244010925293
 70
   192
  0
VERTEX
  5
992
  8
0
 10
69.05789947509766
 20
9.060132026672363
 30
48.64056777954102
 70
   192
  0
VERTEX
  5
993
  8
0
 10
84.89218139648438
 20
0.0003359523834661
 30
55.95193481445312
 70
   192
  0
VERTEX
  5
994
  8
0
 10
109.7242050170898
 20
9.060271263122559
 30
74.17845916748047
 70
   192
  0
VERTEX
  5
995
  8
0
 10
56.63246536254883
 20
0.0003359555557836
 30
36.99898529052734
 70
   192
  0
VERTEX
  5
996
  8
0
 10
27.54550933837891
 20
9.069378852844238
 30
19.28158950805664
 70
   192
  0
VERTEX
  5
997
  8
0
 10
29.00005912780762
 20
0.0003359555557836
 30
17.13707542419434
 70
   192
  0
VERTEX
  5
998
  8
0
 10
113.9620819091797
 20
0.0003359480469953
 30
73.63800048828125
 70
   192
  0
VERTEX
  5
999
  8
0
 10
148.5180053710938
 20
9.060322761535645
 30
94.3784408569336
 70
   192
  0
VERTEX
  5
99A
  8
0
 10
144.0885162353516
 20
0.0003359461843502
 30
89.44125366210938
 70
   192
  0
VERTEX
  5
99B
  8
0
 10
213.9553985595703
 20
12.72751426696777
 30
118.746337890625
 70
   192
  0
VERTEX
  5
99C
  8
0
 10
185.8546752929688
 20
9.060198783874512
 30
108.7974624633789
 70
   192
  0
VERTEX
  5
99D
  8
0
 10
210.0089721679688
 20
7.397180557250977
 30
114.2320404052734
 70
   192
  0
VERTEX
  5
99E
  8
0
 10
208.3288116455078
 20
0.0003359555557836
 30
110.7171173095703
 70
   192
  0
VERTEX
  5
99F
  8
0
 10
175.4627075195312
 20
0.0003359489783179
 30
102.5794143676758
 70
   192
  0
VERTEX
  5
9A0
  8
0
 10
239.0598602294922
 20
0.0003359555557836
 30
114.762939453125
 70
   192
  0
VERTEX
  5
9A1
  8
0
 10
223.7041168212891
 20
14.59810829162598
 30
112.7413177490234
 70
   192
  0
VERTEX
  5
9A2
  8
0
 10
233.9281616210938
 20
10.32271957397461
 30
114.0873336791992
 70
   192
  0
VERTEX
  5
9A3
  8
0
 10
213.4678497314453
 20
10.33010578155518
 30
111.393684387207
 70
   192
  0
VERTEX
  5
9A4
  8
0
 10
152.5312805175781
 20
0.0003359535767231
 30
107.442756652832
 70
   192
  0
VERTEX
  5
9A5
  8
0
 10
120.0136871337891
 20
0.0003359535767231
 30
91.69103240966797
 70
   192
  0
VERTEX
  5
9A6
  8
0
 10
29.00005912780762
 20
0.0003359555557836
 30
33.01684951782227
 70
   192
  0
VERTEX
  5
9A7
  8
0
 10
186.4925689697266
 20
0.0003359545662533
 30
119.7290344238281
 70
   192
  0
VERTEX
  5
9A8
  8
0
 10
88.75
 20
0.0003359543625265
 30
73.60755157470703
 70
   192
  0
VERTEX
  5
9A9
  8
0
 10
58.49407577514648
 20
0.0003359552356414
 30
53.87596893310547
 70
   192
  0
VERTEX
  5
9AA
  8
0
 10
221.9161224365234
 20
-14.08923053741455
 30
126.2469024658203
 70
   192
  0
VERTEX
  5
9AB
  8
0
 10
229.220947265625
 20
-11.75116348266602
 30
127.2355804443359
 70
   192
  0
VERTEX
  5
9AC
  8
0
 10
222.1280364990234
 20
-15.49745655059814
 30
124.6372451782227
 70
   192
  0
VERTEX
  5
9AD
  8
0
 10
235.4737091064453
 20
-7.741955280303955
 30
125.8382034301758
 70
   192
  0
VERTEX
  5
9AE
  8
0
 10
233.2672119140625
 20
-7.123613834381104
 30
127.8192977905273
 70
   192
  0
VERTEX
  5
9AF
  8
0
 10
229.8612670898438
 20
-13.4246072769165
 30
125.4583282470703
 70
   192
  0
VERTEX
  5
9B0
  8
0
 10
213.9442901611328
 20
-12.71644115447998
 30
118.7343597412109
 70
   192
  0
VERTEX
  5
9B1
  8
0
 10
213.4678497314453
 20
-10.32943439483643
 30
111.393684387207
 70
   192
  0
VERTEX
  5
9B2
  8
0
 10
209.8326721191406
 20
-7.526890754699707
 30
114.0247650146484
 70
   192
  0
VERTEX
  5
9B3
  8
0
 10
223.7041168212891
 20
-14.59743595123291
 30
112.7413177490234
 70
   192
  0
VERTEX
  5
9B4
  8
0
 10
233.9281616210938
 20
-10.32204818725586
 30
114.0873336791992
 70
   192
  0
VERTEX
  5
9B5
  8
0
 10
219.9237518310547
 20
-15.32251358032227
 30
123.590446472168
 70
   192
  0
VERTEX
  5
9B6
  8
0
 10
26.73675537109375
 20
-15.32451725006104
 30
27.13918113708496
 70
   192
  0
VERTEX
  5
9B7
  8
0
 10
55.41706848144531
 20
-14.0915355682373
 30
50.51778411865234
 70
   192
  0
VERTEX
  5
9B8
  8
0
 10
56.49262237548828
 20
-15.32562923431396
 30
47.98699188232422
 70
   192
  0
VERTEX
  5
9B9
  8
0
 10
86.25080871582031
 20
-14.09380435943604
 30
70.82750701904297
 70
   192
  0
VERTEX
  5
9BA
  8
0
 10
86.65554809570312
 20
-15.32745170593262
 30
68.22183227539062
 70
   192
  0
VERTEX
  5
9BB
  8
0
 10
185.8699493408203
 20
-14.09288883209229
 30
118.4595260620117
 70
   192
  0
VERTEX
  5
9BC
  8
0
 10
184.5040740966797
 20
-15.32697486877441
 30
115.5273895263672
 70
   192
  0
VERTEX
  5
9BD
  8
0
 10
151.229736328125
 20
-14.09594440460205
 30
105.7287750244141
 70
   192
  0
VERTEX
  5
9BE
  8
0
 10
118.0854339599609
 20
-14.09598159790039
 30
89.48932647705078
 70
   192
  0
VERTEX
  5
9BF
  8
0
 10
150.5025177001953
 20
-15.33013153076172
 30
102.7711410522461
 70
   192
  0
VERTEX
  5
9C0
  8
0
 10
117.9411239624023
 20
-15.32992649078369
 30
86.67930603027344
 70
   192
  0
VERTEX
  5
9C1
  8
0
 10
69.05789947509766
 20
-9.059459686279297
 30
48.64056777954102
 70
   192
  0
VERTEX
  5
9C2
  8
0
 10
185.8546752929688
 20
-9.059527397155762
 30
108.7974624633789
 70
   192
  0
VERTEX
  5
9C3
  8
0
 10
148.5180053710938
 20
-9.059650421142578
 30
94.3784408569336
 70
   192
  0
VERTEX
  5
9C4
  8
0
 10
109.7242050170898
 20
-9.059599876403809
 30
74.17845916748047
 70
   192
  0
VERTEX
  5
9C5
  8
0
 10
27.54550933837891
 20
-9.068707466125488
 30
19.28158950805664
 70
   192
  0
VERTEX
  5
9C6
  8
0
 62
     9
 10
0.0
 20
0.0
 30
0.0
 70
   128
 71
     3
 72
     2
 73
     1
  0
VERTEX
  5
9C7
  8
0
 62
     9
 10
0.0
 20
0.0
 30
0.0
 70
   128
 71
     6
 72
     5
 73
     4
  0
VERTEX
  5
9C8
  8
0
 62
     9
 10
0.0
 20
0.0
 30
0.0
 70
   128
 71
     9
 72
     8
 73
     7
  0
VERTEX
  5
9C9
  8
0
 62
     9
 10
0.0
 20
0.0
 30
0.0
 70
   128
 71
    12
 72
    11
 73
    10
  0
VERTEX
  5
9CA
  8
0
 62
     9
 10
0.0
 20
0.0
 30
0.0
 70
   128
 71
    14
 72
     7
 73
    13
  0
VERTEX
  5
9CB
  8
0
 62
     9
 10
0.0
 20
0.0
 30
0.0
 70
   128
 71
     8
 72
    13
 73
     7
  0
VERTEX
  5
9CC
  8
0
 62
     9
 10
0.0
 20
0.0
 30
0.0
 70
   128
 71
     8
 72
     9
 73
    11
  0
VERTEX
  5
9CD
  8
0
 62
     9
 10
0.0
 20
0.0
 30
0.0
 70
   128
 71
    12
 72
    10
 73
     4
  0
VERTEX
  5
9CE
  8
0
 62
     9
 10
0.0
 20
0.0
 30
0.0
 70
   128
 71
    10
 72
    11
 73
     9
  0
VERTEX
  5
9CF
  8
0
 62
     9
 10
0.0
 20
0.0
 30
0.0
 70
   128
 71
     6
 72
     3
 73
     5
  0
VERTEX
  5
9D0
  8
0
 62
     9
 10
0.0
 20
0.0
 30
0.0
 70
   128
 71
     4
 72
     5
 73
    12
  0
VERTEX
  5
9D1
  8
0
 62
     9
 10
0.0
 20
0.0
 30
0.0
 70
   128
 71
     6
 72
     2
 73
     3
  0
VERTEX
  5
9D2
  8
0
 62
     9
 10
0.0
 20
0.0
 30
0.0
 70
   128
 71
    17
 72
    16
 73
    15
  0
VERTEX
  5
9D3
  8
0
 62
     9
 10
0.0
 20
0.0
 30
0.0
 70
   128
 71
    17
 72
    15
 73
    14
  0
VERTEX
  5
9D4
  8
0
 62
     9
 10
0.0
 20
0.0
 30
0.0
 70
   128
 71
    13
 72
    17
 73
    14
  0
VERTEX
  5
9D5
  8
0
 62
     9
 10
0.0
 20
0.0
 30
0.0
 70
   128
 71
    16
 72
    18
 73
    15
  0
VERTEX
  5
9D6
  8
0
 62
     9
 10
0.0
 20
0.0
 30
0.0
 70
   128
 71
    19
 72
    18
 73
    16
  0
VERTEX
  5
9D7
  8
0
 62
     9
 10
0.0
 20
0.0
 30
0.0
 70
   128
 71
    19
 72
    20
 73
    18
  0
VERTEX
  5
9D8
  8
0
 62
     9
 10
0.0
 20
0.0
 30
0.0
 70
   128
 71
    19
 72
    16
 73
    21
  0
VERTEX
  5
9D9
  8
0
 62
     9
 10
0.0
 20
0.0
 30
0.0
 70
   128
 71
    17
 72
    13
 73
    21
  0
VERTEX
  5
9DA
  8
0
 62
     9
 10
0.0
 20
0.0
 30
0.0
 70
   128
 71
    17
 72
    21
 73
    16
  0
VERTEX
  5
9DB
  8
0
 62
     9
 10
0.0
 20
0.0
 30
0.0
 70
   128
 71
    24
 72
    23
 73
    22
  0
VERTEX
  5
9DC
  8
0
 62
     9
 10
0.0
 20
0.0
 30
0.0
 70
   128
 71
    22
 72
     2
 73
     6
  0
VERTEX
  5
9DD
  8
0
 62
     9
 10
0.0
 20
0.0
 30
0.0
 70
   128
 71
     6
 72
     4
 73
    24
  0
VERTEX
  5
9DE
  8
0
 62
     9
 10
0.0
 20
0.0
 30
0.0
 70
   128
 71
    26
 72
    22
 73
    25
  0
VERTEX
  5
9DF
  8
0
 62
     9
 10
0.0
 20
0.0
 30
0.0
 70
   128
 71
     2
 72
    26
 73
     1
  0
VERTEX
  5
9E0
  8
0
 62
     9
 10
0.0
 20
0.0
 30
0.0
 70
   128
 71
    26
 72
    25
 73
    27
  0
VERTEX
  5
9E1
  8
0
 62
     9
 10
0.0
 20
0.0
 30
0.0
 70
   128
 71
    24
 72
    22
 73
     6
  0
VERTEX
  5
9E2
  8
0
 62
     9
 10
0.0
 20
0.0
 30
0.0
 70
   128
 71
    29
 72
    28
 73
    24
  0
VERTEX
  5
9E3
  8
0
 62
     9
 10
0.0
 20
0.0
 30
0.0
 70
   128
 71
    30
 72
    28
 73
    29
  0
VERTEX
  5
9E4
  8
0
 62
     9
 10
0.0
 20
0.0
 30
0.0
 70
   128
 71
    29
 72
    24
 73
     4
  0
VERTEX
  5
9E5
  8
0
 62
     9
 10
0.0
 20
0.0
 30
0.0
 70
   128
 71
    33
 72
    32
 73
    31
  0
VERTEX
  5
9E6
  8
0
 62
     9
 10
0.0
 20
0.0
 30
0.0
 70
   128
 71
    33
 72
    34
 73
    32
  0
VERTEX
  5
9E7
  8
0
 62
     9
 10
0.0
 20
0.0
 30
0.0
 70
   128
 71
    29
 72
    32
 73
    35
  0
VERTEX
  5
9E8
  8
0
 62
     9
 10
0.0
 20
0.0
 30
0.0
 70
   128
 71
     7
 72
    31
 73
     9
  0
VERTEX
  5
9E9
  8
0
 62
     9
 10
0.0
 20
0.0
 30
0.0
 70
   128
 71
    32
 72
    34
 73
    35
  0
VERTEX
  5
9EA
  8
0
 62
     9
 10
0.0
 20
0.0
 30
0.0
 70
   128
 71
    22
 72
    23
 73
    25
  0
VERTEX
  5
9EB
  8
0
 62
     9
 10
0.0
 20
0.0
 30
0.0
 70
   128
 71
     2
 72
    22
 73
    26
  0
VERTEX
  5
9EC
  8
0
 62
     9
 10
0.0
 20
0.0
 30
0.0
 70
   128
 71
    10
 72
    29
 73
     4
  0
VERTEX
  5
9ED
  8
0
 62
     9
 10
0.0
 20
0.0
 30
0.0
 70
   128
 71
    24
 72
    28
 73
    23
  0
VERTEX
  5
9EE
  8
0
 62
     9
 10
0.0
 20
0.0
 30
0.0
 70
   128
 71
    10
 72
     9
 73
    32
  0
VERTEX
  5
9EF
  8
0
 62
     9
 10
0.0
 20
0.0
 30
0.0
 70
   128
 71
    30
 72
    29
 73
    35
  0
VERTEX
  5
9F0
  8
0
 62
     9
 10
0.0
 20
0.0
 30
0.0
 70
   128
 71
    32
 72
    29
 73
    10
  0
VERTEX
  5
9F1
  8
0
 62
     9
 10
0.0
 20
0.0
 30
0.0
 70
   128
 71
    32
 72
     9
 73
    31
  0
VERTEX
  5
9F2
  8
0
 62
     9
 10
0.0
 20
0.0
 30
0.0
 70
   128
 71
    20
 72
    36
 73
    18
  0
VERTEX
  5
9F3
  8
0
 62
     9
 10
0.0
 20
0.0
 30
0.0
 70
   128
 71
    14
 72
    15
 73
    37
  0
VERTEX
  5
9F4
  8
0
 62
     9
 10
0.0
 20
0.0
 30
0.0
 70
   128
 71
    37
 72
    15
 73
    38
  0
VERTEX
  5
9F5
  8
0
 62
     9
 10
0.0
 20
0.0
 30
0.0
 70
   128
 71
    18
 72
    38
 73
    15
  0
VERTEX
  5
9F6
  8
0
 62
     9
 10
0.0
 20
0.0
 30
0.0
 70
   128
 71
    38
 72
    18
 73
    36
  0
VERTEX
  5
9F7
  8
0
 62
     9
 10
0.0
 20
0.0
 30
0.0
 70
   128
 71
    37
 72
    31
 73
     7
  0
VERTEX
  5
9F8
  8
0
 62
     9
 10
0.0
 20
0.0
 30
0.0
 70
   128
 71
    37
 72
     7
 73
    14
  0
VERTEX
  5
9F9
  8
0
 62
     9
 10
0.0
 20
0.0
 30
0.0
 70
   128
 71
    31
 72
    37
 73
    39
  0
VERTEX
  5
9FA
  8
0
 62
     9
 10
0.0
 20
0.0
 30
0.0
 70
   128
 71
    33
 72
    39
 73
    34
  0
VERTEX
  5
9FB
  8
0
 62
     9
 10
0.0
 20
0.0
 30
0.0
 70
   128
 71
    33
 72
    31
 73
    39
  0
VERTEX
  5
9FC
  8
0
 62
     9
 10
0.0
 20
0.0
 30
0.0
 70
   128
 71
    11
 72
    41
 73
    40
  0
VERTEX
  5
9FD
  8
0
 62
     9
 10
0.0
 20
0.0
 30
0.0
 70
   128
 71
    42
 72
     3
 73
     1
  0
VERTEX
  5
9FE
  8
0
 62
     9
 10
0.0
 20
0.0
 30
0.0
 70
   128
 71
     8
 72
    11
 73
    40
  0
VERTEX
  5
9FF
  8
0
 62
     9
 10
0.0
 20
0.0
 30
0.0
 70
   128
 71
    41
 72
    11
 73
    12
  0
VERTEX
  5
A00
  8
0
 62
     9
 10
0.0
 20
0.0
 30
0.0
 70
   128
 71
     8
 72
    40
 73
    43
  0
VERTEX
  5
A01
  8
0
 62
     9
 10
0.0
 20
0.0
 30
0.0
 70
   128
 71
    13
 72
     8
 73
    43
  0
VERTEX
  5
A02
  8
0
 62
     9
 10
0.0
 20
0.0
 30
0.0
 70
   128
 71
    21
 72
    13
 73
    43
  0
VERTEX
  5
A03
  8
0
 62
     9
 10
0.0
 20
0.0
 30
0.0
 70
   128
 71
    44
 72
    41
 73
    12
  0
VERTEX
  5
A04
  8
0
 62
     9
 10
0.0
 20
0.0
 30
0.0
 70
   128
 71
     5
 72
    45
 73
    44
  0
VERTEX
  5
A05
  8
0
 62
     9
 10
0.0
 20
0.0
 30
0.0
 70
   128
 71
    44
 72
    12
 73
     5
  0
VERTEX
  5
A06
  8
0
 62
     9
 10
0.0
 20
0.0
 30
0.0
 70
   128
 71
    45
 72
     3
 73
    42
  0
VERTEX
  5
A07
  8
0
 62
     9
 10
0.0
 20
0.0
 30
0.0
 70
   128
 71
     3
 72
    45
 73
     5
  0
VERTEX
  5
A08
  8
0
 62
     9
 10
0.0
 20
0.0
 30
0.0
 70
   128
 71
    48
 72
    47
 73
    46
  0
VERTEX
  5
A09
  8
0
 62
     9
 10
0.0
 20
0.0
 30
0.0
 70
   128
 71
    20
 72
    19
 73
    49
  0
VERTEX
  5
A0A
  8
0
 62
     9
 10
0.0
 20
0.0
 30
0.0
 70
   128
 71
    19
 72
    50
 73
    49
  0
VERTEX
  5
A0B
  8
0
 62
     9
 10
0.0
 20
0.0
 30
0.0
 70
   128
 71
    49
 72
    50
 73
    51
  0
VERTEX
  5
A0C
  8
0
 62
     9
 10
0.0
 20
0.0
 30
0.0
 70
   128
 71
    51
 72
    47
 73
    48
  0
VERTEX
  5
A0D
  8
0
 62
     9
 10
0.0
 20
0.0
 30
0.0
 70
   128
 71
    47
 72
    51
 73
    50
  0
VERTEX
  5
A0E
  8
0
 62
     9
 10
0.0
 20
0.0
 30
0.0
 70
   128
 71
    21
 72
    46
 73
    47
  0
VERTEX
  5
A0F
  8
0
 62
     9
 10
0.0
 20
0.0
 30
0.0
 70
   128
 71
    47
 72
    50
 73
    21
  0
VERTEX
  5
A10
  8
0
 62
     9
 10
0.0
 20
0.0
 30
0.0
 70
   128
 71
    21
 72
    50
 73
    19
  0
VERTEX
  5
A11
  8
0
 62
     9
 10
0.0
 20
0.0
 30
0.0
 70
   128
 71
    54
 72
    53
 73
    52
  0
VERTEX
  5
A12
  8
0
 62
     9
 10
0.0
 20
0.0
 30
0.0
 70
   128
 71
    56
 72
    51
 73
    55
  0
VERTEX
  5
A13
  8
0
 62
     9
 10
0.0
 20
0.0
 30
0.0
 70
   128
 71
    52
 72
    53
 73
    55
  0
VERTEX
  5
A14
  8
0
 62
     9
 10
0.0
 20
0.0
 30
0.0
 70
   128
 71
    53
 72
    54
 73
    34
  0
VERTEX
  5
A15
  8
0
 62
     9
 10
0.0
 20
0.0
 30
0.0
 70
   128
 71
    49
 72
    36
 73
    20
  0
VERTEX
  5
A16
  8
0
 62
     9
 10
0.0
 20
0.0
 30
0.0
 70
   128
 71
    55
 72
    57
 73
    52
  0
VERTEX
  5
A17
  8
0
 62
     9
 10
0.0
 20
0.0
 30
0.0
 70
   128
 71
    36
 72
    49
 73
    56
  0
VERTEX
  5
A18
  8
0
 62
     9
 10
0.0
 20
0.0
 30
0.0
 70
   128
 71
    51
 72
    56
 73
    49
  0
VERTEX
  5
A19
  8
0
 62
     9
 10
0.0
 20
0.0
 30
0.0
 70
   128
 71
    55
 72
    51
 73
    48
  0
VERTEX
  5
A1A
  8
0
 62
     9
 10
0.0
 20
0.0
 30
0.0
 70
   128
 71
    48
 72
    57
 73
    55
  0
VERTEX
  5
A1B
  8
0
 62
     9
 10
0.0
 20
0.0
 30
0.0
 70
   128
 71
    60
 72
    59
 73
    58
  0
VERTEX
  5
A1C
  8
0
 62
     9
 10
0.0
 20
0.0
 30
0.0
 70
   128
 71
    59
 72
    62
 73
    61
  0
VERTEX
  5
A1D
  8
0
 62
     9
 10
0.0
 20
0.0
 30
0.0
 70
   128
 71
    65
 72
    64
 73
    63
  0
VERTEX
  5
A1E
  8
0
 62
     9
 10
0.0
 20
0.0
 30
0.0
 70
   128
 71
    68
 72
    67
 73
    66
  0
VERTEX
  5
A1F
  8
0
 62
     9
 10
0.0
 20
0.0
 30
0.0
 70
   128
 71
    48
 72
    46
 73
    57
  0
VERTEX
  5
A20
  8
0
 62
     9
 10
0.0
 20
0.0
 30
0.0
 70
   128
 71
    57
 72
    46
 73
    63
  0
VERTEX
  5
A21
  8
0
 62
     9
 10
0.0
 20
0.0
 30
0.0
 70
   128
 71
    64
 72
    57
 73
    63
  0
VERTEX
  5
A22
  8
0
 62
     9
 10
0.0
 20
0.0
 30
0.0
 70
   128
 71
    62
 72
    68
 73
    61
  0
VERTEX
  5
A23
  8
0
 62
     9
 10
0.0
 20
0.0
 30
0.0
 70
   128
 71
    64
 72
    65
 73
    67
  0
VERTEX
  5
A24
  8
0
 62
     9
 10
0.0
 20
0.0
 30
0.0
 70
   128
 71
    68
 72
    66
 73
    61
  0
VERTEX
  5
A25
  8
0
 62
     9
 10
0.0
 20
0.0
 30
0.0
 70
   128
 71
    66
 72
    67
 73
    65
  0
VERTEX
  5
A26
  8
0
 62
     9
 10
0.0
 20
0.0
 30
0.0
 70
   128
 71
    59
 72
    60
 73
    62
  0
VERTEX
  5
A27
  8
0
 62
     9
 10
0.0
 20
0.0
 30
0.0
 70
   128
 71
    66
 72
    65
 73
    41
  0
VERTEX
  5
A28
  8
0
 62
     9
 10
0.0
 20
0.0
 30
0.0
 70
   128
 71
    66
 72
    41
 73
    44
  0
VERTEX
  5
A29
  8
0
 62
     9
 10
0.0
 20
0.0
 30
0.0
 70
   128
 71
    44
 72
    61
 73
    66
  0
VERTEX
  5
A2A
  8
0
 62
     9
 10
0.0
 20
0.0
 30
0.0
 70
   128
 71
    59
 72
    45
 73
    42
  0
VERTEX
  5
A2B
  8
0
 62
     9
 10
0.0
 20
0.0
 30
0.0
 70
   128
 71
    61
 72
    45
 73
    59
  0
VERTEX
  5
A2C
  8
0
 62
     9
 10
0.0
 20
0.0
 30
0.0
 70
   128
 71
    59
 72
    42
 73
    58
  0
VERTEX
  5
A2D
  8
0
 62
     9
 10
0.0
 20
0.0
 30
0.0
 70
   128
 71
    40
 72
    41
 73
    65
  0
VERTEX
  5
A2E
  8
0
 62
     9
 10
0.0
 20
0.0
 30
0.0
 70
   128
 71
    44
 72
    45
 73
    61
  0
VERTEX
  5
A2F
  8
0
 62
     9
 10
0.0
 20
0.0
 30
0.0
 70
   128
 71
    43
 72
    40
 73
    63
  0
VERTEX
  5
A30
  8
0
 62
     9
 10
0.0
 20
0.0
 30
0.0
 70
   128
 71
    65
 72
    63
 73
    40
  0
VERTEX
  5
A31
  8
0
 62
     9
 10
0.0
 20
0.0
 30
0.0
 70
   128
 71
    46
 72
    21
 73
    43
  0
VERTEX
  5
A32
  8
0
 62
     9
 10
0.0
 20
0.0
 30
0.0
 70
   128
 71
    43
 72
    63
 73
    46
  0
VERTEX
  5
A33
  8
0
 62
     9
 10
0.0
 20
0.0
 30
0.0
 70
   128
 71
    23
 72
    69
 73
    25
  0
VERTEX
  5
A34
  8
0
 62
     9
 10
0.0
 20
0.0
 30
0.0
 70
   128
 71
    70
 72
    52
 73
    64
  0
VERTEX
  5
A35
  8
0
 62
     9
 10
0.0
 20
0.0
 30
0.0
 70
   128
 71
    64
 72
    52
 73
    57
  0
VERTEX
  5
A36
  8
0
 62
     9
 10
0.0
 20
0.0
 30
0.0
 70
   128
 71
    67
 72
    70
 73
    64
  0
VERTEX
  5
A37
  8
0
 62
     9
 10
0.0
 20
0.0
 30
0.0
 70
   128
 71
    67
 72
    68
 73
    71
  0
VERTEX
  5
A38
  8
0
 62
     9
 10
0.0
 20
0.0
 30
0.0
 70
   128
 71
    67
 72
    71
 73
    70
  0
VERTEX
  5
A39
  8
0
 62
     9
 10
0.0
 20
0.0
 30
0.0
 70
   128
 71
    70
 72
    34
 73
    54
  0
VERTEX
  5
A3A
  8
0
 62
     9
 10
0.0
 20
0.0
 30
0.0
 70
   128
 71
    72
 72
    28
 73
    71
  0
VERTEX
  5
A3B
  8
0
 62
     9
 10
0.0
 20
0.0
 30
0.0
 70
   128
 71
    72
 72
    71
 73
    68
  0
VERTEX
  5
A3C
  8
0
 62
     9
 10
0.0
 20
0.0
 30
0.0
 70
   128
 71
    62
 72
    72
 73
    68
  0
VERTEX
  5
A3D
  8
0
 62
     9
 10
0.0
 20
0.0
 30
0.0
 70
   128
 71
    69
 72
    72
 73
    62
  0
VERTEX
  5
A3E
  8
0
 62
     9
 10
0.0
 20
0.0
 30
0.0
 70
   128
 71
    25
 72
    69
 73
    73
  0
VERTEX
  5
A3F
  8
0
 62
     9
 10
0.0
 20
0.0
 30
0.0
 70
   128
 71
    62
 72
    60
 73
    69
  0
VERTEX
  5
A40
  8
0
 62
     9
 10
0.0
 20
0.0
 30
0.0
 70
   128
 71
    73
 72
    60
 73
    58
  0
VERTEX
  5
A41
  8
0
 62
     9
 10
0.0
 20
0.0
 30
0.0
 70
   128
 71
    27
 72
    25
 73
    73
  0
VERTEX
  5
A42
  8
0
 62
     9
 10
0.0
 20
0.0
 30
0.0
 70
   128
 71
    28
 72
    72
 73
    23
  0
VERTEX
  5
A43
  8
0
 62
     9
 10
0.0
 20
0.0
 30
0.0
 70
   128
 71
    73
 72
    69
 73
    60
  0
VERTEX
  5
A44
  8
0
 62
     9
 10
0.0
 20
0.0
 30
0.0
 70
   128
 71
    72
 72
    69
 73
    23
  0
VERTEX
  5
A45
  8
0
 62
     9
 10
0.0
 20
0.0
 30
0.0
 70
   128
 71
    28
 72
    30
 73
    71
  0
VERTEX
  5
A46
  8
0
 62
     9
 10
0.0
 20
0.0
 30
0.0
 70
   128
 71
    35
 72
    71
 73
    30
  0
VERTEX
  5
A47
  8
0
 62
     9
 10
0.0
 20
0.0
 30
0.0
 70
   128
 71
    70
 72
    35
 73
    34
  0
VERTEX
  5
A48
  8
0
 62
     9
 10
0.0
 20
0.0
 30
0.0
 70
   128
 71
    70
 72
    71
 73
    35
  0
VERTEX
  5
A49
  8
0
 62
     9
 10
0.0
 20
0.0
 30
0.0
 70
   128
 71
    70
 72
    54
 73
    52
  0
SEQEND
  5
A4A
  8
0
 62
     9
  0
ENDBLK
  5
A4D
  8
0
  0
BLOCK
  8
0
  2
43
 70
     0
 10
0.0
 20
0.0
 30
0.0
  3
43
  1

  0
POLYLINE
  5
A4F
  8
0
 62
     9
 66
     1
 10
0.0
 20
0.0
 30
0.0
 70
    64
 71
    40
 72
    76
  0
VERTEX
  5
A50
  8
0
 10
8.986445426940918
 20
27.57151031494141
 30
54.5
 70
   192
  0
VERTEX
  5
A51
  8
0
 10
-0.0274059642106295
 20
28.99785995483398
 30
-13.5
 70
   192
  0
VERTEX
  5
A52
  8
0
 10
0.0274059642106295
 20
28.99785995483398
 30
54.5
 70
   192
  0
VERTEX
  5
A53
  8
0
 10
8.945735931396484
 20
27.58562088012695
 30
-13.5
 70
   192
  0
VERTEX
  5
A54
  8
0
 10
17.02231025695801
 20
23.47559547424316
 30
-13.5
 70
   192
  0
VERTEX
  5
A55
  8
0
 10
23.44807243347168
 20
17.06290435791016
 30
-13.5
 70
   192
  0
VERTEX
  5
A56
  8
0
 10
17.06503486633301
 20
23.44592094421387
 30
54.5
 70
   192
  0
VERTEX
  5
A57
  8
0
 10
27.59010314941406
 20
8.933308601379395
 30
54.5
 70
   192
  0
VERTEX
  5
A58
  8
0
 10
23.47336769104004
 20
17.02903938293457
 30
54.5
 70
   192
  0
VERTEX
  5
A59
  8
0
 10
28.99369812011719
 20
-0.0000039021169869
 30
54.5
 70
   192
  0
VERTEX
  5
A5A
  8
0
 10
27.57559776306152
 20
8.974906921386719
 30
-13.5
 70
   192
  0
VERTEX
  5
A5B
  8
0
 10
29.0
 20
0.0000000000000105
 30
-13.5
 70
   192
  0
VERTEX
  5
A5C
  8
0
 10
-8.986445426940918
 20
27.57151031494141
 30
-13.5
 70
   192
  0
VERTEX
  5
A5D
  8
0
 10
-17.02231025695801
 20
23.47559547424316
 30
54.5
 70
   192
  0
VERTEX
  5
A5E
  8
0
 10
-8.945735931396484
 20
27.58562088012695
 30
54.5
 70
   192
  0
VERTEX
  5
A5F
  8
0
 10
-17.06503486633301
 20
23.44592094421387
 30
-13.5
 70
   192
  0
VERTEX
  5
A60
  8
0
 10
-23.44807243347168
 20
17.06290435791016
 30
54.5
 70
   192
  0
VERTEX
  5
A61
  8
0
 10
-23.47336769104004
 20
17.02903938293457
 30
-13.5
 70
   192
  0
VERTEX
  5
A62
  8
0
 10
-27.59010314941406
 20
8.933308601379395
 30
-13.5
 70
   192
  0
VERTEX
  5
A63
  8
0
 10
-27.57559776306152
 20
8.974906921386719
 30
54.5
 70
   192
  0
VERTEX
  5
A64
  8
0
 10
-28.99369812011719
 20
-0.0000039021169869
 30
-13.5
 70
   192
  0
VERTEX
  5
A65
  8
0
 10
-29.0
 20
0.0000000000000069
 30
54.5
 70
   192
  0
VERTEX
  5
A66
  8
0
 10
23.47655296325684
 20
-17.01983451843262
 30
-13.5
 70
   192
  0
VERTEX
  5
A67
  8
0
 10
17.06192970275879
 20
-23.44940757751465
 30
-13.5
 70
   192
  0
VERTEX
  5
A68
  8
0
 10
8.977782249450684
 20
-27.57467842102051
 30
-13.5
 70
   192
  0
VERTEX
  5
A69
  8
0
 10
-17.02254104614258
 20
-23.47623252868652
 30
-13.5
 70
   192
  0
VERTEX
  5
A6A
  8
0
 10
-23.44796943664551
 20
-17.0633659362793
 30
-13.5
 70
   192
  0
VERTEX
  5
A6B
  8
0
 10
0.0298948362469673
 20
-28.99679565429688
 30
-13.5
 70
   192
  0
VERTEX
  5
A6C
  8
0
 10
27.58393096923828
 20
-8.951440811157227
 30
-13.5
 70
   192
  0
VERTEX
  5
A6D
  8
0
 10
-8.943320274353027
 20
-27.58764266967773
 30
-13.5
 70
   192
  0
VERTEX
  5
A6E
  8
0
 10
-27.56907653808594
 20
-8.993204116821289
 30
-13.5
 70
   192
  0
VERTEX
  5
A6F
  8
0
 10
27.56907653808594
 20
-8.993204116821289
 30
54.5
 70
   192
  0
VERTEX
  5
A70
  8
0
 10
8.943320274353027
 20
-27.58764266967773
 30
54.5
 70
   192
  0
VERTEX
  5
A71
  8
0
 10
-0.0298948362469673
 20
-28.99679565429688
 30
54.5
 70
   192
  0
VERTEX
  5
A72
  8
0
 10
23.44796943664551
 20
-17.0633659362793
 30
54.5
 70
   192
  0
VERTEX
  5
A73
  8
0
 10
-8.977782249450684
 20
-27.57467842102051
 30
54.5
 70
   192
  0
VERTEX
  5
A74
  8
0
 10
-17.06192970275879
 20
-23.44940757751465
 30
54.5
 70
   192
  0
VERTEX
  5
A75
  8
0
 10
-23.47655296325684
 20
-17.01983451843262
 30
54.5
 70
   192
  0
VERTEX
  5
A76
  8
0
 10
-27.58393096923828
 20
-8.951440811157227
 30
54.5
 70
   192
  0
VERTEX
  5
A77
  8
0
 10
17.02254104614258
 20
-23.47623252868652
 30
54.5
 70
   192
  0
VERTEX
  5
A78
  8
0
 62
     9
 10
0.0
 20
0.0
 30
0.0
 70
   128
 71
     3
 72
     2
 73
     1
  0
VERTEX
  5
A79
  8
0
 62
     9
 10
0.0
 20
0.0
 30
0.0
 70
   128
 71
     5
 72
     1
 73
     4
  0
VERTEX
  5
A7A
  8
0
 62
     9
 10
0.0
 20
0.0
 30
0.0
 70
   128
 71
     1
 72
     2
 73
     4
  0
VERTEX
  5
A7B
  8
0
 62
     9
 10
0.0
 20
0.0
 30
0.0
 70
   128
 71
     7
 72
     5
 73
     6
  0
VERTEX
  5
A7C
  8
0
 62
     9
 10
0.0
 20
0.0
 30
0.0
 70
   128
 71
     5
 72
     7
 73
     1
  0
VERTEX
  5
A7D
  8
0
 62
     9
 10
0.0
 20
0.0
 30
0.0
 70
   128
 71
     9
 72
     6
 73
     8
  0
VERTEX
  5
A7E
  8
0
 62
     9
 10
0.0
 20
0.0
 30
0.0
 70
   128
 71
     9
 72
     7
 73
     6
  0
VERTEX
  5
A7F
  8
0
 62
     9
 10
0.0
 20
0.0
 30
0.0
 70
   128
 71
    11
 72
    10
 73
     8
  0
VERTEX
  5
A80
  8
0
 62
     9
 10
0.0
 20
0.0
 30
0.0
 70
   128
 71
     8
 72
     6
 73
    11
  0
VERTEX
  5
A81
  8
0
 62
     9
 10
0.0
 20
0.0
 30
0.0
 70
   128
 71
    11
 72
    12
 73
    10
  0
VERTEX
  5
A82
  8
0
 62
     9
 10
0.0
 20
0.0
 30
0.0
 70
   128
 71
     2
 72
     3
 73
    13
  0
VERTEX
  5
A83
  8
0
 62
     9
 10
0.0
 20
0.0
 30
0.0
 70
   128
 71
    13
 72
    15
 73
    14
  0
VERTEX
  5
A84
  8
0
 62
     9
 10
0.0
 20
0.0
 30
0.0
 70
   128
 71
     3
 72
    15
 73
    13
  0
VERTEX
  5
A85
  8
0
 62
     9
 10
0.0
 20
0.0
 30
0.0
 70
   128
 71
    14
 72
    17
 73
    16
  0
VERTEX
  5
A86
  8
0
 62
     9
 10
0.0
 20
0.0
 30
0.0
 70
   128
 71
    16
 72
    13
 73
    14
  0
VERTEX
  5
A87
  8
0
 62
     9
 10
0.0
 20
0.0
 30
0.0
 70
   128
 71
    17
 72
    19
 73
    18
  0
VERTEX
  5
A88
  8
0
 62
     9
 10
0.0
 20
0.0
 30
0.0
 70
   128
 71
    16
 72
    17
 73
    18
  0
VERTEX
  5
A89
  8
0
 62
     9
 10
0.0
 20
0.0
 30
0.0
 70
   128
 71
    21
 72
    19
 73
    20
  0
VERTEX
  5
A8A
  8
0
 62
     9
 10
0.0
 20
0.0
 30
0.0
 70
   128
 71
    17
 72
    20
 73
    19
  0
VERTEX
  5
A8B
  8
0
 62
     9
 10
0.0
 20
0.0
 30
0.0
 70
   128
 71
    22
 72
    21
 73
    20
  0
VERTEX
  5
A8C
  8
0
 62
     9
 10
0.0
 20
0.0
 30
0.0
 70
   128
 71
    25
 72
    24
 73
    23
  0
VERTEX
  5
A8D
  8
0
 62
     9
 10
0.0
 20
0.0
 30
0.0
 70
   128
 71
    27
 72
    26
 73
     5
  0
VERTEX
  5
A8E
  8
0
 62
     9
 10
0.0
 20
0.0
 30
0.0
 70
   128
 71
    25
 72
    29
 73
    28
  0
VERTEX
  5
A8F
  8
0
 62
     9
 10
0.0
 20
0.0
 30
0.0
 70
   128
 71
    29
 72
    25
 73
    23
  0
VERTEX
  5
A90
  8
0
 62
     9
 10
0.0
 20
0.0
 30
0.0
 70
   128
 71
    29
 72
    12
 73
    28
  0
VERTEX
  5
A91
  8
0
 62
     9
 10
0.0
 20
0.0
 30
0.0
 70
   128
 71
    11
 72
     6
 73
    26
  0
VERTEX
  5
A92
  8
0
 62
     9
 10
0.0
 20
0.0
 30
0.0
 70
   128
 71
    28
 72
    11
 73
    30
  0
VERTEX
  5
A93
  8
0
 62
     9
 10
0.0
 20
0.0
 30
0.0
 70
   128
 71
    21
 72
     4
 73
     2
  0
VERTEX
  5
A94
  8
0
 62
     9
 10
0.0
 20
0.0
 30
0.0
 70
   128
 71
     4
 72
    31
 73
     5
  0
VERTEX
  5
A95
  8
0
 62
     9
 10
0.0
 20
0.0
 30
0.0
 70
   128
 71
    16
 72
    19
 73
    13
  0
VERTEX
  5
A96
  8
0
 62
     9
 10
0.0
 20
0.0
 30
0.0
 70
   128
 71
    13
 72
    19
 73
    21
  0
VERTEX
  5
A97
  8
0
 62
     9
 10
0.0
 20
0.0
 30
0.0
 70
   128
 71
    16
 72
    18
 73
    19
  0
VERTEX
  5
A98
  8
0
 62
     9
 10
0.0
 20
0.0
 30
0.0
 70
   128
 71
     4
 72
    21
 73
    31
  0
VERTEX
  5
A99
  8
0
 62
     9
 10
0.0
 20
0.0
 30
0.0
 70
   128
 71
    13
 72
    21
 73
     2
  0
VERTEX
  5
A9A
  8
0
 62
     9
 10
0.0
 20
0.0
 30
0.0
 70
   128
 71
     5
 72
    26
 73
     6
  0
VERTEX
  5
A9B
  8
0
 62
     9
 10
0.0
 20
0.0
 30
0.0
 70
   128
 71
    27
 72
     5
 73
    31
  0
VERTEX
  5
A9C
  8
0
 62
     9
 10
0.0
 20
0.0
 30
0.0
 70
   128
 71
    11
 72
    26
 73
    30
  0
VERTEX
  5
A9D
  8
0
 62
     9
 10
0.0
 20
0.0
 30
0.0
 70
   128
 71
    28
 72
    12
 73
    11
  0
VERTEX
  5
A9E
  8
0
 62
     9
 10
0.0
 20
0.0
 30
0.0
 70
   128
 71
    10
 72
    12
 73
    32
  0
VERTEX
  5
A9F
  8
0
 62
     9
 10
0.0
 20
0.0
 30
0.0
 70
   128
 71
    34
 72
    33
 73
    25
  0
VERTEX
  5
AA0
  8
0
 62
     9
 10
0.0
 20
0.0
 30
0.0
 70
   128
 71
    23
 72
    24
 73
    35
  0
VERTEX
  5
AA1
  8
0
 62
     9
 10
0.0
 20
0.0
 30
0.0
 70
   128
 71
    37
 72
    36
 73
    26
  0
VERTEX
  5
AA2
  8
0
 62
     9
 10
0.0
 20
0.0
 30
0.0
 70
   128
 71
    28
 72
    30
 73
    36
  0
VERTEX
  5
AA3
  8
0
 62
     9
 10
0.0
 20
0.0
 30
0.0
 70
   128
 71
    39
 72
    38
 73
    27
  0
VERTEX
  5
AA4
  8
0
 62
     9
 10
0.0
 20
0.0
 30
0.0
 70
   128
 71
    27
 72
    38
 73
    37
  0
VERTEX
  5
AA5
  8
0
 62
     9
 10
0.0
 20
0.0
 30
0.0
 70
   128
 71
    39
 72
    31
 73
    22
  0
VERTEX
  5
AA6
  8
0
 62
     9
 10
0.0
 20
0.0
 30
0.0
 70
   128
 71
    31
 72
    39
 73
    27
  0
VERTEX
  5
AA7
  8
0
 62
     9
 10
0.0
 20
0.0
 30
0.0
 70
   128
 71
    22
 72
    31
 73
    21
  0
VERTEX
  5
AA8
  8
0
 62
     9
 10
0.0
 20
0.0
 30
0.0
 70
   128
 71
    26
 72
    36
 73
    30
  0
VERTEX
  5
AA9
  8
0
 62
     9
 10
0.0
 20
0.0
 30
0.0
 70
   128
 71
    27
 72
    37
 73
    26
  0
VERTEX
  5
AAA
  8
0
 62
     9
 10
0.0
 20
0.0
 30
0.0
 70
   128
 71
    28
 72
    34
 73
    25
  0
VERTEX
  5
AAB
  8
0
 62
     9
 10
0.0
 20
0.0
 30
0.0
 70
   128
 71
    28
 72
    36
 73
    34
  0
VERTEX
  5
AAC
  8
0
 62
     9
 10
0.0
 20
0.0
 30
0.0
 70
   128
 71
    40
 72
    24
 73
    25
  0
VERTEX
  5
AAD
  8
0
 62
     9
 10
0.0
 20
0.0
 30
0.0
 70
   128
 71
    33
 72
    40
 73
    25
  0
VERTEX
  5
AAE
  8
0
 62
     9
 10
0.0
 20
0.0
 30
0.0
 70
   128
 71
    35
 72
    29
 73
    23
  0
VERTEX
  5
AAF
  8
0
 62
     9
 10
0.0
 20
0.0
 30
0.0
 70
   128
 71
    35
 72
    24
 73
    40
  0
VERTEX
  5
AB0
  8
0
 62
     9
 10
0.0
 20
0.0
 30
0.0
 70
   128
 71
    29
 72
    32
 73
    12
  0
VERTEX
  5
AB1
  8
0
 62
     9
 10
0.0
 20
0.0
 30
0.0
 70
   128
 71
    32
 72
    29
 73
    35
  0
VERTEX
  5
AB2
  8
0
 62
     9
 10
0.0
 20
0.0
 30
0.0
 70
   128
 71
    36
 72
    37
 73
    38
  0
VERTEX
  5
AB3
  8
0
 62
     9
 10
0.0
 20
0.0
 30
0.0
 70
   128
 71
    35
 72
    40
 73
    14
  0
VERTEX
  5
AB4
  8
0
 62
     9
 10
0.0
 20
0.0
 30
0.0
 70
   128
 71
    36
 72
    39
 73
    34
  0
VERTEX
  5
AB5
  8
0
 62
     9
 10
0.0
 20
0.0
 30
0.0
 70
   128
 71
    39
 72
    36
 73
    38
  0
VERTEX
  5
AB6
  8
0
 62
     9
 10
0.0
 20
0.0
 30
0.0
 70
   128
 71
    39
 72
    22
 73
    34
  0
VERTEX
  5
AB7
  8
0
 62
     9
 10
0.0
 20
0.0
 30
0.0
 70
   128
 71
    20
 72
    17
 73
    40
  0
VERTEX
  5
AB8
  8
0
 62
     9
 10
0.0
 20
0.0
 30
0.0
 70
   128
 71
    34
 72
    20
 73
    33
  0
VERTEX
  5
AB9
  8
0
 62
     9
 10
0.0
 20
0.0
 30
0.0
 70
   128
 71
    10
 72
    15
 73
     3
  0
VERTEX
  5
ABA
  8
0
 62
     9
 10
0.0
 20
0.0
 30
0.0
 70
   128
 71
    15
 72
    32
 73
    14
  0
VERTEX
  5
ABB
  8
0
 62
     9
 10
0.0
 20
0.0
 30
0.0
 70
   128
 71
     7
 72
     8
 73
     1
  0
VERTEX
  5
ABC
  8
0
 62
     9
 10
0.0
 20
0.0
 30
0.0
 70
   128
 71
     1
 72
     8
 73
    10
  0
VERTEX
  5
ABD
  8
0
 62
     9
 10
0.0
 20
0.0
 30
0.0
 70
   128
 71
     7
 72
     9
 73
     8
  0
VERTEX
  5
ABE
  8
0
 62
     9
 10
0.0
 20
0.0
 30
0.0
 70
   128
 71
    15
 72
    10
 73
    32
  0
VERTEX
  5
ABF
  8
0
 62
     9
 10
0.0
 20
0.0
 30
0.0
 70
   128
 71
     1
 72
    10
 73
     3
  0
VERTEX
  5
AC0
  8
0
 62
     9
 10
0.0
 20
0.0
 30
0.0
 70
   128
 71
    14
 72
    40
 73
    17
  0
VERTEX
  5
AC1
  8
0
 62
     9
 10
0.0
 20
0.0
 30
0.0
 70
   128
 71
    35
 72
    14
 73
    32
  0
VERTEX
  5
AC2
  8
0
 62
     9
 10
0.0
 20
0.0
 30
0.0
 70
   128
 71
    20
 72
    40
 73
    33
  0
VERTEX
  5
AC3
  8
0
 62
     9
 10
0.0
 20
0.0
 30
0.0
 70
   128
 71
    34
 72
    22
 73
    20
  0
SEQEND
  5
AC4
  8
0
 62
     9
  0
ENDBLK
  5
AC7
  8
0
  0
ENDSEC
  0
SECTION
  2
ENTITIES
  0
INSERT
  5
151
  8
LAYER_1
  2
38
 10
0.0
 20
0.0
 30
0.0
  0
INSERT
  5
682
  8
LAYER_1
  2
39
 10
0.0
 20
0.0
 30
0.0
  0
INSERT
  5
8AA
  8
LAYER_1
  2
40
 10
0.0
 20
0.0
 30
0.0
  0
INSERT
  5
978
  8
LAYER_1
  2
41
 10
0.0
 20
0.0
 30
0.0
  0
INSERT
  5
A4B
  8
LAYER_1
  2
42
 10
0.0
 20
0.0
 30
0.0
  0
INSERT
  5
AC5
  8
LAYER_1
  2
43
 10
0.0
 20
0.0
 30
0.0
  0
ENDSEC
  0
EOF
