  0
SECTION
  2
HEADER
  9
$ACADVER
  1
AC1009
  9
$DWGCODEPAGE
  3
ansi_1252
  9
$INSBASE
 10
0.0
 20
0.0
 30
0.0
  9
$EXTMIN
 10
1.000000000000000E+20
 20
1.000000000000000E+20
 30
1.000000000000000E+20
  9
$EXTMAX
 10
-1.000000000000000E+20
 20
-1.000000000000000E+20
 30
-1.000000000000000E+20
  9
$LIMMIN
 10
0.0
 20
0.0
  9
$LIMMAX
 10
12.0
 20
9.0
  9
$ORTHOMODE
 70
     0
  9
$REGENMODE
 70
     1
  9
$FILLMODE
 70
     1
  9
$QTEXTMODE
 70
     0
  9
$MIRRTEXT
 70
     1
  9
$DRAGMODE
 70
     2
  9
$LTSCALE
 40
1.0
  9
$OSMODE
 70
    37
  9
$ATTMODE
 70
     1
  9
$TEXTSIZE
 40
0.2
  9
$TRACEWID
 40
0.05
  9
$TEXTSTYLE
  7
STANDARD
  9
$CLAYER
  8
0
  9
$CELTYPE
  6
BYLAYER
  9
$CECOLOR
 62
   256
  9
$DIMSCALE
 40
1.0
  9
$DIMASZ
 40
0.18
  9
$DIMEXO
 40
0.0625
  9
$DIMDLI
 40
0.38
  9
$DIMRND
 40
0.0
  9
$DIMDLE
 40
0.0
  9
$DIMEXE
 40
0.18
  9
$DIMTP
 40
0.0
  9
$DIMTM
 40
0.0
  9
$DIMTXT
 40
0.18
  9
$DIMCEN
 40
0.09
  9
$DIMTSZ
 40
0.0
  9
$DIMTOL
 70
     0
  9
$DIMLIM
 70
     0
  9
$DIMTIH
 70
     1
  9
$DIMTOH
 70
     1
  9
$DIMSE1
 70
     0
  9
$DIMSE2
 70
     0
  9
$DIMTAD
 70
     0
  9
$DIMZIN
 70
     0
  9
$DIMBLK
  1

  9
$DIMASO
 70
     1
  9
$DIMSHO
 70
     1
  9
$DIMPOST
  1

  9
$DIMAPOST
  1

  9
$DIMALT
 70
     0
  9
$DIMALTD
 70
     2
  9
$DIMALTF
 40
25.4
  9
$DIMLFAC
 40
1.0
  9
$DIMTOFL
 70
     0
  9
$DIMTVP
 40
0.0
  9
$DIMTIX
 70
     0
  9
$DIMSOXD
 70
     0
  9
$DIMSAH
 70
     0
  9
$DIMBLK1
  1

  9
$DIMBLK2
  1

  9
$DIMSTYLE
  2
STANDARD
  9
$DIMCLRD
 70
     0
  9
$DIMCLRE
 70
     0
  9
$DIMCLRT
 70
     0
  9
$DIMTFAC
 40
1.0
  9
$DIMGAP
 40
0.09
  9
$LUNITS
 70
     2
  9
$LUPREC
 70
     4
  9
$SKETCHINC
 40
0.1
  9
$FILLETRAD
 40
0.5
  9
$AUNITS
 70
     0
  9
$AUPREC
 70
     0
  9
$MENU
  1
.
  9
$ELEVATION
 40
0.0
  9
$PELEVATION
 40
0.0
  9
$THICKNESS
 40
0.0
  9
$LIMCHECK
 70
     0
  9
$CHAMFERA
 40
0.5
  9
$CHAMFERB
 40
0.5
  9
$SKPOLY
 70
     0
  9
$TDCREATE
 40
2455580.576944051
  9
$TDUPDATE
 40
2455580.576944051
  9
$TDINDWG
 40
0.0000000116
  9
$TDUSRTIMER
 40
0.0000000116
  9
$USRTIMER
 70
     1
  9
$ANGBASE
 50
0.0
  9
$ANGDIR
 70
     0
  9
$PDMODE
 70
     0
  9
$PDSIZE
 40
0.0
  9
$PLINEWID
 40
0.0
  9
$COORDS
 70
     1
  9
$SPLFRAME
 70
     0
  9
$SPLINETYPE
 70
     6
  9
$SPLINESEGS
 70
     8
  9
$ATTDIA
 70
     0
  9
$ATTREQ
 70
     1
  9
$HANDLING
 70
     1
  9
$HANDSEED
  5
687
  9
$SURFTAB1
 70
     6
  9
$SURFTAB2
 70
     6
  9
$SURFTYPE
 70
     6
  9
$SURFU
 70
     6
  9
$SURFV
 70
     6
  9
$UCSNAME
  2

  9
$UCSORG
 10
0.0
 20
0.0
 30
0.0
  9
$UCSXDIR
 10
1.0
 20
0.0
 30
0.0
  9
$UCSYDIR
 10
0.0
 20
1.0
 30
0.0
  9
$PUCSNAME
  2

  9
$PUCSORG
 10
0.0
 20
0.0
 30
0.0
  9
$PUCSXDIR
 10
1.0
 20
0.0
 30
0.0
  9
$PUCSYDIR
 10
0.0
 20
1.0
 30
0.0
  9
$USERI1
 70
     0
  9
$USERI2
 70
     0
  9
$USERI3
 70
     0
  9
$USERI4
 70
     0
  9
$USERI5
 70
     0
  9
$USERR1
 40
0.0
  9
$USERR2
 40
0.0
  9
$USERR3
 40
0.0
  9
$USERR4
 40
0.0
  9
$USERR5
 40
0.0
  9
$WORLDVIEW
 70
     1
  9
$SHADEDGE
 70
     3
  9
$SHADEDIF
 70
    70
  9
$TILEMODE
 70
     1
  9
$MAXACTVP
 70
    64
  9
$PLIMCHECK
 70
     0
  9
$PEXTMIN
 10
1.000000000000000E+20
 20
1.000000000000000E+20
 30
1.000000000000000E+20
  9
$PEXTMAX
 10
-1.000000000000000E+20
 20
-1.000000000000000E+20
 30
-1.000000000000000E+20
  9
$PLIMMIN
 10
0.0
 20
0.0
  9
$PLIMMAX
 10
12.0
 20
9.0
  9
$UNITMODE
 70
     0
  9
$VISRETAIN
 70
     1
  9
$PLINEGEN
 70
     0
  9
$PSLTSCALE
 70
     1
  0
ENDSEC
  0
SECTION
  2
TABLES
  0
TABLE
  2
VPORT
 70
     1
  0
VPORT
  2
*ACTIVE
 70
     0
 10
0.0
 20
0.0
 11
1.0
 21
1.0
 12
0.0
 22
0.0
 13
0.0
 23
0.0
 14
0.5
 24
0.5
 15
0.5
 25
0.5
 16
734.4512329101562
 26
-734.4512329101562
 36
734.451171875
 17
35.0
 27
10.5
 37
310.10205078125
 40
657.0912818794592
 41
1.972972972850329
 42
50.0
 43
0.0
 44
0.0
 50
0.0
 51
0.0
 71
     0
 72
   100
 73
     1
 74
     3
 75
     0
 76
     0
 77
     0
 78
     0
  0
ENDTAB
  0
TABLE
  2
LTYPE
 70
     1
  0
LTYPE
  2
CONTINUOUS
 70
     0
  3
Solid line
 72
    65
 73
     0
 40
0.0
  0
ENDTAB
  0
TABLE
  2
LAYER
 70
     2
  0
LAYER
  2
0
 70
     0
 62
     7
  6
CONTINUOUS
  0
LAYER
  2
LAYER_1
 70
     0
 62
     7
  6
CONTINUOUS
  0
ENDTAB
  0
TABLE
  2
STYLE
 70
     1
  0
STYLE
  2
STANDARD
 70
     0
 40
0.0
 41
1.0
 50
0.0
 71
     0
 42
0.2
  3
txt
  4

  0
ENDTAB
  0
TABLE
  2
VIEW
 70
     0
  0
ENDTAB
  0
TABLE
  2
UCS
 70
     0
  0
ENDTAB
  0
TABLE
  2
APPID
 70
     1
  0
APPID
  2
ACAD
 70
     0
  0
ENDTAB
  0
TABLE
  2
DIMSTYLE
 70
     1
  0
DIMSTYLE
  2
STANDARD
 70
     0
  3

  4

  5

  6

  7

 40
1.0
 41
0.18
 42
0.0625
 43
0.38
 44
0.18
 45
0.0
 46
0.0
 47
0.0
 48
0.0
140
0.18
141
0.09
142
0.0
143
25.4
144
1.0
145
0.0
146
1.0
147
0.09
 71
     0
 72
     0
 73
     1
 74
     1
 75
     0
 76
     0
 77
     0
 78
     0
170
     0
171
     2
172
     0
173
     0
174
     0
175
     0
176
     0
177
     0
178
     0
  0
ENDTAB
  0
ENDSEC
  0
SECTION
  2
BLOCKS
  0
BLOCK
  8
0
  2
$MODEL_SPACE
 70
     0
 10
0.0
 20
0.0
 30
0.0
  3
$MODEL_SPACE
  1

  0
ENDBLK
  5
21
  8
0
  0
BLOCK
 67
     1
  8
0
  2
$PAPER_SPACE
 70
     0
 10
0.0
 20
0.0
 30
0.0
  3
$PAPER_SPACE
  1

  0
ENDBLK
  5
1D
 67
     1
  8
0
  0
BLOCK
  8
0
  2
38
 70
     0
 10
0.0
 20
0.0
 30
0.0
  3
38
  1

  0
POLYLINE
  5
3C
  8
0
 66
     1
 10
0.0
 20
0.0
 30
0.0
 70
    64
 71
   103
 72
   164
  0
VERTEX
  5
3D
  8
0
 10
44.44340515136719
 20
16.85000038146973
 30
327.2227478027344
 70
   192
  0
VERTEX
  5
3E
  8
0
 10
39.43473052978516
 20
16.85000038146973
 30
324.6727600097656
 70
   192
  0
VERTEX
  5
3F
  8
0
 10
43.96065139770508
 20
37.42851257324219
 30
327.0723571777344
 70
   192
  0
VERTEX
  5
40
  8
0
 10
50.0
 20
37.82357788085938
 30
292.10205078125
 70
   192
  0
VERTEX
  5
41
  8
0
 10
43.6604118347168
 20
39.65128326416016
 30
293.2554016113281
 70
   192
  0
VERTEX
  5
42
  8
0
 10
44.43032073974609
 20
16.85000038146973
 30
292.98583984375
 70
   192
  0
VERTEX
  5
43
  8
0
 10
35.42927551269531
 20
16.85000038146973
 30
299.5367736816406
 70
   192
  0
VERTEX
  5
44
  8
0
 10
39.41074752807617
 20
16.85000038146973
 30
295.5467529296875
 70
   192
  0
VERTEX
  5
45
  8
0
 10
38.34840393066406
 20
50.87308883666992
 30
296.3819580078125
 70
   192
  0
VERTEX
  5
46
  8
0
 10
32.0
 20
63.34999847412109
 30
310.10205078125
 70
   192
  0
VERTEX
  5
47
  8
0
 10
32.87880325317383
 20
16.85000038146973
 30
304.5485229492188
 70
   192
  0
VERTEX
  5
48
  8
0
 10
34.09637451171875
 20
63.34999847412109
 30
301.671875
 70
   192
  0
VERTEX
  5
49
  8
0
 10
39.41386032104492
 20
44.3516845703125
 30
295.5440979003906
 70
   192
  0
VERTEX
  5
4A
  8
0
 10
50.0
 20
16.85000038146973
 30
292.10205078125
 70
   192
  0
VERTEX
  5
4B
  8
0
 10
34.08901214599609
 20
63.34999847412109
 30
318.514404296875
 70
   192
  0
VERTEX
  5
4C
  8
0
 10
37.11622619628906
 20
46.89223098754883
 30
322.7009582519531
 70
   192
  0
VERTEX
  5
4D
  8
0
 10
35.44472503662109
 20
16.85000038146973
 30
320.6912841796875
 70
   192
  0
VERTEX
  5
4E
  8
0
 10
32.0
 20
16.85000038146973
 30
310.10205078125
 70
   192
  0
VERTEX
  5
4F
  8
0
 10
32.88379287719727
 20
16.85000038146973
 30
315.6717224121094
 70
   192
  0
VERTEX
  5
50
  8
0
 10
50.0
 20
35.93689727783203
 30
328.10205078125
 70
   192
  0
VERTEX
  5
51
  8
0
 10
39.46224212646484
 20
41.34333038330078
 30
324.7020263671875
 70
   192
  0
VERTEX
  5
52
  8
0
 10
50.0
 20
16.85000038146973
 30
328.10205078125
 70
   192
  0
VERTEX
  5
53
  8
0
 10
37.43185806274414
 20
53.21636199951172
 30
322.9740905761719
 70
   192
  0
VERTEX
  5
54
  8
0
 10
40.32361221313477
 20
58.4265251159668
 30
325.2544860839844
 70
   192
  0
VERTEX
  5
55
  8
0
 10
39.87067031860352
 20
63.34999847412109
 30
295.2257995605469
 70
   192
  0
VERTEX
  5
56
  8
0
 10
41.0
 20
56.94508361816406
 30
296.873291015625
 70
   192
  0
VERTEX
  5
57
  8
0
 10
33.88521957397461
 20
10.89999961853027
 30
307.2520141601562
 70
   192
  0
VERTEX
  5
58
  8
0
 10
33.88077926635742
 20
16.85000038146973
 30
312.9322204589844
 70
   192
  0
VERTEX
  5
59
  8
0
 10
33.88257598876953
 20
10.89999961853027
 30
312.9342956542969
 70
   192
  0
VERTEX
  5
5A
  8
0
 10
35.82107543945312
 20
16.85000038146973
 30
318.2741088867188
 70
   192
  0
VERTEX
  5
5B
  8
0
 10
35.81894683837891
 20
10.89999961853027
 30
318.2778930664062
 70
   192
  0
VERTEX
  5
5C
  8
0
 10
39.4710807800293
 20
10.89999961853027
 30
322.6389770507812
 70
   192
  0
VERTEX
  5
5D
  8
0
 10
39.4743766784668
 20
16.85000038146973
 30
322.6343994140625
 70
   192
  0
VERTEX
  5
5E
  8
0
 10
44.39553833007812
 20
10.89999961853027
 30
325.4412536621094
 70
   192
  0
VERTEX
  5
5F
  8
0
 10
44.39844131469727
 20
16.85000038146973
 30
325.4796142578125
 70
   192
  0
VERTEX
  5
60
  8
0
 10
50.0
 20
10.89999961853027
 30
326.4682312011719
 70
   192
  0
VERTEX
  5
61
  8
0
 10
50.0
 20
16.85000038146973
 30
326.4682312011719
 70
   192
  0
VERTEX
  5
62
  8
0
 10
33.88701629638672
 20
16.85000038146973
 30
307.2442016601562
 70
   192
  0
VERTEX
  5
63
  8
0
 10
35.83293151855469
 20
16.85000038146973
 30
301.9090270996094
 70
   192
  0
VERTEX
  5
64
  8
0
 10
35.84002304077148
 20
10.89999961853027
 30
301.9092102050781
 70
   192
  0
VERTEX
  5
65
  8
0
 10
39.48755645751953
 20
10.89999961853027
 30
297.5648193359375
 70
   192
  0
VERTEX
  5
66
  8
0
 10
39.49154663085938
 20
16.85000038146973
 30
297.5576477050781
 70
   192
  0
VERTEX
  5
67
  8
0
 10
44.4239501953125
 20
10.89999961853027
 30
294.79736328125
 70
   192
  0
VERTEX
  5
68
  8
0
 10
44.40702438354492
 20
16.85000038146973
 30
294.7214660644531
 70
   192
  0
VERTEX
  5
69
  8
0
 10
50.0
 20
16.85000038146973
 30
293.73583984375
 70
   192
  0
VERTEX
  5
6A
  8
0
 10
50.0
 20
10.89999961853027
 30
293.73583984375
 70
   192
  0
VERTEX
  5
6B
  8
0
 10
55.5760498046875
 20
10.89999961853027
 30
325.4067077636719
 70
   192
  0
VERTEX
  5
6C
  8
0
 10
66.11478424072266
 20
10.89999961853027
 30
312.9520568847656
 70
   192
  0
VERTEX
  5
6D
  8
0
 10
64.15997314453125
 20
10.89999961853027
 30
318.2948608398438
 70
   192
  0
VERTEX
  5
6E
  8
0
 10
66.11298370361328
 20
16.85000038146973
 30
312.9598693847656
 70
   192
  0
VERTEX
  5
6F
  8
0
 10
60.51244354248047
 20
10.89999961853027
 30
322.6392517089844
 70
   192
  0
VERTEX
  5
70
  8
0
 10
60.50845336914062
 20
16.85000038146973
 30
322.6464233398438
 70
   192
  0
VERTEX
  5
71
  8
0
 10
64.16706848144531
 20
16.85000038146973
 30
318.2950439453125
 70
   192
  0
VERTEX
  5
72
  8
0
 10
60.5256233215332
 20
16.85000038146973
 30
297.5696716308594
 70
   192
  0
VERTEX
  5
73
  8
0
 10
64.1810531616211
 20
10.89999961853027
 30
301.9261779785156
 70
   192
  0
VERTEX
  5
74
  8
0
 10
64.17892456054688
 20
16.85000038146973
 30
301.9299621582031
 70
   192
  0
VERTEX
  5
75
  8
0
 10
66.11922454833984
 20
16.85000038146973
 30
307.2718505859375
 70
   192
  0
VERTEX
  5
76
  8
0
 10
66.11742401123047
 20
10.89999961853027
 30
307.269775390625
 70
   192
  0
VERTEX
  5
77
  8
0
 10
55.60155868530273
 20
16.85000038146973
 30
294.7244567871094
 70
   192
  0
VERTEX
  5
78
  8
0
 10
55.60446166992188
 20
10.89999961853027
 30
294.7628173828125
 70
   192
  0
VERTEX
  5
79
  8
0
 10
60.5289192199707
 20
10.89999961853027
 30
297.5650939941406
 70
   192
  0
VERTEX
  5
7A
  8
0
 10
55.59297561645508
 20
16.85000038146973
 30
325.4826049804688
 70
   192
  0
VERTEX
  5
7B
  8
0
 10
60.13318634033203
 20
63.34999847412109
 30
295.20361328125
 70
   192
  0
VERTEX
  5
7C
  8
0
 10
65.65406799316406
 20
63.34999847412109
 30
318.9958190917969
 70
   192
  0
VERTEX
  5
7D
  8
0
 10
60.12932968139648
 20
63.34999847412109
 30
324.978271484375
 70
   192
  0
VERTEX
  5
7E
  8
0
 10
68.0
 20
63.34999847412109
 30
310.10205078125
 70
   192
  0
VERTEX
  5
7F
  8
0
 10
65.62528228759766
 20
63.34999847412109
 30
301.1820983886719
 70
   192
  0
VERTEX
  5
80
  8
0
 10
37.93401336669922
 20
53.8629264831543
 30
320.5610961914062
 70
   192
  0
VERTEX
  5
81
  8
0
 10
37.24996948242188
 20
47.5482177734375
 30
319.7522583007812
 70
   192
  0
VERTEX
  5
82
  8
0
 10
39.33398818969727
 20
41.75309753417969
 30
322.0435485839844
 70
   192
  0
VERTEX
  5
83
  8
0
 10
43.81977844238281
 20
37.8021354675293
 30
324.7465209960938
 70
   192
  0
VERTEX
  5
84
  8
0
 10
60.56296539306641
 20
41.7525520324707
 30
322.0760803222656
 70
   192
  0
VERTEX
  5
85
  8
0
 10
60.54615020751953
 20
41.35483551025391
 30
324.6960144042969
 70
   192
  0
VERTEX
  5
86
  8
0
 10
56.20664596557617
 20
37.66493606567383
 30
324.8275451660156
 70
   192
  0
VERTEX
  5
87
  8
0
 10
49.95235824584961
 20
36.04180145263672
 30
326.1019592285156
 70
   192
  0
VERTEX
  5
88
  8
0
 10
62.77123641967773
 20
46.96669769287109
 30
322.7727966308594
 70
   192
  0
VERTEX
  5
89
  8
0
 10
62.48292922973633
 20
53.16987991333008
 30
323.0476989746094
 70
   192
  0
VERTEX
  5
8A
  8
0
 10
62.74106216430664
 20
47.4826774597168
 30
319.763427734375
 70
   192
  0
VERTEX
  5
8B
  8
0
 10
62.17890167236328
 20
53.90964508056641
 30
320.5149536132812
 70
   192
  0
VERTEX
  5
8C
  8
0
 10
55.98654937744141
 20
37.57644271850586
 30
326.9757690429688
 70
   192
  0
VERTEX
  5
8D
  8
0
 10
61.39773941040039
 20
52.17236328125
 30
296.1806640625
 70
   192
  0
VERTEX
  5
8E
  8
0
 10
61.37935256958008
 20
52.3454704284668
 30
298.8755187988281
 70
   192
  0
VERTEX
  5
8F
  8
0
 10
61.62711334228516
 20
46.88950729370117
 30
299.0921630859375
 70
   192
  0
VERTEX
  5
90
  8
0
 10
44.66950988769531
 20
38.96559143066406
 30
295.0300903320312
 70
   192
  0
VERTEX
  5
91
  8
0
 10
40.62567520141602
 20
42.19169616699219
 30
297.1551208496094
 70
   192
  0
VERTEX
  5
92
  8
0
 10
55.18314361572266
 20
39.00755310058594
 30
292.8564147949219
 70
   192
  0
VERTEX
  5
93
  8
0
 10
50.02392196655273
 20
37.71878433227539
 30
294.10205078125
 70
   192
  0
VERTEX
  5
94
  8
0
 10
38.43619918823242
 20
46.92715072631836
 30
299.0589599609375
 70
   192
  0
VERTEX
  5
95
  8
0
 10
38.52694320678711
 20
52.40943145751953
 30
298.9248046875
 70
   192
  0
VERTEX
  5
96
  8
0
 10
59.19968414306641
 20
42.18891143798828
 30
294.6222229003906
 70
   192
  0
VERTEX
  5
97
  8
0
 10
55.29389190673828
 20
39.06554794311523
 30
295.0850830078125
 70
   192
  0
VERTEX
  5
98
  8
0
 10
61.45972442626953
 20
46.82382965087891
 30
296.2079162597656
 70
   192
  0
VERTEX
  5
99
  8
0
 10
59.3763313293457
 20
42.20235061645508
 30
297.12744140625
 70
   192
  0
VERTEX
  5
9A
  8
0
 10
59.0
 20
56.94508361816406
 30
296.873291015625
 70
   192
  0
VERTEX
  5
9B
  8
0
 10
55.56929397583008
 20
16.85000038146973
 30
327.2185668945312
 70
   192
  0
VERTEX
  5
9C
  8
0
 10
55.55382537841797
 20
16.85000038146973
 30
292.9810791015625
 70
   192
  0
VERTEX
  5
9D
  8
0
 10
60.56743240356445
 20
16.85000038146973
 30
295.5321044921875
 70
   192
  0
VERTEX
  5
9E
  8
0
 10
60.59017562866211
 20
16.85000038146973
 30
324.6561279296875
 70
   192
  0
VERTEX
  5
9F
  8
0
 10
64.56993865966797
 20
16.85000038146973
 30
320.6694641113281
 70
   192
  0
VERTEX
  5
A0
  8
0
 10
67.12120056152344
 20
16.85000038146973
 30
315.6534729003906
 70
   192
  0
VERTEX
  5
A1
  8
0
 10
68.0
 20
16.85000038146973
 30
310.10205078125
 70
   192
  0
VERTEX
  5
A2
  8
0
 10
67.11651611328125
 20
16.85000038146973
 30
304.5327453613281
 70
   192
  0
VERTEX
  5
A3
  8
0
 10
64.5540771484375
 20
16.85000038146973
 30
299.5118713378906
 70
   192
  0
VERTEX
  5
A4
  8
0
 62
     9
 10
0.0
 20
0.0
 30
0.0
 70
   128
 71
     3
 72
     2
 73
     1
  0
VERTEX
  5
A5
  8
0
 62
     9
 10
0.0
 20
0.0
 30
0.0
 70
   128
 71
     6
 72
     5
 73
     4
  0
VERTEX
  5
A6
  8
0
 62
     9
 10
0.0
 20
0.0
 30
0.0
 70
   128
 71
     9
 72
     8
 73
     7
  0
VERTEX
  5
A7
  8
0
 62
     9
 10
0.0
 20
0.0
 30
0.0
 70
   128
 71
    12
 72
    11
 73
    10
  0
VERTEX
  5
A8
  8
0
 62
     9
 10
0.0
 20
0.0
 30
0.0
 70
   128
 71
     5
 72
     8
 73
    13
  0
VERTEX
  5
A9
  8
0
 62
     9
 10
0.0
 20
0.0
 30
0.0
 70
   128
 71
    14
 72
     6
 73
     4
  0
VERTEX
  5
AA
  8
0
 62
     9
 10
0.0
 20
0.0
 30
0.0
 70
   128
 71
     5
 72
     6
 73
     8
  0
VERTEX
  5
AB
  8
0
 62
     9
 10
0.0
 20
0.0
 30
0.0
 70
   128
 71
    13
 72
     8
 73
     9
  0
VERTEX
  5
AC
  8
0
 62
     9
 10
0.0
 20
0.0
 30
0.0
 70
   128
 71
    17
 72
    16
 73
    15
  0
VERTEX
  5
AD
  8
0
 62
     9
 10
0.0
 20
0.0
 30
0.0
 70
   128
 71
    19
 72
    10
 73
    18
  0
VERTEX
  5
AE
  8
0
 62
     9
 10
0.0
 20
0.0
 30
0.0
 70
   128
 71
    20
 72
     3
 73
     1
  0
VERTEX
  5
AF
  8
0
 62
     9
 10
0.0
 20
0.0
 30
0.0
 70
   128
 71
    21
 72
    16
 73
     2
  0
VERTEX
  5
B0
  8
0
 62
     9
 10
0.0
 20
0.0
 30
0.0
 70
   128
 71
     2
 72
     3
 73
    21
  0
VERTEX
  5
B1
  8
0
 62
     9
 10
0.0
 20
0.0
 30
0.0
 70
   128
 71
    22
 72
    20
 73
     1
  0
VERTEX
  5
B2
  8
0
 62
     9
 10
0.0
 20
0.0
 30
0.0
 70
   128
 71
    10
 72
    11
 73
    18
  0
VERTEX
  5
B3
  8
0
 62
     9
 10
0.0
 20
0.0
 30
0.0
 70
   128
 71
    15
 72
    16
 73
    23
  0
VERTEX
  5
B4
  8
0
 62
     9
 10
0.0
 20
0.0
 30
0.0
 70
   128
 71
    10
 72
    19
 73
    15
  0
VERTEX
  5
B5
  8
0
 62
     9
 10
0.0
 20
0.0
 30
0.0
 70
   128
 71
    19
 72
    17
 73
    15
  0
VERTEX
  5
B6
  8
0
 62
     9
 10
0.0
 20
0.0
 30
0.0
 70
   128
 71
     2
 72
    16
 73
    17
  0
VERTEX
  5
B7
  8
0
 62
     9
 10
0.0
 20
0.0
 30
0.0
 70
   128
 71
    15
 72
    23
 73
    24
  0
VERTEX
  5
B8
  8
0
 62
     9
 10
0.0
 20
0.0
 30
0.0
 70
   128
 71
    12
 72
     9
 73
     7
  0
VERTEX
  5
B9
  8
0
 62
     9
 10
0.0
 20
0.0
 30
0.0
 70
   128
 71
    12
 72
     7
 73
    11
  0
VERTEX
  5
BA
  8
0
 62
     9
 10
0.0
 20
0.0
 30
0.0
 70
   128
 71
    25
 72
     9
 73
    12
  0
VERTEX
  5
BB
  8
0
 62
     9
 10
0.0
 20
0.0
 30
0.0
 70
   128
 71
    25
 72
    26
 73
     9
  0
VERTEX
  5
BC
  8
0
 62
     9
 10
0.0
 20
0.0
 30
0.0
 70
   128
 71
    29
 72
    28
 73
    27
  0
VERTEX
  5
BD
  8
0
 62
     9
 10
0.0
 20
0.0
 30
0.0
 70
   128
 71
    29
 72
    31
 73
    30
  0
VERTEX
  5
BE
  8
0
 62
     9
 10
0.0
 20
0.0
 30
0.0
 70
   128
 71
    30
 72
    28
 73
    29
  0
VERTEX
  5
BF
  8
0
 62
     9
 10
0.0
 20
0.0
 30
0.0
 70
   128
 71
    33
 72
    31
 73
    32
  0
VERTEX
  5
C0
  8
0
 62
     9
 10
0.0
 20
0.0
 30
0.0
 70
   128
 71
    31
 72
    33
 73
    30
  0
VERTEX
  5
C1
  8
0
 62
     9
 10
0.0
 20
0.0
 30
0.0
 70
   128
 71
    35
 72
    33
 73
    34
  0
VERTEX
  5
C2
  8
0
 62
     9
 10
0.0
 20
0.0
 30
0.0
 70
   128
 71
    32
 72
    34
 73
    33
  0
VERTEX
  5
C3
  8
0
 62
     9
 10
0.0
 20
0.0
 30
0.0
 70
   128
 71
    35
 72
    34
 73
    36
  0
VERTEX
  5
C4
  8
0
 62
     9
 10
0.0
 20
0.0
 30
0.0
 70
   128
 71
    37
 72
    35
 73
    36
  0
VERTEX
  5
C5
  8
0
 62
     9
 10
0.0
 20
0.0
 30
0.0
 70
   128
 71
    28
 72
    38
 73
    27
  0
VERTEX
  5
C6
  8
0
 62
     9
 10
0.0
 20
0.0
 30
0.0
 70
   128
 71
    40
 72
    38
 73
    39
  0
VERTEX
  5
C7
  8
0
 62
     9
 10
0.0
 20
0.0
 30
0.0
 70
   128
 71
    38
 72
    40
 73
    27
  0
VERTEX
  5
C8
  8
0
 62
     9
 10
0.0
 20
0.0
 30
0.0
 70
   128
 71
    42
 72
    41
 73
    39
  0
VERTEX
  5
C9
  8
0
 62
     9
 10
0.0
 20
0.0
 30
0.0
 70
   128
 71
    40
 72
    39
 73
    41
  0
VERTEX
  5
CA
  8
0
 62
     9
 10
0.0
 20
0.0
 30
0.0
 70
   128
 71
    44
 72
    43
 73
    41
  0
VERTEX
  5
CB
  8
0
 62
     9
 10
0.0
 20
0.0
 30
0.0
 70
   128
 71
    41
 72
    42
 73
    44
  0
VERTEX
  5
CC
  8
0
 62
     9
 10
0.0
 20
0.0
 30
0.0
 70
   128
 71
    45
 72
    43
 73
    44
  0
VERTEX
  5
CD
  8
0
 62
     9
 10
0.0
 20
0.0
 30
0.0
 70
   128
 71
    45
 72
    46
 73
    43
  0
VERTEX
  5
CE
  8
0
 62
     9
 10
0.0
 20
0.0
 30
0.0
 70
   128
 71
    37
 72
    36
 73
    47
  0
VERTEX
  5
CF
  8
0
 62
     9
 10
0.0
 20
0.0
 30
0.0
 70
   128
 71
    50
 72
    49
 73
    48
  0
VERTEX
  5
D0
  8
0
 62
     9
 10
0.0
 20
0.0
 30
0.0
 70
   128
 71
    53
 72
    52
 73
    51
  0
VERTEX
  5
D1
  8
0
 62
     9
 10
0.0
 20
0.0
 30
0.0
 70
   128
 71
    56
 72
    55
 73
    54
  0
VERTEX
  5
D2
  8
0
 62
     9
 10
0.0
 20
0.0
 30
0.0
 70
   128
 71
    58
 72
    56
 73
    57
  0
VERTEX
  5
D3
  8
0
 62
     9
 10
0.0
 20
0.0
 30
0.0
 70
   128
 71
    54
 72
    60
 73
    59
  0
VERTEX
  5
D4
  8
0
 62
     9
 10
0.0
 20
0.0
 30
0.0
 70
   128
 71
    60
 72
    54
 73
    61
  0
VERTEX
  5
D5
  8
0
 62
     9
 10
0.0
 20
0.0
 30
0.0
 70
   128
 71
    45
 72
    59
 73
    46
  0
VERTEX
  5
D6
  8
0
 62
     9
 10
0.0
 20
0.0
 30
0.0
 70
   128
 71
    60
 72
    46
 73
    59
  0
VERTEX
  5
D7
  8
0
 62
     9
 10
0.0
 20
0.0
 30
0.0
 70
   128
 71
    56
 72
    58
 73
    55
  0
VERTEX
  5
D8
  8
0
 62
     9
 10
0.0
 20
0.0
 30
0.0
 70
   128
 71
    55
 72
    61
 73
    54
  0
VERTEX
  5
D9
  8
0
 62
     9
 10
0.0
 20
0.0
 30
0.0
 70
   128
 71
    50
 72
    48
 73
    57
  0
VERTEX
  5
DA
  8
0
 62
     9
 10
0.0
 20
0.0
 30
0.0
 70
   128
 71
    48
 72
    58
 73
    57
  0
VERTEX
  5
DB
  8
0
 62
     9
 10
0.0
 20
0.0
 30
0.0
 70
   128
 71
    53
 72
    51
 73
    49
  0
VERTEX
  5
DC
  8
0
 62
     9
 10
0.0
 20
0.0
 30
0.0
 70
   128
 71
    53
 72
    49
 73
    50
  0
VERTEX
  5
DD
  8
0
 62
     9
 10
0.0
 20
0.0
 30
0.0
 70
   128
 71
    62
 72
    47
 73
    51
  0
VERTEX
  5
DE
  8
0
 62
     9
 10
0.0
 20
0.0
 30
0.0
 70
   128
 71
    62
 72
    51
 73
    52
  0
VERTEX
  5
DF
  8
0
 62
     9
 10
0.0
 20
0.0
 30
0.0
 70
   128
 71
    47
 72
    62
 73
    37
  0
VERTEX
  5
E0
  8
0
 62
     9
 10
0.0
 20
0.0
 30
0.0
 70
   128
 71
    24
 72
    25
 73
    12
  0
VERTEX
  5
E1
  8
0
 62
     9
 10
0.0
 20
0.0
 30
0.0
 70
   128
 71
    24
 72
    10
 73
    15
  0
VERTEX
  5
E2
  8
0
 62
     9
 10
0.0
 20
0.0
 30
0.0
 70
   128
 71
    12
 72
    10
 73
    24
  0
VERTEX
  5
E3
  8
0
 62
     9
 10
0.0
 20
0.0
 30
0.0
 70
   128
 71
    65
 72
    64
 73
    63
  0
VERTEX
  5
E4
  8
0
 62
     9
 10
0.0
 20
0.0
 30
0.0
 70
   128
 71
    66
 72
    63
 73
    64
  0
VERTEX
  5
E5
  8
0
 62
     9
 10
0.0
 20
0.0
 30
0.0
 70
   128
 71
    66
 72
    67
 73
    63
  0
VERTEX
  5
E6
  8
0
 62
     9
 10
0.0
 20
0.0
 30
0.0
 70
   128
 71
    23
 72
    69
 73
    68
  0
VERTEX
  5
E7
  8
0
 62
     9
 10
0.0
 20
0.0
 30
0.0
 70
   128
 71
    21
 72
    71
 73
    70
  0
VERTEX
  5
E8
  8
0
 62
     9
 10
0.0
 20
0.0
 30
0.0
 70
   128
 71
    74
 72
    73
 73
    72
  0
VERTEX
  5
E9
  8
0
 62
     9
 10
0.0
 20
0.0
 30
0.0
 70
   128
 71
    75
 72
    71
 73
     3
  0
VERTEX
  5
EA
  8
0
 62
     9
 10
0.0
 20
0.0
 30
0.0
 70
   128
 71
    72
 72
    73
 73
    76
  0
VERTEX
  5
EB
  8
0
 62
     9
 10
0.0
 20
0.0
 30
0.0
 70
   128
 71
    78
 72
    76
 73
    77
  0
VERTEX
  5
EC
  8
0
 62
     9
 10
0.0
 20
0.0
 30
0.0
 70
   128
 71
    72
 72
    76
 73
    78
  0
VERTEX
  5
ED
  8
0
 62
     9
 10
0.0
 20
0.0
 30
0.0
 70
   128
 71
    65
 72
    79
 73
    77
  0
VERTEX
  5
EE
  8
0
 62
     9
 10
0.0
 20
0.0
 30
0.0
 70
   128
 71
    78
 72
    77
 73
    79
  0
VERTEX
  5
EF
  8
0
 62
     9
 10
0.0
 20
0.0
 30
0.0
 70
   128
 71
    70
 72
    16
 73
    21
  0
VERTEX
  5
F0
  8
0
 62
     9
 10
0.0
 20
0.0
 30
0.0
 70
   128
 71
    70
 72
    69
 73
    16
  0
VERTEX
  5
F1
  8
0
 62
     9
 10
0.0
 20
0.0
 30
0.0
 70
   128
 71
    75
 72
    20
 73
    80
  0
VERTEX
  5
F2
  8
0
 62
     9
 10
0.0
 20
0.0
 30
0.0
 70
   128
 71
    74
 72
    80
 73
    73
  0
VERTEX
  5
F3
  8
0
 62
     9
 10
0.0
 20
0.0
 30
0.0
 70
   128
 71
     3
 72
    71
 73
    21
  0
VERTEX
  5
F4
  8
0
 62
     9
 10
0.0
 20
0.0
 30
0.0
 70
   128
 71
    74
 72
    75
 73
    80
  0
VERTEX
  5
F5
  8
0
 62
     9
 10
0.0
 20
0.0
 30
0.0
 70
   128
 71
    20
 72
    75
 73
     3
  0
VERTEX
  5
F6
  8
0
 62
     9
 10
0.0
 20
0.0
 30
0.0
 70
   128
 71
    68
 72
    24
 73
    23
  0
VERTEX
  5
F7
  8
0
 62
     9
 10
0.0
 20
0.0
 30
0.0
 70
   128
 71
    69
 72
    23
 73
    16
  0
VERTEX
  5
F8
  8
0
 62
     9
 10
0.0
 20
0.0
 30
0.0
 70
   128
 71
    83
 72
    82
 73
    81
  0
VERTEX
  5
F9
  8
0
 62
     9
 10
0.0
 20
0.0
 30
0.0
 70
   128
 71
     5
 72
    85
 73
    84
  0
VERTEX
  5
FA
  8
0
 62
     9
 10
0.0
 20
0.0
 30
0.0
 70
   128
 71
     4
 72
    87
 73
    86
  0
VERTEX
  5
FB
  8
0
 62
     9
 10
0.0
 20
0.0
 30
0.0
 70
   128
 71
    88
 72
    85
 73
    13
  0
VERTEX
  5
FC
  8
0
 62
     9
 10
0.0
 20
0.0
 30
0.0
 70
   128
 71
     5
 72
    13
 73
    85
  0
VERTEX
  5
FD
  8
0
 62
     9
 10
0.0
 20
0.0
 30
0.0
 70
   128
 71
     9
 72
    88
 73
    13
  0
VERTEX
  5
FE
  8
0
 62
     9
 10
0.0
 20
0.0
 30
0.0
 70
   128
 71
    89
 72
     9
 73
    26
  0
VERTEX
  5
FF
  8
0
 62
     9
 10
0.0
 20
0.0
 30
0.0
 70
   128
 71
     9
 72
    89
 73
    88
  0
VERTEX
  5
100
  8
0
 62
     9
 10
0.0
 20
0.0
 30
0.0
 70
   128
 71
    91
 72
    90
 73
    86
  0
VERTEX
  5
101
  8
0
 62
     9
 10
0.0
 20
0.0
 30
0.0
 70
   128
 71
    93
 72
    83
 73
    92
  0
VERTEX
  5
102
  8
0
 62
     9
 10
0.0
 20
0.0
 30
0.0
 70
   128
 71
    90
 72
    93
 73
    92
  0
VERTEX
  5
103
  8
0
 62
     9
 10
0.0
 20
0.0
 30
0.0
 70
   128
 71
    93
 72
    90
 73
    91
  0
VERTEX
  5
104
  8
0
 62
     9
 10
0.0
 20
0.0
 30
0.0
 70
   128
 71
    84
 72
    87
 73
     4
  0
VERTEX
  5
105
  8
0
 62
     9
 10
0.0
 20
0.0
 30
0.0
 70
   128
 71
    84
 72
     4
 73
     5
  0
VERTEX
  5
106
  8
0
 62
     9
 10
0.0
 20
0.0
 30
0.0
 70
   128
 71
    87
 72
    91
 73
    86
  0
VERTEX
  5
107
  8
0
 62
     9
 10
0.0
 20
0.0
 30
0.0
 70
   128
 71
    82
 72
    94
 73
    81
  0
VERTEX
  5
108
  8
0
 62
     9
 10
0.0
 20
0.0
 30
0.0
 70
   128
 71
    83
 72
    81
 73
    92
  0
VERTEX
  5
109
  8
0
 62
     9
 10
0.0
 20
0.0
 30
0.0
 70
   128
 71
    62
 72
    95
 73
    37
  0
VERTEX
  5
10A
  8
0
 62
     9
 10
0.0
 20
0.0
 30
0.0
 70
   128
 71
     6
 72
    45
 73
    44
  0
VERTEX
  5
10B
  8
0
 62
     9
 10
0.0
 20
0.0
 30
0.0
 70
   128
 71
    45
 72
     6
 73
    14
  0
VERTEX
  5
10C
  8
0
 62
     9
 10
0.0
 20
0.0
 30
0.0
 70
   128
 71
    96
 72
    45
 73
    14
  0
VERTEX
  5
10D
  8
0
 62
     9
 10
0.0
 20
0.0
 30
0.0
 70
   128
 71
    54
 72
    59
 73
    97
  0
VERTEX
  5
10E
  8
0
 62
     9
 10
0.0
 20
0.0
 30
0.0
 70
   128
 71
    44
 72
    42
 73
     8
  0
VERTEX
  5
10F
  8
0
 62
     9
 10
0.0
 20
0.0
 30
0.0
 70
   128
 71
    44
 72
     8
 73
     6
  0
VERTEX
  5
110
  8
0
 62
     9
 10
0.0
 20
0.0
 30
0.0
 70
   128
 71
    42
 72
    39
 73
     7
  0
VERTEX
  5
111
  8
0
 62
     9
 10
0.0
 20
0.0
 30
0.0
 70
   128
 71
    42
 72
     7
 73
     8
  0
VERTEX
  5
112
  8
0
 62
     9
 10
0.0
 20
0.0
 30
0.0
 70
   128
 71
    39
 72
    38
 73
    11
  0
VERTEX
  5
113
  8
0
 62
     9
 10
0.0
 20
0.0
 30
0.0
 70
   128
 71
    39
 72
    11
 73
     7
  0
VERTEX
  5
114
  8
0
 62
     9
 10
0.0
 20
0.0
 30
0.0
 70
   128
 71
    38
 72
    28
 73
    18
  0
VERTEX
  5
115
  8
0
 62
     9
 10
0.0
 20
0.0
 30
0.0
 70
   128
 71
    38
 72
    18
 73
    11
  0
VERTEX
  5
116
  8
0
 62
     9
 10
0.0
 20
0.0
 30
0.0
 70
   128
 71
    28
 72
    30
 73
    19
  0
VERTEX
  5
117
  8
0
 62
     9
 10
0.0
 20
0.0
 30
0.0
 70
   128
 71
    28
 72
    19
 73
    18
  0
VERTEX
  5
118
  8
0
 62
     9
 10
0.0
 20
0.0
 30
0.0
 70
   128
 71
    30
 72
    33
 73
    17
  0
VERTEX
  5
119
  8
0
 62
     9
 10
0.0
 20
0.0
 30
0.0
 70
   128
 71
    30
 72
    17
 73
    19
  0
VERTEX
  5
11A
  8
0
 62
     9
 10
0.0
 20
0.0
 30
0.0
 70
   128
 71
    33
 72
    35
 73
     2
  0
VERTEX
  5
11B
  8
0
 62
     9
 10
0.0
 20
0.0
 30
0.0
 70
   128
 71
    33
 72
     2
 73
    17
  0
VERTEX
  5
11C
  8
0
 62
     9
 10
0.0
 20
0.0
 30
0.0
 70
   128
 71
    35
 72
    37
 73
     1
  0
VERTEX
  5
11D
  8
0
 62
     9
 10
0.0
 20
0.0
 30
0.0
 70
   128
 71
    35
 72
     1
 73
     2
  0
VERTEX
  5
11E
  8
0
 62
     9
 10
0.0
 20
0.0
 30
0.0
 70
   128
 71
    22
 72
    37
 73
    95
  0
VERTEX
  5
11F
  8
0
 62
     9
 10
0.0
 20
0.0
 30
0.0
 70
   128
 71
    37
 72
    22
 73
     1
  0
VERTEX
  5
120
  8
0
 62
     9
 10
0.0
 20
0.0
 30
0.0
 70
   128
 71
    62
 72
    52
 73
    98
  0
VERTEX
  5
121
  8
0
 62
     9
 10
0.0
 20
0.0
 30
0.0
 70
   128
 71
    62
 72
    98
 73
    95
  0
VERTEX
  5
122
  8
0
 62
     9
 10
0.0
 20
0.0
 30
0.0
 70
   128
 71
    52
 72
    53
 73
    99
  0
VERTEX
  5
123
  8
0
 62
     9
 10
0.0
 20
0.0
 30
0.0
 70
   128
 71
    52
 72
    99
 73
    98
  0
VERTEX
  5
124
  8
0
 62
     9
 10
0.0
 20
0.0
 30
0.0
 70
   128
 71
    53
 72
    50
 73
   100
  0
VERTEX
  5
125
  8
0
 62
     9
 10
0.0
 20
0.0
 30
0.0
 70
   128
 71
    53
 72
   100
 73
    99
  0
VERTEX
  5
126
  8
0
 62
     9
 10
0.0
 20
0.0
 30
0.0
 70
   128
 71
    50
 72
    57
 73
   101
  0
VERTEX
  5
127
  8
0
 62
     9
 10
0.0
 20
0.0
 30
0.0
 70
   128
 71
    50
 72
   101
 73
   100
  0
VERTEX
  5
128
  8
0
 62
     9
 10
0.0
 20
0.0
 30
0.0
 70
   128
 71
    57
 72
    56
 73
   102
  0
VERTEX
  5
129
  8
0
 62
     9
 10
0.0
 20
0.0
 30
0.0
 70
   128
 71
    57
 72
   102
 73
   101
  0
VERTEX
  5
12A
  8
0
 62
     9
 10
0.0
 20
0.0
 30
0.0
 70
   128
 71
    56
 72
    54
 73
   103
  0
VERTEX
  5
12B
  8
0
 62
     9
 10
0.0
 20
0.0
 30
0.0
 70
   128
 71
    56
 72
   103
 73
   102
  0
VERTEX
  5
12C
  8
0
 62
     9
 10
0.0
 20
0.0
 30
0.0
 70
   128
 71
    54
 72
    97
 73
   103
  0
VERTEX
  5
12D
  8
0
 62
     9
 10
0.0
 20
0.0
 30
0.0
 70
   128
 71
    96
 72
    59
 73
    45
  0
VERTEX
  5
12E
  8
0
 62
     9
 10
0.0
 20
0.0
 30
0.0
 70
   128
 71
    59
 72
    96
 73
    97
  0
VERTEX
  5
12F
  8
0
 62
     9
 10
0.0
 20
0.0
 30
0.0
 70
   128
 71
    14
 72
     4
 73
    86
  0
VERTEX
  5
130
  8
0
 62
     9
 10
0.0
 20
0.0
 30
0.0
 70
   128
 71
    77
 72
    76
 73
    64
  0
VERTEX
  5
131
  8
0
 62
     9
 10
0.0
 20
0.0
 30
0.0
 70
   128
 71
    97
 72
    90
 73
    92
  0
VERTEX
  5
132
  8
0
 62
     9
 10
0.0
 20
0.0
 30
0.0
 70
   128
 71
    81
 72
    67
 73
   103
  0
VERTEX
  5
133
  8
0
 62
     9
 10
0.0
 20
0.0
 30
0.0
 70
   128
 71
    65
 72
    77
 73
    64
  0
VERTEX
  5
134
  8
0
 62
     9
 10
0.0
 20
0.0
 30
0.0
 70
   128
 71
    63
 72
    67
 73
    81
  0
VERTEX
  5
135
  8
0
 62
     9
 10
0.0
 20
0.0
 30
0.0
 70
   128
 71
    94
 72
    63
 73
    81
  0
VERTEX
  5
136
  8
0
 62
     9
 10
0.0
 20
0.0
 30
0.0
 70
   128
 71
    98
 72
    99
 73
    76
  0
VERTEX
  5
137
  8
0
 62
     9
 10
0.0
 20
0.0
 30
0.0
 70
   128
 71
   100
 72
    66
 73
    64
  0
VERTEX
  5
138
  8
0
 62
     9
 10
0.0
 20
0.0
 30
0.0
 70
   128
 71
    76
 72
    99
 73
    64
  0
VERTEX
  5
139
  8
0
 62
     9
 10
0.0
 20
0.0
 30
0.0
 70
   128
 71
    95
 72
    20
 73
    22
  0
VERTEX
  5
13A
  8
0
 62
     9
 10
0.0
 20
0.0
 30
0.0
 70
   128
 71
    80
 72
    98
 73
    73
  0
VERTEX
  5
13B
  8
0
 62
     9
 10
0.0
 20
0.0
 30
0.0
 70
   128
 71
    64
 72
    99
 73
   100
  0
VERTEX
  5
13C
  8
0
 62
     9
 10
0.0
 20
0.0
 30
0.0
 70
   128
 71
    98
 72
    76
 73
    73
  0
VERTEX
  5
13D
  8
0
 62
     9
 10
0.0
 20
0.0
 30
0.0
 70
   128
 71
    80
 72
    20
 73
    95
  0
VERTEX
  5
13E
  8
0
 62
     9
 10
0.0
 20
0.0
 30
0.0
 70
   128
 71
   101
 72
    66
 73
   100
  0
VERTEX
  5
13F
  8
0
 62
     9
 10
0.0
 20
0.0
 30
0.0
 70
   128
 71
    98
 72
    80
 73
    95
  0
VERTEX
  5
140
  8
0
 62
     9
 10
0.0
 20
0.0
 30
0.0
 70
   128
 71
    67
 72
    66
 73
   102
  0
VERTEX
  5
141
  8
0
 62
     9
 10
0.0
 20
0.0
 30
0.0
 70
   128
 71
   101
 72
   102
 73
    66
  0
VERTEX
  5
142
  8
0
 62
     9
 10
0.0
 20
0.0
 30
0.0
 70
   128
 71
    92
 72
    81
 73
   103
  0
VERTEX
  5
143
  8
0
 62
     9
 10
0.0
 20
0.0
 30
0.0
 70
   128
 71
    67
 72
   102
 73
   103
  0
VERTEX
  5
144
  8
0
 62
     9
 10
0.0
 20
0.0
 30
0.0
 70
   128
 71
    96
 72
    90
 73
    97
  0
VERTEX
  5
145
  8
0
 62
     9
 10
0.0
 20
0.0
 30
0.0
 70
   128
 71
    97
 72
    92
 73
   103
  0
VERTEX
  5
146
  8
0
 62
     9
 10
0.0
 20
0.0
 30
0.0
 70
   128
 71
    86
 72
    96
 73
    14
  0
VERTEX
  5
147
  8
0
 62
     9
 10
0.0
 20
0.0
 30
0.0
 70
   128
 71
    96
 72
    86
 73
    90
  0
SEQEND
  5
148
  8
0
  0
ENDBLK
  5
14C
  8
0
  0
BLOCK
  8
0
  2
39
 70
     0
 10
0.0
 20
0.0
 30
0.0
  3
39
  1

  0
POLYLINE
  5
14E
  8
0
 66
     1
 10
0.0
 20
0.0
 30
0.0
 70
    64
 71
   164
 72
   369
  0
VERTEX
  5
14F
  8
0
 10
53.08368301391602
 20
37.2289924621582
 30
294.6903686523438
 70
   192
  0
VERTEX
  5
150
  8
0
 10
52.82661437988281
 20
39.61031723022461
 30
295.2176513671875
 70
   192
  0
VERTEX
  5
151
  8
0
 10
50.89609909057617
 20
39.26044464111328
 30
294.9485168457031
 70
   192
  0
VERTEX
  5
152
  8
0
 10
58.28446578979492
 20
18.85000038146973
 30
296.5480651855469
 70
   192
  0
VERTEX
  5
153
  8
0
 10
59.99843978881836
 20
22.40290260314941
 30
297.8034362792969
 70
   192
  0
VERTEX
  5
154
  8
0
 10
57.8835563659668
 20
22.40290260314941
 30
296.3616638183594
 70
   192
  0
VERTEX
  5
155
  8
0
 10
58.08823776245117
 20
39.56695175170898
 30
296.650634765625
 70
   192
  0
VERTEX
  5
156
  8
0
 10
56.17610168457031
 20
41.22906875610352
 30
296.39794921875
 70
   192
  0
VERTEX
  5
157
  8
0
 10
56.57873916625977
 20
38.57876205444336
 30
295.8354187011719
 70
   192
  0
VERTEX
  5
158
  8
0
 10
61.84054183959961
 20
22.40290260314941
 30
299.5662536621094
 70
   192
  0
VERTEX
  5
159
  8
0
 10
62.42398452758789
 20
18.85000038146973
 30
300.1983947753906
 70
   192
  0
VERTEX
  5
15A
  8
0
 10
63.37822341918945
 20
22.40290260314941
 30
301.6065063476562
 70
   192
  0
VERTEX
  5
15B
  8
0
 10
63.43451309204102
 20
47.77712631225586
 30
318.1019287109375
 70
   192
  0
VERTEX
  5
15C
  8
0
 10
61.3922233581543
 20
48.6475944519043
 30
319.4712219238281
 70
   192
  0
VERTEX
  5
15D
  8
0
 10
59.74681091308594
 20
43.21577453613281
 30
321.3800354003906
 70
   192
  0
VERTEX
  5
15E
  8
0
 10
64.58380126953125
 20
22.40290260314941
 30
316.3122253417969
 70
   192
  0
VERTEX
  5
15F
  8
0
 10
63.51163482666016
 20
18.85000038146973
 30
318.4373474121094
 70
   192
  0
VERTEX
  5
160
  8
0
 10
63.39929962158203
 20
22.40290260314941
 30
318.5752868652344
 70
   192
  0
VERTEX
  5
161
  8
0
 10
52.94625854492188
 20
18.85000038146973
 30
325.6048889160156
 70
   192
  0
VERTEX
  5
162
  8
0
 10
50.7463264465332
 20
18.85000038146973
 30
325.9270629882812
 70
   192
  0
VERTEX
  5
163
  8
0
 10
50.0
 20
18.85000038146973
 30
325.9845886230469
 70
   192
  0
VERTEX
  5
164
  8
0
 10
51.48614501953125
 20
18.85000038146973
 30
325.8446044921875
 70
   192
  0
VERTEX
  5
165
  8
0
 10
52.21945571899414
 20
18.85000038146973
 30
325.7372131347656
 70
   192
  0
VERTEX
  5
166
  8
0
 10
54.3875617980957
 20
36.28175735473633
 30
325.2081909179688
 70
   192
  0
VERTEX
  5
167
  8
0
 10
52.26235198974609
 20
35.75003433227539
 30
325.6646728515625
 70
   192
  0
VERTEX
  5
168
  8
0
 10
53.34627151489258
 20
35.97706604003906
 30
325.4682922363281
 70
   192
  0
VERTEX
  5
169
  8
0
 10
63.22555160522461
 20
46.55884552001953
 30
318.4601745605469
 70
   192
  0
VERTEX
  5
16A
  8
0
 10
63.3419075012207
 20
47.15922546386719
 30
318.2678527832031
 70
   192
  0
VERTEX
  5
16B
  8
0
 10
63.08544540405273
 20
45.97598648071289
 30
318.6789245605469
 70
   192
  0
VERTEX
  5
16C
  8
0
 10
65.80010986328125
 20
22.40290260314941
 30
308.826171875
 70
   192
  0
VERTEX
  5
16D
  8
0
 10
65.55780792236328
 20
18.85000038146973
 30
313.2907104492188
 70
   192
  0
VERTEX
  5
16E
  8
0
 10
65.38800811767578
 20
22.40290260314941
 30
313.9021301269531
 70
   192
  0
VERTEX
  5
16F
  8
0
 10
60.51672744750977
 20
18.85000038146973
 30
298.1934509277344
 70
   192
  0
VERTEX
  5
170
  8
0
 10
59.43762969970703
 20
53.54690933227539
 30
298.7503051757812
 70
   192
  0
VERTEX
  5
171
  8
0
 10
63.90834808349609
 20
55.54691696166992
 30
303.1210327148438
 70
   192
  0
VERTEX
  5
172
  8
0
 10
63.90945816040039
 20
58.91146469116211
 30
303.1886901855469
 70
   192
  0
VERTEX
  5
173
  8
0
 10
60.12823104858398
 20
47.16096115112305
 30
299.34765625
 70
   192
  0
VERTEX
  5
174
  8
0
 10
59.53399658203125
 20
45.36906051635742
 30
298.7480163574219
 70
   192
  0
VERTEX
  5
175
  8
0
 10
61.72172164916992
 20
43.82310485839844
 30
299.7106323242188
 70
   192
  0
VERTEX
  5
176
  8
0
 10
54.60020065307617
 20
40.28276443481445
 30
295.7197875976562
 70
   192
  0
VERTEX
  5
177
  8
0
 10
54.90671920776367
 20
37.79499435424805
 30
295.1776733398438
 70
   192
  0
VERTEX
  5
178
  8
0
 10
55.5524787902832
 20
22.40290260314941
 30
295.3506774902344
 70
   192
  0
VERTEX
  5
179
  8
0
 10
55.79149627685547
 20
18.85000038146973
 30
295.3387145996094
 70
   192
  0
VERTEX
  5
17A
  8
0
 10
60.36517715454102
 20
49.08403015136719
 30
299.6077880859375
 70
   192
  0
VERTEX
  5
17B
  8
0
 10
60.23158645629883
 20
51.02251052856445
 30
299.4956970214844
 70
   192
  0
VERTEX
  5
17C
  8
0
 10
60.75089263916016
 20
57.38528823852539
 30
298.8724365234375
 70
   192
  0
VERTEX
  5
17D
  8
0
 10
59.0
 20
60.54756927490234
 30
297.4596862792969
 70
   192
  0
VERTEX
  5
17E
  8
0
 10
60.75154876708984
 20
59.50165176391602
 30
298.8986511230469
 70
   192
  0
VERTEX
  5
17F
  8
0
 10
59.41238784790039
 20
40.70710372924805
 30
297.5396118164062
 70
   192
  0
VERTEX
  5
180
  8
0
 10
58.65229415893555
 20
43.78323364257812
 30
297.974609375
 70
   192
  0
VERTEX
  5
181
  8
0
 10
60.751220703125
 20
58.4434700012207
 30
298.8855285644531
 70
   192
  0
VERTEX
  5
182
  8
0
 10
64.57191467285156
 20
22.40290260314941
 30
303.8690185546875
 70
   192
  0
VERTEX
  5
183
  8
0
 10
65.06324005126953
 20
18.85000038146973
 30
305.0698852539062
 70
   192
  0
VERTEX
  5
184
  8
0
 10
65.38711547851562
 20
22.40290260314941
 30
306.2969055175781
 70
   192
  0
VERTEX
  5
185
  8
0
 10
65.56339263916016
 20
36.99891662597656
 30
310.10205078125
 70
   192
  0
VERTEX
  5
186
  8
0
 10
65.56855773925781
 20
52.95562362670898
 30
309.3883056640625
 70
   192
  0
VERTEX
  5
187
  8
0
 10
65.54615783691406
 20
55.51982498168945
 30
309.3882751464844
 70
   192
  0
VERTEX
  5
188
  8
0
 10
63.95858764648438
 20
18.85000038146973
 30
302.519287109375
 70
   192
  0
VERTEX
  5
189
  8
0
 10
65.62952423095703
 20
45.97768020629883
 30
310.8157348632812
 70
   192
  0
VERTEX
  5
18A
  8
0
 10
65.54320526123047
 20
39.28797912597656
 30
312.3448791503906
 70
   192
  0
VERTEX
  5
18B
  8
0
 10
65.64993286132812
 20
43.64128494262695
 30
310.8157043457031
 70
   192
  0
VERTEX
  5
18C
  8
0
 10
63.90999603271484
 20
60.59624099731445
 30
316.9815368652344
 70
   192
  0
VERTEX
  5
18D
  8
0
 10
63.9068603515625
 20
51.02864456176758
 30
317.1738891601562
 70
   192
  0
VERTEX
  5
18E
  8
0
 10
63.90753936767578
 20
53.08837127685547
 30
317.1324768066406
 70
   192
  0
VERTEX
  5
18F
  8
0
 10
63.90731430053711
 20
52.40179443359375
 30
317.1462707519531
 70
   192
  0
VERTEX
  5
190
  8
0
 10
63.9072151184082
 20
52.10335922241211
 30
303.0517883300781
 70
   192
  0
VERTEX
  5
191
  8
0
 10
63.90776443481445
 20
53.77494430541992
 30
317.11865234375
 70
   192
  0
VERTEX
  5
192
  8
0
 10
63.90799331665039
 20
54.46152114868164
 30
317.1048583984375
 70
   192
  0
VERTEX
  5
193
  8
0
 10
63.90844345092773
 20
55.83467102050781
 30
317.0772399902344
 70
   192
  0
VERTEX
  5
194
  8
0
 10
63.90883636474609
 20
57.02443695068359
 30
317.0533142089844
 70
   192
  0
VERTEX
  5
195
  8
0
 10
65.76952362060547
 20
29.95246505737305
 30
309.3884887695312
 70
   192
  0
VERTEX
  5
196
  8
0
 10
65.75192260742188
 20
31.96696281433105
 30
309.3884582519531
 70
   192
  0
VERTEX
  5
197
  8
0
 10
65.87564849853516
 20
18.85000038146973
 30
310.5347290039062
 70
   192
  0
VERTEX
  5
198
  8
0
 10
65.59095764160156
 20
50.39141845703125
 30
310.8157653808594
 70
   192
  0
VERTEX
  5
199
  8
0
 10
64.75994110107422
 20
18.85000038146973
 30
315.955810546875
 70
   192
  0
VERTEX
  5
19A
  8
0
 10
63.90961837768555
 20
59.40397262573242
 30
317.0054931640625
 70
   192
  0
VERTEX
  5
19B
  8
0
 10
63.90708541870117
 20
51.7152214050293
 30
317.1600646972656
 70
   192
  0
VERTEX
  5
19C
  8
0
 10
63.90821838378906
 20
55.14809417724609
 30
317.091064453125
 70
   192
  0
VERTEX
  5
19D
  8
0
 10
63.90922927856445
 20
58.21420288085938
 30
317.0293884277344
 70
   192
  0
VERTEX
  5
19E
  8
0
 10
62.52262878417969
 20
44.33251953125
 30
319.4935302734375
 70
   192
  0
VERTEX
  5
19F
  8
0
 10
60.86521530151367
 20
41.10195922851562
 30
321.433349609375
 70
   192
  0
VERTEX
  5
1A0
  8
0
 10
62.73398590087891
 20
44.86282348632812
 30
319.1955871582031
 70
   192
  0
VERTEX
  5
1A1
  8
0
 10
62.92158889770508
 20
45.41064453125
 30
318.9240417480469
 70
   192
  0
VERTEX
  5
1A2
  8
0
 10
53.11094665527344
 20
18.85000038146973
 30
294.6331787109375
 70
   192
  0
VERTEX
  5
1A3
  8
0
 10
57.53172302246094
 20
42.401611328125
 30
297.176025390625
 70
   192
  0
VERTEX
  5
1A4
  8
0
 10
65.70870971679688
 20
18.85000038146973
 30
307.7693176269531
 70
   192
  0
VERTEX
  5
1A5
  8
0
 10
65.78711700439453
 20
27.93796539306641
 30
309.3884887695312
 70
   192
  0
VERTEX
  5
1A6
  8
0
 10
65.80471801757812
 20
25.9234676361084
 30
309.3885192871094
 70
   192
  0
VERTEX
  5
1A7
  8
0
 10
61.86362457275391
 20
22.40290260314941
 30
320.6200561523438
 70
   192
  0
VERTEX
  5
1A8
  8
0
 10
60.26634216308594
 20
40.31477737426758
 30
321.9852905273438
 70
   192
  0
VERTEX
  5
1A9
  8
0
 10
59.60594940185547
 20
39.57716751098633
 30
322.5224914550781
 70
   192
  0
VERTEX
  5
1AA
  8
0
 10
58.88004684448242
 20
38.87921142578125
 30
323.0702514648438
 70
   192
  0
VERTEX
  5
1AB
  8
0
 10
58.09661102294922
 20
38.24074554443359
 30
323.5779724121094
 70
   192
  0
VERTEX
  5
1AC
  8
0
 10
57.25564575195312
 20
37.66176605224609
 30
324.0455932617188
 70
   192
  0
VERTEX
  5
1AD
  8
0
 10
56.34224700927734
 20
37.12410354614258
 30
324.496826171875
 70
   192
  0
VERTEX
  5
1AE
  8
0
 10
55.3862190246582
 20
36.66410064697266
 30
324.8843688964844
 70
   192
  0
VERTEX
  5
1AF
  8
0
 10
49.07527923583984
 20
37.66598129272461
 30
325.3200073242188
 70
   192
  0
VERTEX
  5
1B0
  8
0
 10
50.57607269287109
 20
32.22962188720703
 30
325.8572998046875
 70
   192
  0
VERTEX
  5
1B1
  8
0
 10
65.56339263916016
 20
36.99891662597656
 30
312.3448181152344
 70
   192
  0
VERTEX
  5
1B2
  8
0
 10
63.92699813842773
 20
48.96358489990234
 30
302.9935302734375
 70
   192
  0
VERTEX
  5
1B3
  8
0
 10
62.60817337036133
 20
45.98872756958008
 30
300.8380126953125
 70
   192
  0
VERTEX
  5
1B4
  8
0
 10
65.50991821289062
 20
43.03332901000977
 30
307.8486328125
 70
   192
  0
VERTEX
  5
1B5
  8
0
 10
65.56339263916016
 20
36.99891662597656
 30
307.8592529296875
 70
   192
  0
VERTEX
  5
1B6
  8
0
 10
65.54320526123047
 20
39.28797912597656
 30
307.8591918945312
 70
   192
  0
VERTEX
  5
1B7
  8
0
 10
65.62952423095703
 20
45.97768402099609
 30
309.3883666992188
 70
   192
  0
VERTEX
  5
1B8
  8
0
 10
50.57560729980469
 20
26.68251991271973
 30
325.90576171875
 70
   192
  0
VERTEX
  5
1B9
  8
0
 10
34.19988632202148
 20
22.40290260314941
 30
311.3778991699219
 70
   192
  0
VERTEX
  5
1BA
  8
0
 10
34.12320709228516
 20
18.85000038146973
 30
310.5281677246094
 70
   192
  0
VERTEX
  5
1BB
  8
0
 10
34.94706344604492
 20
18.85000038146973
 30
305.0489501953125
 70
   192
  0
VERTEX
  5
1BC
  8
0
 10
37.8680305480957
 20
51.39686965942383
 30
319.9081115722656
 70
   192
  0
VERTEX
  5
1BD
  8
0
 10
39.45869445800781
 20
44.83732604980469
 30
320.5765075683594
 70
   192
  0
VERTEX
  5
1BE
  8
0
 10
40.23673248291016
 20
55.4389762878418
 30
321.2213134765625
 70
   192
  0
VERTEX
  5
1BF
  8
0
 10
42.0992431640625
 20
22.40290260314941
 30
296.358154296875
 70
   192
  0
VERTEX
  5
1C0
  8
0
 10
38.1464958190918
 20
22.40290260314941
 30
299.5726013183594
 70
   192
  0
VERTEX
  5
1C1
  8
0
 10
41.73736572265625
 20
18.85000038146973
 30
296.5320129394531
 70
   192
  0
VERTEX
  5
1C2
  8
0
 10
41.0
 20
60.54756927490234
 30
322.744384765625
 70
   192
  0
VERTEX
  5
1C3
  8
0
 10
36.09000396728516
 20
60.59624099731445
 30
303.2225341796875
 70
   192
  0
VERTEX
  5
1C4
  8
0
 10
36.93117523193359
 20
48.4197998046875
 30
301.5386962890625
 70
   192
  0
VERTEX
  5
1C5
  8
0
 10
36.09201812744141
 20
54.43722152709961
 30
303.0987243652344
 70
   192
  0
VERTEX
  5
1C6
  8
0
 10
35.41919708251953
 20
22.40290260314941
 30
303.8847961425781
 70
   192
  0
VERTEX
  5
1C7
  8
0
 10
37.58737945556641
 20
18.85000038146973
 30
300.2031860351562
 70
   192
  0
VERTEX
  5
1C8
  8
0
 10
35.22959136962891
 20
18.85000038146973
 30
315.9391174316406
 70
   192
  0
VERTEX
  5
1C9
  8
0
 10
41.41709518432617
 20
43.68247604370117
 30
297.9190979003906
 70
   192
  0
VERTEX
  5
1CA
  8
0
 10
39.63827896118164
 20
49.72308731079102
 30
299.610107421875
 70
   192
  0
VERTEX
  5
1CB
  8
0
 10
34.4904899597168
 20
43.0333251953125
 30
312.3553771972656
 70
   192
  0
VERTEX
  5
1CC
  8
0
 10
34.43660736083984
 20
36.99891662597656
 30
312.3448181152344
 70
   192
  0
VERTEX
  5
1CD
  8
0
 10
34.43660736083984
 20
36.99891662597656
 30
307.8592529296875
 70
   192
  0
VERTEX
  5
1CE
  8
0
 10
37.78087615966797
 20
47.89448165893555
 30
319.8484802246094
 70
   192
  0
VERTEX
  5
1CF
  8
0
 10
35.42452621459961
 20
22.40290260314941
 30
316.3267211914062
 70
   192
  0
VERTEX
  5
1D0
  8
0
 10
38.12417602539062
 20
18.85000038146973
 30
320.6569213867188
 70
   192
  0
VERTEX
  5
1D1
  8
0
 10
34.24807739257812
 20
31.96696281433105
 30
310.8156127929688
 70
   192
  0
VERTEX
  5
1D2
  8
0
 10
40.0548210144043
 20
46.4808464050293
 30
299.1531677246094
 70
   192
  0
VERTEX
  5
1D3
  8
0
 10
34.40903854370117
 20
50.39141845703125
 30
309.3883056640625
 70
   192
  0
VERTEX
  5
1D4
  8
0
 10
34.35006713867188
 20
43.64128494262695
 30
309.3883666992188
 70
   192
  0
VERTEX
  5
1D5
  8
0
 10
36.09336471557617
 20
50.34207153320312
 30
317.1876831054688
 70
   192
  0
VERTEX
  5
1D6
  8
0
 10
39.78593444824219
 20
52.30989837646484
 30
298.723388671875
 70
   192
  0
VERTEX
  5
1D7
  8
0
 10
39.36697769165039
 20
48.46773147583008
 30
299.0888671875
 70
   192
  0
VERTEX
  5
1D8
  8
0
 10
40.44688415527344
 20
44.82047653198242
 30
298.0469970703125
 70
   192
  0
VERTEX
  5
1D9
  8
0
 10
45.99832916259766
 20
39.84739685058594
 30
295.0994262695312
 70
   192
  0
VERTEX
  5
1DA
  8
0
 10
41.92391204833984
 20
39.55045318603516
 30
296.6290588378906
 70
   192
  0
VERTEX
  5
1DB
  8
0
 10
42.72668838500977
 20
41.87481307983398
 30
296.455322265625
 70
   192
  0
VERTEX
  5
1DC
  8
0
 10
53.97982025146484
 20
39.83876800537109
 30
295.0933227539062
 70
   192
  0
VERTEX
  5
1DD
  8
0
 10
57.26560211181641
 20
41.86781692504883
 30
296.4509582519531
 70
   192
  0
VERTEX
  5
1DE
  8
0
 10
49.99582290649414
 20
39.08693313598633
 30
294.5503540039062
 70
   192
  0
VERTEX
  5
1DF
  8
0
 10
59.54970932006836
 20
44.81391906738281
 30
298.0440979003906
 70
   192
  0
VERTEX
  5
1E0
  8
0
 10
60.63283920288086
 20
48.46582412719727
 30
299.0886535644531
 70
   192
  0
VERTEX
  5
1E1
  8
0
 10
60.21456527709961
 20
52.30832672119141
 30
298.7238464355469
 70
   192
  0
VERTEX
  5
1E2
  8
0
 10
45.12290573120117
 20
37.77578735351562
 30
295.1565856933594
 70
   192
  0
VERTEX
  5
1E3
  8
0
 10
60.01683044433594
 20
43.1245002746582
 30
321.8261108398438
 70
   192
  0
VERTEX
  5
1E4
  8
0
 10
61.68656158447266
 20
50.68457794189453
 30
319.9616088867188
 70
   192
  0
VERTEX
  5
1E5
  8
0
 10
57.55115509033203
 20
40.24258804321289
 30
323.6399536132812
 70
   192
  0
VERTEX
  5
1E6
  8
0
 10
54.12677764892578
 20
38.22781753540039
 30
325.1062316894531
 70
   192
  0
VERTEX
  5
1E7
  8
0
 10
50.00089263916016
 20
37.47362518310547
 30
325.6862487792969
 70
   192
  0
VERTEX
  5
1E8
  8
0
 10
45.88052368164062
 20
38.22505950927734
 30
325.1083374023438
 70
   192
  0
VERTEX
  5
1E9
  8
0
 10
44.58532333374023
 20
36.68819808959961
 30
324.8556518554688
 70
   192
  0
VERTEX
  5
1EA
  8
0
 10
39.38652038574219
 20
54.46060943603516
 30
321.1212158203125
 70
   192
  0
VERTEX
  5
1EB
  8
0
 10
38.31447601318359
 20
50.69375610351562
 30
319.9627685546875
 70
   192
  0
VERTEX
  5
1EC
  8
0
 10
42.45170593261719
 20
40.24016952514648
 30
323.6416320800781
 70
   192
  0
VERTEX
  5
1ED
  8
0
 10
38.53564071655273
 20
46.69636154174805
 30
320.2896118164062
 70
   192
  0
VERTEX
  5
1EE
  8
0
 10
39.97925567626953
 20
43.13093185424805
 30
321.8225402832031
 70
   192
  0
VERTEX
  5
1EF
  8
0
 10
41.1043701171875
 20
38.9000129699707
 30
323.0365600585938
 70
   192
  0
VERTEX
  5
1F0
  8
0
 10
61.46170425415039
 20
46.68470001220703
 30
320.2929382324219
 70
   192
  0
VERTEX
  5
1F1
  8
0
 10
60.61709213256836
 20
54.45295333862305
 30
321.1176452636719
 70
   192
  0
VERTEX
  5
1F2
  8
0
 10
39.24812316894531
 20
60.55983352661133
 30
298.9117431640625
 70
   192
  0
VERTEX
  5
1F3
  8
0
 62
     9
 10
0.0
 20
0.0
 30
0.0
 70
   128
 71
     3
 72
     2
 73
     1
  0
VERTEX
  5
1F4
  8
0
 62
     9
 10
0.0
 20
0.0
 30
0.0
 70
   128
 71
     6
 72
     5
 73
     4
  0
VERTEX
  5
1F5
  8
0
 62
     9
 10
0.0
 20
0.0
 30
0.0
 70
   128
 71
     9
 72
     8
 73
     7
  0
VERTEX
  5
1F6
  8
0
 62
     9
 10
0.0
 20
0.0
 30
0.0
 70
   128
 71
    12
 72
    11
 73
    10
  0
VERTEX
  5
1F7
  8
0
 62
     9
 10
0.0
 20
0.0
 30
0.0
 70
   128
 71
    15
 72
    14
 73
    13
  0
VERTEX
  5
1F8
  8
0
 62
     9
 10
0.0
 20
0.0
 30
0.0
 70
   128
 71
    18
 72
    17
 73
    16
  0
VERTEX
  5
1F9
  8
0
 62
     9
 10
0.0
 20
0.0
 30
0.0
 70
   128
 71
    21
 72
    20
 73
    19
  0
VERTEX
  5
1FA
  8
0
 62
     9
 10
0.0
 20
0.0
 30
0.0
 70
   128
 71
    19
 72
    23
 73
    22
  0
VERTEX
  5
1FB
  8
0
 62
     9
 10
0.0
 20
0.0
 30
0.0
 70
   128
 71
    21
 72
    19
 73
    20
  0
VERTEX
  5
1FC
  8
0
 62
     9
 10
0.0
 20
0.0
 30
0.0
 70
   128
 71
    22
 72
    20
 73
    19
  0
VERTEX
  5
1FD
  8
0
 62
     9
 10
0.0
 20
0.0
 30
0.0
 70
   128
 71
    19
 72
    22
 73
    23
  0
VERTEX
  5
1FE
  8
0
 62
     9
 10
0.0
 20
0.0
 30
0.0
 70
   128
 71
    26
 72
    25
 73
    24
  0
VERTEX
  5
1FF
  8
0
 62
     9
 10
0.0
 20
0.0
 30
0.0
 70
   128
 71
    28
 72
    27
 73
    15
  0
VERTEX
  5
200
  8
0
 62
     9
 10
0.0
 20
0.0
 30
0.0
 70
   128
 71
    15
 72
    27
 73
    29
  0
VERTEX
  5
201
  8
0
 62
     9
 10
0.0
 20
0.0
 30
0.0
 70
   128
 71
    32
 72
    31
 73
    30
  0
VERTEX
  5
202
  8
0
 62
     9
 10
0.0
 20
0.0
 30
0.0
 70
   128
 71
     5
 72
    10
 73
    33
  0
VERTEX
  5
203
  8
0
 62
     9
 10
0.0
 20
0.0
 30
0.0
 70
   128
 71
    36
 72
    35
 73
    34
  0
VERTEX
  5
204
  8
0
 62
     9
 10
0.0
 20
0.0
 30
0.0
 70
   128
 71
    39
 72
    38
 73
    37
  0
VERTEX
  5
205
  8
0
 62
     9
 10
0.0
 20
0.0
 30
0.0
 70
   128
 71
     9
 72
    41
 73
    40
  0
VERTEX
  5
206
  8
0
 62
     9
 10
0.0
 20
0.0
 30
0.0
 70
   128
 71
    43
 72
    42
 73
     6
  0
VERTEX
  5
207
  8
0
 62
     9
 10
0.0
 20
0.0
 30
0.0
 70
   128
 71
    37
 72
    44
 73
    39
  0
VERTEX
  5
208
  8
0
 62
     9
 10
0.0
 20
0.0
 30
0.0
 70
   128
 71
    45
 72
    34
 73
    44
  0
VERTEX
  5
209
  8
0
 62
     9
 10
0.0
 20
0.0
 30
0.0
 70
   128
 71
    46
 72
    34
 73
    45
  0
VERTEX
  5
20A
  8
0
 62
     9
 10
0.0
 20
0.0
 30
0.0
 70
   128
 71
    48
 72
    34
 73
    47
  0
VERTEX
  5
20B
  8
0
 62
     9
 10
0.0
 20
0.0
 30
0.0
 70
   128
 71
    50
 72
    49
 73
     7
  0
VERTEX
  5
20C
  8
0
 62
     9
 10
0.0
 20
0.0
 30
0.0
 70
   128
 71
    51
 72
    47
 73
    46
  0
VERTEX
  5
20D
  8
0
 62
     9
 10
0.0
 20
0.0
 30
0.0
 70
   128
 71
    51
 72
    48
 73
    47
  0
VERTEX
  5
20E
  8
0
 62
     9
 10
0.0
 20
0.0
 30
0.0
 70
   128
 71
    47
 72
    34
 73
    46
  0
VERTEX
  5
20F
  8
0
 62
     9
 10
0.0
 20
0.0
 30
0.0
 70
   128
 71
    54
 72
    53
 73
    52
  0
VERTEX
  5
210
  8
0
 62
     9
 10
0.0
 20
0.0
 30
0.0
 70
   128
 71
    57
 72
    56
 73
    55
  0
VERTEX
  5
211
  8
0
 62
     9
 10
0.0
 20
0.0
 30
0.0
 70
   128
 71
    34
 72
    51
 73
    46
  0
VERTEX
  5
212
  8
0
 62
     9
 10
0.0
 20
0.0
 30
0.0
 70
   128
 71
    48
 72
    51
 73
    34
  0
VERTEX
  5
213
  8
0
 62
     9
 10
0.0
 20
0.0
 30
0.0
 70
   128
 71
    34
 72
    46
 73
    45
  0
VERTEX
  5
214
  8
0
 62
     9
 10
0.0
 20
0.0
 30
0.0
 70
   128
 71
    12
 72
    52
 73
    58
  0
VERTEX
  5
215
  8
0
 62
     9
 10
0.0
 20
0.0
 30
0.0
 70
   128
 71
    61
 72
    60
 73
    59
  0
VERTEX
  5
216
  8
0
 62
     9
 10
0.0
 20
0.0
 30
0.0
 70
   128
 71
    14
 72
    63
 73
    62
  0
VERTEX
  5
217
  8
0
 62
     9
 10
0.0
 20
0.0
 30
0.0
 70
   128
 71
    65
 72
    64
 73
    62
  0
VERTEX
  5
218
  8
0
 62
     9
 10
0.0
 20
0.0
 30
0.0
 70
   128
 71
    34
 72
    66
 73
    36
  0
VERTEX
  5
219
  8
0
 62
     9
 10
0.0
 20
0.0
 30
0.0
 70
   128
 71
    66
 72
    34
 73
    35
  0
VERTEX
  5
21A
  8
0
 62
     9
 10
0.0
 20
0.0
 30
0.0
 70
   128
 71
    64
 72
    67
 73
    62
  0
VERTEX
  5
21B
  8
0
 62
     9
 10
0.0
 20
0.0
 30
0.0
 70
   128
 71
    67
 72
    68
 73
    62
  0
VERTEX
  5
21C
  8
0
 62
     9
 10
0.0
 20
0.0
 30
0.0
 70
   128
 71
    70
 72
    62
 73
    69
  0
VERTEX
  5
21D
  8
0
 62
     9
 10
0.0
 20
0.0
 30
0.0
 70
   128
 71
    73
 72
    72
 73
    71
  0
VERTEX
  5
21E
  8
0
 62
     9
 10
0.0
 20
0.0
 30
0.0
 70
   128
 71
    56
 72
    55
 73
    74
  0
VERTEX
  5
21F
  8
0
 62
     9
 10
0.0
 20
0.0
 30
0.0
 70
   128
 71
    57
 72
    55
 73
    56
  0
VERTEX
  5
220
  8
0
 62
     9
 10
0.0
 20
0.0
 30
0.0
 70
   128
 71
    55
 72
    74
 73
    59
  0
VERTEX
  5
221
  8
0
 62
     9
 10
0.0
 20
0.0
 30
0.0
 70
   128
 71
    16
 72
    75
 73
    32
  0
VERTEX
  5
222
  8
0
 62
     9
 10
0.0
 20
0.0
 30
0.0
 70
   128
 71
    76
 72
    14
 73
    62
  0
VERTEX
  5
223
  8
0
 62
     9
 10
0.0
 20
0.0
 30
0.0
 70
   128
 71
    77
 72
    65
 73
    62
  0
VERTEX
  5
224
  8
0
 62
     9
 10
0.0
 20
0.0
 30
0.0
 70
   128
 71
    63
 72
    77
 73
    62
  0
VERTEX
  5
225
  8
0
 62
     9
 10
0.0
 20
0.0
 30
0.0
 70
   128
 71
    78
 72
    69
 73
    62
  0
VERTEX
  5
226
  8
0
 62
     9
 10
0.0
 20
0.0
 30
0.0
 70
   128
 71
    78
 72
    62
 73
    68
  0
VERTEX
  5
227
  8
0
 62
     9
 10
0.0
 20
0.0
 30
0.0
 70
   128
 71
    62
 72
    70
 73
    79
  0
VERTEX
  5
228
  8
0
 62
     9
 10
0.0
 20
0.0
 30
0.0
 70
   128
 71
    76
 72
    79
 73
    14
  0
VERTEX
  5
229
  8
0
 62
     9
 10
0.0
 20
0.0
 30
0.0
 70
   128
 71
    62
 72
    79
 73
    76
  0
VERTEX
  5
22A
  8
0
 62
     9
 10
0.0
 20
0.0
 30
0.0
 70
   128
 71
    15
 72
    80
 73
    63
  0
VERTEX
  5
22B
  8
0
 62
     9
 10
0.0
 20
0.0
 30
0.0
 70
   128
 71
    70
 72
    13
 73
    14
  0
VERTEX
  5
22C
  8
0
 62
     9
 10
0.0
 20
0.0
 30
0.0
 70
   128
 71
    26
 72
    24
 73
    25
  0
VERTEX
  5
22D
  8
0
 62
     9
 10
0.0
 20
0.0
 30
0.0
 70
   128
 71
    15
 72
    81
 73
    80
  0
VERTEX
  5
22E
  8
0
 62
     9
 10
0.0
 20
0.0
 30
0.0
 70
   128
 71
    82
 72
    80
 73
    81
  0
VERTEX
  5
22F
  8
0
 62
     9
 10
0.0
 20
0.0
 30
0.0
 70
   128
 71
    83
 72
    82
 73
    81
  0
VERTEX
  5
230
  8
0
 62
     9
 10
0.0
 20
0.0
 30
0.0
 70
   128
 71
    41
 72
     1
 73
    40
  0
VERTEX
  5
231
  8
0
 62
     9
 10
0.0
 20
0.0
 30
0.0
 70
   128
 71
    40
 72
     8
 73
     9
  0
VERTEX
  5
232
  8
0
 62
     9
 10
0.0
 20
0.0
 30
0.0
 70
   128
 71
    42
 72
    43
 73
    84
  0
VERTEX
  5
233
  8
0
 62
     9
 10
0.0
 20
0.0
 30
0.0
 70
   128
 71
     8
 72
    85
 73
     7
  0
VERTEX
  5
234
  8
0
 62
     9
 10
0.0
 20
0.0
 30
0.0
 70
   128
 71
    43
 72
     6
 73
     4
  0
VERTEX
  5
235
  8
0
 62
     9
 10
0.0
 20
0.0
 30
0.0
 70
   128
 71
    49
 72
    38
 73
    39
  0
VERTEX
  5
236
  8
0
 62
     9
 10
0.0
 20
0.0
 30
0.0
 70
   128
 71
     4
 72
     5
 73
    33
  0
VERTEX
  5
237
  8
0
 62
     9
 10
0.0
 20
0.0
 30
0.0
 70
   128
 71
    44
 72
    34
 73
    39
  0
VERTEX
  5
238
  8
0
 62
     9
 10
0.0
 20
0.0
 30
0.0
 70
   128
 71
    33
 72
    10
 73
    11
  0
VERTEX
  5
239
  8
0
 62
     9
 10
0.0
 20
0.0
 30
0.0
 70
   128
 71
    11
 72
    12
 73
    58
  0
VERTEX
  5
23A
  8
0
 62
     9
 10
0.0
 20
0.0
 30
0.0
 70
   128
 71
    58
 72
    52
 73
    53
  0
VERTEX
  5
23B
  8
0
 62
     9
 10
0.0
 20
0.0
 30
0.0
 70
   128
 71
    53
 72
    54
 73
    86
  0
VERTEX
  5
23C
  8
0
 62
     9
 10
0.0
 20
0.0
 30
0.0
 70
   128
 71
    86
 72
    30
 73
    73
  0
VERTEX
  5
23D
  8
0
 62
     9
 10
0.0
 20
0.0
 30
0.0
 70
   128
 71
    30
 72
    86
 73
    54
  0
VERTEX
  5
23E
  8
0
 62
     9
 10
0.0
 20
0.0
 30
0.0
 70
   128
 71
    73
 72
    88
 73
    87
  0
VERTEX
  5
23F
  8
0
 62
     9
 10
0.0
 20
0.0
 30
0.0
 70
   128
 71
    30
 72
    88
 73
    73
  0
VERTEX
  5
240
  8
0
 62
     9
 10
0.0
 20
0.0
 30
0.0
 70
   128
 71
    87
 72
    71
 73
    73
  0
VERTEX
  5
241
  8
0
 62
     9
 10
0.0
 20
0.0
 30
0.0
 70
   128
 71
    72
 72
    73
 73
    71
  0
VERTEX
  5
242
  8
0
 62
     9
 10
0.0
 20
0.0
 30
0.0
 70
   128
 71
    73
 72
    87
 73
    88
  0
VERTEX
  5
243
  8
0
 62
     9
 10
0.0
 20
0.0
 30
0.0
 70
   128
 71
    71
 72
    87
 73
    73
  0
VERTEX
  5
244
  8
0
 62
     9
 10
0.0
 20
0.0
 30
0.0
 70
   128
 71
    73
 72
    30
 73
    31
  0
VERTEX
  5
245
  8
0
 62
     9
 10
0.0
 20
0.0
 30
0.0
 70
   128
 71
    88
 72
    30
 73
    73
  0
VERTEX
  5
246
  8
0
 62
     9
 10
0.0
 20
0.0
 30
0.0
 70
   128
 71
    31
 72
    32
 73
    75
  0
VERTEX
  5
247
  8
0
 62
     9
 10
0.0
 20
0.0
 30
0.0
 70
   128
 71
    75
 72
    16
 73
    17
  0
VERTEX
  5
248
  8
0
 62
     9
 10
0.0
 20
0.0
 30
0.0
 70
   128
 71
    13
 72
    28
 73
    15
  0
VERTEX
  5
249
  8
0
 62
     9
 10
0.0
 20
0.0
 30
0.0
 70
   128
 71
    17
 72
    18
 73
    89
  0
VERTEX
  5
24A
  8
0
 62
     9
 10
0.0
 20
0.0
 30
0.0
 70
   128
 71
    90
 72
    81
 73
    15
  0
VERTEX
  5
24B
  8
0
 62
     9
 10
0.0
 20
0.0
 30
0.0
 70
   128
 71
    81
 72
    91
 73
    90
  0
VERTEX
  5
24C
  8
0
 62
     9
 10
0.0
 20
0.0
 30
0.0
 70
   128
 71
    91
 72
    90
 73
    92
  0
VERTEX
  5
24D
  8
0
 62
     9
 10
0.0
 20
0.0
 30
0.0
 70
   128
 71
    92
 72
    91
 73
    93
  0
VERTEX
  5
24E
  8
0
 62
     9
 10
0.0
 20
0.0
 30
0.0
 70
   128
 71
    92
 72
    94
 73
    93
  0
VERTEX
  5
24F
  8
0
 62
     9
 10
0.0
 20
0.0
 30
0.0
 70
   128
 71
    93
 72
    95
 73
    94
  0
VERTEX
  5
250
  8
0
 62
     9
 10
0.0
 20
0.0
 30
0.0
 70
   128
 71
    94
 72
    96
 73
    95
  0
VERTEX
  5
251
  8
0
 62
     9
 10
0.0
 20
0.0
 30
0.0
 70
   128
 71
    95
 72
    24
 73
    96
  0
VERTEX
  5
252
  8
0
 62
     9
 10
0.0
 20
0.0
 30
0.0
 70
   128
 71
    96
 72
    26
 73
    24
  0
VERTEX
  5
253
  8
0
 62
     9
 10
0.0
 20
0.0
 30
0.0
 70
   128
 71
    97
 72
    26
 73
    25
  0
VERTEX
  5
254
  8
0
 62
     9
 10
0.0
 20
0.0
 30
0.0
 70
   128
 71
    20
 72
    22
 73
    19
  0
VERTEX
  5
255
  8
0
 62
     9
 10
0.0
 20
0.0
 30
0.0
 70
   128
 71
    97
 72
    98
 73
    25
  0
VERTEX
  5
256
  8
0
 62
     9
 10
0.0
 20
0.0
 30
0.0
 70
   128
 71
    97
 72
    25
 73
    98
  0
VERTEX
  5
257
  8
0
 62
     9
 10
0.0
 20
0.0
 30
0.0
 70
   128
 71
    97
 72
    25
 73
    26
  0
VERTEX
  5
258
  8
0
 62
     9
 10
0.0
 20
0.0
 30
0.0
 70
   128
 71
    24
 72
    26
 73
    96
  0
VERTEX
  5
259
  8
0
 62
     9
 10
0.0
 20
0.0
 30
0.0
 70
   128
 71
    96
 72
    24
 73
    95
  0
VERTEX
  5
25A
  8
0
 62
     9
 10
0.0
 20
0.0
 30
0.0
 70
   128
 71
    95
 72
    96
 73
    94
  0
VERTEX
  5
25B
  8
0
 62
     9
 10
0.0
 20
0.0
 30
0.0
 70
   128
 71
    94
 72
    95
 73
    93
  0
VERTEX
  5
25C
  8
0
 62
     9
 10
0.0
 20
0.0
 30
0.0
 70
   128
 71
    93
 72
    94
 73
    92
  0
VERTEX
  5
25D
  8
0
 62
     9
 10
0.0
 20
0.0
 30
0.0
 70
   128
 71
    92
 72
    93
 73
    91
  0
VERTEX
  5
25E
  8
0
 62
     9
 10
0.0
 20
0.0
 30
0.0
 70
   128
 71
    91
 72
    92
 73
    90
  0
VERTEX
  5
25F
  8
0
 62
     9
 10
0.0
 20
0.0
 30
0.0
 70
   128
 71
    90
 72
    91
 73
    81
  0
VERTEX
  5
260
  8
0
 62
     9
 10
0.0
 20
0.0
 30
0.0
 70
   128
 71
    81
 72
    90
 73
    15
  0
VERTEX
  5
261
  8
0
 62
     9
 10
0.0
 20
0.0
 30
0.0
 70
   128
 71
    63
 72
    14
 73
    15
  0
VERTEX
  5
262
  8
0
 62
     9
 10
0.0
 20
0.0
 30
0.0
 70
   128
 71
    69
 72
    28
 73
    13
  0
VERTEX
  5
263
  8
0
 62
     9
 10
0.0
 20
0.0
 30
0.0
 70
   128
 71
    59
 72
    60
 73
    99
  0
VERTEX
  5
264
  8
0
 62
     9
 10
0.0
 20
0.0
 30
0.0
 70
   128
 71
   100
 72
    34
 73
    66
  0
VERTEX
  5
265
  8
0
 62
     9
 10
0.0
 20
0.0
 30
0.0
 70
   128
 71
    38
 72
    49
 73
    50
  0
VERTEX
  5
266
  8
0
 62
     9
 10
0.0
 20
0.0
 30
0.0
 70
   128
 71
    50
 72
     7
 73
    85
  0
VERTEX
  5
267
  8
0
 62
     9
 10
0.0
 20
0.0
 30
0.0
 70
   128
 71
     1
 72
     2
 73
    40
  0
VERTEX
  5
268
  8
0
 62
     9
 10
0.0
 20
0.0
 30
0.0
 70
   128
 71
    56
 72
    74
 73
    55
  0
VERTEX
  5
269
  8
0
 62
     9
 10
0.0
 20
0.0
 30
0.0
 70
   128
 71
    55
 72
    59
 73
    99
  0
VERTEX
  5
26A
  8
0
 62
     9
 10
0.0
 20
0.0
 30
0.0
 70
   128
 71
    70
 72
    14
 73
    79
  0
VERTEX
  5
26B
  8
0
 62
     9
 10
0.0
 20
0.0
 30
0.0
 70
   128
 71
    83
 72
    15
 73
    29
  0
VERTEX
  5
26C
  8
0
 62
     9
 10
0.0
 20
0.0
 30
0.0
 70
   128
 71
    15
 72
    83
 73
    81
  0
VERTEX
  5
26D
  8
0
 62
     9
 10
0.0
 20
0.0
 30
0.0
 70
   128
 71
    63
 72
    82
 73
    77
  0
VERTEX
  5
26E
  8
0
 62
     9
 10
0.0
 20
0.0
 30
0.0
 70
   128
 71
    83
 72
    69
 73
    82
  0
VERTEX
  5
26F
  8
0
 62
     9
 10
0.0
 20
0.0
 30
0.0
 70
   128
 71
    69
 72
    83
 73
    29
  0
VERTEX
  5
270
  8
0
 62
     9
 10
0.0
 20
0.0
 30
0.0
 70
   128
 71
    77
 72
    82
 73
    69
  0
VERTEX
  5
271
  8
0
 62
     9
 10
0.0
 20
0.0
 30
0.0
 70
   128
 71
    69
 72
    27
 73
    28
  0
VERTEX
  5
272
  8
0
 62
     9
 10
0.0
 20
0.0
 30
0.0
 70
   128
 71
    29
 72
    27
 73
    69
  0
VERTEX
  5
273
  8
0
 62
     9
 10
0.0
 20
0.0
 30
0.0
 70
   128
 71
    13
 72
    70
 73
    69
  0
VERTEX
  5
274
  8
0
 62
     9
 10
0.0
 20
0.0
 30
0.0
 70
   128
 71
   101
 72
    34
 73
   100
  0
VERTEX
  5
275
  8
0
 62
     9
 10
0.0
 20
0.0
 30
0.0
 70
   128
 71
   103
 72
   102
 73
    55
  0
VERTEX
  5
276
  8
0
 62
     9
 10
0.0
 20
0.0
 30
0.0
 70
   128
 71
   102
 72
   103
 73
   104
  0
VERTEX
  5
277
  8
0
 62
     9
 10
0.0
 20
0.0
 30
0.0
 70
   128
 71
    55
 72
   105
 73
    74
  0
VERTEX
  5
278
  8
0
 62
     9
 10
0.0
 20
0.0
 30
0.0
 70
   128
 71
   102
 72
   105
 73
    55
  0
VERTEX
  5
279
  8
0
 62
     9
 10
0.0
 20
0.0
 30
0.0
 70
   128
 71
    34
 72
   101
 73
    39
  0
VERTEX
  5
27A
  8
0
 62
     9
 10
0.0
 20
0.0
 30
0.0
 70
   128
 71
    82
 72
    63
 73
    80
  0
VERTEX
  5
27B
  8
0
 62
     9
 10
0.0
 20
0.0
 30
0.0
 70
   128
 71
    19
 72
   106
 73
    23
  0
VERTEX
  5
27C
  8
0
 62
     9
 10
0.0
 20
0.0
 30
0.0
 70
   128
 71
   109
 72
   108
 73
   107
  0
VERTEX
  5
27D
  8
0
 62
     9
 10
0.0
 20
0.0
 30
0.0
 70
   128
 71
   112
 72
   111
 73
   110
  0
VERTEX
  5
27E
  8
0
 62
     9
 10
0.0
 20
0.0
 30
0.0
 70
   128
 71
   115
 72
   114
 73
   113
  0
VERTEX
  5
27F
  8
0
 62
     9
 10
0.0
 20
0.0
 30
0.0
 70
   128
 71
   110
 72
   112
 73
   116
  0
VERTEX
  5
280
  8
0
 62
     9
 10
0.0
 20
0.0
 30
0.0
 70
   128
 71
   116
 72
   112
 73
   110
  0
VERTEX
  5
281
  8
0
 62
     9
 10
0.0
 20
0.0
 30
0.0
 70
   128
 71
   119
 72
   118
 73
   117
  0
VERTEX
  5
282
  8
0
 62
     9
 10
0.0
 20
0.0
 30
0.0
 70
   128
 71
   119
 72
   117
 73
   118
  0
VERTEX
  5
283
  8
0
 62
     9
 10
0.0
 20
0.0
 30
0.0
 70
   128
 71
   114
 72
   121
 73
   120
  0
VERTEX
  5
284
  8
0
 62
     9
 10
0.0
 20
0.0
 30
0.0
 70
   128
 71
   108
 72
   122
 73
   107
  0
VERTEX
  5
285
  8
0
 62
     9
 10
0.0
 20
0.0
 30
0.0
 70
   128
 71
    20
 72
    19
 73
    22
  0
VERTEX
  5
286
  8
0
 62
     9
 10
0.0
 20
0.0
 30
0.0
 70
   128
 71
    22
 72
    19
 73
    23
  0
VERTEX
  5
287
  8
0
 62
     9
 10
0.0
 20
0.0
 30
0.0
 70
   128
 71
   106
 72
    22
 73
    23
  0
VERTEX
  5
288
  8
0
 62
     9
 10
0.0
 20
0.0
 30
0.0
 70
   128
 71
   119
 72
   123
 73
   118
  0
VERTEX
  5
289
  8
0
 62
     9
 10
0.0
 20
0.0
 30
0.0
 70
   128
 71
   107
 72
   120
 73
   109
  0
VERTEX
  5
28A
  8
0
 62
     9
 10
0.0
 20
0.0
 30
0.0
 70
   128
 71
   124
 72
   123
 73
   119
  0
VERTEX
  5
28B
  8
0
 62
     9
 10
0.0
 20
0.0
 30
0.0
 70
   128
 71
   127
 72
   126
 73
   125
  0
VERTEX
  5
28C
  8
0
 62
     9
 10
0.0
 20
0.0
 30
0.0
 70
   128
 71
    20
 72
   106
 73
    19
  0
VERTEX
  5
28D
  8
0
 62
     9
 10
0.0
 20
0.0
 30
0.0
 70
   128
 71
   128
 72
   110
 73
   111
  0
VERTEX
  5
28E
  8
0
 62
     9
 10
0.0
 20
0.0
 30
0.0
 70
   128
 71
   130
 72
   129
 73
   122
  0
VERTEX
  5
28F
  8
0
 62
     9
 10
0.0
 20
0.0
 30
0.0
 70
   128
 71
   122
 72
   129
 73
   107
  0
VERTEX
  5
290
  8
0
 62
     9
 10
0.0
 20
0.0
 30
0.0
 70
   128
 71
   108
 72
   107
 73
   131
  0
VERTEX
  5
291
  8
0
 62
     9
 10
0.0
 20
0.0
 30
0.0
 70
   128
 71
   131
 72
   107
 73
   108
  0
VERTEX
  5
292
  8
0
 62
     9
 10
0.0
 20
0.0
 30
0.0
 70
   128
 71
   109
 72
   120
 73
   121
  0
VERTEX
  5
293
  8
0
 62
     9
 10
0.0
 20
0.0
 30
0.0
 70
   128
 71
   121
 72
   114
 73
   115
  0
VERTEX
  5
294
  8
0
 62
     9
 10
0.0
 20
0.0
 30
0.0
 70
   128
 71
   115
 72
   113
 73
    84
  0
VERTEX
  5
295
  8
0
 62
     9
 10
0.0
 20
0.0
 30
0.0
 70
   128
 71
   132
 72
   123
 73
   124
  0
VERTEX
  5
296
  8
0
 62
     9
 10
0.0
 20
0.0
 30
0.0
 70
   128
 71
   134
 72
   127
 73
   133
  0
VERTEX
  5
297
  8
0
 62
     9
 10
0.0
 20
0.0
 30
0.0
 70
   128
 71
   133
 72
   127
 73
   125
  0
VERTEX
  5
298
  8
0
 62
     9
 10
0.0
 20
0.0
 30
0.0
 70
   128
 71
   106
 72
    20
 73
    22
  0
VERTEX
  5
299
  8
0
 62
     9
 10
0.0
 20
0.0
 30
0.0
 70
   128
 71
    21
 72
   106
 73
    20
  0
VERTEX
  5
29A
  8
0
 62
     9
 10
0.0
 20
0.0
 30
0.0
 70
   128
 71
   106
 72
    21
 73
    20
  0
VERTEX
  5
29B
  8
0
 62
     9
 10
0.0
 20
0.0
 30
0.0
 70
   128
 71
   135
 72
   111
 73
   112
  0
VERTEX
  5
29C
  8
0
 62
     9
 10
0.0
 20
0.0
 30
0.0
 70
   128
 71
   137
 72
   136
 73
   124
  0
VERTEX
  5
29D
  8
0
 62
     9
 10
0.0
 20
0.0
 30
0.0
 70
   128
 71
   132
 72
   123
 73
   138
  0
VERTEX
  5
29E
  8
0
 62
     9
 10
0.0
 20
0.0
 30
0.0
 70
   128
 71
   141
 72
   140
 73
   139
  0
VERTEX
  5
29F
  8
0
 62
     9
 10
0.0
 20
0.0
 30
0.0
 70
   128
 71
     8
 72
   143
 73
   142
  0
VERTEX
  5
2A0
  8
0
 62
     9
 10
0.0
 20
0.0
 30
0.0
 70
   128
 71
     3
 72
   144
 73
   142
  0
VERTEX
  5
2A1
  8
0
 62
     9
 10
0.0
 20
0.0
 30
0.0
 70
   128
 71
   145
 72
   143
 73
    50
  0
VERTEX
  5
2A2
  8
0
 62
     9
 10
0.0
 20
0.0
 30
0.0
 70
   128
 71
    37
 72
   145
 73
    38
  0
VERTEX
  5
2A3
  8
0
 62
     9
 10
0.0
 20
0.0
 30
0.0
 70
   128
 71
   145
 72
    50
 73
    38
  0
VERTEX
  5
2A4
  8
0
 62
     9
 10
0.0
 20
0.0
 30
0.0
 70
   128
 71
   146
 72
   145
 73
    37
  0
VERTEX
  5
2A5
  8
0
 62
     9
 10
0.0
 20
0.0
 30
0.0
 70
   128
 71
   146
 72
    38
 73
   145
  0
VERTEX
  5
2A6
  8
0
 62
     9
 10
0.0
 20
0.0
 30
0.0
 70
   128
 71
    44
 72
    45
 73
   146
  0
VERTEX
  5
2A7
  8
0
 62
     9
 10
0.0
 20
0.0
 30
0.0
 70
   128
 71
    44
 72
   146
 73
    37
  0
VERTEX
  5
2A8
  8
0
 62
     9
 10
0.0
 20
0.0
 30
0.0
 70
   128
 71
    45
 72
   147
 73
   146
  0
VERTEX
  5
2A9
  8
0
 62
     9
 10
0.0
 20
0.0
 30
0.0
 70
   128
 71
   146
 72
   147
 73
    44
  0
VERTEX
  5
2AA
  8
0
 62
     9
 10
0.0
 20
0.0
 30
0.0
 70
   128
 71
    45
 72
    34
 73
   147
  0
VERTEX
  5
2AB
  8
0
 62
     9
 10
0.0
 20
0.0
 30
0.0
 70
   128
 71
   143
 72
   145
 73
    85
  0
VERTEX
  5
2AC
  8
0
 62
     9
 10
0.0
 20
0.0
 30
0.0
 70
   128
 71
     8
 72
    85
 73
   143
  0
VERTEX
  5
2AD
  8
0
 62
     9
 10
0.0
 20
0.0
 30
0.0
 70
   128
 71
   143
 72
    85
 73
    50
  0
VERTEX
  5
2AE
  8
0
 62
     9
 10
0.0
 20
0.0
 30
0.0
 70
   128
 71
     8
 72
   142
 73
    40
  0
VERTEX
  5
2AF
  8
0
 62
     9
 10
0.0
 20
0.0
 30
0.0
 70
   128
 71
    40
 72
   142
 73
   143
  0
VERTEX
  5
2B0
  8
0
 62
     9
 10
0.0
 20
0.0
 30
0.0
 70
   128
 71
   142
 72
   144
 73
     2
  0
VERTEX
  5
2B1
  8
0
 62
     9
 10
0.0
 20
0.0
 30
0.0
 70
   128
 71
     2
 72
    40
 73
   142
  0
VERTEX
  5
2B2
  8
0
 62
     9
 10
0.0
 20
0.0
 30
0.0
 70
   128
 71
   139
 72
     3
 73
   144
  0
VERTEX
  5
2B3
  8
0
 62
     9
 10
0.0
 20
0.0
 30
0.0
 70
   128
 71
     3
 72
     2
 73
   144
  0
VERTEX
  5
2B4
  8
0
 62
     9
 10
0.0
 20
0.0
 30
0.0
 70
   128
 71
   140
 72
   148
 73
   139
  0
VERTEX
  5
2B5
  8
0
 62
     9
 10
0.0
 20
0.0
 30
0.0
 70
   128
 71
   139
 72
   148
 73
     3
  0
VERTEX
  5
2B6
  8
0
 62
     9
 10
0.0
 20
0.0
 30
0.0
 70
   128
 71
   123
 72
   141
 73
   138
  0
VERTEX
  5
2B7
  8
0
 62
     9
 10
0.0
 20
0.0
 30
0.0
 70
   128
 71
   140
 72
   141
 73
   123
  0
VERTEX
  5
2B8
  8
0
 62
     9
 10
0.0
 20
0.0
 30
0.0
 70
   128
 71
   138
 72
   137
 73
   132
  0
VERTEX
  5
2B9
  8
0
 62
     9
 10
0.0
 20
0.0
 30
0.0
 70
   128
 71
   136
 72
   137
 73
   124
  0
VERTEX
  5
2BA
  8
0
 62
     9
 10
0.0
 20
0.0
 30
0.0
 70
   128
 71
   132
 72
   137
 73
   138
  0
VERTEX
  5
2BB
  8
0
 62
     9
 10
0.0
 20
0.0
 30
0.0
 70
   128
 71
   124
 72
   119
 73
   136
  0
VERTEX
  5
2BC
  8
0
 62
     9
 10
0.0
 20
0.0
 30
0.0
 70
   128
 71
   136
 72
   119
 73
   124
  0
VERTEX
  5
2BD
  8
0
 62
     9
 10
0.0
 20
0.0
 30
0.0
 70
   128
 71
   124
 72
   137
 73
   132
  0
VERTEX
  5
2BE
  8
0
 62
     9
 10
0.0
 20
0.0
 30
0.0
 70
   128
 71
   132
 72
   137
 73
   124
  0
VERTEX
  5
2BF
  8
0
 62
     9
 10
0.0
 20
0.0
 30
0.0
 70
   128
 71
   138
 72
   123
 73
   132
  0
VERTEX
  5
2C0
  8
0
 62
     9
 10
0.0
 20
0.0
 30
0.0
 70
   128
 71
   141
 72
   140
 73
   123
  0
VERTEX
  5
2C1
  8
0
 62
     9
 10
0.0
 20
0.0
 30
0.0
 70
   128
 71
   138
 72
   141
 73
   123
  0
VERTEX
  5
2C2
  8
0
 62
     9
 10
0.0
 20
0.0
 30
0.0
 70
   128
 71
   139
 72
   148
 73
   140
  0
VERTEX
  5
2C3
  8
0
 62
     9
 10
0.0
 20
0.0
 30
0.0
 70
   128
 71
   141
 72
   139
 73
   140
  0
VERTEX
  5
2C4
  8
0
 62
     9
 10
0.0
 20
0.0
 30
0.0
 70
   128
 71
   144
 72
     3
 73
   148
  0
VERTEX
  5
2C5
  8
0
 62
     9
 10
0.0
 20
0.0
 30
0.0
 70
   128
 71
   139
 72
   144
 73
   148
  0
VERTEX
  5
2C6
  8
0
 62
     9
 10
0.0
 20
0.0
 30
0.0
 70
   128
 71
   142
 72
     2
 73
     3
  0
VERTEX
  5
2C7
  8
0
 62
     9
 10
0.0
 20
0.0
 30
0.0
 70
   128
 71
   142
 72
    40
 73
     2
  0
VERTEX
  5
2C8
  8
0
 62
     9
 10
0.0
 20
0.0
 30
0.0
 70
   128
 71
   143
 72
     8
 73
    40
  0
VERTEX
  5
2C9
  8
0
 62
     9
 10
0.0
 20
0.0
 30
0.0
 70
   128
 71
   143
 72
    85
 73
     8
  0
VERTEX
  5
2CA
  8
0
 62
     9
 10
0.0
 20
0.0
 30
0.0
 70
   128
 71
   145
 72
    50
 73
    85
  0
VERTEX
  5
2CB
  8
0
 62
     9
 10
0.0
 20
0.0
 30
0.0
 70
   128
 71
   145
 72
    38
 73
    50
  0
VERTEX
  5
2CC
  8
0
 62
     9
 10
0.0
 20
0.0
 30
0.0
 70
   128
 71
   146
 72
    37
 73
    38
  0
VERTEX
  5
2CD
  8
0
 62
     9
 10
0.0
 20
0.0
 30
0.0
 70
   128
 71
   146
 72
    44
 73
    37
  0
VERTEX
  5
2CE
  8
0
 62
     9
 10
0.0
 20
0.0
 30
0.0
 70
   128
 71
   147
 72
    45
 73
    44
  0
VERTEX
  5
2CF
  8
0
 62
     9
 10
0.0
 20
0.0
 30
0.0
 70
   128
 71
   147
 72
    34
 73
    45
  0
VERTEX
  5
2D0
  8
0
 62
     9
 10
0.0
 20
0.0
 30
0.0
 70
   128
 71
   149
 72
    90
 73
    91
  0
VERTEX
  5
2D1
  8
0
 62
     9
 10
0.0
 20
0.0
 30
0.0
 70
   128
 71
    63
 72
    77
 73
   150
  0
VERTEX
  5
2D2
  8
0
 62
     9
 10
0.0
 20
0.0
 30
0.0
 70
   128
 71
    93
 72
   151
 73
    92
  0
VERTEX
  5
2D3
  8
0
 62
     9
 10
0.0
 20
0.0
 30
0.0
 70
   128
 71
   151
 72
   149
 73
    91
  0
VERTEX
  5
2D4
  8
0
 62
     9
 10
0.0
 20
0.0
 30
0.0
 70
   128
 71
    91
 72
    92
 73
   151
  0
VERTEX
  5
2D5
  8
0
 62
     9
 10
0.0
 20
0.0
 30
0.0
 70
   128
 71
    94
 72
   151
 73
    93
  0
VERTEX
  5
2D6
  8
0
 62
     9
 10
0.0
 20
0.0
 30
0.0
 70
   128
 71
    92
 72
   151
 73
    93
  0
VERTEX
  5
2D7
  8
0
 62
     9
 10
0.0
 20
0.0
 30
0.0
 70
   128
 71
    94
 72
    95
 73
   151
  0
VERTEX
  5
2D8
  8
0
 62
     9
 10
0.0
 20
0.0
 30
0.0
 70
   128
 71
    93
 72
   152
 73
    94
  0
VERTEX
  5
2D9
  8
0
 62
     9
 10
0.0
 20
0.0
 30
0.0
 70
   128
 71
   152
 72
    95
 73
    94
  0
VERTEX
  5
2DA
  8
0
 62
     9
 10
0.0
 20
0.0
 30
0.0
 70
   128
 71
    95
 72
   152
 73
   151
  0
VERTEX
  5
2DB
  8
0
 62
     9
 10
0.0
 20
0.0
 30
0.0
 70
   128
 71
    96
 72
   152
 73
    95
  0
VERTEX
  5
2DC
  8
0
 62
     9
 10
0.0
 20
0.0
 30
0.0
 70
   128
 71
   152
 72
    96
 73
    24
  0
VERTEX
  5
2DD
  8
0
 62
     9
 10
0.0
 20
0.0
 30
0.0
 70
   128
 71
   152
 72
    24
 73
    26
  0
VERTEX
  5
2DE
  8
0
 62
     9
 10
0.0
 20
0.0
 30
0.0
 70
   128
 71
   152
 72
    24
 73
    96
  0
VERTEX
  5
2DF
  8
0
 62
     9
 10
0.0
 20
0.0
 30
0.0
 70
   128
 71
   153
 72
    24
 73
   152
  0
VERTEX
  5
2E0
  8
0
 62
     9
 10
0.0
 20
0.0
 30
0.0
 70
   128
 71
    25
 72
   153
 73
   152
  0
VERTEX
  5
2E1
  8
0
 62
     9
 10
0.0
 20
0.0
 30
0.0
 70
   128
 71
    26
 72
    25
 73
   152
  0
VERTEX
  5
2E2
  8
0
 62
     9
 10
0.0
 20
0.0
 30
0.0
 70
   128
 71
    97
 72
   154
 73
   153
  0
VERTEX
  5
2E3
  8
0
 62
     9
 10
0.0
 20
0.0
 30
0.0
 70
   128
 71
    25
 72
    26
 73
   153
  0
VERTEX
  5
2E4
  8
0
 62
     9
 10
0.0
 20
0.0
 30
0.0
 70
   128
 71
   153
 72
    26
 73
    24
  0
VERTEX
  5
2E5
  8
0
 62
     9
 10
0.0
 20
0.0
 30
0.0
 70
   128
 71
    97
 72
   153
 73
    25
  0
VERTEX
  5
2E6
  8
0
 62
     9
 10
0.0
 20
0.0
 30
0.0
 70
   128
 71
   154
 72
    97
 73
   155
  0
VERTEX
  5
2E7
  8
0
 62
     9
 10
0.0
 20
0.0
 30
0.0
 70
   128
 71
   157
 72
   112
 73
   156
  0
VERTEX
  5
2E8
  8
0
 62
     9
 10
0.0
 20
0.0
 30
0.0
 70
   128
 71
   154
 72
   155
 73
   158
  0
VERTEX
  5
2E9
  8
0
 62
     9
 10
0.0
 20
0.0
 30
0.0
 70
   128
 71
   159
 72
   128
 73
   157
  0
VERTEX
  5
2EA
  8
0
 62
     9
 10
0.0
 20
0.0
 30
0.0
 70
   128
 71
   161
 72
   160
 73
   158
  0
VERTEX
  5
2EB
  8
0
 62
     9
 10
0.0
 20
0.0
 30
0.0
 70
   128
 71
   159
 72
   160
 73
   111
  0
VERTEX
  5
2EC
  8
0
 62
     9
 10
0.0
 20
0.0
 30
0.0
 70
   128
 71
   110
 72
   112
 73
   157
  0
VERTEX
  5
2ED
  8
0
 62
     9
 10
0.0
 20
0.0
 30
0.0
 70
   128
 71
   128
 72
   159
 73
   111
  0
VERTEX
  5
2EE
  8
0
 62
     9
 10
0.0
 20
0.0
 30
0.0
 70
   128
 71
   128
 72
   110
 73
   157
  0
VERTEX
  5
2EF
  8
0
 62
     9
 10
0.0
 20
0.0
 30
0.0
 70
   128
 71
   161
 72
   111
 73
   160
  0
VERTEX
  5
2F0
  8
0
 62
     9
 10
0.0
 20
0.0
 30
0.0
 70
   128
 71
   158
 72
   155
 73
   161
  0
VERTEX
  5
2F1
  8
0
 62
     9
 10
0.0
 20
0.0
 30
0.0
 70
   128
 71
    91
 72
    90
 73
   151
  0
VERTEX
  5
2F2
  8
0
 62
     9
 10
0.0
 20
0.0
 30
0.0
 70
   128
 71
   149
 72
    81
 73
    90
  0
VERTEX
  5
2F3
  8
0
 62
     9
 10
0.0
 20
0.0
 30
0.0
 70
   128
 71
    90
 72
    81
 73
   151
  0
VERTEX
  5
2F4
  8
0
 62
     9
 10
0.0
 20
0.0
 30
0.0
 70
   128
 71
   149
 72
    81
 73
    15
  0
VERTEX
  5
2F5
  8
0
 62
     9
 10
0.0
 20
0.0
 30
0.0
 70
   128
 71
   149
 72
    15
 73
    81
  0
VERTEX
  5
2F6
  8
0
 62
     9
 10
0.0
 20
0.0
 30
0.0
 70
   128
 71
    15
 72
   149
 73
    80
  0
VERTEX
  5
2F7
  8
0
 62
     9
 10
0.0
 20
0.0
 30
0.0
 70
   128
 71
   149
 72
    82
 73
    80
  0
VERTEX
  5
2F8
  8
0
 62
     9
 10
0.0
 20
0.0
 30
0.0
 70
   128
 71
   149
 72
   162
 73
    82
  0
VERTEX
  5
2F9
  8
0
 62
     9
 10
0.0
 20
0.0
 30
0.0
 70
   128
 71
    80
 72
    82
 73
   149
  0
VERTEX
  5
2FA
  8
0
 62
     9
 10
0.0
 20
0.0
 30
0.0
 70
   128
 71
    83
 72
    82
 73
   162
  0
VERTEX
  5
2FB
  8
0
 62
     9
 10
0.0
 20
0.0
 30
0.0
 70
   128
 71
    83
 72
   149
 73
    82
  0
VERTEX
  5
2FC
  8
0
 62
     9
 10
0.0
 20
0.0
 30
0.0
 70
   128
 71
    83
 72
   162
 73
    29
  0
VERTEX
  5
2FD
  8
0
 62
     9
 10
0.0
 20
0.0
 30
0.0
 70
   128
 71
    83
 72
    29
 73
   162
  0
VERTEX
  5
2FE
  8
0
 62
     9
 10
0.0
 20
0.0
 30
0.0
 70
   128
 71
   162
 72
    28
 73
    27
  0
VERTEX
  5
2FF
  8
0
 62
     9
 10
0.0
 20
0.0
 30
0.0
 70
   128
 71
    27
 72
   162
 73
    29
  0
VERTEX
  5
300
  8
0
 62
     9
 10
0.0
 20
0.0
 30
0.0
 70
   128
 71
   162
 72
    13
 73
    28
  0
VERTEX
  5
301
  8
0
 62
     9
 10
0.0
 20
0.0
 30
0.0
 70
   128
 71
   162
 72
    63
 73
   150
  0
VERTEX
  5
302
  8
0
 62
     9
 10
0.0
 20
0.0
 30
0.0
 70
   128
 71
    13
 72
   162
 73
   150
  0
VERTEX
  5
303
  8
0
 62
     9
 10
0.0
 20
0.0
 30
0.0
 70
   128
 71
   162
 72
    28
 73
    13
  0
VERTEX
  5
304
  8
0
 62
     9
 10
0.0
 20
0.0
 30
0.0
 70
   128
 71
   150
 72
    14
 73
    13
  0
VERTEX
  5
305
  8
0
 62
     9
 10
0.0
 20
0.0
 30
0.0
 70
   128
 71
    13
 72
    14
 73
   162
  0
VERTEX
  5
306
  8
0
 62
     9
 10
0.0
 20
0.0
 30
0.0
 70
   128
 71
    63
 72
    14
 73
   150
  0
VERTEX
  5
307
  8
0
 62
     9
 10
0.0
 20
0.0
 30
0.0
 70
   128
 71
    63
 72
   162
 73
    14
  0
VERTEX
  5
308
  8
0
 62
     9
 10
0.0
 20
0.0
 30
0.0
 70
   128
 71
   150
 72
    65
 73
    77
  0
VERTEX
  5
309
  8
0
 62
     9
 10
0.0
 20
0.0
 30
0.0
 70
   128
 71
   163
 72
   150
 73
    67
  0
VERTEX
  5
30A
  8
0
 62
     9
 10
0.0
 20
0.0
 30
0.0
 70
   128
 71
    65
 72
   150
 73
    64
  0
VERTEX
  5
30B
  8
0
 62
     9
 10
0.0
 20
0.0
 30
0.0
 70
   128
 71
   150
 72
    67
 73
    64
  0
VERTEX
  5
30C
  8
0
 62
     9
 10
0.0
 20
0.0
 30
0.0
 70
   128
 71
    65
 72
    64
 73
   150
  0
VERTEX
  5
30D
  8
0
 62
     9
 10
0.0
 20
0.0
 30
0.0
 70
   128
 71
   150
 72
    64
 73
    67
  0
VERTEX
  5
30E
  8
0
 62
     9
 10
0.0
 20
0.0
 30
0.0
 70
   128
 71
    67
 72
   150
 73
   163
  0
VERTEX
  5
30F
  8
0
 62
     9
 10
0.0
 20
0.0
 30
0.0
 70
   128
 71
    68
 72
   163
 73
    67
  0
VERTEX
  5
310
  8
0
 62
     9
 10
0.0
 20
0.0
 30
0.0
 70
   128
 71
   163
 72
    68
 73
    67
  0
VERTEX
  5
311
  8
0
 62
     9
 10
0.0
 20
0.0
 30
0.0
 70
   128
 71
    78
 72
    68
 73
   163
  0
VERTEX
  5
312
  8
0
 62
     9
 10
0.0
 20
0.0
 30
0.0
 70
   128
 71
   163
 72
    78
 73
    69
  0
VERTEX
  5
313
  8
0
 62
     9
 10
0.0
 20
0.0
 30
0.0
 70
   128
 71
    68
 72
    78
 73
   163
  0
VERTEX
  5
314
  8
0
 62
     9
 10
0.0
 20
0.0
 30
0.0
 70
   128
 71
   163
 72
    69
 73
    78
  0
VERTEX
  5
315
  8
0
 62
     9
 10
0.0
 20
0.0
 30
0.0
 70
   128
 71
    65
 72
   150
 73
    77
  0
VERTEX
  5
316
  8
0
 62
     9
 10
0.0
 20
0.0
 30
0.0
 70
   128
 71
   150
 72
    77
 73
    63
  0
VERTEX
  5
317
  8
0
 62
     9
 10
0.0
 20
0.0
 30
0.0
 70
   128
 71
    28
 72
   162
 73
    27
  0
VERTEX
  5
318
  8
0
 62
     9
 10
0.0
 20
0.0
 30
0.0
 70
   128
 71
   162
 72
    27
 73
    29
  0
VERTEX
  5
319
  8
0
 62
     9
 10
0.0
 20
0.0
 30
0.0
 70
   128
 71
    83
 72
   162
 73
   149
  0
VERTEX
  5
31A
  8
0
 62
     9
 10
0.0
 20
0.0
 30
0.0
 70
   128
 71
    80
 72
   149
 73
    15
  0
VERTEX
  5
31B
  8
0
 62
     9
 10
0.0
 20
0.0
 30
0.0
 70
   128
 71
    81
 72
   149
 73
   151
  0
VERTEX
  5
31C
  8
0
 62
     9
 10
0.0
 20
0.0
 30
0.0
 70
   128
 71
    91
 72
   151
 73
    92
  0
VERTEX
  5
31D
  8
0
 62
     9
 10
0.0
 20
0.0
 30
0.0
 70
   128
 71
    93
 72
   151
 73
   152
  0
VERTEX
  5
31E
  8
0
 62
     9
 10
0.0
 20
0.0
 30
0.0
 70
   128
 71
    95
 72
   152
 73
    96
  0
VERTEX
  5
31F
  8
0
 62
     9
 10
0.0
 20
0.0
 30
0.0
 70
   128
 71
   153
 72
    97
 73
    25
  0
VERTEX
  5
320
  8
0
 62
     9
 10
0.0
 20
0.0
 30
0.0
 70
   128
 71
   154
 72
   155
 73
    97
  0
VERTEX
  5
321
  8
0
 62
     9
 10
0.0
 20
0.0
 30
0.0
 70
   128
 71
   153
 72
   154
 73
    97
  0
VERTEX
  5
322
  8
0
 62
     9
 10
0.0
 20
0.0
 30
0.0
 70
   128
 71
   158
 72
   161
 73
   155
  0
VERTEX
  5
323
  8
0
 62
     9
 10
0.0
 20
0.0
 30
0.0
 70
   128
 71
   154
 72
   158
 73
   155
  0
VERTEX
  5
324
  8
0
 62
     9
 10
0.0
 20
0.0
 30
0.0
 70
   128
 71
   160
 72
   161
 73
   158
  0
VERTEX
  5
325
  8
0
 62
     9
 10
0.0
 20
0.0
 30
0.0
 70
   128
 71
   160
 72
   111
 73
   161
  0
VERTEX
  5
326
  8
0
 62
     9
 10
0.0
 20
0.0
 30
0.0
 70
   128
 71
   159
 72
   111
 73
   160
  0
VERTEX
  5
327
  8
0
 62
     9
 10
0.0
 20
0.0
 30
0.0
 70
   128
 71
   159
 72
   128
 73
   111
  0
VERTEX
  5
328
  8
0
 62
     9
 10
0.0
 20
0.0
 30
0.0
 70
   128
 71
   157
 72
   110
 73
   128
  0
VERTEX
  5
329
  8
0
 62
     9
 10
0.0
 20
0.0
 30
0.0
 70
   128
 71
   159
 72
   157
 73
   128
  0
VERTEX
  5
32A
  8
0
 62
     9
 10
0.0
 20
0.0
 30
0.0
 70
   128
 71
   156
 72
   112
 73
   110
  0
VERTEX
  5
32B
  8
0
 62
     9
 10
0.0
 20
0.0
 30
0.0
 70
   128
 71
   157
 72
   156
 73
   110
  0
VERTEX
  5
32C
  8
0
 62
     9
 10
0.0
 20
0.0
 30
0.0
 70
   128
 71
    47
 72
    34
 73
    69
  0
VERTEX
  5
32D
  8
0
 62
     9
 10
0.0
 20
0.0
 30
0.0
 70
   128
 71
    34
 72
    48
 73
    51
  0
VERTEX
  5
32E
  8
0
 62
     9
 10
0.0
 20
0.0
 30
0.0
 70
   128
 71
    47
 72
    48
 73
    34
  0
VERTEX
  5
32F
  8
0
 62
     9
 10
0.0
 20
0.0
 30
0.0
 70
   128
 71
    51
 72
    46
 73
    34
  0
VERTEX
  5
330
  8
0
 62
     9
 10
0.0
 20
0.0
 30
0.0
 70
   128
 71
   164
 72
   116
 73
   112
  0
VERTEX
  5
331
  8
0
 62
     9
 10
0.0
 20
0.0
 30
0.0
 70
   128
 71
   119
 72
   164
 73
   112
  0
VERTEX
  5
332
  8
0
 62
     9
 10
0.0
 20
0.0
 30
0.0
 70
   128
 71
     3
 72
    24
 73
     2
  0
VERTEX
  5
333
  8
0
 62
     9
 10
0.0
 20
0.0
 30
0.0
 70
   128
 71
    68
 72
    78
 73
    34
  0
VERTEX
  5
334
  8
0
 62
     9
 10
0.0
 20
0.0
 30
0.0
 70
   128
 71
   148
 72
    97
 73
     3
  0
VERTEX
  5
335
  8
0
 62
     9
 10
0.0
 20
0.0
 30
0.0
 70
   128
 71
    26
 72
    24
 73
     3
  0
VERTEX
  5
336
  8
0
 62
     9
 10
0.0
 20
0.0
 30
0.0
 70
   128
 71
   132
 72
   111
 73
   123
  0
VERTEX
  5
337
  8
0
 62
     9
 10
0.0
 20
0.0
 30
0.0
 70
   128
 71
   132
 72
   124
 73
   128
  0
VERTEX
  5
338
  8
0
 62
     9
 10
0.0
 20
0.0
 30
0.0
 70
   128
 71
   111
 72
   161
 73
   123
  0
VERTEX
  5
339
  8
0
 62
     9
 10
0.0
 20
0.0
 30
0.0
 70
   128
 71
   140
 72
   123
 73
   161
  0
VERTEX
  5
33A
  8
0
 62
     9
 10
0.0
 20
0.0
 30
0.0
 70
   128
 71
   161
 72
   155
 73
   140
  0
VERTEX
  5
33B
  8
0
 62
     9
 10
0.0
 20
0.0
 30
0.0
 70
   128
 71
   111
 72
   132
 73
   128
  0
VERTEX
  5
33C
  8
0
 62
     9
 10
0.0
 20
0.0
 30
0.0
 70
   128
 71
   155
 72
    97
 73
   148
  0
VERTEX
  5
33D
  8
0
 62
     9
 10
0.0
 20
0.0
 30
0.0
 70
   128
 71
   155
 72
   148
 73
   140
  0
VERTEX
  5
33E
  8
0
 62
     9
 10
0.0
 20
0.0
 30
0.0
 70
   128
 71
   110
 72
   124
 73
   119
  0
VERTEX
  5
33F
  8
0
 62
     9
 10
0.0
 20
0.0
 30
0.0
 70
   128
 71
   128
 72
   124
 73
   110
  0
VERTEX
  5
340
  8
0
 62
     9
 10
0.0
 20
0.0
 30
0.0
 70
   128
 71
    25
 72
     3
 73
    97
  0
VERTEX
  5
341
  8
0
 62
     9
 10
0.0
 20
0.0
 30
0.0
 70
   128
 71
   112
 72
   110
 73
   119
  0
VERTEX
  5
342
  8
0
 62
     9
 10
0.0
 20
0.0
 30
0.0
 70
   128
 71
    26
 72
     3
 73
    25
  0
VERTEX
  5
343
  8
0
 62
     9
 10
0.0
 20
0.0
 30
0.0
 70
   128
 71
    24
 72
    96
 73
     2
  0
VERTEX
  5
344
  8
0
 62
     9
 10
0.0
 20
0.0
 30
0.0
 70
   128
 71
    96
 72
    95
 73
     2
  0
VERTEX
  5
345
  8
0
 62
     9
 10
0.0
 20
0.0
 30
0.0
 70
   128
 71
    94
 72
    40
 73
    95
  0
VERTEX
  5
346
  8
0
 62
     9
 10
0.0
 20
0.0
 30
0.0
 70
   128
 71
     2
 72
    95
 73
    40
  0
VERTEX
  5
347
  8
0
 62
     9
 10
0.0
 20
0.0
 30
0.0
 70
   128
 71
    40
 72
    94
 73
    93
  0
VERTEX
  5
348
  8
0
 62
     9
 10
0.0
 20
0.0
 30
0.0
 70
   128
 71
    93
 72
    92
 73
     8
  0
VERTEX
  5
349
  8
0
 62
     9
 10
0.0
 20
0.0
 30
0.0
 70
   128
 71
     8
 72
    40
 73
    93
  0
VERTEX
  5
34A
  8
0
 62
     9
 10
0.0
 20
0.0
 30
0.0
 70
   128
 71
     8
 72
    91
 73
    85
  0
VERTEX
  5
34B
  8
0
 62
     9
 10
0.0
 20
0.0
 30
0.0
 70
   128
 71
    91
 72
     8
 73
    92
  0
VERTEX
  5
34C
  8
0
 62
     9
 10
0.0
 20
0.0
 30
0.0
 70
   128
 71
    85
 72
    90
 73
    81
  0
VERTEX
  5
34D
  8
0
 62
     9
 10
0.0
 20
0.0
 30
0.0
 70
   128
 71
    91
 72
    90
 73
    85
  0
VERTEX
  5
34E
  8
0
 62
     9
 10
0.0
 20
0.0
 30
0.0
 70
   128
 71
    15
 72
    50
 73
    81
  0
VERTEX
  5
34F
  8
0
 62
     9
 10
0.0
 20
0.0
 30
0.0
 70
   128
 71
    85
 72
    81
 73
    50
  0
VERTEX
  5
350
  8
0
 62
     9
 10
0.0
 20
0.0
 30
0.0
 70
   128
 71
    80
 72
    38
 73
    50
  0
VERTEX
  5
351
  8
0
 62
     9
 10
0.0
 20
0.0
 30
0.0
 70
   128
 71
    50
 72
    15
 73
    80
  0
VERTEX
  5
352
  8
0
 62
     9
 10
0.0
 20
0.0
 30
0.0
 70
   128
 71
    82
 72
    83
 73
    38
  0
VERTEX
  5
353
  8
0
 62
     9
 10
0.0
 20
0.0
 30
0.0
 70
   128
 71
    82
 72
    38
 73
    80
  0
VERTEX
  5
354
  8
0
 62
     9
 10
0.0
 20
0.0
 30
0.0
 70
   128
 71
    38
 72
    29
 73
    37
  0
VERTEX
  5
355
  8
0
 62
     9
 10
0.0
 20
0.0
 30
0.0
 70
   128
 71
    29
 72
    38
 73
    83
  0
VERTEX
  5
356
  8
0
 62
     9
 10
0.0
 20
0.0
 30
0.0
 70
   128
 71
    37
 72
    27
 73
    28
  0
VERTEX
  5
357
  8
0
 62
     9
 10
0.0
 20
0.0
 30
0.0
 70
   128
 71
    29
 72
    27
 73
    37
  0
VERTEX
  5
358
  8
0
 62
     9
 10
0.0
 20
0.0
 30
0.0
 70
   128
 71
    44
 72
    37
 73
    13
  0
VERTEX
  5
359
  8
0
 62
     9
 10
0.0
 20
0.0
 30
0.0
 70
   128
 71
    28
 72
    13
 73
    37
  0
VERTEX
  5
35A
  8
0
 62
     9
 10
0.0
 20
0.0
 30
0.0
 70
   128
 71
    63
 72
    44
 73
    14
  0
VERTEX
  5
35B
  8
0
 62
     9
 10
0.0
 20
0.0
 30
0.0
 70
   128
 71
    44
 72
    13
 73
    14
  0
VERTEX
  5
35C
  8
0
 62
     9
 10
0.0
 20
0.0
 30
0.0
 70
   128
 71
    77
 72
    45
 73
    44
  0
VERTEX
  5
35D
  8
0
 62
     9
 10
0.0
 20
0.0
 30
0.0
 70
   128
 71
    44
 72
    63
 73
    77
  0
VERTEX
  5
35E
  8
0
 62
     9
 10
0.0
 20
0.0
 30
0.0
 70
   128
 71
    65
 72
    64
 73
    45
  0
VERTEX
  5
35F
  8
0
 62
     9
 10
0.0
 20
0.0
 30
0.0
 70
   128
 71
    65
 72
    45
 73
    77
  0
VERTEX
  5
360
  8
0
 62
     9
 10
0.0
 20
0.0
 30
0.0
 70
   128
 71
    34
 72
    64
 73
    67
  0
VERTEX
  5
361
  8
0
 62
     9
 10
0.0
 20
0.0
 30
0.0
 70
   128
 71
    64
 72
    34
 73
    45
  0
VERTEX
  5
362
  8
0
 62
     9
 10
0.0
 20
0.0
 30
0.0
 70
   128
 71
    69
 72
    34
 73
    78
  0
VERTEX
  5
363
  8
0
 62
     9
 10
0.0
 20
0.0
 30
0.0
 70
   128
 71
    67
 72
    68
 73
    34
  0
SEQEND
  5
364
  8
0
  0
ENDBLK
  5
367
  8
0
  0
BLOCK
  8
0
  2
40
 70
     0
 10
0.0
 20
0.0
 30
0.0
  3
40
  1

  0
POLYLINE
  5
369
  8
0
 66
     1
 10
0.0
 20
0.0
 30
0.0
 70
    64
 71
   104
 72
   186
  0
VERTEX
  5
36A
  8
0
 10
44.42807769775391
 20
-42.34999847412109
 30
292.9868774414062
 70
   192
  0
VERTEX
  5
36B
  8
0
 10
49.98347091674805
 20
-42.34999847412109
 30
292.1042175292969
 70
   192
  0
VERTEX
  5
36C
  8
0
 10
50.01652908325195
 20
-17.35000038146973
 30
292.1042175292969
 70
   192
  0
VERTEX
  5
36D
  8
0
 10
44.44346237182617
 20
-17.35000038146973
 30
292.9806213378906
 70
   192
  0
VERTEX
  5
36E
  8
0
 10
39.42594146728516
 20
-17.35000038146973
 30
295.5359497070312
 70
   192
  0
VERTEX
  5
36F
  8
0
 10
35.44450759887695
 20
-17.35000038146973
 30
299.513671875
 70
   192
  0
VERTEX
  5
370
  8
0
 10
39.41494369506836
 20
-42.34999847412109
 30
295.5435180664062
 70
   192
  0
VERTEX
  5
371
  8
0
 10
32.87921524047852
 20
-42.34999847412109
 30
304.5445861816406
 70
   192
  0
VERTEX
  5
372
  8
0
 10
35.43049621582031
 20
-42.34999847412109
 30
299.53466796875
 70
   192
  0
VERTEX
  5
373
  8
0
 10
32.8837890625
 20
-17.35000038146973
 30
304.532470703125
 70
   192
  0
VERTEX
  5
374
  8
0
 10
32.0
 20
-42.34999847412109
 30
310.10205078125
 70
   192
  0
VERTEX
  5
375
  8
0
 10
32.0
 20
-17.35000038146973
 30
310.10205078125
 70
   192
  0
VERTEX
  5
376
  8
0
 10
55.57192230224609
 20
-17.35000038146973
 30
292.9868774414062
 70
   192
  0
VERTEX
  5
377
  8
0
 10
60.57405853271484
 20
-42.34999847412109
 30
295.5359497070312
 70
   192
  0
VERTEX
  5
378
  8
0
 10
55.55653762817383
 20
-42.34999847412109
 30
292.9806213378906
 70
   192
  0
VERTEX
  5
379
  8
0
 10
60.58505630493164
 20
-17.35000038146973
 30
295.5435180664062
 70
   192
  0
VERTEX
  5
37A
  8
0
 10
64.55549621582031
 20
-42.34999847412109
 30
299.513671875
 70
   192
  0
VERTEX
  5
37B
  8
0
 10
64.56950378417969
 20
-17.35000038146973
 30
299.53466796875
 70
   192
  0
VERTEX
  5
37C
  8
0
 10
67.12078857421875
 20
-17.35000038146973
 30
304.5445861816406
 70
   192
  0
VERTEX
  5
37D
  8
0
 10
67.1162109375
 20
-42.34999847412109
 30
304.532470703125
 70
   192
  0
VERTEX
  5
37E
  8
0
 10
68.0
 20
-17.35000038146973
 30
310.10205078125
 70
   192
  0
VERTEX
  5
37F
  8
0
 10
68.0
 20
-42.34999847412109
 30
310.10205078125
 70
   192
  0
VERTEX
  5
380
  8
0
 10
57.0
 20
-29.85000038146973
 30
326.6851501464844
 70
   192
  0
VERTEX
  5
381
  8
0
 10
57.0
 20
-29.85000038146973
 30
332.0109252929688
 70
   192
  0
VERTEX
  5
382
  8
0
 10
56.06770324707031
 20
-26.36141586303711
 30
332.2795715332031
 70
   192
  0
VERTEX
  5
383
  8
0
 10
56.04351043701172
 20
-26.32654762268066
 30
327.0714721679688
 70
   192
  0
VERTEX
  5
384
  8
0
 10
53.52508926391602
 20
-23.80819320678711
 30
332.8180236816406
 70
   192
  0
VERTEX
  5
385
  8
0
 10
49.99790191650391
 20
-22.85000038146973
 30
328.10205078125
 70
   192
  0
VERTEX
  5
386
  8
0
 10
53.45043563842773
 20
-23.89584732055664
 30
327.734619140625
 70
   192
  0
VERTEX
  5
387
  8
0
 10
49.99768829345703
 20
-22.85000038146973
 30
333.10205078125
 70
   192
  0
VERTEX
  5
388
  8
0
 10
46.5077018737793
 20
-23.78429412841797
 30
332.8417358398438
 70
   192
  0
VERTEX
  5
389
  8
0
 10
43.95711898803711
 20
-26.32624626159668
 30
332.3049926757812
 70
   192
  0
VERTEX
  5
38A
  8
0
 10
46.47116851806641
 20
-23.81012916564941
 30
327.7371826171875
 70
   192
  0
VERTEX
  5
38B
  8
0
 10
43.0
 20
-29.85000038146973
 30
332.0109252929688
 70
   192
  0
VERTEX
  5
38C
  8
0
 10
43.93620681762695
 20
-26.35251617431641
 30
327.03955078125
 70
   192
  0
VERTEX
  5
38D
  8
0
 10
43.0
 20
-29.85000038146973
 30
326.6851501464844
 70
   192
  0
VERTEX
  5
38E
  8
0
 10
33.68294143676758
 20
-10.89999961853027
 30
310.10205078125
 70
   192
  0
VERTEX
  5
38F
  8
0
 10
33.68294143676758
 20
-17.35000038146973
 30
310.10205078125
 70
   192
  0
VERTEX
  5
390
  8
0
 10
34.47957611083984
 20
-17.35000038146973
 30
305.0696411132812
 70
   192
  0
VERTEX
  5
391
  8
0
 10
36.79230499267578
 20
-17.35000038146973
 30
300.5226135253906
 70
   192
  0
VERTEX
  5
392
  8
0
 10
34.47924423217773
 20
-10.89999961853027
 30
305.0702514648438
 70
   192
  0
VERTEX
  5
393
  8
0
 10
40.39997100830078
 20
-17.35000038146973
 30
296.9087219238281
 70
   192
  0
VERTEX
  5
394
  8
0
 10
36.79031753540039
 20
-10.89999961853027
 30
300.5166931152344
 70
   192
  0
VERTEX
  5
395
  8
0
 10
44.95276260375977
 20
-10.89999961853027
 30
294.6407165527344
 70
   192
  0
VERTEX
  5
396
  8
0
 10
40.39980697631836
 20
-10.89999961853027
 30
296.9012756347656
 70
   192
  0
VERTEX
  5
397
  8
0
 10
44.951416015625
 20
-17.35000038146973
 30
294.5858459472656
 70
   192
  0
VERTEX
  5
398
  8
0
 10
50.0
 20
-10.89999961853027
 30
293.7849731445312
 70
   192
  0
VERTEX
  5
399
  8
0
 10
50.0
 20
-17.35000038146973
 30
293.7849731445312
 70
   192
  0
VERTEX
  5
39A
  8
0
 10
34.4901008605957
 20
-10.89999961853027
 30
315.1570434570312
 70
   192
  0
VERTEX
  5
39B
  8
0
 10
36.81019973754883
 20
-10.89999961853027
 30
319.6970825195312
 70
   192
  0
VERTEX
  5
39C
  8
0
 10
34.48381805419922
 20
-17.35000038146973
 30
315.150634765625
 70
   192
  0
VERTEX
  5
39D
  8
0
 10
36.80668258666992
 20
-17.35000038146973
 30
319.7020568847656
 70
   192
  0
VERTEX
  5
39E
  8
0
 10
40.41909790039062
 20
-10.89999961853027
 30
323.3114013671875
 70
   192
  0
VERTEX
  5
39F
  8
0
 10
40.42058563232422
 20
-17.35000038146973
 30
323.3097229003906
 70
   192
  0
VERTEX
  5
3A0
  8
0
 10
44.96543884277344
 20
-17.35000038146973
 30
325.6222534179688
 70
   192
  0
VERTEX
  5
3A1
  8
0
 10
44.97987365722656
 20
-10.89999961853027
 30
325.53076171875
 70
   192
  0
VERTEX
  5
3A2
  8
0
 10
50.0
 20
-17.35000038146973
 30
326.4190979003906
 70
   192
  0
VERTEX
  5
3A3
  8
0
 10
50.0
 20
-10.89999961853027
 30
326.4190979003906
 70
   192
  0
VERTEX
  5
3A4
  8
0
 10
55.02012634277344
 20
-10.89999961853027
 30
294.6733093261719
 70
   192
  0
VERTEX
  5
3A5
  8
0
 10
66.31706237792969
 20
-17.35000038146973
 30
310.10205078125
 70
   192
  0
VERTEX
  5
3A6
  8
0
 10
65.50990295410156
 20
-10.89999961853027
 30
305.0470275878906
 70
   192
  0
VERTEX
  5
3A7
  8
0
 10
65.51589965820312
 20
-17.35000038146973
 30
305.0531005859375
 70
   192
  0
VERTEX
  5
3A8
  8
0
 10
59.58090209960938
 20
-10.89999961853027
 30
296.8926696777344
 70
   192
  0
VERTEX
  5
3A9
  8
0
 10
59.57745361328125
 20
-17.35000038146973
 30
296.8936157226562
 70
   192
  0
VERTEX
  5
3AA
  8
0
 10
63.19440460205078
 20
-17.35000038146973
 30
300.5028381347656
 70
   192
  0
VERTEX
  5
3AB
  8
0
 10
63.20840835571289
 20
-17.35000038146973
 30
319.6795043945312
 70
   192
  0
VERTEX
  5
3AC
  8
0
 10
63.20968246459961
 20
-10.89999961853027
 30
319.6874084472656
 70
   192
  0
VERTEX
  5
3AD
  8
0
 10
65.520751953125
 20
-10.89999961853027
 30
315.1338195800781
 70
   192
  0
VERTEX
  5
3AE
  8
0
 10
66.31706237792969
 20
-10.89999961853027
 30
310.10205078125
 70
   192
  0
VERTEX
  5
3AF
  8
0
 10
65.52042388916016
 20
-17.35000038146973
 30
315.1363220214844
 70
   192
  0
VERTEX
  5
3B0
  8
0
 10
59.59918975830078
 20
-17.35000038146973
 30
323.2964477539062
 70
   192
  0
VERTEX
  5
3B1
  8
0
 10
55.04723739624023
 20
-10.89999961853027
 30
325.5633544921875
 70
   192
  0
VERTEX
  5
3B2
  8
0
 10
59.60019302368164
 20
-10.89999961853027
 30
323.3027954101562
 70
   192
  0
VERTEX
  5
3B3
  8
0
 10
55.04893112182617
 20
-17.35000038146973
 30
325.6179504394531
 70
   192
  0
VERTEX
  5
3B4
  8
0
 10
63.18980026245117
 20
-10.89999961853027
 30
300.5069885253906
 70
   192
  0
VERTEX
  5
3B5
  8
0
 10
55.03707122802734
 20
-17.35000038146973
 30
294.5820617675781
 70
   192
  0
VERTEX
  5
3B6
  8
0
 10
46.51216506958008
 20
-35.91817092895508
 30
332.8423767089844
 70
   192
  0
VERTEX
  5
3B7
  8
0
 10
49.99770736694336
 20
-36.84999847412109
 30
333.10205078125
 70
   192
  0
VERTEX
  5
3B8
  8
0
 10
56.06784820556641
 20
-33.33837127685547
 30
332.279541015625
 70
   192
  0
VERTEX
  5
3B9
  8
0
 10
53.52447891235352
 20
-35.89194107055664
 30
332.8180847167969
 70
   192
  0
VERTEX
  5
3BA
  8
0
 10
43.96015548706055
 20
-33.37825775146484
 30
332.3057861328125
 70
   192
  0
VERTEX
  5
3BB
  8
0
 10
56.06614685058594
 20
-33.34264755249023
 30
327.0386962890625
 70
   192
  0
VERTEX
  5
3BC
  8
0
 10
46.55268478393555
 20
-35.80624008178711
 30
327.7352905273438
 70
   192
  0
VERTEX
  5
3BD
  8
0
 10
50.00006866455078
 20
-36.84999847412109
 30
328.10205078125
 70
   192
  0
VERTEX
  5
3BE
  8
0
 10
53.52969360351562
 20
-35.88911056518555
 30
327.7369079589844
 70
   192
  0
VERTEX
  5
3BF
  8
0
 10
43.95952987670898
 20
-33.37820816040039
 30
327.072509765625
 70
   192
  0
VERTEX
  5
3C0
  8
0
 10
32.8837890625
 20
-42.34999847412109
 30
315.671630859375
 70
   192
  0
VERTEX
  5
3C1
  8
0
 10
50.01652908325195
 20
-42.34999847412109
 30
328.099853515625
 70
   192
  0
VERTEX
  5
3C2
  8
0
 10
35.44450759887695
 20
-42.34999847412109
 30
320.6903991699219
 70
   192
  0
VERTEX
  5
3C3
  8
0
 10
35.43049621582031
 20
-17.35000038146973
 30
320.6694030761719
 70
   192
  0
VERTEX
  5
3C4
  8
0
 10
39.41494369506836
 20
-17.35000038146973
 30
324.6605529785156
 70
   192
  0
VERTEX
  5
3C5
  8
0
 10
60.57405853271484
 20
-17.35000038146973
 30
324.6681213378906
 70
   192
  0
VERTEX
  5
3C6
  8
0
 10
55.55653762817383
 20
-17.35000038146973
 30
327.2234497070312
 70
   192
  0
VERTEX
  5
3C7
  8
0
 10
49.98347091674805
 20
-17.35000038146973
 30
328.099853515625
 70
   192
  0
VERTEX
  5
3C8
  8
0
 10
64.55549621582031
 20
-17.35000038146973
 30
320.6903991699219
 70
   192
  0
VERTEX
  5
3C9
  8
0
 10
67.12078857421875
 20
-42.34999847412109
 30
315.6594848632812
 70
   192
  0
VERTEX
  5
3CA
  8
0
 10
64.56950378417969
 20
-42.34999847412109
 30
320.6694030761719
 70
   192
  0
VERTEX
  5
3CB
  8
0
 10
60.58505630493164
 20
-42.34999847412109
 30
324.6605529785156
 70
   192
  0
VERTEX
  5
3CC
  8
0
 10
67.1162109375
 20
-17.35000038146973
 30
315.671630859375
 70
   192
  0
VERTEX
  5
3CD
  8
0
 10
44.42807769775391
 20
-17.35000038146973
 30
327.2171936035156
 70
   192
  0
VERTEX
  5
3CE
  8
0
 10
39.42594146728516
 20
-42.34999847412109
 30
324.6681213378906
 70
   192
  0
VERTEX
  5
3CF
  8
0
 10
44.44346237182617
 20
-42.34999847412109
 30
327.2234497070312
 70
   192
  0
VERTEX
  5
3D0
  8
0
 10
32.87921524047852
 20
-17.35000038146973
 30
315.6594848632812
 70
   192
  0
VERTEX
  5
3D1
  8
0
 10
55.57192230224609
 20
-42.34999847412109
 30
327.2171936035156
 70
   192
  0
VERTEX
  5
3D2
  8
0
 62
     9
 10
0.0
 20
0.0
 30
0.0
 70
   128
 71
     3
 72
     2
 73
     1
  0
VERTEX
  5
3D3
  8
0
 62
     9
 10
0.0
 20
0.0
 30
0.0
 70
   128
 71
     1
 72
     5
 73
     4
  0
VERTEX
  5
3D4
  8
0
 62
     9
 10
0.0
 20
0.0
 30
0.0
 70
   128
 71
     3
 72
     1
 73
     4
  0
VERTEX
  5
3D5
  8
0
 62
     9
 10
0.0
 20
0.0
 30
0.0
 70
   128
 71
     5
 72
     7
 73
     6
  0
VERTEX
  5
3D6
  8
0
 62
     9
 10
0.0
 20
0.0
 30
0.0
 70
   128
 71
     7
 72
     5
 73
     1
  0
VERTEX
  5
3D7
  8
0
 62
     9
 10
0.0
 20
0.0
 30
0.0
 70
   128
 71
     6
 72
     9
 73
     8
  0
VERTEX
  5
3D8
  8
0
 62
     9
 10
0.0
 20
0.0
 30
0.0
 70
   128
 71
     7
 72
     9
 73
     6
  0
VERTEX
  5
3D9
  8
0
 62
     9
 10
0.0
 20
0.0
 30
0.0
 70
   128
 71
    11
 72
    10
 73
     8
  0
VERTEX
  5
3DA
  8
0
 62
     9
 10
0.0
 20
0.0
 30
0.0
 70
   128
 71
     6
 72
     8
 73
    10
  0
VERTEX
  5
3DB
  8
0
 62
     9
 10
0.0
 20
0.0
 30
0.0
 70
   128
 71
    12
 72
    10
 73
    11
  0
VERTEX
  5
3DC
  8
0
 62
     9
 10
0.0
 20
0.0
 30
0.0
 70
   128
 71
     2
 72
     3
 73
    13
  0
VERTEX
  5
3DD
  8
0
 62
     9
 10
0.0
 20
0.0
 30
0.0
 70
   128
 71
    15
 72
    13
 73
    14
  0
VERTEX
  5
3DE
  8
0
 62
     9
 10
0.0
 20
0.0
 30
0.0
 70
   128
 71
    15
 72
     2
 73
    13
  0
VERTEX
  5
3DF
  8
0
 62
     9
 10
0.0
 20
0.0
 30
0.0
 70
   128
 71
    17
 72
    14
 73
    16
  0
VERTEX
  5
3E0
  8
0
 62
     9
 10
0.0
 20
0.0
 30
0.0
 70
   128
 71
    13
 72
    16
 73
    14
  0
VERTEX
  5
3E1
  8
0
 62
     9
 10
0.0
 20
0.0
 30
0.0
 70
   128
 71
    19
 72
    17
 73
    18
  0
VERTEX
  5
3E2
  8
0
 62
     9
 10
0.0
 20
0.0
 30
0.0
 70
   128
 71
    17
 72
    16
 73
    18
  0
VERTEX
  5
3E3
  8
0
 62
     9
 10
0.0
 20
0.0
 30
0.0
 70
   128
 71
    19
 72
    21
 73
    20
  0
VERTEX
  5
3E4
  8
0
 62
     9
 10
0.0
 20
0.0
 30
0.0
 70
   128
 71
    20
 72
    17
 73
    19
  0
VERTEX
  5
3E5
  8
0
 62
     9
 10
0.0
 20
0.0
 30
0.0
 70
   128
 71
    21
 72
    22
 73
    20
  0
VERTEX
  5
3E6
  8
0
 62
     9
 10
0.0
 20
0.0
 30
0.0
 70
   128
 71
    25
 72
    24
 73
    23
  0
VERTEX
  5
3E7
  8
0
 62
     9
 10
0.0
 20
0.0
 30
0.0
 70
   128
 71
    26
 72
    25
 73
    23
  0
VERTEX
  5
3E8
  8
0
 62
     9
 10
0.0
 20
0.0
 30
0.0
 70
   128
 71
    26
 72
    27
 73
    25
  0
VERTEX
  5
3E9
  8
0
 62
     9
 10
0.0
 20
0.0
 30
0.0
 70
   128
 71
    29
 72
    28
 73
    27
  0
VERTEX
  5
3EA
  8
0
 62
     9
 10
0.0
 20
0.0
 30
0.0
 70
   128
 71
    27
 72
    26
 73
    29
  0
VERTEX
  5
3EB
  8
0
 62
     9
 10
0.0
 20
0.0
 30
0.0
 70
   128
 71
    30
 72
    27
 73
    28
  0
VERTEX
  5
3EC
  8
0
 62
     9
 10
0.0
 20
0.0
 30
0.0
 70
   128
 71
    30
 72
    28
 73
    31
  0
VERTEX
  5
3ED
  8
0
 62
     9
 10
0.0
 20
0.0
 30
0.0
 70
   128
 71
    33
 72
    32
 73
    31
  0
VERTEX
  5
3EE
  8
0
 62
     9
 10
0.0
 20
0.0
 30
0.0
 70
   128
 71
    31
 72
    28
 73
    33
  0
VERTEX
  5
3EF
  8
0
 62
     9
 10
0.0
 20
0.0
 30
0.0
 70
   128
 71
    32
 72
    35
 73
    34
  0
VERTEX
  5
3F0
  8
0
 62
     9
 10
0.0
 20
0.0
 30
0.0
 70
   128
 71
    35
 72
    32
 73
    33
  0
VERTEX
  5
3F1
  8
0
 62
     9
 10
0.0
 20
0.0
 30
0.0
 70
   128
 71
    35
 72
    36
 73
    34
  0
VERTEX
  5
3F2
  8
0
 62
     9
 10
0.0
 20
0.0
 30
0.0
 70
   128
 71
    39
 72
    38
 73
    37
  0
VERTEX
  5
3F3
  8
0
 62
     9
 10
0.0
 20
0.0
 30
0.0
 70
   128
 71
    41
 72
    40
 73
    39
  0
VERTEX
  5
3F4
  8
0
 62
     9
 10
0.0
 20
0.0
 30
0.0
 70
   128
 71
    39
 72
    37
 73
    41
  0
VERTEX
  5
3F5
  8
0
 62
     9
 10
0.0
 20
0.0
 30
0.0
 70
   128
 71
    40
 72
    43
 73
    42
  0
VERTEX
  5
3F6
  8
0
 62
     9
 10
0.0
 20
0.0
 30
0.0
 70
   128
 71
    43
 72
    40
 73
    41
  0
VERTEX
  5
3F7
  8
0
 62
     9
 10
0.0
 20
0.0
 30
0.0
 70
   128
 71
    42
 72
    45
 73
    44
  0
VERTEX
  5
3F8
  8
0
 62
     9
 10
0.0
 20
0.0
 30
0.0
 70
   128
 71
    43
 72
    45
 73
    42
  0
VERTEX
  5
3F9
  8
0
 62
     9
 10
0.0
 20
0.0
 30
0.0
 70
   128
 71
    47
 72
    46
 73
    44
  0
VERTEX
  5
3FA
  8
0
 62
     9
 10
0.0
 20
0.0
 30
0.0
 70
   128
 71
    42
 72
    44
 73
    46
  0
VERTEX
  5
3FB
  8
0
 62
     9
 10
0.0
 20
0.0
 30
0.0
 70
   128
 71
    48
 72
    46
 73
    47
  0
VERTEX
  5
3FC
  8
0
 62
     9
 10
0.0
 20
0.0
 30
0.0
 70
   128
 71
    49
 72
    37
 73
    38
  0
VERTEX
  5
3FD
  8
0
 62
     9
 10
0.0
 20
0.0
 30
0.0
 70
   128
 71
    49
 72
    51
 73
    50
  0
VERTEX
  5
3FE
  8
0
 62
     9
 10
0.0
 20
0.0
 30
0.0
 70
   128
 71
    51
 72
    49
 73
    38
  0
VERTEX
  5
3FF
  8
0
 62
     9
 10
0.0
 20
0.0
 30
0.0
 70
   128
 71
    53
 72
    50
 73
    52
  0
VERTEX
  5
400
  8
0
 62
     9
 10
0.0
 20
0.0
 30
0.0
 70
   128
 71
    51
 72
    52
 73
    50
  0
VERTEX
  5
401
  8
0
 62
     9
 10
0.0
 20
0.0
 30
0.0
 70
   128
 71
    55
 72
    53
 73
    54
  0
VERTEX
  5
402
  8
0
 62
     9
 10
0.0
 20
0.0
 30
0.0
 70
   128
 71
    53
 72
    52
 73
    54
  0
VERTEX
  5
403
  8
0
 62
     9
 10
0.0
 20
0.0
 30
0.0
 70
   128
 71
    55
 72
    57
 73
    56
  0
VERTEX
  5
404
  8
0
 62
     9
 10
0.0
 20
0.0
 30
0.0
 70
   128
 71
    56
 72
    53
 73
    55
  0
VERTEX
  5
405
  8
0
 62
     9
 10
0.0
 20
0.0
 30
0.0
 70
   128
 71
    57
 72
    58
 73
    56
  0
VERTEX
  5
406
  8
0
 62
     9
 10
0.0
 20
0.0
 30
0.0
 70
   128
 71
    48
 72
    47
 73
    59
  0
VERTEX
  5
407
  8
0
 62
     9
 10
0.0
 20
0.0
 30
0.0
 70
   128
 71
    62
 72
    61
 73
    60
  0
VERTEX
  5
408
  8
0
 62
     9
 10
0.0
 20
0.0
 30
0.0
 70
   128
 71
    65
 72
    64
 73
    63
  0
VERTEX
  5
409
  8
0
 62
     9
 10
0.0
 20
0.0
 30
0.0
 70
   128
 71
    68
 72
    67
 73
    66
  0
VERTEX
  5
40A
  8
0
 62
     9
 10
0.0
 20
0.0
 30
0.0
 70
   128
 71
    68
 72
    70
 73
    69
  0
VERTEX
  5
40B
  8
0
 62
     9
 10
0.0
 20
0.0
 30
0.0
 70
   128
 71
    73
 72
    72
 73
    71
  0
VERTEX
  5
40C
  8
0
 62
     9
 10
0.0
 20
0.0
 30
0.0
 70
   128
 71
    73
 72
    71
 73
    67
  0
VERTEX
  5
40D
  8
0
 62
     9
 10
0.0
 20
0.0
 30
0.0
 70
   128
 71
    74
 72
    72
 73
    58
  0
VERTEX
  5
40E
  8
0
 62
     9
 10
0.0
 20
0.0
 30
0.0
 70
   128
 71
    72
 72
    74
 73
    71
  0
VERTEX
  5
40F
  8
0
 62
     9
 10
0.0
 20
0.0
 30
0.0
 70
   128
 71
    74
 72
    58
 73
    57
  0
VERTEX
  5
410
  8
0
 62
     9
 10
0.0
 20
0.0
 30
0.0
 70
   128
 71
    68
 72
    66
 73
    70
  0
VERTEX
  5
411
  8
0
 62
     9
 10
0.0
 20
0.0
 30
0.0
 70
   128
 71
    67
 72
    71
 73
    66
  0
VERTEX
  5
412
  8
0
 62
     9
 10
0.0
 20
0.0
 30
0.0
 70
   128
 71
    61
 72
    69
 73
    60
  0
VERTEX
  5
413
  8
0
 62
     9
 10
0.0
 20
0.0
 30
0.0
 70
   128
 71
    69
 72
    70
 73
    60
  0
VERTEX
  5
414
  8
0
 62
     9
 10
0.0
 20
0.0
 30
0.0
 70
   128
 71
    65
 72
    75
 73
    62
  0
VERTEX
  5
415
  8
0
 62
     9
 10
0.0
 20
0.0
 30
0.0
 70
   128
 71
    75
 72
    61
 73
    62
  0
VERTEX
  5
416
  8
0
 62
     9
 10
0.0
 20
0.0
 30
0.0
 70
   128
 71
    76
 72
    63
 73
    64
  0
VERTEX
  5
417
  8
0
 62
     9
 10
0.0
 20
0.0
 30
0.0
 70
   128
 71
    65
 72
    63
 73
    75
  0
VERTEX
  5
418
  8
0
 62
     9
 10
0.0
 20
0.0
 30
0.0
 70
   128
 71
    59
 72
    76
 73
    48
  0
VERTEX
  5
419
  8
0
 62
     9
 10
0.0
 20
0.0
 30
0.0
 70
   128
 71
    76
 72
    59
 73
    63
  0
VERTEX
  5
41A
  8
0
 62
     9
 10
0.0
 20
0.0
 30
0.0
 70
   128
 71
    78
 72
    31
 73
    77
  0
VERTEX
  5
41B
  8
0
 62
     9
 10
0.0
 20
0.0
 30
0.0
 70
   128
 71
    27
 72
    79
 73
    25
  0
VERTEX
  5
41C
  8
0
 62
     9
 10
0.0
 20
0.0
 30
0.0
 70
   128
 71
    80
 72
    27
 73
    30
  0
VERTEX
  5
41D
  8
0
 62
     9
 10
0.0
 20
0.0
 30
0.0
 70
   128
 71
    27
 72
    80
 73
    79
  0
VERTEX
  5
41E
  8
0
 62
     9
 10
0.0
 20
0.0
 30
0.0
 70
   128
 71
    25
 72
    79
 73
    24
  0
VERTEX
  5
41F
  8
0
 62
     9
 10
0.0
 20
0.0
 30
0.0
 70
   128
 71
    30
 72
    78
 73
    80
  0
VERTEX
  5
420
  8
0
 62
     9
 10
0.0
 20
0.0
 30
0.0
 70
   128
 71
    77
 72
    31
 73
    32
  0
VERTEX
  5
421
  8
0
 62
     9
 10
0.0
 20
0.0
 30
0.0
 70
   128
 71
    78
 72
    30
 73
    31
  0
VERTEX
  5
422
  8
0
 62
     9
 10
0.0
 20
0.0
 30
0.0
 70
   128
 71
    81
 72
    32
 73
    34
  0
VERTEX
  5
423
  8
0
 62
     9
 10
0.0
 20
0.0
 30
0.0
 70
   128
 71
    81
 72
    77
 73
    32
  0
VERTEX
  5
424
  8
0
 62
     9
 10
0.0
 20
0.0
 30
0.0
 70
   128
 71
    24
 72
    79
 73
    82
  0
VERTEX
  5
425
  8
0
 62
     9
 10
0.0
 20
0.0
 30
0.0
 70
   128
 71
    84
 72
    77
 73
    83
  0
VERTEX
  5
426
  8
0
 62
     9
 10
0.0
 20
0.0
 30
0.0
 70
   128
 71
    84
 72
    85
 73
    80
  0
VERTEX
  5
427
  8
0
 62
     9
 10
0.0
 20
0.0
 30
0.0
 70
   128
 71
    36
 72
    86
 73
    81
  0
VERTEX
  5
428
  8
0
 62
     9
 10
0.0
 20
0.0
 30
0.0
 70
   128
 71
    77
 72
    81
 73
    86
  0
VERTEX
  5
429
  8
0
 62
     9
 10
0.0
 20
0.0
 30
0.0
 70
   128
 71
    36
 72
    81
 73
    34
  0
VERTEX
  5
42A
  8
0
 62
     9
 10
0.0
 20
0.0
 30
0.0
 70
   128
 71
    83
 72
    77
 73
    86
  0
VERTEX
  5
42B
  8
0
 62
     9
 10
0.0
 20
0.0
 30
0.0
 70
   128
 71
    78
 72
    77
 73
    84
  0
VERTEX
  5
42C
  8
0
 62
     9
 10
0.0
 20
0.0
 30
0.0
 70
   128
 71
    23
 72
    24
 73
    82
  0
VERTEX
  5
42D
  8
0
 62
     9
 10
0.0
 20
0.0
 30
0.0
 70
   128
 71
    85
 72
    79
 73
    80
  0
VERTEX
  5
42E
  8
0
 62
     9
 10
0.0
 20
0.0
 30
0.0
 70
   128
 71
    84
 72
    80
 73
    78
  0
VERTEX
  5
42F
  8
0
 62
     9
 10
0.0
 20
0.0
 30
0.0
 70
   128
 71
    85
 72
    82
 73
    79
  0
VERTEX
  5
430
  8
0
 62
     9
 10
0.0
 20
0.0
 30
0.0
 70
   128
 71
    12
 72
    11
 73
    87
  0
VERTEX
  5
431
  8
0
 62
     9
 10
0.0
 20
0.0
 30
0.0
 70
   128
 71
    84
 72
    83
 73
    88
  0
VERTEX
  5
432
  8
0
 62
     9
 10
0.0
 20
0.0
 30
0.0
 70
   128
 71
    91
 72
    90
 73
    89
  0
VERTEX
  5
433
  8
0
 62
     9
 10
0.0
 20
0.0
 30
0.0
 70
   128
 71
    93
 72
    23
 73
    92
  0
VERTEX
  5
434
  8
0
 62
     9
 10
0.0
 20
0.0
 30
0.0
 70
   128
 71
    28
 72
    29
 73
    94
  0
VERTEX
  5
435
  8
0
 62
     9
 10
0.0
 20
0.0
 30
0.0
 70
   128
 71
    97
 72
    96
 73
    95
  0
VERTEX
  5
436
  8
0
 62
     9
 10
0.0
 20
0.0
 30
0.0
 70
   128
 71
    97
 72
    95
 73
    98
  0
VERTEX
  5
437
  8
0
 62
     9
 10
0.0
 20
0.0
 30
0.0
 70
   128
 71
    99
 72
    96
 73
    22
  0
VERTEX
  5
438
  8
0
 62
     9
 10
0.0
 20
0.0
 30
0.0
 70
   128
 71
    96
 72
    99
 73
    95
  0
VERTEX
  5
439
  8
0
 62
     9
 10
0.0
 20
0.0
 30
0.0
 70
   128
 71
    99
 72
    22
 73
    21
  0
VERTEX
  5
43A
  8
0
 62
     9
 10
0.0
 20
0.0
 30
0.0
 70
   128
 71
    26
 72
    93
 73
    29
  0
VERTEX
  5
43B
  8
0
 62
     9
 10
0.0
 20
0.0
 30
0.0
 70
   128
 71
    98
 72
    95
 73
    92
  0
VERTEX
  5
43C
  8
0
 62
     9
 10
0.0
 20
0.0
 30
0.0
 70
   128
 71
   100
 72
    35
 73
    33
  0
VERTEX
  5
43D
  8
0
 62
     9
 10
0.0
 20
0.0
 30
0.0
 70
   128
 71
    29
 72
    93
 73
    94
  0
VERTEX
  5
43E
  8
0
 62
     9
 10
0.0
 20
0.0
 30
0.0
 70
   128
 71
   101
 72
    36
 73
    91
  0
VERTEX
  5
43F
  8
0
 62
     9
 10
0.0
 20
0.0
 30
0.0
 70
   128
 71
   102
 72
    83
 73
    86
  0
VERTEX
  5
440
  8
0
 62
     9
 10
0.0
 20
0.0
 30
0.0
 70
   128
 71
   103
 72
    89
 73
    90
  0
VERTEX
  5
441
  8
0
 62
     9
 10
0.0
 20
0.0
 30
0.0
 70
   128
 71
    91
 72
    89
 73
   101
  0
VERTEX
  5
442
  8
0
 62
     9
 10
0.0
 20
0.0
 30
0.0
 70
   128
 71
    87
 72
   103
 73
    12
  0
VERTEX
  5
443
  8
0
 62
     9
 10
0.0
 20
0.0
 30
0.0
 70
   128
 71
   103
 72
    87
 73
    89
  0
VERTEX
  5
444
  8
0
 62
     9
 10
0.0
 20
0.0
 30
0.0
 70
   128
 71
    36
 72
   100
 73
    91
  0
VERTEX
  5
445
  8
0
 62
     9
 10
0.0
 20
0.0
 30
0.0
 70
   128
 71
   102
 72
    36
 73
   101
  0
VERTEX
  5
446
  8
0
 62
     9
 10
0.0
 20
0.0
 30
0.0
 70
   128
 71
    36
 72
    35
 73
   100
  0
VERTEX
  5
447
  8
0
 62
     9
 10
0.0
 20
0.0
 30
0.0
 70
   128
 71
    94
 72
    33
 73
    28
  0
VERTEX
  5
448
  8
0
 62
     9
 10
0.0
 20
0.0
 30
0.0
 70
   128
 71
   100
 72
    33
 73
    94
  0
VERTEX
  5
449
  8
0
 62
     9
 10
0.0
 20
0.0
 30
0.0
 70
   128
 71
   104
 72
    82
 73
    85
  0
VERTEX
  5
44A
  8
0
 62
     9
 10
0.0
 20
0.0
 30
0.0
 70
   128
 71
    84
 72
    88
 73
    85
  0
VERTEX
  5
44B
  8
0
 62
     9
 10
0.0
 20
0.0
 30
0.0
 70
   128
 71
    23
 72
    98
 73
    92
  0
VERTEX
  5
44C
  8
0
 62
     9
 10
0.0
 20
0.0
 30
0.0
 70
   128
 71
    26
 72
    23
 73
    93
  0
VERTEX
  5
44D
  8
0
 62
     9
 10
0.0
 20
0.0
 30
0.0
 70
   128
 71
   104
 72
    23
 73
    82
  0
VERTEX
  5
44E
  8
0
 62
     9
 10
0.0
 20
0.0
 30
0.0
 70
   128
 71
    98
 72
    23
 73
   104
  0
VERTEX
  5
44F
  8
0
 62
     9
 10
0.0
 20
0.0
 30
0.0
 70
   128
 71
   104
 72
    85
 73
    88
  0
VERTEX
  5
450
  8
0
 62
     9
 10
0.0
 20
0.0
 30
0.0
 70
   128
 71
    88
 72
    83
 73
   102
  0
VERTEX
  5
451
  8
0
 62
     9
 10
0.0
 20
0.0
 30
0.0
 70
   128
 71
   102
 72
    86
 73
    36
  0
VERTEX
  5
452
  8
0
 62
     9
 10
0.0
 20
0.0
 30
0.0
 70
   128
 71
    55
 72
    94
 73
    57
  0
VERTEX
  5
453
  8
0
 62
     9
 10
0.0
 20
0.0
 30
0.0
 70
   128
 71
    48
 72
    76
 73
     3
  0
VERTEX
  5
454
  8
0
 62
     9
 10
0.0
 20
0.0
 30
0.0
 70
   128
 71
    46
 72
     3
 73
     4
  0
VERTEX
  5
455
  8
0
 62
     9
 10
0.0
 20
0.0
 30
0.0
 70
   128
 71
    76
 72
    64
 73
    13
  0
VERTEX
  5
456
  8
0
 62
     9
 10
0.0
 20
0.0
 30
0.0
 70
   128
 71
    76
 72
    13
 73
     3
  0
VERTEX
  5
457
  8
0
 62
     9
 10
0.0
 20
0.0
 30
0.0
 70
   128
 71
    64
 72
    65
 73
    16
  0
VERTEX
  5
458
  8
0
 62
     9
 10
0.0
 20
0.0
 30
0.0
 70
   128
 71
    64
 72
    16
 73
    13
  0
VERTEX
  5
459
  8
0
 62
     9
 10
0.0
 20
0.0
 30
0.0
 70
   128
 71
    65
 72
    62
 73
    18
  0
VERTEX
  5
45A
  8
0
 62
     9
 10
0.0
 20
0.0
 30
0.0
 70
   128
 71
    65
 72
    18
 73
    16
  0
VERTEX
  5
45B
  8
0
 62
     9
 10
0.0
 20
0.0
 30
0.0
 70
   128
 71
    62
 72
    60
 73
    19
  0
VERTEX
  5
45C
  8
0
 62
     9
 10
0.0
 20
0.0
 30
0.0
 70
   128
 71
    62
 72
    19
 73
    18
  0
VERTEX
  5
45D
  8
0
 62
     9
 10
0.0
 20
0.0
 30
0.0
 70
   128
 71
    60
 72
    70
 73
    21
  0
VERTEX
  5
45E
  8
0
 62
     9
 10
0.0
 20
0.0
 30
0.0
 70
   128
 71
    60
 72
    21
 73
    19
  0
VERTEX
  5
45F
  8
0
 62
     9
 10
0.0
 20
0.0
 30
0.0
 70
   128
 71
    70
 72
    66
 73
    99
  0
VERTEX
  5
460
  8
0
 62
     9
 10
0.0
 20
0.0
 30
0.0
 70
   128
 71
    70
 72
    99
 73
    21
  0
VERTEX
  5
461
  8
0
 62
     9
 10
0.0
 20
0.0
 30
0.0
 70
   128
 71
    66
 72
    71
 73
    95
  0
VERTEX
  5
462
  8
0
 62
     9
 10
0.0
 20
0.0
 30
0.0
 70
   128
 71
    66
 72
    95
 73
    99
  0
VERTEX
  5
463
  8
0
 62
     9
 10
0.0
 20
0.0
 30
0.0
 70
   128
 71
    71
 72
    74
 73
    92
  0
VERTEX
  5
464
  8
0
 62
     9
 10
0.0
 20
0.0
 30
0.0
 70
   128
 71
    71
 72
    92
 73
    95
  0
VERTEX
  5
465
  8
0
 62
     9
 10
0.0
 20
0.0
 30
0.0
 70
   128
 71
    93
 72
    74
 73
    94
  0
VERTEX
  5
466
  8
0
 62
     9
 10
0.0
 20
0.0
 30
0.0
 70
   128
 71
    74
 72
    93
 73
    92
  0
VERTEX
  5
467
  8
0
 62
     9
 10
0.0
 20
0.0
 30
0.0
 70
   128
 71
    74
 72
    57
 73
    94
  0
VERTEX
  5
468
  8
0
 62
     9
 10
0.0
 20
0.0
 30
0.0
 70
   128
 71
    55
 72
    54
 73
   100
  0
VERTEX
  5
469
  8
0
 62
     9
 10
0.0
 20
0.0
 30
0.0
 70
   128
 71
    55
 72
   100
 73
    94
  0
VERTEX
  5
46A
  8
0
 62
     9
 10
0.0
 20
0.0
 30
0.0
 70
   128
 71
    54
 72
    52
 73
    91
  0
VERTEX
  5
46B
  8
0
 62
     9
 10
0.0
 20
0.0
 30
0.0
 70
   128
 71
    54
 72
    91
 73
   100
  0
VERTEX
  5
46C
  8
0
 62
     9
 10
0.0
 20
0.0
 30
0.0
 70
   128
 71
    52
 72
    51
 73
    90
  0
VERTEX
  5
46D
  8
0
 62
     9
 10
0.0
 20
0.0
 30
0.0
 70
   128
 71
    52
 72
    90
 73
    91
  0
VERTEX
  5
46E
  8
0
 62
     9
 10
0.0
 20
0.0
 30
0.0
 70
   128
 71
    51
 72
    38
 73
   103
  0
VERTEX
  5
46F
  8
0
 62
     9
 10
0.0
 20
0.0
 30
0.0
 70
   128
 71
    51
 72
   103
 73
    90
  0
VERTEX
  5
470
  8
0
 62
     9
 10
0.0
 20
0.0
 30
0.0
 70
   128
 71
    38
 72
    39
 73
    12
  0
VERTEX
  5
471
  8
0
 62
     9
 10
0.0
 20
0.0
 30
0.0
 70
   128
 71
    38
 72
    12
 73
   103
  0
VERTEX
  5
472
  8
0
 62
     9
 10
0.0
 20
0.0
 30
0.0
 70
   128
 71
    39
 72
    40
 73
    10
  0
VERTEX
  5
473
  8
0
 62
     9
 10
0.0
 20
0.0
 30
0.0
 70
   128
 71
    39
 72
    10
 73
    12
  0
VERTEX
  5
474
  8
0
 62
     9
 10
0.0
 20
0.0
 30
0.0
 70
   128
 71
    40
 72
    42
 73
     6
  0
VERTEX
  5
475
  8
0
 62
     9
 10
0.0
 20
0.0
 30
0.0
 70
   128
 71
    40
 72
     6
 73
    10
  0
VERTEX
  5
476
  8
0
 62
     9
 10
0.0
 20
0.0
 30
0.0
 70
   128
 71
    42
 72
    46
 73
     5
  0
VERTEX
  5
477
  8
0
 62
     9
 10
0.0
 20
0.0
 30
0.0
 70
   128
 71
    42
 72
     5
 73
     6
  0
VERTEX
  5
478
  8
0
 62
     9
 10
0.0
 20
0.0
 30
0.0
 70
   128
 71
    46
 72
    48
 73
     3
  0
VERTEX
  5
479
  8
0
 62
     9
 10
0.0
 20
0.0
 30
0.0
 70
   128
 71
    46
 72
     4
 73
     5
  0
VERTEX
  5
47A
  8
0
 62
     9
 10
0.0
 20
0.0
 30
0.0
 70
   128
 71
    89
 72
    87
 73
    14
  0
VERTEX
  5
47B
  8
0
 62
     9
 10
0.0
 20
0.0
 30
0.0
 70
   128
 71
     8
 72
     9
 73
     1
  0
VERTEX
  5
47C
  8
0
 62
     9
 10
0.0
 20
0.0
 30
0.0
 70
   128
 71
     7
 72
     1
 73
     9
  0
VERTEX
  5
47D
  8
0
 62
     9
 10
0.0
 20
0.0
 30
0.0
 70
   128
 71
     2
 72
    11
 73
     8
  0
VERTEX
  5
47E
  8
0
 62
     9
 10
0.0
 20
0.0
 30
0.0
 70
   128
 71
     8
 72
     1
 73
     2
  0
VERTEX
  5
47F
  8
0
 62
     9
 10
0.0
 20
0.0
 30
0.0
 70
   128
 71
    20
 72
   101
 73
    17
  0
VERTEX
  5
480
  8
0
 62
     9
 10
0.0
 20
0.0
 30
0.0
 70
   128
 71
    87
 72
     2
 73
    15
  0
VERTEX
  5
481
  8
0
 62
     9
 10
0.0
 20
0.0
 30
0.0
 70
   128
 71
    20
 72
    22
 73
    88
  0
VERTEX
  5
482
  8
0
 62
     9
 10
0.0
 20
0.0
 30
0.0
 70
   128
 71
   104
 72
    97
 73
    98
  0
VERTEX
  5
483
  8
0
 62
     9
 10
0.0
 20
0.0
 30
0.0
 70
   128
 71
   104
 72
    88
 73
    96
  0
VERTEX
  5
484
  8
0
 62
     9
 10
0.0
 20
0.0
 30
0.0
 70
   128
 71
    96
 72
    97
 73
   104
  0
VERTEX
  5
485
  8
0
 62
     9
 10
0.0
 20
0.0
 30
0.0
 70
   128
 71
    88
 72
    22
 73
    96
  0
VERTEX
  5
486
  8
0
 62
     9
 10
0.0
 20
0.0
 30
0.0
 70
   128
 71
   101
 72
    20
 73
   102
  0
VERTEX
  5
487
  8
0
 62
     9
 10
0.0
 20
0.0
 30
0.0
 70
   128
 71
    88
 72
   102
 73
    20
  0
VERTEX
  5
488
  8
0
 62
     9
 10
0.0
 20
0.0
 30
0.0
 70
   128
 71
    89
 72
    14
 73
    17
  0
VERTEX
  5
489
  8
0
 62
     9
 10
0.0
 20
0.0
 30
0.0
 70
   128
 71
   101
 72
    89
 73
    17
  0
VERTEX
  5
48A
  8
0
 62
     9
 10
0.0
 20
0.0
 30
0.0
 70
   128
 71
    87
 72
    11
 73
     2
  0
VERTEX
  5
48B
  8
0
 62
     9
 10
0.0
 20
0.0
 30
0.0
 70
   128
 71
    14
 72
    87
 73
    15
  0
SEQEND
  5
48C
  8
0
  0
ENDBLK
  5
48F
  8
0
  0
BLOCK
  8
0
  2
41
 70
     0
 10
0.0
 20
0.0
 30
0.0
  3
41
  1

  0
POLYLINE
  5
491
  8
0
 62
     9
 66
     1
 10
0.0
 20
0.0
 30
0.0
 70
    64
 71
    60
 72
    98
  0
VERTEX
  5
492
  8
0
 10
32.0
 20
16.0
 30
310.1029357910156
 70
   192
  0
VERTEX
  5
493
  8
0
 10
32.0
 20
-16.0
 30
310.1011657714844
 70
   192
  0
VERTEX
  5
494
  8
0
 10
32.89428329467773
 20
-16.0
 30
304.5275268554688
 70
   192
  0
VERTEX
  5
495
  8
0
 10
35.45952606201172
 20
-16.0
 30
299.5180969238281
 70
   192
  0
VERTEX
  5
496
  8
0
 10
32.87819671630859
 20
16.0
 30
304.5482788085938
 70
   192
  0
VERTEX
  5
497
  8
0
 10
35.42941665649414
 20
16.0
 30
299.5175476074219
 70
   192
  0
VERTEX
  5
498
  8
0
 10
39.41371154785156
 20
16.0
 30
295.533935546875
 70
   192
  0
VERTEX
  5
499
  8
0
 10
39.43717956542969
 20
-16.0
 30
295.5425109863281
 70
   192
  0
VERTEX
  5
49A
  8
0
 10
44.45494079589844
 20
-16.0
 30
292.9892272949219
 70
   192
  0
VERTEX
  5
49B
  8
0
 10
44.4306755065918
 20
16.0
 30
292.9754638671875
 70
   192
  0
VERTEX
  5
49C
  8
0
 10
50.0
 20
-16.0
 30
292.10205078125
 70
   192
  0
VERTEX
  5
49D
  8
0
 10
50.0
 20
16.0
 30
292.1046752929688
 70
   192
  0
VERTEX
  5
49E
  8
0
 10
32.89428329467773
 20
16.0
 30
315.6765441894531
 70
   192
  0
VERTEX
  5
49F
  8
0
 10
35.45952606201172
 20
16.0
 30
320.6859741210938
 70
   192
  0
VERTEX
  5
4A0
  8
0
 10
32.87819671630859
 20
-16.0
 30
315.6557922363281
 70
   192
  0
VERTEX
  5
4A1
  8
0
 10
35.42941665649414
 20
-16.0
 30
320.6865234375
 70
   192
  0
VERTEX
  5
4A2
  8
0
 10
39.43717956542969
 20
16.0
 30
324.6615600585938
 70
   192
  0
VERTEX
  5
4A3
  8
0
 10
39.41371154785156
 20
-16.0
 30
324.6701354980469
 70
   192
  0
VERTEX
  5
4A4
  8
0
 10
44.45494079589844
 20
16.0
 30
327.2148742675781
 70
   192
  0
VERTEX
  5
4A5
  8
0
 10
44.4306755065918
 20
-16.0
 30
327.2286071777344
 70
   192
  0
VERTEX
  5
4A6
  8
0
 10
50.0
 20
16.0
 30
328.10205078125
 70
   192
  0
VERTEX
  5
4A7
  8
0
 10
50.0
 20
-16.0
 30
328.0994262695312
 70
   192
  0
VERTEX
  5
4A8
  8
0
 10
55.55707550048828
 20
-16.0
 30
292.98095703125
 70
   192
  0
VERTEX
  5
4A9
  8
0
 10
55.57629776000977
 20
16.0
 30
292.9881591796875
 70
   192
  0
VERTEX
  5
4AA
  8
0
 10
67.99871063232422
 20
-16.0
 30
310.0873413085938
 70
   192
  0
VERTEX
  5
4AB
  8
0
 10
67.12214660644531
 20
16.0
 30
304.5494689941406
 70
   192
  0
VERTEX
  5
4AC
  8
0
 10
67.11406707763672
 20
-16.0
 30
304.5266723632812
 70
   192
  0
VERTEX
  5
4AD
  8
0
 10
60.59097671508789
 20
16.0
 30
295.5477600097656
 70
   192
  0
VERTEX
  5
4AE
  8
0
 10
60.56897354125977
 20
-16.0
 30
295.5332336425781
 70
   192
  0
VERTEX
  5
4AF
  8
0
 10
64.55745697021484
 20
-16.0
 30
299.5159301757812
 70
   192
  0
VERTEX
  5
4B0
  8
0
 10
64.572998046875
 20
-16.0
 30
320.6643676757812
 70
   192
  0
VERTEX
  5
4B1
  8
0
 10
64.55745697021484
 20
16.0
 30
320.6881408691406
 70
   192
  0
VERTEX
  5
4B2
  8
0
 10
67.11406707763672
 20
16.0
 30
315.6773986816406
 70
   192
  0
VERTEX
  5
4B3
  8
0
 10
67.99871063232422
 20
16.0
 30
310.1167297363281
 70
   192
  0
VERTEX
  5
4B4
  8
0
 10
67.12214660644531
 20
-16.0
 30
315.6546020507812
 70
   192
  0
VERTEX
  5
4B5
  8
0
 10
55.57629776000977
 20
-16.0
 30
327.2159423828125
 70
   192
  0
VERTEX
  5
4B6
  8
0
 10
60.56897354125977
 20
16.0
 30
324.6708679199219
 70
   192
  0
VERTEX
  5
4B7
  8
0
 10
60.59097671508789
 20
-16.0
 30
324.6563110351562
 70
   192
  0
VERTEX
  5
4B8
  8
0
 10
55.55707550048828
 20
16.0
 30
327.2231140136719
 70
   192
  0
VERTEX
  5
4B9
  8
0
 10
64.572998046875
 20
16.0
 30
299.5397033691406
 70
   192
  0
VERTEX
  5
4BA
  8
0
 10
43.35068130493164
 20
-16.0
 30
324.6538391113281
 70
   192
  0
VERTEX
  5
4BB
  8
0
 10
36.5401611328125
 20
-16.0
 30
318.7514038085938
 70
   192
  0
VERTEX
  5
4BC
  8
0
 10
60.47396087646484
 20
-16.0
 30
322.1969604492188
 70
   192
  0
VERTEX
  5
4BD
  8
0
 10
52.27210235595703
 20
-16.0
 30
325.9391479492188
 70
   192
  0
VERTEX
  5
4BE
  8
0
 10
65.35034942626953
 20
-16.0
 30
314.6148376464844
 70
   192
  0
VERTEX
  5
4BF
  8
0
 10
65.35358428955078
 20
-16.0
 30
305.6006164550781
 70
   192
  0
VERTEX
  5
4C0
  8
0
 10
60.48339080810547
 20
-16.0
 30
298.015380859375
 70
   192
  0
VERTEX
  5
4C1
  8
0
 10
52.28494262695312
 20
-16.0
 30
294.2665100097656
 70
   192
  0
VERTEX
  5
4C2
  8
0
 10
36.54300689697266
 20
-16.0
 30
301.447265625
 70
   192
  0
VERTEX
  5
4C3
  8
0
 10
43.36042404174805
 20
-16.0
 30
295.5451049804688
 70
   192
  0
VERTEX
  5
4C4
  8
0
 10
65.35358428955078
 20
16.0
 30
314.6034545898438
 70
   192
  0
VERTEX
  5
4C5
  8
0
 10
60.47396087646484
 20
16.0
 30
298.0071105957031
 70
   192
  0
VERTEX
  5
4C6
  8
0
 10
60.48339080810547
 20
16.0
 30
322.1886901855469
 70
   192
  0
VERTEX
  5
4C7
  8
0
 10
65.35034942626953
 20
16.0
 30
305.5892333984375
 70
   192
  0
VERTEX
  5
4C8
  8
0
 10
52.28494262695312
 20
16.0
 30
325.9375915527344
 70
   192
  0
VERTEX
  5
4C9
  8
0
 10
36.54300689697266
 20
16.0
 30
318.7568054199219
 70
   192
  0
VERTEX
  5
4CA
  8
0
 10
43.36042404174805
 20
16.0
 30
324.6589660644531
 70
   192
  0
VERTEX
  5
4CB
  8
0
 10
36.5401611328125
 20
16.0
 30
301.4526672363281
 70
   192
  0
VERTEX
  5
4CC
  8
0
 10
43.35068130493164
 20
16.0
 30
295.5502319335938
 70
   192
  0
VERTEX
  5
4CD
  8
0
 10
52.27210235595703
 20
16.0
 30
294.2649230957031
 70
   192
  0
VERTEX
  5
4CE
  8
0
 62
     9
 10
0.0
 20
0.0
 30
0.0
 70
   128
 71
     3
 72
     2
 73
     1
  0
VERTEX
  5
4CF
  8
0
 62
     9
 10
0.0
 20
0.0
 30
0.0
 70
   128
 71
     5
 72
     4
 73
     3
  0
VERTEX
  5
4D0
  8
0
 62
     9
 10
0.0
 20
0.0
 30
0.0
 70
   128
 71
     3
 72
     1
 73
     5
  0
VERTEX
  5
4D1
  8
0
 62
     9
 10
0.0
 20
0.0
 30
0.0
 70
   128
 71
     6
 72
     4
 73
     5
  0
VERTEX
  5
4D2
  8
0
 62
     9
 10
0.0
 20
0.0
 30
0.0
 70
   128
 71
     8
 72
     6
 73
     7
  0
VERTEX
  5
4D3
  8
0
 62
     9
 10
0.0
 20
0.0
 30
0.0
 70
   128
 71
     6
 72
     8
 73
     4
  0
VERTEX
  5
4D4
  8
0
 62
     9
 10
0.0
 20
0.0
 30
0.0
 70
   128
 71
    10
 72
     9
 73
     7
  0
VERTEX
  5
4D5
  8
0
 62
     9
 10
0.0
 20
0.0
 30
0.0
 70
   128
 71
     8
 72
     7
 73
     9
  0
VERTEX
  5
4D6
  8
0
 62
     9
 10
0.0
 20
0.0
 30
0.0
 70
   128
 71
    11
 72
     9
 73
    10
  0
VERTEX
  5
4D7
  8
0
 62
     9
 10
0.0
 20
0.0
 30
0.0
 70
   128
 71
    12
 72
    11
 73
    10
  0
VERTEX
  5
4D8
  8
0
 62
     9
 10
0.0
 20
0.0
 30
0.0
 70
   128
 71
    13
 72
     1
 73
     2
  0
VERTEX
  5
4D9
  8
0
 62
     9
 10
0.0
 20
0.0
 30
0.0
 70
   128
 71
    13
 72
    15
 73
    14
  0
VERTEX
  5
4DA
  8
0
 62
     9
 10
0.0
 20
0.0
 30
0.0
 70
   128
 71
    15
 72
    13
 73
     2
  0
VERTEX
  5
4DB
  8
0
 62
     9
 10
0.0
 20
0.0
 30
0.0
 70
   128
 71
    15
 72
    16
 73
    14
  0
VERTEX
  5
4DC
  8
0
 62
     9
 10
0.0
 20
0.0
 30
0.0
 70
   128
 71
    18
 72
    17
 73
    16
  0
VERTEX
  5
4DD
  8
0
 62
     9
 10
0.0
 20
0.0
 30
0.0
 70
   128
 71
    14
 72
    16
 73
    17
  0
VERTEX
  5
4DE
  8
0
 62
     9
 10
0.0
 20
0.0
 30
0.0
 70
   128
 71
    18
 72
    20
 73
    19
  0
VERTEX
  5
4DF
  8
0
 62
     9
 10
0.0
 20
0.0
 30
0.0
 70
   128
 71
    19
 72
    17
 73
    18
  0
VERTEX
  5
4E0
  8
0
 62
     9
 10
0.0
 20
0.0
 30
0.0
 70
   128
 71
    20
 72
    21
 73
    19
  0
VERTEX
  5
4E1
  8
0
 62
     9
 10
0.0
 20
0.0
 30
0.0
 70
   128
 71
    20
 72
    22
 73
    21
  0
VERTEX
  5
4E2
  8
0
 62
     9
 10
0.0
 20
0.0
 30
0.0
 70
   128
 71
    12
 72
    24
 73
    23
  0
VERTEX
  5
4E3
  8
0
 62
     9
 10
0.0
 20
0.0
 30
0.0
 70
   128
 71
    27
 72
    26
 73
    25
  0
VERTEX
  5
4E4
  8
0
 62
     9
 10
0.0
 20
0.0
 30
0.0
 70
   128
 71
    30
 72
    29
 73
    28
  0
VERTEX
  5
4E5
  8
0
 62
     9
 10
0.0
 20
0.0
 30
0.0
 70
   128
 71
    33
 72
    32
 73
    31
  0
VERTEX
  5
4E6
  8
0
 62
     9
 10
0.0
 20
0.0
 30
0.0
 70
   128
 71
    33
 72
    35
 73
    34
  0
VERTEX
  5
4E7
  8
0
 62
     9
 10
0.0
 20
0.0
 30
0.0
 70
   128
 71
    38
 72
    37
 73
    36
  0
VERTEX
  5
4E8
  8
0
 62
     9
 10
0.0
 20
0.0
 30
0.0
 70
   128
 71
    37
 72
    38
 73
    32
  0
VERTEX
  5
4E9
  8
0
 62
     9
 10
0.0
 20
0.0
 30
0.0
 70
   128
 71
    22
 72
    36
 73
    39
  0
VERTEX
  5
4EA
  8
0
 62
     9
 10
0.0
 20
0.0
 30
0.0
 70
   128
 71
    37
 72
    39
 73
    36
  0
VERTEX
  5
4EB
  8
0
 62
     9
 10
0.0
 20
0.0
 30
0.0
 70
   128
 71
    22
 72
    39
 73
    21
  0
VERTEX
  5
4EC
  8
0
 62
     9
 10
0.0
 20
0.0
 30
0.0
 70
   128
 71
    33
 72
    31
 73
    35
  0
VERTEX
  5
4ED
  8
0
 62
     9
 10
0.0
 20
0.0
 30
0.0
 70
   128
 71
    32
 72
    38
 73
    31
  0
VERTEX
  5
4EE
  8
0
 62
     9
 10
0.0
 20
0.0
 30
0.0
 70
   128
 71
    26
 72
    34
 73
    25
  0
VERTEX
  5
4EF
  8
0
 62
     9
 10
0.0
 20
0.0
 30
0.0
 70
   128
 71
    34
 72
    35
 73
    25
  0
VERTEX
  5
4F0
  8
0
 62
     9
 10
0.0
 20
0.0
 30
0.0
 70
   128
 71
    30
 72
    40
 73
    27
  0
VERTEX
  5
4F1
  8
0
 62
     9
 10
0.0
 20
0.0
 30
0.0
 70
   128
 71
    40
 72
    26
 73
    27
  0
VERTEX
  5
4F2
  8
0
 62
     9
 10
0.0
 20
0.0
 30
0.0
 70
   128
 71
    29
 72
    24
 73
    28
  0
VERTEX
  5
4F3
  8
0
 62
     9
 10
0.0
 20
0.0
 30
0.0
 70
   128
 71
    30
 72
    28
 73
    40
  0
VERTEX
  5
4F4
  8
0
 62
     9
 10
0.0
 20
0.0
 30
0.0
 70
   128
 71
    23
 72
    11
 73
    12
  0
VERTEX
  5
4F5
  8
0
 62
     9
 10
0.0
 20
0.0
 30
0.0
 70
   128
 71
    29
 72
    23
 73
    24
  0
VERTEX
  5
4F6
  8
0
 62
     9
 10
0.0
 20
0.0
 30
0.0
 70
   128
 71
    18
 72
    41
 73
    20
  0
VERTEX
  5
4F7
  8
0
 62
     9
 10
0.0
 20
0.0
 30
0.0
 70
   128
 71
    15
 72
     2
 73
    42
  0
VERTEX
  5
4F8
  8
0
 62
     9
 10
0.0
 20
0.0
 30
0.0
 70
   128
 71
    38
 72
    36
 73
    43
  0
VERTEX
  5
4F9
  8
0
 62
     9
 10
0.0
 20
0.0
 30
0.0
 70
   128
 71
    22
 72
    41
 73
    44
  0
VERTEX
  5
4FA
  8
0
 62
     9
 10
0.0
 20
0.0
 30
0.0
 70
   128
 71
    22
 72
    44
 73
    36
  0
VERTEX
  5
4FB
  8
0
 62
     9
 10
0.0
 20
0.0
 30
0.0
 70
   128
 71
    31
 72
    45
 73
    35
  0
VERTEX
  5
4FC
  8
0
 62
     9
 10
0.0
 20
0.0
 30
0.0
 70
   128
 71
    31
 72
    38
 73
    43
  0
VERTEX
  5
4FD
  8
0
 62
     9
 10
0.0
 20
0.0
 30
0.0
 70
   128
 71
    41
 72
    18
 73
    42
  0
VERTEX
  5
4FE
  8
0
 62
     9
 10
0.0
 20
0.0
 30
0.0
 70
   128
 71
    45
 72
    46
 73
    25
  0
VERTEX
  5
4FF
  8
0
 62
     9
 10
0.0
 20
0.0
 30
0.0
 70
   128
 71
    42
 72
    16
 73
    15
  0
VERTEX
  5
500
  8
0
 62
     9
 10
0.0
 20
0.0
 30
0.0
 70
   128
 71
    25
 72
    46
 73
    27
  0
VERTEX
  5
501
  8
0
 62
     9
 10
0.0
 20
0.0
 30
0.0
 70
   128
 71
    47
 72
    30
 73
    46
  0
VERTEX
  5
502
  8
0
 62
     9
 10
0.0
 20
0.0
 30
0.0
 70
   128
 71
    48
 72
    23
 73
    47
  0
VERTEX
  5
503
  8
0
 62
     9
 10
0.0
 20
0.0
 30
0.0
 70
   128
 71
    50
 72
    49
 73
     8
  0
VERTEX
  5
504
  8
0
 62
     9
 10
0.0
 20
0.0
 30
0.0
 70
   128
 71
     4
 72
    49
 73
     3
  0
VERTEX
  5
505
  8
0
 62
     9
 10
0.0
 20
0.0
 30
0.0
 70
   128
 71
    48
 72
    11
 73
    23
  0
VERTEX
  5
506
  8
0
 62
     9
 10
0.0
 20
0.0
 30
0.0
 70
   128
 71
    11
 72
    50
 73
     9
  0
VERTEX
  5
507
  8
0
 62
     9
 10
0.0
 20
0.0
 30
0.0
 70
   128
 71
    30
 72
    47
 73
    29
  0
VERTEX
  5
508
  8
0
 62
     9
 10
0.0
 20
0.0
 30
0.0
 70
   128
 71
     9
 72
    50
 73
     8
  0
VERTEX
  5
509
  8
0
 62
     9
 10
0.0
 20
0.0
 30
0.0
 70
   128
 71
    16
 72
    42
 73
    18
  0
VERTEX
  5
50A
  8
0
 62
     9
 10
0.0
 20
0.0
 30
0.0
 70
   128
 71
    20
 72
    41
 73
    22
  0
VERTEX
  5
50B
  8
0
 62
     9
 10
0.0
 20
0.0
 30
0.0
 70
   128
 71
    44
 72
    43
 73
    36
  0
VERTEX
  5
50C
  8
0
 62
     9
 10
0.0
 20
0.0
 30
0.0
 70
   128
 71
    43
 72
    45
 73
    31
  0
VERTEX
  5
50D
  8
0
 62
     9
 10
0.0
 20
0.0
 30
0.0
 70
   128
 71
    35
 72
    45
 73
    25
  0
VERTEX
  5
50E
  8
0
 62
     9
 10
0.0
 20
0.0
 30
0.0
 70
   128
 71
    27
 72
    46
 73
    30
  0
VERTEX
  5
50F
  8
0
 62
     9
 10
0.0
 20
0.0
 30
0.0
 70
   128
 71
    29
 72
    47
 73
    23
  0
VERTEX
  5
510
  8
0
 62
     9
 10
0.0
 20
0.0
 30
0.0
 70
   128
 71
    48
 72
    50
 73
    11
  0
VERTEX
  5
511
  8
0
 62
     9
 10
0.0
 20
0.0
 30
0.0
 70
   128
 71
    49
 72
     4
 73
     8
  0
VERTEX
  5
512
  8
0
 62
     9
 10
0.0
 20
0.0
 30
0.0
 70
   128
 71
    49
 72
     2
 73
     3
  0
VERTEX
  5
513
  8
0
 62
     9
 10
0.0
 20
0.0
 30
0.0
 70
   128
 71
    34
 72
    51
 73
    33
  0
VERTEX
  5
514
  8
0
 62
     9
 10
0.0
 20
0.0
 30
0.0
 70
   128
 71
    52
 72
    28
 73
    24
  0
VERTEX
  5
515
  8
0
 62
     9
 10
0.0
 20
0.0
 30
0.0
 70
   128
 71
    32
 72
    53
 73
    37
  0
VERTEX
  5
516
  8
0
 62
     9
 10
0.0
 20
0.0
 30
0.0
 70
   128
 71
    51
 72
    53
 73
    32
  0
VERTEX
  5
517
  8
0
 62
     9
 10
0.0
 20
0.0
 30
0.0
 70
   128
 71
    34
 72
    54
 73
    51
  0
VERTEX
  5
518
  8
0
 62
     9
 10
0.0
 20
0.0
 30
0.0
 70
   128
 71
    55
 72
    21
 73
    39
  0
VERTEX
  5
519
  8
0
 62
     9
 10
0.0
 20
0.0
 30
0.0
 70
   128
 71
    40
 72
    54
 73
    26
  0
VERTEX
  5
51A
  8
0
 62
     9
 10
0.0
 20
0.0
 30
0.0
 70
   128
 71
    17
 72
    57
 73
    56
  0
VERTEX
  5
51B
  8
0
 62
     9
 10
0.0
 20
0.0
 30
0.0
 70
   128
 71
     5
 72
     1
 73
    58
  0
VERTEX
  5
51C
  8
0
 62
     9
 10
0.0
 20
0.0
 30
0.0
 70
   128
 71
    58
 72
    59
 73
     7
  0
VERTEX
  5
51D
  8
0
 62
     9
 10
0.0
 20
0.0
 30
0.0
 70
   128
 71
     5
 72
    58
 73
     6
  0
VERTEX
  5
51E
  8
0
 62
     9
 10
0.0
 20
0.0
 30
0.0
 70
   128
 71
    59
 72
    60
 73
    12
  0
VERTEX
  5
51F
  8
0
 62
     9
 10
0.0
 20
0.0
 30
0.0
 70
   128
 71
    57
 72
    19
 73
    21
  0
VERTEX
  5
520
  8
0
 62
     9
 10
0.0
 20
0.0
 30
0.0
 70
   128
 71
    60
 72
    24
 73
    12
  0
VERTEX
  5
521
  8
0
 62
     9
 10
0.0
 20
0.0
 30
0.0
 70
   128
 71
    52
 72
    40
 73
    28
  0
VERTEX
  5
522
  8
0
 62
     9
 10
0.0
 20
0.0
 30
0.0
 70
   128
 71
    39
 72
    53
 73
    55
  0
VERTEX
  5
523
  8
0
 62
     9
 10
0.0
 20
0.0
 30
0.0
 70
   128
 71
    14
 72
    56
 73
    13
  0
VERTEX
  5
524
  8
0
 62
     9
 10
0.0
 20
0.0
 30
0.0
 70
   128
 71
     7
 72
    59
 73
    10
  0
VERTEX
  5
525
  8
0
 62
     9
 10
0.0
 20
0.0
 30
0.0
 70
   128
 71
    19
 72
    57
 73
    17
  0
VERTEX
  5
526
  8
0
 62
     9
 10
0.0
 20
0.0
 30
0.0
 70
   128
 71
     6
 72
    58
 73
     7
  0
VERTEX
  5
527
  8
0
 62
     9
 10
0.0
 20
0.0
 30
0.0
 70
   128
 71
    10
 72
    59
 73
    12
  0
VERTEX
  5
528
  8
0
 62
     9
 10
0.0
 20
0.0
 30
0.0
 70
   128
 71
    60
 72
    52
 73
    24
  0
VERTEX
  5
529
  8
0
 62
     9
 10
0.0
 20
0.0
 30
0.0
 70
   128
 71
    52
 72
    54
 73
    40
  0
VERTEX
  5
52A
  8
0
 62
     9
 10
0.0
 20
0.0
 30
0.0
 70
   128
 71
    26
 72
    54
 73
    34
  0
VERTEX
  5
52B
  8
0
 62
     9
 10
0.0
 20
0.0
 30
0.0
 70
   128
 71
    33
 72
    51
 73
    32
  0
VERTEX
  5
52C
  8
0
 62
     9
 10
0.0
 20
0.0
 30
0.0
 70
   128
 71
    37
 72
    53
 73
    39
  0
VERTEX
  5
52D
  8
0
 62
     9
 10
0.0
 20
0.0
 30
0.0
 70
   128
 71
    55
 72
    57
 73
    21
  0
VERTEX
  5
52E
  8
0
 62
     9
 10
0.0
 20
0.0
 30
0.0
 70
   128
 71
    56
 72
    14
 73
    17
  0
VERTEX
  5
52F
  8
0
 62
     9
 10
0.0
 20
0.0
 30
0.0
 70
   128
 71
    56
 72
     1
 73
    13
  0
SEQEND
  5
530
  8
0
 62
     9
  0
ENDBLK
  5
533
  8
0
  0
BLOCK
  8
0
  2
42
 70
     0
 10
0.0
 20
0.0
 30
0.0
  3
42
  1

  0
POLYLINE
  5
535
  8
0
 66
     1
 10
0.0
 20
0.0
 30
0.0
 70
    64
 71
    39
 72
    74
  0
VERTEX
  5
536
  8
0
 10
69.68030548095703
 20
-16.9937686920166
 30
614.670654296875
 70
   192
  0
VERTEX
  5
537
  8
0
 10
70.0
 20
-0.0000000000001115
 30
620.2041015625
 70
   192
  0
VERTEX
  5
538
  8
0
 10
69.68030548095703
 20
-17.86578750610352
 30
620.2041015625
 70
   192
  0
VERTEX
  5
539
  8
0
 10
69.68030548095703
 20
-14.43449211120605
 30
609.673828125
 70
   192
  0
VERTEX
  5
53A
  8
0
 10
69.68030548095703
 20
-10.45544624328613
 30
605.7142333984375
 70
   192
  0
VERTEX
  5
53B
  8
0
 10
69.68030548095703
 20
-5.498152256011963
 30
603.3203735351562
 70
   192
  0
VERTEX
  5
53C
  8
0
 10
69.68030548095703
 20
-0.0000000000001318
 30
602.326904296875
 70
   192
  0
VERTEX
  5
53D
  8
0
 10
69.68030548095703
 20
-5.499117374420166
 30
637.191650390625
 70
   192
  0
VERTEX
  5
53E
  8
0
 10
69.68030548095703
 20
-0.0000000000000384
 30
638.0812377929688
 70
   192
  0
VERTEX
  5
53F
  8
0
 10
69.68030548095703
 20
-10.48955917358398
 30
634.6953735351562
 70
   192
  0
VERTEX
  5
540
  8
0
 10
69.68030548095703
 20
-14.45781230926514
 30
630.7307739257812
 70
   192
  0
VERTEX
  5
541
  8
0
 10
69.68030548095703
 20
-17.00106620788574
 30
625.7383422851562
 70
   192
  0
VERTEX
  5
542
  8
0
 10
69.68030548095703
 20
16.9937686920166
 30
625.7374877929688
 70
   192
  0
VERTEX
  5
543
  8
0
 10
69.68030548095703
 20
17.86578750610352
 30
620.2040405273438
 70
   192
  0
VERTEX
  5
544
  8
0
 10
69.68030548095703
 20
14.43449211120605
 30
630.7343139648438
 70
   192
  0
VERTEX
  5
545
  8
0
 10
69.68030548095703
 20
10.45544624328613
 30
634.6939086914062
 70
   192
  0
VERTEX
  5
546
  8
0
 10
69.68030548095703
 20
5.498152256011963
 30
637.0877685546875
 70
   192
  0
VERTEX
  5
547
  8
0
 10
69.68030548095703
 20
17.00106620788574
 30
614.6697998046875
 70
   192
  0
VERTEX
  5
548
  8
0
 10
0.000000000000028
 20
18.32609748840332
 30
616.9863891601562
 70
   192
  0
VERTEX
  5
549
  8
0
 10
0.0000000000000272
 20
18.31900405883789
 30
623.4531860351562
 70
   192
  0
VERTEX
  5
54A
  8
0
 10
0.0000000000000296
 20
11.96668243408203
 30
605.9559326171875
 70
   192
  0
VERTEX
  5
54B
  8
0
 10
0.0000000000000289
 20
16.12015533447266
 30
610.9131469726562
 70
   192
  0
VERTEX
  5
54C
  8
0
 10
69.68030548095703
 20
14.45781230926514
 30
609.6773681640625
 70
   192
  0
VERTEX
  5
54D
  8
0
 10
69.68030548095703
 20
10.48955917358398
 30
605.7127685546875
 70
   192
  0
VERTEX
  5
54E
  8
0
 10
0.0000000000000301
 20
6.368464469909668
 30
602.7211303710938
 70
   192
  0
VERTEX
  5
54F
  8
0
 10
0.0000000000000714
 20
-0.0000000000000324
 30
601.59716796875
 70
   192
  0
VERTEX
  5
550
  8
0
 10
69.68030548095703
 20
5.499117374420166
 30
603.2164916992188
 70
   192
  0
VERTEX
  5
551
  8
0
 10
0.0000000000000264
 20
16.10667419433594
 30
629.5187377929688
 70
   192
  0
VERTEX
  5
552
  8
0
 10
0.0000000000000257
 20
11.94715976715088
 30
634.4659423828125
 70
   192
  0
VERTEX
  5
553
  8
0
 10
0.0000000000000253
 20
6.358708381652832
 30
637.6903686523438
 70
   192
  0
VERTEX
  5
554
  8
0
 10
0.0000000000000252
 20
-0.0000000000000366
 30
638.8109741210938
 70
   192
  0
VERTEX
  5
555
  8
0
 10
0.0000000000000298
 20
-11.94715976715088
 30
605.9421997070312
 70
   192
  0
VERTEX
  5
556
  8
0
 10
0.0000000000000275
 20
-18.32609748840332
 30
623.4217529296875
 70
   192
  0
VERTEX
  5
557
  8
0
 10
0.0000000000000284
 20
-18.31900405883789
 30
616.9549560546875
 70
   192
  0
VERTEX
  5
558
  8
0
 10
0.0000000000000292
 20
-16.10667419433594
 30
610.889404296875
 70
   192
  0
VERTEX
  5
559
  8
0
 10
0.0000000000000259
 20
-11.96668243408203
 30
634.4522705078125
 70
   192
  0
VERTEX
  5
55A
  8
0
 10
0.0000000000000266
 20
-16.12015533447266
 30
629.4949951171875
 70
   192
  0
VERTEX
  5
55B
  8
0
 10
0.0000000000000254
 20
-6.368464469909668
 30
637.68701171875
 70
   192
  0
VERTEX
  5
55C
  8
0
 10
0.0000000000000302
 20
-6.358708381652832
 30
602.7177734375
 70
   192
  0
VERTEX
  5
55D
  8
0
 62
     9
 10
0.0
 20
0.0
 30
0.0
 70
   128
 71
     3
 72
     2
 73
     1
  0
VERTEX
  5
55E
  8
0
 62
     9
 10
0.0
 20
0.0
 30
0.0
 70
   128
 71
     2
 72
     5
 73
     4
  0
VERTEX
  5
55F
  8
0
 62
     9
 10
0.0
 20
0.0
 30
0.0
 70
   128
 71
     2
 72
     4
 73
     1
  0
VERTEX
  5
560
  8
0
 62
     9
 10
0.0
 20
0.0
 30
0.0
 70
   128
 71
     2
 72
     6
 73
     5
  0
VERTEX
  5
561
  8
0
 62
     9
 10
0.0
 20
0.0
 30
0.0
 70
   128
 71
     2
 72
     7
 73
     6
  0
VERTEX
  5
562
  8
0
 62
     9
 10
0.0
 20
0.0
 30
0.0
 70
   128
 71
     9
 72
     2
 73
     8
  0
VERTEX
  5
563
  8
0
 62
     9
 10
0.0
 20
0.0
 30
0.0
 70
   128
 71
     2
 72
    11
 73
    10
  0
VERTEX
  5
564
  8
0
 62
     9
 10
0.0
 20
0.0
 30
0.0
 70
   128
 71
     2
 72
    10
 73
     8
  0
VERTEX
  5
565
  8
0
 62
     9
 10
0.0
 20
0.0
 30
0.0
 70
   128
 71
     2
 72
    12
 73
    11
  0
VERTEX
  5
566
  8
0
 62
     9
 10
0.0
 20
0.0
 30
0.0
 70
   128
 71
     2
 72
     3
 73
    12
  0
VERTEX
  5
567
  8
0
 62
     9
 10
0.0
 20
0.0
 30
0.0
 70
   128
 71
    14
 72
     2
 73
    13
  0
VERTEX
  5
568
  8
0
 62
     9
 10
0.0
 20
0.0
 30
0.0
 70
   128
 71
     2
 72
    16
 73
    15
  0
VERTEX
  5
569
  8
0
 62
     9
 10
0.0
 20
0.0
 30
0.0
 70
   128
 71
     2
 72
    15
 73
    13
  0
VERTEX
  5
56A
  8
0
 62
     9
 10
0.0
 20
0.0
 30
0.0
 70
   128
 71
     2
 72
    17
 73
    16
  0
VERTEX
  5
56B
  8
0
 62
     9
 10
0.0
 20
0.0
 30
0.0
 70
   128
 71
     2
 72
     9
 73
    17
  0
VERTEX
  5
56C
  8
0
 62
     9
 10
0.0
 20
0.0
 30
0.0
 70
   128
 71
    14
 72
    19
 73
    18
  0
VERTEX
  5
56D
  8
0
 62
     9
 10
0.0
 20
0.0
 30
0.0
 70
   128
 71
    14
 72
    20
 73
    19
  0
VERTEX
  5
56E
  8
0
 62
     9
 10
0.0
 20
0.0
 30
0.0
 70
   128
 71
    23
 72
    22
 73
    21
  0
VERTEX
  5
56F
  8
0
 62
     9
 10
0.0
 20
0.0
 30
0.0
 70
   128
 71
    18
 72
    22
 73
    23
  0
VERTEX
  5
570
  8
0
 62
     9
 10
0.0
 20
0.0
 30
0.0
 70
   128
 71
    24
 72
    23
 73
    21
  0
VERTEX
  5
571
  8
0
 62
     9
 10
0.0
 20
0.0
 30
0.0
 70
   128
 71
    25
 72
    24
 73
    21
  0
VERTEX
  5
572
  8
0
 62
     9
 10
0.0
 20
0.0
 30
0.0
 70
   128
 71
    27
 72
    25
 73
    26
  0
VERTEX
  5
573
  8
0
 62
     9
 10
0.0
 20
0.0
 30
0.0
 70
   128
 71
    22
 72
    18
 73
    19
  0
VERTEX
  5
574
  8
0
 62
     9
 10
0.0
 20
0.0
 30
0.0
 70
   128
 71
    24
 72
    25
 73
    27
  0
VERTEX
  5
575
  8
0
 62
     9
 10
0.0
 20
0.0
 30
0.0
 70
   128
 71
    27
 72
    26
 73
     7
  0
VERTEX
  5
576
  8
0
 62
     9
 10
0.0
 20
0.0
 30
0.0
 70
   128
 71
    28
 72
    20
 73
    13
  0
VERTEX
  5
577
  8
0
 62
     9
 10
0.0
 20
0.0
 30
0.0
 70
   128
 71
    14
 72
    13
 73
    20
  0
VERTEX
  5
578
  8
0
 62
     9
 10
0.0
 20
0.0
 30
0.0
 70
   128
 71
    28
 72
    15
 73
    29
  0
VERTEX
  5
579
  8
0
 62
     9
 10
0.0
 20
0.0
 30
0.0
 70
   128
 71
    15
 72
    28
 73
    13
  0
VERTEX
  5
57A
  8
0
 62
     9
 10
0.0
 20
0.0
 30
0.0
 70
   128
 71
    16
 72
    30
 73
    29
  0
VERTEX
  5
57B
  8
0
 62
     9
 10
0.0
 20
0.0
 30
0.0
 70
   128
 71
    29
 72
    15
 73
    16
  0
VERTEX
  5
57C
  8
0
 62
     9
 10
0.0
 20
0.0
 30
0.0
 70
   128
 71
    31
 72
    30
 73
    17
  0
VERTEX
  5
57D
  8
0
 62
     9
 10
0.0
 20
0.0
 30
0.0
 70
   128
 71
    16
 72
    17
 73
    30
  0
VERTEX
  5
57E
  8
0
 62
     9
 10
0.0
 20
0.0
 30
0.0
 70
   128
 71
     9
 72
    31
 73
    17
  0
VERTEX
  5
57F
  8
0
 62
     9
 10
0.0
 20
0.0
 30
0.0
 70
   128
 71
     7
 72
    26
 73
     6
  0
VERTEX
  5
580
  8
0
 62
     9
 10
0.0
 20
0.0
 30
0.0
 70
   128
 71
     5
 72
    32
 73
     4
  0
VERTEX
  5
581
  8
0
 62
     9
 10
0.0
 20
0.0
 30
0.0
 70
   128
 71
    33
 72
    12
 73
     3
  0
VERTEX
  5
582
  8
0
 62
     9
 10
0.0
 20
0.0
 30
0.0
 70
   128
 71
     1
 72
    35
 73
    34
  0
VERTEX
  5
583
  8
0
 62
     9
 10
0.0
 20
0.0
 30
0.0
 70
   128
 71
    36
 72
    10
 73
    11
  0
VERTEX
  5
584
  8
0
 62
     9
 10
0.0
 20
0.0
 30
0.0
 70
   128
 71
    12
 72
    37
 73
    11
  0
VERTEX
  5
585
  8
0
 62
     9
 10
0.0
 20
0.0
 30
0.0
 70
   128
 71
    38
 72
    10
 73
    36
  0
VERTEX
  5
586
  8
0
 62
     9
 10
0.0
 20
0.0
 30
0.0
 70
   128
 71
     8
 72
    38
 73
    31
  0
VERTEX
  5
587
  8
0
 62
     9
 10
0.0
 20
0.0
 30
0.0
 70
   128
 71
    38
 72
     8
 73
    10
  0
VERTEX
  5
588
  8
0
 62
     9
 10
0.0
 20
0.0
 30
0.0
 70
   128
 71
    36
 72
    11
 73
    37
  0
VERTEX
  5
589
  8
0
 62
     9
 10
0.0
 20
0.0
 30
0.0
 70
   128
 71
     9
 72
     8
 73
    31
  0
VERTEX
  5
58A
  8
0
 62
     9
 10
0.0
 20
0.0
 30
0.0
 70
   128
 71
    33
 72
    37
 73
    12
  0
VERTEX
  5
58B
  8
0
 62
     9
 10
0.0
 20
0.0
 30
0.0
 70
   128
 71
    34
 72
    33
 73
     3
  0
VERTEX
  5
58C
  8
0
 62
     9
 10
0.0
 20
0.0
 30
0.0
 70
   128
 71
     1
 72
     4
 73
    35
  0
VERTEX
  5
58D
  8
0
 62
     9
 10
0.0
 20
0.0
 30
0.0
 70
   128
 71
     3
 72
     1
 73
    34
  0
VERTEX
  5
58E
  8
0
 62
     9
 10
0.0
 20
0.0
 30
0.0
 70
   128
 71
     5
 72
     6
 73
    39
  0
VERTEX
  5
58F
  8
0
 62
     9
 10
0.0
 20
0.0
 30
0.0
 70
   128
 71
    32
 72
     5
 73
    39
  0
VERTEX
  5
590
  8
0
 62
     9
 10
0.0
 20
0.0
 30
0.0
 70
   128
 71
     4
 72
    32
 73
    35
  0
VERTEX
  5
591
  8
0
 62
     9
 10
0.0
 20
0.0
 30
0.0
 70
   128
 71
    26
 72
    39
 73
     6
  0
VERTEX
  5
592
  8
0
 62
     9
 10
0.0
 20
0.0
 30
0.0
 70
   128
 71
    36
 72
    22
 73
    38
  0
VERTEX
  5
593
  8
0
 62
     9
 10
0.0
 20
0.0
 30
0.0
 70
   128
 71
    32
 72
    39
 73
    34
  0
VERTEX
  5
594
  8
0
 62
     9
 10
0.0
 20
0.0
 30
0.0
 70
   128
 71
    34
 72
    35
 73
    32
  0
VERTEX
  5
595
  8
0
 62
     9
 10
0.0
 20
0.0
 30
0.0
 70
   128
 71
    33
 72
    34
 73
    26
  0
VERTEX
  5
596
  8
0
 62
     9
 10
0.0
 20
0.0
 30
0.0
 70
   128
 71
    39
 72
    26
 73
    34
  0
VERTEX
  5
597
  8
0
 62
     9
 10
0.0
 20
0.0
 30
0.0
 70
   128
 71
    33
 72
    25
 73
    37
  0
VERTEX
  5
598
  8
0
 62
     9
 10
0.0
 20
0.0
 30
0.0
 70
   128
 71
    20
 72
    28
 73
    29
  0
VERTEX
  5
599
  8
0
 62
     9
 10
0.0
 20
0.0
 30
0.0
 70
   128
 71
    31
 72
    38
 73
    19
  0
VERTEX
  5
59A
  8
0
 62
     9
 10
0.0
 20
0.0
 30
0.0
 70
   128
 71
    20
 72
    30
 73
    31
  0
VERTEX
  5
59B
  8
0
 62
     9
 10
0.0
 20
0.0
 30
0.0
 70
   128
 71
    29
 72
    30
 73
    20
  0
VERTEX
  5
59C
  8
0
 62
     9
 10
0.0
 20
0.0
 30
0.0
 70
   128
 71
    19
 72
    20
 73
    31
  0
VERTEX
  5
59D
  8
0
 62
     9
 10
0.0
 20
0.0
 30
0.0
 70
   128
 71
    22
 72
    36
 73
    21
  0
VERTEX
  5
59E
  8
0
 62
     9
 10
0.0
 20
0.0
 30
0.0
 70
   128
 71
    22
 72
    19
 73
    38
  0
VERTEX
  5
59F
  8
0
 62
     9
 10
0.0
 20
0.0
 30
0.0
 70
   128
 71
    25
 72
    21
 73
    37
  0
VERTEX
  5
5A0
  8
0
 62
     9
 10
0.0
 20
0.0
 30
0.0
 70
   128
 71
    36
 72
    37
 73
    21
  0
VERTEX
  5
5A1
  8
0
 62
     9
 10
0.0
 20
0.0
 30
0.0
 70
   128
 71
    33
 72
    26
 73
    25
  0
VERTEX
  5
5A2
  8
0
 62
     9
 10
0.0
 20
0.0
 30
0.0
 70
   128
 71
    27
 72
     2
 73
    24
  0
VERTEX
  5
5A3
  8
0
 62
     9
 10
0.0
 20
0.0
 30
0.0
 70
   128
 71
    27
 72
     7
 73
     2
  0
VERTEX
  5
5A4
  8
0
 62
     9
 10
0.0
 20
0.0
 30
0.0
 70
   128
 71
    18
 72
    23
 73
     2
  0
VERTEX
  5
5A5
  8
0
 62
     9
 10
0.0
 20
0.0
 30
0.0
 70
   128
 71
    23
 72
    24
 73
     2
  0
VERTEX
  5
5A6
  8
0
 62
     9
 10
0.0
 20
0.0
 30
0.0
 70
   128
 71
     2
 72
    14
 73
    18
  0
SEQEND
  5
5A7
  8
0
  0
ENDBLK
  5
5AA
  8
0
  0
BLOCK
  8
0
  2
43
 70
     0
 10
0.0
 20
0.0
 30
0.0
  3
43
  1

  0
POLYLINE
  5
5AC
  8
0
 66
     1
 10
0.0
 20
0.0
 30
0.0
 70
    64
 71
    39
 72
    74
  0
VERTEX
  5
5AD
  8
0
 10
69.68030548095703
 20
16.98534202575684
 30
5.559441566467285
 70
   192
  0
VERTEX
  5
5AE
  8
0
 10
70.0
 20
0.0000000000000789
 30
0.0000000000000301
 70
   192
  0
VERTEX
  5
5AF
  8
0
 10
69.68030548095703
 20
17.8641471862793
 30
0.0000046098743951
 70
   192
  0
VERTEX
  5
5B0
  8
0
 10
69.68030548095703
 20
14.42240810394287
 30
10.54676055908203
 70
   192
  0
VERTEX
  5
5B1
  8
0
 10
69.68030548095703
 20
10.44444942474365
 30
14.4977912902832
 70
   192
  0
VERTEX
  5
5B2
  8
0
 10
69.68030548095703
 20
5.491631507873535
 30
16.8855037689209
 70
   192
  0
VERTEX
  5
5B3
  8
0
 10
69.68030548095703
 20
0.0000000000000826
 30
17.87716674804688
 70
   192
  0
VERTEX
  5
5B4
  8
0
 10
69.68030548095703
 20
5.505571365356445
 30
-16.98578262329102
 70
   192
  0
VERTEX
  5
5B5
  8
0
 10
69.68030548095703
 20
-0.0000000000000062
 30
-17.87716674804688
 70
   192
  0
VERTEX
  5
5B6
  8
0
 10
69.68030548095703
 20
10.50064182281494
 30
-14.48326873779297
 70
   192
  0
VERTEX
  5
5B7
  8
0
 10
69.68030548095703
 20
14.46994686126709
 30
-10.50985145568848
 70
   192
  0
VERTEX
  5
5B8
  8
0
 10
69.68030548095703
 20
17.00942611694336
 30
-5.508525371551514
 70
   192
  0
VERTEX
  5
5B9
  8
0
 10
69.68030548095703
 20
-16.9937686920166
 30
-5.533425807952881
 70
   192
  0
VERTEX
  5
5BA
  8
0
 10
69.68030548095703
 20
-17.86578750610352
 30
0.0000058081136558
 70
   192
  0
VERTEX
  5
5BB
  8
0
 10
69.68030548095703
 20
-14.43449211120605
 30
-10.53025054931641
 70
   192
  0
VERTEX
  5
5BC
  8
0
 10
69.68030548095703
 20
-10.45544624328613
 30
-14.48986434936523
 70
   192
  0
VERTEX
  5
5BD
  8
0
 10
69.68030548095703
 20
-5.498152256011963
 30
-16.88370895385742
 70
   192
  0
VERTEX
  5
5BE
  8
0
 10
69.68030548095703
 20
-17.00106620788574
 30
5.534265041351318
 70
   192
  0
VERTEX
  5
5BF
  8
0
 10
-0.0000000000000041
 20
-18.32609748840332
 30
3.217660903930664
 70
   192
  0
VERTEX
  5
5C0
  8
0
 10
-0.0000000000000041
 20
-18.31900405883789
 30
-3.249090433120728
 70
   192
  0
VERTEX
  5
5C1
  8
0
 10
-0.0000000000000027
 20
-11.96668243408203
 30
14.24817180633545
 70
   192
  0
VERTEX
  5
5C2
  8
0
 10
-0.0000000000000036
 20
-16.12015533447266
 30
9.290908813476562
 70
   192
  0
VERTEX
  5
5C3
  8
0
 10
69.68030548095703
 20
-14.45781230926514
 30
10.52669143676758
 70
   192
  0
VERTEX
  5
5C4
  8
0
 10
69.68030548095703
 20
-10.48955917358398
 30
14.49129199981689
 70
   192
  0
VERTEX
  5
5C5
  8
0
 10
-0.0000000000000014
 20
-6.368464469909668
 30
17.48292350769043
 70
   192
  0
VERTEX
  5
5C6
  8
0
 10
0.0000000000000278
 20
-0.0000000000000031
 30
18.60688400268555
 70
   192
  0
VERTEX
  5
5C7
  8
0
 10
69.68030548095703
 20
-5.499117374420166
 30
16.98757362365723
 70
   192
  0
VERTEX
  5
5C8
  8
0
 10
-0.0000000000000036
 20
-16.10667419433594
 30
-9.314693450927734
 70
   192
  0
VERTEX
  5
5C9
  8
0
 10
-0.0000000000000027
 20
-11.94715976715088
 30
-14.26184749603271
 70
   192
  0
VERTEX
  5
5CA
  8
0
 10
-0.0000000000000014
 20
-6.358708381652832
 30
-17.48632049560547
 70
   192
  0
VERTEX
  5
5CB
  8
0
 10
0.0
 20
-0.0000000000000008
 30
-18.60688400268555
 70
   192
  0
VERTEX
  5
5CC
  8
0
 10
0.0000000000000027
 20
11.94715976715088
 30
14.26184749603271
 70
   192
  0
VERTEX
  5
5CD
  8
0
 10
0.0000000000000041
 20
18.32609748840332
 30
-3.217660903930664
 70
   192
  0
VERTEX
  5
5CE
  8
0
 10
0.0000000000000041
 20
18.31900405883789
 30
3.249090433120728
 70
   192
  0
VERTEX
  5
5CF
  8
0
 10
0.0000000000000036
 20
16.10667419433594
 30
9.314693450927734
 70
   192
  0
VERTEX
  5
5D0
  8
0
 10
0.0000000000000027
 20
11.96668243408203
 30
-14.24817180633545
 70
   192
  0
VERTEX
  5
5D1
  8
0
 10
0.0000000000000036
 20
16.12015533447266
 30
-9.290908813476562
 70
   192
  0
VERTEX
  5
5D2
  8
0
 10
0.0000000000000014
 20
6.368464469909668
 30
-17.48292350769043
 70
   192
  0
VERTEX
  5
5D3
  8
0
 10
0.0000000000000014
 20
6.358708381652832
 30
17.48632049560547
 70
   192
  0
VERTEX
  5
5D4
  8
0
 62
     9
 10
0.0
 20
0.0
 30
0.0
 70
   128
 71
     3
 72
     2
 73
     1
  0
VERTEX
  5
5D5
  8
0
 62
     9
 10
0.0
 20
0.0
 30
0.0
 70
   128
 71
     2
 72
     5
 73
     4
  0
VERTEX
  5
5D6
  8
0
 62
     9
 10
0.0
 20
0.0
 30
0.0
 70
   128
 71
     2
 72
     4
 73
     1
  0
VERTEX
  5
5D7
  8
0
 62
     9
 10
0.0
 20
0.0
 30
0.0
 70
   128
 71
     2
 72
     6
 73
     5
  0
VERTEX
  5
5D8
  8
0
 62
     9
 10
0.0
 20
0.0
 30
0.0
 70
   128
 71
     2
 72
     7
 73
     6
  0
VERTEX
  5
5D9
  8
0
 62
     9
 10
0.0
 20
0.0
 30
0.0
 70
   128
 71
     9
 72
     2
 73
     8
  0
VERTEX
  5
5DA
  8
0
 62
     9
 10
0.0
 20
0.0
 30
0.0
 70
   128
 71
     2
 72
    11
 73
    10
  0
VERTEX
  5
5DB
  8
0
 62
     9
 10
0.0
 20
0.0
 30
0.0
 70
   128
 71
     2
 72
    10
 73
     8
  0
VERTEX
  5
5DC
  8
0
 62
     9
 10
0.0
 20
0.0
 30
0.0
 70
   128
 71
     2
 72
    12
 73
    11
  0
VERTEX
  5
5DD
  8
0
 62
     9
 10
0.0
 20
0.0
 30
0.0
 70
   128
 71
     2
 72
     3
 73
    12
  0
VERTEX
  5
5DE
  8
0
 62
     9
 10
0.0
 20
0.0
 30
0.0
 70
   128
 71
    14
 72
     2
 73
    13
  0
VERTEX
  5
5DF
  8
0
 62
     9
 10
0.0
 20
0.0
 30
0.0
 70
   128
 71
     2
 72
    16
 73
    15
  0
VERTEX
  5
5E0
  8
0
 62
     9
 10
0.0
 20
0.0
 30
0.0
 70
   128
 71
     2
 72
    15
 73
    13
  0
VERTEX
  5
5E1
  8
0
 62
     9
 10
0.0
 20
0.0
 30
0.0
 70
   128
 71
     2
 72
    17
 73
    16
  0
VERTEX
  5
5E2
  8
0
 62
     9
 10
0.0
 20
0.0
 30
0.0
 70
   128
 71
     2
 72
     9
 73
    17
  0
VERTEX
  5
5E3
  8
0
 62
     9
 10
0.0
 20
0.0
 30
0.0
 70
   128
 71
    14
 72
    19
 73
    18
  0
VERTEX
  5
5E4
  8
0
 62
     9
 10
0.0
 20
0.0
 30
0.0
 70
   128
 71
    14
 72
    20
 73
    19
  0
VERTEX
  5
5E5
  8
0
 62
     9
 10
0.0
 20
0.0
 30
0.0
 70
   128
 71
    23
 72
    22
 73
    21
  0
VERTEX
  5
5E6
  8
0
 62
     9
 10
0.0
 20
0.0
 30
0.0
 70
   128
 71
    18
 72
    22
 73
    23
  0
VERTEX
  5
5E7
  8
0
 62
     9
 10
0.0
 20
0.0
 30
0.0
 70
   128
 71
    24
 72
    23
 73
    21
  0
VERTEX
  5
5E8
  8
0
 62
     9
 10
0.0
 20
0.0
 30
0.0
 70
   128
 71
    25
 72
    24
 73
    21
  0
VERTEX
  5
5E9
  8
0
 62
     9
 10
0.0
 20
0.0
 30
0.0
 70
   128
 71
    27
 72
    25
 73
    26
  0
VERTEX
  5
5EA
  8
0
 62
     9
 10
0.0
 20
0.0
 30
0.0
 70
   128
 71
    22
 72
    18
 73
    19
  0
VERTEX
  5
5EB
  8
0
 62
     9
 10
0.0
 20
0.0
 30
0.0
 70
   128
 71
    24
 72
    25
 73
    27
  0
VERTEX
  5
5EC
  8
0
 62
     9
 10
0.0
 20
0.0
 30
0.0
 70
   128
 71
    27
 72
    26
 73
     7
  0
VERTEX
  5
5ED
  8
0
 62
     9
 10
0.0
 20
0.0
 30
0.0
 70
   128
 71
    28
 72
    20
 73
    13
  0
VERTEX
  5
5EE
  8
0
 62
     9
 10
0.0
 20
0.0
 30
0.0
 70
   128
 71
    14
 72
    13
 73
    20
  0
VERTEX
  5
5EF
  8
0
 62
     9
 10
0.0
 20
0.0
 30
0.0
 70
   128
 71
    28
 72
    15
 73
    29
  0
VERTEX
  5
5F0
  8
0
 62
     9
 10
0.0
 20
0.0
 30
0.0
 70
   128
 71
    15
 72
    28
 73
    13
  0
VERTEX
  5
5F1
  8
0
 62
     9
 10
0.0
 20
0.0
 30
0.0
 70
   128
 71
    16
 72
    30
 73
    29
  0
VERTEX
  5
5F2
  8
0
 62
     9
 10
0.0
 20
0.0
 30
0.0
 70
   128
 71
    29
 72
    15
 73
    16
  0
VERTEX
  5
5F3
  8
0
 62
     9
 10
0.0
 20
0.0
 30
0.0
 70
   128
 71
    31
 72
    30
 73
    17
  0
VERTEX
  5
5F4
  8
0
 62
     9
 10
0.0
 20
0.0
 30
0.0
 70
   128
 71
    16
 72
    17
 73
    30
  0
VERTEX
  5
5F5
  8
0
 62
     9
 10
0.0
 20
0.0
 30
0.0
 70
   128
 71
     9
 72
    31
 73
    17
  0
VERTEX
  5
5F6
  8
0
 62
     9
 10
0.0
 20
0.0
 30
0.0
 70
   128
 71
     7
 72
    26
 73
     6
  0
VERTEX
  5
5F7
  8
0
 62
     9
 10
0.0
 20
0.0
 30
0.0
 70
   128
 71
     5
 72
    32
 73
     4
  0
VERTEX
  5
5F8
  8
0
 62
     9
 10
0.0
 20
0.0
 30
0.0
 70
   128
 71
    33
 72
    12
 73
     3
  0
VERTEX
  5
5F9
  8
0
 62
     9
 10
0.0
 20
0.0
 30
0.0
 70
   128
 71
     1
 72
    35
 73
    34
  0
VERTEX
  5
5FA
  8
0
 62
     9
 10
0.0
 20
0.0
 30
0.0
 70
   128
 71
    36
 72
    10
 73
    11
  0
VERTEX
  5
5FB
  8
0
 62
     9
 10
0.0
 20
0.0
 30
0.0
 70
   128
 71
    12
 72
    37
 73
    11
  0
VERTEX
  5
5FC
  8
0
 62
     9
 10
0.0
 20
0.0
 30
0.0
 70
   128
 71
    38
 72
    10
 73
    36
  0
VERTEX
  5
5FD
  8
0
 62
     9
 10
0.0
 20
0.0
 30
0.0
 70
   128
 71
     8
 72
    38
 73
    31
  0
VERTEX
  5
5FE
  8
0
 62
     9
 10
0.0
 20
0.0
 30
0.0
 70
   128
 71
    38
 72
     8
 73
    10
  0
VERTEX
  5
5FF
  8
0
 62
     9
 10
0.0
 20
0.0
 30
0.0
 70
   128
 71
    36
 72
    11
 73
    37
  0
VERTEX
  5
600
  8
0
 62
     9
 10
0.0
 20
0.0
 30
0.0
 70
   128
 71
     9
 72
     8
 73
    31
  0
VERTEX
  5
601
  8
0
 62
     9
 10
0.0
 20
0.0
 30
0.0
 70
   128
 71
    33
 72
    37
 73
    12
  0
VERTEX
  5
602
  8
0
 62
     9
 10
0.0
 20
0.0
 30
0.0
 70
   128
 71
    34
 72
    33
 73
     3
  0
VERTEX
  5
603
  8
0
 62
     9
 10
0.0
 20
0.0
 30
0.0
 70
   128
 71
     1
 72
     4
 73
    35
  0
VERTEX
  5
604
  8
0
 62
     9
 10
0.0
 20
0.0
 30
0.0
 70
   128
 71
     3
 72
     1
 73
    34
  0
VERTEX
  5
605
  8
0
 62
     9
 10
0.0
 20
0.0
 30
0.0
 70
   128
 71
     5
 72
     6
 73
    39
  0
VERTEX
  5
606
  8
0
 62
     9
 10
0.0
 20
0.0
 30
0.0
 70
   128
 71
    32
 72
     5
 73
    39
  0
VERTEX
  5
607
  8
0
 62
     9
 10
0.0
 20
0.0
 30
0.0
 70
   128
 71
     4
 72
    32
 73
    35
  0
VERTEX
  5
608
  8
0
 62
     9
 10
0.0
 20
0.0
 30
0.0
 70
   128
 71
    26
 72
    39
 73
     6
  0
VERTEX
  5
609
  8
0
 62
     9
 10
0.0
 20
0.0
 30
0.0
 70
   128
 71
    31
 72
    34
 73
    30
  0
VERTEX
  5
60A
  8
0
 62
     9
 10
0.0
 20
0.0
 30
0.0
 70
   128
 71
    32
 72
    39
 73
    28
  0
VERTEX
  5
60B
  8
0
 62
     9
 10
0.0
 20
0.0
 30
0.0
 70
   128
 71
    36
 72
    37
 73
    38
  0
VERTEX
  5
60C
  8
0
 62
     9
 10
0.0
 20
0.0
 30
0.0
 70
   128
 71
    33
 72
    31
 73
    38
  0
VERTEX
  5
60D
  8
0
 62
     9
 10
0.0
 20
0.0
 30
0.0
 70
   128
 71
    38
 72
    37
 73
    33
  0
VERTEX
  5
60E
  8
0
 62
     9
 10
0.0
 20
0.0
 30
0.0
 70
   128
 71
    34
 72
    35
 73
    30
  0
VERTEX
  5
60F
  8
0
 62
     9
 10
0.0
 20
0.0
 30
0.0
 70
   128
 71
    33
 72
    34
 73
    31
  0
VERTEX
  5
610
  8
0
 62
     9
 10
0.0
 20
0.0
 30
0.0
 70
   128
 71
    29
 72
    30
 73
    35
  0
VERTEX
  5
611
  8
0
 62
     9
 10
0.0
 20
0.0
 30
0.0
 70
   128
 71
    32
 72
    28
 73
    29
  0
VERTEX
  5
612
  8
0
 62
     9
 10
0.0
 20
0.0
 30
0.0
 70
   128
 71
    29
 72
    35
 73
    32
  0
VERTEX
  5
613
  8
0
 62
     9
 10
0.0
 20
0.0
 30
0.0
 70
   128
 71
    28
 72
    39
 73
    20
  0
VERTEX
  5
614
  8
0
 62
     9
 10
0.0
 20
0.0
 30
0.0
 70
   128
 71
    19
 72
    20
 73
    26
  0
VERTEX
  5
615
  8
0
 62
     9
 10
0.0
 20
0.0
 30
0.0
 70
   128
 71
    39
 72
    26
 73
    20
  0
VERTEX
  5
616
  8
0
 62
     9
 10
0.0
 20
0.0
 30
0.0
 70
   128
 71
    25
 72
    22
 73
    19
  0
VERTEX
  5
617
  8
0
 62
     9
 10
0.0
 20
0.0
 30
0.0
 70
   128
 71
    26
 72
    25
 73
    19
  0
VERTEX
  5
618
  8
0
 62
     9
 10
0.0
 20
0.0
 30
0.0
 70
   128
 71
    25
 72
    21
 73
    22
  0
VERTEX
  5
619
  8
0
 62
     9
 10
0.0
 20
0.0
 30
0.0
 70
   128
 71
    27
 72
     2
 73
    24
  0
VERTEX
  5
61A
  8
0
 62
     9
 10
0.0
 20
0.0
 30
0.0
 70
   128
 71
    27
 72
     7
 73
     2
  0
VERTEX
  5
61B
  8
0
 62
     9
 10
0.0
 20
0.0
 30
0.0
 70
   128
 71
    18
 72
    23
 73
     2
  0
VERTEX
  5
61C
  8
0
 62
     9
 10
0.0
 20
0.0
 30
0.0
 70
   128
 71
    23
 72
    24
 73
     2
  0
VERTEX
  5
61D
  8
0
 62
     9
 10
0.0
 20
0.0
 30
0.0
 70
   128
 71
     2
 72
    14
 73
    18
  0
SEQEND
  5
61E
  8
0
  0
ENDBLK
  5
621
  8
0
  0
BLOCK
  8
0
  2
44
 70
     0
 10
0.0
 20
0.0
 30
0.0
  3
44
  1

  0
POLYLINE
  5
623
  8
0
 62
     9
 66
     1
 10
0.0
 20
0.0
 30
0.0
 70
    64
 71
    44
 72
    48
  0
VERTEX
  5
624
  8
0
 10
39.26568603515625
 20
1.886299610137939
 30
610.10205078125
 70
   192
  0
VERTEX
  5
625
  8
0
 10
39.26568603515625
 20
-1.886299610137939
 30
10.10203742980957
 70
   192
  0
VERTEX
  5
626
  8
0
 10
39.2674446105957
 20
1.89813494682312
 30
10.10203742980957
 70
   192
  0
VERTEX
  5
627
  8
0
 10
40.56935882568359
 20
5.456477642059326
 30
10.10203742980957
 70
   192
  0
VERTEX
  5
628
  8
0
 10
40.55532073974609
 20
5.445185661315918
 30
610.10205078125
 70
   192
  0
VERTEX
  5
629
  8
0
 10
42.98766708374023
 20
8.349681854248047
 30
610.10205078125
 70
   192
  0
VERTEX
  5
62A
  8
0
 10
42.99864196777344
 20
8.349867820739746
 30
10.10203742980957
 70
   192
  0
VERTEX
  5
62B
  8
0
 10
46.26739120483398
 20
10.21602439880371
 30
610.10205078125
 70
   192
  0
VERTEX
  5
62C
  8
0
 10
46.28631210327148
 20
10.19301319122314
 30
10.10203742980957
 70
   192
  0
VERTEX
  5
62D
  8
0
 10
50.0
 20
10.89999961853027
 30
610.10205078125
 70
   192
  0
VERTEX
  5
62E
  8
0
 10
50.0
 20
10.89999961853027
 30
10.10203742980957
 70
   192
  0
VERTEX
  5
62F
  8
0
 10
39.2674446105957
 20
-1.89813494682312
 30
610.10205078125
 70
   192
  0
VERTEX
  5
630
  8
0
 10
40.55532073974609
 20
-5.445185661315918
 30
10.10203742980957
 70
   192
  0
VERTEX
  5
631
  8
0
 10
40.56935882568359
 20
-5.456477642059326
 30
610.10205078125
 70
   192
  0
VERTEX
  5
632
  8
0
 10
42.99864196777344
 20
-8.349867820739746
 30
610.10205078125
 70
   192
  0
VERTEX
  5
633
  8
0
 10
42.98766708374023
 20
-8.349681854248047
 30
10.10203742980957
 70
   192
  0
VERTEX
  5
634
  8
0
 10
46.28631210327148
 20
-10.19301319122314
 30
610.10205078125
 70
   192
  0
VERTEX
  5
635
  8
0
 10
46.26739120483398
 20
-10.21602439880371
 30
10.10203742980957
 70
   192
  0
VERTEX
  5
636
  8
0
 10
50.0
 20
-10.89999961853027
 30
10.10203742980957
 70
   192
  0
VERTEX
  5
637
  8
0
 10
50.0
 20
-10.89999961853027
 30
610.10205078125
 70
   192
  0
VERTEX
  5
638
  8
0
 10
53.71368789672852
 20
10.19301319122314
 30
610.10205078125
 70
   192
  0
VERTEX
  5
639
  8
0
 10
60.90000152587891
 20
-0.0000000000000395
 30
607.35205078125
 70
   192
  0
VERTEX
  5
63A
  8
0
 10
60.7325553894043
 20
1.89813494682312
 30
610.10205078125
 70
   192
  0
VERTEX
  5
63B
  8
0
 10
60.68585586547852
 20
2.149999380111694
 30
605.2005004882812
 70
   192
  0
VERTEX
  5
63C
  8
0
 10
57.00135803222656
 20
8.349867820739746
 30
610.10205078125
 70
   192
  0
VERTEX
  5
63D
  8
0
 10
57.01233291625977
 20
8.349681854248047
 30
10.10203742980957
 70
   192
  0
VERTEX
  5
63E
  8
0
 10
59.44467926025391
 20
5.445185661315918
 30
10.10203742980957
 70
   192
  0
VERTEX
  5
63F
  8
0
 10
57.00135803222656
 20
-8.349867820739746
 30
10.10203742980957
 70
   192
  0
VERTEX
  5
640
  8
0
 10
59.44467926025391
 20
-5.445185661315918
 30
610.10205078125
 70
   192
  0
VERTEX
  5
641
  8
0
 10
59.43064117431641
 20
-5.456477642059326
 30
10.10203742980957
 70
   192
  0
VERTEX
  5
642
  8
0
 10
53.71368789672852
 20
-10.19301319122314
 30
10.10203742980957
 70
   192
  0
VERTEX
  5
643
  8
0
 10
53.73260879516602
 20
-10.21602439880371
 30
610.10205078125
 70
   192
  0
VERTEX
  5
644
  8
0
 10
57.01233291625977
 20
-8.349681854248047
 30
610.10205078125
 70
   192
  0
VERTEX
  5
645
  8
0
 10
60.7325553894043
 20
-1.89813494682312
 30
10.10203742980957
 70
   192
  0
VERTEX
  5
646
  8
0
 10
60.68585586547852
 20
-2.149999618530273
 30
15.0033130645752
 70
   192
  0
VERTEX
  5
647
  8
0
 10
60.90000152587891
 20
-0.0008687456720509
 30
12.85203742980957
 70
   192
  0
VERTEX
  5
648
  8
0
 10
60.68585586547852
 20
2.149999380111694
 30
15.00050067901611
 70
   192
  0
VERTEX
  5
649
  8
0
 10
60.90000152587891
 20
-0.0000000000000058
 30
17.15203666687012
 70
   192
  0
VERTEX
  5
64A
  8
0
 10
60.90000152587891
 20
-0.0008687456720509
 30
603.0520629882812
 70
   192
  0
VERTEX
  5
64B
  8
0
 10
59.43064117431641
 20
5.456477642059326
 30
610.10205078125
 70
   192
  0
VERTEX
  5
64C
  8
0
 10
53.73260879516602
 20
10.21602439880371
 30
10.10203742980957
 70
   192
  0
VERTEX
  5
64D
  8
0
 10
60.73431396484375
 20
-1.886299610137939
 30
610.10205078125
 70
   192
  0
VERTEX
  5
64E
  8
0
 10
60.68585586547852
 20
-2.149999618530273
 30
605.2033081054688
 70
   192
  0
VERTEX
  5
64F
  8
0
 10
60.73431396484375
 20
1.886299610137939
 30
10.10203742980957
 70
   192
  0
VERTEX
  5
650
  8
0
 62
     9
 10
0.0
 20
0.0
 30
0.0
 70
   128
 71
     3
 72
     2
 73
     1
  0
VERTEX
  5
651
  8
0
 62
     9
 10
0.0
 20
0.0
 30
0.0
 70
   128
 71
     1
 72
     5
 73
     4
  0
VERTEX
  5
652
  8
0
 62
     9
 10
0.0
 20
0.0
 30
0.0
 70
   128
 71
     4
 72
     3
 73
     1
  0
VERTEX
  5
653
  8
0
 62
     9
 10
0.0
 20
0.0
 30
0.0
 70
   128
 71
     7
 72
     5
 73
     6
  0
VERTEX
  5
654
  8
0
 62
     9
 10
0.0
 20
0.0
 30
0.0
 70
   128
 71
     5
 72
     7
 73
     4
  0
VERTEX
  5
655
  8
0
 62
     9
 10
0.0
 20
0.0
 30
0.0
 70
   128
 71
     9
 72
     7
 73
     8
  0
VERTEX
  5
656
  8
0
 62
     9
 10
0.0
 20
0.0
 30
0.0
 70
   128
 71
     6
 72
     8
 73
     7
  0
VERTEX
  5
657
  8
0
 62
     9
 10
0.0
 20
0.0
 30
0.0
 70
   128
 71
     9
 72
     8
 73
    10
  0
VERTEX
  5
658
  8
0
 62
     9
 10
0.0
 20
0.0
 30
0.0
 70
   128
 71
    11
 72
     9
 73
    10
  0
VERTEX
  5
659
  8
0
 62
     9
 10
0.0
 20
0.0
 30
0.0
 70
   128
 71
     2
 72
    12
 73
     1
  0
VERTEX
  5
65A
  8
0
 62
     9
 10
0.0
 20
0.0
 30
0.0
 70
   128
 71
    14
 72
     2
 73
    13
  0
VERTEX
  5
65B
  8
0
 62
     9
 10
0.0
 20
0.0
 30
0.0
 70
   128
 71
     2
 72
    14
 73
    12
  0
VERTEX
  5
65C
  8
0
 62
     9
 10
0.0
 20
0.0
 30
0.0
 70
   128
 71
    16
 72
    15
 73
    13
  0
VERTEX
  5
65D
  8
0
 62
     9
 10
0.0
 20
0.0
 30
0.0
 70
   128
 71
    14
 72
    13
 73
    15
  0
VERTEX
  5
65E
  8
0
 62
     9
 10
0.0
 20
0.0
 30
0.0
 70
   128
 71
    18
 72
    17
 73
    15
  0
VERTEX
  5
65F
  8
0
 62
     9
 10
0.0
 20
0.0
 30
0.0
 70
   128
 71
    15
 72
    16
 73
    18
  0
VERTEX
  5
660
  8
0
 62
     9
 10
0.0
 20
0.0
 30
0.0
 70
   128
 71
    19
 72
    17
 73
    18
  0
VERTEX
  5
661
  8
0
 62
     9
 10
0.0
 20
0.0
 30
0.0
 70
   128
 71
    19
 72
    20
 73
    17
  0
VERTEX
  5
662
  8
0
 62
     9
 10
0.0
 20
0.0
 30
0.0
 70
   128
 71
    11
 72
    10
 73
    21
  0
VERTEX
  5
663
  8
0
 62
     9
 10
0.0
 20
0.0
 30
0.0
 70
   128
 71
    24
 72
    23
 73
    22
  0
VERTEX
  5
664
  8
0
 62
     9
 10
0.0
 20
0.0
 30
0.0
 70
   128
 71
    27
 72
    26
 73
    25
  0
VERTEX
  5
665
  8
0
 62
     9
 10
0.0
 20
0.0
 30
0.0
 70
   128
 71
    30
 72
    29
 73
    28
  0
VERTEX
  5
666
  8
0
 62
     9
 10
0.0
 20
0.0
 30
0.0
 70
   128
 71
    28
 72
    32
 73
    31
  0
VERTEX
  5
667
  8
0
 62
     9
 10
0.0
 20
0.0
 30
0.0
 70
   128
 71
    32
 72
    28
 73
    33
  0
VERTEX
  5
668
  8
0
 62
     9
 10
0.0
 20
0.0
 30
0.0
 70
   128
 71
    19
 72
    31
 73
    20
  0
VERTEX
  5
669
  8
0
 62
     9
 10
0.0
 20
0.0
 30
0.0
 70
   128
 71
    32
 72
    20
 73
    31
  0
VERTEX
  5
66A
  8
0
 62
     9
 10
0.0
 20
0.0
 30
0.0
 70
   128
 71
    36
 72
    35
 73
    34
  0
VERTEX
  5
66B
  8
0
 62
     9
 10
0.0
 20
0.0
 30
0.0
 70
   128
 71
    29
 72
    33
 73
    28
  0
VERTEX
  5
66C
  8
0
 62
     9
 10
0.0
 20
0.0
 30
0.0
 70
   128
 71
    39
 72
    38
 73
    37
  0
VERTEX
  5
66D
  8
0
 62
     9
 10
0.0
 20
0.0
 30
0.0
 70
   128
 71
    27
 72
    25
 73
    40
  0
VERTEX
  5
66E
  8
0
 62
     9
 10
0.0
 20
0.0
 30
0.0
 70
   128
 71
    40
 72
    24
 73
    27
  0
VERTEX
  5
66F
  8
0
 62
     9
 10
0.0
 20
0.0
 30
0.0
 70
   128
 71
    41
 72
    21
 73
    25
  0
VERTEX
  5
670
  8
0
 62
     9
 10
0.0
 20
0.0
 30
0.0
 70
   128
 71
    41
 72
    25
 73
    26
  0
VERTEX
  5
671
  8
0
 62
     9
 10
0.0
 20
0.0
 30
0.0
 70
   128
 71
    21
 72
    41
 73
    11
  0
VERTEX
  5
672
  8
0
 62
     9
 10
0.0
 20
0.0
 30
0.0
 70
   128
 71
    42
 72
    22
 73
    23
  0
VERTEX
  5
673
  8
0
 62
     9
 10
0.0
 20
0.0
 30
0.0
 70
   128
 71
    37
 72
    24
 73
    39
  0
VERTEX
  5
674
  8
0
 62
     9
 10
0.0
 20
0.0
 30
0.0
 70
   128
 71
    23
 72
    24
 73
    40
  0
VERTEX
  5
675
  8
0
 62
     9
 10
0.0
 20
0.0
 30
0.0
 70
   128
 71
    22
 72
    42
 73
    43
  0
VERTEX
  5
676
  8
0
 62
     9
 10
0.0
 20
0.0
 30
0.0
 70
   128
 71
    37
 72
    36
 73
    44
  0
VERTEX
  5
677
  8
0
 62
     9
 10
0.0
 20
0.0
 30
0.0
 70
   128
 71
    29
 72
    43
 73
    42
  0
VERTEX
  5
678
  8
0
 62
     9
 10
0.0
 20
0.0
 30
0.0
 70
   128
 71
    35
 72
    29
 73
    30
  0
VERTEX
  5
679
  8
0
 62
     9
 10
0.0
 20
0.0
 30
0.0
 70
   128
 71
    35
 72
    38
 73
    43
  0
VERTEX
  5
67A
  8
0
 62
     9
 10
0.0
 20
0.0
 30
0.0
 70
   128
 71
    27
 72
    37
 73
    44
  0
VERTEX
  5
67B
  8
0
 62
     9
 10
0.0
 20
0.0
 30
0.0
 70
   128
 71
    24
 72
    37
 73
    27
  0
VERTEX
  5
67C
  8
0
 62
     9
 10
0.0
 20
0.0
 30
0.0
 70
   128
 71
    38
 72
    39
 73
    43
  0
VERTEX
  5
67D
  8
0
 62
     9
 10
0.0
 20
0.0
 30
0.0
 70
   128
 71
    44
 72
    36
 73
    34
  0
VERTEX
  5
67E
  8
0
 62
     9
 10
0.0
 20
0.0
 30
0.0
 70
   128
 71
    35
 72
    43
 73
    29
  0
VERTEX
  5
67F
  8
0
 62
     9
 10
0.0
 20
0.0
 30
0.0
 70
   128
 71
    34
 72
    35
 73
    30
  0
SEQEND
  5
680
  8
0
 62
     9
  0
ENDBLK
  5
683
  8
0
  0
ENDSEC
  0
SECTION
  2
ENTITIES
  0
INSERT
  5
149
  8
LAYER_1
  2
38
 10
0.0
 20
0.0
 30
0.0
  0
INSERT
  5
365
  8
LAYER_1
  2
39
 10
0.0
 20
0.0
 30
0.0
  0
INSERT
  5
48D
  8
LAYER_1
  2
40
 10
0.0
 20
0.0
 30
0.0
  0
INSERT
  5
531
  8
LAYER_1
  2
41
 10
0.0
 20
0.0
 30
0.0
  0
INSERT
  5
5A8
  8
LAYER_1
  2
42
 10
0.0
 20
0.0
 30
0.0
  0
INSERT
  5
61F
  8
LAYER_1
  2
43
 10
0.0
 20
0.0
 30
0.0
  0
INSERT
  5
681
  8
LAYER_1
  2
44
 10
0.0
 20
0.0
 30
0.0
  0
ENDSEC
  0
EOF
