  0
SECTION
  2
HEADER
  9
$ACADVER
  1
AC1015
  9
$ACADMAINTVER
 70
     6
  9
$DWGCODEPAGE
  3
ANSI_1252
  9
$INSBASE
 10
0.0
 20
0.0
 30
0.0
  9
$EXTMIN
 10
0.0
 20
0.0
 30
0.0
  9
$EXTMAX
 10
1682.0
 20
2378.0
 30
0.0
  9
$LIMMIN
 10
0.0
 20
0.0
  9
$LIMMAX
 10
1682.0
 20
2378.0
  9
$ORTHOMODE
 70
     0
  9
$REGENMODE
 70
     1
  9
$FILLMODE
 70
     1
  9
$QTEXTMODE
 70
     0
  9
$MIRRTEXT
 70
     1
  9
$LTSCALE
 40
1.0
  9
$ATTMODE
 70
     1
  9
$TEXTSIZE
 40
2.5
  9
$TRACEWID
 40
1.0
  9
$TEXTSTYLE
  7
Standard
  9
$CLAYER
  8
0
  9
$CELTYPE
  6
ByLayer
  9
$CECOLOR
 62
   256
  9
$CELTSCALE
 40
1.0
  9
$DISPSILH
 70
     0
  9
$DIMSCALE
 40
1.0
  9
$DIMASZ
 40
2.5
  9
$DIMEXO
 40
0.625
  9
$DIMDLI
 40
3.75
  9
$DIMRND
 40
0.0
  9
$DIMDLE
 40
0.0
  9
$DIMEXE
 40
1.25
  9
$DIMTP
 40
0.0
  9
$DIMTM
 40
0.0
  9
$DIMTXT
 40
2.5
  9
$DIMCEN
 40
2.5
  9
$DIMTSZ
 40
0.0
  9
$DIMTOL
 70
     0
  9
$DIMLIM
 70
     0
  9
$DIMTIH
 70
     0
  9
$DIMTOH
 70
     0
  9
$DIMSE1
 70
     0
  9
$DIMSE2
 70
     0
  9
$DIMTAD
 70
     1
  9
$DIMZIN
 70
     8
  9
$DIMBLK
  1

  9
$DIMASO
 70
     1
  9
$DIMSHO
 70
     1
  9
$DIMPOST
  1

  9
$DIMAPOST
  1

  9
$DIMALT
 70
     0
  9
$DIMALTD
 70
     3
  9
$DIMALTF
 40
0.0393700787
  9
$DIMLFAC
 40
1.0
  9
$DIMTOFL
 70
     1
  9
$DIMTVP
 40
0.0
  9
$DIMTIX
 70
     0
  9
$DIMSOXD
 70
     0
  9
$DIMSAH
 70
     0
  9
$DIMBLK1
  1

  9
$DIMBLK2
  1

  9
$DIMSTYLE
  2
ISO-25
  9
$DIMCLRD
 70
     0
  9
$DIMCLRE
 70
     0
  9
$DIMCLRT
 70
     0
  9
$DIMTFAC
 40
1.0
  9
$DIMGAP
 40
0.625
  9
$DIMJUST
 70
     0
  9
$DIMSD1
 70
     0
  9
$DIMSD2
 70
     0
  9
$DIMTOLJ
 70
     0
  9
$DIMTZIN
 70
     8
  9
$DIMALTZ
 70
     0
  9
$DIMALTTZ
 70
     0
  9
$DIMUPT
 70
     0
  9
$DIMDEC
 70
     2
  9
$DIMTDEC
 70
     2
  9
$DIMALTU
 70
     2
  9
$DIMALTTD
 70
     3
  9
$DIMTXSTY
  7
Standard
  9
$DIMAUNIT
 70
     0
  9
$DIMADEC
 70
     0
  9
$DIMALTRND
 40
0.0
  9
$DIMAZIN
 70
     0
  9
$DIMDSEP
 70
    44
  9
$DIMATFIT
 70
     3
  9
$DIMFRAC
 70
     0
  9
$DIMLDRBLK
  1

  9
$DIMLUNIT
 70
     2
  9
$DIMLWD
 70
    -2
  9
$DIMLWE
 70
    -2
  9
$DIMTMOVE
 70
     0
  9
$LUNITS
 70
     2
  9
$LUPREC
 70
     4
  9
$SKETCHINC
 40
1.0
  9
$FILLETRAD
 40
10.0
  9
$AUNITS
 70
     0
  9
$AUPREC
 70
     0
  9
$MENU
  1
.
  9
$ELEVATION
 40
0.0
  9
$PELEVATION
 40
0.0
  9
$THICKNESS
 40
0.0
  9
$LIMCHECK
 70
     0
  9
$CHAMFERA
 40
10.0
  9
$CHAMFERB
 40
10.0
  9
$CHAMFERC
 40
20.0
  9
$CHAMFERD
 40
0.0
  9
$SKPOLY
 70
     0
  9
$TDCREATE
 40
2455580.614556863
  9
$TDUCREATE
 40
2455580.572890197
  9
$TDUPDATE
 40
2455580.614556875
  9
$TDUUPDATE
 40
2455580.572890208
  9
$TDINDWG
 40
0.0000000116
  9
$TDUSRTIMER
 40
0.0000000116
  9
$USRTIMER
 70
     1
  9
$ANGBASE
 50
0.0
  9
$ANGDIR
 70
     0
  9
$PDMODE
 70
     0
  9
$PDSIZE
 40
0.0
  9
$PLINEWID
 40
0.0
  9
$SPLFRAME
 70
     0
  9
$SPLINETYPE
 70
     6
  9
$SPLINESEGS
 70
     8
  9
$HANDSEED
  5
1BC
  9
$SURFTAB1
 70
     6
  9
$SURFTAB2
 70
     6
  9
$SURFTYPE
 70
     6
  9
$SURFU
 70
     6
  9
$SURFV
 70
     6
  9
$UCSBASE
  2

  9
$UCSNAME
  2

  9
$UCSORG
 10
0.0
 20
0.0
 30
0.0
  9
$UCSXDIR
 10
1.0
 20
0.0
 30
0.0
  9
$UCSYDIR
 10
0.0
 20
1.0
 30
0.0
  9
$UCSORTHOREF
  2

  9
$UCSORTHOVIEW
 70
     0
  9
$UCSORGTOP
 10
0.0
 20
0.0
 30
0.0
  9
$UCSORGBOTTOM
 10
0.0
 20
0.0
 30
0.0
  9
$UCSORGLEFT
 10
0.0
 20
0.0
 30
0.0
  9
$UCSORGRIGHT
 10
0.0
 20
0.0
 30
0.0
  9
$UCSORGFRONT
 10
0.0
 20
0.0
 30
0.0
  9
$UCSORGBACK
 10
0.0
 20
0.0
 30
0.0
  9
$PUCSBASE
  2

  9
$PUCSNAME
  2

  9
$PUCSORG
 10
0.0
 20
0.0
 30
0.0
  9
$PUCSXDIR
 10
1.0
 20
0.0
 30
0.0
  9
$PUCSYDIR
 10
0.0
 20
1.0
 30
0.0
  9
$PUCSORTHOREF
  2

  9
$PUCSORTHOVIEW
 70
     0
  9
$PUCSORGTOP
 10
0.0
 20
0.0
 30
0.0
  9
$PUCSORGBOTTOM
 10
0.0
 20
0.0
 30
0.0
  9
$PUCSORGLEFT
 10
0.0
 20
0.0
 30
0.0
  9
$PUCSORGRIGHT
 10
0.0
 20
0.0
 30
0.0
  9
$PUCSORGFRONT
 10
0.0
 20
0.0
 30
0.0
  9
$PUCSORGBACK
 10
0.0
 20
0.0
 30
0.0
  9
$USERI1
 70
     0
  9
$USERI2
 70
     0
  9
$USERI3
 70
     0
  9
$USERI4
 70
     0
  9
$USERI5
 70
     0
  9
$USERR1
 40
0.0
  9
$USERR2
 40
0.0
  9
$USERR3
 40
0.0
  9
$USERR4
 40
0.0
  9
$USERR5
 40
0.0
  9
$WORLDVIEW
 70
     1
  9
$SHADEDGE
 70
     3
  9
$SHADEDIF
 70
    70
  9
$TILEMODE
 70
     1
  9
$MAXACTVP
 70
    64
  9
$PINSBASE
 10
0.0
 20
0.0
 30
0.0
  9
$PLIMCHECK
 70
     0
  9
$PEXTMIN
 10
0.0
 20
0.0
 30
0.0
  9
$PEXTMAX
 10
1682.0
 20
2378.0
 30
0.0
  9
$PLIMMIN
 10
0.0
 20
0.0
  9
$PLIMMAX
 10
1682.0
 20
2378.0
  9
$UNITMODE
 70
     0
  9
$VISRETAIN
 70
     1
  9
$PLINEGEN
 70
     0
  9
$PSLTSCALE
 70
     1
  9
$TREEDEPTH
 70
  3020
  9
$CMLSTYLE
  2
Standard
  9
$CMLJUST
 70
     0
  9
$CMLSCALE
 40
20.0
  9
$PROXYGRAPHICS
 70
     1
  9
$MEASUREMENT
 70
     1
  9
$CELWEIGHT
370
    -1
  9
$ENDCAPS
280
     0
  9
$JOINSTYLE
280
     0
  9
$LWDISPLAY
290
     0
  9
$INSUNITS
 70
     4
  9
$HYPERLINKBASE
  1

  9
$STYLESHEET
  1

  9
$XEDIT
290
     1
  9
$CEPSNTYPE
380
     0
  9
$PSTYLEMODE
290
     1
  9
$FINGERPRINTGUID
  2
{2B756C38-409C-43C1-984D-6EDF484565CA}
  9
$VERSIONGUID
  2
{FAEB1C32-E019-11D5-929B-00C0DF256EC4}
  9
$EXTNAMES
290
     1
  9
$PSVPSCALE
 40
0.0
  9
$OLESTARTUP
290
     0
  0
ENDSEC
  0
SECTION
  2
CLASSES
  0
CLASS
  1
ACDBDICTIONARYWDFLT
  2
AcDbDictionaryWithDefault
  3
ObjectDBX Classes
 90
        0
280
     0
281
     0
  0
CLASS
  1
VISUALSTYLE
  2
AcDbVisualStyle
  3
ObjectDBX Classes
 90
     4095
280
     0
281
     0
  0
CLASS
  1
SCALE
  2
AcDbScale
  3
ObjectDBX Classes
 90
     1153
280
     0
281
     0
  0
CLASS
  1
DICTIONARYVAR
  2
AcDbDictionaryVar
  3
ObjectDBX Classes
 90
        0
280
     0
281
     0
  0
CLASS
  1
ACDBPLACEHOLDER
  2
AcDbPlaceHolder
  3
ObjectDBX Classes
 90
        0
280
     0
281
     0
  0
CLASS
  1
LAYOUT
  2
AcDbLayout
  3
ObjectDBX Classes
 90
        0
280
     0
281
     0
  0
ENDSEC
  0
SECTION
  2
TABLES
  0
TABLE
  2
VPORT
  5
8
330
0
100
AcDbSymbolTable
 70
     1
  0
VPORT
  5
29
330
8
100
AcDbSymbolTableRecord
100
AcDbViewportTableRecord
  2
*Active
 70
     0
 10
0.0
 20
0.0
 11
1.0
 21
1.0
 12
344.1869158879
 22
148.5
 13
0.0
 23
0.0
 14
10.0
 24
10.0
 15
10.0
 25
10.0
 16
0.0
 26
0.0
 36
1.0
 17
0.0
 27
0.0
 37
0.0
 40
297.0
 41
1.9729729729
 42
50.0
 43
0.0
 44
0.0
 50
0.0
 51
0.0
 71
     0
 72
   100
 73
     1
 74
     3
 75
     0
 76
     0
 77
     0
 78
     0
281
     0
 65
     1
110
0.0
120
0.0
130
0.0
111
1.0
121
0.0
131
0.0
112
0.0
122
1.0
132
0.0
 79
     0
146
0.0
  0
ENDTAB
  0
TABLE
  2
LTYPE
  5
5
330
0
100
AcDbSymbolTable
 70
     2
  0
LTYPE
  5
14
330
5
100
AcDbSymbolTableRecord
100
AcDbLinetypeTableRecord
  2
ByBlock
 70
     0
  3

 72
    65
 73
     0
 40
0.0
  0
LTYPE
  5
15
330
5
100
AcDbSymbolTableRecord
100
AcDbLinetypeTableRecord
  2
ByLayer
 70
     0
  3

 72
    65
 73
     0
 40
0.0
  0
LTYPE
  5
16
330
5
100
AcDbSymbolTableRecord
100
AcDbLinetypeTableRecord
  2
Continuous
 70
     0
  3
Solid line
 72
    65
 73
     0
 40
0.0
  0
LTYPE
  5
61
330
5
100
AcDbSymbolTableRecord
100
AcDbLinetypeTableRecord
  2
CENTER2
 70
     0
  3
Center (.5x) ___ _ ___ _ ___ _ ___ _ ___ _ ___
 72
    65
 73
     4
 40
28.575
 49
19.05
 74
     4
 75
     0
340
0
 46
0.0
 50
0.0
 44
0.0
 45
0.0
 49
-3.175
 74
     4
 75
     0
340
0
 46
0.0
 50
0.0
 44
0.0
 45
0.0
 49
3.175
 74
     4
 75
     0
340
0
 46
0.0
 50
0.0
 44
0.0
 45
0.0
 49
-3.175
 74
     4
 75
     0
340
0
 46
0.0
 50
0.0
 44
0.0
 45
0.0
  0
ENDTAB
  0
TABLE
  2
LAYER
  5
2
330
0
100
AcDbSymbolTable
 70
    10
  0
LAYER
  5
10
330
2
100
AcDbSymbolTableRecord
100
AcDbLayerTableRecord
  2
0
 70
     0
 62
     7
  6
Continuous
370
    -3
390
F
  0
LAYER
  5
5D
330
2
100
AcDbSymbolTableRecord
100
AcDbLayerTableRecord
  2
Default
 70
     0
 62
     7
  6
Continuous
370
    -3
390
F
  0
LAYER
  5
8F
330
2
100
AcDbSymbolTableRecord
100
AcDbLayerTableRecord
  2
$DDT_AUDIT_GENERATED_(8F)
 70
     0
 62
     7
  6
Continuous
370
    -3
390
F
  0
LAYER
  5
9B
330
2
100
AcDbSymbolTableRecord
100
AcDbLayerTableRecord
  2
$DDT_AUDIT_GENERATED_(9B)
 70
     0
 62
     7
  6
Continuous
370
    -3
390
F
  0
LAYER
  5
A0
330
2
100
AcDbSymbolTableRecord
100
AcDbLayerTableRecord
  2
$DDT_AUDIT_GENERATED_(A0)
 70
     0
 62
     7
  6
Continuous
370
    -3
390
F
  0
LAYER
  5
BB
330
2
100
AcDbSymbolTableRecord
100
AcDbLayerTableRecord
  2
$DDT_AUDIT_GENERATED_(BB)
 70
     0
 62
     7
  6
Continuous
370
    -3
390
F
  0
LAYER
  5
BE
330
2
100
AcDbSymbolTableRecord
100
AcDbLayerTableRecord
  2
$DDT_AUDIT_GENERATED_(BE)
 70
     0
 62
     7
  6
Continuous
370
    -3
390
F
  0
LAYER
  5
CF
330
2
100
AcDbSymbolTableRecord
100
AcDbLayerTableRecord
  2
$DDT_AUDIT_GENERATED_(CF)
 70
     0
 62
     7
  6
Continuous
370
    -3
390
F
  0
LAYER
  5
E4
330
2
100
AcDbSymbolTableRecord
100
AcDbLayerTableRecord
  2
$DDT_AUDIT_GENERATED_(E4)
 70
     0
 62
     7
  6
Continuous
370
    -3
390
F
  0
LAYER
  5
182
330
2
100
AcDbSymbolTableRecord
100
AcDbLayerTableRecord
  2
$DDT_AUDIT_GENERATED_(182)
 70
     0
 62
     7
  6
Continuous
370
    -3
390
F
  0
ENDTAB
  0
TABLE
  2
STYLE
  5
3
330
0
100
AcDbSymbolTable
 70
     2
  0
STYLE
  5
11
330
3
100
AcDbSymbolTableRecord
100
AcDbTextStyleTableRecord
  2
Standard
 70
     0
 40
0.0
 41
1.0
 50
0.0
 71
     0
 42
2.5
  3
txt
  4

  0
STYLE
  5
1AB
330
3
100
AcDbSymbolTableRecord
100
AcDbTextStyleTableRecord
  2
SEACAD_seiso_ttf
 70
     0
 40
0.0
 41
1.0
 50
0.0
 71
     0
 42
0.2
  3
seiso.ttf
  4

  0
ENDTAB
  0
TABLE
  2
VIEW
  5
6
330
0
100
AcDbSymbolTable
 70
     0
  0
ENDTAB
  0
TABLE
  2
UCS
  5
7
330
0
100
AcDbSymbolTable
 70
     0
  0
ENDTAB
  0
TABLE
  2
APPID
  5
9
330
0
100
AcDbSymbolTable
 70
     1
  0
APPID
  5
12
330
9
100
AcDbSymbolTableRecord
100
AcDbRegAppTableRecord
  2
ACAD
 70
     0
  0
ENDTAB
  0
TABLE
  2
DIMSTYLE
  5
A
330
0
100
AcDbSymbolTable
 70
     1
100
AcDbDimStyleTable
  0
DIMSTYLE
105
27
330
A
100
AcDbSymbolTableRecord
100
AcDbDimStyleTableRecord
  2
ISO-25
 70
     0
 41
2.5
 42
0.625
 43
3.75
 44
1.25
 73
     0
 74
     0
 77
     1
 78
     8
140
2.5
141
2.5
143
0.0393700787
147
0.625
171
     3
172
     1
271
     2
272
     2
274
     3
278
    44
283
     0
284
     8
340
11
  0
ENDTAB
  0
TABLE
  2
BLOCK_RECORD
  5
1
330
0
100
AcDbSymbolTable
 70
    10
  0
BLOCK_RECORD
  5
1F
330
1
100
AcDbSymbolTableRecord
100
AcDbBlockTableRecord
  2
*Model_Space
340
22
  0
BLOCK_RECORD
  5
1B
330
1
100
AcDbSymbolTableRecord
100
AcDbBlockTableRecord
  2
*Paper_Space
340
1E
  0
BLOCK_RECORD
  5
5F
330
1
100
AcDbSymbolTableRecord
100
AcDbBlockTableRecord
  2
SEANNOT_GROUP
340
0
102
{BLKREFS
331
60
102
}
  0
BLOCK_RECORD
  5
66
330
1
100
AcDbSymbolTableRecord
100
AcDbBlockTableRecord
  2
SEANNOT_GROUP1
340
0
102
{BLKREFS
331
67
102
}
  0
BLOCK_RECORD
  5
70
330
1
100
AcDbSymbolTableRecord
100
AcDbBlockTableRecord
  2
SEANNOT_GROUP2
340
0
102
{BLKREFS
331
71
102
}
  0
BLOCK_RECORD
  5
7A
330
1
100
AcDbSymbolTableRecord
100
AcDbBlockTableRecord
  2
SEANNOT_GROUP3
340
0
102
{BLKREFS
331
7B
102
}
  0
BLOCK_RECORD
  5
80
330
1
100
AcDbSymbolTableRecord
100
AcDbBlockTableRecord
  2
SEANNOT_GROUP4
340
0
102
{BLKREFS
331
81
102
}
  0
BLOCK_RECORD
  5
87
330
1
100
AcDbSymbolTableRecord
100
AcDbBlockTableRecord
  2
SEANNOT_GROUP5
340
0
102
{BLKREFS
331
88
102
}
  0
BLOCK_RECORD
  5
8D
330
1
100
AcDbSymbolTableRecord
100
AcDbBlockTableRecord
  2
SE
340
0
102
{BLKREFS
331
8E
102
}
  0
BLOCK_RECORD
  5
101
330
1
100
AcDbSymbolTableRecord
100
AcDbBlockTableRecord
  2
SE1
340
0
102
{BLKREFS
331
102
102
}
  0
BLOCK_RECORD
  5
16D
330
1
100
AcDbSymbolTableRecord
100
AcDbBlockTableRecord
  2
SE2
340
0
102
{BLKREFS
331
16E
102
}
  0
ENDTAB
  0
ENDSEC
  0
SECTION
  2
BLOCKS
  0
BLOCK
  5
20
330
1F
100
AcDbEntity
  8
0
100
AcDbBlockBegin
  2
*Model_Space
 70
     0
 10
0.0
 20
0.0
 30
0.0
  3
*Model_Space
  1

  0
ENDBLK
  5
21
330
1F
100
AcDbEntity
  8
0
100
AcDbBlockEnd
  0
BLOCK
  5
1C
330
1B
100
AcDbEntity
 67
     1
  8
0
100
AcDbBlockBegin
  2
*Paper_Space
 70
     0
 10
0.0
 20
0.0
 30
0.0
  3
*Paper_Space
  1

  0
ENDBLK
  5
1D
330
1B
100
AcDbEntity
 67
     1
  8
0
100
AcDbBlockEnd
  0
BLOCK
  5
64
330
5F
100
AcDbEntity
  8
0
100
AcDbBlockBegin
  2
SEANNOT_GROUP
 70
     0
 10
0.0
 20
0.0
 30
0.0
  3
SEANNOT_GROUP
  1

  0
LINE
  5
62
330
5F
100
AcDbEntity
  8
Default
  6
CENTER2
 62
     7
100
AcDbLine
 10
68.7002973696
 20
176.35
 30
0.0
 11
28.7002982637
 21
176.35
 31
0.0
  0
LINE
  5
63
330
5F
100
AcDbEntity
  8
Default
  6
CENTER2
 62
     7
100
AcDbLine
 10
48.7002978166
 20
196.349999553
 30
0.0
 11
48.7002978166
 21
156.350000447
 31
0.0
  0
ENDBLK
  5
65
330
5F
100
AcDbEntity
  8
0
100
AcDbBlockEnd
  0
BLOCK
  5
6E
330
66
100
AcDbEntity
  8
0
100
AcDbBlockBegin
  2
SEANNOT_GROUP1
 70
     0
 10
0.0
 20
0.0
 30
0.0
  3
SEANNOT_GROUP1
  1

  0
LINE
  5
68
330
66
100
AcDbEntity
  8
Default
  6
CENTER2
 62
     7
100
AcDbLine
 10
68.699999553
 20
933.8608203126
 30
0.0
 11
28.700000447
 21
933.8608203126
 31
0.0
  0
LINE
  5
69
330
66
100
AcDbEntity
  8
Default
  6
CENTER2
 62
     7
100
AcDbLine
 10
48.7
 20
953.8608198656
 30
0.0
 11
48.7
 21
913.8608207597
 31
0.0
  0
LINE
  5
6A
330
66
100
AcDbEntity
  8
Default
  6
CENTER2
 62
     7
100
AcDbLine
 10
73.6999994412
 20
933.8608203126
 30
0.0
 11
70.8047677822
 21
933.8608203126
 31
0.0
  0
LINE
  5
6B
330
66
100
AcDbEntity
  8
Default
  6
CENTER2
 62
     7
100
AcDbLine
 10
48.7
 20
958.8608197538
 30
0.0
 11
48.7
 21
955.9655880949
 31
0.0
  0
LINE
  5
6C
330
66
100
AcDbEntity
  8
Default
  6
CENTER2
 62
     7
100
AcDbLine
 10
23.7000005588
 20
933.8608203126
 30
0.0
 11
26.5952322178
 21
933.8608203126
 31
0.0
  0
LINE
  5
6D
330
66
100
AcDbEntity
  8
Default
  6
CENTER2
 62
     7
100
AcDbLine
 10
48.7
 20
908.8608208714
 30
0.0
 11
48.7
 21
911.7560525304
 31
0.0
  0
ENDBLK
  5
6F
330
66
100
AcDbEntity
  8
0
100
AcDbBlockEnd
  0
BLOCK
  5
78
330
70
100
AcDbEntity
  8
0
100
AcDbBlockBegin
  2
SEANNOT_GROUP2
 70
     0
 10
0.0
 20
0.0
 30
0.0
  3
SEANNOT_GROUP2
  1

  0
LINE
  5
72
330
70
100
AcDbEntity
  8
Default
  6
CENTER2
 62
     7
100
AcDbLine
 10
68.699999553
 20
313.6567461624
 30
0.0
 11
28.700000447
 21
313.6567461624
 31
0.0
  0
LINE
  5
73
330
70
100
AcDbEntity
  8
Default
  6
CENTER2
 62
     7
100
AcDbLine
 10
48.7
 20
333.6567457153
 30
0.0
 11
48.7
 21
293.6567466094
 31
0.0
  0
LINE
  5
74
330
70
100
AcDbEntity
  8
Default
  6
CENTER2
 62
     7
100
AcDbLine
 10
73.6999994412
 20
313.6567461624
 30
0.0
 11
70.8047787484
 21
313.6567461624
 31
0.0
  0
LINE
  5
75
330
70
100
AcDbEntity
  8
Default
  6
CENTER2
 62
     7
100
AcDbLine
 10
48.7
 20
338.6567456036
 30
0.0
 11
48.7
 21
335.7615249107
 31
0.0
  0
LINE
  5
76
330
70
100
AcDbEntity
  8
Default
  6
CENTER2
 62
     7
100
AcDbLine
 10
23.7000005588
 20
313.6567461624
 30
0.0
 11
26.5952212516
 21
313.6567461624
 31
0.0
  0
LINE
  5
77
330
70
100
AcDbEntity
  8
Default
  6
CENTER2
 62
     7
100
AcDbLine
 10
48.7
 20
288.6567467212
 30
0.0
 11
48.7
 21
291.551967414
 31
0.0
  0
ENDBLK
  5
79
330
70
100
AcDbEntity
  8
0
100
AcDbBlockEnd
  0
BLOCK
  5
7E
330
7A
100
AcDbEntity
  8
0
100
AcDbBlockBegin
  2
SEANNOT_GROUP3
 70
     0
 10
0.0
 20
0.0
 30
0.0
  3
SEANNOT_GROUP3
  1

  0
LINE
  5
7C
330
7A
100
AcDbEntity
  8
Default
  6
CENTER2
 62
     7
100
AcDbLine
 10
250.7532689678
 20
313.6567461624
 30
0.0
 11
210.7532698619
 21
313.6567461624
 31
0.0
  0
LINE
  5
7D
330
7A
100
AcDbEntity
  8
Default
  6
CENTER2
 62
     7
100
AcDbLine
 10
230.7532694148
 20
333.6567457153
 30
0.0
 11
230.7532694148
 21
293.6567466094
 31
0.0
  0
ENDBLK
  5
7F
330
7A
100
AcDbEntity
  8
0
100
AcDbBlockEnd
  0
BLOCK
  5
84
330
80
100
AcDbEntity
  8
0
100
AcDbBlockBegin
  2
SEANNOT_GROUP4
 70
     0
 10
0.0
 20
0.0
 30
0.0
  3
SEANNOT_GROUP4
  1

  0
LINE
  5
82
330
80
100
AcDbEntity
  8
Default
  6
CENTER2
 62
     7
100
AcDbLine
 10
250.7532689678
 20
933.8608203126
 30
0.0
 11
210.7532698619
 21
933.8608203126
 31
0.0
  0
LINE
  5
83
330
80
100
AcDbEntity
  8
Default
  6
CENTER2
 62
     7
100
AcDbLine
 10
230.7532694148
 20
953.8608198656
 30
0.0
 11
230.7532694148
 21
913.8608207597
 31
0.0
  0
ENDBLK
  5
85
330
80
100
AcDbEntity
  8
0
100
AcDbBlockEnd
  0
BLOCK
  5
8B
330
87
100
AcDbEntity
  8
0
100
AcDbBlockBegin
  2
SEANNOT_GROUP5
 70
     0
 10
0.0
 20
0.0
 30
0.0
  3
SEANNOT_GROUP5
  1

  0
LINE
  5
89
330
87
100
AcDbEntity
  8
Default
  6
CENTER2
 62
     7
100
AcDbLine
 10
118.0313839785
 20
126.3505883779
 30
0.0
 11
78.0313848726
 21
126.3505883779
 31
0.0
  0
LINE
  5
8A
330
87
100
AcDbEntity
  8
Default
  6
CENTER2
 62
     7
100
AcDbLine
 10
98.0313844256
 20
146.3505879308
 30
0.0
 11
98.0313844256
 21
106.3505888249
 31
0.0
  0
ENDBLK
  5
8C
330
87
100
AcDbEntity
  8
0
100
AcDbBlockEnd
  0
BLOCK
  5
FF
330
8D
100
AcDbEntity
  8
0
100
AcDbBlockBegin
  2
SE
 70
     0
 10
0.0
 20
0.0
 30
0.0
  3
SE
  1

  0
LINE
  5
90
330
8D
100
AcDbEntity
  8
$DDT_AUDIT_GENERATED_(8F)
  6
Continuous
 62
     7
100
AcDbLine
 10
60.5361929157
 20
299.7190430418
 30
0.0
 11
60.5361929157
 21
299.3944705605
 31
0.0
  0
LINE
  5
91
330
8D
100
AcDbEntity
  8
$DDT_AUDIT_GENERATED_(8F)
  6
Continuous
 62
     7
100
AcDbLine
 10
60.536087812
 20
327.5929653572
 30
0.0
 11
60.536087812
 21
327.9191075133
 31
0.0
  0
ARC
  5
92
330
8D
100
AcDbEntity
  8
$DDT_AUDIT_GENERATED_(8F)
  6
Continuous
 62
     7
100
AcDbCircle
 10
48.7002169693
 20
313.6567461624
 30
0.0
 40
18.60674616238094
100
AcDbArc
 50
230.7863549891
 51
309.2095532524
  0
LINE
  5
93
330
8D
100
AcDbEntity
  8
$DDT_AUDIT_GENERATED_(8F)
  6
Continuous
 62
     7
100
AcDbLine
 10
36.8632225169
 20
299.395301577
 30
0.0
 11
36.8632225169
 21
299.7202128306
 31
0.0
  0
SPLINE
  5
94
330
8D
100
AcDbEntity
  8
$DDT_AUDIT_GENERATED_(8F)
  6
Continuous
 62
     7
100
AcDbSpline
210
0.0
220
0.0
230
1.0
 70
     8
 71
     3
 72
     8
 73
     4
 74
     0
 42
0.0000000546306244
 43
0.0000000001
 40
0.0
 40
0.0
 40
0.0
 40
0.0
 40
1.0
 40
1.0
 40
1.0
 40
1.0
 10
60.53619291571303
 20
299.3944705604773
 30
0.0
 10
60.53619291571303
 20
299.3348922727357
 30
0.0
 10
60.50879342040905
 20
299.2771747317979
 30
0.0
 10
60.46262980246549
 20
299.239511784945
 30
0.0
  0
SPLINE
  5
95
330
8D
100
AcDbEntity
  8
$DDT_AUDIT_GENERATED_(8F)
  6
Continuous
 62
     7
100
AcDbSpline
210
0.0
220
0.0
230
1.0
 70
     8
 71
     3
 72
     8
 73
     4
 74
     0
 42
0.0000000546352985
 43
0.0000000001
 40
0.0
 40
0.0
 40
0.0
 40
0.0
 40
1.0
 40
1.0
 40
1.0
 40
1.0
 10
36.93677456428661
 20
299.2403518304149
 30
0.0
 10
36.89061738594732
 20
299.2780150141812
 30
0.0
 10
36.8632225168648
 20
299.3357281077558
 30
0.0
 10
36.86322251686479
 20
299.3953015770349
 30
0.0
  0
LINE
  5
96
330
8D
100
AcDbEntity
  8
$DDT_AUDIT_GENERATED_(8F)
  6
Continuous
 62
     7
100
AcDbLine
 10
36.8630720445
 20
327.9180679645
 30
0.0
 11
36.8630720445
 21
327.5947802097
 31
0.0
  0
SPLINE
  5
97
330
8D
100
AcDbEntity
  8
$DDT_AUDIT_GENERATED_(8F)
  6
Continuous
 62
     7
100
AcDbSpline
210
0.0
220
0.0
230
1.0
 70
     8
 71
     3
 72
     8
 73
     4
 74
     0
 42
0.0000000546359882
 43
0.0000000001
 40
0.0
 40
0.0
 40
0.0
 40
0.0
 40
1.0
 40
1.0
 40
1.0
 40
1.0
 10
36.86307204450036
 20
327.9180679644728
 30
0.0
 10
36.86307204450035
 20
327.9776407265401
 30
0.0
 10
36.89046620758191
 20
328.0353531399609
 30
0.0
 10
36.93662245707579
 20
328.0730163770649
 30
0.0
  0
ARC
  5
98
330
8D
100
AcDbEntity
  8
$DDT_AUDIT_GENERATED_(8F)
  6
Continuous
 62
     7
100
AcDbCircle
 10
48.7002169693
 20
313.6567461624
 30
0.0
 40
18.60674616238094
100
AcDbArc
 50
50.7908689789
 51
54.140659216
  0
ARC
  5
99
330
8D
100
AcDbEntity
  8
$DDT_AUDIT_GENERATED_(8F)
  6
Continuous
 62
     7
100
AcDbCircle
 10
48.7002169693
 20
313.6567461624
 30
0.0
 40
18.60674616238094
100
AcDbArc
 50
125.8609895339
 51
129.2142495407
  0
SPLINE
  5
9A
330
8D
100
AcDbEntity
  8
$DDT_AUDIT_GENERATED_(8F)
  6
Continuous
 62
     7
100
AcDbSpline
210
0.0
220
0.0
230
1.0
 70
     8
 71
     3
 72
     8
 73
     4
 74
     0
 42
0.0000000546301431
 43
0.0000000001
 40
0.0
 40
0.0
 40
0.0
 40
0.0
 40
1.0
 40
1.0
 40
1.0
 40
1.0
 10
60.46252355685408
 20
328.0740672204738
 30
0.0
 10
60.50868781765574
 20
328.0364043157809
 30
0.0
 10
60.5360878120281
 20
327.9786862937626
 30
0.0
 10
60.53608781202811
 20
327.9191075132871
 30
0.0
  0
LINE
  5
9C
330
8D
100
AcDbEntity
  8
$DDT_AUDIT_GENERATED_(9B)
  6
Continuous
 62
     7
100
AcDbLine
 10
59.6
 20
328.0256129188
 30
0.0
 11
59.6
 21
608.2100602745
 31
0.0
  0
LINE
  5
9D
330
8D
100
AcDbEntity
  8
$DDT_AUDIT_GENERATED_(9B)
  6
Continuous
 62
     7
100
AcDbLine
 10
59.6
 20
639.3071922767
 30
0.0
 11
59.6
 21
919.4908261098
 31
0.0
  0
LINE
  5
9E
330
8D
100
AcDbEntity
  8
$DDT_AUDIT_GENERATED_(9B)
  6
Continuous
 62
     7
100
AcDbLine
 10
37.8
 20
919.4919535562
 30
0.0
 11
37.8
 21
641.3062913838
 31
0.0
  0
LINE
  5
9F
330
8D
100
AcDbEntity
  8
$DDT_AUDIT_GENERATED_(9B)
  6
Continuous
 62
     7
100
AcDbLine
 10
37.8
 20
606.2111453047
 30
0.0
 11
37.8
 21
328.0267403652
 31
0.0
  0
ARC
  5
A1
330
8D
100
AcDbEntity
  8
$DDT_AUDIT_GENERATED_(A0)
  6
Continuous
 62
     7
100
AcDbCircle
 10
48.7
 20
933.8608203126
 30
0.0
 40
18.6047677822355
100
AcDbArc
 50
311.1963828662
 51
48.8036171338
  0
ARC
  5
A2
330
8D
100
AcDbEntity
  8
$DDT_AUDIT_GENERATED_(A0)
  6
Continuous
 62
     7
100
AcDbCircle
 10
48.7
 20
933.3866091423
 30
0.0
 40
18.44544826570159
100
AcDbArc
 50
50.5178066839
 51
129.4819934995
  0
ARC
  5
A3
330
8D
100
AcDbEntity
  8
$DDT_AUDIT_GENERATED_(A0)
  6
Continuous
 62
     7
100
AcDbCircle
 10
48.7
 20
934.335031483
 30
0.0
 40
18.44544826570134
100
AcDbArc
 50
230.5178066839
 51
309.4819934995
  0
ARC
  5
A4
330
8D
100
AcDbEntity
  8
$DDT_AUDIT_GENERATED_(A0)
  6
Continuous
 62
     7
100
AcDbCircle
 10
60.8221595147
 20
947.7096155482
 30
0.0
 40
0.1999999999999734
100
AcDbArc
 50
48.8036171338
 51
114.4018085671
  0
LINE
  5
A5
330
8D
100
AcDbEntity
  8
$DDT_AUDIT_GENERATED_(A0)
  6
Continuous
 62
     7
100
AcDbLine
 10
60.7395078841
 20
947.8896949279
 30
0.0
 11
60.3179624292
 21
947.6976859929
 31
0.0
  0
ARC
  5
A6
330
8D
100
AcDbEntity
  8
$DDT_AUDIT_GENERATED_(A0)
  6
Continuous
 62
     7
100
AcDbCircle
 10
60.8221595147
 20
920.0120250771
 30
0.0
 40
0.199999999999995
100
AcDbArc
 50
245.5981914332
 51
311.1963828662
  0
ARC
  5
A7
330
8D
100
AcDbEntity
  8
$DDT_AUDIT_GENERATED_(A0)
  6
Continuous
 62
     7
100
AcDbCircle
 10
23.3069625876
 20
917.836516123
 30
0.0
 40
32.88665684300874
100
AcDbArc
 50
65.2350951097
 51
66.0432522843
  0
ARC
  5
A8
330
8D
100
AcDbEntity
  8
$DDT_AUDIT_GENERATED_(A0)
  6
Continuous
 62
     7
100
AcDbCircle
 10
74.0930374102
 20
949.8851244971
 30
0.0
 40
32.88665683735248
100
AcDbArc
 50
245.2350951095
 51
246.0432522844
  0
ARC
  5
A9
330
8D
100
AcDbEntity
  8
$DDT_AUDIT_GENERATED_(A0)
  6
Continuous
 62
     7
100
AcDbCircle
 10
36.5778404853
 20
947.7096155482
 30
0.0
 40
0.2000000000000108
100
AcDbArc
 50
65.5981914332
 51
131.1963828662
  0
ARC
  5
AA
330
8D
100
AcDbEntity
  8
$DDT_AUDIT_GENERATED_(A0)
  6
Continuous
 62
     7
100
AcDbCircle
 10
48.7
 20
933.8608203126
 30
0.0
 40
18.60477874836239
100
AcDbArc
 50
131.1963828662
 51
180.0
  0
ARC
  5
AB
330
8D
100
AcDbEntity
  8
$DDT_AUDIT_GENERATED_(A0)
  6
Continuous
 62
     7
100
AcDbCircle
 10
48.7
 20
933.8608203126
 30
0.0
 40
18.60477874836239
100
AcDbArc
 50
180.0
 51
228.8036171338
  0
LINE
  5
AC
330
8D
100
AcDbEntity
  8
$DDT_AUDIT_GENERATED_(A0)
  6
Continuous
 62
     7
100
AcDbLine
 10
36.6604921159
 20
919.8319456973
 30
0.0
 11
37.0820375708
 21
920.0239546323
 31
0.0
  0
ARC
  5
AD
330
8D
100
AcDbEntity
  8
$DDT_AUDIT_GENERATED_(A0)
  6
Continuous
 62
     7
100
AcDbCircle
 10
36.5778404853
 20
920.0120250771
 30
0.0
 40
0.1999999999999768
100
AcDbArc
 50
228.8036171338
 51
294.401808567
  0
ARC
  5
AE
330
8D
100
AcDbEntity
  8
$DDT_AUDIT_GENERATED_(A0)
  6
Continuous
 62
     7
100
AcDbCircle
 10
48.7
 20
313.6567461624
 30
0.0
 40
18.60476778223549
100
AcDbArc
 50
131.1963828662
 51
228.8036171338
  0
ARC
  5
AF
330
8D
100
AcDbEntity
  8
$DDT_AUDIT_GENERATED_(A0)
  6
Continuous
 62
     7
100
AcDbCircle
 10
48.7
 20
314.1309573327
 30
0.0
 40
18.44544826570145
100
AcDbArc
 50
230.5178066839
 51
309.4819934995
  0
ARC
  5
B0
330
8D
100
AcDbEntity
  8
$DDT_AUDIT_GENERATED_(A0)
  6
Continuous
 62
     7
100
AcDbCircle
 10
48.7
 20
313.182534992
 30
0.0
 40
18.44544826570142
100
AcDbArc
 50
50.5178066839
 51
129.4819934995
  0
ARC
  5
B1
330
8D
100
AcDbEntity
  8
$DDT_AUDIT_GENERATED_(A0)
  6
Continuous
 62
     7
100
AcDbCircle
 10
36.5778404853
 20
299.8079509268
 30
0.0
 40
0.1999999999999956
100
AcDbArc
 50
228.8036171338
 51
294.4018085671
  0
LINE
  5
B2
330
8D
100
AcDbEntity
  8
$DDT_AUDIT_GENERATED_(A0)
  6
Continuous
 62
     7
100
AcDbLine
 10
36.6604921159
 20
299.6278715471
 30
0.0
 11
37.0820375708
 21
299.8198804821
 31
0.0
  0
ARC
  5
B3
330
8D
100
AcDbEntity
  8
$DDT_AUDIT_GENERATED_(A0)
  6
Continuous
 62
     7
100
AcDbCircle
 10
36.5778404853
 20
327.5055413979
 30
0.0
 40
0.199999999999995
100
AcDbArc
 50
65.5981914332
 51
131.1963828662
  0
ARC
  5
B4
330
8D
100
AcDbEntity
  8
$DDT_AUDIT_GENERATED_(A0)
  6
Continuous
 62
     7
100
AcDbCircle
 10
74.0930374118
 20
329.6810503507
 30
0.0
 40
32.88665684155144
100
AcDbArc
 50
245.2350951097
 51
246.0432522843
  0
ARC
  5
B5
330
8D
100
AcDbEntity
  8
$DDT_AUDIT_GENERATED_(A0)
  6
Continuous
 62
     7
100
AcDbCircle
 10
23.3069625885
 20
297.632441975
 30
0.0
 40
32.88665684051245
100
AcDbArc
 50
65.2350951096
 51
66.0432522844
  0
ARC
  5
B6
330
8D
100
AcDbEntity
  8
$DDT_AUDIT_GENERATED_(A0)
  6
Continuous
 62
     7
100
AcDbCircle
 10
60.8221595147
 20
299.8079509268
 30
0.0
 40
0.1999999999999919
100
AcDbArc
 50
245.5981914332
 51
311.1963828662
  0
ARC
  5
B7
330
8D
100
AcDbEntity
  8
$DDT_AUDIT_GENERATED_(A0)
  6
Continuous
 62
     7
100
AcDbCircle
 10
48.7
 20
313.6567461624
 30
0.0
 40
18.60477874836239
100
AcDbArc
 50
311.1963828662
 51
0.0
  0
ARC
  5
B8
330
8D
100
AcDbEntity
  8
$DDT_AUDIT_GENERATED_(A0)
  6
Continuous
 62
     7
100
AcDbCircle
 10
48.7
 20
313.6567461624
 30
0.0
 40
18.60477874836239
100
AcDbArc
 50
0.0
 51
48.8036171338
  0
LINE
  5
B9
330
8D
100
AcDbEntity
  8
$DDT_AUDIT_GENERATED_(A0)
  6
Continuous
 62
     7
100
AcDbLine
 10
60.7395078841
 20
327.6856207777
 30
0.0
 11
60.3179624292
 21
327.4936118427
 31
0.0
  0
ARC
  5
BA
330
8D
100
AcDbEntity
  8
$DDT_AUDIT_GENERATED_(A0)
  6
Continuous
 62
     7
100
AcDbCircle
 10
60.8221595147
 20
327.5055413979
 30
0.0
 40
0.1999999999999924
100
AcDbArc
 50
48.8036171338
 51
114.4018085671
  0
ARC
  5
BC
330
8D
100
AcDbEntity
  8
$DDT_AUDIT_GENERATED_(BB)
  6
Continuous
 62
     7
100
AcDbCircle
 10
45.1960349938
 20
658.1314603631
 30
0.0
 40
23.7200701503296
100
AcDbArc
 50
283.5589981996
 51
308.2698751444
  0
ARC
  5
BD
330
8D
100
AcDbEntity
  8
$DDT_AUDIT_GENERATED_(BB)
  6
Continuous
 62
     7
100
AcDbCircle
 10
45.1960349938
 20
589.3861061119
 30
0.0
 40
23.7200701503296
100
AcDbArc
 50
51.7301248556
 51
76.4410018004
  0
LINE
  5
BF
330
8D
100
AcDbEntity
  8
$DDT_AUDIT_GENERATED_(BE)
  6
Continuous
 62
     7
100
AcDbLine
 10
6.35
 20
641.0587832375
 30
0.0
 11
6.35
 21
606.4587832375
 31
0.0
  0
LINE
  5
C0
330
8D
100
AcDbEntity
  8
$DDT_AUDIT_GENERATED_(BE)
  6
Continuous
 62
     7
100
AcDbLine
 10
31.35
 20
605.9587832375
 30
0.0
 11
31.35
 21
641.5587832375
 31
0.0
  0
LINE
  5
C1
330
8D
100
AcDbEntity
  8
$DDT_AUDIT_GENERATED_(BE)
  6
Continuous
 62
     7
100
AcDbLine
 10
11.3763035205
 20
641.7587832375
 30
0.0
 11
7.05
 21
641.7587832375
 31
0.0
  0
LINE
  5
C2
330
8D
100
AcDbEntity
  8
$DDT_AUDIT_GENERATED_(BE)
  6
Continuous
 62
     7
100
AcDbLine
 10
31.15
 20
641.7587832375
 30
0.0
 11
26.3198225477
 21
641.7587832375
 31
0.0
  0
LINE
  5
C3
330
8D
100
AcDbEntity
  8
$DDT_AUDIT_GENERATED_(BE)
  6
Continuous
 62
     7
100
AcDbLine
 10
7.05
 20
605.7587832375
 30
0.0
 11
31.15
 21
605.7587832375
 31
0.0
  0
LINE
  5
C4
330
8D
100
AcDbEntity
  8
$DDT_AUDIT_GENERATED_(BE)
  6
Continuous
 62
     7
100
AcDbLine
 10
25.8457315276
 20
642.2479017284
 30
0.0
 11
25.8124750164
 21
646.0587204588
 31
0.0
  0
LINE
  5
C5
330
8D
100
AcDbEntity
  8
$DDT_AUDIT_GENERATED_(BE)
  6
Continuous
 62
     7
100
AcDbLine
 10
11.8875349886
 20
646.0598669086
 30
0.0
 11
11.8542330525
 21
642.2438430112
 31
0.0
  0
LINE
  5
C6
330
8D
100
AcDbEntity
  8
$DDT_AUDIT_GENERATED_(BE)
  6
Continuous
 62
     7
100
AcDbLine
 10
25.0908414019
 20
646.7587832375
 30
0.0
 11
12.610168136
 21
646.7587832375
 31
0.0
  0
ARC
  5
C7
330
8D
100
AcDbEntity
  8
$DDT_AUDIT_GENERATED_(BE)
  6
Continuous
 62
     7
100
AcDbCircle
 10
7.05
 20
606.4587832375
 30
0.0
 40
0.6999999999999923
100
AcDbArc
 50
180.0
 51
270.0
  0
ARC
  5
C8
330
8D
100
AcDbEntity
  8
$DDT_AUDIT_GENERATED_(BE)
  6
Continuous
 62
     7
100
AcDbCircle
 10
7.05
 20
641.0587832375
 30
0.0
 40
0.7000000000000339
100
AcDbArc
 50
90.0
 51
180.0
  0
ARC
  5
C9
330
8D
100
AcDbEntity
  8
$DDT_AUDIT_GENERATED_(BE)
  6
Continuous
 62
     7
100
AcDbCircle
 10
12.5832639709
 20
646.0708400005
 30
0.0
 40
0.6876669449518058
100
AcDbArc
 50
87.7283684731
 51
180.9460926329
  0
ARC
  5
CA
330
8D
100
AcDbEntity
  8
$DDT_AUDIT_GENERATED_(BE)
  6
Continuous
 62
     7
100
AcDbCircle
 10
25.1152520302
 20
646.0632049133
 30
0.0
 40
0.6942178095821515
100
AcDbArc
 50
359.8672637534
 51
92.0106055617
  0
SPLINE
  5
CB
330
8D
100
AcDbEntity
  8
$DDT_AUDIT_GENERATED_(BE)
  6
Continuous
 62
     7
100
AcDbSpline
210
0.0
220
0.0
230
1.0
 70
     8
 71
     3
 72
    12
 73
     8
 74
     0
 42
0.0000000131239422
 43
0.0000000001
 40
0.0
 40
0.0
 40
0.0
 40
0.0
 40
0.2109535677423834
 40
0.4435226585220747
 40
0.6827450241199524
 40
0.9489253115348488
 40
1.0
 40
1.0
 40
1.0
 40
1.0
 10
26.32232840446252
 20
641.7604065759874
 30
0.0
 10
26.2650207812865
 20
641.7671468196316
 30
0.0
 10
26.16219023084631
 20
641.7817269749136
 30
0.0
 10
26.00945928274367
 20
641.8744171307609
 30
0.0
 10
25.8959300196416
 20
642.0175951247844
 30
0.0
 10
25.84336465273498
 20
642.1584731228602
 30
0.0
 10
25.84900437544505
 20
642.2329423003043
 30
0.0
 10
25.85013983357785
 20
642.2468700460622
 30
0.0
  0
ARC
  5
CC
330
8D
100
AcDbEntity
  8
$DDT_AUDIT_GENERATED_(BE)
  6
Continuous
 62
     7
100
AcDbCircle
 10
11.3562366609
 20
642.25585163
 30
0.0
 40
0.4966375073289265
100
AcDbArc
 50
272.3758374317
 51
359.149649931
  0
ARC
  5
CD
330
8D
100
AcDbEntity
  8
$DDT_AUDIT_GENERATED_(BE)
  6
Continuous
 62
     7
100
AcDbCircle
 10
31.15
 20
605.9587832375
 30
0.0
 40
0.2000000000000335
100
AcDbArc
 50
270.0
 51
0.0
  0
ARC
  5
CE
330
8D
100
AcDbEntity
  8
$DDT_AUDIT_GENERATED_(BE)
  6
Continuous
 62
     7
100
AcDbCircle
 10
31.15
 20
641.5587832375
 30
0.0
 40
0.1999999999999988
100
AcDbArc
 50
0.0
 51
90.0
  0
LINE
  5
D0
330
8D
100
AcDbEntity
  8
$DDT_AUDIT_GENERATED_(CF)
  6
Continuous
 62
     7
100
AcDbLine
 10
64.7
 20
606.0587832375
 30
0.0
 11
64.7
 21
641.4587832375
 31
0.0
  0
LINE
  5
D1
330
8D
100
AcDbEntity
  8
$DDT_AUDIT_GENERATED_(CF)
  6
Continuous
 62
     7
100
AcDbLine
 10
32.7
 20
641.4587832375
 30
0.0
 11
32.7
 21
606.0587832375
 31
0.0
  0
ARC
  5
D2
330
8D
100
AcDbEntity
  8
$DDT_AUDIT_GENERATED_(CF)
  6
Continuous
 62
     7
100
AcDbCircle
 10
48.6999999087
 20
655.4480355161
 30
0.0
 40
17.91083834044106
100
AcDbArc
 50
229.8447534459
 51
310.1552502091
  0
ARC
  5
D3
330
8D
100
AcDbEntity
  8
$DDT_AUDIT_GENERATED_(CF)
  6
Continuous
 62
     7
100
AcDbCircle
 10
48.6999999087
 20
592.0695309589
 30
0.0
 40
17.91083834044102
100
AcDbArc
 50
49.8447497909
 51
130.148509175
  0
LINE
  5
D4
330
8D
100
AcDbEntity
  8
$DDT_AUDIT_GENERATED_(CF)
  6
Continuous
 62
     7
100
AcDbLine
 10
60.25
 20
605.7587832375
 30
0.0
 11
64.4
 21
605.7587832375
 31
0.0
  0
LINE
  5
D5
330
8D
100
AcDbEntity
  8
$DDT_AUDIT_GENERATED_(CF)
  6
Continuous
 62
     7
100
AcDbLine
 10
33.0
 20
605.7587832375
 30
0.0
 11
37.1599362536
 21
605.7587832375
 31
0.0
  0
LINE
  5
D6
330
8D
100
AcDbEntity
  8
$DDT_AUDIT_GENERATED_(CF)
  6
Continuous
 62
     7
100
AcDbLine
 10
37.1599362536
 20
641.7587832375
 30
0.0
 11
33.0
 21
641.7587832375
 31
0.0
  0
LINE
  5
D7
330
8D
100
AcDbEntity
  8
$DDT_AUDIT_GENERATED_(CF)
  6
Continuous
 62
     7
100
AcDbLine
 10
64.4
 20
641.7587832375
 30
0.0
 11
60.25
 21
641.7587832375
 31
0.0
  0
ARC
  5
D8
330
8D
100
AcDbEntity
  8
$DDT_AUDIT_GENERATED_(CF)
  6
Continuous
 62
     7
100
AcDbCircle
 10
64.4
 20
606.0587832375
 30
0.0
 40
0.3000000000000225
100
AcDbArc
 50
270.0
 51
0.0
  0
ARC
  5
D9
330
8D
100
AcDbEntity
  8
$DDT_AUDIT_GENERATED_(CF)
  6
Continuous
 62
     7
100
AcDbCircle
 10
64.4
 20
641.4587832375
 30
0.0
 40
0.3000000000000017
100
AcDbArc
 50
0.0
 51
90.0
  0
ARC
  5
DA
330
8D
100
AcDbEntity
  8
$DDT_AUDIT_GENERATED_(CF)
  6
Continuous
 62
     7
100
AcDbCircle
 10
33.0
 20
606.0587832375
 30
0.0
 40
0.3000000000000017
100
AcDbArc
 50
180.0
 51
270.0
  0
ARC
  5
DB
330
8D
100
AcDbEntity
  8
$DDT_AUDIT_GENERATED_(CF)
  6
Continuous
 62
     7
100
AcDbCircle
 10
33.0
 20
641.4587832375
 30
0.0
 40
0.3000000000000225
100
AcDbArc
 50
90.0
 51
180.0
  0
LINE
  5
DC
330
8D
100
AcDbEntity
  8
$DDT_AUDIT_GENERATED_(CF)
  6
Continuous
 62
     7
100
AcDbLine
 10
64.9
 20
607.0587832375
 30
0.0
 11
65.55
 21
607.0587832375
 31
0.0
  0
LINE
  5
DD
330
8D
100
AcDbEntity
  8
$DDT_AUDIT_GENERATED_(CF)
  6
Continuous
 62
     7
100
AcDbLine
 10
65.55
 20
640.4587832375
 30
0.0
 11
64.9
 21
640.4587832375
 31
0.0
  0
LINE
  5
DE
330
8D
100
AcDbEntity
  8
$DDT_AUDIT_GENERATED_(CF)
  6
Continuous
 62
     7
100
AcDbLine
 10
31.35
 20
607.0587832375
 30
0.0
 11
32.5
 21
607.0587832375
 31
0.0
  0
LINE
  5
DF
330
8D
100
AcDbEntity
  8
$DDT_AUDIT_GENERATED_(CF)
  6
Continuous
 62
     7
100
AcDbLine
 10
32.5
 20
640.4587832375
 30
0.0
 11
31.35
 21
640.4587832375
 31
0.0
  0
ARC
  5
E0
330
8D
100
AcDbEntity
  8
$DDT_AUDIT_GENERATED_(CF)
  6
Continuous
 62
     7
100
AcDbCircle
 10
64.9
 20
606.8587832375
 30
0.0
 40
0.1999999999999988
100
AcDbArc
 50
90.0
 51
180.0
  0
ARC
  5
E1
330
8D
100
AcDbEntity
  8
$DDT_AUDIT_GENERATED_(CF)
  6
Continuous
 62
     7
100
AcDbCircle
 10
64.9
 20
640.6587832375
 30
0.0
 40
0.2000000000000335
100
AcDbArc
 50
180.0
 51
270.0
  0
ARC
  5
E2
330
8D
100
AcDbEntity
  8
$DDT_AUDIT_GENERATED_(CF)
  6
Continuous
 62
     7
100
AcDbCircle
 10
32.5
 20
606.8587832375
 30
0.0
 40
0.2000000000000335
100
AcDbArc
 50
0.0
 51
90.0
  0
ARC
  5
E3
330
8D
100
AcDbEntity
  8
$DDT_AUDIT_GENERATED_(CF)
  6
Continuous
 62
     7
100
AcDbCircle
 10
32.5
 20
640.6587832375
 30
0.0
 40
0.1999999999999988
100
AcDbArc
 50
270.0
 51
0.0
  0
LINE
  5
E5
330
8D
100
AcDbEntity
  8
$DDT_AUDIT_GENERATED_(E4)
  6
Continuous
 62
     7
100
AcDbLine
 10
65.55
 20
641.5587832375
 30
0.0
 11
65.55
 21
605.9587832375
 31
0.0
  0
SPLINE
  5
E6
330
8D
100
AcDbEntity
  8
$DDT_AUDIT_GENERATED_(E4)
  6
Continuous
 62
     7
100
AcDbSpline
210
0.0
220
0.0
230
1.0
 70
     8
 71
     3
 72
     8
 73
     4
 74
     0
 42
0.0000000090849631
 43
0.0000000001
 40
0.5004557924415198
 40
0.5004557924415198
 40
0.5004557924415198
 40
0.5004557924415198
 40
0.5013642887512466
 40
0.5013642887512466
 40
0.5013642887512466
 40
0.5013642887512466
 10
85.99668874485208
 20
605.7587839339367
 30
0.0
 10
85.99668963317075
 20
605.758784828618
 30
0.0
 10
85.9967261109213
 20
605.7588121159887
 30
0.0
 10
85.9967981234678
 20
605.75886573437
 30
0.0
  0
LINE
  5
E7
330
8D
100
AcDbEntity
  8
$DDT_AUDIT_GENERATED_(E4)
  6
Continuous
 62
     7
100
AcDbLine
 10
112.05
 20
638.1201898539
 30
0.0
 11
112.05
 21
609.3973766212
 31
0.0
  0
LINE
  5
E8
330
8D
100
AcDbEntity
  8
$DDT_AUDIT_GENERATED_(E4)
  6
Continuous
 62
     7
100
AcDbLine
 10
65.75
 20
605.7587832375
 30
0.0
 11
85.9979191322
 21
605.7587832375
 31
0.0
  0
LINE
  5
E9
330
8D
100
AcDbEntity
  8
$DDT_AUDIT_GENERATED_(E4)
  6
Continuous
 62
     7
100
AcDbLine
 10
84.1699038124
 20
641.7587832375
 30
0.0
 11
65.75
 21
641.7587832375
 31
0.0
  0
ARC
  5
EA
330
8D
100
AcDbEntity
  8
$DDT_AUDIT_GENERATED_(E4)
  6
Continuous
 62
     7
100
AcDbCircle
 10
65.75
 20
605.9587832375
 30
0.0
 40
0.2000000000000023
100
AcDbArc
 50
180.0
 51
270.0
  0
ARC
  5
EB
330
8D
100
AcDbEntity
  8
$DDT_AUDIT_GENERATED_(E4)
  6
Continuous
 62
     7
100
AcDbCircle
 10
65.75
 20
641.5587832375
 30
0.0
 40
0.2000000000000335
100
AcDbArc
 50
90.0
 51
180.0
  0
SPLINE
  5
EC
330
8D
100
AcDbEntity
  8
$DDT_AUDIT_GENERATED_(E4)
  6
Continuous
 62
     7
100
AcDbSpline
210
0.0
220
0.0
230
1.0
 70
     8
 71
     3
 72
    49
 73
    45
 74
     0
 42
0.0000000003846674
 43
0.0000000001
 40
0.0
 40
0.0
 40
0.0
 40
0.0
 40
0.0088462799794271
 40
0.0410688232751364
 40
0.0735464009536855
 40
0.1066852941430427
 40
0.139277686249261
 40
0.1708138964682689
 40
0.2011971991242763
 40
0.2265093684223891
 40
0.2533898280360746
 40
0.2797295397652043
 40
0.3053686356431476
 40
0.3301530536411224
 40
0.3540392842956356
 40
0.3771735310698919
 40
0.4008282997754787
 40
0.425757447180534
 40
0.4515984182616732
 40
0.4785451707461959
 40
0.5067364792468055
 40
0.5362490318431758
 40
0.5670710386389992
 40
0.5990702011437049
 40
0.6319653672407143
 40
0.6653238506730516
 40
0.6948786925351433
 40
0.7262254018986206
 40
0.7574932411227422
 40
0.7884014163930254
 40
0.8187588790242107
 40
0.8484352375027577
 40
0.8773644439611001
 40
0.905542481183807
 40
0.933021672288649
 40
0.9599071795163209
 40
0.986399411412622
 40
0.989800061571027
 40
0.9905857980439552
 40
0.9910281286340809
 40
0.9915154710461145
 40
0.9927461136564721
 40
0.9956230121120883
 40
1.0
 40
1.0
 40
1.0
 40
1.0
 10
107.7032527697541
 20
638.8719550626872
 30
0.0
 10
107.6338798701275
 20
638.8270647797876
 30
0.0
 10
107.3580393163096
 20
638.6487937523275
 30
0.0
 10
106.7697355366283
 20
638.2870069838755
 30
0.0
 10
105.9816100107508
 20
637.8207145769346
 30
0.0
 10
105.1350663838106
 20
637.3530105058879
 30
0.0
 10
104.2536674672824
 20
636.9079443380052
 30
0.0
 10
103.3528283864839
 20
636.5021794861299
 30
0.0
 10
102.4834639496751
 20
636.1611046736026
 30
0.0
 10
101.6290491731258
 20
635.8779479976541
 30
0.0
 10
100.7877699204032
 20
635.656385031179
 30
0.0
 10
99.92024797808358
 20
635.4859813732546
 30
0.0
 10
99.05921940096432
 20
635.3759059907956
 30
0.0
 10
98.216221832887
 20
635.3275312225848
 30
0.0
 10
97.39946137497462
 20
635.3410922366389
 30
0.0
 10
96.60164904128399
 20
635.416172691041
 30
0.0
 10
95.80354451398931
 20
635.5427819339981
 30
0.0
 10
94.99297671719279
 20
635.7244451496742
 30
0.0
 10
94.17016141832902
 20
635.9611125108802
 30
0.0
 10
93.34149536437003
 20
636.2503383727017
 30
0.0
 10
92.50849726837355
 20
636.5900333989298
 30
0.0
 10
91.67459282668983
 20
636.9765224918241
 30
0.0
 10
90.84545428468105
 20
637.4036925675989
 30
0.0
 10
90.02927239403873
 20
637.8622237700727
 30
0.0
 10
89.23698039336158
 20
638.3389130799193
 30
0.0
 10
88.50871598505958
 20
638.7996111963246
 30
0.0
 10
87.83608317595092
 20
639.2376525918723
 30
0.0
 10
87.22653980559416
 20
639.6467011586964
 30
0.0
 10
86.65942380520616
 20
640.037595322747
 30
0.0
 10
86.15221155504453
 20
640.3958867131386
 30
0.0
 10
85.70945329272217
 20
640.7156396832736
 30
0.0
 10
85.33381758876298
 20
640.9924122068142
 30
0.0
 10
85.02635947578193
 20
641.2231027766209
 30
0.0
 10
84.78700743691559
 20
641.4056912445322
 30
0.0
 10
84.61448000843309
 20
641.5392629243224
 30
0.0
 10
84.50815932041914
 20
641.6228349511073
 30
0.0
 10
84.4757763521966
 20
641.6482726285659
 30
0.0
 10
84.47138917409566
 20
641.6519615329386
 30
0.0
 10
84.46201832361852
 20
641.6591087000592
 30
0.0
 10
84.45367728646315
 20
641.6652338992436
 30
0.0
 10
84.43659833812467
 20
641.6772063693517
 30
0.0
 10
84.39180176118838
 20
641.7049815563252
 30
0.0
 10
84.30219466670626
 20
641.745461727786
 30
0.0
 10
84.2250662504743
 20
641.7524847463872
 30
0.0
 10
84.17051836443406
 20
641.7563923023037
 30
0.0
  0
LINE
  5
ED
330
8D
100
AcDbEntity
  8
$DDT_AUDIT_GENERATED_(E4)
  6
Continuous
 62
     7
100
AcDbLine
 10
111.05
 20
638.9557216942
 30
0.0
 11
107.9775546715
 21
638.9557216942
 31
0.0
  0
SPLINE
  5
EE
330
8D
100
AcDbEntity
  8
$DDT_AUDIT_GENERATED_(E4)
  6
Continuous
 62
     7
100
AcDbSpline
210
0.0
220
0.0
230
1.0
 70
     8
 71
     3
 72
    14
 73
    10
 74
     0
 42
0.000000006838879
 43
0.0000000001
 40
0.0
 40
0.0
 40
0.0
 40
0.0
 40
0.027182556903894
 40
0.1991628674378016
 40
0.3661101878748936
 40
0.531325560634671
 40
0.7036220160300628
 40
0.8818138219926285
 40
1.0
 40
1.0
 40
1.0
 40
1.0
 10
112.0455120660759
 20
638.1214221888271
 30
0.0
 10
112.0470674614907
 20
638.1352258873713
 30
0.0
 10
112.0565388296667
 20
638.2222147592834
 30
0.0
 10
112.0067563093198
 20
638.397674010607
 30
0.0
 10
111.8904081213298
 20
638.6013090872724
 30
0.0
 10
111.7138738538544
 20
638.7660899428103
 30
0.0
 10
111.4946962441741
 20
638.883200170419
 30
0.0
 10
111.2597442879144
 20
638.9490011118633
 30
0.0
 10
111.1165483635028
 20
638.9496382168035
 30
0.0
 10
111.0498122948662
 20
638.9491574030199
 30
0.0
  0
SPLINE
  5
EF
330
8D
100
AcDbEntity
  8
$DDT_AUDIT_GENERATED_(E4)
  6
Continuous
 62
     7
100
AcDbSpline
210
0.0
220
0.0
230
1.0
 70
     8
 71
     3
 72
    13
 73
     9
 74
     0
 42
0.0000000068411343
 43
0.0000000001
 40
0.0
 40
0.0
 40
0.0
 40
0.0
 40
0.1529559737241816
 40
0.3287838672146954
 40
0.5134813492022128
 40
0.6806183615593973
 40
0.8433959111267334
 40
1.0
 40
1.0
 40
1.0
 40
1.0
 10
111.049958950976
 20
608.564796151037
 30
0.0
 10
111.1362756244745
 20
608.5674579446946
 30
0.0
 10
111.2946312426188
 20
608.5747352816155
 30
0.0
 10
111.5461185528962
 20
608.6547627580151
 30
0.0
 10
111.7629165504615
 20
608.7875074311638
 30
0.0
 10
111.926727371274
 20
608.9665827596505
 30
0.0
 10
112.031505563792
 20
609.1781731767527
 30
0.0
 10
112.041931193639
 20
609.3174270239274
 30
0.0
 10
112.0462879428355
 20
609.3975981728357
 30
0.0
  0
LINE
  5
F0
330
8D
100
AcDbEntity
  8
$DDT_AUDIT_GENERATED_(E4)
  6
Continuous
 62
     7
100
AcDbLine
 10
105.7047518663
 20
608.5618447808
 30
0.0
 11
111.05
 21
608.5618447808
 31
0.0
  0
SPLINE
  5
F1
330
8D
100
AcDbEntity
  8
$DDT_AUDIT_GENERATED_(E4)
  6
Continuous
 62
     7
100
AcDbSpline
210
0.0
220
0.0
230
1.0
 70
     8
 71
     3
 72
    46
 73
    42
 74
     0
 42
0.0000000004737288
 43
0.0000000001
 40
0.0
 40
0.0
 40
0.0
 40
0.0
 40
0.0010415646370357
 40
0.0044449866790905
 40
0.0071142853905507
 40
0.008832561228583
 40
0.0101072005008881
 40
0.0116832827908986
 40
0.0144884242914984
 40
0.0211097043370761
 40
0.0351042390933181
 40
0.065552774615735
 40
0.0978864572322379
 40
0.1297076818267978
 40
0.161980317059459
 40
0.1949582405064945
 40
0.2286805037901188
 40
0.2631015526529878
 40
0.2981092395249976
 40
0.3335323768363756
 40
0.3692035932293254
 40
0.4054228390651921
 40
0.4427224956157281
 40
0.4793338918092138
 40
0.5147854066533343
 40
0.5487946939049133
 40
0.5812793354424126
 40
0.6123238615653518
 40
0.6421328360045695
 40
0.6709331640162247
 40
0.6982796811188713
 40
0.7252796307493322
 40
0.752927828814612
 40
0.7811761265005969
 40
0.809927507627039
 40
0.8391504825850323
 40
0.8699992672079839
 40
0.9024064628763404
 40
0.9362279441210276
 40
0.9714795500274119
 40
1.0
 40
1.0
 40
1.0
 40
1.0
 10
85.99989668112319
 20
605.7623680102895
 30
0.0
 10
86.01063415031383
 20
605.7615544978052
 30
0.0
 10
86.04989336422584
 20
605.7587280218063
 30
0.0
 10
86.11792290183395
 20
605.7727238158539
 30
0.0
 10
86.18567952883376
 20
605.7953653397338
 30
0.0
 10
86.22645500628053
 20
605.8150678765346
 30
0.0
 10
86.24799863776735
 20
605.8269948827198
 30
0.0
 10
86.26402436617077
 20
605.836653984225
 30
0.0
 10
86.27971645876886
 20
605.8468435661548
 30
0.0
 10
86.29510886463302
 20
605.8574806167785
 30
0.0
 10
86.32652581177454
 20
605.8798971988738
 30
0.0
 10
86.40010185605026
 20
605.9336872445067
 30
0.0
 10
86.55231074808945
 20
606.0442562020485
 30
0.0
 10
86.76822543124985
 20
606.1988296373489
 30
0.0
 10
87.04426341837687
 20
606.3928397882784
 30
0.0
 10
87.38302214298774
 20
606.6259202482106
 30
0.0
 10
87.78542933972352
 20
606.8962172643852
 30
0.0
 10
88.25105070015697
 20
607.2006588538401
 30
0.0
 10
88.77822207770568
 20
607.5351746237131
 30
0.0
 10
89.36404822055466
 20
607.8945572783102
 30
0.0
 10
90.00779811700272
 20
608.2754526668182
 30
0.0
 10
90.70931772641691
 20
608.6715515007745
 30
0.0
 10
91.4653311120143
 20
609.0697688844507
 30
0.0
 10
92.26429827864199
 20
609.4536031008324
 30
0.0
 10
93.08490860489677
 20
609.8045945713191
 30
0.0
 10
93.91538814921624
 20
610.1120466864807
 30
0.0
 10
94.74675598055524
 20
610.3689361777971
 30
0.0
 10
95.57312814852054
 20
610.5714388833054
 30
0.0
 10
96.39092305942587
 20
610.717361655869
 30
0.0
 10
97.19137818699622
 20
610.8063291078246
 30
0.0
 10
97.97456481815681
 20
610.8347544185084
 30
0.0
 10
98.74710798900662
 20
610.8108015946382
 30
0.0
 10
99.52143233660318
 20
610.736971788557
 30
0.0
 10
100.2985725586325
 20
610.6134492166293
 30
0.0
 10
101.0696520587138
 20
610.4410698810553
 30
0.0
 10
101.8372056286514
 20
610.2193907119571
 30
0.0
 10
102.6062334999623
 20
609.9547754676968
 30
0.0
 10
103.3794402285536
 20
609.6460187279719
 30
0.0
 10
104.1421611439248
 20
609.3027386710372
 30
0.0
 10
104.8580528942021
 20
608.948551198947
 30
0.0
 10
105.2539368326081
 20
608.7359963360415
 30
0.0
 10
105.4624434067845
 20
608.6232993157097
 30
0.0
  0
ARC
  5
F2
330
8D
100
AcDbEntity
  8
$DDT_AUDIT_GENERATED_(E4)
  6
Continuous
 62
     7
100
AcDbCircle
 10
105.7047518663
 20
609.0618447808
 30
0.0
 40
0.5000000000000162
100
AcDbArc
 50
241.430404504
 51
270.0
  0
ARC
  5
F3
330
8D
100
AcDbEntity
  8
$DDT_AUDIT_GENERATED_(E4)
  6
Continuous
 62
     7
100
AcDbCircle
 10
107.9775546715
 20
638.4557216942
 30
0.0
 40
0.5000000000000004
100
AcDbArc
 50
90.0
 51
122.7788291928
  0
LINE
  5
F4
330
8D
100
AcDbEntity
  8
$DDT_AUDIT_GENERATED_(8F)
  6
Continuous
 62
     7
100
AcDbLine
 10
36.8638070843
 20
947.7985234332
 30
0.0
 11
36.8638070843
 21
948.1230959145
 31
0.0
  0
LINE
  5
F5
330
8D
100
AcDbEntity
  8
$DDT_AUDIT_GENERATED_(8F)
  6
Continuous
 62
     7
100
AcDbLine
 10
36.863912188
 20
919.9246011179
 30
0.0
 11
36.863912188
 21
919.5984589617
 31
0.0
  0
ARC
  5
F6
330
8D
100
AcDbEntity
  8
$DDT_AUDIT_GENERATED_(8F)
  6
Continuous
 62
     7
100
AcDbCircle
 10
48.6997830307
 20
933.8608203126
 30
0.0
 40
18.60674616238096
100
AcDbArc
 50
50.7863549891
 51
129.2095532524
  0
LINE
  5
F7
330
8D
100
AcDbEntity
  8
$DDT_AUDIT_GENERATED_(8F)
  6
Continuous
 62
     7
100
AcDbLine
 10
60.5367774831
 20
948.122264898
 30
0.0
 11
60.5367774831
 21
947.7973536444
 31
0.0
  0
SPLINE
  5
F8
330
8D
100
AcDbEntity
  8
$DDT_AUDIT_GENERATED_(8F)
  6
Continuous
 62
     7
100
AcDbSpline
210
0.0
220
0.0
230
1.0
 70
     8
 71
     3
 72
     8
 73
     4
 74
     0
 42
0.0000000546306244
 43
0.0000000001
 40
0.0
 40
0.0
 40
0.0
 40
0.0
 40
1.0
 40
1.0
 40
1.0
 40
1.0
 10
36.8638070842872
 20
948.1230959145341
 30
0.0
 10
36.8638070842872
 20
948.1826742022756
 30
0.0
 10
36.89120657959118
 20
948.2403917432134
 30
0.0
 10
36.93737019753473
 20
948.2780546900665
 30
0.0
  0
SPLINE
  5
F9
330
8D
100
AcDbEntity
  8
$DDT_AUDIT_GENERATED_(8F)
  6
Continuous
 62
     7
100
AcDbSpline
210
0.0
220
0.0
230
1.0
 70
     8
 71
     3
 72
     8
 73
     4
 74
     0
 42
0.0000000546352985
 43
0.0000000001
 40
0.0
 40
0.0
 40
0.0
 40
0.0
 40
1.0
 40
1.0
 40
1.0
 40
1.0
 10
60.46322543571361
 20
948.2772146445965
 30
0.0
 10
60.5093826140529
 20
948.2395514608301
 30
0.0
 10
60.53677748313542
 20
948.1818383672554
 30
0.0
 10
60.53677748313543
 20
948.1222648979765
 30
0.0
  0
LINE
  5
FA
330
8D
100
AcDbEntity
  8
$DDT_AUDIT_GENERATED_(8F)
  6
Continuous
 62
     7
100
AcDbLine
 10
60.5369279555
 20
919.5994985105
 30
0.0
 11
60.5369279555
 21
919.9227862653
 31
0.0
  0
SPLINE
  5
FB
330
8D
100
AcDbEntity
  8
$DDT_AUDIT_GENERATED_(8F)
  6
Continuous
 62
     7
100
AcDbSpline
210
0.0
220
0.0
230
1.0
 70
     8
 71
     3
 72
     8
 73
     4
 74
     0
 42
0.0000000546359882
 43
0.0000000001
 40
0.0
 40
0.0
 40
0.0
 40
0.0
 40
1.0
 40
1.0
 40
1.0
 40
1.0
 10
60.53692795549987
 20
919.5994985105385
 30
0.0
 10
60.53692795549987
 20
919.5399257484712
 30
0.0
 10
60.50953379241832
 20
919.4822133350505
 30
0.0
 10
60.46337754292443
 20
919.4445500979464
 30
0.0
  0
ARC
  5
FC
330
8D
100
AcDbEntity
  8
$DDT_AUDIT_GENERATED_(8F)
  6
Continuous
 62
     7
100
AcDbCircle
 10
48.6997830307
 20
933.8608203126
 30
0.0
 40
18.6067461623809
100
AcDbArc
 50
230.7908689789
 51
234.140659216
  0
ARC
  5
FD
330
8D
100
AcDbEntity
  8
$DDT_AUDIT_GENERATED_(8F)
  6
Continuous
 62
     7
100
AcDbCircle
 10
48.6997830307
 20
933.8608203126
 30
0.0
 40
18.6067461623809
100
AcDbArc
 50
305.8609895339
 51
309.2142495407
  0
SPLINE
  5
FE
330
8D
100
AcDbEntity
  8
$DDT_AUDIT_GENERATED_(8F)
  6
Continuous
 62
     7
100
AcDbSpline
210
0.0
220
0.0
230
1.0
 70
     8
 71
     3
 72
     8
 73
     4
 74
     0
 42
0.0000000546301431
 43
0.0000000001
 40
0.0
 40
0.0
 40
0.0
 40
0.0
 40
1.0
 40
1.0
 40
1.0
 40
1.0
 10
36.93747644314614
 20
919.4434992545376
 30
0.0
 10
36.89131218234449
 20
919.4811621592304
 30
0.0
 10
36.86391218797213
 20
919.5388801812487
 30
0.0
 10
36.86391218797212
 20
919.5984589617242
 30
0.0
  0
ENDBLK
  5
100
330
8D
100
AcDbEntity
  8
0
100
AcDbBlockEnd
  0
BLOCK
  5
16B
330
101
100
AcDbEntity
  8
0
100
AcDbBlockBegin
  2
SE1
 70
     0
 10
0.0
 20
0.0
 30
0.0
  3
SE1
  1

  0
ARC
  5
103
330
101
100
AcDbEntity
  8
$DDT_AUDIT_GENERATED_(8F)
  6
Continuous
 62
     7
100
AcDbCircle
 10
269.3974389488
 20
331.5751966824
 30
0.0
 40
0.2066646288914806
100
AcDbArc
 50
54.5859597809
 51
88.9267498862
  0
ARC
  5
104
330
101
100
AcDbEntity
  8
$DDT_AUDIT_GENERATED_(8F)
  6
Continuous
 62
     7
100
AcDbCircle
 10
270.2941948782
 20
331.0019300317
 30
0.0
 40
0.2166730252141313
100
AcDbArc
 50
57.0269268835
 51
91.2001547727
  0
SPLINE
  5
105
330
101
100
AcDbEntity
  8
$DDT_AUDIT_GENERATED_(8F)
  6
Continuous
 62
     7
100
AcDbSpline
210
0.0
220
0.0
230
1.0
 70
     8
 71
     3
 72
     8
 73
     4
 74
     0
 42
0.0000000334564541
 43
0.0000000001
 40
0.565328745624319
 40
0.565328745624319
 40
0.565328745624319
 40
0.565328745624319
 40
1.0
 40
1.0
 40
1.0
 40
1.0
 10
272.5716414672504
 20
329.9541419079749
 30
0.0
 10
272.5355195087724
 20
329.9727693800493
 30
0.0
 10
272.4910686770497
 20
329.9798585947204
 30
0.0
 10
272.4470375465033
 20
329.9752966552602
 30
0.0
  0
SPLINE
  5
106
330
101
100
AcDbEntity
  8
$DDT_AUDIT_GENERATED_(8F)
  6
Continuous
 62
     7
100
AcDbSpline
210
0.0
220
0.0
230
1.0
 70
     8
 71
     3
 72
     8
 73
     4
 74
     0
 42
0.0000000680449891
 43
0.0000000001
 40
0.7024418636320636
 40
0.7024418636320636
 40
0.7024418636320636
 40
0.7024418636320636
 40
1.0
 40
1.0
 40
1.0
 40
1.0
 10
274.5959191746567
 20
328.991079556615
 30
0.0
 10
274.5903355916888
 20
328.9887718836515
 30
0.0
 10
274.584326150377
 20
328.9751171019377
 30
0.0
 10
274.5794880195747
 20
328.9528677650483
 30
0.0
  0
SPLINE
  5
107
330
101
100
AcDbEntity
  8
$DDT_AUDIT_GENERATED_(8F)
  6
Continuous
 62
     7
100
AcDbSpline
210
0.0
220
0.0
230
1.0
 70
     8
 71
     3
 72
     8
 73
     4
 74
     0
 42
0.0000000351093421
 43
0.0000000001
 40
0.5711818802300594
 40
0.5711818802300594
 40
0.5711818802300594
 40
0.5711818802300594
 40
1.0
 40
1.0
 40
1.0
 40
1.0
 10
275.7228736135873
 20
328.5512678901508
 30
0.0
 10
275.6901364349695
 20
328.5640074905809
 30
0.0
 10
275.6479739588854
 20
328.5617480425031
 30
0.0
 10
275.6057730017363
 20
328.5467516519497
 30
0.0
  0
ARC
  5
108
330
101
100
AcDbEntity
  8
$DDT_AUDIT_GENERATED_(8F)
  6
Continuous
 62
     7
100
AcDbCircle
 10
279.2964961968
 20
277.6501375975
 30
0.0
 40
22.09639089013253
100
AcDbArc
 50
55.2116306986
 51
69.9955630721
  0
LINE
  5
109
330
101
100
AcDbEntity
  8
$DDT_AUDIT_GENERATED_(8F)
  6
Continuous
 62
     7
100
AcDbLine
 10
281.8130634636
 20
299.7657725881
 30
0.0
 11
281.8130634636
 21
299.7653399776
 31
0.0
  0
LINE
  5
10A
330
101
100
AcDbEntity
  8
$DDT_AUDIT_GENERATED_(8F)
  6
Continuous
 62
     7
100
AcDbLine
 10
278.2532694148
 20
327.5753469616
 30
0.0
 11
278.2532694148
 21
327.4787298843
 31
0.0
  0
LINE
  5
10B
330
101
100
AcDbEntity
  8
$DDT_AUDIT_GENERATED_(8F)
  6
Continuous
 62
     7
100
AcDbLine
 10
278.2532694148
 20
327.6805536604
 30
0.0
 11
278.2532694148
 21
327.5753469616
 31
0.0
  0
ELLIPSE
  5
10C
330
101
100
AcDbEntity
  8
$DDT_AUDIT_GENERATED_(8F)
  6
Continuous
 62
     7
100
AcDbEllipse
 10
278.0532694148
 20
327.6805536603
 30
0.0
 11
-0.0404671262527398
 21
-0.1958632474274961
 31
0.0
210
0.0
220
0.0
230
1.0
 40
0.2318698334
 41
3.10645956436809
 42
3.141592653589793
  0
LINE
  5
10D
330
101
100
AcDbEntity
  8
$DDT_AUDIT_GENERATED_(8F)
  6
Continuous
 62
     7
100
AcDbLine
 10
230.7532694148
 20
295.05
 30
0.0
 11
291.883632475
 21
295.7968854369
 31
0.0
  0
LINE
  5
10E
330
101
100
AcDbEntity
  8
$DDT_AUDIT_GENERATED_(8F)
  6
Continuous
 62
     7
100
AcDbLine
 10
269.6777589247
 20
331.7879163115
 30
0.0
 11
230.7532694148
 21
332.2634923248
 31
0.0
  0
LINE
  5
10F
330
101
100
AcDbEntity
  8
$DDT_AUDIT_GENERATED_(8F)
  6
Continuous
 62
     7
100
AcDbLine
 10
270.6002512027
 20
331.0643623168
 30
0.0
 11
270.5997627469
 21
331.1203338152
 31
0.0
  0
ARC
  5
110
330
101
100
AcDbEntity
  8
$DDT_AUDIT_GENERATED_(8F)
  6
Continuous
 62
     7
100
AcDbCircle
 10
269.684048187
 20
331.5878245419
 30
0.0
 40
0.1999999992154178
100
AcDbArc
 50
32.2093426051
 51
91.6278651786
  0
ARC
  5
111
330
101
100
AcDbEntity
  8
$DDT_AUDIT_GENERATED_(8F)
  6
Continuous
 62
     7
100
AcDbCircle
 10
275.1541786619
 20
340.3335513812
 30
0.0
 40
10.27626416929397
100
AcDbArc
 50
236.7242224709
 51
237.8639564407
  0
ARC
  5
112
330
101
100
AcDbEntity
  8
$DDT_AUDIT_GENERATED_(8F)
  6
Continuous
 62
     7
100
AcDbCircle
 10
283.0297528617
 20
352.571758899
 30
0.0
 40
24.82919934293361
100
AcDbArc
 50
237.4969286679
 51
238.3054183252
  0
SPLINE
  5
113
330
101
100
AcDbEntity
  8
$DDT_AUDIT_GENERATED_(8F)
  6
Continuous
 62
     7
100
AcDbSpline
210
0.0
220
0.0
230
1.0
 70
     8
 71
     3
 72
    13
 73
     9
 74
     0
 42
0.0000000118444929
 43
0.0000000001
 40
0.0
 40
0.0
 40
0.0
 40
0.0
 40
0.1215818473884919
 40
0.2357405885240468
 40
0.3669299579734117
 40
0.571271355970802
 40
0.821838878262399
 40
1.0
 40
1.0
 40
1.0
 40
1.0
 10
270.5971304112392
 20
331.1238161577032
 30
0.0
 10
270.5920816203765
 20
331.1635364707412
 30
0.0
 10
270.5830061156286
 20
331.2289882606033
 30
0.0
 10
270.5154335890488
 20
331.3102682008211
 30
0.0
 10
270.4283841857674
 20
331.3683365507464
 30
0.0
 10
270.3000820586276
 20
331.4153664809657
 30
0.0
 10
270.1209928196763
 20
331.4520204113742
 30
0.0
 10
269.9812009337746
 20
331.4632422021307
 30
0.0
 10
269.9132643199933
 20
331.4682779430623
 30
0.0
  0
ARC
  5
114
330
101
100
AcDbEntity
  8
$DDT_AUDIT_GENERATED_(8F)
  6
Continuous
 62
     7
100
AcDbCircle
 10
282.7552674239
 20
350.9938690057
 30
0.0
 40
23.34503808719419
100
AcDbArc
 50
238.0738563485
 51
239.8929066825
  0
ARC
  5
115
330
101
100
AcDbEntity
  8
$DDT_AUDIT_GENERATED_(8F)
  6
Continuous
 62
     7
100
AcDbCircle
 10
282.196576069
 20
349.4632936307
 30
0.0
 40
21.74256482115815
100
AcDbArc
 50
239.1433162088
 51
241.2953244762
  0
SPLINE
  5
116
330
101
100
AcDbEntity
  8
$DDT_AUDIT_GENERATED_(8F)
  6
Continuous
 62
     7
100
AcDbSpline
210
0.0
220
0.0
230
1.0
 70
     8
 71
     3
 72
    13
 73
     9
 74
     0
 42
0.0000000082192575
 43
0.0000000001
 40
0.0
 40
0.0
 40
0.0
 40
0.0
 40
0.1484350493245657
 40
0.3164630086345253
 40
0.495874885185916
 40
0.702470138951345
 40
0.9040665005832237
 40
1.0
 40
1.0
 40
1.0
 40
1.0
 10
272.6522761363981
 20
329.8689576173529
 30
0.0
 10
272.6481889817998
 20
329.926207694033
 30
0.0
 10
272.6385792919622
 20
330.0304109026352
 30
0.0
 10
272.52448226145
 20
330.1715013006407
 30
0.0
 10
272.3581382377109
 20
330.2815521452712
 30
0.0
 10
272.1296149749869
 20
330.3607499144773
 30
0.0
 10
271.8882241141208
 20
330.4019538665126
 30
0.0
 10
271.7522535230789
 20
330.40034089123
 30
0.0
 10
271.7012724367035
 20
330.399438245903
 30
0.0
  0
ARC
  5
117
330
101
100
AcDbEntity
  8
$DDT_AUDIT_GENERATED_(8F)
  6
Continuous
 62
     7
100
AcDbCircle
 10
283.2564974387
 20
349.9464783154
 30
0.0
 40
22.67304674783425
100
AcDbArc
 50
241.8769677413
 51
247.5563712984
  0
ARC
  5
118
330
101
100
AcDbEntity
  8
$DDT_AUDIT_GENERATED_(8F)
  6
Continuous
 62
     7
100
AcDbCircle
 10
274.8237081204
 20
327.8985046555
 30
0.0
 40
1.111806302787413
100
AcDbArc
 50
89.612714808
 51
101.8073450127
  0
SPLINE
  5
119
330
101
100
AcDbEntity
  8
$DDT_AUDIT_GENERATED_(8F)
  6
Continuous
 62
     7
100
AcDbSpline
210
0.0
220
0.0
230
1.0
 70
     8
 71
     3
 72
    12
 73
     8
 74
     0
 42
0.0000000086493068
 43
0.0000000001
 40
0.0
 40
0.0
 40
0.0
 40
0.0
 40
0.1222749280249409
 40
0.35609406714535
 40
0.5919169330113382
 40
0.7988872299331061
 40
1.0
 40
1.0
 40
1.0
 40
1.0
 10
275.7672912426964
 20
328.4911916375443
 30
0.0
 10
275.7548920582055
 20
328.5328381560102
 30
0.0
 10
275.7223708191513
 20
328.6362793083616
 30
0.0
 10
275.5739928399797
 20
328.7905813481963
 30
0.0
 10
275.3587396652604
 20
328.9187001614664
 30
0.0
 10
275.095643449202
 20
328.9988691989791
 30
0.0
 10
274.9278417097373
 20
329.0069469419769
 30
0.0
 10
274.8312232085873
 20
329.0102855594761
 30
0.0
  0
ARC
  5
11A
330
101
100
AcDbEntity
  8
$DDT_AUDIT_GENERATED_(8F)
  6
Continuous
 62
     7
100
AcDbCircle
 10
281.0893979777
 20
342.9773975029
 30
0.0
 40
15.38869554307007
100
AcDbArc
 50
249.5929127063
 51
258.7852790998
  0
ARC
  5
11B
330
101
100
AcDbEntity
  8
$DDT_AUDIT_GENERATED_(8F)
  6
Continuous
 62
     7
100
AcDbCircle
 10
291.9079560325
 20
295.9930023837
 30
0.0
 40
0.1901639708514695
100
AcDbArc
 50
293.0676959527
 51
324.5435880595
  0
ARC
  5
11C
330
101
100
AcDbEntity
  8
$DDT_AUDIT_GENERATED_(8F)
  6
Continuous
 62
     7
100
AcDbCircle
 10
278.0532694148
 20
327.6805536603
 30
0.0
 40
0.1999999999999919
100
AcDbArc
 50
0.0
 51
78.3264262751
  0
LINE
  5
11D
330
101
100
AcDbEntity
  8
$DDT_AUDIT_GENERATED_(9B)
  6
Continuous
 62
     7
100
AcDbLine
 10
291.6532694148
 20
331.1717865787
 30
0.0
 11
291.6532694148
 21
609.4343286231
 31
0.0
  0
LINE
  5
11E
330
101
100
AcDbEntity
  8
$DDT_AUDIT_GENERATED_(9B)
  6
Continuous
 62
     7
100
AcDbLine
 10
291.6532694148
 20
638.0832378519
 30
0.0
 11
291.6532694148
 21
916.3463462631
 31
0.0
  0
LINE
  5
11F
330
101
100
AcDbEntity
  8
$DDT_AUDIT_GENERATED_(9B)
  6
Continuous
 62
     7
100
AcDbLine
 10
269.8532694148
 20
915.8231390992
 30
0.0
 11
269.8532694148
 21
638.0832378519
 31
0.0
  0
LINE
  5
120
330
101
100
AcDbEntity
  8
$DDT_AUDIT_GENERATED_(9B)
  6
Continuous
 62
     7
100
AcDbLine
 10
269.8532694148
 20
609.4343286231
 30
0.0
 11
269.8532694148
 21
331.5275478689
 31
0.0
  0
LINE
  5
121
330
101
100
AcDbEntity
  8
$DDT_AUDIT_GENERATED_(A0)
  6
Continuous
 62
     7
100
AcDbLine
 10
230.7532694148
 20
920.0120250771
 30
0.0
 11
230.7532694148
 21
947.7096155482
 31
0.0
  0
ARC
  5
122
330
101
100
AcDbEntity
  8
$DDT_AUDIT_GENERATED_(A0)
  6
Continuous
 62
     7
100
AcDbCircle
 10
279.793406753
 20
968.3688906305
 30
0.0
 40
20.774575585757
100
AcDbArc
 50
290.3810796302
 51
307.1658447176
  0
ARC
  5
123
330
101
100
AcDbEntity
  8
$DDT_AUDIT_GENERATED_(A0)
  6
Continuous
 62
     7
100
AcDbCircle
 10
279.793406753
 20
899.3527499948
 30
0.0
 40
20.77457558575858
100
AcDbArc
 50
52.7942291193
 51
66.587017627
  0
ELLIPSE
  5
124
330
101
100
AcDbEntity
  8
$DDT_AUDIT_GENERATED_(A0)
  6
Continuous
 62
     7
100
AcDbEllipse
 10
280.8747421106
 20
920.2512619539
 30
0.0
 11
0.0
 21
0.1999110797108937
 31
0.0
210
0.0
220
0.0
230
1.0
 40
1.0
 41
3.14611461949039
 42
3.14642225600677
  0
ARC
  5
125
330
101
100
AcDbEntity
  8
$DDT_AUDIT_GENERATED_(A0)
  6
Continuous
 62
     7
100
AcDbCircle
 10
-199.2467305852
 20
933.8608203126
 30
0.0
 40
499.9999999999999
100
AcDbArc
 50
358.0057505618
 51
1.9942494382
  0
ARC
  5
126
330
101
100
AcDbEntity
  8
$DDT_AUDIT_GENERATED_(A0)
  6
Continuous
 62
     7
100
AcDbCircle
 10
299.9507346108
 20
916.4786241932
 30
0.0
 40
0.4999999999999504
100
AcDbArc
 50
270.6
 51
358.0057505615
  0
ARC
  5
127
330
101
100
AcDbEntity
  8
$DDT_AUDIT_GENERATED_(A0)
  6
Continuous
 62
     7
100
AcDbCircle
 10
299.9507346108
 20
951.243016432
 30
0.0
 40
0.4999999999999161
100
AcDbArc
 50
1.9942494385
 51
89.4
  0
LINE
  5
128
330
101
100
AcDbEntity
  8
$DDT_AUDIT_GENERATED_(A0)
  6
Continuous
 62
     7
100
AcDbLine
 10
292.3467297945
 20
915.8989649133
 30
0.0
 11
299.9559705028
 21
915.9786516085
 31
0.0
  0
LINE
  5
129
330
101
100
AcDbEntity
  8
$DDT_AUDIT_GENERATED_(A0)
  6
Continuous
 62
     7
100
AcDbLine
 10
299.9559705028
 20
951.7429890167
 30
0.0
 11
292.3467297945
 21
951.822675712
 31
0.0
  0
ARC
  5
12A
330
101
100
AcDbEntity
  8
$DDT_AUDIT_GENERATED_(A0)
  6
Continuous
 62
     7
100
AcDbCircle
 10
280.6716268799
 20
963.6300078105
 30
0.0
 40
15.95796123831494
100
AcDbArc
 50
270.7331683102
 51
293.0914237041
  0
ARC
  5
12B
330
101
100
AcDbEntity
  8
$DDT_AUDIT_GENERATED_(A0)
  6
Continuous
 62
     7
100
AcDbCircle
 10
292.3442241182
 20
951.6295036527
 30
0.0
 40
0.1892456400829717
100
AcDbArc
 50
122.9300872227
 51
126.7805144902
  0
SPLINE
  5
12C
330
101
100
AcDbEntity
  8
$DDT_AUDIT_GENERATED_(A0)
  6
Continuous
 62
     7
100
AcDbSpline
210
0.0
220
0.0
230
1.0
 70
     8
 71
     3
 72
     8
 73
     4
 74
     0
 42
0.0000000002003122
 43
0.0000000001
 40
0.0
 40
0.0
 40
0.0
 40
0.0
 40
1.0
 40
1.0
 40
1.0
 40
1.0
 10
280.8757078456928
 20
947.6701467849454
 30
0.0
 10
266.4318603133769
 20
947.7407815115788
 30
0.0
 10
249.7913615598592
 20
947.8200451685018
 30
0.0
 10
230.9542115851397
 20
947.9079377557143
 30
0.0
  0
ARC
  5
12D
330
101
100
AcDbEntity
  8
$DDT_AUDIT_GENERATED_(A0)
  6
Continuous
 62
     7
100
AcDbCircle
 10
230.9532694148
 20
947.7096155482
 30
0.0
 40
0.1999999999999735
100
AcDbArc
 50
89.72779719
 51
180.0
  0
ARC
  5
12E
330
101
100
AcDbEntity
  8
$DDT_AUDIT_GENERATED_(A0)
  6
Continuous
 62
     7
100
AcDbCircle
 10
280.5790045381
 20
903.3361419938
 30
0.0
 40
16.71090206342068
100
AcDbArc
 50
63.8861476118
 51
88.9822639771
  0
ARC
  5
12F
330
101
100
AcDbEntity
  8
$DDT_AUDIT_GENERATED_(A0)
  6
Continuous
 62
     7
100
AcDbCircle
 10
292.3410993377
 20
916.0900430818
 30
0.0
 40
0.1858208932160927
100
AcDbArc
 50
233.2025393809
 51
237.7018721525
  0
LINE
  5
130
330
101
100
AcDbEntity
  8
$DDT_AUDIT_GENERATED_(A0)
  6
Continuous
 62
     7
100
AcDbLine
 10
230.9542098778
 20
919.814066051
 30
0.0
 11
280.8757044702
 21
920.0521931648
 31
0.0
  0
ARC
  5
131
330
101
100
AcDbEntity
  8
$DDT_AUDIT_GENERATED_(A0)
  6
Continuous
 62
     7
100
AcDbCircle
 10
230.9532694148
 20
920.0120250771
 30
0.0
 40
0.1999999999999979
100
AcDbArc
 50
180.0
 51
270.27220281
  0
ARC
  5
132
330
101
100
AcDbEntity
  8
$DDT_AUDIT_GENERATED_(A0)
  6
Continuous
 62
     7
100
AcDbCircle
 10
279.793406753
 20
279.1486758445
 30
0.0
 40
20.77457558575783
100
AcDbArc
 50
52.7942291193
 51
66.587017627
  0
ARC
  5
133
330
101
100
AcDbEntity
  8
$DDT_AUDIT_GENERATED_(A0)
  6
Continuous
 62
     7
100
AcDbCircle
 10
279.793406753
 20
348.1648164802
 30
0.0
 40
20.77457558575768
100
AcDbArc
 50
290.3810796309
 51
307.1658447176
  0
ELLIPSE
  5
134
330
101
100
AcDbEntity
  8
$DDT_AUDIT_GENERATED_(A0)
  6
Continuous
 62
     7
100
AcDbEllipse
 10
280.8747421106
 20
300.0471878036
 30
0.0
 11
0.0
 21
0.1998369468332601
 31
0.0
210
0.0
220
0.0
230
1.0
 40
1.0
 41
3.146003874549891
 42
3.146426771698144
  0
ARC
  5
135
330
101
100
AcDbEntity
  8
$DDT_AUDIT_GENERATED_(A0)
  6
Continuous
 62
     7
100
AcDbCircle
 10
-199.2467305852
 20
313.6567461624
 30
0.0
 40
500.0
100
AcDbArc
 50
358.0057505618
 51
1.9942494382
  0
ARC
  5
136
330
101
100
AcDbEntity
  8
$DDT_AUDIT_GENERATED_(A0)
  6
Continuous
 62
     7
100
AcDbCircle
 10
299.9507346108
 20
296.274550043
 30
0.0
 40
0.4999999999999989
100
AcDbArc
 50
270.6
 51
358.0057505615
  0
ARC
  5
137
330
101
100
AcDbEntity
  8
$DDT_AUDIT_GENERATED_(A0)
  6
Continuous
 62
     7
100
AcDbCircle
 10
299.9507346108
 20
331.0389422818
 30
0.0
 40
0.4999999999999176
100
AcDbArc
 50
1.9942494385
 51
89.4
  0
LINE
  5
138
330
101
100
AcDbEntity
  8
$DDT_AUDIT_GENERATED_(A0)
  6
Continuous
 62
     7
100
AcDbLine
 10
292.3467297945
 20
295.694890763
 30
0.0
 11
299.9559705028
 21
295.7745774583
 31
0.0
  0
LINE
  5
139
330
101
100
AcDbEntity
  8
$DDT_AUDIT_GENERATED_(A0)
  6
Continuous
 62
     7
100
AcDbLine
 10
299.9559705028
 20
331.5389148665
 30
0.0
 11
292.3467297945
 21
331.6186015617
 31
0.0
  0
LINE
  5
13A
330
101
100
AcDbEntity
  8
$DDT_AUDIT_GENERATED_(A0)
  6
Continuous
 62
     7
100
AcDbLine
 10
230.9542099049
 20
299.6099919008
 30
0.0
 11
280.8757043596
 21
299.848119014
 31
0.0
  0
ARC
  5
13B
330
101
100
AcDbEntity
  8
$DDT_AUDIT_GENERATED_(A0)
  6
Continuous
 62
     7
100
AcDbCircle
 10
280.5790191353
 20
283.1321117123
 30
0.0
 40
16.71085624769806
100
AcDbArc
 50
63.8861263473
 51
88.9824691352
  0
ARC
  5
13C
330
101
100
AcDbEntity
  8
$DDT_AUDIT_GENERATED_(A0)
  6
Continuous
 62
     7
100
AcDbCircle
 10
292.3410993378
 20
295.8859689316
 30
0.0
 40
0.1858208932753548
100
AcDbArc
 50
233.2025393757
 51
237.7018721461
  0
SPLINE
  5
13D
330
101
100
AcDbEntity
  8
$DDT_AUDIT_GENERATED_(A0)
  6
Continuous
 62
     7
100
AcDbSpline
210
0.0
220
0.0
230
1.0
 70
     8
 71
     3
 72
     8
 73
     4
 74
     0
 42
0.0000000002003122
 43
0.0000000001
 40
0.0
 40
0.0
 40
0.0
 40
0.0
 40
1.0
 40
1.0
 40
1.0
 40
1.0
 10
280.8757078593115
 20
327.4660726346305
 30
0.0
 10
266.4318603179165
 20
327.5367073613072
 30
0.0
 10
249.7913615768735
 20
327.6159710181719
 30
0.0
 10
230.9542116361827
 20
327.7038636052244
 30
0.0
  0
ARC
  5
13E
330
101
100
AcDbEntity
  8
$DDT_AUDIT_GENERATED_(A0)
  6
Continuous
 62
     7
100
AcDbCircle
 10
280.6716218541
 20
343.4259483226
 30
0.0
 40
15.95797669699055
100
AcDbArc
 50
270.7332449356
 51
293.0914196568
  0
ARC
  5
13F
330
101
100
AcDbEntity
  8
$DDT_AUDIT_GENERATED_(A0)
  6
Continuous
 62
     7
100
AcDbCircle
 10
292.3442241182
 20
331.4254295025
 30
0.0
 40
0.1892456400684249
100
AcDbArc
 50
122.930087221
 51
126.7805144871
  0
CIRCLE
  5
140
330
101
100
AcDbEntity
  8
$DDT_AUDIT_GENERATED_(BE)
  6
Continuous
 62
     7
100
AcDbCircle
 10
280.7532694148
 20
623.7587832375
 30
0.0
 40
18.0
  0
ARC
  5
141
330
101
100
AcDbEntity
  8
$DDT_AUDIT_GENERATED_(BE)
  6
Continuous
 62
     7
100
AcDbCircle
 10
280.7532439689
 20
623.758985689
 30
0.0
 40
23.00000000000009
100
AcDbArc
 50
73.6707521697
 51
106.3301654851
  0
LINE
  5
142
330
101
100
AcDbEntity
  8
$DDT_AUDIT_GENERATED_(BE)
  6
Continuous
 62
     7
100
AcDbLine
 10
287.7627847826
 20
640.6684300928
 30
0.0
 11
287.7235255409
 21
645.1670935971
 31
0.0
  0
LINE
  5
143
330
101
100
AcDbEntity
  8
$DDT_AUDIT_GENERATED_(BE)
  6
Continuous
 62
     7
100
AcDbLine
 10
273.7830423971
 20
645.1704290815
 30
0.0
 11
273.7436872706
 21
640.6607782601
 31
0.0
  0
ARC
  5
144
330
101
100
AcDbEntity
  8
$DDT_AUDIT_GENERATED_(BE)
  6
Continuous
 62
     7
100
AcDbCircle
 10
274.4571939433
 20
645.1847961147
 30
0.0
 40
0.6654039255998209
100
AcDbArc
 50
113.9734905073
 51
181.20274324
  0
ARC
  5
145
330
101
100
AcDbEntity
  8
$DDT_AUDIT_GENERATED_(BE)
  6
Continuous
 62
     7
100
AcDbCircle
 10
287.043745676
 20
645.1814806957
 30
0.0
 40
0.6710673261555848
100
AcDbArc
 50
358.7659827063
 51
67.0033260409
  0
ARC
  5
146
330
101
100
AcDbEntity
  8
$DDT_AUDIT_GENERATED_(BE)
  6
Continuous
 62
     7
100
AcDbCircle
 10
273.253832059
 20
640.659746884
 30
0.0
 40
0.4881594566427645
100
AcDbArc
 50
305.4579731766
 51
358.9852342036
  0
ARC
  5
147
330
101
100
AcDbEntity
  8
$DDT_AUDIT_GENERATED_(BE)
  6
Continuous
 62
     7
100
AcDbCircle
 10
288.2310960839
 20
640.6426503543
 30
0.0
 40
0.4619846797634025
100
AcDbArc
 50
176.740723439
 51
234.1336668881
  0
ARC
  5
148
330
101
100
AcDbEntity
  8
$DDT_AUDIT_GENERATED_(E4)
  6
Continuous
 62
     7
100
AcDbCircle
 10
280.7532564171
 20
623.7606424166
 30
0.0
 40
18.00000000000002
100
AcDbArc
 50
140.729992709
 51
140.7334384211
  0
ARC
  5
149
330
101
100
AcDbEntity
  8
$DDT_AUDIT_GENERATED_(E4)
  6
Continuous
 62
     7
100
AcDbCircle
 10
280.7532516409
 20
623.757372934
 30
0.0
 40
17.99999999999996
100
AcDbArc
 50
314.7263011271
 51
314.7313931435
  0
LINE
  5
14A
330
101
100
AcDbEntity
  8
$DDT_AUDIT_GENERATED_(8F)
  6
Continuous
 62
     7
100
AcDbLine
 10
230.7532694148
 20
947.7096155482
 30
0.0
 11
230.7532694148
 21
948.1230959145
 31
0.0
  0
LINE
  5
14B
330
101
100
AcDbEntity
  8
$DDT_AUDIT_GENERATED_(8F)
  6
Continuous
 62
     7
100
AcDbLine
 10
230.7532694148
 20
920.0120250771
 30
0.0
 11
230.7532694148
 21
919.5984589617
 31
0.0
  0
LINE
  5
14C
330
101
100
AcDbEntity
  8
$DDT_AUDIT_GENERATED_(8F)
  6
Continuous
 62
     7
100
AcDbLine
 10
278.2532694148
 20
920.0396840664
 30
0.0
 11
278.2532694148
 21
919.9411997108
 31
0.0
  0
SPLINE
  5
14D
330
101
100
AcDbEntity
  8
$DDT_AUDIT_GENERATED_(8F)
  6
Continuous
 62
     7
100
AcDbSpline
210
0.0
220
0.0
230
1.0
 70
     8
 71
     3
 72
     8
 73
     4
 74
     0
 42
0.0000000350467179
 43
0.0000000001
 40
0.5833383109983975
 40
0.5833383109983975
 40
0.5833383109983975
 40
0.5833383109983975
 40
1.0
 40
1.0
 40
1.0
 40
1.0
 10
275.7200639663703
 20
918.9649533240212
 30
0.0
 10
275.6877430705119
 20
918.9533986536604
 30
0.0
 10
275.6467750306026
 20
918.9559441698428
 30
0.0
 10
275.6057706431637
 20
918.9705148645604
 30
0.0
  0
SPLINE
  5
14E
330
101
100
AcDbEntity
  8
$DDT_AUDIT_GENERATED_(8F)
  6
Continuous
 62
     7
100
AcDbSpline
210
0.0
220
0.0
230
1.0
 70
     8
 71
     3
 72
     8
 73
     4
 74
     0
 42
0.0000000674592965
 43
0.0000000001
 40
0.7089442048075105
 40
0.7089442048075105
 40
0.7089442048075105
 40
0.7089442048075105
 40
1.0
 40
1.0
 40
1.0
 40
1.0
 10
274.5955516385403
 20
918.5263841655701
 30
0.0
 10
274.5900726785792
 20
918.5291245135102
 30
0.0
 10
274.5842197455187
 20
918.5426636940396
 30
0.0
 10
274.579487752084
 20
918.5644243517237
 30
0.0
  0
SPLINE
  5
14F
330
101
100
AcDbEntity
  8
$DDT_AUDIT_GENERATED_(8F)
  6
Continuous
 62
     7
100
AcDbSpline
210
0.0
220
0.0
230
1.0
 70
     8
 71
     3
 72
     8
 73
     4
 74
     0
 42
0.0000000334500087
 43
0.0000000001
 40
0.5705884437853492
 40
0.5705884437853492
 40
0.5705884437853492
 40
0.5705884437853492
 40
1.0
 40
1.0
 40
1.0
 40
1.0
 10
272.5703248951193
 20
917.56254453343
 30
0.0
 10
272.5344420850868
 20
917.5444177693391
 30
0.0
 10
272.4905340289615
 20
917.537553191534
 30
0.0
 10
272.4470355791517
 20
917.5420596816941
 30
0.0
  0
SPLINE
  5
150
330
101
100
AcDbEntity
  8
$DDT_AUDIT_GENERATED_(8F)
  6
Continuous
 62
     7
100
AcDbSpline
210
0.0
220
0.0
230
1.0
 70
     8
 71
     3
 72
     8
 73
     4
 74
     0
 42
0.0000000531413589
 43
0.0000000001
 40
0.7951845437713906
 40
0.7951845437713906
 40
0.7951845437713906
 40
0.7951845437713906
 40
1.0
 40
1.0
 40
1.0
 40
1.0
 10
271.7258386887306
 20
917.1137584349548
 30
0.0
 10
271.7144268619415
 20
917.1146898987826
 30
0.0
 10
271.7026183486417
 20
917.1196274217128
 30
0.0
 10
271.6911973888857
 20
917.1282204942751
 30
0.0
  0
ARC
  5
151
330
101
100
AcDbEntity
  8
$DDT_AUDIT_GENERATED_(8F)
  6
Continuous
 62
     7
100
AcDbCircle
 10
270.2941939659
 20
916.5155242444
 30
0.0
 40
0.2166727393160576
100
AcDbArc
 50
268.7997976874
 51
305.5778766092
  0
ARC
  5
152
330
101
100
AcDbEntity
  8
$DDT_AUDIT_GENERATED_(8F)
  6
Continuous
 62
     7
100
AcDbCircle
 10
269.3974414668
 20
915.9423529165
 30
0.0
 40
0.2066618867813223
100
AcDbArc
 50
271.072531347
 51
304.8657401948
  0
LINE
  5
153
330
101
100
AcDbEntity
  8
$DDT_AUDIT_GENERATED_(8F)
  6
Continuous
 62
     7
100
AcDbLine
 10
230.7532694148
 20
952.467566475
 30
0.0
 11
230.7532694148
 21
948.2780546901
 31
0.0
  0
ARC
  5
154
330
101
100
AcDbEntity
  8
$DDT_AUDIT_GENERATED_(8F)
  6
Continuous
 62
     7
100
AcDbCircle
 10
279.2964961968
 20
969.8674288775
 30
0.0
 40
22.09639089013281
100
AcDbArc
 50
278.345682257
 51
304.7508799754
  0
LINE
  5
155
330
101
100
AcDbEntity
  8
$DDT_AUDIT_GENERATED_(8F)
  6
Continuous
 62
     7
100
AcDbLine
 10
230.7532694148
 20
948.1230959145
 30
0.0
 11
230.7532694148
 21
948.2780546901
 31
0.0
  0
LINE
  5
156
330
101
100
AcDbEntity
  8
$DDT_AUDIT_GENERATED_(8F)
  6
Continuous
 62
     7
100
AcDbLine
 10
281.774899512
 20
947.7533179041
 30
0.0
 11
281.774899512
 21
947.7529244898
 31
0.0
  0
ARC
  5
157
330
101
100
AcDbEntity
  8
$DDT_AUDIT_GENERATED_(8F)
  6
Continuous
 62
     7
100
AcDbCircle
 10
279.0409405639
 20
947.6973762917
 30
0.0
 40
2.734531220122882
100
AcDbArc
 50
1.1722089228
 51
4.4512541406
  0
LINE
  5
158
330
101
100
AcDbEntity
  8
$DDT_AUDIT_GENERATED_(8F)
  6
Continuous
 62
     7
100
AcDbLine
 10
230.7532694148
 20
915.2540741502
 30
0.0
 11
230.7532694148
 21
919.4434992545
 31
0.0
  0
LINE
  5
159
330
101
100
AcDbEntity
  8
$DDT_AUDIT_GENERATED_(8F)
  6
Continuous
 62
     7
100
AcDbLine
 10
230.7532694148
 20
919.4434992545
 30
0.0
 11
230.7532694148
 21
919.5984589617
 31
0.0
  0
LINE
  5
15A
330
101
100
AcDbEntity
  8
$DDT_AUDIT_GENERATED_(8F)
  6
Continuous
 62
     7
100
AcDbLine
 10
278.2532694148
 20
919.9411997108
 30
0.0
 11
278.2532694148
 21
919.8366745575
 31
0.0
  0
ELLIPSE
  5
15B
330
101
100
AcDbEntity
  8
$DDT_AUDIT_GENERATED_(8F)
  6
Continuous
 62
     7
100
AcDbEllipse
 10
278.0532694148
 20
919.8366745575
 30
0.0
 11
-0.04046479182035628
 21
0.1958637297279076
 31
0.0
210
0.0
220
0.0
230
1.0
 40
0.2318704133
 41
3.141592653589793
 42
3.167277441262059
  0
LINE
  5
15C
330
101
100
AcDbEntity
  8
$DDT_AUDIT_GENERATED_(8F)
  6
Continuous
 62
     7
100
AcDbLine
 10
291.883632475
 20
951.7206810381
 30
0.0
 11
230.7532694148
 21
952.467566475
 31
0.0
  0
LINE
  5
15D
330
101
100
AcDbEntity
  8
$DDT_AUDIT_GENERATED_(8F)
  6
Continuous
 62
     7
100
AcDbLine
 10
230.7532694148
 20
915.2540741502
 30
0.0
 11
269.6777589247
 21
915.7296501635
 31
0.0
  0
LINE
  5
15E
330
101
100
AcDbEntity
  8
$DDT_AUDIT_GENERATED_(8F)
  6
Continuous
 62
     7
100
AcDbLine
 10
270.599763633
 20
916.3973341973
 30
0.0
 11
270.6002546021
 21
916.4535936875
 31
0.0
  0
ARC
  5
15F
330
101
100
AcDbEntity
  8
$DDT_AUDIT_GENERATED_(8F)
  6
Continuous
 62
     7
100
AcDbCircle
 10
281.1913949076
 20
904.1438020976
 30
0.0
 40
15.79739367132235
100
AcDbArc
 50
101.2981628168
 51
110.2639460148
  0
SPLINE
  5
160
330
101
100
AcDbEntity
  8
$DDT_AUDIT_GENERATED_(8F)
  6
Continuous
 62
     7
100
AcDbSpline
210
0.0
220
0.0
230
1.0
 70
     8
 71
     3
 72
    13
 73
     9
 74
     0
 42
0.0000000095481086
 43
0.0000000001
 40
0.0
 40
0.0
 40
0.0
 40
0.0
 40
0.0224517627505783
 40
0.2524306711356125
 40
0.4876088599791247
 40
0.7359192913390915
 40
0.9991093288627166
 40
1.0
 40
1.0
 40
1.0
 40
1.0
 10
274.9523886415354
 20
918.5121614019151
 30
0.0
 10
274.9622853976741
 20
918.5121001640343
 30
0.0
 10
275.0582304718224
 20
918.5116235745697
 30
0.0
 10
275.2520134103243
 20
918.5622250203763
 30
0.0
 10
275.4870174346445
 20
918.6636777014621
 30
0.0
 10
275.6677980756592
 20
918.8206559223108
 30
0.0
 10
275.7711831246631
 20
918.9579907733836
 30
0.0
 10
275.7809474024916
 20
919.030965947929
 30
0.0
 10
275.7809855169702
 20
919.0312509651059
 30
0.0
  0
ARC
  5
161
330
101
100
AcDbEntity
  8
$DDT_AUDIT_GENERATED_(8F)
  6
Continuous
 62
     7
100
AcDbCircle
 10
274.8295303383
 20
919.4586802767
 30
0.0
 40
0.9544590839524978
100
AcDbArc
 50
255.8849646977
 51
277.3956522524
  0
ARC
  5
162
330
101
100
AcDbEntity
  8
$DDT_AUDIT_GENERATED_(8F)
  6
Continuous
 62
     7
100
AcDbCircle
 10
283.4527414025
 20
897.1638933868
 30
0.0
 40
23.12471324006903
100
AcDbArc
 50
112.5085863076
 51
118.0800904447
  0
SPLINE
  5
163
330
101
100
AcDbEntity
  8
$DDT_AUDIT_GENERATED_(8F)
  6
Continuous
 62
     7
100
AcDbSpline
210
0.0
220
0.0
230
1.0
 70
     8
 71
     3
 72
    13
 73
     9
 74
     0
 42
0.0000000083887303
 43
0.0000000001
 40
0.0
 40
0.0
 40
0.0
 40
0.0
 40
0.0725379119981341
 40
0.2666832052687683
 40
0.4660583715730013
 40
0.6812890488574891
 40
0.8573784952380455
 40
1.0
 40
1.0
 40
1.0
 40
1.0
 10
271.7255725731821
 20
917.1178593778144
 30
0.0
 10
271.7634464730326
 20
917.1171457411451
 30
0.0
 10
271.8832003950369
 20
917.1153959702657
 30
0.0
 10
272.1040924060232
 20
917.1517416771889
 30
0.0
 10
272.3425484488602
 20
917.2274786222187
 30
0.0
 10
272.5213585421671
 20
917.3397896730495
 30
0.0
 10
272.6393014838882
 20
917.4900106372503
 30
0.0
 10
272.6498003689206
 20
917.593319813819
 30
0.0
 10
272.6541948560932
 20
917.6475268819454
 30
0.0
  0
ARC
  5
164
330
101
100
AcDbEntity
  8
$DDT_AUDIT_GENERATED_(8F)
  6
Continuous
 62
     7
100
AcDbCircle
 10
283.7293847026
 20
895.2749378462
 30
0.0
 40
24.91618281402873
100
AcDbArc
 50
118.7258986268
 51
120.7866691336
  0
ARC
  5
165
330
101
100
AcDbEntity
  8
$DDT_AUDIT_GENERATED_(8F)
  6
Continuous
 62
     7
100
AcDbCircle
 10
283.9426745905
 20
894.6489389869
 30
0.0
 40
25.56350430457368
100
AcDbArc
 50
120.4792039281
 51
121.9410780746
  0
SPLINE
  5
166
330
101
100
AcDbEntity
  8
$DDT_AUDIT_GENERATED_(8F)
  6
Continuous
 62
     7
100
AcDbSpline
210
0.0
220
0.0
230
1.0
 70
     8
 71
     3
 72
    12
 73
     8
 74
     0
 42
0.0000000125704482
 43
0.0000000001
 40
0.0
 40
0.0
 40
0.0
 40
0.0
 40
0.1308888182520864
 40
0.4006979648514021
 40
0.7021209073114084
 40
0.882822690396338
 40
1.0
 40
1.0
 40
1.0
 40
1.0
 10
269.9690486301084
 20
916.0540797492228
 30
0.0
 10
270.0158934651752
 20
916.0578414151917
 30
0.0
 10
270.1385823996209
 20
916.0680615180084
 30
0.0
 10
270.3260433962973
 20
916.1092236500227
 30
0.0
 10
270.470288992293
 20
916.1624366157129
 30
0.0
 10
270.5833946379274
 20
916.2790669793305
 30
0.0
 10
270.5928404786737
 20
916.3589237923013
 30
0.0
 10
270.5968722384403
 20
916.3955543242444
 30
0.0
  0
ARC
  5
167
330
101
100
AcDbEntity
  8
$DDT_AUDIT_GENERATED_(8F)
  6
Continuous
 62
     7
100
AcDbCircle
 10
282.1955908268
 20
896.2609124814
 30
0.0
 40
23.27194529615817
100
AcDbArc
 50
121.6549826767
 51
122.6318151464
  0
ARC
  5
168
330
101
100
AcDbEntity
  8
$DDT_AUDIT_GENERATED_(8F)
  6
Continuous
 62
     7
100
AcDbCircle
 10
273.9724294613
 20
908.9995053609
 30
0.0
 40
8.11004813005571
100
AcDbArc
 50
122.2360344931
 51
123.3435109661
  0
ARC
  5
169
330
101
100
AcDbEntity
  8
$DDT_AUDIT_GENERATED_(8F)
  6
Continuous
 62
     7
100
AcDbCircle
 10
269.6840481871
 20
915.9297419347
 30
0.0
 40
0.1999999598542188
100
AcDbArc
 50
268.3721348215
 51
0.04294202
  0
ARC
  5
16A
330
101
100
AcDbEntity
  8
$DDT_AUDIT_GENERATED_(8F)
  6
Continuous
 62
     7
100
AcDbCircle
 10
278.0532694148
 20
919.8366745575
 30
0.0
 40
0.1999999999999832
100
AcDbArc
 50
281.6728908354
 51
0.0
  0
ENDBLK
  5
16C
330
101
100
AcDbEntity
  8
0
100
AcDbBlockEnd
  0
BLOCK
  5
1A9
330
16D
100
AcDbEntity
  8
0
100
AcDbBlockBegin
  2
SE2
 70
     0
 10
0.0
 20
0.0
 30
0.0
  3
SE2
  1

  0
LINE
  5
16F
330
16D
100
AcDbEntity
  8
$DDT_AUDIT_GENERATED_(A0)
  6
Continuous
 62
     7
100
AcDbLine
 10
36.5778404853
 20
176.35
 30
0.0
 11
30.2952212516
 21
176.35
 31
0.0
  0
LINE
  5
170
330
16D
100
AcDbEntity
  8
$DDT_AUDIT_GENERATED_(A0)
  6
Continuous
 62
     7
100
AcDbLine
 10
60.8221595147
 20
176.35
 30
0.0
 11
67.1047787484
 21
176.35
 31
0.0
  0
LINE
  5
171
330
16D
100
AcDbEntity
  8
$DDT_AUDIT_GENERATED_(A0)
  6
Continuous
 62
     7
100
AcDbLine
 10
36.7778295192
 20
176.1520943568
 30
0.0
 11
37.3006250692
 21
126.2306216611
 31
0.0
  0
ARC
  5
172
330
16D
100
AcDbEntity
  8
$DDT_AUDIT_GENERATED_(A0)
  6
Continuous
 62
     7
100
AcDbCircle
 10
48.7
 20
126.35
 30
0.0
 40
11.4
100
AcDbArc
 50
180.6
 51
359.4
  0
LINE
  5
173
330
16D
100
AcDbEntity
  8
$DDT_AUDIT_GENERATED_(A0)
  6
Continuous
 62
     7
100
AcDbLine
 10
60.0993749308
 20
126.2306216611
 30
0.0
 11
60.6221704808
 21
176.1520943568
 31
0.0
  0
ARC
  5
174
330
16D
100
AcDbEntity
  8
$DDT_AUDIT_GENERATED_(A0)
  6
Continuous
 62
     7
100
AcDbCircle
 10
60.8221595147
 20
176.15
 30
0.0
 40
0.2
100
AcDbArc
 50
90.0
 51
179.4
  0
ARC
  5
175
330
16D
100
AcDbEntity
  8
$DDT_AUDIT_GENERATED_(A0)
  6
Continuous
 62
     7
100
AcDbCircle
 10
36.5778404853
 20
176.15
 30
0.0
 40
0.2
100
AcDbArc
 50
0.6
 51
90.0
  0
ARC
  5
176
330
16D
100
AcDbEntity
  8
$DDT_AUDIT_GENERATED_(A0)
  6
Continuous
 62
     7
100
AcDbCircle
 10
48.7
 20
606.35
 30
0.0
 40
500.0
100
AcDbArc
 50
268.0057505618
 51
271.9942494382
  0
ARC
  5
177
330
16D
100
AcDbEntity
  8
$DDT_AUDIT_GENERATED_(A0)
  6
Continuous
 62
     7
100
AcDbCircle
 10
31.3178038806
 20
107.152534804
 30
0.0
 40
0.4999999999999954
100
AcDbArc
 50
180.6
 51
268.0057505615
  0
ARC
  5
178
330
16D
100
AcDbEntity
  8
$DDT_AUDIT_GENERATED_(A0)
  6
Continuous
 62
     7
100
AcDbCircle
 10
66.0821961194
 20
107.152534804
 30
0.0
 40
0.4999999999999175
100
AcDbArc
 50
271.9942494385
 51
359.4
  0
LINE
  5
179
330
16D
100
AcDbEntity
  8
$DDT_AUDIT_GENERATED_(A0)
  6
Continuous
 62
     7
100
AcDbLine
 10
30.0952322178
 20
176.1479056432
 30
0.0
 11
30.8178312959
 21
107.147298912
 31
0.0
  0
LINE
  5
17A
330
16D
100
AcDbEntity
  8
$DDT_AUDIT_GENERATED_(A0)
  6
Continuous
 62
     7
100
AcDbLine
 10
66.5821687041
 20
107.147298912
 30
0.0
 11
67.3047677822
 21
176.1479056432
 31
0.0
  0
ARC
  5
17B
330
16D
100
AcDbEntity
  8
$DDT_AUDIT_GENERATED_(A0)
  6
Continuous
 62
     7
100
AcDbCircle
 10
67.1047787484
 20
176.15
 30
0.0
 40
0.2000000000000009
100
AcDbArc
 50
359.4
 51
90.0
  0
ARC
  5
17C
330
16D
100
AcDbEntity
  8
$DDT_AUDIT_GENERATED_(A0)
  6
Continuous
 62
     7
100
AcDbCircle
 10
30.2952212516
 20
176.15
 30
0.0
 40
0.2000000000000028
100
AcDbArc
 50
90.0
 51
180.6
  0
LINE
  5
17D
330
16D
100
AcDbEntity
  8
$DDT_AUDIT_GENERATED_(BE)
  6
Continuous
 62
     7
100
AcDbLine
 10
6.35
 20
143.65
 30
0.0
 11
6.35
 21
109.05
 31
0.0
  0
LINE
  5
17E
330
16D
100
AcDbEntity
  8
$DDT_AUDIT_GENERATED_(BE)
  6
Continuous
 62
     7
100
AcDbLine
 10
30.4282312796
 20
144.35
 30
0.0
 11
7.05
 21
144.35
 31
0.0
  0
LINE
  5
17F
330
16D
100
AcDbEntity
  8
$DDT_AUDIT_GENERATED_(BE)
  6
Continuous
 62
     7
100
AcDbLine
 10
7.05
 20
108.35
 30
0.0
 11
30.8052361792
 21
108.35
 31
0.0
  0
ARC
  5
180
330
16D
100
AcDbEntity
  8
$DDT_AUDIT_GENERATED_(BE)
  6
Continuous
 62
     7
100
AcDbCircle
 10
7.05
 20
109.05
 30
0.0
 40
0.7000000000000062
100
AcDbArc
 50
180.0
 51
270.0
  0
ARC
  5
181
330
16D
100
AcDbEntity
  8
$DDT_AUDIT_GENERATED_(BE)
  6
Continuous
 62
     7
100
AcDbCircle
 10
7.05
 20
143.65
 30
0.0
 40
0.6999999999999923
100
AcDbArc
 50
90.0
 51
180.0
  0
LINE
  5
183
330
16D
100
AcDbEntity
  8
$DDT_AUDIT_GENERATED_(182)
  6
Continuous
 62
     7
100
AcDbLine
 10
107.836249863
 20
135.35
 30
0.0
 11
106.9591128956
 21
135.35
 31
0.0
  0
LINE
  5
184
330
16D
100
AcDbEntity
  8
$DDT_AUDIT_GENERATED_(182)
  6
Continuous
 62
     7
100
AcDbLine
 10
107.836264431
 20
117.35
 30
0.0
 11
106.9591128956
 21
117.35
 31
0.0
  0
SPLINE
  5
185
330
16D
100
AcDbEntity
  8
$DDT_AUDIT_GENERATED_(182)
  6
Continuous
 62
     7
100
AcDbSpline
210
0.0
220
0.0
230
1.0
 70
     8
 71
     3
 72
    30
 73
    26
 74
     0
 42
0.0000000002432463
 43
0.0000000001
 40
0.0
 40
0.0
 40
0.0
 40
0.0
 40
0.0625000000000002
 40
0.0625000000000002
 40
0.1250000000000004
 40
0.1250000000000004
 40
0.1875000000000004
 40
0.1875000000000004
 40
0.2500000000000004
 40
0.2500000000000004
 40
0.3750000000000003
 40
0.3750000000000003
 40
0.5000000000000002
 40
0.5000000000000002
 40
0.6250000000000002
 40
0.6250000000000002
 40
0.7500000000000001
 40
0.7500000000000001
 40
0.8125000000000001
 40
0.8125000000000001
 40
0.8750000000000001
 40
0.8750000000000001
 40
0.9375000000000001
 40
0.9375000000000001
 40
1.0
 40
1.0
 40
1.0
 40
1.0
 10
102.2468679375678
 20
116.9123713555848
 30
0.0
 10
101.4935188595337
 20
116.5594688177328
 30
0.0
 10
100.6694954645012
 20
116.2895434106365
 30
0.0
 10
98.94860493695823
 20
115.97695401394
 30
0.0
 10
98.0362439690611
 20
115.9357892263832
 30
0.0
 10
96.28205521095073
 20
116.0973397733505
 30
0.0
 10
95.4230855883904
 20
116.2991029766138
 30
0.0
 10
93.85272701412597
 20
116.8800605726957
 30
0.0
 10
93.11633807317787
 20
117.2656533385109
 30
0.0
 10
91.11417896037618
 20
118.6332281852933
 30
0.0
 10
90.00052649685408
 20
119.8554352980873
 30
0.0
 10
88.4083223500596
 20
122.774463138765
 30
0.0
 10
87.92680945203138
 20
124.5402737714274
 30
0.0
 10
87.91738725646306
 20
128.1040047952307
 30
0.0
 10
88.37724743673012
 20
129.8528105802418
 30
0.0
 10
89.98777471583406
 20
132.8365210798248
 30
0.0
 10
91.10033652429433
 20
134.0537509745177
 30
0.0
 10
93.10040640383596
 20
135.4252170507495
 30
0.0
 10
93.83732711732709
 20
135.812962495382
 30
0.0
 10
95.41197175370175
 20
136.398043779671
 30
0.0
 10
96.27048337243191
 20
136.6007068342442
 30
0.0
 10
98.02837420166286
 20
136.7643639444088
 30
0.0
 10
98.9420433763195
 20
136.7237650652531
 30
0.0
 10
100.6658070916119
 20
136.4115965457366
 30
0.0
 10
101.4917897994992
 20
136.141341151632
 30
0.0
 10
102.2468679375678
 20
135.7876286444152
 30
0.0
  0
ARC
  5
186
330
16D
100
AcDbEntity
  8
$DDT_AUDIT_GENERATED_(182)
  6
Continuous
 62
     7
100
AcDbCircle
 10
104.1133893157
 20
113.1515203836
 30
0.0
 40
4.198559525382722
100
AcDbArc
 50
89.6465027617
 51
116.395339754
  0
LINE
  5
187
330
16D
100
AcDbEntity
  8
$DDT_AUDIT_GENERATED_(182)
  6
Continuous
 62
     7
100
AcDbLine
 10
104.139292965
 20
117.35
 30
0.0
 11
106.9591128956
 21
117.35
 31
0.0
  0
LINE
  5
188
330
16D
100
AcDbEntity
  8
$DDT_AUDIT_GENERATED_(182)
  6
Continuous
 62
     7
100
AcDbLine
 10
106.9591128956
 20
117.35
 30
0.0
 11
106.3688963608
 21
117.315582412
 31
0.0
  0
LINE
  5
189
330
16D
100
AcDbEntity
  8
$DDT_AUDIT_GENERATED_(182)
  6
Continuous
 62
     7
100
AcDbLine
 10
106.9591128956
 20
135.35
 30
0.0
 11
104.139292965
 21
135.35
 31
0.0
  0
ARC
  5
18A
330
16D
100
AcDbEntity
  8
$DDT_AUDIT_GENERATED_(182)
  6
Continuous
 62
     7
100
AcDbCircle
 10
104.1133893157
 20
139.5484796164
 30
0.0
 40
4.198559525382572
100
AcDbArc
 50
243.604660246
 51
270.3534972383
  0
LINE
  5
18B
330
16D
100
AcDbEntity
  8
$DDT_AUDIT_GENERATED_(182)
  6
Continuous
 62
     7
100
AcDbLine
 10
106.3688963608
 20
135.384417588
 30
0.0
 11
106.9591128956
 21
135.35
 31
0.0
  0
LINE
  5
18C
330
16D
100
AcDbEntity
  8
$DDT_AUDIT_GENERATED_(182)
  6
Continuous
 62
     7
100
AcDbLine
 10
102.3287198778
 20
116.9701931737
 30
0.0
 11
102.2993029907
 21
116.9561983214
 31
0.0
  0
LINE
  5
18D
330
16D
100
AcDbEntity
  8
$DDT_AUDIT_GENERATED_(E4)
  6
Continuous
 62
     7
100
AcDbLine
 10
111.05
 20
135.35
 30
0.0
 11
107.9775546715
 21
135.35
 31
0.0
  0
ARC
  5
18E
330
16D
100
AcDbEntity
  8
$DDT_AUDIT_GENERATED_(E4)
  6
Continuous
 62
     7
100
AcDbCircle
 10
111.05
 20
116.35
 30
0.0
 40
0.9999999999999936
100
AcDbArc
 50
0.0
 51
90.0
  0
ARC
  5
18F
330
16D
100
AcDbEntity
  8
$DDT_AUDIT_GENERATED_(E4)
  6
Continuous
 62
     7
100
AcDbCircle
 10
111.05
 20
136.35
 30
0.0
 40
1.000000000000006
100
AcDbArc
 50
270.0
 51
0.0
  0
LINE
  5
190
330
16D
100
AcDbEntity
  8
$DDT_AUDIT_GENERATED_(E4)
  6
Continuous
 62
     7
100
AcDbLine
 10
112.05
 20
116.35
 30
0.0
 11
112.05
 21
108.85
 31
0.0
  0
LINE
  5
191
330
16D
100
AcDbEntity
  8
$DDT_AUDIT_GENERATED_(E4)
  6
Continuous
 62
     7
100
AcDbLine
 10
112.05
 20
143.85
 30
0.0
 11
112.05
 21
136.35
 31
0.0
  0
LINE
  5
192
330
16D
100
AcDbEntity
  8
$DDT_AUDIT_GENERATED_(E4)
  6
Continuous
 62
     7
100
AcDbLine
 10
107.9775546715
 20
135.35
 30
0.0
 11
107.8380284741
 21
135.35
 31
0.0
  0
SPLINE
  5
193
330
16D
100
AcDbEntity
  8
$DDT_AUDIT_GENERATED_(E4)
  6
Continuous
 62
     7
100
AcDbSpline
210
0.0
220
0.0
230
1.0
 70
     8
 71
     3
 72
    40
 73
    36
 74
     0
 42
0.0000000001605497
 43
0.0000000001
 40
0.0
 40
0.0
 40
0.0
 40
0.0
 40
0.0625000000000003
 40
0.0625000000000003
 40
0.1250000000000006
 40
0.1250000000000006
 40
0.1562500000000007
 40
0.1562500000000007
 40
0.1875000000000009
 40
0.1875000000000009
 40
0.2500000000000008
 40
0.2500000000000008
 40
0.3125000000000008
 40
0.3125000000000008
 40
0.3750000000000008
 40
0.3750000000000008
 40
0.4375000000000008
 40
0.4375000000000008
 40
0.5000000000000008
 40
0.5000000000000008
 40
0.5625000000000008
 40
0.5625000000000008
 40
0.6250000000000007
 40
0.6250000000000007
 40
0.6875000000000007
 40
0.6875000000000007
 40
0.7500000000000006
 40
0.7500000000000006
 40
0.8125000000000006
 40
0.8125000000000006
 40
0.8750000000000004
 40
0.8750000000000004
 40
0.9375000000000002
 40
0.9375000000000002
 40
1.0
 40
1.0
 40
1.0
 40
1.0
 10
107.4703515922318
 20
135.5020676228545
 30
0.0
 10
106.5933577213605
 20
136.3589477144116
 30
0.0
 10
105.596066319236
 20
137.0902030721631
 30
0.0
 10
103.4206064195118
 20
138.2587156904235
 30
0.0
 10
102.2495455719971
 20
138.7019957494693
 30
0.0
 10
100.2710966922541
 20
139.1238934811461
 30
0.0
 10
99.59818590668796
 20
139.2170852643096
 30
0.0
 10
98.22044145387815
 20
139.3033604805758
 30
0.0
 10
97.51499611621372
 20
139.2943328549039
 30
0.0
 10
95.47328042077591
 20
139.116714768126
 30
0.0
 10
94.17328635604811
 20
138.7983490313038
 30
0.0
 10
91.825946767467
 20
137.8726868071546
 30
0.0
 10
90.74868471429589
 20
137.2579011193194
 30
0.0
 10
88.81991729418107
 20
135.7755381183066
 30
0.0
 10
87.94168262638273
 20
134.8849093024261
 30
0.0
 10
86.45925060282151
 20
132.8477293216262
 30
0.0
 10
85.84200417465513
 20
131.6799638539338
 30
0.0
 10
84.98961466965184
 20
129.1458933964523
 30
0.0
 10
84.75416379286736
 20
127.758158957116
 30
0.0
 10
84.74691487398097
 20
125.0089880386862
 30
0.0
 10
84.97481723582975
 20
123.6192087581395
 30
0.0
 10
85.81715892240207
 20
121.0737515120114
 30
0.0
 10
86.42853571777198
 20
119.9027961983982
 30
0.0
 10
87.91528019655252
 20
117.8433693111034
 30
0.0
 10
88.78164969005566
 20
116.9596526795375
 30
0.0
 10
90.71064368970127
 20
115.4657793218837
 30
0.0
 10
91.78919731830096
 20
114.8463211960939
 30
0.0
 10
94.1279968875022
 20
113.9151501937761
 30
0.0
 10
95.42542144189927
 20
113.5918355789573
 30
0.0
 10
98.15668076924882
 20
113.345594344051
 30
0.0
 10
99.57937267715691
 20
113.4325470726032
 30
0.0
 10
102.2054751099145
 20
113.9847710717846
 30
0.0
 10
103.4083796093587
 20
114.4352492736869
 30
0.0
 10
105.5994764457146
 20
115.6110983648555
 30
0.0
 10
106.5806376371443
 20
116.3286239354142
 30
0.0
 10
107.4703515922318
 20
117.1979323771455
 30
0.0
  0
ARC
  5
194
330
16D
100
AcDbEntity
  8
$DDT_AUDIT_GENERATED_(E4)
  6
Continuous
 62
     7
100
AcDbCircle
 10
107.843382753
 20
135.8834736531
 30
0.0
 40
0.5335005218667112
100
AcDbArc
 50
225.6360038556
 51
269.4249626279
  0
ARC
  5
195
330
16D
100
AcDbEntity
  8
$DDT_AUDIT_GENERATED_(E4)
  6
Continuous
 62
     7
100
AcDbCircle
 10
107.8414783971
 20
116.8211307962
 30
0.0
 40
0.5288804559944529
100
AcDbArc
 50
90.3737469023
 51
134.5652866143
  0
LINE
  5
196
330
16D
100
AcDbEntity
  8
$DDT_AUDIT_GENERATED_(E4)
  6
Continuous
 62
     7
100
AcDbLine
 10
107.9775546715
 20
117.35
 30
0.0
 11
111.05
 21
117.35
 31
0.0
  0
LINE
  5
197
330
16D
100
AcDbEntity
  8
$DDT_AUDIT_GENERATED_(E4)
  6
Continuous
 62
     7
100
AcDbLine
 10
107.8380284741
 20
117.35
 30
0.0
 11
107.9775546715
 21
117.35
 31
0.0
  0
LINE
  5
198
330
16D
100
AcDbEntity
  8
$DDT_AUDIT_GENERATED_(E4)
  6
Continuous
 62
     7
100
AcDbLine
 10
66.5947638208
 20
108.35
 30
0.0
 11
111.55
 21
108.35
 31
0.0
  0
LINE
  5
199
330
16D
100
AcDbEntity
  8
$DDT_AUDIT_GENERATED_(E4)
  6
Continuous
 62
     7
100
AcDbLine
 10
111.55
 20
144.35
 30
0.0
 11
66.9717687204
 21
144.35
 31
0.0
  0
ARC
  5
19A
330
16D
100
AcDbEntity
  8
$DDT_AUDIT_GENERATED_(E4)
  6
Continuous
 62
     7
100
AcDbCircle
 10
111.55
 20
108.85
 30
0.0
 40
0.5000000000000004
100
AcDbArc
 50
270.0
 51
0.0
  0
ARC
  5
19B
330
16D
100
AcDbEntity
  8
$DDT_AUDIT_GENERATED_(E4)
  6
Continuous
 62
     7
100
AcDbCircle
 10
111.55
 20
143.85
 30
0.0
 40
0.5000000000000004
100
AcDbArc
 50
0.0
 51
90.0
  0
ARC
  5
19C
330
16D
100
AcDbEntity
  8
$DDT_AUDIT_GENERATED_(E4)
  6
Continuous
 62
     7
100
AcDbCircle
 10
105.7047518663
 20
116.85
 30
0.0
 40
0.5000000000000004
100
AcDbArc
 50
90.0
 51
130.1111975008
  0
ARC
  5
19D
330
16D
100
AcDbEntity
  8
$DDT_AUDIT_GENERATED_(E4)
  6
Continuous
 62
     7
100
AcDbCircle
 10
105.7047518663
 20
135.85
 30
0.0
 40
0.499999999999992
100
AcDbArc
 50
229.8888024992
 51
270.0
  0
LINE
  5
19E
330
16D
100
AcDbEntity
  8
$DDT_AUDIT_GENERATED_(8F)
  6
Continuous
 62
     7
100
AcDbLine
 10
60.5367774831
 20
176.35
 30
0.0
 11
60.8221595147
 21
176.35
 31
0.0
  0
LINE
  5
19F
330
16D
100
AcDbEntity
  8
$DDT_AUDIT_GENERATED_(8F)
  6
Continuous
 62
     7
100
AcDbLine
 10
36.9373701975
 20
176.35
 30
0.0
 11
60.4632254357
 21
176.35
 31
0.0
  0
LINE
  5
1A0
330
16D
100
AcDbEntity
  8
$DDT_AUDIT_GENERATED_(8F)
  6
Continuous
 62
     7
100
AcDbLine
 10
36.8638070843
 20
176.35
 30
0.0
 11
36.9373701975
 21
176.35
 31
0.0
  0
LINE
  5
1A1
330
16D
100
AcDbEntity
  8
$DDT_AUDIT_GENERATED_(8F)
  6
Continuous
 62
     7
100
AcDbLine
 10
60.4632254357
 20
176.35
 30
0.0
 11
60.5367774831
 21
176.35
 31
0.0
  0
LINE
  5
1A2
330
16D
100
AcDbEntity
  8
$DDT_AUDIT_GENERATED_(8F)
  6
Continuous
 62
     7
100
AcDbLine
 10
60.5367774831
 20
176.35
 30
0.0
 11
60.002061024
 21
125.2902059512
 31
0.0
  0
ARC
  5
1A3
330
16D
100
AcDbEntity
  8
$DDT_AUDIT_GENERATED_(8F)
  6
Continuous
 62
     7
100
AcDbCircle
 10
48.701853257
 20
126.352187318
 30
0.0
 40
11.35
100
AcDbArc
 50
185.1753533805
 51
354.6311731317
  0
LINE
  5
1A4
330
16D
100
AcDbEntity
  8
$DDT_AUDIT_GENERATED_(8F)
  6
Continuous
 62
     7
100
AcDbLine
 10
37.3981238769
 20
125.3283699028
 30
0.0
 11
36.8638070843
 21
176.35
 31
0.0
  0
ARC
  5
1A5
330
16D
100
AcDbEntity
  8
$DDT_AUDIT_GENERATED_(8F)
  6
Continuous
 62
     7
100
AcDbCircle
 10
37.4885758714
 20
124.8146977301
 30
0.0
 40
0.5215751760796016
100
AcDbArc
 50
91.6911215894
 51
99.9867726537
  0
ARC
  5
1A6
330
16D
100
AcDbEntity
  8
$DDT_AUDIT_GENERATED_(8F)
  6
Continuous
 62
     7
100
AcDbCircle
 10
59.9121169182
 20
124.8034192811
 30
0.0
 40
0.4950264683053751
100
AcDbArc
 50
79.5314636749
 51
88.2753674022
  0
LINE
  5
1A7
330
16D
100
AcDbEntity
  8
$DDT_AUDIT_GENERATED_(8F)
  6
Continuous
 62
     7
100
AcDbLine
 10
36.5546625727
 20
176.35
 30
0.0
 11
36.8638070843
 21
176.35
 31
0.0
  0
LINE
  5
1A8
330
16D
100
AcDbEntity
  8
$DDT_AUDIT_GENERATED_(8F)
  6
Continuous
 62
     7
100
AcDbLine
 10
47.75
 20
115.0421707231
 30
0.0
 11
47.75
 21
114.9988912374
 31
0.0
  0
ENDBLK
  5
1AA
330
16D
100
AcDbEntity
  8
0
100
AcDbBlockEnd
  0
ENDSEC
  0
SECTION
  2
ENTITIES
  0
LINE
  5
5E
330
1F
100
AcDbEntity
  8
Default
  6
Continuous
 62
     7
100
AcDbLine
 10
230.7532694148
 20
332.2634923248
 30
0.0
 11
230.7532694148
 21
295.05
 31
0.0
  0
INSERT
  5
60
330
1F
100
AcDbEntity
  8
Default
100
AcDbBlockReference
  2
SEANNOT_GROUP
 10
0.0
 20
0.0
 30
0.0
  0
INSERT
  5
67
330
1F
100
AcDbEntity
  8
Default
100
AcDbBlockReference
  2
SEANNOT_GROUP1
 10
0.0
 20
0.0
 30
0.0
  0
INSERT
  5
71
330
1F
100
AcDbEntity
  8
Default
100
AcDbBlockReference
  2
SEANNOT_GROUP2
 10
0.0
 20
0.0
 30
0.0
  0
INSERT
  5
7B
330
1F
100
AcDbEntity
  8
Default
100
AcDbBlockReference
  2
SEANNOT_GROUP3
 10
0.0
 20
0.0
 30
0.0
  0
INSERT
  5
81
330
1F
100
AcDbEntity
  8
Default
100
AcDbBlockReference
  2
SEANNOT_GROUP4
 10
0.0
 20
0.0
 30
0.0
  0
LINE
  5
86
330
1F
100
AcDbEntity
  8
Default
  6
Continuous
 62
     7
100
AcDbLine
 10
98.0423557138
 20
139.2871192152
 30
0.0
 11
98.0204131373
 21
113.4140575405
 31
0.0
  0
INSERT
  5
88
330
1F
100
AcDbEntity
  8
Default
100
AcDbBlockReference
  2
SEANNOT_GROUP5
 10
0.0
 20
0.0
 30
0.0
  0
INSERT
  5
8E
330
1F
100
AcDbEntity
  8
Default
100
AcDbBlockReference
  2
SE
 10
0.0
 20
0.0
 30
0.0
  0
INSERT
  5
102
330
1F
100
AcDbEntity
  8
Default
100
AcDbBlockReference
  2
SE1
 10
0.0
 20
0.0
 30
0.0
  0
INSERT
  5
16E
330
1F
100
AcDbEntity
  8
Default
100
AcDbBlockReference
  2
SE2
 10
0.0
 20
0.0
 30
0.0
  0
TEXT
  5
1AC
330
1F
100
AcDbEntity
  8
Default
  6
Continuous
 62
     7
100
AcDbText
 10
5.9362635081
 20
53.4225120485
 30
0.0
 40
10.0
  1
Grohe AG^J
  7
SEACAD_seiso_ttf
 11
5.9362635081
 21
63.4225120485
 31
0.0
100
AcDbText
 73
     3
  0
TEXT
  5
1AD
330
1F
100
AcDbEntity
  8
Default
  6
Continuous
 62
     7
100
AcDbText
 10
5.9362635081
 20
37.0588756849
 30
0.0
 40
10.0
  1
 
  7
SEACAD_seiso_ttf
 11
5.9362635081
 21
47.0588756849
 31
0.0
100
AcDbText
 73
     3
  0
TEXT
  5
1AE
330
1F
100
AcDbEntity
  8
Default
  6
Continuous
 62
     7
100
AcDbText
 10
5.9362635081
 20
20.6952393213
 30
0.0
 40
10.0
  1
ecn: 
  7
SEACAD_seiso_ttf
 11
5.9362635081
 21
30.6952393213
 31
0.0
100
AcDbText
 73
     3
  0
TEXT
  5
1AF
330
1F
100
AcDbEntity
  8
Default
  6
Continuous
 62
     7
100
AcDbText
 10
5.9362635081
 20
4.3316029576
 30
0.0
 40
10.0
  1
unit: mm
  7
SEACAD_seiso_ttf
 11
5.9362635081
 21
14.3316029576
 31
0.0
100
AcDbText
 73
     3
  0
LINE
  5
1B0
330
1F
100
AcDbEntity
  8
Default
  6
Continuous
 62
     7
100
AcDbLine
 10
0.0
 20
0.0
 30
0.0
 11
100.0
 21
0.0
 31
0.0
  0
LINE
  5
1B1
330
1F
100
AcDbEntity
  8
Default
  6
Continuous
 62
     7
100
AcDbLine
 10
0.0
 20
0.0
 30
0.0
 11
0.0
 21
100.0
 31
0.0
  0
TEXT
  5
1B2
330
1F
100
AcDbEntity
  8
Default
  6
Continuous
 62
     7
100
AcDbText
 10
24.3923665681
 20
-18.2375342018
 30
0.0
 40
10.0
  1
100 mm
  7
SEACAD_seiso_ttf
 11
24.3923665681
 21
-8.2375342018
 31
0.0
100
AcDbText
 73
     3
  0
TEXT
  5
1B3
330
1F
100
AcDbEntity
  8
Default
  6
Continuous
 62
     7
100
AcDbText
 10
-7.6150308803
 20
24.6231930421
 30
0.0
 40
10.0
  1
100 mm
 50
90.0
  7
SEACAD_seiso_ttf
 11
-17.6150308803
 21
24.6231930421
 31
0.0
100
AcDbText
 73
     3
  0
TEXT
  5
1B4
330
1F
100
AcDbEntity
  8
Default
  6
Continuous
 62
     7
100
AcDbText
 10
28.4878128572
 20
20.0907663715
 30
0.0
 40
10.0
  1
219776
  7
SEACAD_seiso_ttf
 11
28.4878128572
 21
30.0907663715
 31
0.0
100
AcDbText
 73
     3
  0
TEXT
  5
1B5
330
1F
100
AcDbEntity
  8
Default
  6
Continuous
 62
     7
100
AcDbText
 10
5.9012241913
 20
36.7242780188
 30
0.0
 40
10.0
  1
27521000
  7
SEACAD_seiso_ttf
 11
5.9012241913
 21
46.7242780188
 31
0.0
100
AcDbText
 73
     3
  0
ENDSEC
  0
SECTION
  2
OBJECTS
  0
DICTIONARY
  5
C
330
0
100
AcDbDictionary
281
     1
  3
ACAD_GROUP
350
D
  3
ACAD_LAYOUT
350
1A
  3
ACAD_MLEADERSTYLE
350
1B9
  3
ACAD_MLINESTYLE
350
17
  3
ACAD_PLOTSETTINGS
350
19
  3
ACAD_PLOTSTYLENAME
350
E
  3
ACAD_SCALELIST
350
3B
  3
ACAD_TABLESTYLE
350
1B8
  3
ACAD_VISUALSTYLE
350
2A
  3
AcDbVariableDictionary
350
1B6
  0
DICTIONARY
  5
D
102
{ACAD_REACTORS
330
C
102
}
330
C
100
AcDbDictionary
281
     1
  0
DICTIONARY
  5
1A
102
{ACAD_REACTORS
330
C
102
}
330
C
100
AcDbDictionary
281
     1
  3
Layout1
350
1E
  3
Model
350
22
  0
DICTIONARY
  5
1B9
102
{ACAD_REACTORS
330
C
102
}
330
C
100
AcDbDictionary
281
     1
  0
DICTIONARY
  5
17
102
{ACAD_REACTORS
330
C
102
}
330
C
100
AcDbDictionary
281
     1
  3
Standard
350
18
  0
DICTIONARY
  5
19
102
{ACAD_REACTORS
330
C
102
}
330
C
100
AcDbDictionary
281
     1
  0
ACDBDICTIONARYWDFLT
  5
E
102
{ACAD_REACTORS
330
C
102
}
330
C
100
AcDbDictionary
281
     1
  3
Normal
350
F
100
AcDbDictionaryWithDefault
340
F
  0
DICTIONARY
  5
3B
102
{ACAD_REACTORS
330
C
102
}
330
C
100
AcDbDictionary
281
     1
  3
A0
350
3C
  3
A1
350
3D
  3
A2
350
3E
  3
A3
350
3F
  3
A4
350
40
  3
A5
350
41
  3
A6
350
42
  3
A7
350
43
  3
A8
350
44
  3
A9
350
45
  3
B0
350
46
  3
B1
350
47
  3
B2
350
48
  3
B3
350
49
  3
B4
350
4A
  3
B5
350
4B
  3
B6
350
4C
  3
B7
350
4D
  3
B8
350
4E
  3
B9
350
4F
  3
C0
350
50
  3
C1
350
51
  3
C2
350
52
  3
C3
350
53
  3
C4
350
54
  3
C5
350
55
  3
C6
350
56
  3
C7
350
57
  3
C8
350
58
  3
C9
350
59
  3
D0
350
5A
  3
D1
350
5B
  3
D2
350
5C
  0
DICTIONARY
  5
1B8
102
{ACAD_REACTORS
330
C
102
}
330
C
100
AcDbDictionary
281
     1
  0
DICTIONARY
  5
2A
102
{ACAD_REACTORS
330
C
102
}
330
C
100
AcDbDictionary
281
     1
  3
2dWireframe
350
2F
  3
3D Hidden
350
31
  3
3dWireframe
350
30
  3
Basic
350
32
  3
Brighten
350
36
  3
ColorChange
350
3A
  3
Conceptual
350
34
  3
Dim
350
35
  3
Facepattern
350
39
  3
Flat
350
2B
  3
FlatWithEdges
350
2C
  3
Gouraud
350
2D
  3
GouraudWithEdges
350
2E
  3
Linepattern
350
38
  3
Realistic
350
33
  3
Thicken
350
37
  0
DICTIONARY
  5
1B6
102
{ACAD_REACTORS
330
C
102
}
330
C
100
AcDbDictionary
281
     1
  3
CANNOSCALE
350
1B7
  3
PSOLHEIGHT
350
1BB
  3
PSOLWIDTH
350
1BA
  0
LAYOUT
  5
1E
102
{ACAD_REACTORS
330
1A
102
}
330
1A
100
AcDbPlotSettings
  1

  2
none_device
  4

  6

 40
0.0
 41
0.0
 42
0.0
 43
0.0
 44
0.0
 45
0.0
 46
0.0
 47
0.0
 48
0.0
 49
0.0
140
0.0
141
0.0
142
1.0
143
1.0
 70
   688
 72
     0
 73
     0
 74
     5
  7

 75
    16
147
1.0
148
0.0
149
0.0
100
AcDbLayout
  1
Layout1
 70
     1
 71
     1
 10
0.0
 20
0.0
 11
1682.0
 21
2378.0
 12
0.0
 22
0.0
 32
0.0
 14
0.0
 24
0.0
 34
0.0
 15
1682.0
 25
2378.0
 35
0.0
146
0.0
 13
0.0
 23
0.0
 33
0.0
 16
1.0
 26
0.0
 36
0.0
 17
0.0
 27
1.0
 37
0.0
 76
     0
330
1B
  0
LAYOUT
  5
22
102
{ACAD_REACTORS
330
1A
102
}
330
1A
100
AcDbPlotSettings
  1

  2
none_device
  4

  6

 40
0.0
 41
0.0
 42
0.0
 43
0.0
 44
0.0
 45
0.0
 46
0.0
 47
0.0
 48
0.0
 49
0.0
140
0.0
141
0.0
142
1.0
143
1.0
 70
  1712
 72
     0
 73
     0
 74
     0
  7

 75
     0
147
1.0
148
0.0
149
0.0
100
AcDbLayout
  1
Model
 70
     1
 71
     0
 10
0.0
 20
0.0
 11
1682.0
 21
2378.0
 12
0.0
 22
0.0
 32
0.0
 14
0.0
 24
0.0
 34
0.0
 15
1682.0
 25
2378.0
 35
0.0
146
0.0
 13
0.0
 23
0.0
 33
0.0
 16
1.0
 26
0.0
 36
0.0
 17
0.0
 27
1.0
 37
0.0
 76
     0
330
1F
331
29
  0
MLINESTYLE
  5
18
102
{ACAD_REACTORS
330
17
102
}
330
17
100
AcDbMlineStyle
  2
Standard
 70
     0
  3

 62
   256
 51
90.0
 52
90.0
 71
     2
 49
0.5
 62
   256
  6
BYLAYER
 49
-0.5
 62
   256
  6
BYLAYER
  0
ACDBPLACEHOLDER
  5
F
102
{ACAD_REACTORS
330
E
102
}
330
E
  0
SCALE
  5
3C
102
{ACAD_REACTORS
330
3B
102
}
330
3B
100
AcDbScale
 70
     0
300
1:1
140
1.0
141
1.0
290
     1
  0
SCALE
  5
3D
102
{ACAD_REACTORS
330
3B
102
}
330
3B
100
AcDbScale
 70
     0
300
1:2
140
1.0
141
2.0
290
     0
  0
SCALE
  5
3E
102
{ACAD_REACTORS
330
3B
102
}
330
3B
100
AcDbScale
 70
     0
300
1:4
140
1.0
141
4.0
290
     0
  0
SCALE
  5
3F
102
{ACAD_REACTORS
330
3B
102
}
330
3B
100
AcDbScale
 70
     0
300
1:5
140
1.0
141
5.0
290
     0
  0
SCALE
  5
40
102
{ACAD_REACTORS
330
3B
102
}
330
3B
100
AcDbScale
 70
     0
300
1:8
140
1.0
141
8.0
290
     0
  0
SCALE
  5
41
102
{ACAD_REACTORS
330
3B
102
}
330
3B
100
AcDbScale
 70
     0
300
1:10
140
1.0
141
10.0
290
     0
  0
SCALE
  5
42
102
{ACAD_REACTORS
330
3B
102
}
330
3B
100
AcDbScale
 70
     0
300
1:16
140
1.0
141
16.0
290
     0
  0
SCALE
  5
43
102
{ACAD_REACTORS
330
3B
102
}
330
3B
100
AcDbScale
 70
     0
300
1:20
140
1.0
141
20.0
290
     0
  0
SCALE
  5
44
102
{ACAD_REACTORS
330
3B
102
}
330
3B
100
AcDbScale
 70
     0
300
1:30
140
1.0
141
30.0
290
     0
  0
SCALE
  5
45
102
{ACAD_REACTORS
330
3B
102
}
330
3B
100
AcDbScale
 70
     0
300
1:40
140
1.0
141
40.0
290
     0
  0
SCALE
  5
46
102
{ACAD_REACTORS
330
3B
102
}
330
3B
100
AcDbScale
 70
     0
300
1:50
140
1.0
141
50.0
290
     0
  0
SCALE
  5
47
102
{ACAD_REACTORS
330
3B
102
}
330
3B
100
AcDbScale
 70
     0
300
1:100
140
1.0
141
100.0
290
     0
  0
SCALE
  5
48
102
{ACAD_REACTORS
330
3B
102
}
330
3B
100
AcDbScale
 70
     0
300
2:1
140
2.0
141
1.0
290
     0
  0
SCALE
  5
49
102
{ACAD_REACTORS
330
3B
102
}
330
3B
100
AcDbScale
 70
     0
300
4:1
140
4.0
141
1.0
290
     0
  0
SCALE
  5
4A
102
{ACAD_REACTORS
330
3B
102
}
330
3B
100
AcDbScale
 70
     0
300
8:1
140
8.0
141
1.0
290
     0
  0
SCALE
  5
4B
102
{ACAD_REACTORS
330
3B
102
}
330
3B
100
AcDbScale
 70
     0
300
10:1
140
10.0
141
1.0
290
     0
  0
SCALE
  5
4C
102
{ACAD_REACTORS
330
3B
102
}
330
3B
100
AcDbScale
 70
     0
300
100:1
140
100.0
141
1.0
290
     0
  0
SCALE
  5
4D
102
{ACAD_REACTORS
330
3B
102
}
330
3B
100
AcDbScale
 70
     0
300
1/128" = 1'-0"
140
0.0078125
141
12.0
290
     0
  0
SCALE
  5
4E
102
{ACAD_REACTORS
330
3B
102
}
330
3B
100
AcDbScale
 70
     0
300
1/64" = 1'-0"
140
0.015625
141
12.0
290
     0
  0
SCALE
  5
4F
102
{ACAD_REACTORS
330
3B
102
}
330
3B
100
AcDbScale
 70
     0
300
1/32" = 1'-0"
140
0.03125
141
12.0
290
     0
  0
SCALE
  5
50
102
{ACAD_REACTORS
330
3B
102
}
330
3B
100
AcDbScale
 70
     0
300
1/16" = 1'-0"
140
0.0625
141
12.0
290
     0
  0
SCALE
  5
51
102
{ACAD_REACTORS
330
3B
102
}
330
3B
100
AcDbScale
 70
     0
300
3/32" = 1'-0"
140
0.09375
141
12.0
290
     0
  0
SCALE
  5
52
102
{ACAD_REACTORS
330
3B
102
}
330
3B
100
AcDbScale
 70
     0
300
1/8" = 1'-0"
140
0.125
141
12.0
290
     0
  0
SCALE
  5
53
102
{ACAD_REACTORS
330
3B
102
}
330
3B
100
AcDbScale
 70
     0
300
3/16" = 1'-0"
140
0.1875
141
12.0
290
     0
  0
SCALE
  5
54
102
{ACAD_REACTORS
330
3B
102
}
330
3B
100
AcDbScale
 70
     0
300
1/4" = 1'-0"
140
0.25
141
12.0
290
     0
  0
SCALE
  5
55
102
{ACAD_REACTORS
330
3B
102
}
330
3B
100
AcDbScale
 70
     0
300
3/8" = 1'-0"
140
0.375
141
12.0
290
     0
  0
SCALE
  5
56
102
{ACAD_REACTORS
330
3B
102
}
330
3B
100
AcDbScale
 70
     0
300
1/2" = 1'-0"
140
0.5
141
12.0
290
     0
  0
SCALE
  5
57
102
{ACAD_REACTORS
330
3B
102
}
330
3B
100
AcDbScale
 70
     0
300
3/4" = 1'-0"
140
0.75
141
12.0
290
     0
  0
SCALE
  5
58
102
{ACAD_REACTORS
330
3B
102
}
330
3B
100
AcDbScale
 70
     0
300
1" = 1'-0"
140
1.0
141
12.0
290
     0
  0
SCALE
  5
59
102
{ACAD_REACTORS
330
3B
102
}
330
3B
100
AcDbScale
 70
     0
300
1-1/2" = 1'-0"
140
1.5
141
12.0
290
     0
  0
SCALE
  5
5A
102
{ACAD_REACTORS
330
3B
102
}
330
3B
100
AcDbScale
 70
     0
300
3" = 1'-0"
140
3.0
141
12.0
290
     0
  0
SCALE
  5
5B
102
{ACAD_REACTORS
330
3B
102
}
330
3B
100
AcDbScale
 70
     0
300
6" = 1'-0"
140
6.0
141
12.0
290
     0
  0
SCALE
  5
5C
102
{ACAD_REACTORS
330
3B
102
}
330
3B
100
AcDbScale
 70
     0
300
1'-0" = 1'-0"
140
12.0
141
12.0
290
     0
  0
VISUALSTYLE
  5
2F
102
{ACAD_REACTORS
330
2A
102
}
330
2A
100
AcDbVisualStyle
  2
2dWireframe
 70
     4
 71
     0
 72
     2
 73
     0
 90
        0
 40
-0.6
 41
-30.0
 62
     5
 63
     7
 74
     1
 91
        4
 64
     7
 65
   257
 75
     1
175
     1
 42
1.0
 92
        0
 66
   257
 43
1.0
 76
     1
 77
     6
 78
     2
 67
     7
 79
     5
170
     0
171
     0
290
     0
174
     0
 93
        1
 44
0.0
173
     0
291
     0
 45
0.0
1001
ACAD
1000
AcDbSavedByObjectVersion
1070
     0
  0
VISUALSTYLE
  5
31
102
{ACAD_REACTORS
330
2A
102
}
330
2A
100
AcDbVisualStyle
  2
3D Hidden
 70
     6
 71
     1
 72
     2
 73
     2
 90
        0
 40
-0.6
 41
-30.0
 62
     5
 63
     7
 74
     2
 91
        2
 64
     7
 65
   257
 75
     2
175
     1
 42
40.0
 92
        0
 66
   257
 43
1.0
 76
     1
 77
     6
 78
     2
 67
     7
 79
     3
170
     0
171
     0
290
     0
174
     0
 93
        1
 44
0.0
173
     0
291
     0
 45
0.0
1001
ACAD
1000
AcDbSavedByObjectVersion
1070
     0
  0
VISUALSTYLE
  5
30
102
{ACAD_REACTORS
330
2A
102
}
330
2A
100
AcDbVisualStyle
  2
3dWireframe
 70
     5
 71
     0
 72
     2
 73
     0
 90
        0
 40
-0.6
 41
-30.0
 62
     5
 63
     7
 74
     1
 91
        4
 64
     7
 65
   257
 75
     1
175
     1
 42
1.0
 92
        0
 66
   257
 43
1.0
 76
     1
 77
     6
 78
     2
 67
     7
 79
     5
170
     0
171
     0
290
     0
174
     0
 93
        1
 44
0.0
173
     0
291
     0
 45
0.0
1001
ACAD
1000
AcDbSavedByObjectVersion
1070
     0
  0
VISUALSTYLE
  5
32
102
{ACAD_REACTORS
330
2A
102
}
330
2A
100
AcDbVisualStyle
  2
Basic
 70
     7
 71
     1
 72
     0
 73
     1
 90
        0
 40
-0.6
 41
-30.0
 62
     5
 63
     7
 74
     0
 91
        4
 64
     7
 65
   257
 75
     1
175
     1
 42
1.0
 92
        8
 66
     7
 43
1.0
 76
     1
 77
     6
 78
     2
 67
     7
 79
     5
170
     0
171
     0
290
     0
174
     0
 93
        1
 44
0.0
173
     0
291
     1
 45
0.0
1001
ACAD
1000
AcDbSavedByObjectVersion
1070
     0
  0
VISUALSTYLE
  5
36
102
{ACAD_REACTORS
330
2A
102
}
330
2A
100
AcDbVisualStyle
  2
Brighten
 70
    12
 71
     2
 72
     2
 73
     0
 90
        0
 40
-0.6
 41
-30.0
 62
     5
 63
     7
 74
     1
 91
        4
 64
     7
 65
   257
 75
     1
175
     1
 42
1.0
 92
        8
 66
     7
 43
1.0
 76
     1
 77
     6
 78
     2
 67
     7
 79
     5
170
     0
171
     0
290
     0
174
     0
 93
        1
 44
50.0
173
     0
291
     1
 45
0.0
1001
ACAD
1000
AcDbSavedByObjectVersion
1070
     0
  0
VISUALSTYLE
  5
3A
102
{ACAD_REACTORS
330
2A
102
}
330
2A
100
AcDbVisualStyle
  2
ColorChange
 70
    16
 71
     2
 72
     2
 73
     3
 90
        0
 40
-0.6
 41
-30.0
 62
     5
 63
     8
 74
     1
 91
        4
 64
     7
 65
   257
 75
     1
175
     1
 42
1.0
 92
        8
 66
     8
 43
1.0
 76
     1
 77
     6
 78
     2
 67
     7
 79
     5
170
     0
171
     0
290
     0
174
     0
 93
        1
 44
0.0
173
     0
291
     1
 45
0.0
1001
ACAD
1000
AcDbSavedByObjectVersion
1070
     0
  0
VISUALSTYLE
  5
34
102
{ACAD_REACTORS
330
2A
102
}
330
2A
100
AcDbVisualStyle
  2
Conceptual
 70
     9
 71
     3
 72
     2
 73
     0
 90
        0
 40
-0.6
 41
-30.0
 62
     5
 63
     7
 74
     2
 91
        2
 64
     7
 65
   257
 75
     1
175
     1
 42
40.0
 92
        8
 66
     7
 43
1.0
 76
     1
 77
     6
 78
     2
 67
     7
 79
     3
170
     0
171
     0
290
     0
174
     0
 93
        1
 44
0.0
173
     0
291
     0
 45
0.0
1001
ACAD
1000
AcDbSavedByObjectVersion
1070
     0
  0
VISUALSTYLE
  5
35
102
{ACAD_REACTORS
330
2A
102
}
330
2A
100
AcDbVisualStyle
  2
Dim
 70
    11
 71
     2
 72
     2
 73
     0
 90
        0
 40
-0.6
 41
-30.0
 62
     5
 63
     7
 74
     1
 91
        4
 64
     7
 65
   257
 75
     1
175
     1
 42
1.0
 92
        8
 66
     7
 43
1.0
 76
     1
 77
     6
 78
     2
 67
     7
 79
     5
170
     0
171
     0
290
     0
174
     0
 93
        1
 44
-50.0
173
     0
291
     1
 45
0.0
1001
ACAD
1000
AcDbSavedByObjectVersion
1070
     0
  0
VISUALSTYLE
  5
39
102
{ACAD_REACTORS
330
2A
102
}
330
2A
100
AcDbVisualStyle
  2
Facepattern
 70
    15
 71
     2
 72
     2
 73
     0
 90
        0
 40
-0.6
 41
-30.0
 62
     5
 63
     7
 74
     1
 91
        4
 64
     7
 65
   257
 75
     1
175
     1
 42
1.0
 92
        8
 66
     7
 43
1.0
 76
     1
 77
     6
 78
     2
 67
     7
 79
     5
170
     0
171
     0
290
     0
174
     0
 93
        1
 44
0.0
173
     0
291
     1
 45
0.0
1001
ACAD
1000
AcDbSavedByObjectVersion
1070
     0
  0
VISUALSTYLE
  5
2B
102
{ACAD_REACTORS
330
2A
102
}
330
2A
100
AcDbVisualStyle
  2
Flat
 70
     0
 71
     2
 72
     1
 73
     1
 90
        2
 40
-0.6
 41
30.0
 62
     5
 63
     7
 74
     0
 91
        4
 64
     7
 65
   257
 75
     1
175
     1
 42
1.0
 92
        8
 66
     7
 43
1.0
 76
     1
 77
     6
 78
     2
 67
     7
 79
     5
170
     0
171
     0
290
     0
174
     0
 93
       13
 44
0.0
173
     0
291
     1
 45
0.0
1001
ACAD
1000
AcDbSavedByObjectVersion
1070
     0
  0
VISUALSTYLE
  5
2C
102
{ACAD_REACTORS
330
2A
102
}
330
2A
100
AcDbVisualStyle
  2
FlatWithEdges
 70
     1
 71
     2
 72
     1
 73
     1
 90
        2
 40
-0.6
 41
30.0
 62
     5
 63
     7
 74
     1
 91
        4
 64
     7
 65
   257
 75
     1
175
     1
 42
1.0
 92
        0
 66
   257
 43
1.0
 76
     1
 77
     6
 78
     2
 67
     7
 79
     5
170
     0
171
     0
290
     0
174
     0
 93
       13
 44
0.0
173
     0
291
     1
 45
0.0
1001
ACAD
1000
AcDbSavedByObjectVersion
1070
     0
  0
VISUALSTYLE
  5
2D
102
{ACAD_REACTORS
330
2A
102
}
330
2A
100
AcDbVisualStyle
  2
Gouraud
 70
     2
 71
     2
 72
     2
 73
     1
 90
        2
 40
-0.6
 41
30.0
 62
     5
 63
     7
 74
     0
 91
        4
 64
     7
 65
   257
 75
     1
175
     1
 42
1.0
 92
        0
 66
     7
 43
1.0
 76
     1
 77
     6
 78
     2
 67
     7
 79
     5
170
     0
171
     0
290
     0
174
     0
 93
       13
 44
0.0
173
     0
291
     1
 45
0.0
1001
ACAD
1000
AcDbSavedByObjectVersion
1070
     0
  0
VISUALSTYLE
  5
2E
102
{ACAD_REACTORS
330
2A
102
}
330
2A
100
AcDbVisualStyle
  2
GouraudWithEdges
 70
     3
 71
     2
 72
     2
 73
     1
 90
        2
 40
-0.6
 41
30.0
 62
     5
 63
     7
 74
     1
 91
        4
 64
     7
 65
   257
 75
     1
175
     1
 42
1.0
 92
        0
 66
   257
 43
1.0
 76
     1
 77
     6
 78
     2
 67
     7
 79
     5
170
     0
171
     0
290
     0
174
     0
 93
       13
 44
0.0
173
     0
291
     1
 45
0.0
1001
ACAD
1000
AcDbSavedByObjectVersion
1070
     0
  0
VISUALSTYLE
  5
38
102
{ACAD_REACTORS
330
2A
102
}
330
2A
100
AcDbVisualStyle
  2
Linepattern
 70
    14
 71
     2
 72
     2
 73
     0
 90
        0
 40
-0.6
 41
-30.0
 62
     5
 63
     7
 74
     1
 91
        4
 64
     7
 65
   257
 75
     7
175
     7
 42
1.0
 92
        8
 66
     7
 43
1.0
 76
     1
 77
     6
 78
     2
 67
     7
 79
     5
170
     0
171
     0
290
     0
174
     0
 93
        1
 44
0.0
173
     0
291
     1
 45
0.0
1001
ACAD
1000
AcDbSavedByObjectVersion
1070
     0
  0
VISUALSTYLE
  5
33
102
{ACAD_REACTORS
330
2A
102
}
330
2A
100
AcDbVisualStyle
  2
Realistic
 70
     8
 71
     2
 72
     2
 73
     0
 90
        0
 40
-0.6
 41
-30.0
 62
     5
 63
     7
 74
     1
 91
        0
 64
     7
 65
   257
 75
     1
175
     1
 42
1.0
 92
        8
 66
     8
 43
1.0
 76
     1
 77
     6
 78
     2
 67
     7
 79
     5
170
     0
171
     0
290
     0
174
     0
 93
       13
 44
0.0
173
     0
291
     0
 45
0.0
1001
ACAD
1000
AcDbSavedByObjectVersion
1070
     0
  0
VISUALSTYLE
  5
37
102
{ACAD_REACTORS
330
2A
102
}
330
2A
100
AcDbVisualStyle
  2
Thicken
 70
    13
 71
     2
 72
     2
 73
     0
 90
        0
 40
-0.6
 41
-30.0
 62
     5
 63
     7
 74
     1
 91
        4
 64
     7
 65
   257
 75
     1
175
     1
 42
1.0
 92
       12
 66
     7
 43
1.0
 76
     1
 77
     6
 78
     2
 67
     7
 79
     5
170
     0
171
     0
290
     0
174
     0
 93
        1
 44
0.0
173
     0
291
     1
 45
0.0
1001
ACAD
1000
AcDbSavedByObjectVersion
1070
     0
  0
DICTIONARYVAR
  5
1B7
102
{ACAD_REACTORS
330
1B6
102
}
330
1B6
100
DictionaryVariables
280
     0
  1
1:1
  0
DICTIONARYVAR
  5
1BB
102
{ACAD_REACTORS
330
1B6
102
}
330
1B6
100
DictionaryVariables
280
     0
  1
80.000000
  0
DICTIONARYVAR
  5
1BA
102
{ACAD_REACTORS
330
1B6
102
}
330
1B6
100
DictionaryVariables
280
     0
  1
5.000000
  0
ENDSEC
  0
EOF
