  0
SECTION
  2
HEADER
  9
$ACADVER
  1
AC1015
  9
$ACADMAINTVER
 70
     6
  9
$DWGCODEPAGE
  3
ANSI_1252
  9
$INSBASE
 10
0.0
 20
0.0
 30
0.0
  9
$EXTMIN
 10
0.0
 20
0.0
 30
0.0
  9
$EXTMAX
 10
1682.0
 20
2378.0
 30
0.0
  9
$LIMMIN
 10
0.0
 20
0.0
  9
$LIMMAX
 10
1682.0
 20
2378.0
  9
$ORTHOMODE
 70
     0
  9
$REGENMODE
 70
     1
  9
$FILLMODE
 70
     1
  9
$QTEXTMODE
 70
     0
  9
$MIRRTEXT
 70
     1
  9
$LTSCALE
 40
1.0
  9
$ATTMODE
 70
     1
  9
$TEXTSIZE
 40
2.5
  9
$TRACEWID
 40
1.0
  9
$TEXTSTYLE
  7
Standard
  9
$CLAYER
  8
0
  9
$CELTYPE
  6
ByLayer
  9
$CECOLOR
 62
   256
  9
$CELTSCALE
 40
1.0
  9
$DISPSILH
 70
     0
  9
$DIMSCALE
 40
1.0
  9
$DIMASZ
 40
2.5
  9
$DIMEXO
 40
0.625
  9
$DIMDLI
 40
3.75
  9
$DIMRND
 40
0.0
  9
$DIMDLE
 40
0.0
  9
$DIMEXE
 40
1.25
  9
$DIMTP
 40
0.0
  9
$DIMTM
 40
0.0
  9
$DIMTXT
 40
2.5
  9
$DIMCEN
 40
2.5
  9
$DIMTSZ
 40
0.0
  9
$DIMTOL
 70
     0
  9
$DIMLIM
 70
     0
  9
$DIMTIH
 70
     0
  9
$DIMTOH
 70
     0
  9
$DIMSE1
 70
     0
  9
$DIMSE2
 70
     0
  9
$DIMTAD
 70
     1
  9
$DIMZIN
 70
     8
  9
$DIMBLK
  1

  9
$DIMASO
 70
     1
  9
$DIMSHO
 70
     1
  9
$DIMPOST
  1

  9
$DIMAPOST
  1

  9
$DIMALT
 70
     0
  9
$DIMALTD
 70
     3
  9
$DIMALTF
 40
0.0393700787
  9
$DIMLFAC
 40
1.0
  9
$DIMTOFL
 70
     1
  9
$DIMTVP
 40
0.0
  9
$DIMTIX
 70
     0
  9
$DIMSOXD
 70
     0
  9
$DIMSAH
 70
     0
  9
$DIMBLK1
  1

  9
$DIMBLK2
  1

  9
$DIMSTYLE
  2
ISO-25
  9
$DIMCLRD
 70
     0
  9
$DIMCLRE
 70
     0
  9
$DIMCLRT
 70
     0
  9
$DIMTFAC
 40
1.0
  9
$DIMGAP
 40
0.625
  9
$DIMJUST
 70
     0
  9
$DIMSD1
 70
     0
  9
$DIMSD2
 70
     0
  9
$DIMTOLJ
 70
     0
  9
$DIMTZIN
 70
     8
  9
$DIMALTZ
 70
     0
  9
$DIMALTTZ
 70
     0
  9
$DIMUPT
 70
     0
  9
$DIMDEC
 70
     2
  9
$DIMTDEC
 70
     2
  9
$DIMALTU
 70
     2
  9
$DIMALTTD
 70
     3
  9
$DIMTXSTY
  7
Standard
  9
$DIMAUNIT
 70
     0
  9
$DIMADEC
 70
     0
  9
$DIMALTRND
 40
0.0
  9
$DIMAZIN
 70
     0
  9
$DIMDSEP
 70
    44
  9
$DIMATFIT
 70
     3
  9
$DIMFRAC
 70
     0
  9
$DIMLDRBLK
  1

  9
$DIMLUNIT
 70
     2
  9
$DIMLWD
 70
    -2
  9
$DIMLWE
 70
    -2
  9
$DIMTMOVE
 70
     0
  9
$LUNITS
 70
     2
  9
$LUPREC
 70
     4
  9
$SKETCHINC
 40
1.0
  9
$FILLETRAD
 40
10.0
  9
$AUNITS
 70
     0
  9
$AUPREC
 70
     0
  9
$MENU
  1
.
  9
$ELEVATION
 40
0.0
  9
$PELEVATION
 40
0.0
  9
$THICKNESS
 40
0.0
  9
$LIMCHECK
 70
     0
  9
$CHAMFERA
 40
10.0
  9
$CHAMFERB
 40
10.0
  9
$CHAMFERC
 40
20.0
  9
$CHAMFERD
 40
0.0
  9
$SKPOLY
 70
     0
  9
$TDCREATE
 40
2455575.486623252
  9
$TDUCREATE
 40
2455575.444956586
  9
$TDUPDATE
 40
2455575.486623264
  9
$TDUUPDATE
 40
2455575.444956597
  9
$TDINDWG
 40
0.0000000116
  9
$TDUSRTIMER
 40
0.0000000116
  9
$USRTIMER
 70
     1
  9
$ANGBASE
 50
0.0
  9
$ANGDIR
 70
     0
  9
$PDMODE
 70
     0
  9
$PDSIZE
 40
0.0
  9
$PLINEWID
 40
0.0
  9
$SPLFRAME
 70
     0
  9
$SPLINETYPE
 70
     6
  9
$SPLINESEGS
 70
     8
  9
$HANDSEED
  5
3BB
  9
$SURFTAB1
 70
     6
  9
$SURFTAB2
 70
     6
  9
$SURFTYPE
 70
     6
  9
$SURFU
 70
     6
  9
$SURFV
 70
     6
  9
$UCSBASE
  2

  9
$UCSNAME
  2

  9
$UCSORG
 10
0.0
 20
0.0
 30
0.0
  9
$UCSXDIR
 10
1.0
 20
0.0
 30
0.0
  9
$UCSYDIR
 10
0.0
 20
1.0
 30
0.0
  9
$UCSORTHOREF
  2

  9
$UCSORTHOVIEW
 70
     0
  9
$UCSORGTOP
 10
0.0
 20
0.0
 30
0.0
  9
$UCSORGBOTTOM
 10
0.0
 20
0.0
 30
0.0
  9
$UCSORGLEFT
 10
0.0
 20
0.0
 30
0.0
  9
$UCSORGRIGHT
 10
0.0
 20
0.0
 30
0.0
  9
$UCSORGFRONT
 10
0.0
 20
0.0
 30
0.0
  9
$UCSORGBACK
 10
0.0
 20
0.0
 30
0.0
  9
$PUCSBASE
  2

  9
$PUCSNAME
  2

  9
$PUCSORG
 10
0.0
 20
0.0
 30
0.0
  9
$PUCSXDIR
 10
1.0
 20
0.0
 30
0.0
  9
$PUCSYDIR
 10
0.0
 20
1.0
 30
0.0
  9
$PUCSORTHOREF
  2

  9
$PUCSORTHOVIEW
 70
     0
  9
$PUCSORGTOP
 10
0.0
 20
0.0
 30
0.0
  9
$PUCSORGBOTTOM
 10
0.0
 20
0.0
 30
0.0
  9
$PUCSORGLEFT
 10
0.0
 20
0.0
 30
0.0
  9
$PUCSORGRIGHT
 10
0.0
 20
0.0
 30
0.0
  9
$PUCSORGFRONT
 10
0.0
 20
0.0
 30
0.0
  9
$PUCSORGBACK
 10
0.0
 20
0.0
 30
0.0
  9
$USERI1
 70
     0
  9
$USERI2
 70
     0
  9
$USERI3
 70
     0
  9
$USERI4
 70
     0
  9
$USERI5
 70
     0
  9
$USERR1
 40
0.0
  9
$USERR2
 40
0.0
  9
$USERR3
 40
0.0
  9
$USERR4
 40
0.0
  9
$USERR5
 40
0.0
  9
$WORLDVIEW
 70
     1
  9
$SHADEDGE
 70
     3
  9
$SHADEDIF
 70
    70
  9
$TILEMODE
 70
     1
  9
$MAXACTVP
 70
    64
  9
$PINSBASE
 10
0.0
 20
0.0
 30
0.0
  9
$PLIMCHECK
 70
     0
  9
$PEXTMIN
 10
0.0
 20
0.0
 30
0.0
  9
$PEXTMAX
 10
1682.0
 20
2378.0
 30
0.0
  9
$PLIMMIN
 10
0.0
 20
0.0
  9
$PLIMMAX
 10
1682.0
 20
2378.0
  9
$UNITMODE
 70
     0
  9
$VISRETAIN
 70
     1
  9
$PLINEGEN
 70
     0
  9
$PSLTSCALE
 70
     1
  9
$TREEDEPTH
 70
  3020
  9
$CMLSTYLE
  2
Standard
  9
$CMLJUST
 70
     0
  9
$CMLSCALE
 40
20.0
  9
$PROXYGRAPHICS
 70
     1
  9
$MEASUREMENT
 70
     1
  9
$CELWEIGHT
370
    -1
  9
$ENDCAPS
280
     0
  9
$JOINSTYLE
280
     0
  9
$LWDISPLAY
290
     0
  9
$INSUNITS
 70
     4
  9
$HYPERLINKBASE
  1

  9
$STYLESHEET
  1

  9
$XEDIT
290
     1
  9
$CEPSNTYPE
380
     0
  9
$PSTYLEMODE
290
     1
  9
$FINGERPRINTGUID
  2
{FC9AA116-31AB-4D07-B373-4EF77F7D7506}
  9
$VERSIONGUID
  2
{FAEB1C32-E019-11D5-929B-00C0DF256EC4}
  9
$EXTNAMES
290
     1
  9
$PSVPSCALE
 40
0.0
  9
$OLESTARTUP
290
     0
  0
ENDSEC
  0
SECTION
  2
CLASSES
  0
CLASS
  1
ACDBDICTIONARYWDFLT
  2
AcDbDictionaryWithDefault
  3
ObjectDBX Classes
 90
        0
280
     0
281
     0
  0
CLASS
  1
VISUALSTYLE
  2
AcDbVisualStyle
  3
ObjectDBX Classes
 90
     4095
280
     0
281
     0
  0
CLASS
  1
SCALE
  2
AcDbScale
  3
ObjectDBX Classes
 90
     1153
280
     0
281
     0
  0
CLASS
  1
DICTIONARYVAR
  2
AcDbDictionaryVar
  3
ObjectDBX Classes
 90
        0
280
     0
281
     0
  0
CLASS
  1
ACDBPLACEHOLDER
  2
AcDbPlaceHolder
  3
ObjectDBX Classes
 90
        0
280
     0
281
     0
  0
CLASS
  1
LAYOUT
  2
AcDbLayout
  3
ObjectDBX Classes
 90
        0
280
     0
281
     0
  0
ENDSEC
  0
SECTION
  2
TABLES
  0
TABLE
  2
VPORT
  5
8
330
0
100
AcDbSymbolTable
 70
     1
  0
VPORT
  5
29
330
8
100
AcDbSymbolTableRecord
100
AcDbViewportTableRecord
  2
*Active
 70
     0
 10
0.0
 20
0.0
 11
1.0
 21
1.0
 12
344.1869158879
 22
148.5
 13
0.0
 23
0.0
 14
10.0
 24
10.0
 15
10.0
 25
10.0
 16
0.0
 26
0.0
 36
1.0
 17
0.0
 27
0.0
 37
0.0
 40
297.0
 41
1.9729729729
 42
50.0
 43
0.0
 44
0.0
 50
0.0
 51
0.0
 71
     0
 72
   100
 73
     1
 74
     3
 75
     0
 76
     0
 77
     0
 78
     0
281
     0
 65
     1
110
0.0
120
0.0
130
0.0
111
1.0
121
0.0
131
0.0
112
0.0
122
1.0
132
0.0
 79
     0
146
0.0
  0
ENDTAB
  0
TABLE
  2
LTYPE
  5
5
330
0
100
AcDbSymbolTable
 70
     2
  0
LTYPE
  5
14
330
5
100
AcDbSymbolTableRecord
100
AcDbLinetypeTableRecord
  2
ByBlock
 70
     0
  3

 72
    65
 73
     0
 40
0.0
  0
LTYPE
  5
15
330
5
100
AcDbSymbolTableRecord
100
AcDbLinetypeTableRecord
  2
ByLayer
 70
     0
  3

 72
    65
 73
     0
 40
0.0
  0
LTYPE
  5
16
330
5
100
AcDbSymbolTableRecord
100
AcDbLinetypeTableRecord
  2
Continuous
 70
     0
  3
Solid line
 72
    65
 73
     0
 40
0.0
  0
LTYPE
  5
60
330
5
100
AcDbSymbolTableRecord
100
AcDbLinetypeTableRecord
  2
CENTER2
 70
     0
  3
Center (.5x) ___ _ ___ _ ___ _ ___ _ ___ _ ___
 72
    65
 73
     4
 40
28.575
 49
19.05
 74
     4
 75
     0
340
0
 46
0.0
 50
0.0
 44
0.0
 45
0.0
 49
-3.175
 74
     4
 75
     0
340
0
 46
0.0
 50
0.0
 44
0.0
 45
0.0
 49
3.175
 74
     4
 75
     0
340
0
 46
0.0
 50
0.0
 44
0.0
 45
0.0
 49
-3.175
 74
     4
 75
     0
340
0
 46
0.0
 50
0.0
 44
0.0
 45
0.0
  0
ENDTAB
  0
TABLE
  2
LAYER
  5
2
330
0
100
AcDbSymbolTable
 70
     9
  0
LAYER
  5
10
330
2
100
AcDbSymbolTableRecord
100
AcDbLayerTableRecord
  2
0
 70
     0
 62
     7
  6
Continuous
370
    -3
390
F
  0
LAYER
  5
5D
330
2
100
AcDbSymbolTableRecord
100
AcDbLayerTableRecord
  2
Default
 70
     0
 62
     7
  6
Continuous
370
    -3
390
F
  0
LAYER
  5
77
330
2
100
AcDbSymbolTableRecord
100
AcDbLayerTableRecord
  2
$DDT_AUDIT_GENERATED_(77)
 70
     0
 62
     7
  6
Continuous
370
    -3
390
F
  0
LAYER
  5
83
330
2
100
AcDbSymbolTableRecord
100
AcDbLayerTableRecord
  2
$DDT_AUDIT_GENERATED_(83)
 70
     0
 62
     7
  6
Continuous
370
    -3
390
F
  0
LAYER
  5
85
330
2
100
AcDbSymbolTableRecord
100
AcDbLayerTableRecord
  2
$DDT_AUDIT_GENERATED_(85)
 70
     0
 62
     7
  6
Continuous
370
    -3
390
F
  0
LAYER
  5
8C
330
2
100
AcDbSymbolTableRecord
100
AcDbLayerTableRecord
  2
$DDT_AUDIT_GENERATED_(8C)
 70
     0
 62
     7
  6
Continuous
370
    -3
390
F
  0
LAYER
  5
30B
330
2
100
AcDbSymbolTableRecord
100
AcDbLayerTableRecord
  2
$DDT_AUDIT_GENERATED_(30B)
 70
     0
 62
     7
  6
Continuous
370
    -3
390
F
  0
LAYER
  5
326
330
2
100
AcDbSymbolTableRecord
100
AcDbLayerTableRecord
  2
$DDT_AUDIT_GENERATED_(326)
 70
     0
 62
     7
  6
Continuous
370
    -3
390
F
  0
LAYER
  5
328
330
2
100
AcDbSymbolTableRecord
100
AcDbLayerTableRecord
  2
$DDT_AUDIT_GENERATED_(328)
 70
     0
 62
     7
  6
Continuous
370
    -3
390
F
  0
ENDTAB
  0
TABLE
  2
STYLE
  5
3
330
0
100
AcDbSymbolTable
 70
     2
  0
STYLE
  5
11
330
3
100
AcDbSymbolTableRecord
100
AcDbTextStyleTableRecord
  2
Standard
 70
     0
 40
0.0
 41
1.0
 50
0.0
 71
     0
 42
2.5
  3
txt
  4

  0
STYLE
  5
3AA
330
3
100
AcDbSymbolTableRecord
100
AcDbTextStyleTableRecord
  2
SEACAD_seiso_ttf
 70
     0
 40
0.0
 41
1.0
 50
0.0
 71
     0
 42
0.2
  3
seiso.ttf
  4

  0
ENDTAB
  0
TABLE
  2
VIEW
  5
6
330
0
100
AcDbSymbolTable
 70
     0
  0
ENDTAB
  0
TABLE
  2
UCS
  5
7
330
0
100
AcDbSymbolTable
 70
     0
  0
ENDTAB
  0
TABLE
  2
APPID
  5
9
330
0
100
AcDbSymbolTable
 70
     1
  0
APPID
  5
12
330
9
100
AcDbSymbolTableRecord
100
AcDbRegAppTableRecord
  2
ACAD
 70
     0
  0
ENDTAB
  0
TABLE
  2
DIMSTYLE
  5
A
330
0
100
AcDbSymbolTable
 70
     1
100
AcDbDimStyleTable
  0
DIMSTYLE
105
27
330
A
100
AcDbSymbolTableRecord
100
AcDbDimStyleTableRecord
  2
ISO-25
 70
     0
 41
2.5
 42
0.625
 43
3.75
 44
1.25
 73
     0
 74
     0
 77
     1
 78
     8
140
2.5
141
2.5
143
0.0393700787
147
0.625
171
     3
172
     1
271
     2
272
     2
274
     3
278
    44
283
     0
284
     8
340
11
  0
ENDTAB
  0
TABLE
  2
BLOCK_RECORD
  5
1
330
0
100
AcDbSymbolTable
 70
     7
  0
BLOCK_RECORD
  5
1F
330
1
100
AcDbSymbolTableRecord
100
AcDbBlockTableRecord
  2
*Model_Space
340
22
  0
BLOCK_RECORD
  5
1B
330
1
100
AcDbSymbolTableRecord
100
AcDbBlockTableRecord
  2
*Paper_Space
340
1E
  0
BLOCK_RECORD
  5
5E
330
1
100
AcDbSymbolTableRecord
100
AcDbBlockTableRecord
  2
SEANNOT_GROUP
340
0
102
{BLKREFS
331
5F
102
}
  0
BLOCK_RECORD
  5
65
330
1
100
AcDbSymbolTableRecord
100
AcDbBlockTableRecord
  2
SEANNOT_GROUP1
340
0
102
{BLKREFS
331
66
102
}
  0
BLOCK_RECORD
  5
6B
330
1
100
AcDbSymbolTableRecord
100
AcDbBlockTableRecord
  2
SEANNOT_GROUP2
340
0
102
{BLKREFS
331
6C
102
}
  0
BLOCK_RECORD
  5
75
330
1
100
AcDbSymbolTableRecord
100
AcDbBlockTableRecord
  2
SE
340
0
102
{BLKREFS
331
76
102
}
  0
BLOCK_RECORD
  5
330
330
1
100
AcDbSymbolTableRecord
100
AcDbBlockTableRecord
  2
SE1
340
0
102
{BLKREFS
331
331
102
}
  0
BLOCK_RECORD
  5
383
330
1
100
AcDbSymbolTableRecord
100
AcDbBlockTableRecord
  2
SE2
340
0
102
{BLKREFS
331
384
102
}
  0
ENDTAB
  0
ENDSEC
  0
SECTION
  2
BLOCKS
  0
BLOCK
  5
20
330
1F
100
AcDbEntity
  8
0
100
AcDbBlockBegin
  2
*Model_Space
 70
     0
 10
0.0
 20
0.0
 30
0.0
  3
*Model_Space
  1

  0
ENDBLK
  5
21
330
1F
100
AcDbEntity
  8
0
100
AcDbBlockEnd
  0
BLOCK
  5
1C
330
1B
100
AcDbEntity
 67
     1
  8
0
100
AcDbBlockBegin
  2
*Paper_Space
 70
     0
 10
0.0
 20
0.0
 30
0.0
  3
*Paper_Space
  1

  0
ENDBLK
  5
1D
330
1B
100
AcDbEntity
 67
     1
  8
0
100
AcDbBlockEnd
  0
BLOCK
  5
63
330
5E
100
AcDbEntity
  8
0
100
AcDbBlockBegin
  2
SEANNOT_GROUP
 70
     0
 10
0.0
 20
0.0
 30
0.0
  3
SEANNOT_GROUP
  1

  0
LINE
  5
61
330
5E
100
AcDbEntity
  8
Default
  6
CENTER2
 62
     7
100
AcDbLine
 10
51.349999553
 20
359.383871038
 30
0.0
 11
11.350000447
 21
359.383871038
 31
0.0
  0
LINE
  5
62
330
5E
100
AcDbEntity
  8
Default
  6
CENTER2
 62
     7
100
AcDbLine
 10
31.35
 20
379.3838705909
 30
0.0
 11
31.35
 21
339.383871485
 31
0.0
  0
ENDBLK
  5
64
330
5E
100
AcDbEntity
  8
0
100
AcDbBlockEnd
  0
BLOCK
  5
69
330
65
100
AcDbEntity
  8
0
100
AcDbBlockBegin
  2
SEANNOT_GROUP1
 70
     0
 10
0.0
 20
0.0
 30
0.0
  3
SEANNOT_GROUP1
  1

  0
LINE
  5
67
330
65
100
AcDbEntity
  8
Default
  6
CENTER2
 62
     7
100
AcDbLine
 10
210.8477694181
 20
359.383871038
 30
0.0
 11
170.8477703122
 21
359.383871038
 31
0.0
  0
LINE
  5
68
330
65
100
AcDbEntity
  8
Default
  6
CENTER2
 62
     7
100
AcDbLine
 10
190.8477698651
 20
379.3838705909
 30
0.0
 11
190.8477698651
 21
339.383871485
 31
0.0
  0
ENDBLK
  5
6A
330
65
100
AcDbEntity
  8
0
100
AcDbBlockEnd
  0
BLOCK
  5
73
330
6B
100
AcDbEntity
  8
0
100
AcDbBlockBegin
  2
SEANNOT_GROUP2
 70
     0
 10
0.0
 20
0.0
 30
0.0
  3
SEANNOT_GROUP2
  1

  0
LINE
  5
6D
330
6B
100
AcDbEntity
  8
Default
  6
CENTER2
 62
     7
100
AcDbLine
 10
31.35
 20
204.7781493557
 30
0.0
 11
31.35
 21
244.7781484616
 31
0.0
  0
LINE
  5
6E
330
6B
100
AcDbEntity
  8
Default
  6
CENTER2
 62
     7
100
AcDbLine
 10
51.349999553
 20
224.7781489087
 30
0.0
 11
11.350000447
 21
224.7781489087
 31
0.0
  0
LINE
  5
6F
330
6B
100
AcDbEntity
  8
Default
  6
CENTER2
 62
     7
100
AcDbLine
 10
31.35
 20
199.7781494675
 30
0.0
 11
31.35
 21
198.4308775853
 31
0.0
  0
LINE
  5
70
330
6B
100
AcDbEntity
  8
Default
  6
CENTER2
 62
     7
100
AcDbLine
 10
56.3499994412
 20
224.7781489087
 30
0.0
 11
57.3501699344
 21
224.7781489087
 31
0.0
  0
LINE
  5
71
330
6B
100
AcDbEntity
  8
Default
  6
CENTER2
 62
     7
100
AcDbLine
 10
31.35
 20
249.7781483499
 30
0.0
 11
31.35
 21
251.125420232
 31
0.0
  0
LINE
  5
72
330
6B
100
AcDbEntity
  8
Default
  6
CENTER2
 62
     7
100
AcDbLine
 10
6.3500005588
 20
224.7781489087
 30
0.0
 11
5.3498300656
 21
224.7781489087
 31
0.0
  0
ENDBLK
  5
74
330
6B
100
AcDbEntity
  8
0
100
AcDbBlockEnd
  0
BLOCK
  5
32E
330
75
100
AcDbEntity
  8
0
100
AcDbBlockBegin
  2
SE
 70
     0
 10
0.0
 20
0.0
 30
0.0
  3
SE
  1

  0
CIRCLE
  5
78
330
75
100
AcDbEntity
  8
$DDT_AUDIT_GENERATED_(77)
  6
Continuous
 62
     7
100
AcDbCircle
 10
31.3498916115
 20
447.1784484827
 30
0.0
 40
14.49999999999977
  0
SPLINE
  5
79
330
75
100
AcDbEntity
  8
$DDT_AUDIT_GENERATED_(77)
  6
Continuous
 62
     7
100
AcDbSpline
210
0.0
220
0.0
230
1.0
 70
     8
 71
     3
 72
    14
 73
    10
 74
     0
 42
0.0000000001061854
 43
0.0000000001
 40
0.0
 40
0.0
 40
0.0
 40
0.0
 40
0.0625
 40
0.0625
 40
0.125
 40
0.125
 40
0.1875
 40
0.1875
 40
0.25
 40
0.25
 40
0.25
 40
0.25
 10
31.35000000000004
 20
474.5193008146001
 30
0.0
 10
28.40473464289651
 20
474.5193008146001
 30
0.0
 10
25.46062812194219
 20
474.6209925211224
 30
0.0
 10
20.01848735945709
 20
475.0124317213411
 30
0.0
 10
17.52259436792599
 20
475.3020252004275
 30
0.0
 10
13.35736015512246
 20
476.0253105310367
 30
0.0
 10
11.68965777564888
 20
476.4587178006678
 30
0.0
 10
9.435449263484081
 20
477.4037356266803
 30
0.0
 10
8.84983006558316
 20
477.9149743589013
 30
0.0
 10
8.849830065583152
 20
478.4264143209079
 30
0.0
  0
SPLINE
  5
7A
330
75
100
AcDbEntity
  8
$DDT_AUDIT_GENERATED_(77)
  6
Continuous
 62
     7
100
AcDbSpline
210
0.0
220
0.0
230
1.0
 70
     8
 71
     3
 72
    16
 73
    12
 74
     0
 42
0.0000000001061855
 43
0.0000000001
 40
0.7499996593649093
 40
0.7499996593649093
 40
0.7499996593649093
 40
0.7499996593649093
 40
0.7500000000000001
 40
0.7500000000000001
 40
0.8125000000000001
 40
0.8125000000000001
 40
0.8750000000000001
 40
0.8750000000000001
 40
0.9375000000000001
 40
0.9375000000000001
 40
1.0
 40
1.0
 40
1.0
 40
1.0
 10
53.85016993436466
 20
478.426422683199
 30
0.0
 10
53.85016993439945
 20
478.4264198957686
 30
0.0
 10
53.85016993441685
 20
478.4264171083383
 30
0.0
 10
53.85016993441685
 20
477.9149743589014
 30
0.0
 10
53.26455073651594
 20
477.4037356266803
 30
0.0
 10
51.01034222435116
 20
476.4587178006678
 30
0.0
 10
49.3426398448776
 20
476.0253105310368
 30
0.0
 10
45.17740563207408
 20
475.3020252004275
 30
0.0
 10
42.68151264054298
 20
475.0124317213411
 30
0.0
 10
37.2393718780579
 20
474.6209925211224
 30
0.0
 10
34.29526535710357
 20
474.5193008146001
 30
0.0
 10
31.35000000000004
 20
474.5193008146001
 30
0.0
  0
LINE
  5
7B
330
75
100
AcDbEntity
  8
$DDT_AUDIT_GENERATED_(77)
  6
Continuous
 62
     7
100
AcDbLine
 10
8.8498300656
 20
359.383871038
 30
0.0
 11
53.8501699344
 21
359.383871038
 31
0.0
  0
ELLIPSE
  5
7C
330
75
100
AcDbEntity
  8
$DDT_AUDIT_GENERATED_(77)
  6
Continuous
 62
     7
100
AcDbEllipse
 10
31.35
 20
482.7247778402
 30
0.0
 11
20.71423672477046
 21
0.0
 31
0.0
210
0.0
220
0.0
230
1.0
 40
0.1736481777
 41
3.813745660579027
 42
5.570755021624255
  0
LINE
  5
7D
330
75
100
AcDbEntity
  8
$DDT_AUDIT_GENERATED_(77)
  6
Continuous
 62
     7
100
AcDbLine
 10
8.8498300656
 20
478.4264143209
 30
0.0
 11
8.8498300656
 21
359.383871038
 31
0.0
  0
LINE
  5
7E
330
75
100
AcDbEntity
  8
$DDT_AUDIT_GENERATED_(77)
  6
Continuous
 62
     7
100
AcDbLine
 10
53.8501699344
 20
359.383871038
 30
0.0
 11
53.8501699344
 21
478.4264143209
 31
0.0
  0
LINE
  5
7F
330
75
100
AcDbEntity
  8
$DDT_AUDIT_GENERATED_(77)
  6
Continuous
 62
     7
100
AcDbLine
 10
52.9755694235
 20
481.5738037185
 30
0.0
 11
52.7771705995
 21
481.9069724067
 31
0.0
  0
LINE
  5
80
330
75
100
AcDbEntity
  8
$DDT_AUDIT_GENERATED_(77)
  6
Continuous
 62
     7
100
AcDbLine
 10
9.9265409217
 20
481.9132051184
 30
0.0
 11
9.7244306633
 21
481.5738038644
 31
0.0
  0
ARC
  5
81
330
75
100
AcDbEntity
  8
$DDT_AUDIT_GENERATED_(77)
  6
Continuous
 62
     7
100
AcDbCircle
 10
14.8326477168
 20
478.4589888743
 30
0.0
 40
5.982904395578999
100
AcDbArc
 50
148.6935003037
 51
180.3116148076
  0
ARC
  5
82
330
75
100
AcDbEntity
  8
$DDT_AUDIT_GENERATED_(77)
  6
Continuous
 62
     7
100
AcDbCircle
 10
47.8661917813
 20
478.45865587
 30
0.0
 40
5.98406123937982
100
AcDbArc
 50
359.6913732243
 51
31.3067061751
  0
ARC
  5
84
330
75
100
AcDbEntity
  8
$DDT_AUDIT_GENERATED_(83)
  6
Continuous
 62
     7
100
AcDbCircle
 10
26.2600531266
 20
474.9937273392
 30
0.0
 40
32.12067479323491
100
AcDbArc
 50
253.4634969977
 51
253.5670565083
  0
ELLIPSE
  5
86
330
75
100
AcDbEntity
  8
$DDT_AUDIT_GENERATED_(85)
  6
Continuous
 62
     7
100
AcDbEllipse
 10
31.35
 20
424.9246493832
 30
0.0
 11
-10.075
 21
0.0
 31
0.0
210
0.0
220
0.0
230
1.0
 40
0.3420201433
 41
0.0
 42
6.283185307179586
  0
ELLIPSE
  5
87
330
75
100
AcDbEntity
  8
$DDT_AUDIT_GENERATED_(85)
  6
Continuous
 62
     7
100
AcDbEllipse
 10
31.35
 20
425.864342004
 30
0.0
 11
-11.575
 21
-1.387778780781446E-14
 31
0.0
210
0.0
220
0.0
230
1.0
 40
0.3420201433
 41
3.142253771715854
 42
6.283185307179586
  0
ELLIPSE
  5
88
330
75
100
AcDbEntity
  8
$DDT_AUDIT_GENERATED_(85)
  6
Continuous
 62
     7
100
AcDbEllipse
 10
31.35
 20
425.864342004
 30
0.0
 11
-11.575
 21
-1.387778780781446E-14
 31
0.0
210
0.0
220
0.0
230
1.0
 40
0.3420201433
 41
0.0
 42
0.0001186291859692
  0
LINE
  5
89
330
75
100
AcDbEntity
  8
$DDT_AUDIT_GENERATED_(85)
  6
Continuous
 62
     7
100
AcDbLine
 10
42.925
 20
425.864342004
 30
0.0
 11
42.925
 21
438.4654443067
 31
0.0
  0
LINE
  5
8A
330
75
100
AcDbEntity
  8
$DDT_AUDIT_GENERATED_(85)
  6
Continuous
 62
     7
100
AcDbLine
 10
19.775
 20
438.466429367
 30
0.0
 11
19.775
 21
425.864342004
 31
0.0
  0
SPLINE
  5
8B
330
75
100
AcDbEntity
  8
$DDT_AUDIT_GENERATED_(85)
  6
Continuous
 62
     7
100
AcDbSpline
210
0.0
220
0.0
230
1.0
 70
     8
 71
     3
 72
    64
 73
    60
 74
     0
 42
0.0000000003729978
 43
0.0000000001
 40
0.0
 40
0.0
 40
0.0
 40
0.0
 40
0.009227414885879
 40
0.023932188938174
 40
0.0386932687713916
 40
0.0537136827669519
 40
0.0691860676472253
 40
0.085281308151092
 40
0.1021228534574525
 40
0.1197477563246175
 40
0.1380731654873332
 40
0.156905389793681
 40
0.1760073685922213
 40
0.1951669874746503
 40
0.2142476165302661
 40
0.2332077270320256
 40
0.2520392232372877
 40
0.2707497560012984
 40
0.2893529416562634
 40
0.3078636495695593
 40
0.3262959793316734
 40
0.3446625406278562
 40
0.3629743238193196
 40
0.3812408171608186
 40
0.399470210940909
 40
0.4176696178156118
 40
0.4358452806316935
 40
0.4540027584577273
 40
0.4721470902174791
 40
0.4902829389603797
 40
0.5084147211494818
 40
0.5265467257127912
 40
0.5446818456759982
 40
0.5628243770495707
 40
0.5809788322564668
 40
0.5991500215208765
 40
0.6173431872153063
 40
0.6355641553858987
 40
0.6538195094123925
 40
0.6721167897849136
 40
0.6904647209952063
 40
0.7088734591296079
 40
0.7273548369007843
 40
0.7459225462176444
 40
0.7645921207703044
 40
0.783380419957946
 40
0.8023039898785211
 40
0.8213750534863984
 40
0.8405928300370735
 40
0.8599266833196276
 40
0.8792567673739482
 40
0.8983566875478515
 40
0.91694343739927
 40
0.9328450800748146
 40
0.9480636093419568
 40
0.9643026815664411
 40
0.9798762459891119
 40
0.9949499441051013
 40
1.0
 40
1.0
 40
1.0
 40
1.0
 10
19.77927758969012
 20
425.8635417411519
 30
0.0
 10
19.77874742299533
 20
425.7981681273105
 30
0.0
 10
19.77841526250522
 20
425.6545355556555
 30
0.0
 10
19.81768969376229
 20
425.4019356447511
 30
0.0
 10
19.89179099045443
 20
425.1280695052155
 30
0.0
 10
20.00087482714108
 20
424.8587857082325
 30
0.0
 10
20.14304886810214
 20
424.5964980947246
 30
0.0
 10
20.3197193319432
 20
424.3396471265929
 30
0.0
 10
20.53228418661842
 20
424.0879606730299
 30
0.0
 10
20.78228316645574
 20
423.8415743533913
 30
0.0
 10
21.07024533644734
 20
423.6016295686304
 30
0.0
 10
21.39511829494302
 20
423.3699300563691
 30
0.0
 10
21.75427651715575
 20
423.1484292016461
 30
0.0
 10
22.14428055418223
 20
422.9386378917304
 30
0.0
 10
22.56192153520385
 20
422.7413009839545
 30
0.0
 10
23.00474439993642
 20
422.5565428220021
 30
0.0
 10
23.47103530178076
 20
422.3841686354592
 30
0.0
 10
23.95935895542899
 20
422.2239676501455
 30
0.0
 10
24.46839047367063
 20
422.0757872678111
 30
0.0
 10
24.99681334669526
 20
421.9395508275687
 30
0.0
 10
25.54326610349291
 20
421.8152501508775
 30
0.0
 10
26.1063182892017
 20
421.7029297337678
 30
0.0
 10
26.68446269865139
 20
421.6026700435507
 30
0.0
 10
27.27611627921555
 20
421.5145726746373
 30
0.0
 10
27.8796255447951
 20
421.4387480722312
 30
0.0
 10
28.49327428010686
 20
421.3753057418328
 30
0.0
 10
29.11529236566216
 20
421.3243466151341
 30
0.0
 10
29.74386511665215
 20
421.2859572127461
 30
0.0
 10
30.37714282866594
 20
421.2602052912409
 30
0.0
 10
31.01325038452457
 20
421.2471367294937
 30
0.0
 10
31.65029685651096
 20
421.2467734759244
 30
0.0
 10
32.28636894412255
 20
421.2591121262005
 30
0.0
 10
32.91955611224434
 20
421.2841225216969
 30
0.0
 10
33.54796097573652
 20
421.3217483147019
 30
0.0
 10
34.16972450944245
 20
421.37191016702
 30
0.0
 10
34.78302002413223
 20
421.4345079155596
 30
0.0
 10
35.3860624352762
 20
421.5094241091092
 30
0.0
 10
35.97711807679894
 20
421.5965289296634
 30
0.0
 10
36.55451453966162
 20
421.6956868068989
 30
0.0
 10
37.11665041885013
 20
421.806765180246
 30
0.0
 10
37.6620047033736
 20
421.9296460225623
 30
0.0
 10
38.18914526394768
 20
422.0642409269348
 30
0.0
 10
38.69673536534004
 20
422.2105107417188
 30
0.0
 10
39.18353614408769
 20
422.3684908151409
 30
0.0
 10
39.64840116455591
 20
422.5383225941526
 30
0.0
 10
40.09025586920859
 20
422.7202909167082
 30
0.0
 10
40.50804908040951
 20
422.9148621936048
 30
0.0
 10
40.90065544076187
 20
423.1227086156548
 30
0.0
 10
41.26669990309753
 20
423.3446820194581
 30
0.0
 10
41.60410257742825
 20
423.5815387055492
 30
0.0
 10
41.9097682247405
 20
423.8334568936852
 30
0.0
 10
42.17980549165643
 20
424.0995273034995
 30
0.0
 10
42.4023811350845
 20
424.3679032590381
 30
0.0
 10
42.57953051878716
 20
424.6340994280243
 30
0.0
 10
42.71983562389832
 20
424.9028220471766
 30
0.0
 10
42.82781069701593
 20
425.185227941158
 30
0.0
 10
42.89641306540069
 20
425.4759794928814
 30
0.0
 10
42.92650490560982
 20
425.7113740659333
 30
0.0
 10
42.92226832565947
 20
425.8328540094071
 30
0.0
 10
42.9209034444216
 20
425.8685850913101
 30
0.0
  0
ELLIPSE
  5
8D
330
75
100
AcDbEntity
  8
$DDT_AUDIT_GENERATED_(8C)
  6
Continuous
 62
     7
100
AcDbEllipse
 10
31.35
 20
425.1595725384
 30
0.0
 11
8.500000000000007
 21
0.0
 31
0.0
210
0.0
220
0.0
230
1.0
 40
0.3420201433
 41
3.222489018076918
 42
6.202288942692467
  0
ELLIPSE
  5
8E
330
75
100
AcDbEntity
  8
$DDT_AUDIT_GENERATED_(8C)
  6
Continuous
 62
     7
100
AcDbEllipse
 10
31.35
 20
424.689726228
 30
0.0
 11
8.500000000000007
 21
0.0
 31
0.0
210
0.0
220
0.0
230
1.0
 40
0.3420201433
 41
0.0
 42
6.283185307179586
  0
ELLIPSE
  5
8F
330
75
100
AcDbEntity
  8
$DDT_AUDIT_GENERATED_(8C)
  6
Continuous
 62
     7
100
AcDbEllipse
 10
31.35
 20
424.689726228
 30
0.0
 11
9.000000000000002
 21
0.0
 31
0.0
210
0.0
220
0.0
230
1.0
 40
0.3420201433
 41
0.0
 42
6.283185307179586
  0
LINE
  5
90
330
75
100
AcDbEntity
  8
$DDT_AUDIT_GENERATED_(8C)
  6
Continuous
 62
     7
100
AcDbLine
 10
30.65
 20
424.9885624667
 30
0.0
 11
29.65
 21
424.9885624667
 31
0.0
  0
LINE
  5
91
330
75
100
AcDbEntity
  8
$DDT_AUDIT_GENERATED_(8C)
  6
Continuous
 62
     7
100
AcDbLine
 10
29.65
 20
424.9885624667
 30
0.0
 11
29.65
 21
425.33058261
 31
0.0
  0
LINE
  5
92
330
75
100
AcDbEntity
  8
$DDT_AUDIT_GENERATED_(8C)
  6
Continuous
 62
     7
100
AcDbLine
 10
30.65
 20
425.33058261
 30
0.0
 11
30.65
 21
424.9885624667
 31
0.0
  0
LINE
  5
93
330
75
100
AcDbEntity
  8
$DDT_AUDIT_GENERATED_(8C)
  6
Continuous
 62
     7
100
AcDbLine
 10
29.45
 20
424.9885624667
 30
0.0
 11
28.45
 21
424.9885624667
 31
0.0
  0
LINE
  5
94
330
75
100
AcDbEntity
  8
$DDT_AUDIT_GENERATED_(8C)
  6
Continuous
 62
     7
100
AcDbLine
 10
28.45
 20
424.9885624667
 30
0.0
 11
28.45
 21
425.33058261
 31
0.0
  0
LINE
  5
95
330
75
100
AcDbEntity
  8
$DDT_AUDIT_GENERATED_(8C)
  6
Continuous
 62
     7
100
AcDbLine
 10
29.45
 20
425.33058261
 30
0.0
 11
29.45
 21
424.9885624667
 31
0.0
  0
LINE
  5
96
330
75
100
AcDbEntity
  8
$DDT_AUDIT_GENERATED_(8C)
  6
Continuous
 62
     7
100
AcDbLine
 10
28.25
 20
424.9885624667
 30
0.0
 11
27.25
 21
424.9885624667
 31
0.0
  0
LINE
  5
97
330
75
100
AcDbEntity
  8
$DDT_AUDIT_GENERATED_(8C)
  6
Continuous
 62
     7
100
AcDbLine
 10
27.25
 20
424.9885624667
 30
0.0
 11
27.25
 21
425.33058261
 31
0.0
  0
LINE
  5
98
330
75
100
AcDbEntity
  8
$DDT_AUDIT_GENERATED_(8C)
  6
Continuous
 62
     7
100
AcDbLine
 10
28.25
 20
425.33058261
 30
0.0
 11
28.25
 21
424.9885624667
 31
0.0
  0
LINE
  5
99
330
75
100
AcDbEntity
  8
$DDT_AUDIT_GENERATED_(8C)
  6
Continuous
 62
     7
100
AcDbLine
 10
27.05
 20
424.9885624667
 30
0.0
 11
26.05
 21
424.9885624667
 31
0.0
  0
LINE
  5
9A
330
75
100
AcDbEntity
  8
$DDT_AUDIT_GENERATED_(8C)
  6
Continuous
 62
     7
100
AcDbLine
 10
26.05
 20
424.9885624667
 30
0.0
 11
26.05
 21
425.33058261
 31
0.0
  0
LINE
  5
9B
330
75
100
AcDbEntity
  8
$DDT_AUDIT_GENERATED_(8C)
  6
Continuous
 62
     7
100
AcDbLine
 10
27.05
 20
425.33058261
 30
0.0
 11
27.05
 21
424.9885624667
 31
0.0
  0
LINE
  5
9C
330
75
100
AcDbEntity
  8
$DDT_AUDIT_GENERATED_(8C)
  6
Continuous
 62
     7
100
AcDbLine
 10
25.85
 20
424.9885624667
 30
0.0
 11
24.85
 21
424.9885624667
 31
0.0
  0
LINE
  5
9D
330
75
100
AcDbEntity
  8
$DDT_AUDIT_GENERATED_(8C)
  6
Continuous
 62
     7
100
AcDbLine
 10
24.85
 20
424.9885624667
 30
0.0
 11
24.85
 21
425.33058261
 31
0.0
  0
LINE
  5
9E
330
75
100
AcDbEntity
  8
$DDT_AUDIT_GENERATED_(8C)
  6
Continuous
 62
     7
100
AcDbLine
 10
25.85
 20
425.33058261
 30
0.0
 11
25.85
 21
424.9885624667
 31
0.0
  0
LINE
  5
9F
330
75
100
AcDbEntity
  8
$DDT_AUDIT_GENERATED_(8C)
  6
Continuous
 62
     7
100
AcDbLine
 10
24.65
 20
424.9885624667
 30
0.0
 11
23.65
 21
424.9885624667
 31
0.0
  0
LINE
  5
A0
330
75
100
AcDbEntity
  8
$DDT_AUDIT_GENERATED_(8C)
  6
Continuous
 62
     7
100
AcDbLine
 10
23.65
 20
424.9885624667
 30
0.0
 11
23.65
 21
425.33058261
 31
0.0
  0
LINE
  5
A1
330
75
100
AcDbEntity
  8
$DDT_AUDIT_GENERATED_(8C)
  6
Continuous
 62
     7
100
AcDbLine
 10
24.65
 20
425.33058261
 30
0.0
 11
24.65
 21
424.9885624667
 31
0.0
  0
LINE
  5
A2
330
75
100
AcDbEntity
  8
$DDT_AUDIT_GENERATED_(8C)
  6
Continuous
 62
     7
100
AcDbLine
 10
31.85
 20
424.5781382947
 30
0.0
 11
30.85
 21
424.5781382947
 31
0.0
  0
LINE
  5
A3
330
75
100
AcDbEntity
  8
$DDT_AUDIT_GENERATED_(8C)
  6
Continuous
 62
     7
100
AcDbLine
 10
30.85
 20
424.5781382947
 30
0.0
 11
30.85
 21
424.9201584381
 31
0.0
  0
LINE
  5
A4
330
75
100
AcDbEntity
  8
$DDT_AUDIT_GENERATED_(8C)
  6
Continuous
 62
     7
100
AcDbLine
 10
30.85
 20
424.9201584381
 30
0.0
 11
31.85
 21
424.9201584381
 31
0.0
  0
LINE
  5
A5
330
75
100
AcDbEntity
  8
$DDT_AUDIT_GENERATED_(8C)
  6
Continuous
 62
     7
100
AcDbLine
 10
30.65
 20
424.5781382947
 30
0.0
 11
29.65
 21
424.5781382947
 31
0.0
  0
LINE
  5
A6
330
75
100
AcDbEntity
  8
$DDT_AUDIT_GENERATED_(8C)
  6
Continuous
 62
     7
100
AcDbLine
 10
29.65
 20
424.5781382947
 30
0.0
 11
29.65
 21
424.9201584381
 31
0.0
  0
LINE
  5
A7
330
75
100
AcDbEntity
  8
$DDT_AUDIT_GENERATED_(8C)
  6
Continuous
 62
     7
100
AcDbLine
 10
29.65
 20
424.9201584381
 30
0.0
 11
30.65
 21
424.9201584381
 31
0.0
  0
LINE
  5
A8
330
75
100
AcDbEntity
  8
$DDT_AUDIT_GENERATED_(8C)
  6
Continuous
 62
     7
100
AcDbLine
 10
30.65
 20
424.9201584381
 30
0.0
 11
30.65
 21
424.5781382947
 31
0.0
  0
LINE
  5
A9
330
75
100
AcDbEntity
  8
$DDT_AUDIT_GENERATED_(8C)
  6
Continuous
 62
     7
100
AcDbLine
 10
29.45
 20
424.5781382947
 30
0.0
 11
28.45
 21
424.5781382947
 31
0.0
  0
LINE
  5
AA
330
75
100
AcDbEntity
  8
$DDT_AUDIT_GENERATED_(8C)
  6
Continuous
 62
     7
100
AcDbLine
 10
28.45
 20
424.5781382947
 30
0.0
 11
28.45
 21
424.9201584381
 31
0.0
  0
LINE
  5
AB
330
75
100
AcDbEntity
  8
$DDT_AUDIT_GENERATED_(8C)
  6
Continuous
 62
     7
100
AcDbLine
 10
28.45
 20
424.9201584381
 30
0.0
 11
29.45
 21
424.9201584381
 31
0.0
  0
LINE
  5
AC
330
75
100
AcDbEntity
  8
$DDT_AUDIT_GENERATED_(8C)
  6
Continuous
 62
     7
100
AcDbLine
 10
29.45
 20
424.9201584381
 30
0.0
 11
29.45
 21
424.5781382947
 31
0.0
  0
LINE
  5
AD
330
75
100
AcDbEntity
  8
$DDT_AUDIT_GENERATED_(8C)
  6
Continuous
 62
     7
100
AcDbLine
 10
28.25
 20
424.5781382947
 30
0.0
 11
27.25
 21
424.5781382947
 31
0.0
  0
LINE
  5
AE
330
75
100
AcDbEntity
  8
$DDT_AUDIT_GENERATED_(8C)
  6
Continuous
 62
     7
100
AcDbLine
 10
27.25
 20
424.5781382947
 30
0.0
 11
27.25
 21
424.9201584381
 31
0.0
  0
LINE
  5
AF
330
75
100
AcDbEntity
  8
$DDT_AUDIT_GENERATED_(8C)
  6
Continuous
 62
     7
100
AcDbLine
 10
27.25
 20
424.9201584381
 30
0.0
 11
28.25
 21
424.9201584381
 31
0.0
  0
LINE
  5
B0
330
75
100
AcDbEntity
  8
$DDT_AUDIT_GENERATED_(8C)
  6
Continuous
 62
     7
100
AcDbLine
 10
28.25
 20
424.9201584381
 30
0.0
 11
28.25
 21
424.5781382947
 31
0.0
  0
LINE
  5
B1
330
75
100
AcDbEntity
  8
$DDT_AUDIT_GENERATED_(8C)
  6
Continuous
 62
     7
100
AcDbLine
 10
27.05
 20
424.5781382947
 30
0.0
 11
26.05
 21
424.5781382947
 31
0.0
  0
LINE
  5
B2
330
75
100
AcDbEntity
  8
$DDT_AUDIT_GENERATED_(8C)
  6
Continuous
 62
     7
100
AcDbLine
 10
26.05
 20
424.5781382947
 30
0.0
 11
26.05
 21
424.9201584381
 31
0.0
  0
LINE
  5
B3
330
75
100
AcDbEntity
  8
$DDT_AUDIT_GENERATED_(8C)
  6
Continuous
 62
     7
100
AcDbLine
 10
26.05
 20
424.9201584381
 30
0.0
 11
27.05
 21
424.9201584381
 31
0.0
  0
LINE
  5
B4
330
75
100
AcDbEntity
  8
$DDT_AUDIT_GENERATED_(8C)
  6
Continuous
 62
     7
100
AcDbLine
 10
27.05
 20
424.9201584381
 30
0.0
 11
27.05
 21
424.5781382947
 31
0.0
  0
LINE
  5
B5
330
75
100
AcDbEntity
  8
$DDT_AUDIT_GENERATED_(8C)
  6
Continuous
 62
     7
100
AcDbLine
 10
25.85
 20
424.5781382947
 30
0.0
 11
24.85
 21
424.5781382947
 31
0.0
  0
LINE
  5
B6
330
75
100
AcDbEntity
  8
$DDT_AUDIT_GENERATED_(8C)
  6
Continuous
 62
     7
100
AcDbLine
 10
24.85
 20
424.5781382947
 30
0.0
 11
24.85
 21
424.9201584381
 31
0.0
  0
LINE
  5
B7
330
75
100
AcDbEntity
  8
$DDT_AUDIT_GENERATED_(8C)
  6
Continuous
 62
     7
100
AcDbLine
 10
24.85
 20
424.9201584381
 30
0.0
 11
25.85
 21
424.9201584381
 31
0.0
  0
LINE
  5
B8
330
75
100
AcDbEntity
  8
$DDT_AUDIT_GENERATED_(8C)
  6
Continuous
 62
     7
100
AcDbLine
 10
25.85
 20
424.9201584381
 30
0.0
 11
25.85
 21
424.5781382947
 31
0.0
  0
LINE
  5
B9
330
75
100
AcDbEntity
  8
$DDT_AUDIT_GENERATED_(8C)
  6
Continuous
 62
     7
100
AcDbLine
 10
24.65
 20
424.5781382947
 30
0.0
 11
23.65
 21
424.5781382947
 31
0.0
  0
LINE
  5
BA
330
75
100
AcDbEntity
  8
$DDT_AUDIT_GENERATED_(8C)
  6
Continuous
 62
     7
100
AcDbLine
 10
23.65
 20
424.5781382947
 30
0.0
 11
23.65
 21
424.9201584381
 31
0.0
  0
LINE
  5
BB
330
75
100
AcDbEntity
  8
$DDT_AUDIT_GENERATED_(8C)
  6
Continuous
 62
     7
100
AcDbLine
 10
23.65
 20
424.9201584381
 30
0.0
 11
24.65
 21
424.9201584381
 31
0.0
  0
LINE
  5
BC
330
75
100
AcDbEntity
  8
$DDT_AUDIT_GENERATED_(8C)
  6
Continuous
 62
     7
100
AcDbLine
 10
24.65
 20
424.9201584381
 30
0.0
 11
24.65
 21
424.5781382947
 31
0.0
  0
LINE
  5
BD
330
75
100
AcDbEntity
  8
$DDT_AUDIT_GENERATED_(8C)
  6
Continuous
 62
     7
100
AcDbLine
 10
31.85
 20
424.1677141227
 30
0.0
 11
30.85
 21
424.1677141227
 31
0.0
  0
LINE
  5
BE
330
75
100
AcDbEntity
  8
$DDT_AUDIT_GENERATED_(8C)
  6
Continuous
 62
     7
100
AcDbLine
 10
30.85
 20
424.1677141227
 30
0.0
 11
30.85
 21
424.5097342661
 31
0.0
  0
LINE
  5
BF
330
75
100
AcDbEntity
  8
$DDT_AUDIT_GENERATED_(8C)
  6
Continuous
 62
     7
100
AcDbLine
 10
30.85
 20
424.5097342661
 30
0.0
 11
31.85
 21
424.5097342661
 31
0.0
  0
LINE
  5
C0
330
75
100
AcDbEntity
  8
$DDT_AUDIT_GENERATED_(8C)
  6
Continuous
 62
     7
100
AcDbLine
 10
30.65
 20
424.1677141227
 30
0.0
 11
29.65
 21
424.1677141227
 31
0.0
  0
LINE
  5
C1
330
75
100
AcDbEntity
  8
$DDT_AUDIT_GENERATED_(8C)
  6
Continuous
 62
     7
100
AcDbLine
 10
29.65
 20
424.1677141227
 30
0.0
 11
29.65
 21
424.5097342661
 31
0.0
  0
LINE
  5
C2
330
75
100
AcDbEntity
  8
$DDT_AUDIT_GENERATED_(8C)
  6
Continuous
 62
     7
100
AcDbLine
 10
29.65
 20
424.5097342661
 30
0.0
 11
30.65
 21
424.5097342661
 31
0.0
  0
LINE
  5
C3
330
75
100
AcDbEntity
  8
$DDT_AUDIT_GENERATED_(8C)
  6
Continuous
 62
     7
100
AcDbLine
 10
30.65
 20
424.5097342661
 30
0.0
 11
30.65
 21
424.1677141227
 31
0.0
  0
LINE
  5
C4
330
75
100
AcDbEntity
  8
$DDT_AUDIT_GENERATED_(8C)
  6
Continuous
 62
     7
100
AcDbLine
 10
29.45
 20
424.1677141227
 30
0.0
 11
28.45
 21
424.1677141227
 31
0.0
  0
LINE
  5
C5
330
75
100
AcDbEntity
  8
$DDT_AUDIT_GENERATED_(8C)
  6
Continuous
 62
     7
100
AcDbLine
 10
28.45
 20
424.1677141227
 30
0.0
 11
28.45
 21
424.5097342661
 31
0.0
  0
LINE
  5
C6
330
75
100
AcDbEntity
  8
$DDT_AUDIT_GENERATED_(8C)
  6
Continuous
 62
     7
100
AcDbLine
 10
28.45
 20
424.5097342661
 30
0.0
 11
29.45
 21
424.5097342661
 31
0.0
  0
LINE
  5
C7
330
75
100
AcDbEntity
  8
$DDT_AUDIT_GENERATED_(8C)
  6
Continuous
 62
     7
100
AcDbLine
 10
29.45
 20
424.5097342661
 30
0.0
 11
29.45
 21
424.1677141227
 31
0.0
  0
LINE
  5
C8
330
75
100
AcDbEntity
  8
$DDT_AUDIT_GENERATED_(8C)
  6
Continuous
 62
     7
100
AcDbLine
 10
28.25
 20
424.1677141227
 30
0.0
 11
27.25
 21
424.1677141227
 31
0.0
  0
LINE
  5
C9
330
75
100
AcDbEntity
  8
$DDT_AUDIT_GENERATED_(8C)
  6
Continuous
 62
     7
100
AcDbLine
 10
27.25
 20
424.1677141227
 30
0.0
 11
27.25
 21
424.5097342661
 31
0.0
  0
LINE
  5
CA
330
75
100
AcDbEntity
  8
$DDT_AUDIT_GENERATED_(8C)
  6
Continuous
 62
     7
100
AcDbLine
 10
27.25
 20
424.5097342661
 30
0.0
 11
28.25
 21
424.5097342661
 31
0.0
  0
LINE
  5
CB
330
75
100
AcDbEntity
  8
$DDT_AUDIT_GENERATED_(8C)
  6
Continuous
 62
     7
100
AcDbLine
 10
28.25
 20
424.5097342661
 30
0.0
 11
28.25
 21
424.1677141227
 31
0.0
  0
LINE
  5
CC
330
75
100
AcDbEntity
  8
$DDT_AUDIT_GENERATED_(8C)
  6
Continuous
 62
     7
100
AcDbLine
 10
27.05
 20
424.1677141227
 30
0.0
 11
26.05
 21
424.1677141227
 31
0.0
  0
LINE
  5
CD
330
75
100
AcDbEntity
  8
$DDT_AUDIT_GENERATED_(8C)
  6
Continuous
 62
     7
100
AcDbLine
 10
26.05
 20
424.1677141227
 30
0.0
 11
26.05
 21
424.5097342661
 31
0.0
  0
LINE
  5
CE
330
75
100
AcDbEntity
  8
$DDT_AUDIT_GENERATED_(8C)
  6
Continuous
 62
     7
100
AcDbLine
 10
26.05
 20
424.5097342661
 30
0.0
 11
27.05
 21
424.5097342661
 31
0.0
  0
LINE
  5
CF
330
75
100
AcDbEntity
  8
$DDT_AUDIT_GENERATED_(8C)
  6
Continuous
 62
     7
100
AcDbLine
 10
27.05
 20
424.5097342661
 30
0.0
 11
27.05
 21
424.1677141227
 31
0.0
  0
LINE
  5
D0
330
75
100
AcDbEntity
  8
$DDT_AUDIT_GENERATED_(8C)
  6
Continuous
 62
     7
100
AcDbLine
 10
25.85
 20
424.1677141227
 30
0.0
 11
24.85
 21
424.1677141227
 31
0.0
  0
LINE
  5
D1
330
75
100
AcDbEntity
  8
$DDT_AUDIT_GENERATED_(8C)
  6
Continuous
 62
     7
100
AcDbLine
 10
24.85
 20
424.1677141227
 30
0.0
 11
24.85
 21
424.5097342661
 31
0.0
  0
LINE
  5
D2
330
75
100
AcDbEntity
  8
$DDT_AUDIT_GENERATED_(8C)
  6
Continuous
 62
     7
100
AcDbLine
 10
24.85
 20
424.5097342661
 30
0.0
 11
25.85
 21
424.5097342661
 31
0.0
  0
LINE
  5
D3
330
75
100
AcDbEntity
  8
$DDT_AUDIT_GENERATED_(8C)
  6
Continuous
 62
     7
100
AcDbLine
 10
25.85
 20
424.5097342661
 30
0.0
 11
25.85
 21
424.1677141227
 31
0.0
  0
LINE
  5
D4
330
75
100
AcDbEntity
  8
$DDT_AUDIT_GENERATED_(8C)
  6
Continuous
 62
     7
100
AcDbLine
 10
31.85
 20
423.7572899507
 30
0.0
 11
30.85
 21
423.7572899507
 31
0.0
  0
LINE
  5
D5
330
75
100
AcDbEntity
  8
$DDT_AUDIT_GENERATED_(8C)
  6
Continuous
 62
     7
100
AcDbLine
 10
30.85
 20
423.7572899507
 30
0.0
 11
30.85
 21
424.0993100941
 31
0.0
  0
LINE
  5
D6
330
75
100
AcDbEntity
  8
$DDT_AUDIT_GENERATED_(8C)
  6
Continuous
 62
     7
100
AcDbLine
 10
30.85
 20
424.0993100941
 30
0.0
 11
31.85
 21
424.0993100941
 31
0.0
  0
LINE
  5
D7
330
75
100
AcDbEntity
  8
$DDT_AUDIT_GENERATED_(8C)
  6
Continuous
 62
     7
100
AcDbLine
 10
30.65
 20
423.7572899507
 30
0.0
 11
29.65
 21
423.7572899507
 31
0.0
  0
LINE
  5
D8
330
75
100
AcDbEntity
  8
$DDT_AUDIT_GENERATED_(8C)
  6
Continuous
 62
     7
100
AcDbLine
 10
29.65
 20
423.7572899507
 30
0.0
 11
29.65
 21
424.0993100941
 31
0.0
  0
LINE
  5
D9
330
75
100
AcDbEntity
  8
$DDT_AUDIT_GENERATED_(8C)
  6
Continuous
 62
     7
100
AcDbLine
 10
29.65
 20
424.0993100941
 30
0.0
 11
30.65
 21
424.0993100941
 31
0.0
  0
LINE
  5
DA
330
75
100
AcDbEntity
  8
$DDT_AUDIT_GENERATED_(8C)
  6
Continuous
 62
     7
100
AcDbLine
 10
30.65
 20
424.0993100941
 30
0.0
 11
30.65
 21
423.7572899507
 31
0.0
  0
LINE
  5
DB
330
75
100
AcDbEntity
  8
$DDT_AUDIT_GENERATED_(8C)
  6
Continuous
 62
     7
100
AcDbLine
 10
29.45
 20
423.7572899507
 30
0.0
 11
28.45
 21
423.7572899507
 31
0.0
  0
LINE
  5
DC
330
75
100
AcDbEntity
  8
$DDT_AUDIT_GENERATED_(8C)
  6
Continuous
 62
     7
100
AcDbLine
 10
28.45
 20
423.7572899507
 30
0.0
 11
28.45
 21
424.0993100941
 31
0.0
  0
LINE
  5
DD
330
75
100
AcDbEntity
  8
$DDT_AUDIT_GENERATED_(8C)
  6
Continuous
 62
     7
100
AcDbLine
 10
28.45
 20
424.0993100941
 30
0.0
 11
29.45
 21
424.0993100941
 31
0.0
  0
LINE
  5
DE
330
75
100
AcDbEntity
  8
$DDT_AUDIT_GENERATED_(8C)
  6
Continuous
 62
     7
100
AcDbLine
 10
29.45
 20
424.0993100941
 30
0.0
 11
29.45
 21
423.7572899507
 31
0.0
  0
LINE
  5
DF
330
75
100
AcDbEntity
  8
$DDT_AUDIT_GENERATED_(8C)
  6
Continuous
 62
     7
100
AcDbLine
 10
28.25
 20
423.7572899507
 30
0.0
 11
27.25
 21
423.7572899507
 31
0.0
  0
LINE
  5
E0
330
75
100
AcDbEntity
  8
$DDT_AUDIT_GENERATED_(8C)
  6
Continuous
 62
     7
100
AcDbLine
 10
27.25
 20
423.7572899507
 30
0.0
 11
27.25
 21
424.0993100941
 31
0.0
  0
LINE
  5
E1
330
75
100
AcDbEntity
  8
$DDT_AUDIT_GENERATED_(8C)
  6
Continuous
 62
     7
100
AcDbLine
 10
27.25
 20
424.0993100941
 30
0.0
 11
28.25
 21
424.0993100941
 31
0.0
  0
LINE
  5
E2
330
75
100
AcDbEntity
  8
$DDT_AUDIT_GENERATED_(8C)
  6
Continuous
 62
     7
100
AcDbLine
 10
28.25
 20
424.0993100941
 30
0.0
 11
28.25
 21
423.7572899507
 31
0.0
  0
LINE
  5
E3
330
75
100
AcDbEntity
  8
$DDT_AUDIT_GENERATED_(8C)
  6
Continuous
 62
     7
100
AcDbLine
 10
27.05
 20
423.7572899507
 30
0.0
 11
26.05
 21
423.7572899507
 31
0.0
  0
LINE
  5
E4
330
75
100
AcDbEntity
  8
$DDT_AUDIT_GENERATED_(8C)
  6
Continuous
 62
     7
100
AcDbLine
 10
26.05
 20
423.7572899507
 30
0.0
 11
26.05
 21
424.0993100941
 31
0.0
  0
LINE
  5
E5
330
75
100
AcDbEntity
  8
$DDT_AUDIT_GENERATED_(8C)
  6
Continuous
 62
     7
100
AcDbLine
 10
26.05
 20
424.0993100941
 30
0.0
 11
27.05
 21
424.0993100941
 31
0.0
  0
LINE
  5
E6
330
75
100
AcDbEntity
  8
$DDT_AUDIT_GENERATED_(8C)
  6
Continuous
 62
     7
100
AcDbLine
 10
27.05
 20
424.0993100941
 30
0.0
 11
27.05
 21
423.7572899507
 31
0.0
  0
LINE
  5
E7
330
75
100
AcDbEntity
  8
$DDT_AUDIT_GENERATED_(8C)
  6
Continuous
 62
     7
100
AcDbLine
 10
25.85
 20
423.7572899507
 30
0.0
 11
24.85
 21
423.7572899507
 31
0.0
  0
LINE
  5
E8
330
75
100
AcDbEntity
  8
$DDT_AUDIT_GENERATED_(8C)
  6
Continuous
 62
     7
100
AcDbLine
 10
24.85
 20
423.7572899507
 30
0.0
 11
24.85
 21
424.0993100941
 31
0.0
  0
LINE
  5
E9
330
75
100
AcDbEntity
  8
$DDT_AUDIT_GENERATED_(8C)
  6
Continuous
 62
     7
100
AcDbLine
 10
24.85
 20
424.0993100941
 30
0.0
 11
25.85
 21
424.0993100941
 31
0.0
  0
LINE
  5
EA
330
75
100
AcDbEntity
  8
$DDT_AUDIT_GENERATED_(8C)
  6
Continuous
 62
     7
100
AcDbLine
 10
25.85
 20
424.0993100941
 30
0.0
 11
25.85
 21
423.7572899507
 31
0.0
  0
LINE
  5
EB
330
75
100
AcDbEntity
  8
$DDT_AUDIT_GENERATED_(8C)
  6
Continuous
 62
     7
100
AcDbLine
 10
31.85
 20
423.3468657788
 30
0.0
 11
30.85
 21
423.3468657788
 31
0.0
  0
LINE
  5
EC
330
75
100
AcDbEntity
  8
$DDT_AUDIT_GENERATED_(8C)
  6
Continuous
 62
     7
100
AcDbLine
 10
30.85
 20
423.3468657788
 30
0.0
 11
30.85
 21
423.6888859221
 31
0.0
  0
LINE
  5
ED
330
75
100
AcDbEntity
  8
$DDT_AUDIT_GENERATED_(8C)
  6
Continuous
 62
     7
100
AcDbLine
 10
30.85
 20
423.6888859221
 30
0.0
 11
31.85
 21
423.6888859221
 31
0.0
  0
LINE
  5
EE
330
75
100
AcDbEntity
  8
$DDT_AUDIT_GENERATED_(8C)
  6
Continuous
 62
     7
100
AcDbLine
 10
30.65
 20
423.3468657788
 30
0.0
 11
29.65
 21
423.3468657788
 31
0.0
  0
LINE
  5
EF
330
75
100
AcDbEntity
  8
$DDT_AUDIT_GENERATED_(8C)
  6
Continuous
 62
     7
100
AcDbLine
 10
29.65
 20
423.3468657788
 30
0.0
 11
29.65
 21
423.6888859221
 31
0.0
  0
LINE
  5
F0
330
75
100
AcDbEntity
  8
$DDT_AUDIT_GENERATED_(8C)
  6
Continuous
 62
     7
100
AcDbLine
 10
29.65
 20
423.6888859221
 30
0.0
 11
30.65
 21
423.6888859221
 31
0.0
  0
LINE
  5
F1
330
75
100
AcDbEntity
  8
$DDT_AUDIT_GENERATED_(8C)
  6
Continuous
 62
     7
100
AcDbLine
 10
30.65
 20
423.6888859221
 30
0.0
 11
30.65
 21
423.3468657788
 31
0.0
  0
LINE
  5
F2
330
75
100
AcDbEntity
  8
$DDT_AUDIT_GENERATED_(8C)
  6
Continuous
 62
     7
100
AcDbLine
 10
29.45
 20
423.3468657788
 30
0.0
 11
28.45
 21
423.3468657788
 31
0.0
  0
LINE
  5
F3
330
75
100
AcDbEntity
  8
$DDT_AUDIT_GENERATED_(8C)
  6
Continuous
 62
     7
100
AcDbLine
 10
28.45
 20
423.3468657788
 30
0.0
 11
28.45
 21
423.6888859221
 31
0.0
  0
LINE
  5
F4
330
75
100
AcDbEntity
  8
$DDT_AUDIT_GENERATED_(8C)
  6
Continuous
 62
     7
100
AcDbLine
 10
28.45
 20
423.6888859221
 30
0.0
 11
29.45
 21
423.6888859221
 31
0.0
  0
LINE
  5
F5
330
75
100
AcDbEntity
  8
$DDT_AUDIT_GENERATED_(8C)
  6
Continuous
 62
     7
100
AcDbLine
 10
29.45
 20
423.6888859221
 30
0.0
 11
29.45
 21
423.3468657788
 31
0.0
  0
LINE
  5
F6
330
75
100
AcDbEntity
  8
$DDT_AUDIT_GENERATED_(8C)
  6
Continuous
 62
     7
100
AcDbLine
 10
28.25
 20
423.3468657788
 30
0.0
 11
27.25
 21
423.3468657788
 31
0.0
  0
LINE
  5
F7
330
75
100
AcDbEntity
  8
$DDT_AUDIT_GENERATED_(8C)
  6
Continuous
 62
     7
100
AcDbLine
 10
27.25
 20
423.3468657788
 30
0.0
 11
27.25
 21
423.6888859221
 31
0.0
  0
LINE
  5
F8
330
75
100
AcDbEntity
  8
$DDT_AUDIT_GENERATED_(8C)
  6
Continuous
 62
     7
100
AcDbLine
 10
27.25
 20
423.6888859221
 30
0.0
 11
28.25
 21
423.6888859221
 31
0.0
  0
LINE
  5
F9
330
75
100
AcDbEntity
  8
$DDT_AUDIT_GENERATED_(8C)
  6
Continuous
 62
     7
100
AcDbLine
 10
28.25
 20
423.6888859221
 30
0.0
 11
28.25
 21
423.3468657788
 31
0.0
  0
LINE
  5
FA
330
75
100
AcDbEntity
  8
$DDT_AUDIT_GENERATED_(8C)
  6
Continuous
 62
     7
100
AcDbLine
 10
27.05
 20
423.3468657788
 30
0.0
 11
26.05
 21
423.3468657788
 31
0.0
  0
LINE
  5
FB
330
75
100
AcDbEntity
  8
$DDT_AUDIT_GENERATED_(8C)
  6
Continuous
 62
     7
100
AcDbLine
 10
26.05
 20
423.3468657788
 30
0.0
 11
26.05
 21
423.6888859221
 31
0.0
  0
LINE
  5
FC
330
75
100
AcDbEntity
  8
$DDT_AUDIT_GENERATED_(8C)
  6
Continuous
 62
     7
100
AcDbLine
 10
26.05
 20
423.6888859221
 30
0.0
 11
27.05
 21
423.6888859221
 31
0.0
  0
LINE
  5
FD
330
75
100
AcDbEntity
  8
$DDT_AUDIT_GENERATED_(8C)
  6
Continuous
 62
     7
100
AcDbLine
 10
27.05
 20
423.6888859221
 30
0.0
 11
27.05
 21
423.3468657788
 31
0.0
  0
LINE
  5
FE
330
75
100
AcDbEntity
  8
$DDT_AUDIT_GENERATED_(8C)
  6
Continuous
 62
     7
100
AcDbLine
 10
31.85
 20
422.9364416068
 30
0.0
 11
30.85
 21
422.9364416068
 31
0.0
  0
LINE
  5
FF
330
75
100
AcDbEntity
  8
$DDT_AUDIT_GENERATED_(8C)
  6
Continuous
 62
     7
100
AcDbLine
 10
30.85
 20
422.9364416068
 30
0.0
 11
30.85
 21
423.2784617501
 31
0.0
  0
LINE
  5
100
330
75
100
AcDbEntity
  8
$DDT_AUDIT_GENERATED_(8C)
  6
Continuous
 62
     7
100
AcDbLine
 10
30.85
 20
423.2784617501
 30
0.0
 11
31.85
 21
423.2784617501
 31
0.0
  0
LINE
  5
101
330
75
100
AcDbEntity
  8
$DDT_AUDIT_GENERATED_(8C)
  6
Continuous
 62
     7
100
AcDbLine
 10
30.65
 20
422.9364416068
 30
0.0
 11
29.65
 21
422.9364416068
 31
0.0
  0
LINE
  5
102
330
75
100
AcDbEntity
  8
$DDT_AUDIT_GENERATED_(8C)
  6
Continuous
 62
     7
100
AcDbLine
 10
29.65
 20
422.9364416068
 30
0.0
 11
29.65
 21
423.2784617501
 31
0.0
  0
LINE
  5
103
330
75
100
AcDbEntity
  8
$DDT_AUDIT_GENERATED_(8C)
  6
Continuous
 62
     7
100
AcDbLine
 10
29.65
 20
423.2784617501
 30
0.0
 11
30.65
 21
423.2784617501
 31
0.0
  0
LINE
  5
104
330
75
100
AcDbEntity
  8
$DDT_AUDIT_GENERATED_(8C)
  6
Continuous
 62
     7
100
AcDbLine
 10
30.65
 20
423.2784617501
 30
0.0
 11
30.65
 21
422.9364416068
 31
0.0
  0
LINE
  5
105
330
75
100
AcDbEntity
  8
$DDT_AUDIT_GENERATED_(8C)
  6
Continuous
 62
     7
100
AcDbLine
 10
29.45
 20
422.9364416068
 30
0.0
 11
28.45
 21
422.9364416068
 31
0.0
  0
LINE
  5
106
330
75
100
AcDbEntity
  8
$DDT_AUDIT_GENERATED_(8C)
  6
Continuous
 62
     7
100
AcDbLine
 10
28.45
 20
422.9364416068
 30
0.0
 11
28.45
 21
423.2784617501
 31
0.0
  0
LINE
  5
107
330
75
100
AcDbEntity
  8
$DDT_AUDIT_GENERATED_(8C)
  6
Continuous
 62
     7
100
AcDbLine
 10
28.45
 20
423.2784617501
 30
0.0
 11
29.45
 21
423.2784617501
 31
0.0
  0
LINE
  5
108
330
75
100
AcDbEntity
  8
$DDT_AUDIT_GENERATED_(8C)
  6
Continuous
 62
     7
100
AcDbLine
 10
29.45
 20
423.2784617501
 30
0.0
 11
29.45
 21
422.9364416068
 31
0.0
  0
LINE
  5
109
330
75
100
AcDbEntity
  8
$DDT_AUDIT_GENERATED_(8C)
  6
Continuous
 62
     7
100
AcDbLine
 10
28.25
 20
422.9364416068
 30
0.0
 11
27.25
 21
422.9364416068
 31
0.0
  0
LINE
  5
10A
330
75
100
AcDbEntity
  8
$DDT_AUDIT_GENERATED_(8C)
  6
Continuous
 62
     7
100
AcDbLine
 10
27.25
 20
422.9364416068
 30
0.0
 11
27.25
 21
423.2784617501
 31
0.0
  0
LINE
  5
10B
330
75
100
AcDbEntity
  8
$DDT_AUDIT_GENERATED_(8C)
  6
Continuous
 62
     7
100
AcDbLine
 10
27.25
 20
423.2784617501
 30
0.0
 11
28.25
 21
423.2784617501
 31
0.0
  0
LINE
  5
10C
330
75
100
AcDbEntity
  8
$DDT_AUDIT_GENERATED_(8C)
  6
Continuous
 62
     7
100
AcDbLine
 10
28.25
 20
423.2784617501
 30
0.0
 11
28.25
 21
422.9364416068
 31
0.0
  0
LINE
  5
10D
330
75
100
AcDbEntity
  8
$DDT_AUDIT_GENERATED_(8C)
  6
Continuous
 62
     7
100
AcDbLine
 10
31.85
 20
422.5260174348
 30
0.0
 11
30.85
 21
422.5260174348
 31
0.0
  0
LINE
  5
10E
330
75
100
AcDbEntity
  8
$DDT_AUDIT_GENERATED_(8C)
  6
Continuous
 62
     7
100
AcDbLine
 10
30.85
 20
422.5260174348
 30
0.0
 11
30.85
 21
422.8680375781
 31
0.0
  0
LINE
  5
10F
330
75
100
AcDbEntity
  8
$DDT_AUDIT_GENERATED_(8C)
  6
Continuous
 62
     7
100
AcDbLine
 10
30.85
 20
422.8680375781
 30
0.0
 11
31.85
 21
422.8680375781
 31
0.0
  0
LINE
  5
110
330
75
100
AcDbEntity
  8
$DDT_AUDIT_GENERATED_(8C)
  6
Continuous
 62
     7
100
AcDbLine
 10
30.65
 20
422.5260174348
 30
0.0
 11
29.65
 21
422.5260174348
 31
0.0
  0
LINE
  5
111
330
75
100
AcDbEntity
  8
$DDT_AUDIT_GENERATED_(8C)
  6
Continuous
 62
     7
100
AcDbLine
 10
29.65
 20
422.5260174348
 30
0.0
 11
29.65
 21
422.8680375781
 31
0.0
  0
LINE
  5
112
330
75
100
AcDbEntity
  8
$DDT_AUDIT_GENERATED_(8C)
  6
Continuous
 62
     7
100
AcDbLine
 10
29.65
 20
422.8680375781
 30
0.0
 11
30.65
 21
422.8680375781
 31
0.0
  0
LINE
  5
113
330
75
100
AcDbEntity
  8
$DDT_AUDIT_GENERATED_(8C)
  6
Continuous
 62
     7
100
AcDbLine
 10
30.65
 20
422.8680375781
 30
0.0
 11
30.65
 21
422.5260174348
 31
0.0
  0
LINE
  5
114
330
75
100
AcDbEntity
  8
$DDT_AUDIT_GENERATED_(8C)
  6
Continuous
 62
     7
100
AcDbLine
 10
29.45
 20
422.5260174348
 30
0.0
 11
28.45
 21
422.5260174348
 31
0.0
  0
LINE
  5
115
330
75
100
AcDbEntity
  8
$DDT_AUDIT_GENERATED_(8C)
  6
Continuous
 62
     7
100
AcDbLine
 10
28.45
 20
422.5260174348
 30
0.0
 11
28.45
 21
422.8680375781
 31
0.0
  0
LINE
  5
116
330
75
100
AcDbEntity
  8
$DDT_AUDIT_GENERATED_(8C)
  6
Continuous
 62
     7
100
AcDbLine
 10
28.45
 20
422.8680375781
 30
0.0
 11
29.45
 21
422.8680375781
 31
0.0
  0
LINE
  5
117
330
75
100
AcDbEntity
  8
$DDT_AUDIT_GENERATED_(8C)
  6
Continuous
 62
     7
100
AcDbLine
 10
29.45
 20
422.8680375781
 30
0.0
 11
29.45
 21
422.5260174348
 31
0.0
  0
ARC
  5
118
330
75
100
AcDbEntity
  8
$DDT_AUDIT_GENERATED_(8C)
  6
Continuous
 62
     7
100
AcDbCircle
 10
31.35
 20
446.4201387269
 30
0.0
 40
24.08223658750492
100
AcDbArc
 50
268.81032859
 51
271.18967141
  0
LINE
  5
119
330
75
100
AcDbEntity
  8
$DDT_AUDIT_GENERATED_(8C)
  6
Continuous
 62
     7
100
AcDbLine
 10
30.85
 20
422.3430932467
 30
0.0
 11
30.85
 21
422.4576134061
 31
0.0
  0
LINE
  5
11A
330
75
100
AcDbEntity
  8
$DDT_AUDIT_GENERATED_(8C)
  6
Continuous
 62
     7
100
AcDbLine
 10
30.85
 20
422.4576134061
 30
0.0
 11
31.85
 21
422.4576134061
 31
0.0
  0
ELLIPSE
  5
11B
330
75
100
AcDbEntity
  8
$DDT_AUDIT_GENERATED_(8C)
  6
Continuous
 62
     7
100
AcDbEllipse
 10
31.35
 20
425.1595725384
 30
0.0
 11
-8.249999999965485
 21
3.580469254416130E-12
 31
0.0
210
0.0
220
0.0
230
1.0
 40
0.3420201433
 41
1.363248876312194
 42
1.485845702910106
  0
LINE
  5
11C
330
75
100
AcDbEntity
  8
$DDT_AUDIT_GENERATED_(8C)
  6
Continuous
 62
     7
100
AcDbLine
 10
29.65
 20
422.398461482
 30
0.0
 11
29.65
 21
422.4576134061
 31
0.0
  0
LINE
  5
11D
330
75
100
AcDbEntity
  8
$DDT_AUDIT_GENERATED_(8C)
  6
Continuous
 62
     7
100
AcDbLine
 10
29.65
 20
422.4576134061
 30
0.0
 11
30.65
 21
422.4576134061
 31
0.0
  0
LINE
  5
11E
330
75
100
AcDbEntity
  8
$DDT_AUDIT_GENERATED_(8C)
  6
Continuous
 62
     7
100
AcDbLine
 10
30.65
 20
422.4576134061
 30
0.0
 11
30.65
 21
422.3480816645
 31
0.0
  0
ELLIPSE
  5
11F
330
75
100
AcDbEntity
  8
$DDT_AUDIT_GENERATED_(8C)
  6
Continuous
 62
     7
100
AcDbEllipse
 10
31.3499999997
 20
425.159572538
 30
0.0
 11
-8.249999999333387
 21
1.173366959150712E-10
 31
0.0
210
0.0
220
0.0
230
1.0
 40
0.3420201433
 41
1.278468933662292
 42
1.338407254339009
  0
LINE
  5
120
330
75
100
AcDbEntity
  8
$DDT_AUDIT_GENERATED_(8C)
  6
Continuous
 62
     7
100
AcDbLine
 10
28.9725013144
 20
422.4576134061
 30
0.0
 11
29.45
 21
422.4576134061
 31
0.0
  0
LINE
  5
121
330
75
100
AcDbEntity
  8
$DDT_AUDIT_GENERATED_(8C)
  6
Continuous
 62
     7
100
AcDbLine
 10
29.45
 20
422.4576134061
 30
0.0
 11
29.45
 21
422.4137556718
 31
0.0
  0
ELLIPSE
  5
122
330
75
100
AcDbEntity
  8
$DDT_AUDIT_GENERATED_(8C)
  6
Continuous
 62
     7
100
AcDbEllipse
 10
31.3500000001
 20
425.1595725384
 30
0.0
 11
-8.250000000082164
 21
-2.112199304349360E-11
 31
0.0
210
0.0
220
0.0
230
1.0
 40
0.3420201433
 41
1.050693123526882
 42
1.185582205127939
  0
LINE
  5
123
330
75
100
AcDbEntity
  8
$DDT_AUDIT_GENERATED_(8C)
  6
Continuous
 62
     7
100
AcDbLine
 10
27.25
 20
422.7110212137
 30
0.0
 11
27.25
 21
422.8680375781
 31
0.0
  0
LINE
  5
124
330
75
100
AcDbEntity
  8
$DDT_AUDIT_GENERATED_(8C)
  6
Continuous
 62
     7
100
AcDbLine
 10
27.25
 20
422.8680375781
 30
0.0
 11
28.25
 21
422.8680375781
 31
0.0
  0
LINE
  5
125
330
75
100
AcDbEntity
  8
$DDT_AUDIT_GENERATED_(8C)
  6
Continuous
 62
     7
100
AcDbLine
 10
28.25
 20
422.8680375781
 30
0.0
 11
28.25
 21
422.5446837082
 31
0.0
  0
ELLIPSE
  5
126
330
75
100
AcDbEntity
  8
$DDT_AUDIT_GENERATED_(8C)
  6
Continuous
 62
     7
100
AcDbEllipse
 10
31.349999973
 20
425.1595725269
 30
0.0
 11
-8.249999969990586
 21
8.146788799123781E-9
 31
0.0
210
0.0
220
0.0
230
1.0
 40
0.3420201431
 41
0.8731388754904202
 42
0.9073568942107227
  0
LINE
  5
127
330
75
100
AcDbEntity
  8
$DDT_AUDIT_GENERATED_(8C)
  6
Continuous
 62
     7
100
AcDbLine
 10
26.05
 20
422.9971909234
 30
0.0
 11
26.05
 21
423.2784617501
 31
0.0
  0
LINE
  5
128
330
75
100
AcDbEntity
  8
$DDT_AUDIT_GENERATED_(8C)
  6
Continuous
 62
     7
100
AcDbLine
 10
26.05
 20
423.2784617501
 30
0.0
 11
27.05
 21
423.2784617501
 31
0.0
  0
LINE
  5
129
330
75
100
AcDbEntity
  8
$DDT_AUDIT_GENERATED_(8C)
  6
Continuous
 62
     7
100
AcDbLine
 10
27.05
 20
423.2784617501
 30
0.0
 11
27.05
 21
422.9364416068
 31
0.0
  0
LINE
  5
12A
330
75
100
AcDbEntity
  8
$DDT_AUDIT_GENERATED_(8C)
  6
Continuous
 62
     7
100
AcDbLine
 10
27.05
 20
422.9364416068
 30
0.0
 11
26.2693996418
 21
422.9364416068
 31
0.0
  0
LINE
  5
12B
330
75
100
AcDbEntity
  8
$DDT_AUDIT_GENERATED_(8C)
  6
Continuous
 62
     7
100
AcDbLine
 10
26.2693996418
 20
422.9364416068
 30
0.0
 11
26.2693996418
 21
423.2784617501
 31
0.0
  0
ELLIPSE
  5
12C
330
75
100
AcDbEntity
  8
$DDT_AUDIT_GENERATED_(8C)
  6
Continuous
 62
     7
100
AcDbEllipse
 10
31.3499999992
 20
425.159572538
 30
0.0
 11
-8.249999999054173
 21
2.577105195911145E-10
 31
0.0
210
0.0
220
0.0
230
1.0
 40
0.3420201433
 41
0.947778367019629
 42
1.022525692766054
  0
LINE
  5
12D
330
75
100
AcDbEntity
  8
$DDT_AUDIT_GENERATED_(8C)
  6
Continuous
 62
     7
100
AcDbLine
 10
26.5362177033
 20
422.8680375781
 30
0.0
 11
27.05
 21
422.8680375781
 31
0.0
  0
LINE
  5
12E
330
75
100
AcDbEntity
  8
$DDT_AUDIT_GENERATED_(8C)
  6
Continuous
 62
     7
100
AcDbLine
 10
27.05
 20
422.8680375781
 30
0.0
 11
27.05
 21
422.7514859698
 31
0.0
  0
ELLIPSE
  5
12F
330
75
100
AcDbEntity
  8
$DDT_AUDIT_GENERATED_(8C)
  6
Continuous
 62
     7
100
AcDbEllipse
 10
31.3499999667
 20
425.1595725291
 30
0.0
 11
-8.249999965599656
 21
8.124043104906775E-9
 31
0.0
210
0.0
220
0.0
230
1.0
 40
0.3420201435
 41
0.6634394357989506
 42
0.6976574545190121
  0
LINE
  5
130
330
75
100
AcDbEntity
  8
$DDT_AUDIT_GENERATED_(8C)
  6
Continuous
 62
     7
100
AcDbLine
 10
24.85
 20
423.4219048757
 30
0.0
 11
24.85
 21
423.6888859221
 31
0.0
  0
LINE
  5
131
330
75
100
AcDbEntity
  8
$DDT_AUDIT_GENERATED_(8C)
  6
Continuous
 62
     7
100
AcDbLine
 10
24.85
 20
423.6888859221
 30
0.0
 11
25.85
 21
423.6888859221
 31
0.0
  0
LINE
  5
132
330
75
100
AcDbEntity
  8
$DDT_AUDIT_GENERATED_(8C)
  6
Continuous
 62
     7
100
AcDbLine
 10
25.85
 20
423.6888859221
 30
0.0
 11
25.85
 21
423.3468657788
 31
0.0
  0
LINE
  5
133
330
75
100
AcDbEntity
  8
$DDT_AUDIT_GENERATED_(8C)
  6
Continuous
 62
     7
100
AcDbLine
 10
25.85
 20
423.3468657788
 30
0.0
 11
25.0276191194
 21
423.3468657788
 31
0.0
  0
LINE
  5
134
330
75
100
AcDbEntity
  8
$DDT_AUDIT_GENERATED_(8C)
  6
Continuous
 62
     7
100
AcDbLine
 10
25.0276191194
 20
423.3468657788
 30
0.0
 11
25.0276191194
 21
423.6888859221
 31
0.0
  0
ELLIPSE
  5
135
330
75
100
AcDbEntity
  8
$DDT_AUDIT_GENERATED_(8C)
  6
Continuous
 62
     7
100
AcDbEllipse
 10
31.35
 20
425.1595725384
 30
0.0
 11
-8.25000000001225
 21
-3.955169525227120E-12
 31
0.0
210
0.0
220
0.0
230
1.0
 40
0.3420201433
 41
0.7297276562263112
 42
0.8410686705671756
  0
LINE
  5
136
330
75
100
AcDbEntity
  8
$DDT_AUDIT_GENERATED_(8C)
  6
Continuous
 62
     7
100
AcDbLine
 10
25.2008130619
 20
423.2784617501
 30
0.0
 11
25.85
 21
423.2784617501
 31
0.0
  0
LINE
  5
137
330
75
100
AcDbEntity
  8
$DDT_AUDIT_GENERATED_(8C)
  6
Continuous
 62
     7
100
AcDbLine
 10
25.85
 20
423.2784617501
 30
0.0
 11
25.85
 21
423.0564267405
 31
0.0
  0
LINE
  5
138
330
75
100
AcDbEntity
  8
$DDT_AUDIT_GENERATED_(8C)
  6
Continuous
 62
     7
100
AcDbLine
 10
24.65
 20
424.1677141227
 30
0.0
 11
23.65
 21
424.1677141227
 31
0.0
  0
LINE
  5
139
330
75
100
AcDbEntity
  8
$DDT_AUDIT_GENERATED_(8C)
  6
Continuous
 62
     7
100
AcDbLine
 10
23.65
 20
424.1677141227
 30
0.0
 11
23.65
 21
424.5097342661
 31
0.0
  0
LINE
  5
13A
330
75
100
AcDbEntity
  8
$DDT_AUDIT_GENERATED_(8C)
  6
Continuous
 62
     7
100
AcDbLine
 10
23.65
 20
424.5097342661
 30
0.0
 11
24.65
 21
424.5097342661
 31
0.0
  0
LINE
  5
13B
330
75
100
AcDbEntity
  8
$DDT_AUDIT_GENERATED_(8C)
  6
Continuous
 62
     7
100
AcDbLine
 10
24.65
 20
424.5097342661
 30
0.0
 11
24.65
 21
424.1677141227
 31
0.0
  0
ELLIPSE
  5
13C
330
75
100
AcDbEntity
  8
$DDT_AUDIT_GENERATED_(8C)
  6
Continuous
 62
     7
100
AcDbEllipse
 10
31.3500000001
 20
425.1595725384
 30
0.0
 11
-8.250000000050926
 21
-6.356026815979021E-12
 31
0.0
210
0.0
220
0.0
230
1.0
 40
0.3420201433
 41
0.3852141216608343
 42
0.520103203262556
  0
LINE
  5
13D
330
75
100
AcDbEntity
  8
$DDT_AUDIT_GENERATED_(8C)
  6
Continuous
 62
     7
100
AcDbLine
 10
23.7045765323
 20
424.0993100941
 30
0.0
 11
24.65
 21
424.0993100941
 31
0.0
  0
LINE
  5
13E
330
75
100
AcDbEntity
  8
$DDT_AUDIT_GENERATED_(8C)
  6
Continuous
 62
     7
100
AcDbLine
 10
24.65
 20
424.0993100941
 30
0.0
 11
24.65
 21
423.7572899507
 31
0.0
  0
LINE
  5
13F
330
75
100
AcDbEntity
  8
$DDT_AUDIT_GENERATED_(8C)
  6
Continuous
 62
     7
100
AcDbLine
 10
24.65
 20
423.7572899507
 30
0.0
 11
24.1909148629
 21
423.7572899507
 31
0.0
  0
LINE
  5
140
330
75
100
AcDbEntity
  8
$DDT_AUDIT_GENERATED_(8C)
  6
Continuous
 62
     7
100
AcDbLine
 10
24.1909148629
 20
423.7572899507
 30
0.0
 11
24.1909148629
 21
424.0993100941
 31
0.0
  0
ELLIPSE
  5
141
330
75
100
AcDbEntity
  8
$DDT_AUDIT_GENERATED_(8C)
  6
Continuous
 62
     7
100
AcDbEllipse
 10
31.3499999993
 20
425.1595725382
 30
0.0
 11
-8.249999999255243
 21
1.548483563595937E-10
 31
0.0
210
0.0
220
0.0
230
1.0
 40
0.3420201433
 41
0.5482706341124288
 42
0.6230179598562792
  0
LINE
  5
142
330
75
100
AcDbEntity
  8
$DDT_AUDIT_GENERATED_(8C)
  6
Continuous
 62
     7
100
AcDbLine
 10
24.3092258948
 20
423.6888859221
 30
0.0
 11
24.65
 21
423.6888859221
 31
0.0
  0
LINE
  5
143
330
75
100
AcDbEntity
  8
$DDT_AUDIT_GENERATED_(8C)
  6
Continuous
 62
     7
100
AcDbLine
 10
24.65
 20
423.6888859221
 30
0.0
 11
24.65
 21
423.5131620273
 31
0.0
  0
ELLIPSE
  5
144
330
75
100
AcDbEntity
  8
$DDT_AUDIT_GENERATED_(8C)
  6
Continuous
 62
     7
100
AcDbEllipse
 10
31.3500000003
 20
425.1595725384
 30
0.0
 11
8.250000000319051
 21
0.0
 31
0.0
210
0.0
220
0.0
230
1.0
 40
0.3420201433
 41
3.080949429559445
 42
3.202235877620141
  0
LINE
  5
145
330
75
100
AcDbEntity
  8
$DDT_AUDIT_GENERATED_(8C)
  6
Continuous
 62
     7
100
AcDbLine
 10
23.45
 20
425.33058261
 30
0.0
 11
23.45
 21
424.9885624667
 31
0.0
  0
LINE
  5
146
330
75
100
AcDbEntity
  8
$DDT_AUDIT_GENERATED_(8C)
  6
Continuous
 62
     7
100
AcDbLine
 10
23.45
 20
424.9885624667
 30
0.0
 11
23.115165454
 21
424.9885624667
 31
0.0
  0
LINE
  5
147
330
75
100
AcDbEntity
  8
$DDT_AUDIT_GENERATED_(8C)
  6
Continuous
 62
     7
100
AcDbLine
 10
23.115165454
 20
424.9885624667
 30
0.0
 11
23.115165454
 21
425.33058261
 31
0.0
  0
ELLIPSE
  5
148
330
75
100
AcDbEntity
  8
$DDT_AUDIT_GENERATED_(8C)
  6
Continuous
 62
     7
100
AcDbEllipse
 10
31.3500000002
 20
425.1595725384
 30
0.0
 11
-8.250000000241087
 21
-1.204591981718295E-11
 31
0.0
210
0.0
220
0.0
230
1.0
 40
0.3420201433
 41
0.0849506238839567
 42
0.2075474504795704
  0
LINE
  5
149
330
75
100
AcDbEntity
  8
$DDT_AUDIT_GENERATED_(8C)
  6
Continuous
 62
     7
100
AcDbLine
 10
23.1297506121
 20
424.9201584381
 30
0.0
 11
23.45
 21
424.9201584381
 31
0.0
  0
LINE
  5
14A
330
75
100
AcDbEntity
  8
$DDT_AUDIT_GENERATED_(8C)
  6
Continuous
 62
     7
100
AcDbLine
 10
23.45
 20
424.9201584381
 30
0.0
 11
23.45
 21
424.5781382947
 31
0.0
  0
LINE
  5
14B
330
75
100
AcDbEntity
  8
$DDT_AUDIT_GENERATED_(8C)
  6
Continuous
 62
     7
100
AcDbLine
 10
23.45
 20
424.5781382947
 30
0.0
 11
23.2770513441
 21
424.5781382947
 31
0.0
  0
LINE
  5
14C
330
75
100
AcDbEntity
  8
$DDT_AUDIT_GENERATED_(8C)
  6
Continuous
 62
     7
100
AcDbLine
 10
23.2770513441
 20
424.5781382947
 30
0.0
 11
23.2770513441
 21
424.9201584381
 31
0.0
  0
ELLIPSE
  5
14D
330
75
100
AcDbEntity
  8
$DDT_AUDIT_GENERATED_(8C)
  6
Continuous
 62
     7
100
AcDbEllipse
 10
31.3500000109
 20
425.1595725394
 30
0.0
 11
-8.250000010867435
 21
-1.100064483949836E-9
 31
0.0
210
0.0
220
0.0
230
1.0
 40
0.3420201431
 41
0.2323890722854065
 42
0.2923273929166957
  0
LINE
  5
14E
330
75
100
AcDbEntity
  8
$DDT_AUDIT_GENERATED_(8C)
  6
Continuous
 62
     7
100
AcDbLine
 10
23.3217685634
 20
424.5097342661
 30
0.0
 11
23.45
 21
424.5097342661
 31
0.0
  0
LINE
  5
14F
330
75
100
AcDbEntity
  8
$DDT_AUDIT_GENERATED_(8C)
  6
Continuous
 62
     7
100
AcDbLine
 10
23.45
 20
424.5097342661
 30
0.0
 11
23.45
 21
424.3464200972
 31
0.0
  0
LINE
  5
150
330
75
100
AcDbEntity
  8
$DDT_AUDIT_GENERATED_(8C)
  6
Continuous
 62
     7
100
AcDbLine
 10
30.85
 20
424.9885624667
 30
0.0
 11
30.85
 21
425.33058261
 31
0.0
  0
LINE
  5
151
330
75
100
AcDbEntity
  8
$DDT_AUDIT_GENERATED_(8C)
  6
Continuous
 62
     7
100
AcDbLine
 10
31.85
 20
424.9885624667
 30
0.0
 11
30.85
 21
424.9885624667
 31
0.0
  0
LINE
  5
152
330
75
100
AcDbEntity
  8
$DDT_AUDIT_GENERATED_(8C)
  6
Continuous
 62
     7
100
AcDbLine
 10
30.85
 20
425.3989866387
 30
0.0
 11
30.85
 21
425.741006782
 31
0.0
  0
LINE
  5
153
330
75
100
AcDbEntity
  8
$DDT_AUDIT_GENERATED_(8C)
  6
Continuous
 62
     7
100
AcDbLine
 10
30.85
 20
425.741006782
 30
0.0
 11
31.85
 21
425.741006782
 31
0.0
  0
LINE
  5
154
330
75
100
AcDbEntity
  8
$DDT_AUDIT_GENERATED_(8C)
  6
Continuous
 62
     7
100
AcDbLine
 10
31.85
 20
425.3989866387
 30
0.0
 11
30.85
 21
425.3989866387
 31
0.0
  0
LINE
  5
155
330
75
100
AcDbEntity
  8
$DDT_AUDIT_GENERATED_(8C)
  6
Continuous
 62
     7
100
AcDbLine
 10
30.85
 20
425.8094108107
 30
0.0
 11
30.85
 21
426.151430954
 31
0.0
  0
LINE
  5
156
330
75
100
AcDbEntity
  8
$DDT_AUDIT_GENERATED_(8C)
  6
Continuous
 62
     7
100
AcDbLine
 10
30.85
 20
426.151430954
 30
0.0
 11
31.85
 21
426.151430954
 31
0.0
  0
LINE
  5
157
330
75
100
AcDbEntity
  8
$DDT_AUDIT_GENERATED_(8C)
  6
Continuous
 62
     7
100
AcDbLine
 10
31.85
 20
425.8094108107
 30
0.0
 11
30.85
 21
425.8094108107
 31
0.0
  0
LINE
  5
158
330
75
100
AcDbEntity
  8
$DDT_AUDIT_GENERATED_(8C)
  6
Continuous
 62
     7
100
AcDbLine
 10
30.85
 20
426.2198349827
 30
0.0
 11
30.85
 21
426.561855126
 31
0.0
  0
LINE
  5
159
330
75
100
AcDbEntity
  8
$DDT_AUDIT_GENERATED_(8C)
  6
Continuous
 62
     7
100
AcDbLine
 10
30.85
 20
426.561855126
 30
0.0
 11
31.85
 21
426.561855126
 31
0.0
  0
LINE
  5
15A
330
75
100
AcDbEntity
  8
$DDT_AUDIT_GENERATED_(8C)
  6
Continuous
 62
     7
100
AcDbLine
 10
31.85
 20
426.2198349827
 30
0.0
 11
30.85
 21
426.2198349827
 31
0.0
  0
LINE
  5
15B
330
75
100
AcDbEntity
  8
$DDT_AUDIT_GENERATED_(8C)
  6
Continuous
 62
     7
100
AcDbLine
 10
30.85
 20
426.6302591547
 30
0.0
 11
30.85
 21
426.972279298
 31
0.0
  0
LINE
  5
15C
330
75
100
AcDbEntity
  8
$DDT_AUDIT_GENERATED_(8C)
  6
Continuous
 62
     7
100
AcDbLine
 10
30.85
 20
426.972279298
 30
0.0
 11
31.85
 21
426.972279298
 31
0.0
  0
LINE
  5
15D
330
75
100
AcDbEntity
  8
$DDT_AUDIT_GENERATED_(8C)
  6
Continuous
 62
     7
100
AcDbLine
 10
31.85
 20
426.6302591547
 30
0.0
 11
30.85
 21
426.6302591547
 31
0.0
  0
LINE
  5
15E
330
75
100
AcDbEntity
  8
$DDT_AUDIT_GENERATED_(8C)
  6
Continuous
 62
     7
100
AcDbLine
 10
30.85
 20
427.0406833267
 30
0.0
 11
30.85
 21
427.38270347
 31
0.0
  0
LINE
  5
15F
330
75
100
AcDbEntity
  8
$DDT_AUDIT_GENERATED_(8C)
  6
Continuous
 62
     7
100
AcDbLine
 10
30.85
 20
427.38270347
 30
0.0
 11
31.85
 21
427.38270347
 31
0.0
  0
LINE
  5
160
330
75
100
AcDbEntity
  8
$DDT_AUDIT_GENERATED_(8C)
  6
Continuous
 62
     7
100
AcDbLine
 10
31.85
 20
427.0406833267
 30
0.0
 11
30.85
 21
427.0406833267
 31
0.0
  0
LINE
  5
161
330
75
100
AcDbEntity
  8
$DDT_AUDIT_GENERATED_(8C)
  6
Continuous
 62
     7
100
AcDbLine
 10
30.85
 20
427.4511074987
 30
0.0
 11
30.85
 21
427.5918633798
 31
0.0
  0
LINE
  5
162
330
75
100
AcDbEntity
  8
$DDT_AUDIT_GENERATED_(8C)
  6
Continuous
 62
     7
100
AcDbLine
 10
31.85
 20
427.4511074987
 30
0.0
 11
30.85
 21
427.4511074987
 31
0.0
  0
LINE
  5
163
330
75
100
AcDbEntity
  8
$DDT_AUDIT_GENERATED_(8C)
  6
Continuous
 62
     7
100
AcDbLine
 10
29.65
 20
425.33058261
 30
0.0
 11
30.65
 21
425.33058261
 31
0.0
  0
LINE
  5
164
330
75
100
AcDbEntity
  8
$DDT_AUDIT_GENERATED_(8C)
  6
Continuous
 62
     7
100
AcDbLine
 10
29.65
 20
425.3989866387
 30
0.0
 11
29.65
 21
425.741006782
 31
0.0
  0
LINE
  5
165
330
75
100
AcDbEntity
  8
$DDT_AUDIT_GENERATED_(8C)
  6
Continuous
 62
     7
100
AcDbLine
 10
29.65
 20
425.741006782
 30
0.0
 11
30.65
 21
425.741006782
 31
0.0
  0
LINE
  5
166
330
75
100
AcDbEntity
  8
$DDT_AUDIT_GENERATED_(8C)
  6
Continuous
 62
     7
100
AcDbLine
 10
30.65
 20
425.741006782
 30
0.0
 11
30.65
 21
425.3989866387
 31
0.0
  0
LINE
  5
167
330
75
100
AcDbEntity
  8
$DDT_AUDIT_GENERATED_(8C)
  6
Continuous
 62
     7
100
AcDbLine
 10
30.65
 20
425.3989866387
 30
0.0
 11
29.65
 21
425.3989866387
 31
0.0
  0
LINE
  5
168
330
75
100
AcDbEntity
  8
$DDT_AUDIT_GENERATED_(8C)
  6
Continuous
 62
     7
100
AcDbLine
 10
29.65
 20
425.8094108107
 30
0.0
 11
29.65
 21
426.151430954
 31
0.0
  0
LINE
  5
169
330
75
100
AcDbEntity
  8
$DDT_AUDIT_GENERATED_(8C)
  6
Continuous
 62
     7
100
AcDbLine
 10
29.65
 20
426.151430954
 30
0.0
 11
30.65
 21
426.151430954
 31
0.0
  0
LINE
  5
16A
330
75
100
AcDbEntity
  8
$DDT_AUDIT_GENERATED_(8C)
  6
Continuous
 62
     7
100
AcDbLine
 10
30.65
 20
426.151430954
 30
0.0
 11
30.65
 21
425.8094108107
 31
0.0
  0
LINE
  5
16B
330
75
100
AcDbEntity
  8
$DDT_AUDIT_GENERATED_(8C)
  6
Continuous
 62
     7
100
AcDbLine
 10
30.65
 20
425.8094108107
 30
0.0
 11
29.65
 21
425.8094108107
 31
0.0
  0
LINE
  5
16C
330
75
100
AcDbEntity
  8
$DDT_AUDIT_GENERATED_(8C)
  6
Continuous
 62
     7
100
AcDbLine
 10
29.65
 20
426.2198349827
 30
0.0
 11
29.65
 21
426.561855126
 31
0.0
  0
LINE
  5
16D
330
75
100
AcDbEntity
  8
$DDT_AUDIT_GENERATED_(8C)
  6
Continuous
 62
     7
100
AcDbLine
 10
29.65
 20
426.561855126
 30
0.0
 11
30.65
 21
426.561855126
 31
0.0
  0
LINE
  5
16E
330
75
100
AcDbEntity
  8
$DDT_AUDIT_GENERATED_(8C)
  6
Continuous
 62
     7
100
AcDbLine
 10
30.65
 20
426.561855126
 30
0.0
 11
30.65
 21
426.2198349827
 31
0.0
  0
LINE
  5
16F
330
75
100
AcDbEntity
  8
$DDT_AUDIT_GENERATED_(8C)
  6
Continuous
 62
     7
100
AcDbLine
 10
30.65
 20
426.2198349827
 30
0.0
 11
29.65
 21
426.2198349827
 31
0.0
  0
LINE
  5
170
330
75
100
AcDbEntity
  8
$DDT_AUDIT_GENERATED_(8C)
  6
Continuous
 62
     7
100
AcDbLine
 10
29.65
 20
426.6302591547
 30
0.0
 11
29.65
 21
426.972279298
 31
0.0
  0
LINE
  5
171
330
75
100
AcDbEntity
  8
$DDT_AUDIT_GENERATED_(8C)
  6
Continuous
 62
     7
100
AcDbLine
 10
29.65
 20
426.972279298
 30
0.0
 11
30.65
 21
426.972279298
 31
0.0
  0
LINE
  5
172
330
75
100
AcDbEntity
  8
$DDT_AUDIT_GENERATED_(8C)
  6
Continuous
 62
     7
100
AcDbLine
 10
30.65
 20
426.972279298
 30
0.0
 11
30.65
 21
426.6302591547
 31
0.0
  0
LINE
  5
173
330
75
100
AcDbEntity
  8
$DDT_AUDIT_GENERATED_(8C)
  6
Continuous
 62
     7
100
AcDbLine
 10
30.65
 20
426.6302591547
 30
0.0
 11
29.65
 21
426.6302591547
 31
0.0
  0
LINE
  5
174
330
75
100
AcDbEntity
  8
$DDT_AUDIT_GENERATED_(8C)
  6
Continuous
 62
     7
100
AcDbLine
 10
29.65
 20
427.0406833267
 30
0.0
 11
29.65
 21
427.38270347
 31
0.0
  0
LINE
  5
175
330
75
100
AcDbEntity
  8
$DDT_AUDIT_GENERATED_(8C)
  6
Continuous
 62
     7
100
AcDbLine
 10
29.65
 20
427.38270347
 30
0.0
 11
30.65
 21
427.38270347
 31
0.0
  0
LINE
  5
176
330
75
100
AcDbEntity
  8
$DDT_AUDIT_GENERATED_(8C)
  6
Continuous
 62
     7
100
AcDbLine
 10
30.65
 20
427.38270347
 30
0.0
 11
30.65
 21
427.0406833267
 31
0.0
  0
LINE
  5
177
330
75
100
AcDbEntity
  8
$DDT_AUDIT_GENERATED_(8C)
  6
Continuous
 62
     7
100
AcDbLine
 10
30.65
 20
427.0406833267
 30
0.0
 11
29.65
 21
427.0406833267
 31
0.0
  0
LINE
  5
178
330
75
100
AcDbEntity
  8
$DDT_AUDIT_GENERATED_(8C)
  6
Continuous
 62
     7
100
AcDbLine
 10
29.65
 20
427.4511074987
 30
0.0
 11
29.65
 21
427.5381606599
 31
0.0
  0
LINE
  5
179
330
75
100
AcDbEntity
  8
$DDT_AUDIT_GENERATED_(8C)
  6
Continuous
 62
     7
100
AcDbLine
 10
30.65
 20
427.587022447
 30
0.0
 11
30.65
 21
427.4511074987
 31
0.0
  0
LINE
  5
17A
330
75
100
AcDbEntity
  8
$DDT_AUDIT_GENERATED_(8C)
  6
Continuous
 62
     7
100
AcDbLine
 10
30.65
 20
427.4511074987
 30
0.0
 11
29.65
 21
427.4511074987
 31
0.0
  0
LINE
  5
17B
330
75
100
AcDbEntity
  8
$DDT_AUDIT_GENERATED_(8C)
  6
Continuous
 62
     7
100
AcDbLine
 10
28.45
 20
425.33058261
 30
0.0
 11
29.45
 21
425.33058261
 31
0.0
  0
LINE
  5
17C
330
75
100
AcDbEntity
  8
$DDT_AUDIT_GENERATED_(8C)
  6
Continuous
 62
     7
100
AcDbLine
 10
28.45
 20
425.3989866387
 30
0.0
 11
28.45
 21
425.741006782
 31
0.0
  0
LINE
  5
17D
330
75
100
AcDbEntity
  8
$DDT_AUDIT_GENERATED_(8C)
  6
Continuous
 62
     7
100
AcDbLine
 10
28.45
 20
425.741006782
 30
0.0
 11
29.45
 21
425.741006782
 31
0.0
  0
LINE
  5
17E
330
75
100
AcDbEntity
  8
$DDT_AUDIT_GENERATED_(8C)
  6
Continuous
 62
     7
100
AcDbLine
 10
29.45
 20
425.741006782
 30
0.0
 11
29.45
 21
425.3989866387
 31
0.0
  0
LINE
  5
17F
330
75
100
AcDbEntity
  8
$DDT_AUDIT_GENERATED_(8C)
  6
Continuous
 62
     7
100
AcDbLine
 10
29.45
 20
425.3989866387
 30
0.0
 11
28.45
 21
425.3989866387
 31
0.0
  0
LINE
  5
180
330
75
100
AcDbEntity
  8
$DDT_AUDIT_GENERATED_(8C)
  6
Continuous
 62
     7
100
AcDbLine
 10
28.45
 20
425.8094108107
 30
0.0
 11
28.45
 21
426.151430954
 31
0.0
  0
LINE
  5
181
330
75
100
AcDbEntity
  8
$DDT_AUDIT_GENERATED_(8C)
  6
Continuous
 62
     7
100
AcDbLine
 10
28.45
 20
426.151430954
 30
0.0
 11
29.45
 21
426.151430954
 31
0.0
  0
LINE
  5
182
330
75
100
AcDbEntity
  8
$DDT_AUDIT_GENERATED_(8C)
  6
Continuous
 62
     7
100
AcDbLine
 10
29.45
 20
426.151430954
 30
0.0
 11
29.45
 21
425.8094108107
 31
0.0
  0
LINE
  5
183
330
75
100
AcDbEntity
  8
$DDT_AUDIT_GENERATED_(8C)
  6
Continuous
 62
     7
100
AcDbLine
 10
29.45
 20
425.8094108107
 30
0.0
 11
28.45
 21
425.8094108107
 31
0.0
  0
LINE
  5
184
330
75
100
AcDbEntity
  8
$DDT_AUDIT_GENERATED_(8C)
  6
Continuous
 62
     7
100
AcDbLine
 10
28.45
 20
426.2198349827
 30
0.0
 11
28.45
 21
426.561855126
 31
0.0
  0
LINE
  5
185
330
75
100
AcDbEntity
  8
$DDT_AUDIT_GENERATED_(8C)
  6
Continuous
 62
     7
100
AcDbLine
 10
28.45
 20
426.561855126
 30
0.0
 11
29.45
 21
426.561855126
 31
0.0
  0
LINE
  5
186
330
75
100
AcDbEntity
  8
$DDT_AUDIT_GENERATED_(8C)
  6
Continuous
 62
     7
100
AcDbLine
 10
29.45
 20
426.561855126
 30
0.0
 11
29.45
 21
426.2198349827
 31
0.0
  0
LINE
  5
187
330
75
100
AcDbEntity
  8
$DDT_AUDIT_GENERATED_(8C)
  6
Continuous
 62
     7
100
AcDbLine
 10
29.45
 20
426.2198349827
 30
0.0
 11
28.45
 21
426.2198349827
 31
0.0
  0
LINE
  5
188
330
75
100
AcDbEntity
  8
$DDT_AUDIT_GENERATED_(8C)
  6
Continuous
 62
     7
100
AcDbLine
 10
28.45
 20
426.6302591547
 30
0.0
 11
28.45
 21
426.972279298
 31
0.0
  0
LINE
  5
189
330
75
100
AcDbEntity
  8
$DDT_AUDIT_GENERATED_(8C)
  6
Continuous
 62
     7
100
AcDbLine
 10
28.45
 20
426.972279298
 30
0.0
 11
29.45
 21
426.972279298
 31
0.0
  0
LINE
  5
18A
330
75
100
AcDbEntity
  8
$DDT_AUDIT_GENERATED_(8C)
  6
Continuous
 62
     7
100
AcDbLine
 10
29.45
 20
426.972279298
 30
0.0
 11
29.45
 21
426.6302591547
 31
0.0
  0
LINE
  5
18B
330
75
100
AcDbEntity
  8
$DDT_AUDIT_GENERATED_(8C)
  6
Continuous
 62
     7
100
AcDbLine
 10
29.45
 20
426.6302591547
 30
0.0
 11
28.45
 21
426.6302591547
 31
0.0
  0
LINE
  5
18C
330
75
100
AcDbEntity
  8
$DDT_AUDIT_GENERATED_(8C)
  6
Continuous
 62
     7
100
AcDbLine
 10
28.45
 20
427.0406833267
 30
0.0
 11
28.45
 21
427.38270347
 31
0.0
  0
LINE
  5
18D
330
75
100
AcDbEntity
  8
$DDT_AUDIT_GENERATED_(8C)
  6
Continuous
 62
     7
100
AcDbLine
 10
28.45
 20
427.38270347
 30
0.0
 11
29.45
 21
427.38270347
 31
0.0
  0
LINE
  5
18E
330
75
100
AcDbEntity
  8
$DDT_AUDIT_GENERATED_(8C)
  6
Continuous
 62
     7
100
AcDbLine
 10
29.45
 20
427.38270347
 30
0.0
 11
29.45
 21
427.0406833267
 31
0.0
  0
LINE
  5
18F
330
75
100
AcDbEntity
  8
$DDT_AUDIT_GENERATED_(8C)
  6
Continuous
 62
     7
100
AcDbLine
 10
29.45
 20
427.0406833267
 30
0.0
 11
28.45
 21
427.0406833267
 31
0.0
  0
LINE
  5
190
330
75
100
AcDbEntity
  8
$DDT_AUDIT_GENERATED_(8C)
  6
Continuous
 62
     7
100
AcDbLine
 10
27.25
 20
425.33058261
 30
0.0
 11
28.25
 21
425.33058261
 31
0.0
  0
LINE
  5
191
330
75
100
AcDbEntity
  8
$DDT_AUDIT_GENERATED_(8C)
  6
Continuous
 62
     7
100
AcDbLine
 10
27.25
 20
425.3989866387
 30
0.0
 11
27.25
 21
425.741006782
 31
0.0
  0
LINE
  5
192
330
75
100
AcDbEntity
  8
$DDT_AUDIT_GENERATED_(8C)
  6
Continuous
 62
     7
100
AcDbLine
 10
27.25
 20
425.741006782
 30
0.0
 11
28.25
 21
425.741006782
 31
0.0
  0
LINE
  5
193
330
75
100
AcDbEntity
  8
$DDT_AUDIT_GENERATED_(8C)
  6
Continuous
 62
     7
100
AcDbLine
 10
28.25
 20
425.741006782
 30
0.0
 11
28.25
 21
425.3989866387
 31
0.0
  0
LINE
  5
194
330
75
100
AcDbEntity
  8
$DDT_AUDIT_GENERATED_(8C)
  6
Continuous
 62
     7
100
AcDbLine
 10
28.25
 20
425.3989866387
 30
0.0
 11
27.25
 21
425.3989866387
 31
0.0
  0
LINE
  5
195
330
75
100
AcDbEntity
  8
$DDT_AUDIT_GENERATED_(8C)
  6
Continuous
 62
     7
100
AcDbLine
 10
27.25
 20
425.8094108107
 30
0.0
 11
27.25
 21
426.151430954
 31
0.0
  0
LINE
  5
196
330
75
100
AcDbEntity
  8
$DDT_AUDIT_GENERATED_(8C)
  6
Continuous
 62
     7
100
AcDbLine
 10
27.25
 20
426.151430954
 30
0.0
 11
28.25
 21
426.151430954
 31
0.0
  0
LINE
  5
197
330
75
100
AcDbEntity
  8
$DDT_AUDIT_GENERATED_(8C)
  6
Continuous
 62
     7
100
AcDbLine
 10
28.25
 20
426.151430954
 30
0.0
 11
28.25
 21
425.8094108107
 31
0.0
  0
LINE
  5
198
330
75
100
AcDbEntity
  8
$DDT_AUDIT_GENERATED_(8C)
  6
Continuous
 62
     7
100
AcDbLine
 10
28.25
 20
425.8094108107
 30
0.0
 11
27.25
 21
425.8094108107
 31
0.0
  0
LINE
  5
199
330
75
100
AcDbEntity
  8
$DDT_AUDIT_GENERATED_(8C)
  6
Continuous
 62
     7
100
AcDbLine
 10
27.25
 20
426.2198349827
 30
0.0
 11
27.25
 21
426.561855126
 31
0.0
  0
LINE
  5
19A
330
75
100
AcDbEntity
  8
$DDT_AUDIT_GENERATED_(8C)
  6
Continuous
 62
     7
100
AcDbLine
 10
27.25
 20
426.561855126
 30
0.0
 11
28.25
 21
426.561855126
 31
0.0
  0
LINE
  5
19B
330
75
100
AcDbEntity
  8
$DDT_AUDIT_GENERATED_(8C)
  6
Continuous
 62
     7
100
AcDbLine
 10
28.25
 20
426.561855126
 30
0.0
 11
28.25
 21
426.2198349827
 31
0.0
  0
LINE
  5
19C
330
75
100
AcDbEntity
  8
$DDT_AUDIT_GENERATED_(8C)
  6
Continuous
 62
     7
100
AcDbLine
 10
28.25
 20
426.2198349827
 30
0.0
 11
27.25
 21
426.2198349827
 31
0.0
  0
LINE
  5
19D
330
75
100
AcDbEntity
  8
$DDT_AUDIT_GENERATED_(8C)
  6
Continuous
 62
     7
100
AcDbLine
 10
27.25
 20
426.6302591547
 30
0.0
 11
27.25
 21
426.972279298
 31
0.0
  0
LINE
  5
19E
330
75
100
AcDbEntity
  8
$DDT_AUDIT_GENERATED_(8C)
  6
Continuous
 62
     7
100
AcDbLine
 10
27.25
 20
426.972279298
 30
0.0
 11
28.25
 21
426.972279298
 31
0.0
  0
LINE
  5
19F
330
75
100
AcDbEntity
  8
$DDT_AUDIT_GENERATED_(8C)
  6
Continuous
 62
     7
100
AcDbLine
 10
28.25
 20
426.972279298
 30
0.0
 11
28.25
 21
426.6302591547
 31
0.0
  0
LINE
  5
1A0
330
75
100
AcDbEntity
  8
$DDT_AUDIT_GENERATED_(8C)
  6
Continuous
 62
     7
100
AcDbLine
 10
28.25
 20
426.6302591547
 30
0.0
 11
27.25
 21
426.6302591547
 31
0.0
  0
LINE
  5
1A1
330
75
100
AcDbEntity
  8
$DDT_AUDIT_GENERATED_(8C)
  6
Continuous
 62
     7
100
AcDbLine
 10
27.25
 20
427.0406833267
 30
0.0
 11
27.25
 21
427.2363412434
 31
0.0
  0
LINE
  5
1A2
330
75
100
AcDbEntity
  8
$DDT_AUDIT_GENERATED_(8C)
  6
Continuous
 62
     7
100
AcDbLine
 10
28.1477759712
 20
427.38270347
 30
0.0
 11
28.25
 21
427.38270347
 31
0.0
  0
LINE
  5
1A3
330
75
100
AcDbEntity
  8
$DDT_AUDIT_GENERATED_(8C)
  6
Continuous
 62
     7
100
AcDbLine
 10
28.25
 20
427.38270347
 30
0.0
 11
28.25
 21
427.0406833267
 31
0.0
  0
LINE
  5
1A4
330
75
100
AcDbEntity
  8
$DDT_AUDIT_GENERATED_(8C)
  6
Continuous
 62
     7
100
AcDbLine
 10
28.25
 20
427.0406833267
 30
0.0
 11
27.25
 21
427.0406833267
 31
0.0
  0
LINE
  5
1A5
330
75
100
AcDbEntity
  8
$DDT_AUDIT_GENERATED_(8C)
  6
Continuous
 62
     7
100
AcDbLine
 10
26.05
 20
425.33058261
 30
0.0
 11
27.05
 21
425.33058261
 31
0.0
  0
LINE
  5
1A6
330
75
100
AcDbEntity
  8
$DDT_AUDIT_GENERATED_(8C)
  6
Continuous
 62
     7
100
AcDbLine
 10
26.05
 20
425.3989866387
 30
0.0
 11
26.05
 21
425.741006782
 31
0.0
  0
LINE
  5
1A7
330
75
100
AcDbEntity
  8
$DDT_AUDIT_GENERATED_(8C)
  6
Continuous
 62
     7
100
AcDbLine
 10
26.05
 20
425.741006782
 30
0.0
 11
27.05
 21
425.741006782
 31
0.0
  0
LINE
  5
1A8
330
75
100
AcDbEntity
  8
$DDT_AUDIT_GENERATED_(8C)
  6
Continuous
 62
     7
100
AcDbLine
 10
27.05
 20
425.741006782
 30
0.0
 11
27.05
 21
425.3989866387
 31
0.0
  0
LINE
  5
1A9
330
75
100
AcDbEntity
  8
$DDT_AUDIT_GENERATED_(8C)
  6
Continuous
 62
     7
100
AcDbLine
 10
27.05
 20
425.3989866387
 30
0.0
 11
26.05
 21
425.3989866387
 31
0.0
  0
LINE
  5
1AA
330
75
100
AcDbEntity
  8
$DDT_AUDIT_GENERATED_(8C)
  6
Continuous
 62
     7
100
AcDbLine
 10
26.05
 20
425.8094108107
 30
0.0
 11
26.05
 21
426.151430954
 31
0.0
  0
LINE
  5
1AB
330
75
100
AcDbEntity
  8
$DDT_AUDIT_GENERATED_(8C)
  6
Continuous
 62
     7
100
AcDbLine
 10
26.05
 20
426.151430954
 30
0.0
 11
27.05
 21
426.151430954
 31
0.0
  0
LINE
  5
1AC
330
75
100
AcDbEntity
  8
$DDT_AUDIT_GENERATED_(8C)
  6
Continuous
 62
     7
100
AcDbLine
 10
27.05
 20
426.151430954
 30
0.0
 11
27.05
 21
425.8094108107
 31
0.0
  0
LINE
  5
1AD
330
75
100
AcDbEntity
  8
$DDT_AUDIT_GENERATED_(8C)
  6
Continuous
 62
     7
100
AcDbLine
 10
27.05
 20
425.8094108107
 30
0.0
 11
26.05
 21
425.8094108107
 31
0.0
  0
LINE
  5
1AE
330
75
100
AcDbEntity
  8
$DDT_AUDIT_GENERATED_(8C)
  6
Continuous
 62
     7
100
AcDbLine
 10
26.05
 20
426.2198349827
 30
0.0
 11
26.05
 21
426.561855126
 31
0.0
  0
LINE
  5
1AF
330
75
100
AcDbEntity
  8
$DDT_AUDIT_GENERATED_(8C)
  6
Continuous
 62
     7
100
AcDbLine
 10
26.05
 20
426.561855126
 30
0.0
 11
27.05
 21
426.561855126
 31
0.0
  0
LINE
  5
1B0
330
75
100
AcDbEntity
  8
$DDT_AUDIT_GENERATED_(8C)
  6
Continuous
 62
     7
100
AcDbLine
 10
27.05
 20
426.561855126
 30
0.0
 11
27.05
 21
426.2198349827
 31
0.0
  0
LINE
  5
1B1
330
75
100
AcDbEntity
  8
$DDT_AUDIT_GENERATED_(8C)
  6
Continuous
 62
     7
100
AcDbLine
 10
27.05
 20
426.2198349827
 30
0.0
 11
26.05
 21
426.2198349827
 31
0.0
  0
LINE
  5
1B2
330
75
100
AcDbEntity
  8
$DDT_AUDIT_GENERATED_(8C)
  6
Continuous
 62
     7
100
AcDbLine
 10
26.05
 20
426.6302591547
 30
0.0
 11
26.05
 21
426.9625523753
 31
0.0
  0
LINE
  5
1B3
330
75
100
AcDbEntity
  8
$DDT_AUDIT_GENERATED_(8C)
  6
Continuous
 62
     7
100
AcDbLine
 10
26.0858560397
 20
426.972279298
 30
0.0
 11
27.05
 21
426.972279298
 31
0.0
  0
LINE
  5
1B4
330
75
100
AcDbEntity
  8
$DDT_AUDIT_GENERATED_(8C)
  6
Continuous
 62
     7
100
AcDbLine
 10
27.05
 20
426.972279298
 30
0.0
 11
27.05
 21
426.6302591547
 31
0.0
  0
LINE
  5
1B5
330
75
100
AcDbEntity
  8
$DDT_AUDIT_GENERATED_(8C)
  6
Continuous
 62
     7
100
AcDbLine
 10
27.05
 20
426.6302591547
 30
0.0
 11
26.05
 21
426.6302591547
 31
0.0
  0
LINE
  5
1B6
330
75
100
AcDbEntity
  8
$DDT_AUDIT_GENERATED_(8C)
  6
Continuous
 62
     7
100
AcDbLine
 10
24.85
 20
425.33058261
 30
0.0
 11
25.85
 21
425.33058261
 31
0.0
  0
LINE
  5
1B7
330
75
100
AcDbEntity
  8
$DDT_AUDIT_GENERATED_(8C)
  6
Continuous
 62
     7
100
AcDbLine
 10
24.85
 20
425.3989866387
 30
0.0
 11
24.85
 21
425.741006782
 31
0.0
  0
LINE
  5
1B8
330
75
100
AcDbEntity
  8
$DDT_AUDIT_GENERATED_(8C)
  6
Continuous
 62
     7
100
AcDbLine
 10
24.85
 20
425.741006782
 30
0.0
 11
25.85
 21
425.741006782
 31
0.0
  0
LINE
  5
1B9
330
75
100
AcDbEntity
  8
$DDT_AUDIT_GENERATED_(8C)
  6
Continuous
 62
     7
100
AcDbLine
 10
25.85
 20
425.741006782
 30
0.0
 11
25.85
 21
425.3989866387
 31
0.0
  0
LINE
  5
1BA
330
75
100
AcDbEntity
  8
$DDT_AUDIT_GENERATED_(8C)
  6
Continuous
 62
     7
100
AcDbLine
 10
25.85
 20
425.3989866387
 30
0.0
 11
24.85
 21
425.3989866387
 31
0.0
  0
LINE
  5
1BB
330
75
100
AcDbEntity
  8
$DDT_AUDIT_GENERATED_(8C)
  6
Continuous
 62
     7
100
AcDbLine
 10
24.85
 20
425.8094108107
 30
0.0
 11
24.85
 21
426.151430954
 31
0.0
  0
LINE
  5
1BC
330
75
100
AcDbEntity
  8
$DDT_AUDIT_GENERATED_(8C)
  6
Continuous
 62
     7
100
AcDbLine
 10
24.85
 20
426.151430954
 30
0.0
 11
25.85
 21
426.151430954
 31
0.0
  0
LINE
  5
1BD
330
75
100
AcDbEntity
  8
$DDT_AUDIT_GENERATED_(8C)
  6
Continuous
 62
     7
100
AcDbLine
 10
25.85
 20
426.151430954
 30
0.0
 11
25.85
 21
425.8094108107
 31
0.0
  0
LINE
  5
1BE
330
75
100
AcDbEntity
  8
$DDT_AUDIT_GENERATED_(8C)
  6
Continuous
 62
     7
100
AcDbLine
 10
25.85
 20
425.8094108107
 30
0.0
 11
24.85
 21
425.8094108107
 31
0.0
  0
LINE
  5
1BF
330
75
100
AcDbEntity
  8
$DDT_AUDIT_GENERATED_(8C)
  6
Continuous
 62
     7
100
AcDbLine
 10
24.85
 20
426.2198349827
 30
0.0
 11
24.85
 21
426.561855126
 31
0.0
  0
LINE
  5
1C0
330
75
100
AcDbEntity
  8
$DDT_AUDIT_GENERATED_(8C)
  6
Continuous
 62
     7
100
AcDbLine
 10
24.85
 20
426.561855126
 30
0.0
 11
25.85
 21
426.561855126
 31
0.0
  0
LINE
  5
1C1
330
75
100
AcDbEntity
  8
$DDT_AUDIT_GENERATED_(8C)
  6
Continuous
 62
     7
100
AcDbLine
 10
25.85
 20
426.561855126
 30
0.0
 11
25.85
 21
426.2198349827
 31
0.0
  0
LINE
  5
1C2
330
75
100
AcDbEntity
  8
$DDT_AUDIT_GENERATED_(8C)
  6
Continuous
 62
     7
100
AcDbLine
 10
25.85
 20
426.2198349827
 30
0.0
 11
24.85
 21
426.2198349827
 31
0.0
  0
LINE
  5
1C3
330
75
100
AcDbEntity
  8
$DDT_AUDIT_GENERATED_(8C)
  6
Continuous
 62
     7
100
AcDbLine
 10
23.65
 20
425.33058261
 30
0.0
 11
24.65
 21
425.33058261
 31
0.0
  0
LINE
  5
1C4
330
75
100
AcDbEntity
  8
$DDT_AUDIT_GENERATED_(8C)
  6
Continuous
 62
     7
100
AcDbLine
 10
23.65
 20
425.3989866387
 30
0.0
 11
23.65
 21
425.741006782
 31
0.0
  0
LINE
  5
1C5
330
75
100
AcDbEntity
  8
$DDT_AUDIT_GENERATED_(8C)
  6
Continuous
 62
     7
100
AcDbLine
 10
23.65
 20
425.741006782
 30
0.0
 11
24.65
 21
425.741006782
 31
0.0
  0
LINE
  5
1C6
330
75
100
AcDbEntity
  8
$DDT_AUDIT_GENERATED_(8C)
  6
Continuous
 62
     7
100
AcDbLine
 10
24.65
 20
425.741006782
 30
0.0
 11
24.65
 21
425.3989866387
 31
0.0
  0
LINE
  5
1C7
330
75
100
AcDbEntity
  8
$DDT_AUDIT_GENERATED_(8C)
  6
Continuous
 62
     7
100
AcDbLine
 10
24.65
 20
425.3989866387
 30
0.0
 11
23.65
 21
425.3989866387
 31
0.0
  0
LINE
  5
1C8
330
75
100
AcDbEntity
  8
$DDT_AUDIT_GENERATED_(8C)
  6
Continuous
 62
     7
100
AcDbLine
 10
23.65
 20
425.8094108107
 30
0.0
 11
23.65
 21
425.920998744
 31
0.0
  0
LINE
  5
1C9
330
75
100
AcDbEntity
  8
$DDT_AUDIT_GENERATED_(8C)
  6
Continuous
 62
     7
100
AcDbLine
 10
24.0025407493
 20
426.151430954
 30
0.0
 11
24.65
 21
426.151430954
 31
0.0
  0
LINE
  5
1CA
330
75
100
AcDbEntity
  8
$DDT_AUDIT_GENERATED_(8C)
  6
Continuous
 62
     7
100
AcDbLine
 10
24.65
 20
426.151430954
 30
0.0
 11
24.65
 21
425.8094108107
 31
0.0
  0
LINE
  5
1CB
330
75
100
AcDbEntity
  8
$DDT_AUDIT_GENERATED_(8C)
  6
Continuous
 62
     7
100
AcDbLine
 10
24.65
 20
425.8094108107
 30
0.0
 11
23.65
 21
425.8094108107
 31
0.0
  0
LINE
  5
1CC
330
75
100
AcDbEntity
  8
$DDT_AUDIT_GENERATED_(8C)
  6
Continuous
 62
     7
100
AcDbLine
 10
23.115165454
 20
425.33058261
 30
0.0
 11
23.45
 21
425.33058261
 31
0.0
  0
ELLIPSE
  5
1CD
330
75
100
AcDbEntity
  8
$DDT_AUDIT_GENERATED_(8C)
  6
Continuous
 62
     7
100
AcDbEllipse
 10
31.3499999997
 20
425.1595725384
 30
0.0
 11
-8.249999999747672
 21
-1.584843367652411E-11
 31
0.0
210
0.0
220
0.0
230
1.0
 40
0.3420201433
 41
-0.1016246097764926
 42
-0.0849506238876323
  0
LINE
  5
1CE
330
75
100
AcDbEntity
  8
$DDT_AUDIT_GENERATED_(8C)
  6
Continuous
 62
     7
100
AcDbLine
 10
23.4252204861
 20
425.741006782
 30
0.0
 11
23.45
 21
425.741006782
 31
0.0
  0
LINE
  5
1CF
330
75
100
AcDbEntity
  8
$DDT_AUDIT_GENERATED_(8C)
  6
Continuous
 62
     7
100
AcDbLine
 10
23.45
 20
425.741006782
 30
0.0
 11
23.45
 21
425.3989866387
 31
0.0
  0
LINE
  5
1D0
330
75
100
AcDbEntity
  8
$DDT_AUDIT_GENERATED_(8C)
  6
Continuous
 62
     7
100
AcDbLine
 10
23.45
 20
425.3989866387
 30
0.0
 11
23.1297506121
 21
425.3989866387
 31
0.0
  0
LINE
  5
1D1
330
75
100
AcDbEntity
  8
$DDT_AUDIT_GENERATED_(8C)
  6
Continuous
 62
     7
100
AcDbLine
 10
24.65
 20
426.4787237177
 30
0.0
 11
24.65
 21
426.2198349827
 31
0.0
  0
LINE
  5
1D2
330
75
100
AcDbEntity
  8
$DDT_AUDIT_GENERATED_(8C)
  6
Continuous
 62
     7
100
AcDbLine
 10
24.65
 20
426.2198349827
 30
0.0
 11
24.1225757038
 21
426.2198349827
 31
0.0
  0
LINE
  5
1D3
330
75
100
AcDbEntity
  8
$DDT_AUDIT_GENERATED_(8C)
  6
Continuous
 62
     7
100
AcDbLine
 10
25.85
 20
426.9062700905
 30
0.0
 11
25.85
 21
426.6302591547
 31
0.0
  0
LINE
  5
1D4
330
75
100
AcDbEntity
  8
$DDT_AUDIT_GENERATED_(8C)
  6
Continuous
 62
     7
100
AcDbLine
 10
25.85
 20
426.6302591547
 30
0.0
 11
25.0208066032
 21
426.6302591547
 31
0.0
  0
LINE
  5
1D5
330
75
100
AcDbEntity
  8
$DDT_AUDIT_GENERATED_(8C)
  6
Continuous
 62
     7
100
AcDbLine
 10
27.05
 20
427.1974593416
 30
0.0
 11
27.05
 21
427.0406833267
 31
0.0
  0
LINE
  5
1D6
330
75
100
AcDbEntity
  8
$DDT_AUDIT_GENERATED_(8C)
  6
Continuous
 62
     7
100
AcDbLine
 10
27.05
 20
427.0406833267
 30
0.0
 11
26.3498283879
 21
427.0406833267
 31
0.0
  0
LINE
  5
1D7
330
75
100
AcDbEntity
  8
$DDT_AUDIT_GENERATED_(8C)
  6
Continuous
 62
     7
100
AcDbLine
 10
29.45
 20
427.5233378302
 30
0.0
 11
29.45
 21
427.4511074987
 31
0.0
  0
LINE
  5
1D8
330
75
100
AcDbEntity
  8
$DDT_AUDIT_GENERATED_(8C)
  6
Continuous
 62
     7
100
AcDbLine
 10
29.45
 20
427.4511074987
 30
0.0
 11
28.6920415265
 21
427.4511074987
 31
0.0
  0
LINE
  5
1D9
330
75
100
AcDbEntity
  8
$DDT_AUDIT_GENERATED_(8C)
  6
Continuous
 62
     7
100
AcDbLine
 10
30.85
 20
425.33058261
 30
0.0
 11
31.85
 21
425.33058261
 31
0.0
  0
LINE
  5
1DA
330
75
100
AcDbEntity
  8
$DDT_AUDIT_GENERATED_(8C)
  6
Continuous
 62
     7
100
AcDbLine
 10
32.05
 20
425.33058261
 30
0.0
 11
33.05
 21
425.33058261
 31
0.0
  0
LINE
  5
1DB
330
75
100
AcDbEntity
  8
$DDT_AUDIT_GENERATED_(8C)
  6
Continuous
 62
     7
100
AcDbLine
 10
33.05
 20
425.33058261
 30
0.0
 11
33.05
 21
424.9885624667
 31
0.0
  0
LINE
  5
1DC
330
75
100
AcDbEntity
  8
$DDT_AUDIT_GENERATED_(8C)
  6
Continuous
 62
     7
100
AcDbLine
 10
32.05
 20
424.9885624667
 30
0.0
 11
32.05
 21
425.33058261
 31
0.0
  0
LINE
  5
1DD
330
75
100
AcDbEntity
  8
$DDT_AUDIT_GENERATED_(8C)
  6
Continuous
 62
     7
100
AcDbLine
 10
33.25
 20
425.33058261
 30
0.0
 11
34.25
 21
425.33058261
 31
0.0
  0
LINE
  5
1DE
330
75
100
AcDbEntity
  8
$DDT_AUDIT_GENERATED_(8C)
  6
Continuous
 62
     7
100
AcDbLine
 10
34.25
 20
425.33058261
 30
0.0
 11
34.25
 21
424.9885624667
 31
0.0
  0
LINE
  5
1DF
330
75
100
AcDbEntity
  8
$DDT_AUDIT_GENERATED_(8C)
  6
Continuous
 62
     7
100
AcDbLine
 10
33.25
 20
424.9885624667
 30
0.0
 11
33.25
 21
425.33058261
 31
0.0
  0
LINE
  5
1E0
330
75
100
AcDbEntity
  8
$DDT_AUDIT_GENERATED_(8C)
  6
Continuous
 62
     7
100
AcDbLine
 10
34.45
 20
425.33058261
 30
0.0
 11
35.45
 21
425.33058261
 31
0.0
  0
LINE
  5
1E1
330
75
100
AcDbEntity
  8
$DDT_AUDIT_GENERATED_(8C)
  6
Continuous
 62
     7
100
AcDbLine
 10
35.45
 20
425.33058261
 30
0.0
 11
35.45
 21
424.9885624667
 31
0.0
  0
LINE
  5
1E2
330
75
100
AcDbEntity
  8
$DDT_AUDIT_GENERATED_(8C)
  6
Continuous
 62
     7
100
AcDbLine
 10
34.45
 20
424.9885624667
 30
0.0
 11
34.45
 21
425.33058261
 31
0.0
  0
LINE
  5
1E3
330
75
100
AcDbEntity
  8
$DDT_AUDIT_GENERATED_(8C)
  6
Continuous
 62
     7
100
AcDbLine
 10
35.65
 20
425.33058261
 30
0.0
 11
36.65
 21
425.33058261
 31
0.0
  0
LINE
  5
1E4
330
75
100
AcDbEntity
  8
$DDT_AUDIT_GENERATED_(8C)
  6
Continuous
 62
     7
100
AcDbLine
 10
36.65
 20
425.33058261
 30
0.0
 11
36.65
 21
424.9885624667
 31
0.0
  0
LINE
  5
1E5
330
75
100
AcDbEntity
  8
$DDT_AUDIT_GENERATED_(8C)
  6
Continuous
 62
     7
100
AcDbLine
 10
35.65
 20
424.9885624667
 30
0.0
 11
35.65
 21
425.33058261
 31
0.0
  0
LINE
  5
1E6
330
75
100
AcDbEntity
  8
$DDT_AUDIT_GENERATED_(8C)
  6
Continuous
 62
     7
100
AcDbLine
 10
36.85
 20
425.33058261
 30
0.0
 11
37.85
 21
425.33058261
 31
0.0
  0
LINE
  5
1E7
330
75
100
AcDbEntity
  8
$DDT_AUDIT_GENERATED_(8C)
  6
Continuous
 62
     7
100
AcDbLine
 10
37.85
 20
425.33058261
 30
0.0
 11
37.85
 21
424.9885624667
 31
0.0
  0
LINE
  5
1E8
330
75
100
AcDbEntity
  8
$DDT_AUDIT_GENERATED_(8C)
  6
Continuous
 62
     7
100
AcDbLine
 10
36.85
 20
424.9885624667
 30
0.0
 11
36.85
 21
425.33058261
 31
0.0
  0
LINE
  5
1E9
330
75
100
AcDbEntity
  8
$DDT_AUDIT_GENERATED_(8C)
  6
Continuous
 62
     7
100
AcDbLine
 10
38.05
 20
425.33058261
 30
0.0
 11
39.05
 21
425.33058261
 31
0.0
  0
LINE
  5
1EA
330
75
100
AcDbEntity
  8
$DDT_AUDIT_GENERATED_(8C)
  6
Continuous
 62
     7
100
AcDbLine
 10
39.05
 20
425.33058261
 30
0.0
 11
39.05
 21
424.9885624667
 31
0.0
  0
LINE
  5
1EB
330
75
100
AcDbEntity
  8
$DDT_AUDIT_GENERATED_(8C)
  6
Continuous
 62
     7
100
AcDbLine
 10
38.05
 20
424.9885624667
 30
0.0
 11
38.05
 21
425.33058261
 31
0.0
  0
LINE
  5
1EC
330
75
100
AcDbEntity
  8
$DDT_AUDIT_GENERATED_(8C)
  6
Continuous
 62
     7
100
AcDbLine
 10
31.85
 20
425.741006782
 30
0.0
 11
31.85
 21
425.3989866387
 31
0.0
  0
LINE
  5
1ED
330
75
100
AcDbEntity
  8
$DDT_AUDIT_GENERATED_(8C)
  6
Continuous
 62
     7
100
AcDbLine
 10
32.05
 20
425.741006782
 30
0.0
 11
33.05
 21
425.741006782
 31
0.0
  0
LINE
  5
1EE
330
75
100
AcDbEntity
  8
$DDT_AUDIT_GENERATED_(8C)
  6
Continuous
 62
     7
100
AcDbLine
 10
33.05
 20
425.741006782
 30
0.0
 11
33.05
 21
425.3989866387
 31
0.0
  0
LINE
  5
1EF
330
75
100
AcDbEntity
  8
$DDT_AUDIT_GENERATED_(8C)
  6
Continuous
 62
     7
100
AcDbLine
 10
33.05
 20
425.3989866387
 30
0.0
 11
32.05
 21
425.3989866387
 31
0.0
  0
LINE
  5
1F0
330
75
100
AcDbEntity
  8
$DDT_AUDIT_GENERATED_(8C)
  6
Continuous
 62
     7
100
AcDbLine
 10
32.05
 20
425.3989866387
 30
0.0
 11
32.05
 21
425.741006782
 31
0.0
  0
LINE
  5
1F1
330
75
100
AcDbEntity
  8
$DDT_AUDIT_GENERATED_(8C)
  6
Continuous
 62
     7
100
AcDbLine
 10
33.25
 20
425.741006782
 30
0.0
 11
34.25
 21
425.741006782
 31
0.0
  0
LINE
  5
1F2
330
75
100
AcDbEntity
  8
$DDT_AUDIT_GENERATED_(8C)
  6
Continuous
 62
     7
100
AcDbLine
 10
34.25
 20
425.741006782
 30
0.0
 11
34.25
 21
425.3989866387
 31
0.0
  0
LINE
  5
1F3
330
75
100
AcDbEntity
  8
$DDT_AUDIT_GENERATED_(8C)
  6
Continuous
 62
     7
100
AcDbLine
 10
34.25
 20
425.3989866387
 30
0.0
 11
33.25
 21
425.3989866387
 31
0.0
  0
LINE
  5
1F4
330
75
100
AcDbEntity
  8
$DDT_AUDIT_GENERATED_(8C)
  6
Continuous
 62
     7
100
AcDbLine
 10
33.25
 20
425.3989866387
 30
0.0
 11
33.25
 21
425.741006782
 31
0.0
  0
LINE
  5
1F5
330
75
100
AcDbEntity
  8
$DDT_AUDIT_GENERATED_(8C)
  6
Continuous
 62
     7
100
AcDbLine
 10
34.45
 20
425.741006782
 30
0.0
 11
35.45
 21
425.741006782
 31
0.0
  0
LINE
  5
1F6
330
75
100
AcDbEntity
  8
$DDT_AUDIT_GENERATED_(8C)
  6
Continuous
 62
     7
100
AcDbLine
 10
35.45
 20
425.741006782
 30
0.0
 11
35.45
 21
425.3989866387
 31
0.0
  0
LINE
  5
1F7
330
75
100
AcDbEntity
  8
$DDT_AUDIT_GENERATED_(8C)
  6
Continuous
 62
     7
100
AcDbLine
 10
35.45
 20
425.3989866387
 30
0.0
 11
34.45
 21
425.3989866387
 31
0.0
  0
LINE
  5
1F8
330
75
100
AcDbEntity
  8
$DDT_AUDIT_GENERATED_(8C)
  6
Continuous
 62
     7
100
AcDbLine
 10
34.45
 20
425.3989866387
 30
0.0
 11
34.45
 21
425.741006782
 31
0.0
  0
LINE
  5
1F9
330
75
100
AcDbEntity
  8
$DDT_AUDIT_GENERATED_(8C)
  6
Continuous
 62
     7
100
AcDbLine
 10
35.65
 20
425.741006782
 30
0.0
 11
36.65
 21
425.741006782
 31
0.0
  0
LINE
  5
1FA
330
75
100
AcDbEntity
  8
$DDT_AUDIT_GENERATED_(8C)
  6
Continuous
 62
     7
100
AcDbLine
 10
36.65
 20
425.741006782
 30
0.0
 11
36.65
 21
425.3989866387
 31
0.0
  0
LINE
  5
1FB
330
75
100
AcDbEntity
  8
$DDT_AUDIT_GENERATED_(8C)
  6
Continuous
 62
     7
100
AcDbLine
 10
36.65
 20
425.3989866387
 30
0.0
 11
35.65
 21
425.3989866387
 31
0.0
  0
LINE
  5
1FC
330
75
100
AcDbEntity
  8
$DDT_AUDIT_GENERATED_(8C)
  6
Continuous
 62
     7
100
AcDbLine
 10
35.65
 20
425.3989866387
 30
0.0
 11
35.65
 21
425.741006782
 31
0.0
  0
LINE
  5
1FD
330
75
100
AcDbEntity
  8
$DDT_AUDIT_GENERATED_(8C)
  6
Continuous
 62
     7
100
AcDbLine
 10
36.85
 20
425.741006782
 30
0.0
 11
37.85
 21
425.741006782
 31
0.0
  0
LINE
  5
1FE
330
75
100
AcDbEntity
  8
$DDT_AUDIT_GENERATED_(8C)
  6
Continuous
 62
     7
100
AcDbLine
 10
37.85
 20
425.741006782
 30
0.0
 11
37.85
 21
425.3989866387
 31
0.0
  0
LINE
  5
1FF
330
75
100
AcDbEntity
  8
$DDT_AUDIT_GENERATED_(8C)
  6
Continuous
 62
     7
100
AcDbLine
 10
37.85
 20
425.3989866387
 30
0.0
 11
36.85
 21
425.3989866387
 31
0.0
  0
LINE
  5
200
330
75
100
AcDbEntity
  8
$DDT_AUDIT_GENERATED_(8C)
  6
Continuous
 62
     7
100
AcDbLine
 10
36.85
 20
425.3989866387
 30
0.0
 11
36.85
 21
425.741006782
 31
0.0
  0
LINE
  5
201
330
75
100
AcDbEntity
  8
$DDT_AUDIT_GENERATED_(8C)
  6
Continuous
 62
     7
100
AcDbLine
 10
38.05
 20
425.741006782
 30
0.0
 11
39.05
 21
425.741006782
 31
0.0
  0
LINE
  5
202
330
75
100
AcDbEntity
  8
$DDT_AUDIT_GENERATED_(8C)
  6
Continuous
 62
     7
100
AcDbLine
 10
39.05
 20
425.741006782
 30
0.0
 11
39.05
 21
425.3989866387
 31
0.0
  0
LINE
  5
203
330
75
100
AcDbEntity
  8
$DDT_AUDIT_GENERATED_(8C)
  6
Continuous
 62
     7
100
AcDbLine
 10
39.05
 20
425.3989866387
 30
0.0
 11
38.05
 21
425.3989866387
 31
0.0
  0
LINE
  5
204
330
75
100
AcDbEntity
  8
$DDT_AUDIT_GENERATED_(8C)
  6
Continuous
 62
     7
100
AcDbLine
 10
38.05
 20
425.3989866387
 30
0.0
 11
38.05
 21
425.741006782
 31
0.0
  0
LINE
  5
205
330
75
100
AcDbEntity
  8
$DDT_AUDIT_GENERATED_(8C)
  6
Continuous
 62
     7
100
AcDbLine
 10
31.85
 20
426.151430954
 30
0.0
 11
31.85
 21
425.8094108107
 31
0.0
  0
LINE
  5
206
330
75
100
AcDbEntity
  8
$DDT_AUDIT_GENERATED_(8C)
  6
Continuous
 62
     7
100
AcDbLine
 10
32.05
 20
426.151430954
 30
0.0
 11
33.05
 21
426.151430954
 31
0.0
  0
LINE
  5
207
330
75
100
AcDbEntity
  8
$DDT_AUDIT_GENERATED_(8C)
  6
Continuous
 62
     7
100
AcDbLine
 10
33.05
 20
426.151430954
 30
0.0
 11
33.05
 21
425.8094108107
 31
0.0
  0
LINE
  5
208
330
75
100
AcDbEntity
  8
$DDT_AUDIT_GENERATED_(8C)
  6
Continuous
 62
     7
100
AcDbLine
 10
33.05
 20
425.8094108107
 30
0.0
 11
32.05
 21
425.8094108107
 31
0.0
  0
LINE
  5
209
330
75
100
AcDbEntity
  8
$DDT_AUDIT_GENERATED_(8C)
  6
Continuous
 62
     7
100
AcDbLine
 10
32.05
 20
425.8094108107
 30
0.0
 11
32.05
 21
426.151430954
 31
0.0
  0
LINE
  5
20A
330
75
100
AcDbEntity
  8
$DDT_AUDIT_GENERATED_(8C)
  6
Continuous
 62
     7
100
AcDbLine
 10
33.25
 20
426.151430954
 30
0.0
 11
34.25
 21
426.151430954
 31
0.0
  0
LINE
  5
20B
330
75
100
AcDbEntity
  8
$DDT_AUDIT_GENERATED_(8C)
  6
Continuous
 62
     7
100
AcDbLine
 10
34.25
 20
426.151430954
 30
0.0
 11
34.25
 21
425.8094108107
 31
0.0
  0
LINE
  5
20C
330
75
100
AcDbEntity
  8
$DDT_AUDIT_GENERATED_(8C)
  6
Continuous
 62
     7
100
AcDbLine
 10
34.25
 20
425.8094108107
 30
0.0
 11
33.25
 21
425.8094108107
 31
0.0
  0
LINE
  5
20D
330
75
100
AcDbEntity
  8
$DDT_AUDIT_GENERATED_(8C)
  6
Continuous
 62
     7
100
AcDbLine
 10
33.25
 20
425.8094108107
 30
0.0
 11
33.25
 21
426.151430954
 31
0.0
  0
LINE
  5
20E
330
75
100
AcDbEntity
  8
$DDT_AUDIT_GENERATED_(8C)
  6
Continuous
 62
     7
100
AcDbLine
 10
34.45
 20
426.151430954
 30
0.0
 11
35.45
 21
426.151430954
 31
0.0
  0
LINE
  5
20F
330
75
100
AcDbEntity
  8
$DDT_AUDIT_GENERATED_(8C)
  6
Continuous
 62
     7
100
AcDbLine
 10
35.45
 20
426.151430954
 30
0.0
 11
35.45
 21
425.8094108107
 31
0.0
  0
LINE
  5
210
330
75
100
AcDbEntity
  8
$DDT_AUDIT_GENERATED_(8C)
  6
Continuous
 62
     7
100
AcDbLine
 10
35.45
 20
425.8094108107
 30
0.0
 11
34.45
 21
425.8094108107
 31
0.0
  0
LINE
  5
211
330
75
100
AcDbEntity
  8
$DDT_AUDIT_GENERATED_(8C)
  6
Continuous
 62
     7
100
AcDbLine
 10
34.45
 20
425.8094108107
 30
0.0
 11
34.45
 21
426.151430954
 31
0.0
  0
LINE
  5
212
330
75
100
AcDbEntity
  8
$DDT_AUDIT_GENERATED_(8C)
  6
Continuous
 62
     7
100
AcDbLine
 10
35.65
 20
426.151430954
 30
0.0
 11
36.65
 21
426.151430954
 31
0.0
  0
LINE
  5
213
330
75
100
AcDbEntity
  8
$DDT_AUDIT_GENERATED_(8C)
  6
Continuous
 62
     7
100
AcDbLine
 10
36.65
 20
426.151430954
 30
0.0
 11
36.65
 21
425.8094108107
 31
0.0
  0
LINE
  5
214
330
75
100
AcDbEntity
  8
$DDT_AUDIT_GENERATED_(8C)
  6
Continuous
 62
     7
100
AcDbLine
 10
36.65
 20
425.8094108107
 30
0.0
 11
35.65
 21
425.8094108107
 31
0.0
  0
LINE
  5
215
330
75
100
AcDbEntity
  8
$DDT_AUDIT_GENERATED_(8C)
  6
Continuous
 62
     7
100
AcDbLine
 10
35.65
 20
425.8094108107
 30
0.0
 11
35.65
 21
426.151430954
 31
0.0
  0
LINE
  5
216
330
75
100
AcDbEntity
  8
$DDT_AUDIT_GENERATED_(8C)
  6
Continuous
 62
     7
100
AcDbLine
 10
36.85
 20
426.151430954
 30
0.0
 11
37.85
 21
426.151430954
 31
0.0
  0
LINE
  5
217
330
75
100
AcDbEntity
  8
$DDT_AUDIT_GENERATED_(8C)
  6
Continuous
 62
     7
100
AcDbLine
 10
37.85
 20
426.151430954
 30
0.0
 11
37.85
 21
425.8094108107
 31
0.0
  0
LINE
  5
218
330
75
100
AcDbEntity
  8
$DDT_AUDIT_GENERATED_(8C)
  6
Continuous
 62
     7
100
AcDbLine
 10
37.85
 20
425.8094108107
 30
0.0
 11
36.85
 21
425.8094108107
 31
0.0
  0
LINE
  5
219
330
75
100
AcDbEntity
  8
$DDT_AUDIT_GENERATED_(8C)
  6
Continuous
 62
     7
100
AcDbLine
 10
36.85
 20
425.8094108107
 30
0.0
 11
36.85
 21
426.151430954
 31
0.0
  0
LINE
  5
21A
330
75
100
AcDbEntity
  8
$DDT_AUDIT_GENERATED_(8C)
  6
Continuous
 62
     7
100
AcDbLine
 10
31.85
 20
426.561855126
 30
0.0
 11
31.85
 21
426.2198349827
 31
0.0
  0
LINE
  5
21B
330
75
100
AcDbEntity
  8
$DDT_AUDIT_GENERATED_(8C)
  6
Continuous
 62
     7
100
AcDbLine
 10
32.05
 20
426.561855126
 30
0.0
 11
33.05
 21
426.561855126
 31
0.0
  0
LINE
  5
21C
330
75
100
AcDbEntity
  8
$DDT_AUDIT_GENERATED_(8C)
  6
Continuous
 62
     7
100
AcDbLine
 10
33.05
 20
426.561855126
 30
0.0
 11
33.05
 21
426.2198349827
 31
0.0
  0
LINE
  5
21D
330
75
100
AcDbEntity
  8
$DDT_AUDIT_GENERATED_(8C)
  6
Continuous
 62
     7
100
AcDbLine
 10
33.05
 20
426.2198349827
 30
0.0
 11
32.05
 21
426.2198349827
 31
0.0
  0
LINE
  5
21E
330
75
100
AcDbEntity
  8
$DDT_AUDIT_GENERATED_(8C)
  6
Continuous
 62
     7
100
AcDbLine
 10
32.05
 20
426.2198349827
 30
0.0
 11
32.05
 21
426.561855126
 31
0.0
  0
LINE
  5
21F
330
75
100
AcDbEntity
  8
$DDT_AUDIT_GENERATED_(8C)
  6
Continuous
 62
     7
100
AcDbLine
 10
33.25
 20
426.561855126
 30
0.0
 11
34.25
 21
426.561855126
 31
0.0
  0
LINE
  5
220
330
75
100
AcDbEntity
  8
$DDT_AUDIT_GENERATED_(8C)
  6
Continuous
 62
     7
100
AcDbLine
 10
34.25
 20
426.561855126
 30
0.0
 11
34.25
 21
426.2198349827
 31
0.0
  0
LINE
  5
221
330
75
100
AcDbEntity
  8
$DDT_AUDIT_GENERATED_(8C)
  6
Continuous
 62
     7
100
AcDbLine
 10
34.25
 20
426.2198349827
 30
0.0
 11
33.25
 21
426.2198349827
 31
0.0
  0
LINE
  5
222
330
75
100
AcDbEntity
  8
$DDT_AUDIT_GENERATED_(8C)
  6
Continuous
 62
     7
100
AcDbLine
 10
33.25
 20
426.2198349827
 30
0.0
 11
33.25
 21
426.561855126
 31
0.0
  0
LINE
  5
223
330
75
100
AcDbEntity
  8
$DDT_AUDIT_GENERATED_(8C)
  6
Continuous
 62
     7
100
AcDbLine
 10
34.45
 20
426.561855126
 30
0.0
 11
35.45
 21
426.561855126
 31
0.0
  0
LINE
  5
224
330
75
100
AcDbEntity
  8
$DDT_AUDIT_GENERATED_(8C)
  6
Continuous
 62
     7
100
AcDbLine
 10
35.45
 20
426.561855126
 30
0.0
 11
35.45
 21
426.2198349827
 31
0.0
  0
LINE
  5
225
330
75
100
AcDbEntity
  8
$DDT_AUDIT_GENERATED_(8C)
  6
Continuous
 62
     7
100
AcDbLine
 10
35.45
 20
426.2198349827
 30
0.0
 11
34.45
 21
426.2198349827
 31
0.0
  0
LINE
  5
226
330
75
100
AcDbEntity
  8
$DDT_AUDIT_GENERATED_(8C)
  6
Continuous
 62
     7
100
AcDbLine
 10
34.45
 20
426.2198349827
 30
0.0
 11
34.45
 21
426.561855126
 31
0.0
  0
LINE
  5
227
330
75
100
AcDbEntity
  8
$DDT_AUDIT_GENERATED_(8C)
  6
Continuous
 62
     7
100
AcDbLine
 10
35.65
 20
426.561855126
 30
0.0
 11
36.65
 21
426.561855126
 31
0.0
  0
LINE
  5
228
330
75
100
AcDbEntity
  8
$DDT_AUDIT_GENERATED_(8C)
  6
Continuous
 62
     7
100
AcDbLine
 10
36.65
 20
426.561855126
 30
0.0
 11
36.65
 21
426.2198349827
 31
0.0
  0
LINE
  5
229
330
75
100
AcDbEntity
  8
$DDT_AUDIT_GENERATED_(8C)
  6
Continuous
 62
     7
100
AcDbLine
 10
36.65
 20
426.2198349827
 30
0.0
 11
35.65
 21
426.2198349827
 31
0.0
  0
LINE
  5
22A
330
75
100
AcDbEntity
  8
$DDT_AUDIT_GENERATED_(8C)
  6
Continuous
 62
     7
100
AcDbLine
 10
35.65
 20
426.2198349827
 30
0.0
 11
35.65
 21
426.561855126
 31
0.0
  0
LINE
  5
22B
330
75
100
AcDbEntity
  8
$DDT_AUDIT_GENERATED_(8C)
  6
Continuous
 62
     7
100
AcDbLine
 10
36.85
 20
426.561855126
 30
0.0
 11
37.85
 21
426.561855126
 31
0.0
  0
LINE
  5
22C
330
75
100
AcDbEntity
  8
$DDT_AUDIT_GENERATED_(8C)
  6
Continuous
 62
     7
100
AcDbLine
 10
37.85
 20
426.561855126
 30
0.0
 11
37.85
 21
426.2198349827
 31
0.0
  0
LINE
  5
22D
330
75
100
AcDbEntity
  8
$DDT_AUDIT_GENERATED_(8C)
  6
Continuous
 62
     7
100
AcDbLine
 10
37.85
 20
426.2198349827
 30
0.0
 11
36.85
 21
426.2198349827
 31
0.0
  0
LINE
  5
22E
330
75
100
AcDbEntity
  8
$DDT_AUDIT_GENERATED_(8C)
  6
Continuous
 62
     7
100
AcDbLine
 10
36.85
 20
426.2198349827
 30
0.0
 11
36.85
 21
426.561855126
 31
0.0
  0
LINE
  5
22F
330
75
100
AcDbEntity
  8
$DDT_AUDIT_GENERATED_(8C)
  6
Continuous
 62
     7
100
AcDbLine
 10
31.85
 20
426.972279298
 30
0.0
 11
31.85
 21
426.6302591547
 31
0.0
  0
LINE
  5
230
330
75
100
AcDbEntity
  8
$DDT_AUDIT_GENERATED_(8C)
  6
Continuous
 62
     7
100
AcDbLine
 10
32.05
 20
426.972279298
 30
0.0
 11
33.05
 21
426.972279298
 31
0.0
  0
LINE
  5
231
330
75
100
AcDbEntity
  8
$DDT_AUDIT_GENERATED_(8C)
  6
Continuous
 62
     7
100
AcDbLine
 10
33.05
 20
426.972279298
 30
0.0
 11
33.05
 21
426.6302591547
 31
0.0
  0
LINE
  5
232
330
75
100
AcDbEntity
  8
$DDT_AUDIT_GENERATED_(8C)
  6
Continuous
 62
     7
100
AcDbLine
 10
33.05
 20
426.6302591547
 30
0.0
 11
32.05
 21
426.6302591547
 31
0.0
  0
LINE
  5
233
330
75
100
AcDbEntity
  8
$DDT_AUDIT_GENERATED_(8C)
  6
Continuous
 62
     7
100
AcDbLine
 10
32.05
 20
426.6302591547
 30
0.0
 11
32.05
 21
426.972279298
 31
0.0
  0
LINE
  5
234
330
75
100
AcDbEntity
  8
$DDT_AUDIT_GENERATED_(8C)
  6
Continuous
 62
     7
100
AcDbLine
 10
33.25
 20
426.972279298
 30
0.0
 11
34.25
 21
426.972279298
 31
0.0
  0
LINE
  5
235
330
75
100
AcDbEntity
  8
$DDT_AUDIT_GENERATED_(8C)
  6
Continuous
 62
     7
100
AcDbLine
 10
34.25
 20
426.972279298
 30
0.0
 11
34.25
 21
426.6302591547
 31
0.0
  0
LINE
  5
236
330
75
100
AcDbEntity
  8
$DDT_AUDIT_GENERATED_(8C)
  6
Continuous
 62
     7
100
AcDbLine
 10
34.25
 20
426.6302591547
 30
0.0
 11
33.25
 21
426.6302591547
 31
0.0
  0
LINE
  5
237
330
75
100
AcDbEntity
  8
$DDT_AUDIT_GENERATED_(8C)
  6
Continuous
 62
     7
100
AcDbLine
 10
33.25
 20
426.6302591547
 30
0.0
 11
33.25
 21
426.972279298
 31
0.0
  0
LINE
  5
238
330
75
100
AcDbEntity
  8
$DDT_AUDIT_GENERATED_(8C)
  6
Continuous
 62
     7
100
AcDbLine
 10
34.45
 20
426.972279298
 30
0.0
 11
35.45
 21
426.972279298
 31
0.0
  0
LINE
  5
239
330
75
100
AcDbEntity
  8
$DDT_AUDIT_GENERATED_(8C)
  6
Continuous
 62
     7
100
AcDbLine
 10
35.45
 20
426.972279298
 30
0.0
 11
35.45
 21
426.6302591547
 31
0.0
  0
LINE
  5
23A
330
75
100
AcDbEntity
  8
$DDT_AUDIT_GENERATED_(8C)
  6
Continuous
 62
     7
100
AcDbLine
 10
35.45
 20
426.6302591547
 30
0.0
 11
34.45
 21
426.6302591547
 31
0.0
  0
LINE
  5
23B
330
75
100
AcDbEntity
  8
$DDT_AUDIT_GENERATED_(8C)
  6
Continuous
 62
     7
100
AcDbLine
 10
34.45
 20
426.6302591547
 30
0.0
 11
34.45
 21
426.972279298
 31
0.0
  0
LINE
  5
23C
330
75
100
AcDbEntity
  8
$DDT_AUDIT_GENERATED_(8C)
  6
Continuous
 62
     7
100
AcDbLine
 10
35.65
 20
426.972279298
 30
0.0
 11
36.6141439603
 21
426.972279298
 31
0.0
  0
LINE
  5
23D
330
75
100
AcDbEntity
  8
$DDT_AUDIT_GENERATED_(8C)
  6
Continuous
 62
     7
100
AcDbLine
 10
36.65
 20
426.9625523753
 30
0.0
 11
36.65
 21
426.6302591547
 31
0.0
  0
LINE
  5
23E
330
75
100
AcDbEntity
  8
$DDT_AUDIT_GENERATED_(8C)
  6
Continuous
 62
     7
100
AcDbLine
 10
36.65
 20
426.6302591547
 30
0.0
 11
35.65
 21
426.6302591547
 31
0.0
  0
LINE
  5
23F
330
75
100
AcDbEntity
  8
$DDT_AUDIT_GENERATED_(8C)
  6
Continuous
 62
     7
100
AcDbLine
 10
35.65
 20
426.6302591547
 30
0.0
 11
35.65
 21
426.972279298
 31
0.0
  0
LINE
  5
240
330
75
100
AcDbEntity
  8
$DDT_AUDIT_GENERATED_(8C)
  6
Continuous
 62
     7
100
AcDbLine
 10
31.85
 20
427.38270347
 30
0.0
 11
31.85
 21
427.0406833267
 31
0.0
  0
LINE
  5
241
330
75
100
AcDbEntity
  8
$DDT_AUDIT_GENERATED_(8C)
  6
Continuous
 62
     7
100
AcDbLine
 10
32.05
 20
427.38270347
 30
0.0
 11
33.05
 21
427.38270347
 31
0.0
  0
LINE
  5
242
330
75
100
AcDbEntity
  8
$DDT_AUDIT_GENERATED_(8C)
  6
Continuous
 62
     7
100
AcDbLine
 10
33.05
 20
427.38270347
 30
0.0
 11
33.05
 21
427.0406833267
 31
0.0
  0
LINE
  5
243
330
75
100
AcDbEntity
  8
$DDT_AUDIT_GENERATED_(8C)
  6
Continuous
 62
     7
100
AcDbLine
 10
33.05
 20
427.0406833267
 30
0.0
 11
32.05
 21
427.0406833267
 31
0.0
  0
LINE
  5
244
330
75
100
AcDbEntity
  8
$DDT_AUDIT_GENERATED_(8C)
  6
Continuous
 62
     7
100
AcDbLine
 10
32.05
 20
427.0406833267
 30
0.0
 11
32.05
 21
427.38270347
 31
0.0
  0
LINE
  5
245
330
75
100
AcDbEntity
  8
$DDT_AUDIT_GENERATED_(8C)
  6
Continuous
 62
     7
100
AcDbLine
 10
33.25
 20
427.38270347
 30
0.0
 11
34.25
 21
427.38270347
 31
0.0
  0
LINE
  5
246
330
75
100
AcDbEntity
  8
$DDT_AUDIT_GENERATED_(8C)
  6
Continuous
 62
     7
100
AcDbLine
 10
34.25
 20
427.38270347
 30
0.0
 11
34.25
 21
427.0406833267
 31
0.0
  0
LINE
  5
247
330
75
100
AcDbEntity
  8
$DDT_AUDIT_GENERATED_(8C)
  6
Continuous
 62
     7
100
AcDbLine
 10
34.25
 20
427.0406833267
 30
0.0
 11
33.25
 21
427.0406833267
 31
0.0
  0
LINE
  5
248
330
75
100
AcDbEntity
  8
$DDT_AUDIT_GENERATED_(8C)
  6
Continuous
 62
     7
100
AcDbLine
 10
33.25
 20
427.0406833267
 30
0.0
 11
33.25
 21
427.38270347
 31
0.0
  0
LINE
  5
249
330
75
100
AcDbEntity
  8
$DDT_AUDIT_GENERATED_(8C)
  6
Continuous
 62
     7
100
AcDbLine
 10
34.45
 20
427.38270347
 30
0.0
 11
34.5522240288
 21
427.38270347
 31
0.0
  0
LINE
  5
24A
330
75
100
AcDbEntity
  8
$DDT_AUDIT_GENERATED_(8C)
  6
Continuous
 62
     7
100
AcDbLine
 10
35.45
 20
427.2363412434
 30
0.0
 11
35.45
 21
427.0406833267
 31
0.0
  0
LINE
  5
24B
330
75
100
AcDbEntity
  8
$DDT_AUDIT_GENERATED_(8C)
  6
Continuous
 62
     7
100
AcDbLine
 10
35.45
 20
427.0406833267
 30
0.0
 11
34.45
 21
427.0406833267
 31
0.0
  0
LINE
  5
24C
330
75
100
AcDbEntity
  8
$DDT_AUDIT_GENERATED_(8C)
  6
Continuous
 62
     7
100
AcDbLine
 10
34.45
 20
427.0406833267
 30
0.0
 11
34.45
 21
427.38270347
 31
0.0
  0
LINE
  5
24D
330
75
100
AcDbEntity
  8
$DDT_AUDIT_GENERATED_(8C)
  6
Continuous
 62
     7
100
AcDbLine
 10
31.85
 20
427.5918633798
 30
0.0
 11
31.85
 21
427.4511074987
 31
0.0
  0
LINE
  5
24E
330
75
100
AcDbEntity
  8
$DDT_AUDIT_GENERATED_(8C)
  6
Continuous
 62
     7
100
AcDbLine
 10
33.05
 20
427.5381606599
 30
0.0
 11
33.05
 21
427.4511074987
 31
0.0
  0
LINE
  5
24F
330
75
100
AcDbEntity
  8
$DDT_AUDIT_GENERATED_(8C)
  6
Continuous
 62
     7
100
AcDbLine
 10
33.05
 20
427.4511074987
 30
0.0
 11
32.05
 21
427.4511074987
 31
0.0
  0
LINE
  5
250
330
75
100
AcDbEntity
  8
$DDT_AUDIT_GENERATED_(8C)
  6
Continuous
 62
     7
100
AcDbLine
 10
32.05
 20
427.4511074987
 30
0.0
 11
32.05
 21
427.587022447
 31
0.0
  0
LINE
  5
251
330
75
100
AcDbEntity
  8
$DDT_AUDIT_GENERATED_(8C)
  6
Continuous
 62
     7
100
AcDbLine
 10
34.0079584735
 20
427.4511074987
 30
0.0
 11
33.25
 21
427.4511074987
 31
0.0
  0
LINE
  5
252
330
75
100
AcDbEntity
  8
$DDT_AUDIT_GENERATED_(8C)
  6
Continuous
 62
     7
100
AcDbLine
 10
33.25
 20
427.4511074987
 30
0.0
 11
33.25
 21
427.5233378302
 31
0.0
  0
LINE
  5
253
330
75
100
AcDbEntity
  8
$DDT_AUDIT_GENERATED_(8C)
  6
Continuous
 62
     7
100
AcDbLine
 10
36.3501716121
 20
427.0406833267
 30
0.0
 11
35.65
 21
427.0406833267
 31
0.0
  0
LINE
  5
254
330
75
100
AcDbEntity
  8
$DDT_AUDIT_GENERATED_(8C)
  6
Continuous
 62
     7
100
AcDbLine
 10
35.65
 20
427.0406833267
 30
0.0
 11
35.65
 21
427.1974593416
 31
0.0
  0
LINE
  5
255
330
75
100
AcDbEntity
  8
$DDT_AUDIT_GENERATED_(8C)
  6
Continuous
 62
     7
100
AcDbLine
 10
37.6791933968
 20
426.6302591547
 30
0.0
 11
36.85
 21
426.6302591547
 31
0.0
  0
LINE
  5
256
330
75
100
AcDbEntity
  8
$DDT_AUDIT_GENERATED_(8C)
  6
Continuous
 62
     7
100
AcDbLine
 10
36.85
 20
426.6302591547
 30
0.0
 11
36.85
 21
426.9062700905
 31
0.0
  0
LINE
  5
257
330
75
100
AcDbEntity
  8
$DDT_AUDIT_GENERATED_(8C)
  6
Continuous
 62
     7
100
AcDbLine
 10
38.05
 20
426.151430954
 30
0.0
 11
38.6974592507
 21
426.151430954
 31
0.0
  0
LINE
  5
258
330
75
100
AcDbEntity
  8
$DDT_AUDIT_GENERATED_(8C)
  6
Continuous
 62
     7
100
AcDbLine
 10
39.05
 20
425.920998744
 30
0.0
 11
39.05
 21
425.8094108107
 31
0.0
  0
LINE
  5
259
330
75
100
AcDbEntity
  8
$DDT_AUDIT_GENERATED_(8C)
  6
Continuous
 62
     7
100
AcDbLine
 10
39.05
 20
425.8094108107
 30
0.0
 11
38.05
 21
425.8094108107
 31
0.0
  0
LINE
  5
25A
330
75
100
AcDbEntity
  8
$DDT_AUDIT_GENERATED_(8C)
  6
Continuous
 62
     7
100
AcDbLine
 10
38.05
 20
425.8094108107
 30
0.0
 11
38.05
 21
426.151430954
 31
0.0
  0
LINE
  5
25B
330
75
100
AcDbEntity
  8
$DDT_AUDIT_GENERATED_(8C)
  6
Continuous
 62
     7
100
AcDbLine
 10
38.5774242962
 20
426.2198349827
 30
0.0
 11
38.05
 21
426.2198349827
 31
0.0
  0
LINE
  5
25C
330
75
100
AcDbEntity
  8
$DDT_AUDIT_GENERATED_(8C)
  6
Continuous
 62
     7
100
AcDbLine
 10
38.05
 20
426.2198349827
 30
0.0
 11
38.05
 21
426.4787237177
 31
0.0
  0
ELLIPSE
  5
25D
330
75
100
AcDbEntity
  8
$DDT_AUDIT_GENERATED_(8C)
  6
Continuous
 62
     7
100
AcDbEllipse
 10
31.3500000002
 20
425.1595725384
 30
0.0
 11
-8.249999999790862
 21
-2.137179322403426E-12
 31
0.0
210
0.0
220
0.0
230
1.0
 40
0.3420201433
 41
3.080949429557421
 42
3.202235877621973
  0
LINE
  5
25E
330
75
100
AcDbEntity
  8
$DDT_AUDIT_GENERATED_(8C)
  6
Continuous
 62
     7
100
AcDbLine
 10
39.25
 20
424.9885624667
 30
0.0
 11
39.25
 21
425.33058261
 31
0.0
  0
LINE
  5
25F
330
75
100
AcDbEntity
  8
$DDT_AUDIT_GENERATED_(8C)
  6
Continuous
 62
     7
100
AcDbLine
 10
39.25
 20
425.33058261
 30
0.0
 11
39.584834546
 21
425.33058261
 31
0.0
  0
ELLIPSE
  5
260
330
75
100
AcDbEntity
  8
$DDT_AUDIT_GENERATED_(8C)
  6
Continuous
 62
     7
100
AcDbEllipse
 10
31.3499999998
 20
425.1595725384
 30
0.0
 11
8.250000000243755
 21
1.219857548306891E-11
 31
0.0
210
0.0
220
0.0
230
1.0
 40
0.3420201433
 41
0.0849506238839489
 42
0.1016246097723048
  0
LINE
  5
261
330
75
100
AcDbEntity
  8
$DDT_AUDIT_GENERATED_(8C)
  6
Continuous
 62
     7
100
AcDbLine
 10
39.5702493879
 20
425.3989866387
 30
0.0
 11
39.25
 21
425.3989866387
 31
0.0
  0
LINE
  5
262
330
75
100
AcDbEntity
  8
$DDT_AUDIT_GENERATED_(8C)
  6
Continuous
 62
     7
100
AcDbLine
 10
39.25
 20
425.3989866387
 30
0.0
 11
39.25
 21
425.741006782
 31
0.0
  0
LINE
  5
263
330
75
100
AcDbEntity
  8
$DDT_AUDIT_GENERATED_(8C)
  6
Continuous
 62
     7
100
AcDbLine
 10
39.25
 20
425.741006782
 30
0.0
 11
39.2747795139
 21
425.741006782
 31
0.0
  0
LINE
  5
264
330
75
100
AcDbEntity
  8
$DDT_AUDIT_GENERATED_(8C)
  6
Continuous
 62
     7
100
AcDbLine
 10
31.85
 20
425.33058261
 30
0.0
 11
31.85
 21
424.9885624667
 31
0.0
  0
LINE
  5
265
330
75
100
AcDbEntity
  8
$DDT_AUDIT_GENERATED_(8C)
  6
Continuous
 62
     7
100
AcDbLine
 10
31.85
 20
424.9201584381
 30
0.0
 11
31.85
 21
424.5781382947
 31
0.0
  0
LINE
  5
266
330
75
100
AcDbEntity
  8
$DDT_AUDIT_GENERATED_(8C)
  6
Continuous
 62
     7
100
AcDbLine
 10
31.85
 20
424.5097342661
 30
0.0
 11
31.85
 21
424.1677141227
 31
0.0
  0
LINE
  5
267
330
75
100
AcDbEntity
  8
$DDT_AUDIT_GENERATED_(8C)
  6
Continuous
 62
     7
100
AcDbLine
 10
31.85
 20
424.0993100941
 30
0.0
 11
31.85
 21
423.7572899507
 31
0.0
  0
LINE
  5
268
330
75
100
AcDbEntity
  8
$DDT_AUDIT_GENERATED_(8C)
  6
Continuous
 62
     7
100
AcDbLine
 10
31.85
 20
423.6888859221
 30
0.0
 11
31.85
 21
423.3468657788
 31
0.0
  0
LINE
  5
269
330
75
100
AcDbEntity
  8
$DDT_AUDIT_GENERATED_(8C)
  6
Continuous
 62
     7
100
AcDbLine
 10
31.85
 20
423.2784617501
 30
0.0
 11
31.85
 21
422.9364416068
 31
0.0
  0
LINE
  5
26A
330
75
100
AcDbEntity
  8
$DDT_AUDIT_GENERATED_(8C)
  6
Continuous
 62
     7
100
AcDbLine
 10
31.85
 20
422.8680375781
 30
0.0
 11
31.85
 21
422.5260174348
 31
0.0
  0
LINE
  5
26B
330
75
100
AcDbEntity
  8
$DDT_AUDIT_GENERATED_(8C)
  6
Continuous
 62
     7
100
AcDbLine
 10
33.05
 20
424.9885624667
 30
0.0
 11
32.05
 21
424.9885624667
 31
0.0
  0
LINE
  5
26C
330
75
100
AcDbEntity
  8
$DDT_AUDIT_GENERATED_(8C)
  6
Continuous
 62
     7
100
AcDbLine
 10
33.05
 20
424.9201584381
 30
0.0
 11
33.05
 21
424.5781382947
 31
0.0
  0
LINE
  5
26D
330
75
100
AcDbEntity
  8
$DDT_AUDIT_GENERATED_(8C)
  6
Continuous
 62
     7
100
AcDbLine
 10
33.05
 20
424.5781382947
 30
0.0
 11
32.05
 21
424.5781382947
 31
0.0
  0
LINE
  5
26E
330
75
100
AcDbEntity
  8
$DDT_AUDIT_GENERATED_(8C)
  6
Continuous
 62
     7
100
AcDbLine
 10
32.05
 20
424.5781382947
 30
0.0
 11
32.05
 21
424.9201584381
 31
0.0
  0
LINE
  5
26F
330
75
100
AcDbEntity
  8
$DDT_AUDIT_GENERATED_(8C)
  6
Continuous
 62
     7
100
AcDbLine
 10
32.05
 20
424.9201584381
 30
0.0
 11
33.05
 21
424.9201584381
 31
0.0
  0
LINE
  5
270
330
75
100
AcDbEntity
  8
$DDT_AUDIT_GENERATED_(8C)
  6
Continuous
 62
     7
100
AcDbLine
 10
33.05
 20
424.5097342661
 30
0.0
 11
33.05
 21
424.1677141227
 31
0.0
  0
LINE
  5
271
330
75
100
AcDbEntity
  8
$DDT_AUDIT_GENERATED_(8C)
  6
Continuous
 62
     7
100
AcDbLine
 10
33.05
 20
424.1677141227
 30
0.0
 11
32.05
 21
424.1677141227
 31
0.0
  0
LINE
  5
272
330
75
100
AcDbEntity
  8
$DDT_AUDIT_GENERATED_(8C)
  6
Continuous
 62
     7
100
AcDbLine
 10
32.05
 20
424.1677141227
 30
0.0
 11
32.05
 21
424.5097342661
 31
0.0
  0
LINE
  5
273
330
75
100
AcDbEntity
  8
$DDT_AUDIT_GENERATED_(8C)
  6
Continuous
 62
     7
100
AcDbLine
 10
32.05
 20
424.5097342661
 30
0.0
 11
33.05
 21
424.5097342661
 31
0.0
  0
LINE
  5
274
330
75
100
AcDbEntity
  8
$DDT_AUDIT_GENERATED_(8C)
  6
Continuous
 62
     7
100
AcDbLine
 10
33.05
 20
424.0993100941
 30
0.0
 11
33.05
 21
423.7572899507
 31
0.0
  0
LINE
  5
275
330
75
100
AcDbEntity
  8
$DDT_AUDIT_GENERATED_(8C)
  6
Continuous
 62
     7
100
AcDbLine
 10
33.05
 20
423.7572899507
 30
0.0
 11
32.05
 21
423.7572899507
 31
0.0
  0
LINE
  5
276
330
75
100
AcDbEntity
  8
$DDT_AUDIT_GENERATED_(8C)
  6
Continuous
 62
     7
100
AcDbLine
 10
32.05
 20
423.7572899507
 30
0.0
 11
32.05
 21
424.0993100941
 31
0.0
  0
LINE
  5
277
330
75
100
AcDbEntity
  8
$DDT_AUDIT_GENERATED_(8C)
  6
Continuous
 62
     7
100
AcDbLine
 10
32.05
 20
424.0993100941
 30
0.0
 11
33.05
 21
424.0993100941
 31
0.0
  0
LINE
  5
278
330
75
100
AcDbEntity
  8
$DDT_AUDIT_GENERATED_(8C)
  6
Continuous
 62
     7
100
AcDbLine
 10
33.05
 20
423.6888859221
 30
0.0
 11
33.05
 21
423.3468657788
 31
0.0
  0
LINE
  5
279
330
75
100
AcDbEntity
  8
$DDT_AUDIT_GENERATED_(8C)
  6
Continuous
 62
     7
100
AcDbLine
 10
33.05
 20
423.3468657788
 30
0.0
 11
32.05
 21
423.3468657788
 31
0.0
  0
LINE
  5
27A
330
75
100
AcDbEntity
  8
$DDT_AUDIT_GENERATED_(8C)
  6
Continuous
 62
     7
100
AcDbLine
 10
32.05
 20
423.3468657788
 30
0.0
 11
32.05
 21
423.6888859221
 31
0.0
  0
LINE
  5
27B
330
75
100
AcDbEntity
  8
$DDT_AUDIT_GENERATED_(8C)
  6
Continuous
 62
     7
100
AcDbLine
 10
32.05
 20
423.6888859221
 30
0.0
 11
33.05
 21
423.6888859221
 31
0.0
  0
LINE
  5
27C
330
75
100
AcDbEntity
  8
$DDT_AUDIT_GENERATED_(8C)
  6
Continuous
 62
     7
100
AcDbLine
 10
33.05
 20
423.2784617501
 30
0.0
 11
33.05
 21
422.9364416068
 31
0.0
  0
LINE
  5
27D
330
75
100
AcDbEntity
  8
$DDT_AUDIT_GENERATED_(8C)
  6
Continuous
 62
     7
100
AcDbLine
 10
33.05
 20
422.9364416068
 30
0.0
 11
32.05
 21
422.9364416068
 31
0.0
  0
LINE
  5
27E
330
75
100
AcDbEntity
  8
$DDT_AUDIT_GENERATED_(8C)
  6
Continuous
 62
     7
100
AcDbLine
 10
32.05
 20
422.9364416068
 30
0.0
 11
32.05
 21
423.2784617501
 31
0.0
  0
LINE
  5
27F
330
75
100
AcDbEntity
  8
$DDT_AUDIT_GENERATED_(8C)
  6
Continuous
 62
     7
100
AcDbLine
 10
32.05
 20
423.2784617501
 30
0.0
 11
33.05
 21
423.2784617501
 31
0.0
  0
LINE
  5
280
330
75
100
AcDbEntity
  8
$DDT_AUDIT_GENERATED_(8C)
  6
Continuous
 62
     7
100
AcDbLine
 10
33.05
 20
422.8680375781
 30
0.0
 11
33.05
 21
422.5260174348
 31
0.0
  0
LINE
  5
281
330
75
100
AcDbEntity
  8
$DDT_AUDIT_GENERATED_(8C)
  6
Continuous
 62
     7
100
AcDbLine
 10
33.05
 20
422.5260174348
 30
0.0
 11
32.05
 21
422.5260174348
 31
0.0
  0
LINE
  5
282
330
75
100
AcDbEntity
  8
$DDT_AUDIT_GENERATED_(8C)
  6
Continuous
 62
     7
100
AcDbLine
 10
32.05
 20
422.5260174348
 30
0.0
 11
32.05
 21
422.8680375781
 31
0.0
  0
LINE
  5
283
330
75
100
AcDbEntity
  8
$DDT_AUDIT_GENERATED_(8C)
  6
Continuous
 62
     7
100
AcDbLine
 10
32.05
 20
422.8680375781
 30
0.0
 11
33.05
 21
422.8680375781
 31
0.0
  0
LINE
  5
284
330
75
100
AcDbEntity
  8
$DDT_AUDIT_GENERATED_(8C)
  6
Continuous
 62
     7
100
AcDbLine
 10
34.25
 20
424.9885624667
 30
0.0
 11
33.25
 21
424.9885624667
 31
0.0
  0
LINE
  5
285
330
75
100
AcDbEntity
  8
$DDT_AUDIT_GENERATED_(8C)
  6
Continuous
 62
     7
100
AcDbLine
 10
34.25
 20
424.9201584381
 30
0.0
 11
34.25
 21
424.5781382947
 31
0.0
  0
LINE
  5
286
330
75
100
AcDbEntity
  8
$DDT_AUDIT_GENERATED_(8C)
  6
Continuous
 62
     7
100
AcDbLine
 10
34.25
 20
424.5781382947
 30
0.0
 11
33.25
 21
424.5781382947
 31
0.0
  0
LINE
  5
287
330
75
100
AcDbEntity
  8
$DDT_AUDIT_GENERATED_(8C)
  6
Continuous
 62
     7
100
AcDbLine
 10
33.25
 20
424.5781382947
 30
0.0
 11
33.25
 21
424.9201584381
 31
0.0
  0
LINE
  5
288
330
75
100
AcDbEntity
  8
$DDT_AUDIT_GENERATED_(8C)
  6
Continuous
 62
     7
100
AcDbLine
 10
33.25
 20
424.9201584381
 30
0.0
 11
34.25
 21
424.9201584381
 31
0.0
  0
LINE
  5
289
330
75
100
AcDbEntity
  8
$DDT_AUDIT_GENERATED_(8C)
  6
Continuous
 62
     7
100
AcDbLine
 10
34.25
 20
424.5097342661
 30
0.0
 11
34.25
 21
424.1677141227
 31
0.0
  0
LINE
  5
28A
330
75
100
AcDbEntity
  8
$DDT_AUDIT_GENERATED_(8C)
  6
Continuous
 62
     7
100
AcDbLine
 10
34.25
 20
424.1677141227
 30
0.0
 11
33.25
 21
424.1677141227
 31
0.0
  0
LINE
  5
28B
330
75
100
AcDbEntity
  8
$DDT_AUDIT_GENERATED_(8C)
  6
Continuous
 62
     7
100
AcDbLine
 10
33.25
 20
424.1677141227
 30
0.0
 11
33.25
 21
424.5097342661
 31
0.0
  0
LINE
  5
28C
330
75
100
AcDbEntity
  8
$DDT_AUDIT_GENERATED_(8C)
  6
Continuous
 62
     7
100
AcDbLine
 10
33.25
 20
424.5097342661
 30
0.0
 11
34.25
 21
424.5097342661
 31
0.0
  0
LINE
  5
28D
330
75
100
AcDbEntity
  8
$DDT_AUDIT_GENERATED_(8C)
  6
Continuous
 62
     7
100
AcDbLine
 10
34.25
 20
424.0993100941
 30
0.0
 11
34.25
 21
423.7572899507
 31
0.0
  0
LINE
  5
28E
330
75
100
AcDbEntity
  8
$DDT_AUDIT_GENERATED_(8C)
  6
Continuous
 62
     7
100
AcDbLine
 10
34.25
 20
423.7572899507
 30
0.0
 11
33.25
 21
423.7572899507
 31
0.0
  0
LINE
  5
28F
330
75
100
AcDbEntity
  8
$DDT_AUDIT_GENERATED_(8C)
  6
Continuous
 62
     7
100
AcDbLine
 10
33.25
 20
423.7572899507
 30
0.0
 11
33.25
 21
424.0993100941
 31
0.0
  0
LINE
  5
290
330
75
100
AcDbEntity
  8
$DDT_AUDIT_GENERATED_(8C)
  6
Continuous
 62
     7
100
AcDbLine
 10
33.25
 20
424.0993100941
 30
0.0
 11
34.25
 21
424.0993100941
 31
0.0
  0
LINE
  5
291
330
75
100
AcDbEntity
  8
$DDT_AUDIT_GENERATED_(8C)
  6
Continuous
 62
     7
100
AcDbLine
 10
34.25
 20
423.6888859221
 30
0.0
 11
34.25
 21
423.3468657788
 31
0.0
  0
LINE
  5
292
330
75
100
AcDbEntity
  8
$DDT_AUDIT_GENERATED_(8C)
  6
Continuous
 62
     7
100
AcDbLine
 10
34.25
 20
423.3468657788
 30
0.0
 11
33.25
 21
423.3468657788
 31
0.0
  0
LINE
  5
293
330
75
100
AcDbEntity
  8
$DDT_AUDIT_GENERATED_(8C)
  6
Continuous
 62
     7
100
AcDbLine
 10
33.25
 20
423.3468657788
 30
0.0
 11
33.25
 21
423.6888859221
 31
0.0
  0
LINE
  5
294
330
75
100
AcDbEntity
  8
$DDT_AUDIT_GENERATED_(8C)
  6
Continuous
 62
     7
100
AcDbLine
 10
33.25
 20
423.6888859221
 30
0.0
 11
34.25
 21
423.6888859221
 31
0.0
  0
LINE
  5
295
330
75
100
AcDbEntity
  8
$DDT_AUDIT_GENERATED_(8C)
  6
Continuous
 62
     7
100
AcDbLine
 10
34.25
 20
423.2784617501
 30
0.0
 11
34.25
 21
422.9364416068
 31
0.0
  0
LINE
  5
296
330
75
100
AcDbEntity
  8
$DDT_AUDIT_GENERATED_(8C)
  6
Continuous
 62
     7
100
AcDbLine
 10
34.25
 20
422.9364416068
 30
0.0
 11
33.25
 21
422.9364416068
 31
0.0
  0
LINE
  5
297
330
75
100
AcDbEntity
  8
$DDT_AUDIT_GENERATED_(8C)
  6
Continuous
 62
     7
100
AcDbLine
 10
33.25
 20
422.9364416068
 30
0.0
 11
33.25
 21
423.2784617501
 31
0.0
  0
LINE
  5
298
330
75
100
AcDbEntity
  8
$DDT_AUDIT_GENERATED_(8C)
  6
Continuous
 62
     7
100
AcDbLine
 10
33.25
 20
423.2784617501
 30
0.0
 11
34.25
 21
423.2784617501
 31
0.0
  0
LINE
  5
299
330
75
100
AcDbEntity
  8
$DDT_AUDIT_GENERATED_(8C)
  6
Continuous
 62
     7
100
AcDbLine
 10
35.45
 20
424.9885624667
 30
0.0
 11
34.45
 21
424.9885624667
 31
0.0
  0
LINE
  5
29A
330
75
100
AcDbEntity
  8
$DDT_AUDIT_GENERATED_(8C)
  6
Continuous
 62
     7
100
AcDbLine
 10
35.45
 20
424.9201584381
 30
0.0
 11
35.45
 21
424.5781382947
 31
0.0
  0
LINE
  5
29B
330
75
100
AcDbEntity
  8
$DDT_AUDIT_GENERATED_(8C)
  6
Continuous
 62
     7
100
AcDbLine
 10
35.45
 20
424.5781382947
 30
0.0
 11
34.45
 21
424.5781382947
 31
0.0
  0
LINE
  5
29C
330
75
100
AcDbEntity
  8
$DDT_AUDIT_GENERATED_(8C)
  6
Continuous
 62
     7
100
AcDbLine
 10
34.45
 20
424.5781382947
 30
0.0
 11
34.45
 21
424.9201584381
 31
0.0
  0
LINE
  5
29D
330
75
100
AcDbEntity
  8
$DDT_AUDIT_GENERATED_(8C)
  6
Continuous
 62
     7
100
AcDbLine
 10
34.45
 20
424.9201584381
 30
0.0
 11
35.45
 21
424.9201584381
 31
0.0
  0
LINE
  5
29E
330
75
100
AcDbEntity
  8
$DDT_AUDIT_GENERATED_(8C)
  6
Continuous
 62
     7
100
AcDbLine
 10
35.45
 20
424.5097342661
 30
0.0
 11
35.45
 21
424.1677141227
 31
0.0
  0
LINE
  5
29F
330
75
100
AcDbEntity
  8
$DDT_AUDIT_GENERATED_(8C)
  6
Continuous
 62
     7
100
AcDbLine
 10
35.45
 20
424.1677141227
 30
0.0
 11
34.45
 21
424.1677141227
 31
0.0
  0
LINE
  5
2A0
330
75
100
AcDbEntity
  8
$DDT_AUDIT_GENERATED_(8C)
  6
Continuous
 62
     7
100
AcDbLine
 10
34.45
 20
424.1677141227
 30
0.0
 11
34.45
 21
424.5097342661
 31
0.0
  0
LINE
  5
2A1
330
75
100
AcDbEntity
  8
$DDT_AUDIT_GENERATED_(8C)
  6
Continuous
 62
     7
100
AcDbLine
 10
34.45
 20
424.5097342661
 30
0.0
 11
35.45
 21
424.5097342661
 31
0.0
  0
LINE
  5
2A2
330
75
100
AcDbEntity
  8
$DDT_AUDIT_GENERATED_(8C)
  6
Continuous
 62
     7
100
AcDbLine
 10
35.45
 20
424.0993100941
 30
0.0
 11
35.45
 21
423.7572899507
 31
0.0
  0
LINE
  5
2A3
330
75
100
AcDbEntity
  8
$DDT_AUDIT_GENERATED_(8C)
  6
Continuous
 62
     7
100
AcDbLine
 10
35.45
 20
423.7572899507
 30
0.0
 11
34.45
 21
423.7572899507
 31
0.0
  0
LINE
  5
2A4
330
75
100
AcDbEntity
  8
$DDT_AUDIT_GENERATED_(8C)
  6
Continuous
 62
     7
100
AcDbLine
 10
34.45
 20
423.7572899507
 30
0.0
 11
34.45
 21
424.0993100941
 31
0.0
  0
LINE
  5
2A5
330
75
100
AcDbEntity
  8
$DDT_AUDIT_GENERATED_(8C)
  6
Continuous
 62
     7
100
AcDbLine
 10
34.45
 20
424.0993100941
 30
0.0
 11
35.45
 21
424.0993100941
 31
0.0
  0
LINE
  5
2A6
330
75
100
AcDbEntity
  8
$DDT_AUDIT_GENERATED_(8C)
  6
Continuous
 62
     7
100
AcDbLine
 10
35.45
 20
423.6888859221
 30
0.0
 11
35.45
 21
423.3468657788
 31
0.0
  0
LINE
  5
2A7
330
75
100
AcDbEntity
  8
$DDT_AUDIT_GENERATED_(8C)
  6
Continuous
 62
     7
100
AcDbLine
 10
35.45
 20
423.3468657788
 30
0.0
 11
34.45
 21
423.3468657788
 31
0.0
  0
LINE
  5
2A8
330
75
100
AcDbEntity
  8
$DDT_AUDIT_GENERATED_(8C)
  6
Continuous
 62
     7
100
AcDbLine
 10
34.45
 20
423.3468657788
 30
0.0
 11
34.45
 21
423.6888859221
 31
0.0
  0
LINE
  5
2A9
330
75
100
AcDbEntity
  8
$DDT_AUDIT_GENERATED_(8C)
  6
Continuous
 62
     7
100
AcDbLine
 10
34.45
 20
423.6888859221
 30
0.0
 11
35.45
 21
423.6888859221
 31
0.0
  0
LINE
  5
2AA
330
75
100
AcDbEntity
  8
$DDT_AUDIT_GENERATED_(8C)
  6
Continuous
 62
     7
100
AcDbLine
 10
35.45
 20
423.2784617501
 30
0.0
 11
35.45
 21
422.9364416068
 31
0.0
  0
LINE
  5
2AB
330
75
100
AcDbEntity
  8
$DDT_AUDIT_GENERATED_(8C)
  6
Continuous
 62
     7
100
AcDbLine
 10
35.45
 20
422.9364416068
 30
0.0
 11
34.45
 21
422.9364416068
 31
0.0
  0
LINE
  5
2AC
330
75
100
AcDbEntity
  8
$DDT_AUDIT_GENERATED_(8C)
  6
Continuous
 62
     7
100
AcDbLine
 10
34.45
 20
422.9364416068
 30
0.0
 11
34.45
 21
423.2784617501
 31
0.0
  0
LINE
  5
2AD
330
75
100
AcDbEntity
  8
$DDT_AUDIT_GENERATED_(8C)
  6
Continuous
 62
     7
100
AcDbLine
 10
34.45
 20
423.2784617501
 30
0.0
 11
35.45
 21
423.2784617501
 31
0.0
  0
LINE
  5
2AE
330
75
100
AcDbEntity
  8
$DDT_AUDIT_GENERATED_(8C)
  6
Continuous
 62
     7
100
AcDbLine
 10
36.65
 20
424.9885624667
 30
0.0
 11
35.65
 21
424.9885624667
 31
0.0
  0
LINE
  5
2AF
330
75
100
AcDbEntity
  8
$DDT_AUDIT_GENERATED_(8C)
  6
Continuous
 62
     7
100
AcDbLine
 10
36.65
 20
424.9201584381
 30
0.0
 11
36.65
 21
424.5781382947
 31
0.0
  0
LINE
  5
2B0
330
75
100
AcDbEntity
  8
$DDT_AUDIT_GENERATED_(8C)
  6
Continuous
 62
     7
100
AcDbLine
 10
36.65
 20
424.5781382947
 30
0.0
 11
35.65
 21
424.5781382947
 31
0.0
  0
LINE
  5
2B1
330
75
100
AcDbEntity
  8
$DDT_AUDIT_GENERATED_(8C)
  6
Continuous
 62
     7
100
AcDbLine
 10
35.65
 20
424.5781382947
 30
0.0
 11
35.65
 21
424.9201584381
 31
0.0
  0
LINE
  5
2B2
330
75
100
AcDbEntity
  8
$DDT_AUDIT_GENERATED_(8C)
  6
Continuous
 62
     7
100
AcDbLine
 10
35.65
 20
424.9201584381
 30
0.0
 11
36.65
 21
424.9201584381
 31
0.0
  0
LINE
  5
2B3
330
75
100
AcDbEntity
  8
$DDT_AUDIT_GENERATED_(8C)
  6
Continuous
 62
     7
100
AcDbLine
 10
36.65
 20
424.5097342661
 30
0.0
 11
36.65
 21
424.1677141227
 31
0.0
  0
LINE
  5
2B4
330
75
100
AcDbEntity
  8
$DDT_AUDIT_GENERATED_(8C)
  6
Continuous
 62
     7
100
AcDbLine
 10
36.65
 20
424.1677141227
 30
0.0
 11
35.65
 21
424.1677141227
 31
0.0
  0
LINE
  5
2B5
330
75
100
AcDbEntity
  8
$DDT_AUDIT_GENERATED_(8C)
  6
Continuous
 62
     7
100
AcDbLine
 10
35.65
 20
424.1677141227
 30
0.0
 11
35.65
 21
424.5097342661
 31
0.0
  0
LINE
  5
2B6
330
75
100
AcDbEntity
  8
$DDT_AUDIT_GENERATED_(8C)
  6
Continuous
 62
     7
100
AcDbLine
 10
35.65
 20
424.5097342661
 30
0.0
 11
36.65
 21
424.5097342661
 31
0.0
  0
LINE
  5
2B7
330
75
100
AcDbEntity
  8
$DDT_AUDIT_GENERATED_(8C)
  6
Continuous
 62
     7
100
AcDbLine
 10
36.65
 20
424.0993100941
 30
0.0
 11
36.65
 21
423.7572899507
 31
0.0
  0
LINE
  5
2B8
330
75
100
AcDbEntity
  8
$DDT_AUDIT_GENERATED_(8C)
  6
Continuous
 62
     7
100
AcDbLine
 10
36.65
 20
423.7572899507
 30
0.0
 11
35.65
 21
423.7572899507
 31
0.0
  0
LINE
  5
2B9
330
75
100
AcDbEntity
  8
$DDT_AUDIT_GENERATED_(8C)
  6
Continuous
 62
     7
100
AcDbLine
 10
35.65
 20
423.7572899507
 30
0.0
 11
35.65
 21
424.0993100941
 31
0.0
  0
LINE
  5
2BA
330
75
100
AcDbEntity
  8
$DDT_AUDIT_GENERATED_(8C)
  6
Continuous
 62
     7
100
AcDbLine
 10
35.65
 20
424.0993100941
 30
0.0
 11
36.65
 21
424.0993100941
 31
0.0
  0
LINE
  5
2BB
330
75
100
AcDbEntity
  8
$DDT_AUDIT_GENERATED_(8C)
  6
Continuous
 62
     7
100
AcDbLine
 10
36.65
 20
423.6888859221
 30
0.0
 11
36.65
 21
423.3468657788
 31
0.0
  0
LINE
  5
2BC
330
75
100
AcDbEntity
  8
$DDT_AUDIT_GENERATED_(8C)
  6
Continuous
 62
     7
100
AcDbLine
 10
36.65
 20
423.3468657788
 30
0.0
 11
35.65
 21
423.3468657788
 31
0.0
  0
LINE
  5
2BD
330
75
100
AcDbEntity
  8
$DDT_AUDIT_GENERATED_(8C)
  6
Continuous
 62
     7
100
AcDbLine
 10
35.65
 20
423.3468657788
 30
0.0
 11
35.65
 21
423.6888859221
 31
0.0
  0
LINE
  5
2BE
330
75
100
AcDbEntity
  8
$DDT_AUDIT_GENERATED_(8C)
  6
Continuous
 62
     7
100
AcDbLine
 10
35.65
 20
423.6888859221
 30
0.0
 11
36.65
 21
423.6888859221
 31
0.0
  0
LINE
  5
2BF
330
75
100
AcDbEntity
  8
$DDT_AUDIT_GENERATED_(8C)
  6
Continuous
 62
     7
100
AcDbLine
 10
37.85
 20
424.9885624667
 30
0.0
 11
36.85
 21
424.9885624667
 31
0.0
  0
LINE
  5
2C0
330
75
100
AcDbEntity
  8
$DDT_AUDIT_GENERATED_(8C)
  6
Continuous
 62
     7
100
AcDbLine
 10
37.85
 20
424.9201584381
 30
0.0
 11
37.85
 21
424.5781382947
 31
0.0
  0
LINE
  5
2C1
330
75
100
AcDbEntity
  8
$DDT_AUDIT_GENERATED_(8C)
  6
Continuous
 62
     7
100
AcDbLine
 10
37.85
 20
424.5781382947
 30
0.0
 11
36.85
 21
424.5781382947
 31
0.0
  0
LINE
  5
2C2
330
75
100
AcDbEntity
  8
$DDT_AUDIT_GENERATED_(8C)
  6
Continuous
 62
     7
100
AcDbLine
 10
36.85
 20
424.5781382947
 30
0.0
 11
36.85
 21
424.9201584381
 31
0.0
  0
LINE
  5
2C3
330
75
100
AcDbEntity
  8
$DDT_AUDIT_GENERATED_(8C)
  6
Continuous
 62
     7
100
AcDbLine
 10
36.85
 20
424.9201584381
 30
0.0
 11
37.85
 21
424.9201584381
 31
0.0
  0
LINE
  5
2C4
330
75
100
AcDbEntity
  8
$DDT_AUDIT_GENERATED_(8C)
  6
Continuous
 62
     7
100
AcDbLine
 10
37.85
 20
424.5097342661
 30
0.0
 11
37.85
 21
424.1677141227
 31
0.0
  0
LINE
  5
2C5
330
75
100
AcDbEntity
  8
$DDT_AUDIT_GENERATED_(8C)
  6
Continuous
 62
     7
100
AcDbLine
 10
37.85
 20
424.1677141227
 30
0.0
 11
36.85
 21
424.1677141227
 31
0.0
  0
LINE
  5
2C6
330
75
100
AcDbEntity
  8
$DDT_AUDIT_GENERATED_(8C)
  6
Continuous
 62
     7
100
AcDbLine
 10
36.85
 20
424.1677141227
 30
0.0
 11
36.85
 21
424.5097342661
 31
0.0
  0
LINE
  5
2C7
330
75
100
AcDbEntity
  8
$DDT_AUDIT_GENERATED_(8C)
  6
Continuous
 62
     7
100
AcDbLine
 10
36.85
 20
424.5097342661
 30
0.0
 11
37.85
 21
424.5097342661
 31
0.0
  0
LINE
  5
2C8
330
75
100
AcDbEntity
  8
$DDT_AUDIT_GENERATED_(8C)
  6
Continuous
 62
     7
100
AcDbLine
 10
37.85
 20
424.0993100941
 30
0.0
 11
37.85
 21
423.7572899507
 31
0.0
  0
LINE
  5
2C9
330
75
100
AcDbEntity
  8
$DDT_AUDIT_GENERATED_(8C)
  6
Continuous
 62
     7
100
AcDbLine
 10
37.85
 20
423.7572899507
 30
0.0
 11
36.85
 21
423.7572899507
 31
0.0
  0
LINE
  5
2CA
330
75
100
AcDbEntity
  8
$DDT_AUDIT_GENERATED_(8C)
  6
Continuous
 62
     7
100
AcDbLine
 10
36.85
 20
423.7572899507
 30
0.0
 11
36.85
 21
424.0993100941
 31
0.0
  0
LINE
  5
2CB
330
75
100
AcDbEntity
  8
$DDT_AUDIT_GENERATED_(8C)
  6
Continuous
 62
     7
100
AcDbLine
 10
36.85
 20
424.0993100941
 30
0.0
 11
37.85
 21
424.0993100941
 31
0.0
  0
LINE
  5
2CC
330
75
100
AcDbEntity
  8
$DDT_AUDIT_GENERATED_(8C)
  6
Continuous
 62
     7
100
AcDbLine
 10
39.05
 20
424.9885624667
 30
0.0
 11
38.05
 21
424.9885624667
 31
0.0
  0
LINE
  5
2CD
330
75
100
AcDbEntity
  8
$DDT_AUDIT_GENERATED_(8C)
  6
Continuous
 62
     7
100
AcDbLine
 10
39.05
 20
424.9201584381
 30
0.0
 11
39.05
 21
424.5781382947
 31
0.0
  0
LINE
  5
2CE
330
75
100
AcDbEntity
  8
$DDT_AUDIT_GENERATED_(8C)
  6
Continuous
 62
     7
100
AcDbLine
 10
39.05
 20
424.5781382947
 30
0.0
 11
38.05
 21
424.5781382947
 31
0.0
  0
LINE
  5
2CF
330
75
100
AcDbEntity
  8
$DDT_AUDIT_GENERATED_(8C)
  6
Continuous
 62
     7
100
AcDbLine
 10
38.05
 20
424.5781382947
 30
0.0
 11
38.05
 21
424.9201584381
 31
0.0
  0
LINE
  5
2D0
330
75
100
AcDbEntity
  8
$DDT_AUDIT_GENERATED_(8C)
  6
Continuous
 62
     7
100
AcDbLine
 10
38.05
 20
424.9201584381
 30
0.0
 11
39.05
 21
424.9201584381
 31
0.0
  0
LINE
  5
2D1
330
75
100
AcDbEntity
  8
$DDT_AUDIT_GENERATED_(8C)
  6
Continuous
 62
     7
100
AcDbLine
 10
39.05
 20
424.5097342661
 30
0.0
 11
39.05
 21
424.1677141227
 31
0.0
  0
LINE
  5
2D2
330
75
100
AcDbEntity
  8
$DDT_AUDIT_GENERATED_(8C)
  6
Continuous
 62
     7
100
AcDbLine
 10
39.05
 20
424.1677141227
 30
0.0
 11
38.05
 21
424.1677141227
 31
0.0
  0
LINE
  5
2D3
330
75
100
AcDbEntity
  8
$DDT_AUDIT_GENERATED_(8C)
  6
Continuous
 62
     7
100
AcDbLine
 10
38.05
 20
424.1677141227
 30
0.0
 11
38.05
 21
424.5097342661
 31
0.0
  0
LINE
  5
2D4
330
75
100
AcDbEntity
  8
$DDT_AUDIT_GENERATED_(8C)
  6
Continuous
 62
     7
100
AcDbLine
 10
38.05
 20
424.5097342661
 30
0.0
 11
39.05
 21
424.5097342661
 31
0.0
  0
LINE
  5
2D5
330
75
100
AcDbEntity
  8
$DDT_AUDIT_GENERATED_(8C)
  6
Continuous
 62
     7
100
AcDbLine
 10
39.584834546
 20
424.9885624667
 30
0.0
 11
39.25
 21
424.9885624667
 31
0.0
  0
LINE
  5
2D6
330
75
100
AcDbEntity
  8
$DDT_AUDIT_GENERATED_(8C)
  6
Continuous
 62
     7
100
AcDbLine
 10
39.584834546
 20
424.9885624667
 30
0.0
 11
39.584834546
 21
425.33058261
 31
0.0
  0
ELLIPSE
  5
2D7
330
75
100
AcDbEntity
  8
$DDT_AUDIT_GENERATED_(8C)
  6
Continuous
 62
     7
100
AcDbEllipse
 10
31.3500000003
 20
425.1595725384
 30
0.0
 11
8.249999999742125
 21
1.616762279610384E-11
 31
0.0
210
0.0
220
0.0
230
1.0
 40
0.3420201433
 41
-0.2075474504870369
 42
-0.0849506238876874
  0
LINE
  5
2D8
330
75
100
AcDbEntity
  8
$DDT_AUDIT_GENERATED_(8C)
  6
Continuous
 62
     7
100
AcDbLine
 10
39.4229486559
 20
424.5781382947
 30
0.0
 11
39.4229486559
 21
424.9201584381
 31
0.0
  0
LINE
  5
2D9
330
75
100
AcDbEntity
  8
$DDT_AUDIT_GENERATED_(8C)
  6
Continuous
 62
     7
100
AcDbLine
 10
39.4229486559
 20
424.5781382947
 30
0.0
 11
39.25
 21
424.5781382947
 31
0.0
  0
LINE
  5
2DA
330
75
100
AcDbEntity
  8
$DDT_AUDIT_GENERATED_(8C)
  6
Continuous
 62
     7
100
AcDbLine
 10
39.25
 20
424.5781382947
 30
0.0
 11
39.25
 21
424.9201584381
 31
0.0
  0
LINE
  5
2DB
330
75
100
AcDbEntity
  8
$DDT_AUDIT_GENERATED_(8C)
  6
Continuous
 62
     7
100
AcDbLine
 10
39.25
 20
424.9201584381
 30
0.0
 11
39.5702493879
 21
424.9201584381
 31
0.0
  0
ELLIPSE
  5
2DC
330
75
100
AcDbEntity
  8
$DDT_AUDIT_GENERATED_(8C)
  6
Continuous
 62
     7
100
AcDbEllipse
 10
31.3499999998
 20
425.1595725384
 30
0.0
 11
8.250000000228168
 21
-2.307876112439544E-11
 31
0.0
210
0.0
220
0.0
230
1.0
 40
0.3420201433
 41
-0.292327393148474
 42
-0.2323890724771864
  0
LINE
  5
2DD
330
75
100
AcDbEntity
  8
$DDT_AUDIT_GENERATED_(8C)
  6
Continuous
 62
     7
100
AcDbLine
 10
39.25
 20
424.3464200972
 30
0.0
 11
39.25
 21
424.5097342661
 31
0.0
  0
LINE
  5
2DE
330
75
100
AcDbEntity
  8
$DDT_AUDIT_GENERATED_(8C)
  6
Continuous
 62
     7
100
AcDbLine
 10
39.25
 20
424.5097342661
 30
0.0
 11
39.3782314366
 21
424.5097342661
 31
0.0
  0
ELLIPSE
  5
2DF
330
75
100
AcDbEntity
  8
$DDT_AUDIT_GENERATED_(8C)
  6
Continuous
 62
     7
100
AcDbEllipse
 10
31.3499999997
 20
425.1595725384
 30
0.0
 11
8.250000000339087
 21
-5.812017533912694E-11
 31
0.0
210
0.0
220
0.0
230
1.0
 40
0.3420201433
 41
-0.5201032032514687
 42
-0.3852141216523517
  0
LINE
  5
2E0
330
75
100
AcDbEntity
  8
$DDT_AUDIT_GENERATED_(8C)
  6
Continuous
 62
     7
100
AcDbLine
 10
38.5090851371
 20
423.7572899507
 30
0.0
 11
38.5090851371
 21
424.0993100941
 31
0.0
  0
LINE
  5
2E1
330
75
100
AcDbEntity
  8
$DDT_AUDIT_GENERATED_(8C)
  6
Continuous
 62
     7
100
AcDbLine
 10
38.5090851371
 20
423.7572899507
 30
0.0
 11
38.05
 21
423.7572899507
 31
0.0
  0
LINE
  5
2E2
330
75
100
AcDbEntity
  8
$DDT_AUDIT_GENERATED_(8C)
  6
Continuous
 62
     7
100
AcDbLine
 10
38.05
 20
423.7572899507
 30
0.0
 11
38.05
 21
424.0993100941
 31
0.0
  0
LINE
  5
2E3
330
75
100
AcDbEntity
  8
$DDT_AUDIT_GENERATED_(8C)
  6
Continuous
 62
     7
100
AcDbLine
 10
38.05
 20
424.0993100941
 30
0.0
 11
38.9954234677
 21
424.0993100941
 31
0.0
  0
ELLIPSE
  5
2E4
330
75
100
AcDbEntity
  8
$DDT_AUDIT_GENERATED_(8C)
  6
Continuous
 62
     7
100
AcDbEllipse
 10
31.3500000338
 20
425.159572529
 30
0.0
 11
8.249999965173497
 21
8.229708581275474E-9
 31
0.0
210
0.0
220
0.0
230
1.0
 40
0.3420201435
 41
-0.6976574545439904
 42
-0.6634394358229976
  0
LINE
  5
2E5
330
75
100
AcDbEntity
  8
$DDT_AUDIT_GENERATED_(8C)
  6
Continuous
 62
     7
100
AcDbLine
 10
37.6723808806
 20
423.3468657788
 30
0.0
 11
37.6723808806
 21
423.6888859221
 31
0.0
  0
LINE
  5
2E6
330
75
100
AcDbEntity
  8
$DDT_AUDIT_GENERATED_(8C)
  6
Continuous
 62
     7
100
AcDbLine
 10
37.6723808806
 20
423.3468657788
 30
0.0
 11
36.85
 21
423.3468657788
 31
0.0
  0
LINE
  5
2E7
330
75
100
AcDbEntity
  8
$DDT_AUDIT_GENERATED_(8C)
  6
Continuous
 62
     7
100
AcDbLine
 10
36.85
 20
423.3468657788
 30
0.0
 11
36.85
 21
423.6888859221
 31
0.0
  0
LINE
  5
2E8
330
75
100
AcDbEntity
  8
$DDT_AUDIT_GENERATED_(8C)
  6
Continuous
 62
     7
100
AcDbLine
 10
36.85
 20
423.6888859221
 30
0.0
 11
37.85
 21
423.6888859221
 31
0.0
  0
LINE
  5
2E9
330
75
100
AcDbEntity
  8
$DDT_AUDIT_GENERATED_(8C)
  6
Continuous
 62
     7
100
AcDbLine
 10
37.85
 20
423.6888859221
 30
0.0
 11
37.85
 21
423.4219048757
 31
0.0
  0
ELLIPSE
  5
2EA
330
75
100
AcDbEntity
  8
$DDT_AUDIT_GENERATED_(8C)
  6
Continuous
 62
     7
100
AcDbEllipse
 10
31.3500000017
 20
425.159572538
 30
0.0
 11
8.249999998295866
 21
3.571032358706816E-10
 31
0.0
210
0.0
220
0.0
230
1.0
 40
0.3420201433
 41
-0.6230179598988794
 42
-0.5482706341498993
  0
LINE
  5
2EB
330
75
100
AcDbEntity
  8
$DDT_AUDIT_GENERATED_(8C)
  6
Continuous
 62
     7
100
AcDbLine
 10
38.05
 20
423.5131620273
 30
0.0
 11
38.05
 21
423.6888859221
 31
0.0
  0
LINE
  5
2EC
330
75
100
AcDbEntity
  8
$DDT_AUDIT_GENERATED_(8C)
  6
Continuous
 62
     7
100
AcDbLine
 10
38.05
 20
423.6888859221
 30
0.0
 11
38.3907741052
 21
423.6888859221
 31
0.0
  0
ELLIPSE
  5
2ED
330
75
100
AcDbEntity
  8
$DDT_AUDIT_GENERATED_(8C)
  6
Continuous
 62
     7
100
AcDbEllipse
 10
31.3500000273
 20
425.1595725269
 30
0.0
 11
8.249999969706364
 21
8.205228163582490E-9
 31
0.0
210
0.0
220
0.0
230
1.0
 40
0.3420201431
 41
-0.9073568942329553
 42
-0.8731388755120228
  0
LINE
  5
2EE
330
75
100
AcDbEntity
  8
$DDT_AUDIT_GENERATED_(8C)
  6
Continuous
 62
     7
100
AcDbLine
 10
36.4306003582
 20
422.9364416068
 30
0.0
 11
36.4306003582
 21
423.2784617501
 31
0.0
  0
LINE
  5
2EF
330
75
100
AcDbEntity
  8
$DDT_AUDIT_GENERATED_(8C)
  6
Continuous
 62
     7
100
AcDbLine
 10
36.4306003582
 20
422.9364416068
 30
0.0
 11
35.65
 21
422.9364416068
 31
0.0
  0
LINE
  5
2F0
330
75
100
AcDbEntity
  8
$DDT_AUDIT_GENERATED_(8C)
  6
Continuous
 62
     7
100
AcDbLine
 10
35.65
 20
422.9364416068
 30
0.0
 11
35.65
 21
423.2784617501
 31
0.0
  0
LINE
  5
2F1
330
75
100
AcDbEntity
  8
$DDT_AUDIT_GENERATED_(8C)
  6
Continuous
 62
     7
100
AcDbLine
 10
35.65
 20
423.2784617501
 30
0.0
 11
36.65
 21
423.2784617501
 31
0.0
  0
LINE
  5
2F2
330
75
100
AcDbEntity
  8
$DDT_AUDIT_GENERATED_(8C)
  6
Continuous
 62
     7
100
AcDbLine
 10
36.65
 20
423.2784617501
 30
0.0
 11
36.65
 21
422.9971909234
 31
0.0
  0
ELLIPSE
  5
2F3
330
75
100
AcDbEntity
  8
$DDT_AUDIT_GENERATED_(8C)
  6
Continuous
 62
     7
100
AcDbEllipse
 10
31.35
 20
425.1595725384
 30
0.0
 11
8.249999999985512
 21
3.053113317719180E-12
 31
0.0
210
0.0
220
0.0
230
1.0
 40
0.3420201433
 41
-0.8410686705687374
 42
-0.7297276562276469
  0
LINE
  5
2F4
330
75
100
AcDbEntity
  8
$DDT_AUDIT_GENERATED_(8C)
  6
Continuous
 62
     7
100
AcDbLine
 10
36.85
 20
423.0564267405
 30
0.0
 11
36.85
 21
423.2784617501
 31
0.0
  0
LINE
  5
2F5
330
75
100
AcDbEntity
  8
$DDT_AUDIT_GENERATED_(8C)
  6
Continuous
 62
     7
100
AcDbLine
 10
36.85
 20
423.2784617501
 30
0.0
 11
37.4991869381
 21
423.2784617501
 31
0.0
  0
LINE
  5
2F6
330
75
100
AcDbEntity
  8
$DDT_AUDIT_GENERATED_(8C)
  6
Continuous
 62
     7
100
AcDbLine
 10
34.25
 20
422.8680375781
 30
0.0
 11
34.25
 21
422.5260174348
 31
0.0
  0
LINE
  5
2F7
330
75
100
AcDbEntity
  8
$DDT_AUDIT_GENERATED_(8C)
  6
Continuous
 62
     7
100
AcDbLine
 10
34.25
 20
422.5260174348
 30
0.0
 11
33.25
 21
422.5260174348
 31
0.0
  0
LINE
  5
2F8
330
75
100
AcDbEntity
  8
$DDT_AUDIT_GENERATED_(8C)
  6
Continuous
 62
     7
100
AcDbLine
 10
33.25
 20
422.5260174348
 30
0.0
 11
33.25
 21
422.8680375781
 31
0.0
  0
LINE
  5
2F9
330
75
100
AcDbEntity
  8
$DDT_AUDIT_GENERATED_(8C)
  6
Continuous
 62
     7
100
AcDbLine
 10
33.25
 20
422.8680375781
 30
0.0
 11
34.25
 21
422.8680375781
 31
0.0
  0
ELLIPSE
  5
2FA
330
75
100
AcDbEntity
  8
$DDT_AUDIT_GENERATED_(8C)
  6
Continuous
 62
     7
100
AcDbEllipse
 10
31.3499999999
 20
425.1595725384
 30
0.0
 11
8.250000000115339
 21
-2.972622148433857E-11
 31
0.0
210
0.0
220
0.0
230
1.0
 40
0.3420201433
 41
-1.185582205125991
 42
-1.050693123525386
  0
LINE
  5
2FB
330
75
100
AcDbEntity
  8
$DDT_AUDIT_GENERATED_(8C)
  6
Continuous
 62
     7
100
AcDbLine
 10
34.45
 20
422.5446837082
 30
0.0
 11
34.45
 21
422.8680375781
 31
0.0
  0
LINE
  5
2FC
330
75
100
AcDbEntity
  8
$DDT_AUDIT_GENERATED_(8C)
  6
Continuous
 62
     7
100
AcDbLine
 10
34.45
 20
422.8680375781
 30
0.0
 11
35.45
 21
422.8680375781
 31
0.0
  0
LINE
  5
2FD
330
75
100
AcDbEntity
  8
$DDT_AUDIT_GENERATED_(8C)
  6
Continuous
 62
     7
100
AcDbLine
 10
35.45
 20
422.8680375781
 30
0.0
 11
35.45
 21
422.7110212137
 31
0.0
  0
ELLIPSE
  5
2FE
330
75
100
AcDbEntity
  8
$DDT_AUDIT_GENERATED_(8C)
  6
Continuous
 62
     7
100
AcDbEllipse
 10
31.3500000005
 20
425.1595725381
 30
0.0
 11
8.249999999363308
 21
1.716266018192414E-10
 31
0.0
210
0.0
220
0.0
230
1.0
 40
0.3420201433
 41
-1.022525692747879
 42
-0.947778367003556
  0
LINE
  5
2FF
330
75
100
AcDbEntity
  8
$DDT_AUDIT_GENERATED_(8C)
  6
Continuous
 62
     7
100
AcDbLine
 10
35.65
 20
422.7514859698
 30
0.0
 11
35.65
 21
422.8680375781
 31
0.0
  0
LINE
  5
300
330
75
100
AcDbEntity
  8
$DDT_AUDIT_GENERATED_(8C)
  6
Continuous
 62
     7
100
AcDbLine
 10
35.65
 20
422.8680375781
 30
0.0
 11
36.1637822967
 21
422.8680375781
 31
0.0
  0
LINE
  5
301
330
75
100
AcDbEntity
  8
$DDT_AUDIT_GENERATED_(8C)
  6
Continuous
 62
     7
100
AcDbLine
 10
31.85
 20
422.4576134061
 30
0.0
 11
31.85
 21
422.3430932467
 31
0.0
  0
ELLIPSE
  5
302
330
75
100
AcDbEntity
  8
$DDT_AUDIT_GENERATED_(8C)
  6
Continuous
 62
     7
100
AcDbEllipse
 10
31.3500000001
 20
425.1595725383
 30
0.0
 11
8.249999999809418
 21
2.164934898019055E-11
 31
0.0
210
0.0
220
0.0
230
1.0
 40
0.3420201433
 41
-1.485845702914949
 42
-1.363248876314775
  0
LINE
  5
303
330
75
100
AcDbEntity
  8
$DDT_AUDIT_GENERATED_(8C)
  6
Continuous
 62
     7
100
AcDbLine
 10
32.05
 20
422.3480816645
 30
0.0
 11
32.05
 21
422.4576134061
 31
0.0
  0
LINE
  5
304
330
75
100
AcDbEntity
  8
$DDT_AUDIT_GENERATED_(8C)
  6
Continuous
 62
     7
100
AcDbLine
 10
32.05
 20
422.4576134061
 30
0.0
 11
33.05
 21
422.4576134061
 31
0.0
  0
LINE
  5
305
330
75
100
AcDbEntity
  8
$DDT_AUDIT_GENERATED_(8C)
  6
Continuous
 62
     7
100
AcDbLine
 10
33.05
 20
422.4576134061
 30
0.0
 11
33.05
 21
422.398461482
 31
0.0
  0
ELLIPSE
  5
306
330
75
100
AcDbEntity
  8
$DDT_AUDIT_GENERATED_(8C)
  6
Continuous
 62
     7
100
AcDbEllipse
 10
31.3500000008
 20
425.1595725374
 30
0.0
 11
8.249999998467901
 21
2.847860836041605E-10
 31
0.0
210
0.0
220
0.0
230
1.0
 40
0.3420201433
 41
-1.338407254376006
 42
-1.278468933693458
  0
LINE
  5
307
330
75
100
AcDbEntity
  8
$DDT_AUDIT_GENERATED_(8C)
  6
Continuous
 62
     7
100
AcDbLine
 10
33.25
 20
422.4137556718
 30
0.0
 11
33.25
 21
422.4576134061
 31
0.0
  0
LINE
  5
308
330
75
100
AcDbEntity
  8
$DDT_AUDIT_GENERATED_(8C)
  6
Continuous
 62
     7
100
AcDbLine
 10
33.25
 20
422.4576134061
 30
0.0
 11
33.7274986856
 21
422.4576134061
 31
0.0
  0
LINE
  5
309
330
75
100
AcDbEntity
  8
$DDT_AUDIT_GENERATED_(8C)
  6
Continuous
 62
     7
100
AcDbLine
 10
40.35
 20
424.689726228
 30
0.0
 11
40.35
 21
426.4734238852
 31
0.0
  0
LINE
  5
30A
330
75
100
AcDbEntity
  8
$DDT_AUDIT_GENERATED_(8C)
  6
Continuous
 62
     7
100
AcDbLine
 10
22.35
 20
426.4734238852
 30
0.0
 11
22.35
 21
424.689726228
 31
0.0
  0
SPLINE
  5
30C
330
75
100
AcDbEntity
  8
$DDT_AUDIT_GENERATED_(30B)
  6
Continuous
 62
     7
100
AcDbSpline
210
0.0
220
0.0
230
1.0
 70
     8
 71
     3
 72
    21
 73
    17
 74
     0
 42
0.0000000002186582
 43
0.0000000001
 40
0.0000908839494811
 40
0.0000908839494811
 40
0.0000908839494811
 40
0.0000908839494811
 40
0.0204778945346645
 40
0.0419730410196222
 40
0.0644858997124798
 40
0.0880174933867845
 40
0.1125686568167712
 40
0.1381397503997461
 40
0.1647319172115843
 40
0.1923452693771729
 40
0.2209805854410339
 40
0.2506380106603163
 40
0.3535790721027445
 40
0.4368345100952989
 40
0.5003184012183539
 40
0.5010556256563286
 40
0.5010556256563286
 40
0.5010556256563286
 40
0.5010556256563286
 10
31.34989983027907
 20
511.4156112149369
 30
0.0
 10
30.85600037304311
 20
511.4152969837282
 30
0.0
 10
29.85475983572632
 20
511.4147107747391
 30
0.0
 10
28.32187537154163
 20
511.4110739298841
 30
0.0
 10
26.72881225748522
 20
511.405617991517
 30
0.0
 10
25.08832879158235
 20
511.3982713404903
 30
0.0
 10
23.41299878564012
 20
511.3892682397281
 30
0.0
 10
21.71802536722409
 20
511.3787719093876
 30
0.0
 10
20.02098846573176
 20
511.366993984331
 30
0.0
 10
18.34181152216104
 20
511.354079036646
 30
0.0
 10
16.70317996273271
 20
511.3404364230681
 30
0.0
 10
13.85349139313392
 20
511.3133372198118
 30
0.0
 10
10.77863631937508
 20
511.2897893188706
 30
0.0
 10
8.817405653109976
 20
511.2939113275806
 30
0.0
 10
8.455635713047856
 20
511.3150866755658
 30
0.0
 10
8.454340239947976
 20
511.3303735678065
 30
0.0
 10
8.454345953909147
 20
511.3305498492936
 30
0.0
  0
CIRCLE
  5
30D
330
75
100
AcDbEntity
  8
$DDT_AUDIT_GENERATED_(30B)
  6
Continuous
 62
     7
100
AcDbCircle
 10
31.3607519663
 20
503.8606423098
 30
0.0
 40
4.772361681501796
  0
ARC
  5
30E
330
75
100
AcDbEntity
  8
$DDT_AUDIT_GENERATED_(30B)
  6
Continuous
 62
     7
100
AcDbCircle
 10
31.3596468462
 20
503.9305976611
 30
0.0
 40
4.771789231044675
100
AcDbArc
 50
90.0144284476
 51
179.9873035022
  0
ARC
  5
30F
330
75
100
AcDbEntity
  8
$DDT_AUDIT_GENERATED_(30B)
  6
Continuous
 62
     7
100
AcDbCircle
 10
31.3617356981
 20
503.9305976611
 30
0.0
 40
4.771790214265136
100
AcDbArc
 50
0.0112233111
 51
90.0395096837
  0
ARC
  5
310
330
75
100
AcDbEntity
  8
$DDT_AUDIT_GENERATED_(30B)
  6
Continuous
 62
     7
100
AcDbCircle
 10
21.6292873681
 20
1272.0769392238
 30
0.0
 40
758.9896304338812
100
AcDbArc
 50
269.1205879219
 51
270.7338240235
  0
SPLINE
  5
311
330
75
100
AcDbEntity
  8
$DDT_AUDIT_GENERATED_(30B)
  6
Continuous
 62
     7
100
AcDbSpline
210
0.0
220
0.0
230
1.0
 70
     8
 71
     3
 72
    28
 73
    24
 74
     0
 42
0.0000000002347831
 43
0.0000000001
 40
0.0
 40
0.0
 40
0.0
 40
0.0
 40
0.0221293260878197
 40
0.0429439954041543
 40
0.0624440639422266
 40
0.080629583771959
 40
0.0975006030382827
 40
0.1130571659595609
 40
0.1272993128261374
 40
0.140227079999014
 40
0.1518404999086571
 40
0.1621396010539454
 40
0.1711244080012808
 40
0.1787949413839069
 40
0.1851512179015395
 40
0.1901932503206228
 40
0.1939210474762729
 40
0.1963346142810471
 40
0.1974339517886172
 40
0.3075696828151986
 40
0.4057183453955081
 40
0.4919734690780006
 40
0.4952681146089939
 40
0.4952681146089939
 40
0.4952681146089939
 40
0.4952681146089939
 10
31.35005571021335
 20
513.3184739978497
 30
0.0
 10
31.84126422993245
 20
513.3185146672955
 30
0.0
 10
32.79449958091618
 20
513.3185980535497
 30
0.0
 10
34.17376406428021
 20
513.3188630142221
 30
0.0
 10
35.45442831468842
 20
513.3192018675338
 30
0.0
 10
36.63426865176381
 20
513.3196043494195
 30
0.0
 10
37.71277005532347
 20
513.320049270284
 30
0.0
 10
38.69077775033205
 20
513.320519957533
 30
0.0
 10
39.57018617036368
 20
513.3210006125632
 30
0.0
 10
40.35365072273613
 20
513.3214772165173
 30
0.0
 10
41.04432877766146
 20
513.3219372954107
 30
0.0
 10
41.64564946965087
 20
513.3223699432592
 30
0.0
 10
42.1611127873492
 20
513.3227656976367
 30
0.0
 10
42.59411576818189
 20
513.3231166334882
 30
0.0
 10
42.94780827784473
 20
513.3234158220796
 30
0.0
 10
43.22496601266578
 20
513.3236585846332
 30
0.0
 10
43.42790841661928
 20
513.3238389940409
 30
0.0
 10
43.55838640823632
 20
513.3239580754204
 30
0.0
 10
45.59877722186081
 20
513.3256850340226
 30
0.0
 10
48.90727790687845
 20
513.3273288286562
 30
0.0
 10
51.73904870244902
 20
513.3261278385023
 30
0.0
 10
52.39585041135072
 20
513.3212756523453
 30
0.0
 10
52.44318538055862
 20
513.3172873540881
 30
0.0
 10
52.44456574445486
 20
513.3171384308911
 30
0.0
  0
ELLIPSE
  5
312
330
75
100
AcDbEntity
  8
$DDT_AUDIT_GENERATED_(30B)
  6
Continuous
 62
     7
100
AcDbEllipse
 10
31.350055342
 20
512.8873042393
 30
0.0
 11
0.0
 21
0.4311697585853134
 31
0.0
210
0.0
220
0.0
230
1.0
 40
1.0
 41
-0.0000008539992082
 42
0.0006243176014118
  0
CIRCLE
  5
313
330
75
100
AcDbEntity
  8
$DDT_AUDIT_GENERATED_(30B)
  6
Continuous
 62
     7
100
AcDbCircle
 10
31.3605334428
 20
503.7747175798
 30
0.0
 40
4.280325384980454
  0
SPLINE
  5
314
330
75
100
AcDbEntity
  8
$DDT_AUDIT_GENERATED_(30B)
  6
Continuous
 62
     7
100
AcDbSpline
210
0.0
220
0.0
230
1.0
 70
     8
 71
     3
 72
    14
 73
    10
 74
     0
 42
0.0000000001500726
 43
0.0000000001
 40
0.0
 40
0.0
 40
0.0
 40
0.0
 40
0.0625
 40
0.0625
 40
0.1250000000000001
 40
0.1250000000000001
 40
0.1875000000000001
 40
0.1875000000000001
 40
0.2146435153517579
 40
0.2146435153517579
 40
0.2146435153517579
 40
0.2146435153517579
 10
31.35820890057435
 20
479.3217468933605
 30
0.0
 10
29.84826566253835
 20
479.3217468933605
 30
0.0
 10
28.36359005727223
 20
479.347678011823
 30
0.0
 10
25.4427030750343
 20
479.4492770664601
 30
0.0
 10
23.99131511833117
 20
479.5261831185099
 30
0.0
 10
21.22410645057396
 20
479.7269234561748
 30
0.0
 10
19.91172379292766
 20
479.8497586191781
 30
0.0
 10
18.13060948936651
 20
480.0578713418596
 30
0.0
 10
17.60376915293057
 20
480.125373405492
 30
0.0
 10
17.0939896719696
 20
480.1966872881548
 30
0.0
  0
SPLINE
  5
315
330
75
100
AcDbEntity
  8
$DDT_AUDIT_GENERATED_(30B)
  6
Continuous
 62
     7
100
AcDbSpline
210
0.0
220
0.0
230
1.0
 70
     8
 71
     3
 72
    14
 73
    10
 74
     0
 42
0.0000000001507007
 43
0.0000000001
 40
0.7782845758702439
 40
0.7782845758702439
 40
0.7782845758702439
 40
0.7782845758702439
 40
0.8124999999999999
 40
0.8124999999999999
 40
0.8749999999999999
 40
0.8749999999999999
 40
0.9375
 40
0.9375
 40
1.0
 40
1.0
 40
1.0
 40
1.0
 10
46.02793134715401
 20
480.2545673930086
 30
0.0
 10
45.40092651404218
 20
480.16267996714
 30
0.0
 10
44.74805393854439
 20
480.0770549042252
 30
0.0
 10
42.83430906419891
 20
479.8528172917692
 30
0.0
 10
41.49979803825639
 20
479.7275559362824
 30
0.0
 10
38.73082847623054
 20
479.5265095307324
 30
0.0
 10
37.30648081056937
 20
479.4507720866899
 30
0.0
 10
34.37906685867754
 20
479.348242495826
 30
0.0
 10
32.86812640739312
 20
479.3217468933605
 30
0.0
 10
31.35820890057435
 20
479.3217468933605
 30
0.0
  0
SPLINE
  5
316
330
75
100
AcDbEntity
  8
$DDT_AUDIT_GENERATED_(30B)
  6
Continuous
 62
     7
100
AcDbSpline
210
0.0
220
0.0
230
1.0
 70
     8
 71
     3
 72
    10
 73
     6
 74
     0
 42
0.0000000007862925
 43
0.0000000001
 40
0.4882389722757325
 40
0.4882389722757325
 40
0.4882389722757325
 40
0.4882389722757325
 40
0.4999999999999999
 40
0.4999999999999999
 40
0.500123837087622
 40
0.500123837087622
 40
0.500123837087622
 40
0.500123837087622
 10
54.38910102452029
 20
483.3707006562425
 30
0.0
 10
54.39928970684765
 20
483.4200596666446
 30
0.0
 10
54.40430671322443
 20
483.4694904322765
 30
0.0
 10
54.40416153809579
 20
483.5195140540248
 30
0.0
 10
54.4041594343127
 20
483.5200353016328
 30
0.0
 10
54.4041567394931
 20
483.5205565640939
 30
0.0
  0
SPLINE
  5
317
330
75
100
AcDbEntity
  8
$DDT_AUDIT_GENERATED_(30B)
  6
Continuous
 62
     7
100
AcDbSpline
210
0.0
220
0.0
230
1.0
 70
     8
 71
     3
 72
    10
 73
     6
 74
     0
 42
0.0000000007840132
 43
0.0000000001
 40
0.499610701492312
 40
0.499610701492312
 40
0.499610701492312
 40
0.499610701492312
 40
0.4999999999999998
 40
0.4999999999999998
 40
0.5110151677080893
 40
0.5110151677080893
 40
0.5110151677080893
 40
0.5110151677080893
 10
8.312260896037222
 20
483.5205729885239
 30
0.0
 10
8.312252603089654
 20
483.5189346268087
 30
0.0
 10
8.312249964281479
 20
483.5172961890262
 30
0.0
 10
8.312338286582351
 20
483.469296067227
 30
0.0
 10
8.317100214711344
 20
483.4228175688351
 30
0.0
 10
8.326496251781709
 20
483.3762930401596
 30
0.0
  0
LINE
  5
318
330
75
100
AcDbEntity
  8
$DDT_AUDIT_GENERATED_(30B)
  6
Continuous
 62
     7
100
AcDbLine
 10
28.0806397869
 20
511.7418252966
 30
0.0
 11
28.0495755702
 21
511.7384619128
 31
0.0
  0
LINE
  5
319
330
75
100
AcDbEntity
  8
$DDT_AUDIT_GENERATED_(30B)
  6
Continuous
 62
     7
100
AcDbLine
 10
8.454340137
 20
511.3323986441
 30
0.0
 11
8.3122612287
 21
483.5206107941
 31
0.0
  0
LINE
  5
31A
330
75
100
AcDbEntity
  8
$DDT_AUDIT_GENERATED_(30B)
  6
Continuous
 62
     7
100
AcDbLine
 10
54.4041565677
 20
483.5206117259
 30
0.0
 11
54.2621808295
 21
511.3122034819
 31
0.0
  0
LINE
  5
31B
330
75
100
AcDbEntity
  8
$DDT_AUDIT_GENERATED_(30B)
  6
Continuous
 62
     7
100
AcDbLine
 10
26.5879133098
 20
503.9313138036
 30
0.0
 11
26.5879133098
 21
503.8606265157
 31
0.0
  0
LINE
  5
31C
330
75
100
AcDbEntity
  8
$DDT_AUDIT_GENERATED_(30B)
  6
Continuous
 62
     7
100
AcDbLine
 10
36.1334882247
 20
503.8606257605
 30
0.0
 11
36.1334882247
 21
503.9313154585
 31
0.0
  0
SPLINE
  5
31D
330
75
100
AcDbEntity
  8
$DDT_AUDIT_GENERATED_(30B)
  6
Continuous
 62
     7
100
AcDbSpline
210
0.0
220
0.0
230
1.0
 70
     8
 71
     3
 72
     8
 73
     4
 74
     0
 42
0.0000000047183842
 43
0.0000000001
 40
0.0
 40
0.0
 40
0.0
 40
0.0
 40
1.0
 40
1.0
 40
1.0
 40
1.0
 10
9.992612698243683
 20
513.1902963844474
 30
0.0
 10
9.598325835053108
 20
512.755667280471
 30
0.0
 10
9.123362922700315
 20
512.2327036178273
 30
0.0
 10
8.567723961185298
 20
511.6214053965161
 30
0.0
  0
SPLINE
  5
31E
330
75
100
AcDbEntity
  8
$DDT_AUDIT_GENERATED_(30B)
  6
Continuous
 62
     7
100
AcDbSpline
210
0.0
220
0.0
230
1.0
 70
     8
 71
     3
 72
     8
 73
     4
 74
     0
 42
0.0000000046729516
 43
0.0000000001
 40
0.0
 40
0.0
 40
0.0
 40
0.0
 40
1.0
 40
1.0
 40
1.0
 40
1.0
 10
54.14588113204363
 20
511.606189861849
 30
0.0
 10
53.64346856724838
 20
512.1588638552441
 30
0.0
 10
53.16388611580002
 20
512.6869104276071
 30
0.0
 10
52.70713377769854
 20
513.190329578938
 30
0.0
  0
ARC
  5
31F
330
75
100
AcDbEntity
  8
$DDT_AUDIT_GENERATED_(30B)
  6
Continuous
 62
     7
100
AcDbCircle
 10
31.3498916115
 20
328.7830495029
 30
0.0
 40
185.735849056606
100
AcDbArc
 50
83.4787734703
 51
96.5155952575
  0
ARC
  5
320
330
75
100
AcDbEntity
  8
$DDT_AUDIT_GENERATED_(30B)
  6
Continuous
 62
     7
100
AcDbCircle
 10
8.8921905452
 20
511.3273835355
 30
0.0
 40
0.4378592068487411
100
AcDbArc
 50
137.4659499305
 51
179.5800424381
  0
ARC
  5
321
330
75
100
AcDbEntity
  8
$DDT_AUDIT_GENERATED_(30B)
  6
Continuous
 62
     7
100
AcDbCircle
 10
53.8245939626
 20
511.3090423682
 30
0.0
 40
0.4375978183200846
100
AcDbArc
 50
0.4085040721
 51
42.1849409425
  0
ARC
  5
322
330
75
100
AcDbEntity
  8
$DDT_AUDIT_GENERATED_(30B)
  6
Continuous
 62
     7
100
AcDbCircle
 10
52.3947156759
 20
512.8801128327
 30
0.0
 40
0.4398264379162876
100
AcDbArc
 50
42.1301211069
 51
83.4339002389
  0
ARC
  5
323
330
75
100
AcDbEntity
  8
$DDT_AUDIT_GENERATED_(30B)
  6
Continuous
 62
     7
100
AcDbCircle
 10
10.3050795743
 20
512.8800671828
 30
0.0
 40
0.4398736655033466
100
AcDbArc
 50
96.4834545253
 51
137.5415178794
  0
SPLINE
  5
324
330
75
100
AcDbEntity
  8
$DDT_AUDIT_GENERATED_(30B)
  6
Continuous
 62
     7
100
AcDbSpline
210
0.0
220
0.0
230
1.0
 70
     8
 71
     3
 72
    30
 73
    26
 74
     0
 42
0.0000000010398613
 43
0.0000000001
 40
0.0032685760237734
 40
0.0032685760237734
 40
0.0032685760237734
 40
0.0032685760237734
 40
0.0276432095780913
 40
0.0693960248664327
 40
0.1123869545887115
 40
0.1569206485741854
 40
0.2026578234813892
 40
0.2489146384585938
 40
0.2953569218867113
 40
0.3422354418762116
 40
0.3891007085038947
 40
0.4359255646276844
 40
0.4827062254540996
 40
0.529439741167895
 40
0.5761187574565207
 40
0.6227311037442557
 40
0.6692609564801631
 40
0.7156903765720124
 40
0.7620008028831327
 40
0.8081743713891724
 40
0.8541950312394497
 40
0.9000494624937406
 40
0.9456587508588086
 40
0.9913549541112614
 40
1.0
 40
1.0
 40
1.0
 40
1.0
 10
8.345057049293471
 20
483.3245716460059
 30
0.0
 10
8.35205665783393
 20
483.2870180699467
 30
0.0
 10
8.37038072714878
 20
483.1975911974362
 30
0.0
 10
8.439347364262973
 20
483.0419657040098
 30
0.0
 10
8.547881614217454
 20
482.8701898343712
 30
0.0
 10
8.69423591944788
 20
482.6992059346294
 30
0.0
 10
8.877225602290595
 20
482.5308853331253
 30
0.0
 10
9.097538033126996
 20
482.3655389791575
 30
0.0
 10
9.353546747051363
 20
482.2035467241193
 30
0.0
 10
9.644870833756585
 20
482.0446061508561
 30
0.0
 10
9.971011379617478
 20
481.8887115204619
 30
0.0
 10
10.33051224755308
 20
481.7362073569998
 30
0.0
 10
10.7227256929641
 20
481.5870905888237
 30
0.0
 10
11.14699468924148
 20
481.4414123044115
 30
0.0
 10
11.60257975338219
 20
481.2992868620978
 30
0.0
 10
12.08864415475476
 20
481.1608734526958
 30
0.0
 10
12.60424859962605
 20
481.0263620683717
 30
0.0
 10
13.14837697612449
 20
480.8959558931681
 30
0.0
 10
13.71988702962262
 20
480.7698767644687
 30
0.0
 10
14.31775842761038
 20
480.6482989901891
 30
0.0
 10
14.94024544758225
 20
480.5315605610925
 30
0.0
 10
15.587776117924
 20
480.41940983313
 30
0.0
 10
16.25298310217725
 20
480.3136620097731
 30
0.0
 10
16.77043352826892
 20
480.2360674907172
 30
0.0
 10
17.03830905061893
 20
480.1998716574124
 30
0.0
 10
17.08804134912464
 20
480.19315986731
 30
0.0
  0
SPLINE
  5
325
330
75
100
AcDbEntity
  8
$DDT_AUDIT_GENERATED_(30B)
  6
Continuous
 62
     7
100
AcDbSpline
210
0.0
220
0.0
230
1.0
 70
     8
 71
     3
 72
    29
 73
    25
 74
     0
 42
0.0000000010939303
 43
0.0000000001
 40
0.0
 40
0.0
 40
0.0
 40
0.0
 40
0.0251068763952747
 40
0.0720751588790594
 40
0.1187729873718574
 40
0.1660031395163742
 40
0.2133671656934135
 40
0.260858106685496
 40
0.3084669448264762
 40
0.3561841994980482
 40
0.4040008255993364
 40
0.4519092627216389
 40
0.4999046386759006
 40
0.5479861005782545
 40
0.5961581474168888
 40
0.6444315600884654
 40
0.6928227844923764
 40
0.7413487238629601
 40
0.7899717585552734
 40
0.8383908096132723
 40
0.8866190052868732
 40
0.9341327617322162
 40
0.9801380059461693
 40
1.0
 40
1.0
 40
1.0
 40
1.0
 10
46.07831978815054
 20
480.2581172856407
 30
0.0
 10
46.21452889249866
 20
480.2778338573124
 30
0.0
 10
46.54619351683198
 20
480.3260083759457
 30
0.0
 10
47.12049181730666
 20
480.4183399185101
 30
0.0
 10
47.75910523593838
 20
480.528432694987
 30
0.0
 10
48.37890587806415
 20
480.644335401551
 30
0.0
 10
48.97421516523168
 20
480.7648888809472
 30
0.0
 10
49.54386648319128
 20
480.8899702043292
 30
0.0
 10
50.08632646481977
 20
481.0193044621233
 30
0.0
 10
50.60067707740674
 20
481.1527415986557
 30
0.0
 10
51.08590732421957
 20
481.2901030563374
 30
0.0
 10
51.54112052537604
 20
481.4312332634979
 30
0.0
 10
51.96549324413303
 20
481.5759998389133
 30
0.0
 10
52.35829820676508
 20
481.7243128705599
 30
0.0
 10
52.71890651842821
 20
481.8761480381314
 30
0.0
 10
53.04678119938165
 20
482.0315754831719
 30
0.0
 10
53.34147064094938
 20
482.1908150480871
 30
0.0
 10
53.60242788979557
 20
482.3541952939173
 30
0.0
 10
53.82882815321753
 20
482.5221261082808
 30
0.0
 10
54.01949600667883
 20
482.6950302825662
 30
0.0
 10
54.17438731905414
 20
482.8738247678018
 30
0.0
 10
54.28856641105778
 20
483.0563073455037
 30
0.0
 10
54.3575619828607
 20
483.2140279800682
 30
0.0
 10
54.37214074815479
 20
483.3009140855771
 30
0.0
 10
54.37711123337165
 20
483.3317345626148
 30
0.0
  0
SPLINE
  5
327
330
75
100
AcDbEntity
  8
$DDT_AUDIT_GENERATED_(326)
  6
Continuous
 62
     7
100
AcDbSpline
210
0.0
220
0.0
230
1.0
 70
     8
 71
     3
 72
    43
 73
    39
 74
     0
 42
0.0000000001624349
 43
0.0000000001
 40
0.2651575431697086
 40
0.2651575431697086
 40
0.2651575431697086
 40
0.2651575431697086
 40
0.2760454945499404
 40
0.2887739571307177
 40
0.3014949123839979
 40
0.3142095943963004
 40
0.3269190070561239
 40
0.3396239745702209
 40
0.3523251798653657
 40
0.3650231940365956
 40
0.3777184991334544
 40
0.39041150595493
 40
0.4031025680799241
 40
0.4157919930413403
 40
0.4284800513220771
 40
0.4411669836844038
 40
0.4538530072227994
 40
0.4665383204415053
 40
0.4792231075930958
 40
0.4919075424670816
 40
0.5045917917834929
 40
0.5172760183226631
 40
0.5299603384679159
 40
0.5426449067438837
 40
0.5553298901021542
 40
0.5680154625783116
 40
0.5807018086465264
 40
0.5933891269506651
 40
0.6060776345602755
 40
0.6187675719326489
 40
0.6314592088061965
 40
0.6441528513107992
 40
0.6568488506633174
 40
0.6695476139288394
 40
0.68224961748224
 40
0.694955424015891
 40
0.7076657042311638
 40
0.7192867854918282
 40
0.7192867854918282
 40
0.7192867854918282
 40
0.7192867854918282
 10
17.02305790146904
 20
480.2300596824938
 30
0.0
 10
17.19762332398646
 20
480.1999355983829
 30
0.0
 10
17.58296621023089
 20
480.1358042541086
 30
0.0
 10
18.19744529783773
 20
480.0412902510613
 30
0.0
 10
18.86611870766069
 20
479.9468983510363
 30
0.0
 10
19.55657960983984
 20
479.8575795868375
 30
0.0
 10
20.26765113090671
 20
479.7734707845378
 30
0.0
 10
20.99811319919231
 20
479.6947037944286
 30
0.0
 10
21.74670582390322
 20
479.6214043341899
 30
0.0
 10
22.5121322437546
 20
479.5536910674925
 30
0.0
 10
23.29306198044592
 20
479.491674860469
 30
0.0
 10
24.08813382418921
 20
479.4354581751139
 30
0.0
 10
24.89595877192045
 20
479.3851345702071
 30
0.0
 10
25.71512293358689
 20
479.3407882884985
 30
0.0
 10
26.54419041777993
 20
479.3024939146352
 30
0.0
 10
27.38170620476446
 20
479.2703160924759
 30
0.0
 10
28.22619901245355
 20
479.24430929341
 30
0.0
 10
29.07618415894613
 20
479.2245176295273
 30
0.0
 10
29.9301664237491
 20
479.2109747070982
 30
0.0
 10
30.78664290872809
 20
479.2037035170978
 30
0.0
 10
31.64410589882352
 20
479.202716360439
 30
0.0
 10
32.50104469935918
 20
479.2080148000655
 30
0.0
 10
33.35594931953077
 20
479.2195896214128
 30
0.0
 10
34.20731352642706
 20
479.2374208505385
 30
0.0
 10
35.05363869998989
 20
479.2614778473213
 30
0.0
 10
35.89343584226372
 20
479.2917193937807
 30
0.0
 10
36.72522822991916
 20
479.3280938116499
 30
0.0
 10
37.54755425099599
 20
479.3705391189542
 30
0.0
 10
38.35897023662464
 20
479.4189832260886
 30
0.0
 10
39.15805328934659
 20
479.4733441756462
 30
0.0
 10
39.94340411099836
 20
479.533530431808
 30
0.0
 10
40.7136498348797
 20
479.5994412272252
 30
0.0
 10
41.46744686921404
 20
479.6709669781719
 30
0.0
 10
42.20348376188763
 20
479.7479897827242
 30
0.0
 10
42.92048410032112
 20
479.8303840222358
 30
0.0
 10
43.61720946534962
 20
479.9180170942068
 30
0.0
 10
44.27308091507776
 20
480.0080886267698
 30
0.0
 10
44.68996907108966
 20
480.0702621335599
 30
0.0
 10
44.88574926868792
 20
480.10062144583
 30
0.0
  0
ELLIPSE
  5
329
330
75
100
AcDbEntity
  8
$DDT_AUDIT_GENERATED_(328)
  6
Continuous
 62
     7
100
AcDbEllipse
 10
31.35
 20
494.6168259111
 30
0.0
 11
0.0
 21
3.450000000000006
 31
0.0
210
0.0
220
0.0
230
1.0
 40
1.0
 41
-1.570796326794897
 42
0.0
  0
ELLIPSE
  5
32A
330
75
100
AcDbEntity
  8
$DDT_AUDIT_GENERATED_(328)
  6
Continuous
 62
     7
100
AcDbEllipse
 10
31.35
 20
494.6168259111
 30
0.0
 11
0.0
 21
3.820364327398579
 31
0.0
210
0.0
220
0.0
230
1.0
 40
1.0
 41
0.0
 42
1.570796326794897
  0
ELLIPSE
  5
32B
330
75
100
AcDbEntity
  8
$DDT_AUDIT_GENERATED_(328)
  6
Continuous
 62
     7
100
AcDbEllipse
 10
31.35
 20
494.325594864
 30
0.0
 11
-1.972277244011550E-14
 21
3.820364327398601
 31
0.0
210
0.0
220
0.0
230
1.0
 40
0.9030552336
 41
0.0
 42
6.283185307179586
  0
LINE
  5
32C
330
75
100
AcDbEntity
  8
$DDT_AUDIT_GENERATED_(328)
  6
Continuous
 62
     7
100
AcDbLine
 10
27.9
 20
494.6168259111
 30
0.0
 11
27.9
 21
494.325594864
 31
0.0
  0
LINE
  5
32D
330
75
100
AcDbEntity
  8
$DDT_AUDIT_GENERATED_(328)
  6
Continuous
 62
     7
100
AcDbLine
 10
34.8
 20
494.325594864
 30
0.0
 11
34.8
 21
494.6168259111
 31
0.0
  0
ENDBLK
  5
32F
330
75
100
AcDbEntity
  8
0
100
AcDbBlockEnd
  0
BLOCK
  5
381
330
330
100
AcDbEntity
  8
0
100
AcDbBlockBegin
  2
SE1
 70
     0
 10
0.0
 20
0.0
 30
0.0
  3
SE1
  1

  0
SPLINE
  5
332
330
330
100
AcDbEntity
  8
$DDT_AUDIT_GENERATED_(77)
  6
Continuous
 62
     7
100
AcDbSpline
210
0.0
220
0.0
230
1.0
 70
     8
 71
     3
 72
    30
 73
    26
 74
     0
 42
0.0000000001813181
 43
0.0000000001
 40
0.4996659954850401
 40
0.4996659954850401
 40
0.4996659954850401
 40
0.4996659954850401
 40
0.5000000000000014
 40
0.5000000000000014
 40
0.5312500000000016
 40
0.5312500000000016
 40
0.5625000000000016
 40
0.5625000000000016
 40
0.5937500000000017
 40
0.5937500000000017
 40
0.6250000000000018
 40
0.6250000000000018
 40
0.6875000000000019
 40
0.6875000000000019
 40
0.750000000000002
 40
0.750000000000002
 40
0.7812500000000018
 40
0.7812500000000018
 40
0.8125000000000014
 40
0.8125000000000014
 40
0.8750000000000009
 40
0.8750000000000009
 40
0.9375000000000004
 40
0.9375000000000004
 40
1.0
 40
1.0
 40
1.0
 40
1.0
 10
309.2713664136371
 20
460.5852136458013
 30
0.0
 10
309.2713676217716
 20
460.5852193820526
 30
0.0
 10
309.2713667409381
 20
460.5852147155702
 30
0.0
 10
309.2710856170556
 20
460.5837891241092
 30
0.0
 10
309.2530773250436
 20
460.4933521180899
 30
0.0
 10
309.1852580838569
 20
460.1415699923407
 30
0.0
 10
309.1349140465986
 20
459.8766101332801
 30
0.0
 10
309.008051998043
 20
459.1860485748108
 30
0.0
 10
308.9317171195137
 20
458.7631919451429
 30
0.0
 10
308.7509681760811
 20
457.7650595573404
 30
0.0
 10
308.6464731821813
 20
457.1873901603417
 30
0.0
 10
308.307154535001
 20
455.2998515079167
 30
0.0
 10
308.0365473768014
 20
453.7845652400546
 30
0.0
 10
307.4568776985991
 20
450.530284899876
 30
0.0
 10
307.1424547085742
 20
448.7590966335446
 30
0.0
 10
306.6752652529098
 20
446.1222081341877
 30
0.0
 10
306.5173240828573
 20
445.2298545257835
 30
0.0
 10
306.211954270964
 20
443.5030590322107
 30
0.0
 10
306.0634191488591
 20
442.6620324080868
 30
0.0
 10
305.6304397375826
 20
440.2070016218956
 30
0.0
 10
305.3672370499896
 20
438.71291108696
 30
0.0
 10
304.9214157464118
 20
436.1674748689823
 30
0.0
 10
304.744150872653
 20
435.1580959613058
 30
0.0
 10
304.508867417062
 20
433.7784225151555
 30
0.0
 10
304.4519811840813
 20
433.4153080910219
 30
0.0
 10
304.4519811448223
 20
433.4153078463266
 30
0.0
  0
LINE
  5
333
330
330
100
AcDbEntity
  8
$DDT_AUDIT_GENERATED_(77)
  6
Continuous
 62
     7
100
AcDbLine
 10
233.9965238936
 20
474.5193008146
 30
0.0
 11
189.6798403026
 21
482.3335278272
 31
0.0
  0
LINE
  5
334
330
330
100
AcDbEntity
  8
$DDT_AUDIT_GENERATED_(77)
  6
Continuous
 62
     7
100
AcDbLine
 10
213.6950411885
 20
359.383871038
 30
0.0
 11
168.0004985418
 21
359.383871038
 31
0.0
  0
LINE
  5
335
330
330
100
AcDbEntity
  8
$DDT_AUDIT_GENERATED_(77)
  6
Continuous
 62
     7
100
AcDbLine
 10
192.1965586351
 20
486.3217672992
 30
0.0
 11
232.9956404837
 21
479.1277883812
 31
0.0
  0
LINE
  5
336
330
330
100
AcDbEntity
  8
$DDT_AUDIT_GENERATED_(77)
  6
Continuous
 62
     7
100
AcDbLine
 10
189.6833668422
 20
482.3535278272
 30
0.0
 11
168.0004985418
 21
359.383871038
 31
0.0
  0
LINE
  5
337
330
330
100
AcDbEntity
  8
$DDT_AUDIT_GENERATED_(77)
  6
Continuous
 62
     7
100
AcDbLine
 10
232.4251579018
 20
465.6076414332
 30
0.0
 11
233.9965238936
 21
474.5193008146
 31
0.0
  0
LINE
  5
338
330
330
100
AcDbEntity
  8
$DDT_AUDIT_GENERATED_(77)
  6
Continuous
 62
     7
100
AcDbLine
 10
213.6950411885
 20
359.383871038
 30
0.0
 11
225.9258058335
 21
428.7479842089
 31
0.0
  0
LINE
  5
339
330
330
100
AcDbEntity
  8
$DDT_AUDIT_GENERATED_(77)
  6
Continuous
 62
     7
100
AcDbLine
 10
233.7451609158
 20
477.3834225491
 30
0.0
 11
233.1485413369
 21
479.0000713227
 31
0.0
  0
LINE
  5
33A
330
330
100
AcDbEntity
  8
$DDT_AUDIT_GENERATED_(77)
  6
Continuous
 62
     7
100
AcDbLine
 10
192.009197025
 20
486.2540476935
 30
0.0
 11
190.8894077841
 21
484.9316005334
 31
0.0
  0
ARC
  5
33B
330
330
100
AcDbEntity
  8
$DDT_AUDIT_GENERATED_(77)
  6
Continuous
 62
     7
100
AcDbCircle
 10
103.7356715186
 20
483.0350992454
 30
0.0
 40
206.7551078814209
100
AcDbArc
 50
346.1144105566
 51
353.7660441288
  0
LINE
  5
33C
330
330
100
AcDbEntity
  8
$DDT_AUDIT_GENERATED_(77)
  6
Continuous
 62
     7
100
AcDbLine
 10
301.9967936382
 20
432.6784484827
 30
0.0
 11
303.4872236762
 21
432.6784484827
 31
0.0
  0
LINE
  5
33D
330
330
100
AcDbEntity
  8
$DDT_AUDIT_GENERATED_(77)
  6
Continuous
 62
     7
100
AcDbLine
 10
230.6035151686
 20
432.6784484827
 30
0.0
 11
275.9525974853
 21
432.6784484827
 31
0.0
  0
LINE
  5
33E
330
330
100
AcDbEntity
  8
$DDT_AUDIT_GENERATED_(77)
  6
Continuous
 62
     7
100
AcDbLine
 10
308.2757226268
 20
461.6784484827
 30
0.0
 11
235.716874869
 21
461.6784484827
 31
0.0
  0
SPLINE
  5
33F
330
330
100
AcDbEntity
  8
$DDT_AUDIT_GENERATED_(77)
  6
Continuous
 62
     7
100
AcDbSpline
210
0.0
220
0.0
230
1.0
 70
     8
 71
     3
 72
    13
 73
     9
 74
     0
 42
0.0000000086703513
 43
0.0000000001
 40
0.0
 40
0.0
 40
0.0
 40
0.0
 40
0.0743076523317933
 40
0.3502024728318066
 40
0.5775042133824152
 40
0.7705342175973896
 40
0.9311303954804693
 40
1.0
 40
1.0
 40
1.0
 40
1.0
 10
303.4923844260736
 20
432.6921987386008
 30
0.0
 10
303.5231923900577
 20
432.6883363564862
 30
0.0
 10
303.6482346746828
 20
432.6733874606734
 30
0.0
 10
303.8716376595407
 20
432.7458425096285
 30
0.0
 10
304.1002280732162
 20
432.8773263862599
 30
0.0
 10
304.2577147557794
 20
433.0330812213513
 30
0.0
 10
304.3526367071466
 20
433.1690430086804
 30
0.0
 10
304.385413513679
 20
433.2439248838746
 30
0.0
 10
304.3967612437432
 20
433.270340187422
 30
0.0
  0
SPLINE
  5
340
330
330
100
AcDbEntity
  8
$DDT_AUDIT_GENERATED_(77)
  6
Continuous
 62
     7
100
AcDbSpline
210
0.0
220
0.0
230
1.0
 70
     8
 71
     3
 72
    13
 73
     9
 74
     0
 42
0.0000000065487407
 43
0.0000000001
 40
0.0
 40
0.0
 40
0.0
 40
0.0
 40
0.0758300866027233
 40
0.2947270579156563
 40
0.5060175008502603
 40
0.7282515968482564
 40
0.9646845929913843
 40
1.0
 40
1.0
 40
1.0
 40
1.0
 10
309.2683147256674
 20
460.7405942616621
 30
0.0
 10
309.2665203305091
 20
460.7821689082895
 30
0.0
 10
309.2591265435257
 20
460.9204660403246
 30
0.0
 10
309.1643916449619
 20
461.1694741788244
 30
0.0
 10
308.9611795012495
 20
461.4296037097607
 30
0.0
 10
308.6779504284539
 20
461.6086369170368
 30
0.0
 10
308.4230685068782
 20
461.6888057783565
 30
0.0
 10
308.2955291265862
 20
461.6714784997185
 30
0.0
 10
308.2763007123249
 20
461.6687929585239
 30
0.0
  0
ARC
  5
341
330
330
100
AcDbEntity
  8
$DDT_AUDIT_GENERATED_(77)
  6
Continuous
 62
     7
100
AcDbCircle
 10
195.0499344985
 20
481.4141511894
 30
0.0
 40
5.448224782816347
100
AcDbArc
 50
139.4596376746
 51
170.2849742891
  0
ARC
  5
342
330
330
100
AcDbEntity
  8
$DDT_AUDIT_GENERATED_(77)
  6
Continuous
 62
     7
100
AcDbCircle
 10
228.6363308787
 20
475.4920737118
 30
0.0
 40
5.447753221236106
100
AcDbArc
 50
349.713858823
 51
20.5393577367
  0
SPLINE
  5
343
330
330
100
AcDbEntity
  8
$DDT_AUDIT_GENERATED_(77)
  6
Continuous
 62
     7
100
AcDbSpline
210
0.0
220
0.0
230
1.0
 70
     8
 71
     3
 72
    15
 73
    11
 74
     0
 42
0.0000000016069778
 43
0.0000000001
 40
0.0
 40
0.0
 40
0.0
 40
0.0
 40
0.2022129825008951
 40
0.3628505767264755
 40
0.4727486007000528
 40
0.5371140728921673
 40
0.6051348428499942
 40
0.7062027719870326
 40
0.8400536984837809
 40
1.0
 40
1.0
 40
1.0
 40
1.0
 10
235.7167559425615
 20
461.6784282970555
 30
0.0
 10
235.2589175778271
 20
461.6798700069087
 30
0.0
 10
234.5618529588424
 20
461.7037643776551
 30
0.0
 10
233.612735471674
 20
462.0423057224767
 30
0.0
 10
233.0582692405983
 20
462.4642016544198
 30
0.0
 10
232.7449083121223
 20
462.8534730137262
 30
0.0
 10
232.5154344613705
 20
463.2789329397841
 30
0.0
 10
232.3336262512664
 20
463.8778960494839
 30
0.0
 10
232.2781433737876
 20
464.7100322208894
 30
0.0
 10
232.3638385254414
 20
465.263017743145
 30
0.0
 10
232.4267393358377
 20
465.6179753642731
 30
0.0
  0
ARC
  5
344
330
330
100
AcDbEntity
  8
$DDT_AUDIT_GENERATED_(77)
  6
Continuous
 62
     7
100
AcDbCircle
 10
230.2217357093
 20
428.3832026846
 30
0.0
 40
4.312220771571415
100
AcDbArc
 50
84.920924976
 51
175.2617163673
  0
ARC
  5
345
330
330
100
AcDbEntity
  8
$DDT_AUDIT_GENERATED_(77)
  6
Continuous
 62
     7
100
AcDbCircle
 10
192.1618289996
 20
486.1248057486
 30
0.0
 40
0.1999999999999803
100
AcDbArc
 50
80.0
 51
139.7435628364
  0
ARC
  5
346
330
330
100
AcDbEntity
  8
$DDT_AUDIT_GENERATED_(77)
  6
Continuous
 62
     7
100
AcDbCircle
 10
232.9609108482
 20
478.9308268306
 30
0.0
 40
0.1999999999999845
100
AcDbArc
 50
20.2564371636
 51
80.0
  0
ARC
  5
347
330
330
100
AcDbEntity
  8
$DDT_AUDIT_GENERATED_(77)
  6
Continuous
 62
     7
100
AcDbCircle
 10
302.0249470065
 20
433.1784485055
 30
0.0
 40
0.4999999951322133
100
AcDbArc
 50
237.5335211821
 51
266.8102596163
  0
SPLINE
  5
348
330
330
100
AcDbEntity
  8
$DDT_AUDIT_GENERATED_(77)
  6
Continuous
 62
     7
100
AcDbSpline
210
0.0
220
0.0
230
1.0
 70
     8
 71
     3
 72
    43
 73
    39
 74
     0
 42
0.0000000003325528
 43
0.0000000001
 40
0.009913030344585
 40
0.009913030344585
 40
0.009913030344585
 40
0.009913030344585
 40
0.0121575075245881
 40
0.0260294884280424
 40
0.052285968425135
 40
0.0803936155931161
 40
0.1092188775267987
 40
0.138792698476059
 40
0.1690957614949466
 40
0.2000214698021817
 40
0.231378853544061
 40
0.2629155299438546
 40
0.2942060231066645
 40
0.3227829027387966
 40
0.3492060208918886
 40
0.37395044069168
 40
0.3943925321279879
 40
0.4158327224374122
 40
0.4373438728298762
 40
0.459402399895866
 40
0.4818257693285679
 40
0.5045273392700717
 40
0.5279466001048276
 40
0.5588980346614381
 40
0.5915666005325374
 40
0.6265550140602126
 40
0.6640881689106015
 40
0.7040327342058724
 40
0.7455724407308434
 40
0.7798667142555981
 40
0.8120428561266199
 40
0.8421235590208336
 40
0.8704545814020497
 40
0.8965657870016986
 40
0.9243068969492514
 40
0.9510419771224748
 40
0.9766051221892651
 40
1.0
 40
1.0
 40
1.0
 40
1.0
 10
276.3472872350201
 20
432.8715123707051
 30
0.0
 10
276.3472664753529
 20
432.8714852182613
 30
0.0
 10
276.349353124583
 20
432.8741588054289
 30
0.0
 10
276.3676344006656
 20
432.8972959799306
 30
0.0
 10
276.4483666952655
 20
432.9978274198798
 30
0.0
 10
276.6275947847474
 20
433.2153256757684
 30
0.0
 10
276.898961101779
 20
433.5357852899212
 30
0.0
 10
277.2621099778394
 20
433.9522355900561
 30
0.0
 10
277.7183185261752
 20
434.4589637577458
 30
0.0
 10
278.2672607482587
 20
435.0477189775092
 30
0.0
 10
278.9054603701319
 20
435.7063963663542
 30
0.0
 10
279.627964194638
 20
436.4212851293146
 30
0.0
 10
280.3979686526263
 20
437.1487358885475
 30
0.0
 10
281.2020385784422
 20
437.8333063453632
 30
0.0
 10
282.0231279797112
 20
438.4384057741626
 30
0.0
 10
282.8306725792046
 20
438.9377133296883
 30
0.0
 10
283.6413134104217
 20
439.3408676986064
 30
0.0
 10
284.4779632747339
 20
439.62276438836
 30
0.0
 10
285.3758340843663
 20
439.8101649299513
 30
0.0
 10
286.3098624614796
 20
439.8903668947394
 30
0.0
 10
287.2652971030569
 20
439.8605117484259
 30
0.0
 10
288.2209155820743
 20
439.6979589116674
 30
0.0
 10
289.2705645350384
 20
439.4367170436289
 30
0.0
 10
290.4231221196272
 20
439.0641854728768
 30
0.0
 10
291.6778946320982
 20
438.5587705932081
 30
0.0
 10
292.9585444616253
 20
437.9530541124163
 30
0.0
 10
294.2647670345468
 20
437.2585627994181
 30
0.0
 10
295.5808077825894
 20
436.5026286367793
 30
0.0
 10
296.805439086577
 20
435.7811209343572
 30
0.0
 10
297.8897200046559
 20
435.1443303379844
 30
0.0
 10
298.7925298164008
 20
434.5989490492345
 30
0.0
 10
299.5696793110478
 20
434.1233902028777
 30
0.0
 10
300.2201701552869
 20
433.7206376144176
 30
0.0
 10
300.7679966102914
 20
433.3791037860359
 30
0.0
 10
301.2063114793462
 20
433.1042350307561
 30
0.0
 10
301.5266230115438
 20
432.9023324650064
 30
0.0
 10
301.721349590392
 20
432.7789797145515
 30
0.0
 10
301.7456105592993
 20
432.7635686845061
 30
0.0
 10
301.756543981022
 20
432.7565957069633
 30
0.0
  0
SPLINE
  5
349
330
330
100
AcDbEntity
  8
$DDT_AUDIT_GENERATED_(77)
  6
Continuous
 62
     7
100
AcDbSpline
210
0.0
220
0.0
230
1.0
 70
     8
 71
     3
 72
    21
 73
    17
 74
     0
 42
0.0000000010350299
 43
0.0000000001
 40
0.0
 40
0.0
 40
0.0
 40
0.0
 40
0.0019862064822056
 40
0.0040083821758855
 40
0.0055667022051789
 40
0.0066202531015382
 40
0.0069879562598634
 40
0.0072040918785479
 40
0.0073981358926457
 40
0.0077016729959708
 40
0.008329918273047
 40
0.0103307577231229
 40
0.0196942229263498
 40
0.0465603389830199
 40
0.0747341233155693
 40
0.0813076355027105
 40
0.0813076355027105
 40
0.0813076355027105
 40
0.0813076355027105
 10
276.0846107465277
 20
432.6979719736246
 30
0.0
 10
276.1143503775342
 20
432.7066957832928
 30
0.0
 10
276.1650471327183
 20
432.7222062240449
 30
0.0
 10
276.23493846205
 20
432.7635956669548
 30
0.0
 10
276.286028885732
 20
432.8044359670083
 30
0.0
 10
276.3160409378901
 20
432.8346096312468
 30
0.0
 10
276.3307666899211
 20
432.851312032892
 30
0.0
 10
276.335788815566
 20
432.8572518084653
 30
0.0
 10
276.3385961168296
 20
432.8606350599071
 30
0.0
 10
276.3410296204496
 20
432.8636134273553
 30
0.0
 10
276.3434833511483
 20
432.8666630247544
 30
0.0
 10
276.3457510224184
 20
432.8695181290408
 30
0.0
 10
276.3561189847277
 20
432.882567594285
 30
0.0
 10
276.4168033938438
 20
432.9584505783906
 30
0.0
 10
276.5359447286039
 20
433.1037292136629
 30
0.0
 10
276.6241848470464
 20
433.2093654553013
 30
0.0
 10
276.6416228667202
 20
433.2301765694934
 30
0.0
  0
LINE
  5
34A
330
330
100
AcDbEntity
  8
$DDT_AUDIT_GENERATED_(85)
  6
Continuous
 62
     7
100
AcDbLine
 10
301.9301559878
 20
428.5415123989
 30
0.0
 11
282.0556570581
 21
421.3077863675
 31
0.0
  0
LINE
  5
34B
330
330
100
AcDbEntity
  8
$DDT_AUDIT_GENERATED_(85)
  6
Continuous
 62
     7
100
AcDbLine
 10
302.5278284652
 20
429.823225163
 30
0.0
 11
301.3716241612
 21
432.9998703804
 31
0.0
  0
LINE
  5
34C
330
330
100
AcDbEntity
  8
$DDT_AUDIT_GENERATED_(85)
  6
Continuous
 62
     7
100
AcDbLine
 10
276.6487720954
 20
433.2392763121
 30
0.0
 11
280.773944294
 21
421.905458845
 31
0.0
  0
ARC
  5
34D
330
330
100
AcDbEntity
  8
$DDT_AUDIT_GENERATED_(85)
  6
Continuous
 62
     7
100
AcDbCircle
 10
301.5881358444
 20
429.4812050196
 30
0.0
 40
0.9999999999999931
100
AcDbArc
 50
290.0
 51
20.0
  0
ARC
  5
34E
330
330
100
AcDbEntity
  8
$DDT_AUDIT_GENERATED_(85)
  6
Continuous
 62
     7
100
AcDbCircle
 10
281.7136369148
 20
422.2474789883
 30
0.0
 40
1.000000000000006
100
AcDbArc
 50
200.0
 51
290.0
  0
LINE
  5
34F
330
330
100
AcDbEntity
  8
$DDT_AUDIT_GENERATED_(8C)
  6
Continuous
 62
     7
100
AcDbLine
 10
300.5356451458
 20
427.7679075179
 30
0.0
 11
283.6211779717
 21
421.6115449381
 31
0.0
  0
LINE
  5
350
330
330
100
AcDbEntity
  8
$DDT_AUDIT_GENERATED_(8C)
  6
Continuous
 62
     7
100
AcDbLine
 10
300.5356451458
 20
427.7679075179
 30
0.0
 11
300.45014011
 21
428.0028306731
 31
0.0
  0
LINE
  5
351
330
330
100
AcDbEntity
  8
$DDT_AUDIT_GENERATED_(8C)
  6
Continuous
 62
     7
100
AcDbLine
 10
283.5356729359
 20
421.8464680933
 30
0.0
 11
283.6211779717
 21
421.6115449381
 31
0.0
  0
LINE
  5
352
330
330
100
AcDbEntity
  8
$DDT_AUDIT_GENERATED_(30B)
  6
Continuous
 62
     7
100
AcDbLine
 10
240.2605544326
 20
509.2811950742
 30
0.0
 11
240.6012345167
 21
511.4156154192
 31
0.0
  0
ARC
  5
353
330
330
100
AcDbEntity
  8
$DDT_AUDIT_GENERATED_(30B)
  6
Continuous
 62
     7
100
AcDbCircle
 10
226.3141509534
 20
1326.1428553962
 30
0.0
 40
814.8524997306764
100
AcDbArc
 50
267.7872045901
 51
271.0046289255
  0
LINE
  5
354
330
330
100
AcDbEntity
  8
$DDT_AUDIT_GENERATED_(30B)
  6
Continuous
 62
     7
100
AcDbLine
 10
194.8411548647
 20
511.8983915928
 30
0.0
 11
190.0790441511
 21
487.5527564918
 31
0.0
  0
LINE
  5
355
330
330
100
AcDbEntity
  8
$DDT_AUDIT_GENERATED_(30B)
  6
Continuous
 62
     7
100
AcDbLine
 10
238.5776665728
 20
498.7376177353
 30
0.0
 11
238.4901525536
 21
498.1893275898
 31
0.0
  0
SPLINE
  5
356
330
330
100
AcDbEntity
  8
$DDT_AUDIT_GENERATED_(30B)
  6
Continuous
 62
     7
100
AcDbSpline
210
0.0
220
0.0
230
1.0
 70
     8
 71
     3
 72
    16
 73
    12
 74
     0
 42
0.000000000517497
 43
0.0000000001
 40
0.278205737376702
 40
0.278205737376702
 40
0.278205737376702
 40
0.278205737376702
 40
0.3066278571019496
 40
0.360004395851454
 40
0.4176802588638903
 40
0.4638871049483187
 40
0.5285740357368377
 40
0.6088274310501021
 40
0.6676346891202738
 40
0.7384443957545586
 40
0.7781341331309843
 40
0.7781341331309843
 40
0.7781341331309843
 40
0.7781341331309843
 10
297.9243758708568
 20
499.0891822830382
 30
0.0
 10
297.9242062387864
 20
499.0891511240399
 30
0.0
 10
297.9353889562203
 20
499.1622638556753
 30
0.0
 10
298.0137743543795
 20
499.6452442235155
 30
0.0
 10
298.1729530437016
 20
500.6732293569667
 30
0.0
 10
298.4047211173872
 20
502.115009374201
 30
0.0
 10
298.7003823175918
 20
504.0132455812367
 30
0.0
 10
299.0129555585863
 20
506.0504995314719
 30
0.0
 10
299.2797169285751
 20
507.6907558636017
 30
0.0
 10
299.4012017352766
 20
508.4932379540574
 30
0.0
 10
299.4239547974616
 20
508.6319317000234
 30
0.0
 10
299.4242924614425
 20
508.632025846486
 30
0.0
  0
ARC
  5
357
330
330
100
AcDbEntity
  8
$DDT_AUDIT_GENERATED_(30B)
  6
Continuous
 62
     7
100
AcDbCircle
 10
259.3180404622
 20
500.5111637124
 30
0.0
 40
20.29114413781743
100
AcDbArc
 50
156.1912744352
 51
183.8214562315
  0
LINE
  5
358
330
330
100
AcDbEntity
  8
$DDT_AUDIT_GENERATED_(30B)
  6
Continuous
 62
     7
100
AcDbLine
 10
196.0388904245
 20
513.1232502383
 30
0.0
 11
194.9717720041
 21
512.1326239005
 31
0.0
  0
ARC
  5
359
330
330
100
AcDbEntity
  8
$DDT_AUDIT_GENERATED_(30B)
  6
Continuous
 62
     7
100
AcDbCircle
 10
224.686966132
 20
1329.0233191958
 30
0.0
 40
817.4309761822262
100
AcDbArc
 50
267.9167287992
 51
267.917042828
  0
LINE
  5
35A
330
330
100
AcDbEntity
  8
$DDT_AUDIT_GENERATED_(30B)
  6
Continuous
 62
     7
100
AcDbLine
 10
240.5184570811
 20
511.7462474646
 30
0.0
 11
239.4541235734
 21
513.1495586667
 31
0.0
  0
ARC
  5
35B
330
330
100
AcDbEntity
  8
$DDT_AUDIT_GENERATED_(30B)
  6
Continuous
 62
     7
100
AcDbCircle
 10
221.288179669
 20
-5331.4751492124
 30
0.0
 40
5844.652939009138
100
AcDbArc
 50
89.821916955
 51
90.2475223464
  0
ARC
  5
35C
330
330
100
AcDbEntity
  8
$DDT_AUDIT_GENERATED_(30B)
  6
Continuous
 62
     7
100
AcDbCircle
 10
221.2881613841
 20
-5331.4449747343
 30
0.0
 40
5844.62276473364
100
AcDbArc
 50
90.2475096872
 51
90.247523445
  0
ARC
  5
35D
330
330
100
AcDbEntity
  8
$DDT_AUDIT_GENERATED_(30B)
  6
Continuous
 62
     7
100
AcDbCircle
 10
221.2881613841
 20
-5331.4449747343
 30
0.0
 40
5844.62276473364
100
AcDbArc
 50
89.8219158563
 51
89.8219273627
  0
ARC
  5
35E
330
330
100
AcDbEntity
  8
$DDT_AUDIT_GENERATED_(30B)
  6
Continuous
 62
     7
100
AcDbCircle
 10
229.1652440991
 20
-5443.3844006556
 30
0.0
 40
5956.711255756897
100
AcDbArc
 50
89.903886364
 51
89.9039459283
  0
ARC
  5
35F
330
330
100
AcDbEntity
  8
$DDT_AUDIT_GENERATED_(30B)
  6
Continuous
 62
     7
100
AcDbCircle
 10
228.7391244963
 20
-5221.603653011
 30
0.0
 40
5734.93159051471
100
AcDbArc
 50
90.3241395822
 51
90.3242585662
  0
ARC
  5
360
330
330
100
AcDbEntity
  8
$DDT_AUDIT_GENERATED_(30B)
  6
Continuous
 62
     7
100
AcDbCircle
 10
240.1725866393
 20
511.483976774
 30
0.0
 40
0.4340648311846622
100
AcDbArc
 50
350.9386984735
 51
37.1727408758
  0
ARC
  5
361
330
330
100
AcDbEntity
  8
$DDT_AUDIT_GENERATED_(30B)
  6
Continuous
 62
     7
100
AcDbCircle
 10
240.1726976882
 20
511.4840180885
 30
0.0
 40
0.4339619658765009
100
AcDbArc
 50
350.9313663697
 51
14.2216536324
  0
ELLIPSE
  5
362
330
330
100
AcDbEntity
  8
$DDT_AUDIT_GENERATED_(30B)
  6
Continuous
 62
     7
100
AcDbEllipse
 10
239.108470214
 20
512.8873042393
 30
0.0
 11
-0.1967243220227857
 21
0.3868516981199999
 31
0.0
210
0.0
220
0.0
230
1.0
 40
0.9997229365
 41
4.890954216718054
 42
5.699112868927031
  0
ELLIPSE
  5
363
330
330
100
AcDbEntity
  8
$DDT_AUDIT_GENERATED_(30B)
  6
Continuous
 62
     7
100
AcDbEllipse
 10
196.3341616033
 20
512.8051030343
 30
0.0
 11
-0.3538673821295189
 21
0.2513646442794948
 31
0.0
210
0.0
220
0.0
230
0.9999999999999998
 40
0.9997698733
 41
5.447729881582573
 42
6.078094901331482
  0
ARC
  5
364
330
330
100
AcDbEntity
  8
$DDT_AUDIT_GENERATED_(30B)
  6
Continuous
 62
     7
100
AcDbCircle
 10
239.071416676
 20
498.6588089944
 30
0.0
 40
0.4999999413630249
100
AcDbArc
 50
89.9317738846
 51
170.9313663697
  0
ARC
  5
365
330
330
100
AcDbEntity
  8
$DDT_AUDIT_GENERATED_(30B)
  6
Continuous
 62
     7
100
AcDbCircle
 10
-6886.9200783081
 20
1765.0935419398
 30
0.0
 40
7295.943477251397
100
AcDbArc
 50
350.0105963898
 51
350.0788363713
  0
LINE
  5
366
330
330
100
AcDbEntity
  8
$DDT_AUDIT_GENERATED_(30B)
  6
Continuous
 62
     7
100
AcDbLine
 10
235.2725840099
 20
479.3217468934
 30
0.0
 11
190.2403603136
 21
487.3174431682
 31
0.0
  0
LINE
  5
367
330
330
100
AcDbEntity
  8
$DDT_AUDIT_GENERATED_(30B)
  6
Continuous
 62
     7
100
AcDbLine
 10
235.5050481982
 20
479.4871434531
 30
0.0
 11
237.0127669809
 21
488.9332568691
 31
0.0
  0
ARC
  5
368
330
330
100
AcDbEntity
  8
$DDT_AUDIT_GENERATED_(30B)
  6
Continuous
 62
     7
100
AcDbCircle
 10
190.2753244535
 20
487.5143632254
 30
0.0
 40
0.2000000000000192
100
AcDbArc
 50
168.9324406248
 51
259.9317759114
  0
ARC
  5
369
330
330
100
AcDbEntity
  8
$DDT_AUDIT_GENERATED_(30B)
  6
Continuous
 62
     7
100
AcDbCircle
 10
235.3075481498
 20
479.5186669506
 30
0.0
 40
0.1999999999999008
100
AcDbArc
 50
259.9317759114
 51
350.9313663697
  0
LINE
  5
36A
330
330
100
AcDbEntity
  8
$DDT_AUDIT_GENERATED_(30B)
  6
Continuous
 62
     7
100
AcDbLine
 10
240.2792490131
 20
511.7418252966
 30
0.0
 11
240.277182416
 21
511.7384619128
 31
0.0
  0
LINE
  5
36B
330
330
100
AcDbEntity
  8
$DDT_AUDIT_GENERATED_(30B)
  6
Continuous
 62
     7
100
AcDbLine
 10
237.3471113151
 20
491.0279807244
 30
0.0
 11
237.0127669809
 21
488.9332568691
 31
0.0
  0
ARC
  5
36C
330
330
100
AcDbEntity
  8
$DDT_AUDIT_GENERATED_(30B)
  6
Continuous
 62
     7
100
AcDbCircle
 10
264.2366690793
 20
490.2983504944
 30
0.0
 40
26.89945756478095
100
AcDbArc
 50
170.0016854699
 51
178.445719673
  0
LINE
  5
36D
330
330
100
AcDbEntity
  8
$DDT_AUDIT_GENERATED_(30B)
  6
Continuous
 62
     7
100
AcDbLine
 10
239.0720307935
 20
499.1588080262
 30
0.0
 11
297.9253769242
 21
499.0887292555
 31
0.0
  0
LINE
  5
36E
330
330
100
AcDbEntity
  8
$DDT_AUDIT_GENERATED_(30B)
  6
Continuous
 62
     7
100
AcDbLine
 10
299.4235574076
 20
508.6325270009
 30
0.0
 11
240.753620851
 21
508.7023873794
 31
0.0
  0
ARC
  5
36F
330
330
100
AcDbEntity
  8
$DDT_AUDIT_GENERATED_(30B)
  6
Continuous
 62
     7
100
AcDbCircle
 10
218.0748598923
 20
328.7830495029
 30
0.0
 40
185.735849056606
100
AcDbArc
 50
83.4824459277
 51
96.7379100449
  0
ARC
  5
370
330
330
100
AcDbEntity
  8
$DDT_AUDIT_GENERATED_(30B)
  6
Continuous
 62
     7
100
AcDbCircle
 10
195.2699217835
 20
511.811177195
 30
0.0
 40
0.4351536165875424
100
AcDbArc
 50
132.864134938
 51
169.1570012494
  0
ARC
  5
371
330
330
100
AcDbEntity
  8
$DDT_AUDIT_GENERATED_(30B)
  6
Continuous
 62
     7
100
AcDbCircle
 10
239.1011751691
 20
512.8842511437
 30
0.0
 40
0.4375874725039663
100
AcDbArc
 50
79.0264660181
 51
83.4403253363
  0
LINE
  5
372
330
330
100
AcDbEntity
  8
$DDT_AUDIT_GENERATED_(30B)
  6
Continuous
 62
     7
100
AcDbLine
 10
239.242590139
 20
513.29999318
 30
0.0
 11
239.1507077782
 21
513.3185169985
 31
0.0
  0
ARC
  5
373
330
330
100
AcDbEntity
  8
$DDT_AUDIT_GENERATED_(30B)
  6
Continuous
 62
     7
100
AcDbCircle
 10
240.9020913643
 20
509.226812494
 30
0.0
 40
0.6489074190653391
100
AcDbArc
 50
183.9201742405
 51
195.3287186791
  0
ARC
  5
374
330
330
100
AcDbEntity
  8
$DDT_AUDIT_GENERATED_(30B)
  6
Continuous
 62
     7
100
AcDbCircle
 10
239.2764352219
 20
498.5593381386
 30
0.0
 40
0.7266240217773763
100
AcDbArc
 50
139.503905364
 51
159.0970309534
  0
SPLINE
  5
375
330
330
100
AcDbEntity
  8
$DDT_AUDIT_GENERATED_(30B)
  6
Continuous
 62
     7
100
AcDbSpline
210
0.0
220
0.0
230
1.0
 70
     8
 71
     3
 72
     8
 73
     4
 74
     0
 42
0.0000000025591385
 43
0.0000000001
 40
0.0
 40
0.0
 40
0.0
 40
0.0
 40
1.0
 40
1.0
 40
1.0
 40
1.0
 10
298.4127460855379
 20
499.4986992570404
 30
0.0
 10
298.6484390444451
 20
500.677476925678
 30
0.0
 10
298.8887301744572
 20
501.9575894381746
 30
0.0
 10
299.1336194755744
 20
503.3390367945302
 30
0.0
  0
SPLINE
  5
376
330
330
100
AcDbEntity
  8
$DDT_AUDIT_GENERATED_(30B)
  6
Continuous
 62
     7
100
AcDbSpline
210
0.0
220
0.0
230
1.0
 70
     8
 71
     3
 72
     8
 73
     4
 74
     0
 42
0.0000000020789408
 43
0.0000000001
 40
0.0
 40
0.0
 40
0.0
 40
0.0
 40
1.0
 40
1.0
 40
1.0
 40
1.0
 10
299.1336194755743
 20
503.3390367945302
 30
0.0
 10
299.4139290943814
 20
504.9177631394591
 30
0.0
 10
299.6769467348768
 20
506.4993592155957
 30
0.0
 10
299.9226723970603
 20
508.08382502294
 30
0.0
  0
ARC
  5
377
330
330
100
AcDbEntity
  8
$DDT_AUDIT_GENERATED_(30B)
  6
Continuous
 62
     7
100
AcDbCircle
 10
299.4238277487
 20
508.1316249901
 30
0.0
 40
0.5002945408357152
100
AcDbArc
 50
350.5529000775
 51
89.8786649857
  0
ARC
  5
378
330
330
100
AcDbEntity
  8
$DDT_AUDIT_GENERATED_(30B)
  6
Continuous
 62
     7
100
AcDbCircle
 10
297.9249492574
 20
499.5890129945
 30
0.0
 40
0.4997755875625297
100
AcDbArc
 50
269.9199273038
 51
349.4816658472
  0
ARC
  5
379
330
330
100
AcDbEntity
  8
$DDT_AUDIT_GENERATED_(326)
  6
Continuous
 62
     7
100
AcDbCircle
 10
211.0273719088
 20
473.8280820241
 30
0.0
 40
22.59999999999998
100
AcDbArc
 50
144.578285614
 51
145.2561404357
  0
ARC
  5
37A
330
330
100
AcDbEntity
  8
$DDT_AUDIT_GENERATED_(326)
  6
Continuous
 62
     7
100
AcDbCircle
 10
211.0273719088
 20
473.8280820241
 30
0.0
 40
22.59999999999999
100
AcDbArc
 50
14.7438595643
 51
15.2778651585
  0
ARC
  5
37B
330
330
100
AcDbEntity
  8
$DDT_AUDIT_GENERATED_(326)
  6
Continuous
 62
     7
100
AcDbCircle
 10
192.7032830574
 20
486.5370460954
 30
0.0
 40
0.2999999999999912
100
AcDbArc
 50
145.2561404357
 51
260.0
  0
ARC
  5
37C
330
330
100
AcDbEntity
  8
$DDT_AUDIT_GENERATED_(326)
  6
Continuous
 62
     7
100
AcDbCircle
 10
232.5931046983
 20
479.5033942844
 30
0.0
 40
0.3000000000000098
100
AcDbArc
 50
260.0
 51
14.7438595643
  0
LINE
  5
37D
330
330
100
AcDbEntity
  8
$DDT_AUDIT_GENERATED_(328)
  6
Continuous
 62
     7
100
AcDbLine
 10
237.7426920863
 20
494.9079977908
 30
0.0
 11
237.3418544681
 21
490.7964615837
 31
0.0
  0
LINE
  5
37E
330
330
100
AcDbEntity
  8
$DDT_AUDIT_GENERATED_(328)
  6
Continuous
 62
     7
100
AcDbLine
 10
238.5607345593
 20
498.1459591914
 30
0.0
 11
237.8158325759
 21
490.5052305366
 31
0.0
  0
LINE
  5
37F
330
330
100
AcDbEntity
  8
$DDT_AUDIT_GENERATED_(328)
  6
Continuous
 62
     7
100
AcDbLine
 10
237.3418544681
 20
490.7964615837
 30
0.0
 11
237.8158325759
 21
490.5052305366
 31
0.0
  0
LINE
  5
380
330
330
100
AcDbEntity
  8
$DDT_AUDIT_GENERATED_(328)
  6
Continuous
 62
     7
100
AcDbLine
 10
237.3472422848
 20
491.0278880837
 30
0.0
 11
237.3634458299
 21
491.0179319795
 31
0.0
  0
ENDBLK
  5
382
330
330
100
AcDbEntity
  8
0
100
AcDbBlockEnd
  0
BLOCK
  5
3A8
330
383
100
AcDbEntity
  8
0
100
AcDbBlockBegin
  2
SE2
 70
     0
 10
0.0
 20
0.0
 30
0.0
  3
SE2
  1

  0
SPLINE
  5
385
330
383
100
AcDbEntity
  8
$DDT_AUDIT_GENERATED_(77)
  6
Continuous
 62
     7
100
AcDbSpline
210
0.0
220
0.0
230
1.0
 70
     8
 71
     3
 72
    10
 73
     6
 74
     0
 42
0.0000000006718915
 43
0.0000000001
 40
0.2499548525459343
 40
0.2499548525459343
 40
0.2499548525459343
 40
0.2499548525459343
 40
0.2500000000000009
 40
0.2500000000000009
 40
0.2504945907151175
 40
0.2504945907151175
 40
0.2504945907151175
 40
0.2504945907151175
 10
16.84989162598706
 20
109.7764578938508
 30
0.0
 10
16.84989159856956
 20
109.7762339374893
 30
0.0
 10
16.84989176619008
 20
109.7760099857314
 30
0.0
 10
16.84989610192354
 20
109.7733326960073
 30
0.0
 10
16.84992349187004
 20
109.770879165702
 30
0.0
 10
16.84997428210376
 20
109.7684254613889
 30
0.0
  0
ELLIPSE
  5
386
330
383
100
AcDbEntity
  8
$DDT_AUDIT_GENERATED_(77)
  6
Continuous
 62
     7
100
AcDbEllipse
 10
31.35
 20
224.7781489087
 30
0.0
 11
-1.009793876732674E-14
 21
-22.8472713233584
 31
0.0
210
0.0
220
0.0
230
1.0
 40
0.984807753
 41
1.570796326794897
 42
4.71238898038469
  0
LINE
  5
387
330
383
100
AcDbEntity
  8
$DDT_AUDIT_GENERATED_(77)
  6
Continuous
 62
     7
100
AcDbLine
 10
53.8501699344
 20
207.747043334
 30
0.0
 11
53.8501699344
 21
224.7781489087
 31
0.0
  0
LINE
  5
388
330
383
100
AcDbEntity
  8
$DDT_AUDIT_GENERATED_(77)
  6
Continuous
 62
     7
100
AcDbLine
 10
8.8498300656
 20
224.7781489087
 30
0.0
 11
8.8498300656
 21
207.6681547024
 31
0.0
  0
LINE
  5
389
330
383
100
AcDbEntity
  8
$DDT_AUDIT_GENERATED_(77)
  6
Continuous
 62
     7
100
AcDbLine
 10
16.8498916115
 20
180.2397934868
 30
0.0
 11
16.8498916115
 21
109.7764333477
 31
0.0
  0
LINE
  5
38A
330
383
100
AcDbEntity
  8
$DDT_AUDIT_GENERATED_(77)
  6
Continuous
 62
     7
100
AcDbLine
 10
45.8498916115
 20
109.7764314319
 30
0.0
 11
45.8498916115
 21
180.2278597605
 31
0.0
  0
SPLINE
  5
38B
330
383
100
AcDbEntity
  8
$DDT_AUDIT_GENERATED_(77)
  6
Continuous
 62
     7
100
AcDbSpline
210
0.0
220
0.0
230
1.0
 70
     8
 71
     3
 72
    73
 73
    69
 74
     0
 42
0.0000000003197867
 43
0.0000000001
 40
0.0
 40
0.0
 40
0.0
 40
0.0
 40
0.0092557041749463
 40
0.0191301561996522
 40
0.0290676771044756
 40
0.0392980080832141
 40
0.0500275684291068
 40
0.0618171848151231
 40
0.0751264059864607
 40
0.0904422656847221
 40
0.1079206584963135
 40
0.1267504402838714
 40
0.1454824887805994
 40
0.1636821266328093
 40
0.1814125055794455
 40
0.1987748759940108
 40
0.2158431006480788
 40
0.2326654889410434
 40
0.2492737821985971
 40
0.2656901609433321
 40
0.281931918378669
 40
0.2979874608205754
 40
0.3139780807545736
 40
0.3299837290547278
 40
0.346030181660582
 40
0.3621142282256468
 40
0.3782288449875689
 40
0.3943639829343575
 40
0.410506187250612
 40
0.4266383842741502
 40
0.4427463943416418
 40
0.4588166334728691
 40
0.4748368786377526
 40
0.4907969578241658
 40
0.5066893439490213
 40
0.5225096376863105
 40
0.5382407499593919
 40
0.5538654071482754
 40
0.56960055826654
 40
0.5854195224828284
 40
0.6013216115339247
 40
0.6173035049756604
 40
0.6333597364458021
 40
0.6494831726488257
 40
0.6656656045310428
 40
0.6818984498940448
 40
0.6981735669893104
 40
0.7144841825183916
 40
0.7308259478601256
 40
0.7471981577920312
 40
0.7636052018133225
 40
0.7800552274468984
 40
0.7964117661496037
 40
0.8131918915812626
 40
0.8301338513002195
 40
0.8473115139280593
 40
0.864818942369522
 40
0.8827752292557272
 40
0.9013000198965476
 40
0.9183013181623993
 40
0.9333369813513297
 40
0.9464471364313332
 40
0.9581554582405701
 40
0.9689019306512787
 40
0.9790211775186307
 40
0.9887679215802714
 40
0.9991598120622907
 40
1.0
 40
1.0
 40
1.0
 40
1.0
 10
16.85396958332705
 20
109.7681233330435
 30
0.0
 10
16.8563826476182
 20
109.6905014798425
 30
0.0
 10
16.86180349134456
 20
109.5556898918537
 30
0.0
 10
16.9136365374778
 20
109.3377851168424
 30
0.0
 10
16.99425518348063
 20
109.134897773915
 30
0.0
 10
17.10189601122446
 20
108.9466315942425
 30
0.0
 10
17.23250507560379
 20
108.7735416185907
 30
0.0
 10
17.38934330333251
 20
108.6088730395081
 30
0.0
 10
17.57921500305702
 20
108.4476048817679
 30
0.0
 10
17.81134699969336
 20
108.2861209705613
 30
0.0
 10
18.09249593166493
 20
108.1247044428084
 30
0.0
 10
18.42025284861763
 20
107.9677127205515
 30
0.0
 10
18.78441905447942
 20
107.8196607109584
 30
0.0
 10
19.17410827544748
 20
107.6826469057474
 30
0.0
 10
19.58596747351551
 20
107.5555533079966
 30
0.0
 10
20.01998057304246
 20
107.4367878140311
 30
0.0
 10
20.47623294703533
 20
107.3252893024751
 30
0.0
 10
20.95441703550394
 20
107.2204407883329
 30
0.0
 10
21.45387363484568
 20
107.1219056908629
 30
0.0
 10
21.97368082659791
 20
107.0295132813128
 30
0.0
 10
22.51251613745433
 20
106.9432362659585
 30
0.0
 10
23.06995092551027
 20
106.8629092190191
 30
0.0
 10
23.646276449942
 20
106.7881117783104
 30
0.0
 10
24.2424848217703
 20
106.7186410342999
 30
0.0
 10
24.85830054388009
 20
106.6545170700406
 30
0.0
 10
25.49239619305257
 20
106.5959165536359
 30
0.0
 10
26.14294098005267
 20
106.5430582274277
 30
0.0
 10
26.8079088999457
 20
106.4961626026467
 30
0.0
 10
27.48507443733975
 20
106.455443850324
 30
0.0
 10
28.17209159506159
 20
106.4210981230536
 30
0.0
 10
28.86655599218663
 20
106.3932971596501
 30
0.0
 10
29.56608530132209
 20
106.3721843089499
 30
0.0
 10
30.26831639688816
 20
106.3578760775663
 30
0.0
 10
30.9709446660154
 20
106.3504584600157
 30
0.0
 10
31.67175664169156
 20
106.35
 30
0.0
 10
32.36843020560509
 20
106.3565071835859
 30
0.0
 10
33.05847504476569
 20
106.3700789912965
 30
0.0
 10
33.74273235211057
 20
106.3900560007994
 30
0.0
 10
34.42197025271
 20
106.4164005725316
 30
0.0
 10
35.09709176766945
 20
106.4491631583597
 30
0.0
 10
35.76583956887821
 20
106.4882739398056
 30
0.0
 10
36.42628080205542
 20
106.5336586525072
 30
0.0
 10
37.07641990914763
 20
106.5852230895716
 30
0.0
 10
37.7142284791197
 20
106.6428531867891
 30
0.0
 10
38.33767850157598
 20
106.7064170831694
 30
0.0
 10
38.94477841243219
 20
106.7757689373313
 30
0.0
 10
39.53361175912465
 20
106.8507549350132
 30
0.0
 10
40.10237538117079
 20
106.9312224443448
 30
0.0
 10
40.64942399376226
 20
107.0170313162878
 30
0.0
 10
41.17329258008981
 20
107.1080753591657
 30
0.0
 10
41.67277170676919
 20
107.2042847590626
 30
0.0
 10
42.14523520510229
 20
107.3054022364037
 30
0.0
 10
42.59363971075873
 20
107.4120293573003
 30
0.0
 10
43.01862207506684
 20
107.5247370151453
 30
0.0
 10
43.42113408158518
 20
107.644675229818
 30
0.0
 10
43.79933640959784
 20
107.7723432853456
 30
0.0
 10
44.15434886109517
 20
107.9096495104359
 30
0.0
 10
44.48782912473476
 20
108.0598443254765
 30
0.0
 10
44.78848418325841
 20
108.220925913465
 30
0.0
 10
45.05006474297557
 20
108.3915079492627
 30
0.0
 10
45.26509133789386
 20
108.5648411382139
 30
0.0
 10
45.4402609286219
 20
108.7413781298279
 30
0.0
 10
45.581989699757
 20
108.9233214354601
 30
0.0
 10
45.69414971057277
 20
109.1135389704835
 30
0.0
 10
45.77878883433493
 20
109.3145204645425
 30
0.0
 10
45.83152945120572
 20
109.5277479118128
 30
0.0
 10
45.85429817318389
 20
109.6907948285434
 30
0.0
 10
45.84860286341576
 20
109.7702402051627
 30
0.0
 10
45.84810185374215
 20
109.7771475136977
 30
0.0
  0
ARC
  5
38C
330
383
100
AcDbEntity
  8
$DDT_AUDIT_GENERATED_(30B)
  6
Continuous
 62
     7
100
AcDbCircle
 10
31.3378614631
 20
197.9047239365
 30
0.0
 40
22.8800472755651
100
AcDbArc
 50
252.1682639732
 51
270.0301464218
  0
ARC
  5
38D
330
383
100
AcDbEntity
  8
$DDT_AUDIT_GENERATED_(30B)
  6
Continuous
 62
     7
100
AcDbCircle
 10
31.3378614631
 20
197.9047239365
 30
0.0
 40
22.8800472755651
100
AcDbArc
 50
89.9706123441
 51
184.0492131194
  0
ARC
  5
38E
330
383
100
AcDbEntity
  8
$DDT_AUDIT_GENERATED_(30B)
  6
Continuous
 62
     7
100
AcDbCircle
 10
31.3845324517
 20
197.9047243071
 30
0.0
 40
22.88005721584026
100
AcDbArc
 50
358.4875456996
 51
90.0659207536
  0
ARC
  5
38F
330
383
100
AcDbEntity
  8
$DDT_AUDIT_GENERATED_(30B)
  6
Continuous
 62
     7
100
AcDbCircle
 10
31.3845324517
 20
197.9047243071
 30
0.0
 40
22.88005721584026
100
AcDbArc
 50
358.0450840749
 51
358.4875456996
  0
ARC
  5
390
330
383
100
AcDbEntity
  8
$DDT_AUDIT_GENERATED_(30B)
  6
Continuous
 62
     7
100
AcDbCircle
 10
31.3845324517
 20
197.9047243071
 30
0.0
 40
22.88005721584026
100
AcDbArc
 50
269.9340747767
 51
358.0450840749
  0
SPLINE
  5
391
330
383
100
AcDbEntity
  8
$DDT_AUDIT_GENERATED_(30B)
  6
Continuous
 62
     7
100
AcDbSpline
210
0.0
220
0.0
230
1.0
 70
     8
 71
     3
 72
     8
 73
     4
 74
     0
 42
0.0000000017649521
 43
0.0000000001
 40
0.0
 40
0.0
 40
0.0
 40
0.0
 40
0.0281351243384506
 40
0.0281351243384506
 40
0.0281351243384506
 40
0.0281351243384506
 10
36.06018765392581
 20
116.819521152336
 30
0.0
 10
36.10920351273778
 20
116.8627653798146
 30
0.0
 10
36.13372668495708
 20
116.9065826138309
 30
0.0
 10
36.13374216369048
 20
116.9504145731816
 30
0.0
  0
SPLINE
  5
392
330
383
100
AcDbEntity
  8
$DDT_AUDIT_GENERATED_(30B)
  6
Continuous
 62
     7
100
AcDbSpline
210
0.0
220
0.0
230
1.0
 70
     8
 71
     3
 72
    14
 73
    10
 74
     0
 42
0.0000000004819647
 43
0.0000000001
 40
0.5285740357368377
 40
0.5285740357368377
 40
0.5285740357368377
 40
0.5285740357368377
 40
0.6088274310501021
 40
0.6676346891202738
 40
0.7384443957545586
 40
0.8065390044064968
 40
0.8663286324601976
 40
0.9316010372849428
 40
1.0
 40
1.0
 40
1.0
 40
1.0
 10
26.58791330979216
 20
116.9499795135965
 30
0.0
 10
26.58880945979954
 20
116.8262989428572
 30
0.0
 10
26.947293421035
 20
116.6129632152238
 30
0.0
 10
28.29519852872129
 20
116.346201845235
 30
0.0
 10
30.10772622172375
 20
116.204335327391
 30
0.0
 10
32.15597941876929
 20
116.1895541689707
 30
0.0
 10
33.99525141829507
 20
116.3041152651452
 30
0.0
 10
35.42525311776013
 20
116.5155535176938
 30
0.0
 10
35.94102578852954
 20
116.7143906305239
 30
0.0
 10
36.06018765392581
 20
116.819521152336
 30
0.0
  0
SPLINE
  5
393
330
383
100
AcDbEntity
  8
$DDT_AUDIT_GENERATED_(30B)
  6
Continuous
 62
     7
100
AcDbSpline
210
0.0
220
0.0
230
1.0
 70
     8
 71
     3
 72
    11
 73
     7
 74
     0
 42
0.0000000006936967
 43
0.0000000001
 40
0.0
 40
0.0
 40
0.0
 40
0.0
 40
0.0431647124391709
 40
0.0896747115872611
 40
0.1396707710804418
 40
0.1723448472168698
 40
0.1723448472168698
 40
0.1723448472168698
 40
0.1723448472168698
 10
31.35844519558398
 20
174.8722095875529
 30
0.0
 10
31.1408570076071
 20
174.8767628838644
 30
0.0
 10
30.68881743873197
 20
174.8862223463071
 30
0.0
 10
30.00121586227823
 20
174.9559490042243
 30
0.0
 10
29.39671210567401
 20
175.0501796570673
 30
0.0
 10
29.03474035918689
 20
175.1251723494974
 30
0.0
 10
28.89626059889676
 20
175.1569369237127
 30
0.0
  0
SPLINE
  5
394
330
383
100
AcDbEntity
  8
$DDT_AUDIT_GENERATED_(30B)
  6
Continuous
 62
     7
100
AcDbSpline
210
0.0
220
0.0
230
1.0
 70
     8
 71
     3
 72
    10
 73
     6
 74
     0
 42
0.0000000006931036
 43
0.0000000001
 40
0.8239080678564465
 40
0.8239080678564465
 40
0.8239080678564465
 40
0.8239080678564465
 40
0.8399768127491059
 40
0.9231811464413779
 40
1.0
 40
1.0
 40
1.0
 40
1.0
 10
33.87418747550357
 20
175.1618189526296
 30
0.0
 10
33.80655156442582
 20
175.1453847061519
 30
0.0
 10
33.38162429432507
 20
175.047044107044
 30
0.0
 10
32.55474485233053
 20
174.9114424367023
 30
0.0
 10
31.74646063334046
 20
174.884934623521
 30
0.0
 10
31.35844519558398
 20
174.8722095875529
 30
0.0
  0
ARC
  5
395
330
383
100
AcDbEntity
  8
$DDT_AUDIT_GENERATED_(30B)
  6
Continuous
 62
     7
100
AcDbCircle
 10
31.6820522797
 20
197.8794117748
 30
0.0
 40
21.71015771599395
100
AcDbArc
 50
90.8766471108
 51
269.123352893
  0
ARC
  5
396
330
383
100
AcDbEntity
  8
$DDT_AUDIT_GENERATED_(30B)
  6
Continuous
 62
     7
100
AcDbCircle
 10
31.0198819866
 20
197.9055378112
 30
0.0
 40
21.43978052580365
100
AcDbArc
 50
270.8823928342
 51
89.1176204726
  0
SPLINE
  5
397
330
383
100
AcDbEntity
  8
$DDT_AUDIT_GENERATED_(30B)
  6
Continuous
 62
     7
100
AcDbSpline
210
0.0
220
0.0
230
1.0
 70
     8
 71
     3
 72
     8
 73
     4
 74
     0
 42
0.0000003810806574
 43
0.0000000001
 40
0.1990962779605423
 40
0.1990962779605423
 40
0.1990962779605423
 40
0.1990962779605423
 40
0.3470266299724451
 40
0.3470266299724451
 40
0.3470266299724451
 40
0.3470266299724451
 10
31.35132800483986
 20
175.019345301589
 30
0.0
 10
31.35061799143475
 20
175.0193656288845
 30
0.0
 10
31.35025644559603
 20
175.0203966250519
 30
0.0
 10
31.35007226888586
 20
175.0224674599188
 30
0.0
  0
ELLIPSE
  5
398
330
383
100
AcDbEntity
  8
$DDT_AUDIT_GENERATED_(30B)
  6
Continuous
 62
     7
100
AcDbEllipse
 10
31.3582089006
 20
175.4532213612
 30
0.0
 11
0.0
 21
0.428537840803159
 31
0.0
210
0.0
220
0.0
230
1.0
 40
1.0
 41
3.141592653589793
 42
3.141858968839694
  0
ELLIPSE
  5
399
330
383
100
AcDbEntity
  8
$DDT_AUDIT_GENERATED_(30B)
  6
Continuous
 62
     7
100
AcDbEllipse
 10
31.3839425723
 20
220.3594603178
 30
0.0
 11
-0.02357714615775764
 21
0.4333896970736464
 31
0.0
210
0.0
220
0.0
230
0.9999999999999999
 40
0.0566826404
 41
0.1904148085431939
 42
0.8200128271609369
  0
LINE
  5
39A
330
383
100
AcDbEntity
  8
$DDT_AUDIT_GENERATED_(30B)
  6
Continuous
 62
     7
100
AcDbLine
 10
31.3498916119
 20
176.1717952004
 30
0.0
 11
31.3500557102
 21
176.4682997823
 31
0.0
  0
LINE
  5
39B
330
383
100
AcDbEntity
  8
$DDT_AUDIT_GENERATED_(30B)
  6
Continuous
 62
     7
100
AcDbLine
 10
31.3500507315
 20
219.3427759167
 30
0.0
 11
31.3498916105
 21
219.5870283493
 31
0.0
  0
ARC
  5
39C
330
383
100
AcDbEntity
  8
$DDT_AUDIT_GENERATED_(30B)
  6
Continuous
 62
     7
100
AcDbCircle
 10
31.7028988076
 20
202.8338725992
 30
0.0
 40
22.71561736013366
100
AcDbArc
 50
358.3506625491
 51
90.869447419
  0
ARC
  5
39D
330
383
100
AcDbEntity
  8
$DDT_AUDIT_GENERATED_(30B)
  6
Continuous
 62
     7
100
AcDbCircle
 10
31.0135667542
 20
202.8338725992
 30
0.0
 40
22.71561663545803
100
AcDbArc
 50
89.1306730339
 51
181.6497122933
  0
LINE
  5
39E
330
383
100
AcDbEntity
  8
$DDT_AUDIT_GENERATED_(30B)
  6
Continuous
 62
     7
100
AcDbLine
 10
28.0806397869
 20
175.3466697607
 30
0.0
 11
28.0495755702
 21
175.3487363578
 31
0.0
  0
LINE
  5
39F
330
383
100
AcDbEntity
  8
$DDT_AUDIT_GENERATED_(30B)
  6
Continuous
 62
     7
100
AcDbLine
 10
8.3217364686
 20
202.1804003049
 30
0.0
 11
8.4640336399
 21
197.297246936
 31
0.0
  0
LINE
  5
3A0
330
383
100
AcDbEntity
  8
$DDT_AUDIT_GENERATED_(30B)
  6
Continuous
 62
     7
100
AcDbLine
 10
54.2524864637
 20
197.300757636
 30
0.0
 11
54.3946813293
 21
202.1804001935
 31
0.0
  0
LINE
  5
3A1
330
383
100
AcDbEntity
  8
$DDT_AUDIT_GENERATED_(30B)
  6
Continuous
 62
     7
100
AcDbLine
 10
26.5879133098
 20
175.5291348073
 30
0.0
 11
26.5879133098
 21
116.9500981089
 31
0.0
  0
LINE
  5
3A2
330
383
100
AcDbEntity
  8
$DDT_AUDIT_GENERATED_(30B)
  6
Continuous
 62
     7
100
AcDbLine
 10
36.1334882247
 20
116.9494623556
 30
0.0
 11
36.1334882247
 21
175.5276812537
 31
0.0
  0
LINE
  5
3A3
330
383
100
AcDbEntity
  8
$DDT_AUDIT_GENERATED_(30B)
  6
Continuous
 62
     7
100
AcDbLine
 10
31.3495702062
 20
175.0192594401
 30
0.0
 11
31.3582748594
 21
175.019259102
 31
0.0
  0
ARC
  5
3A4
330
383
100
AcDbEntity
  8
$DDT_AUDIT_GENERATED_(30B)
  6
Continuous
 62
     7
100
AcDbCircle
 10
31.3951097118
 20
197.9611752548
 30
0.0
 40
22.93880769539141
100
AcDbArc
 50
182.0374915191
 51
269.8870341869
  0
LINE
  5
3A5
330
383
100
AcDbEntity
  8
$DDT_AUDIT_GENERATED_(30B)
  6
Continuous
 62
     7
100
AcDbLine
 10
8.4669211185
 20
197.2145978331
 30
0.0
 11
8.4708044683
 21
197.1456217083
 31
0.0
  0
ARC
  5
3A6
330
383
100
AcDbEntity
  8
$DDT_AUDIT_GENERATED_(30B)
  6
Continuous
 62
     7
100
AcDbCircle
 10
31.3134355508
 20
197.9668113649
 30
0.0
 40
22.94452399521274
100
AcDbArc
 50
270.1120916907
 51
357.8959878587
  0
SPLINE
  5
3A7
330
383
100
AcDbEntity
  8
$DDT_AUDIT_GENERATED_(30B)
  6
Continuous
 62
     7
100
AcDbSpline
210
0.0
220
0.0
230
1.0
 70
     8
 71
     3
 72
    40
 73
    36
 74
     0
 42
0.0000000009551199
 43
0.0000000001
 40
0.0
 40
0.0
 40
0.0
 40
0.0
 40
0.0302794115998574
 40
0.0544692123263797
 40
0.0721295777740124
 40
0.0834819381934224
 40
0.0935522343318824
 40
0.1043610083373946
 40
0.1159098941788862
 40
0.1282007544865296
 40
0.1646151643117502
 40
0.2063945188524857
 40
0.2509484165705654
 40
0.2840340124765677
 40
0.3167399302389891
 40
0.3490074632161441
 40
0.3808630027397802
 40
0.4227004402497315
 40
0.4638363495575408
 40
0.504715761847236
 40
0.5355394646932765
 40
0.5665453429123192
 40
0.5977686947895982
 40
0.629221765087142
 40
0.6714967628014854
 40
0.7141513002687415
 40
0.7553890109769635
 40
0.793666269885553
 40
0.8289163464256465
 40
0.8612151030456591
 40
0.8870163682913287
 40
0.9187371778612824
 40
0.9565647291498713
 40
0.9776543629858181
 40
1.0
 40
1.0
 40
1.0
 40
1.0
 10
26.58856225240014
 20
116.9499303607057
 30
0.0
 10
26.59668014974891
 20
116.8625319347128
 30
0.0
 10
26.61198113610422
 20
116.730823789853
 30
0.0
 10
26.71815141236368
 20
116.5513163968965
 30
0.0
 10
26.82323108719592
 20
116.4419564532731
 30
0.0
 10
26.89716518336154
 20
116.382598932908
 30
0.0
 10
26.953152127359
 20
116.3434334119806
 30
0.0
 10
27.01352388656582
 20
116.3058953521182
 30
0.0
 10
27.08039375505279
 20
116.2691121325231
 30
0.0
 10
27.20271766780457
 20
116.2092804488205
 30
0.0
 10
27.40579872185432
 20
116.1298092406236
 30
0.0
 10
27.72723723154196
 20
116.0365396012339
 30
0.0
 10
28.09660161499225
 20
115.9566444497814
 30
0.0
 10
28.48614027638743
 20
115.8911482559981
 30
0.0
 10
28.86437002541478
 20
115.8403556764002
 30
0.0
 10
29.26445307422474
 20
115.7976266306732
 30
0.0
 10
29.72585259323267
 20
115.7592194985301
 30
0.0
 10
30.24968285923095
 20
115.7282805133947
 30
0.0
 10
30.83374038020741
 20
115.7084915846386
 30
0.0
 10
31.37488818451109
 20
115.7031087090368
 30
0.0
 10
31.86662458937796
 20
115.7086571002528
 30
0.0
 10
32.30672579669667
 20
115.7219219449957
 30
0.0
 10
32.73977720147345
 20
115.7431684645347
 30
0.0
 10
33.20888570918258
 20
115.775423959098
 30
0.0
 10
33.70303379832204
 20
115.8217389981383
 30
0.0
 10
34.1955835595187
 20
115.8839179886341
 30
0.0
 10
34.62531543399098
 20
115.9556373797546
 30
0.0
 10
34.98175829743864
 20
116.0335063150809
 30
0.0
 10
35.27026094209
 20
116.1159253212594
 30
0.0
 10
35.48365511478796
 20
116.1937485661463
 30
0.0
 10
35.68528183881522
 20
116.2893314379533
 30
0.0
 10
35.89614141937692
 20
116.4336541258935
 30
0.0
 10
36.04373616596432
 20
116.6138475086234
 30
0.0
 10
36.12010883149749
 20
116.8005594728725
 30
0.0
 10
36.12873254426067
 20
116.8932461361195
 30
0.0
 10
36.13297679239943
 20
116.9499578494633
 30
0.0
  0
ENDBLK
  5
3A9
330
383
100
AcDbEntity
  8
0
100
AcDbBlockEnd
  0
ENDSEC
  0
SECTION
  2
ENTITIES
  0
INSERT
  5
5F
330
1F
100
AcDbEntity
  8
Default
100
AcDbBlockReference
  2
SEANNOT_GROUP
 10
0.0
 20
0.0
 30
0.0
  0
INSERT
  5
66
330
1F
100
AcDbEntity
  8
Default
100
AcDbBlockReference
  2
SEANNOT_GROUP1
 10
0.0
 20
0.0
 30
0.0
  0
INSERT
  5
6C
330
1F
100
AcDbEntity
  8
Default
100
AcDbBlockReference
  2
SEANNOT_GROUP2
 10
0.0
 20
0.0
 30
0.0
  0
INSERT
  5
76
330
1F
100
AcDbEntity
  8
Default
100
AcDbBlockReference
  2
SE
 10
0.0
 20
0.0
 30
0.0
  0
INSERT
  5
331
330
1F
100
AcDbEntity
  8
Default
100
AcDbBlockReference
  2
SE1
 10
0.0
 20
0.0
 30
0.0
  0
INSERT
  5
384
330
1F
100
AcDbEntity
  8
Default
100
AcDbBlockReference
  2
SE2
 10
0.0
 20
0.0
 30
0.0
  0
TEXT
  5
3AB
330
1F
100
AcDbEntity
  8
Default
  6
Continuous
 62
     7
100
AcDbText
 10
5.9362635081
 20
53.4225120485
 30
0.0
 40
10.0
  1
Grohe AG^J
  7
SEACAD_seiso_ttf
 11
5.9362635081
 21
63.4225120485
 31
0.0
100
AcDbText
 73
     3
  0
TEXT
  5
3AC
330
1F
100
AcDbEntity
  8
Default
  6
Continuous
 62
     7
100
AcDbText
 10
5.9362635081
 20
37.0588756849
 30
0.0
 40
10.0
  1
 
  7
SEACAD_seiso_ttf
 11
5.9362635081
 21
47.0588756849
 31
0.0
100
AcDbText
 73
     3
  0
TEXT
  5
3AD
330
1F
100
AcDbEntity
  8
Default
  6
Continuous
 62
     7
100
AcDbText
 10
5.9362635081
 20
20.6952393213
 30
0.0
 40
10.0
  1
ecn: 
  7
SEACAD_seiso_ttf
 11
5.9362635081
 21
30.6952393213
 31
0.0
100
AcDbText
 73
     3
  0
TEXT
  5
3AE
330
1F
100
AcDbEntity
  8
Default
  6
Continuous
 62
     7
100
AcDbText
 10
5.9362635081
 20
4.3316029576
 30
0.0
 40
10.0
  1
unit: mm
  7
SEACAD_seiso_ttf
 11
5.9362635081
 21
14.3316029576
 31
0.0
100
AcDbText
 73
     3
  0
LINE
  5
3AF
330
1F
100
AcDbEntity
  8
Default
  6
Continuous
 62
     7
100
AcDbLine
 10
0.0
 20
0.0
 30
0.0
 11
100.0
 21
0.0
 31
0.0
  0
LINE
  5
3B0
330
1F
100
AcDbEntity
  8
Default
  6
Continuous
 62
     7
100
AcDbLine
 10
0.0
 20
0.0
 30
0.0
 11
0.0
 21
100.0
 31
0.0
  0
TEXT
  5
3B1
330
1F
100
AcDbEntity
  8
Default
  6
Continuous
 62
     7
100
AcDbText
 10
24.3923665681
 20
-18.2375342018
 30
0.0
 40
10.0
  1
100 mm
  7
SEACAD_seiso_ttf
 11
24.3923665681
 21
-8.2375342018
 31
0.0
100
AcDbText
 73
     3
  0
TEXT
  5
3B2
330
1F
100
AcDbEntity
  8
Default
  6
Continuous
 62
     7
100
AcDbText
 10
-7.6150308803
 20
24.6231930421
 30
0.0
 40
10.0
  1
100 mm
 50
90.0
  7
SEACAD_seiso_ttf
 11
-17.6150308803
 21
24.6231930421
 31
0.0
100
AcDbText
 73
     3
  0
TEXT
  5
3B3
330
1F
100
AcDbEntity
  8
Default
  6
Continuous
 62
     7
100
AcDbText
 10
28.4878128572
 20
20.0907663715
 30
0.0
 40
10.0
  1
218555
  7
SEACAD_seiso_ttf
 11
28.4878128572
 21
30.0907663715
 31
0.0
100
AcDbText
 73
     3
  0
TEXT
  5
3B4
330
1F
100
AcDbEntity
  8
Default
  6
Continuous
 62
     7
100
AcDbText
 10
5.9012241913
 20
36.7242780188
 30
0.0
 40
10.0
  1
34271001
  7
SEACAD_seiso_ttf
 11
5.9012241913
 21
46.7242780188
 31
0.0
100
AcDbText
 73
     3
  0
ENDSEC
  0
SECTION
  2
OBJECTS
  0
DICTIONARY
  5
C
330
0
100
AcDbDictionary
281
     1
  3
ACAD_GROUP
350
D
  3
ACAD_LAYOUT
350
1A
  3
ACAD_MLEADERSTYLE
350
3B8
  3
ACAD_MLINESTYLE
350
17
  3
ACAD_PLOTSETTINGS
350
19
  3
ACAD_PLOTSTYLENAME
350
E
  3
ACAD_SCALELIST
350
3B
  3
ACAD_TABLESTYLE
350
3B7
  3
ACAD_VISUALSTYLE
350
2A
  3
AcDbVariableDictionary
350
3B5
  0
DICTIONARY
  5
D
102
{ACAD_REACTORS
330
C
102
}
330
C
100
AcDbDictionary
281
     1
  0
DICTIONARY
  5
1A
102
{ACAD_REACTORS
330
C
102
}
330
C
100
AcDbDictionary
281
     1
  3
Layout1
350
1E
  3
Model
350
22
  0
DICTIONARY
  5
3B8
102
{ACAD_REACTORS
330
C
102
}
330
C
100
AcDbDictionary
281
     1
  0
DICTIONARY
  5
17
102
{ACAD_REACTORS
330
C
102
}
330
C
100
AcDbDictionary
281
     1
  3
Standard
350
18
  0
DICTIONARY
  5
19
102
{ACAD_REACTORS
330
C
102
}
330
C
100
AcDbDictionary
281
     1
  0
ACDBDICTIONARYWDFLT
  5
E
102
{ACAD_REACTORS
330
C
102
}
330
C
100
AcDbDictionary
281
     1
  3
Normal
350
F
100
AcDbDictionaryWithDefault
340
F
  0
DICTIONARY
  5
3B
102
{ACAD_REACTORS
330
C
102
}
330
C
100
AcDbDictionary
281
     1
  3
A0
350
3C
  3
A1
350
3D
  3
A2
350
3E
  3
A3
350
3F
  3
A4
350
40
  3
A5
350
41
  3
A6
350
42
  3
A7
350
43
  3
A8
350
44
  3
A9
350
45
  3
B0
350
46
  3
B1
350
47
  3
B2
350
48
  3
B3
350
49
  3
B4
350
4A
  3
B5
350
4B
  3
B6
350
4C
  3
B7
350
4D
  3
B8
350
4E
  3
B9
350
4F
  3
C0
350
50
  3
C1
350
51
  3
C2
350
52
  3
C3
350
53
  3
C4
350
54
  3
C5
350
55
  3
C6
350
56
  3
C7
350
57
  3
C8
350
58
  3
C9
350
59
  3
D0
350
5A
  3
D1
350
5B
  3
D2
350
5C
  0
DICTIONARY
  5
3B7
102
{ACAD_REACTORS
330
C
102
}
330
C
100
AcDbDictionary
281
     1
  0
DICTIONARY
  5
2A
102
{ACAD_REACTORS
330
C
102
}
330
C
100
AcDbDictionary
281
     1
  3
2dWireframe
350
2F
  3
3D Hidden
350
31
  3
3dWireframe
350
30
  3
Basic
350
32
  3
Brighten
350
36
  3
ColorChange
350
3A
  3
Conceptual
350
34
  3
Dim
350
35
  3
Facepattern
350
39
  3
Flat
350
2B
  3
FlatWithEdges
350
2C
  3
Gouraud
350
2D
  3
GouraudWithEdges
350
2E
  3
Linepattern
350
38
  3
Realistic
350
33
  3
Thicken
350
37
  0
DICTIONARY
  5
3B5
102
{ACAD_REACTORS
330
C
102
}
330
C
100
AcDbDictionary
281
     1
  3
CANNOSCALE
350
3B6
  3
PSOLHEIGHT
350
3BA
  3
PSOLWIDTH
350
3B9
  0
LAYOUT
  5
1E
102
{ACAD_REACTORS
330
1A
102
}
330
1A
100
AcDbPlotSettings
  1

  2
none_device
  4

  6

 40
0.0
 41
0.0
 42
0.0
 43
0.0
 44
0.0
 45
0.0
 46
0.0
 47
0.0
 48
0.0
 49
0.0
140
0.0
141
0.0
142
1.0
143
1.0
 70
   688
 72
     0
 73
     0
 74
     5
  7

 75
    16
147
1.0
148
0.0
149
0.0
100
AcDbLayout
  1
Layout1
 70
     1
 71
     1
 10
0.0
 20
0.0
 11
1682.0
 21
2378.0
 12
0.0
 22
0.0
 32
0.0
 14
0.0
 24
0.0
 34
0.0
 15
1682.0
 25
2378.0
 35
0.0
146
0.0
 13
0.0
 23
0.0
 33
0.0
 16
1.0
 26
0.0
 36
0.0
 17
0.0
 27
1.0
 37
0.0
 76
     0
330
1B
  0
LAYOUT
  5
22
102
{ACAD_REACTORS
330
1A
102
}
330
1A
100
AcDbPlotSettings
  1

  2
none_device
  4

  6

 40
0.0
 41
0.0
 42
0.0
 43
0.0
 44
0.0
 45
0.0
 46
0.0
 47
0.0
 48
0.0
 49
0.0
140
0.0
141
0.0
142
1.0
143
1.0
 70
  1712
 72
     0
 73
     0
 74
     0
  7

 75
     0
147
1.0
148
0.0
149
0.0
100
AcDbLayout
  1
Model
 70
     1
 71
     0
 10
0.0
 20
0.0
 11
1682.0
 21
2378.0
 12
0.0
 22
0.0
 32
0.0
 14
0.0
 24
0.0
 34
0.0
 15
1682.0
 25
2378.0
 35
0.0
146
0.0
 13
0.0
 23
0.0
 33
0.0
 16
1.0
 26
0.0
 36
0.0
 17
0.0
 27
1.0
 37
0.0
 76
     0
330
1F
331
29
  0
MLINESTYLE
  5
18
102
{ACAD_REACTORS
330
17
102
}
330
17
100
AcDbMlineStyle
  2
Standard
 70
     0
  3

 62
   256
 51
90.0
 52
90.0
 71
     2
 49
0.5
 62
   256
  6
BYLAYER
 49
-0.5
 62
   256
  6
BYLAYER
  0
ACDBPLACEHOLDER
  5
F
102
{ACAD_REACTORS
330
E
102
}
330
E
  0
SCALE
  5
3C
102
{ACAD_REACTORS
330
3B
102
}
330
3B
100
AcDbScale
 70
     0
300
1:1
140
1.0
141
1.0
290
     1
  0
SCALE
  5
3D
102
{ACAD_REACTORS
330
3B
102
}
330
3B
100
AcDbScale
 70
     0
300
1:2
140
1.0
141
2.0
290
     0
  0
SCALE
  5
3E
102
{ACAD_REACTORS
330
3B
102
}
330
3B
100
AcDbScale
 70
     0
300
1:4
140
1.0
141
4.0
290
     0
  0
SCALE
  5
3F
102
{ACAD_REACTORS
330
3B
102
}
330
3B
100
AcDbScale
 70
     0
300
1:5
140
1.0
141
5.0
290
     0
  0
SCALE
  5
40
102
{ACAD_REACTORS
330
3B
102
}
330
3B
100
AcDbScale
 70
     0
300
1:8
140
1.0
141
8.0
290
     0
  0
SCALE
  5
41
102
{ACAD_REACTORS
330
3B
102
}
330
3B
100
AcDbScale
 70
     0
300
1:10
140
1.0
141
10.0
290
     0
  0
SCALE
  5
42
102
{ACAD_REACTORS
330
3B
102
}
330
3B
100
AcDbScale
 70
     0
300
1:16
140
1.0
141
16.0
290
     0
  0
SCALE
  5
43
102
{ACAD_REACTORS
330
3B
102
}
330
3B
100
AcDbScale
 70
     0
300
1:20
140
1.0
141
20.0
290
     0
  0
SCALE
  5
44
102
{ACAD_REACTORS
330
3B
102
}
330
3B
100
AcDbScale
 70
     0
300
1:30
140
1.0
141
30.0
290
     0
  0
SCALE
  5
45
102
{ACAD_REACTORS
330
3B
102
}
330
3B
100
AcDbScale
 70
     0
300
1:40
140
1.0
141
40.0
290
     0
  0
SCALE
  5
46
102
{ACAD_REACTORS
330
3B
102
}
330
3B
100
AcDbScale
 70
     0
300
1:50
140
1.0
141
50.0
290
     0
  0
SCALE
  5
47
102
{ACAD_REACTORS
330
3B
102
}
330
3B
100
AcDbScale
 70
     0
300
1:100
140
1.0
141
100.0
290
     0
  0
SCALE
  5
48
102
{ACAD_REACTORS
330
3B
102
}
330
3B
100
AcDbScale
 70
     0
300
2:1
140
2.0
141
1.0
290
     0
  0
SCALE
  5
49
102
{ACAD_REACTORS
330
3B
102
}
330
3B
100
AcDbScale
 70
     0
300
4:1
140
4.0
141
1.0
290
     0
  0
SCALE
  5
4A
102
{ACAD_REACTORS
330
3B
102
}
330
3B
100
AcDbScale
 70
     0
300
8:1
140
8.0
141
1.0
290
     0
  0
SCALE
  5
4B
102
{ACAD_REACTORS
330
3B
102
}
330
3B
100
AcDbScale
 70
     0
300
10:1
140
10.0
141
1.0
290
     0
  0
SCALE
  5
4C
102
{ACAD_REACTORS
330
3B
102
}
330
3B
100
AcDbScale
 70
     0
300
100:1
140
100.0
141
1.0
290
     0
  0
SCALE
  5
4D
102
{ACAD_REACTORS
330
3B
102
}
330
3B
100
AcDbScale
 70
     0
300
1/128" = 1'-0"
140
0.0078125
141
12.0
290
     0
  0
SCALE
  5
4E
102
{ACAD_REACTORS
330
3B
102
}
330
3B
100
AcDbScale
 70
     0
300
1/64" = 1'-0"
140
0.015625
141
12.0
290
     0
  0
SCALE
  5
4F
102
{ACAD_REACTORS
330
3B
102
}
330
3B
100
AcDbScale
 70
     0
300
1/32" = 1'-0"
140
0.03125
141
12.0
290
     0
  0
SCALE
  5
50
102
{ACAD_REACTORS
330
3B
102
}
330
3B
100
AcDbScale
 70
     0
300
1/16" = 1'-0"
140
0.0625
141
12.0
290
     0
  0
SCALE
  5
51
102
{ACAD_REACTORS
330
3B
102
}
330
3B
100
AcDbScale
 70
     0
300
3/32" = 1'-0"
140
0.09375
141
12.0
290
     0
  0
SCALE
  5
52
102
{ACAD_REACTORS
330
3B
102
}
330
3B
100
AcDbScale
 70
     0
300
1/8" = 1'-0"
140
0.125
141
12.0
290
     0
  0
SCALE
  5
53
102
{ACAD_REACTORS
330
3B
102
}
330
3B
100
AcDbScale
 70
     0
300
3/16" = 1'-0"
140
0.1875
141
12.0
290
     0
  0
SCALE
  5
54
102
{ACAD_REACTORS
330
3B
102
}
330
3B
100
AcDbScale
 70
     0
300
1/4" = 1'-0"
140
0.25
141
12.0
290
     0
  0
SCALE
  5
55
102
{ACAD_REACTORS
330
3B
102
}
330
3B
100
AcDbScale
 70
     0
300
3/8" = 1'-0"
140
0.375
141
12.0
290
     0
  0
SCALE
  5
56
102
{ACAD_REACTORS
330
3B
102
}
330
3B
100
AcDbScale
 70
     0
300
1/2" = 1'-0"
140
0.5
141
12.0
290
     0
  0
SCALE
  5
57
102
{ACAD_REACTORS
330
3B
102
}
330
3B
100
AcDbScale
 70
     0
300
3/4" = 1'-0"
140
0.75
141
12.0
290
     0
  0
SCALE
  5
58
102
{ACAD_REACTORS
330
3B
102
}
330
3B
100
AcDbScale
 70
     0
300
1" = 1'-0"
140
1.0
141
12.0
290
     0
  0
SCALE
  5
59
102
{ACAD_REACTORS
330
3B
102
}
330
3B
100
AcDbScale
 70
     0
300
1-1/2" = 1'-0"
140
1.5
141
12.0
290
     0
  0
SCALE
  5
5A
102
{ACAD_REACTORS
330
3B
102
}
330
3B
100
AcDbScale
 70
     0
300
3" = 1'-0"
140
3.0
141
12.0
290
     0
  0
SCALE
  5
5B
102
{ACAD_REACTORS
330
3B
102
}
330
3B
100
AcDbScale
 70
     0
300
6" = 1'-0"
140
6.0
141
12.0
290
     0
  0
SCALE
  5
5C
102
{ACAD_REACTORS
330
3B
102
}
330
3B
100
AcDbScale
 70
     0
300
1'-0" = 1'-0"
140
12.0
141
12.0
290
     0
  0
VISUALSTYLE
  5
2F
102
{ACAD_REACTORS
330
2A
102
}
330
2A
100
AcDbVisualStyle
  2
2dWireframe
 70
     4
 71
     0
 72
     2
 73
     0
 90
        0
 40
-0.6
 41
-30.0
 62
     5
 63
     7
 74
     1
 91
        4
 64
     7
 65
   257
 75
     1
175
     1
 42
1.0
 92
        0
 66
   257
 43
1.0
 76
     1
 77
     6
 78
     2
 67
     7
 79
     5
170
     0
171
     0
290
     0
174
     0
 93
        1
 44
0.0
173
     0
291
     0
 45
0.0
1001
ACAD
1000
AcDbSavedByObjectVersion
1070
     0
  0
VISUALSTYLE
  5
31
102
{ACAD_REACTORS
330
2A
102
}
330
2A
100
AcDbVisualStyle
  2
3D Hidden
 70
     6
 71
     1
 72
     2
 73
     2
 90
        0
 40
-0.6
 41
-30.0
 62
     5
 63
     7
 74
     2
 91
        2
 64
     7
 65
   257
 75
     2
175
     1
 42
40.0
 92
        0
 66
   257
 43
1.0
 76
     1
 77
     6
 78
     2
 67
     7
 79
     3
170
     0
171
     0
290
     0
174
     0
 93
        1
 44
0.0
173
     0
291
     0
 45
0.0
1001
ACAD
1000
AcDbSavedByObjectVersion
1070
     0
  0
VISUALSTYLE
  5
30
102
{ACAD_REACTORS
330
2A
102
}
330
2A
100
AcDbVisualStyle
  2
3dWireframe
 70
     5
 71
     0
 72
     2
 73
     0
 90
        0
 40
-0.6
 41
-30.0
 62
     5
 63
     7
 74
     1
 91
        4
 64
     7
 65
   257
 75
     1
175
     1
 42
1.0
 92
        0
 66
   257
 43
1.0
 76
     1
 77
     6
 78
     2
 67
     7
 79
     5
170
     0
171
     0
290
     0
174
     0
 93
        1
 44
0.0
173
     0
291
     0
 45
0.0
1001
ACAD
1000
AcDbSavedByObjectVersion
1070
     0
  0
VISUALSTYLE
  5
32
102
{ACAD_REACTORS
330
2A
102
}
330
2A
100
AcDbVisualStyle
  2
Basic
 70
     7
 71
     1
 72
     0
 73
     1
 90
        0
 40
-0.6
 41
-30.0
 62
     5
 63
     7
 74
     0
 91
        4
 64
     7
 65
   257
 75
     1
175
     1
 42
1.0
 92
        8
 66
     7
 43
1.0
 76
     1
 77
     6
 78
     2
 67
     7
 79
     5
170
     0
171
     0
290
     0
174
     0
 93
        1
 44
0.0
173
     0
291
     1
 45
0.0
1001
ACAD
1000
AcDbSavedByObjectVersion
1070
     0
  0
VISUALSTYLE
  5
36
102
{ACAD_REACTORS
330
2A
102
}
330
2A
100
AcDbVisualStyle
  2
Brighten
 70
    12
 71
     2
 72
     2
 73
     0
 90
        0
 40
-0.6
 41
-30.0
 62
     5
 63
     7
 74
     1
 91
        4
 64
     7
 65
   257
 75
     1
175
     1
 42
1.0
 92
        8
 66
     7
 43
1.0
 76
     1
 77
     6
 78
     2
 67
     7
 79
     5
170
     0
171
     0
290
     0
174
     0
 93
        1
 44
50.0
173
     0
291
     1
 45
0.0
1001
ACAD
1000
AcDbSavedByObjectVersion
1070
     0
  0
VISUALSTYLE
  5
3A
102
{ACAD_REACTORS
330
2A
102
}
330
2A
100
AcDbVisualStyle
  2
ColorChange
 70
    16
 71
     2
 72
     2
 73
     3
 90
        0
 40
-0.6
 41
-30.0
 62
     5
 63
     8
 74
     1
 91
        4
 64
     7
 65
   257
 75
     1
175
     1
 42
1.0
 92
        8
 66
     8
 43
1.0
 76
     1
 77
     6
 78
     2
 67
     7
 79
     5
170
     0
171
     0
290
     0
174
     0
 93
        1
 44
0.0
173
     0
291
     1
 45
0.0
1001
ACAD
1000
AcDbSavedByObjectVersion
1070
     0
  0
VISUALSTYLE
  5
34
102
{ACAD_REACTORS
330
2A
102
}
330
2A
100
AcDbVisualStyle
  2
Conceptual
 70
     9
 71
     3
 72
     2
 73
     0
 90
        0
 40
-0.6
 41
-30.0
 62
     5
 63
     7
 74
     2
 91
        2
 64
     7
 65
   257
 75
     1
175
     1
 42
40.0
 92
        8
 66
     7
 43
1.0
 76
     1
 77
     6
 78
     2
 67
     7
 79
     3
170
     0
171
     0
290
     0
174
     0
 93
        1
 44
0.0
173
     0
291
     0
 45
0.0
1001
ACAD
1000
AcDbSavedByObjectVersion
1070
     0
  0
VISUALSTYLE
  5
35
102
{ACAD_REACTORS
330
2A
102
}
330
2A
100
AcDbVisualStyle
  2
Dim
 70
    11
 71
     2
 72
     2
 73
     0
 90
        0
 40
-0.6
 41
-30.0
 62
     5
 63
     7
 74
     1
 91
        4
 64
     7
 65
   257
 75
     1
175
     1
 42
1.0
 92
        8
 66
     7
 43
1.0
 76
     1
 77
     6
 78
     2
 67
     7
 79
     5
170
     0
171
     0
290
     0
174
     0
 93
        1
 44
-50.0
173
     0
291
     1
 45
0.0
1001
ACAD
1000
AcDbSavedByObjectVersion
1070
     0
  0
VISUALSTYLE
  5
39
102
{ACAD_REACTORS
330
2A
102
}
330
2A
100
AcDbVisualStyle
  2
Facepattern
 70
    15
 71
     2
 72
     2
 73
     0
 90
        0
 40
-0.6
 41
-30.0
 62
     5
 63
     7
 74
     1
 91
        4
 64
     7
 65
   257
 75
     1
175
     1
 42
1.0
 92
        8
 66
     7
 43
1.0
 76
     1
 77
     6
 78
     2
 67
     7
 79
     5
170
     0
171
     0
290
     0
174
     0
 93
        1
 44
0.0
173
     0
291
     1
 45
0.0
1001
ACAD
1000
AcDbSavedByObjectVersion
1070
     0
  0
VISUALSTYLE
  5
2B
102
{ACAD_REACTORS
330
2A
102
}
330
2A
100
AcDbVisualStyle
  2
Flat
 70
     0
 71
     2
 72
     1
 73
     1
 90
        2
 40
-0.6
 41
30.0
 62
     5
 63
     7
 74
     0
 91
        4
 64
     7
 65
   257
 75
     1
175
     1
 42
1.0
 92
        8
 66
     7
 43
1.0
 76
     1
 77
     6
 78
     2
 67
     7
 79
     5
170
     0
171
     0
290
     0
174
     0
 93
       13
 44
0.0
173
     0
291
     1
 45
0.0
1001
ACAD
1000
AcDbSavedByObjectVersion
1070
     0
  0
VISUALSTYLE
  5
2C
102
{ACAD_REACTORS
330
2A
102
}
330
2A
100
AcDbVisualStyle
  2
FlatWithEdges
 70
     1
 71
     2
 72
     1
 73
     1
 90
        2
 40
-0.6
 41
30.0
 62
     5
 63
     7
 74
     1
 91
        4
 64
     7
 65
   257
 75
     1
175
     1
 42
1.0
 92
        0
 66
   257
 43
1.0
 76
     1
 77
     6
 78
     2
 67
     7
 79
     5
170
     0
171
     0
290
     0
174
     0
 93
       13
 44
0.0
173
     0
291
     1
 45
0.0
1001
ACAD
1000
AcDbSavedByObjectVersion
1070
     0
  0
VISUALSTYLE
  5
2D
102
{ACAD_REACTORS
330
2A
102
}
330
2A
100
AcDbVisualStyle
  2
Gouraud
 70
     2
 71
     2
 72
     2
 73
     1
 90
        2
 40
-0.6
 41
30.0
 62
     5
 63
     7
 74
     0
 91
        4
 64
     7
 65
   257
 75
     1
175
     1
 42
1.0
 92
        0
 66
     7
 43
1.0
 76
     1
 77
     6
 78
     2
 67
     7
 79
     5
170
     0
171
     0
290
     0
174
     0
 93
       13
 44
0.0
173
     0
291
     1
 45
0.0
1001
ACAD
1000
AcDbSavedByObjectVersion
1070
     0
  0
VISUALSTYLE
  5
2E
102
{ACAD_REACTORS
330
2A
102
}
330
2A
100
AcDbVisualStyle
  2
GouraudWithEdges
 70
     3
 71
     2
 72
     2
 73
     1
 90
        2
 40
-0.6
 41
30.0
 62
     5
 63
     7
 74
     1
 91
        4
 64
     7
 65
   257
 75
     1
175
     1
 42
1.0
 92
        0
 66
   257
 43
1.0
 76
     1
 77
     6
 78
     2
 67
     7
 79
     5
170
     0
171
     0
290
     0
174
     0
 93
       13
 44
0.0
173
     0
291
     1
 45
0.0
1001
ACAD
1000
AcDbSavedByObjectVersion
1070
     0
  0
VISUALSTYLE
  5
38
102
{ACAD_REACTORS
330
2A
102
}
330
2A
100
AcDbVisualStyle
  2
Linepattern
 70
    14
 71
     2
 72
     2
 73
     0
 90
        0
 40
-0.6
 41
-30.0
 62
     5
 63
     7
 74
     1
 91
        4
 64
     7
 65
   257
 75
     7
175
     7
 42
1.0
 92
        8
 66
     7
 43
1.0
 76
     1
 77
     6
 78
     2
 67
     7
 79
     5
170
     0
171
     0
290
     0
174
     0
 93
        1
 44
0.0
173
     0
291
     1
 45
0.0
1001
ACAD
1000
AcDbSavedByObjectVersion
1070
     0
  0
VISUALSTYLE
  5
33
102
{ACAD_REACTORS
330
2A
102
}
330
2A
100
AcDbVisualStyle
  2
Realistic
 70
     8
 71
     2
 72
     2
 73
     0
 90
        0
 40
-0.6
 41
-30.0
 62
     5
 63
     7
 74
     1
 91
        0
 64
     7
 65
   257
 75
     1
175
     1
 42
1.0
 92
        8
 66
     8
 43
1.0
 76
     1
 77
     6
 78
     2
 67
     7
 79
     5
170
     0
171
     0
290
     0
174
     0
 93
       13
 44
0.0
173
     0
291
     0
 45
0.0
1001
ACAD
1000
AcDbSavedByObjectVersion
1070
     0
  0
VISUALSTYLE
  5
37
102
{ACAD_REACTORS
330
2A
102
}
330
2A
100
AcDbVisualStyle
  2
Thicken
 70
    13
 71
     2
 72
     2
 73
     0
 90
        0
 40
-0.6
 41
-30.0
 62
     5
 63
     7
 74
     1
 91
        4
 64
     7
 65
   257
 75
     1
175
     1
 42
1.0
 92
       12
 66
     7
 43
1.0
 76
     1
 77
     6
 78
     2
 67
     7
 79
     5
170
     0
171
     0
290
     0
174
     0
 93
        1
 44
0.0
173
     0
291
     1
 45
0.0
1001
ACAD
1000
AcDbSavedByObjectVersion
1070
     0
  0
DICTIONARYVAR
  5
3B6
102
{ACAD_REACTORS
330
3B5
102
}
330
3B5
100
DictionaryVariables
280
     0
  1
1:1
  0
DICTIONARYVAR
  5
3BA
102
{ACAD_REACTORS
330
3B5
102
}
330
3B5
100
DictionaryVariables
280
     0
  1
80.000000
  0
DICTIONARYVAR
  5
3B9
102
{ACAD_REACTORS
330
3B5
102
}
330
3B5
100
DictionaryVariables
280
     0
  1
5.000000
  0
ENDSEC
  0
EOF
