  0
SECTION
  2
HEADER
  9
$ACADVER
  1
AC1015
  9
$ACADMAINTVER
 70
     6
  9
$DWGCODEPAGE
  3
ANSI_1252
  9
$INSBASE
 10
0.0
 20
0.0
 30
0.0
  9
$EXTMIN
 10
0.0
 20
0.0
 30
0.0
  9
$EXTMAX
 10
1682.0
 20
2378.0
 30
0.0
  9
$LIMMIN
 10
0.0
 20
0.0
  9
$LIMMAX
 10
1682.0
 20
2378.0
  9
$ORTHOMODE
 70
     0
  9
$REGENMODE
 70
     1
  9
$FILLMODE
 70
     1
  9
$QTEXTMODE
 70
     0
  9
$MIRRTEXT
 70
     1
  9
$LTSCALE
 40
1.0
  9
$ATTMODE
 70
     1
  9
$TEXTSIZE
 40
2.5
  9
$TRACEWID
 40
1.0
  9
$TEXTSTYLE
  7
Standard
  9
$CLAYER
  8
0
  9
$CELTYPE
  6
ByLayer
  9
$CECOLOR
 62
   256
  9
$CELTSCALE
 40
1.0
  9
$DISPSILH
 70
     0
  9
$DIMSCALE
 40
1.0
  9
$DIMASZ
 40
2.5
  9
$DIMEXO
 40
0.625
  9
$DIMDLI
 40
3.75
  9
$DIMRND
 40
0.0
  9
$DIMDLE
 40
0.0
  9
$DIMEXE
 40
1.25
  9
$DIMTP
 40
0.0
  9
$DIMTM
 40
0.0
  9
$DIMTXT
 40
2.5
  9
$DIMCEN
 40
2.5
  9
$DIMTSZ
 40
0.0
  9
$DIMTOL
 70
     0
  9
$DIMLIM
 70
     0
  9
$DIMTIH
 70
     0
  9
$DIMTOH
 70
     0
  9
$DIMSE1
 70
     0
  9
$DIMSE2
 70
     0
  9
$DIMTAD
 70
     1
  9
$DIMZIN
 70
     8
  9
$DIMBLK
  1

  9
$DIMASO
 70
     1
  9
$DIMSHO
 70
     1
  9
$DIMPOST
  1

  9
$DIMAPOST
  1

  9
$DIMALT
 70
     0
  9
$DIMALTD
 70
     3
  9
$DIMALTF
 40
0.0393700787
  9
$DIMLFAC
 40
1.0
  9
$DIMTOFL
 70
     1
  9
$DIMTVP
 40
0.0
  9
$DIMTIX
 70
     0
  9
$DIMSOXD
 70
     0
  9
$DIMSAH
 70
     0
  9
$DIMBLK1
  1

  9
$DIMBLK2
  1

  9
$DIMSTYLE
  2
ISO-25
  9
$DIMCLRD
 70
     0
  9
$DIMCLRE
 70
     0
  9
$DIMCLRT
 70
     0
  9
$DIMTFAC
 40
1.0
  9
$DIMGAP
 40
0.625
  9
$DIMJUST
 70
     0
  9
$DIMSD1
 70
     0
  9
$DIMSD2
 70
     0
  9
$DIMTOLJ
 70
     0
  9
$DIMTZIN
 70
     8
  9
$DIMALTZ
 70
     0
  9
$DIMALTTZ
 70
     0
  9
$DIMUPT
 70
     0
  9
$DIMDEC
 70
     2
  9
$DIMTDEC
 70
     2
  9
$DIMALTU
 70
     2
  9
$DIMALTTD
 70
     3
  9
$DIMTXSTY
  7
Standard
  9
$DIMAUNIT
 70
     0
  9
$DIMADEC
 70
     0
  9
$DIMALTRND
 40
0.0
  9
$DIMAZIN
 70
     0
  9
$DIMDSEP
 70
    44
  9
$DIMATFIT
 70
     3
  9
$DIMFRAC
 70
     0
  9
$DIMLDRBLK
  1

  9
$DIMLUNIT
 70
     2
  9
$DIMLWD
 70
    -2
  9
$DIMLWE
 70
    -2
  9
$DIMTMOVE
 70
     0
  9
$LUNITS
 70
     2
  9
$LUPREC
 70
     4
  9
$SKETCHINC
 40
1.0
  9
$FILLETRAD
 40
10.0
  9
$AUNITS
 70
     0
  9
$AUPREC
 70
     0
  9
$MENU
  1
.
  9
$ELEVATION
 40
0.0
  9
$PELEVATION
 40
0.0
  9
$THICKNESS
 40
0.0
  9
$LIMCHECK
 70
     0
  9
$CHAMFERA
 40
10.0
  9
$CHAMFERB
 40
10.0
  9
$CHAMFERC
 40
20.0
  9
$CHAMFERD
 40
0.0
  9
$SKPOLY
 70
     0
  9
$TDCREATE
 40
2455572.413597593
  9
$TDUCREATE
 40
2455572.371930926
  9
$TDUPDATE
 40
2455572.413597604
  9
$TDUUPDATE
 40
2455572.371930937
  9
$TDINDWG
 40
0.0000000116
  9
$TDUSRTIMER
 40
0.0000000116
  9
$USRTIMER
 70
     1
  9
$ANGBASE
 50
0.0
  9
$ANGDIR
 70
     0
  9
$PDMODE
 70
     0
  9
$PDSIZE
 40
0.0
  9
$PLINEWID
 40
0.0
  9
$SPLFRAME
 70
     0
  9
$SPLINETYPE
 70
     6
  9
$SPLINESEGS
 70
     8
  9
$HANDSEED
  5
28C
  9
$SURFTAB1
 70
     6
  9
$SURFTAB2
 70
     6
  9
$SURFTYPE
 70
     6
  9
$SURFU
 70
     6
  9
$SURFV
 70
     6
  9
$UCSBASE
  2

  9
$UCSNAME
  2

  9
$UCSORG
 10
0.0
 20
0.0
 30
0.0
  9
$UCSXDIR
 10
1.0
 20
0.0
 30
0.0
  9
$UCSYDIR
 10
0.0
 20
1.0
 30
0.0
  9
$UCSORTHOREF
  2

  9
$UCSORTHOVIEW
 70
     0
  9
$UCSORGTOP
 10
0.0
 20
0.0
 30
0.0
  9
$UCSORGBOTTOM
 10
0.0
 20
0.0
 30
0.0
  9
$UCSORGLEFT
 10
0.0
 20
0.0
 30
0.0
  9
$UCSORGRIGHT
 10
0.0
 20
0.0
 30
0.0
  9
$UCSORGFRONT
 10
0.0
 20
0.0
 30
0.0
  9
$UCSORGBACK
 10
0.0
 20
0.0
 30
0.0
  9
$PUCSBASE
  2

  9
$PUCSNAME
  2

  9
$PUCSORG
 10
0.0
 20
0.0
 30
0.0
  9
$PUCSXDIR
 10
1.0
 20
0.0
 30
0.0
  9
$PUCSYDIR
 10
0.0
 20
1.0
 30
0.0
  9
$PUCSORTHOREF
  2

  9
$PUCSORTHOVIEW
 70
     0
  9
$PUCSORGTOP
 10
0.0
 20
0.0
 30
0.0
  9
$PUCSORGBOTTOM
 10
0.0
 20
0.0
 30
0.0
  9
$PUCSORGLEFT
 10
0.0
 20
0.0
 30
0.0
  9
$PUCSORGRIGHT
 10
0.0
 20
0.0
 30
0.0
  9
$PUCSORGFRONT
 10
0.0
 20
0.0
 30
0.0
  9
$PUCSORGBACK
 10
0.0
 20
0.0
 30
0.0
  9
$USERI1
 70
     0
  9
$USERI2
 70
     0
  9
$USERI3
 70
     0
  9
$USERI4
 70
     0
  9
$USERI5
 70
     0
  9
$USERR1
 40
0.0
  9
$USERR2
 40
0.0
  9
$USERR3
 40
0.0
  9
$USERR4
 40
0.0
  9
$USERR5
 40
0.0
  9
$WORLDVIEW
 70
     1
  9
$SHADEDGE
 70
     3
  9
$SHADEDIF
 70
    70
  9
$TILEMODE
 70
     1
  9
$MAXACTVP
 70
    64
  9
$PINSBASE
 10
0.0
 20
0.0
 30
0.0
  9
$PLIMCHECK
 70
     0
  9
$PEXTMIN
 10
0.0
 20
0.0
 30
0.0
  9
$PEXTMAX
 10
1682.0
 20
2378.0
 30
0.0
  9
$PLIMMIN
 10
0.0
 20
0.0
  9
$PLIMMAX
 10
1682.0
 20
2378.0
  9
$UNITMODE
 70
     0
  9
$VISRETAIN
 70
     1
  9
$PLINEGEN
 70
     0
  9
$PSLTSCALE
 70
     1
  9
$TREEDEPTH
 70
  3020
  9
$CMLSTYLE
  2
Standard
  9
$CMLJUST
 70
     0
  9
$CMLSCALE
 40
20.0
  9
$PROXYGRAPHICS
 70
     1
  9
$MEASUREMENT
 70
     1
  9
$CELWEIGHT
370
    -1
  9
$ENDCAPS
280
     0
  9
$JOINSTYLE
280
     0
  9
$LWDISPLAY
290
     0
  9
$INSUNITS
 70
     4
  9
$HYPERLINKBASE
  1

  9
$STYLESHEET
  1

  9
$XEDIT
290
     1
  9
$CEPSNTYPE
380
     0
  9
$PSTYLEMODE
290
     1
  9
$FINGERPRINTGUID
  2
{74E3D2A0-E9B2-4330-9E0A-CD1D03677EF8}
  9
$VERSIONGUID
  2
{FAEB1C32-E019-11D5-929B-00C0DF256EC4}
  9
$EXTNAMES
290
     1
  9
$PSVPSCALE
 40
0.0
  9
$OLESTARTUP
290
     0
  0
ENDSEC
  0
SECTION
  2
CLASSES
  0
CLASS
  1
ACDBDICTIONARYWDFLT
  2
AcDbDictionaryWithDefault
  3
ObjectDBX Classes
 90
        0
280
     0
281
     0
  0
CLASS
  1
VISUALSTYLE
  2
AcDbVisualStyle
  3
ObjectDBX Classes
 90
     4095
280
     0
281
     0
  0
CLASS
  1
SCALE
  2
AcDbScale
  3
ObjectDBX Classes
 90
     1153
280
     0
281
     0
  0
CLASS
  1
DICTIONARYVAR
  2
AcDbDictionaryVar
  3
ObjectDBX Classes
 90
        0
280
     0
281
     0
  0
CLASS
  1
ACDBPLACEHOLDER
  2
AcDbPlaceHolder
  3
ObjectDBX Classes
 90
        0
280
     0
281
     0
  0
CLASS
  1
LAYOUT
  2
AcDbLayout
  3
ObjectDBX Classes
 90
        0
280
     0
281
     0
  0
ENDSEC
  0
SECTION
  2
TABLES
  0
TABLE
  2
VPORT
  5
8
330
0
100
AcDbSymbolTable
 70
     1
  0
VPORT
  5
29
330
8
100
AcDbSymbolTableRecord
100
AcDbViewportTableRecord
  2
*Active
 70
     0
 10
0.0
 20
0.0
 11
1.0
 21
1.0
 12
344.1869158879
 22
148.5
 13
0.0
 23
0.0
 14
10.0
 24
10.0
 15
10.0
 25
10.0
 16
0.0
 26
0.0
 36
1.0
 17
0.0
 27
0.0
 37
0.0
 40
297.0
 41
1.9729729729
 42
50.0
 43
0.0
 44
0.0
 50
0.0
 51
0.0
 71
     0
 72
   100
 73
     1
 74
     3
 75
     0
 76
     0
 77
     0
 78
     0
281
     0
 65
     1
110
0.0
120
0.0
130
0.0
111
1.0
121
0.0
131
0.0
112
0.0
122
1.0
132
0.0
 79
     0
146
0.0
  0
ENDTAB
  0
TABLE
  2
LTYPE
  5
5
330
0
100
AcDbSymbolTable
 70
     2
  0
LTYPE
  5
14
330
5
100
AcDbSymbolTableRecord
100
AcDbLinetypeTableRecord
  2
ByBlock
 70
     0
  3

 72
    65
 73
     0
 40
0.0
  0
LTYPE
  5
15
330
5
100
AcDbSymbolTableRecord
100
AcDbLinetypeTableRecord
  2
ByLayer
 70
     0
  3

 72
    65
 73
     0
 40
0.0
  0
LTYPE
  5
16
330
5
100
AcDbSymbolTableRecord
100
AcDbLinetypeTableRecord
  2
Continuous
 70
     0
  3
Solid line
 72
    65
 73
     0
 40
0.0
  0
LTYPE
  5
63
330
5
100
AcDbSymbolTableRecord
100
AcDbLinetypeTableRecord
  2
CENTER2
 70
     0
  3
Center (.5x) ___ _ ___ _ ___ _ ___ _ ___ _ ___
 72
    65
 73
     4
 40
28.575
 49
19.05
 74
     4
 75
     0
340
0
 46
0.0
 50
0.0
 44
0.0
 45
0.0
 49
-3.175
 74
     4
 75
     0
340
0
 46
0.0
 50
0.0
 44
0.0
 45
0.0
 49
3.175
 74
     4
 75
     0
340
0
 46
0.0
 50
0.0
 44
0.0
 45
0.0
 49
-3.175
 74
     4
 75
     0
340
0
 46
0.0
 50
0.0
 44
0.0
 45
0.0
  0
ENDTAB
  0
TABLE
  2
LAYER
  5
2
330
0
100
AcDbSymbolTable
 70
    11
  0
LAYER
  5
10
330
2
100
AcDbSymbolTableRecord
100
AcDbLayerTableRecord
  2
0
 70
     0
 62
     7
  6
Continuous
370
    -3
390
F
  0
LAYER
  5
5D
330
2
100
AcDbSymbolTableRecord
100
AcDbLayerTableRecord
  2
Default
 70
     0
 62
     7
  6
Continuous
370
    -3
390
F
  0
LAYER
  5
9A
330
2
100
AcDbSymbolTableRecord
100
AcDbLayerTableRecord
  2
$DDT_AUDIT_GENERATED_(9A)
 70
     0
 62
     7
  6
Continuous
370
    -3
390
F
  0
LAYER
  5
A2
330
2
100
AcDbSymbolTableRecord
100
AcDbLayerTableRecord
  2
$DDT_AUDIT_GENERATED_(A2)
 70
     0
 62
     7
  6
Continuous
370
    -3
390
F
  0
LAYER
  5
A5
330
2
100
AcDbSymbolTableRecord
100
AcDbLayerTableRecord
  2
$DDT_AUDIT_GENERATED_(A5)
 70
     0
 62
     7
  6
Continuous
370
    -3
390
F
  0
LAYER
  5
B6
330
2
100
AcDbSymbolTableRecord
100
AcDbLayerTableRecord
  2
$DDT_AUDIT_GENERATED_(B6)
 70
     0
 62
     7
  6
Continuous
370
    -3
390
F
  0
LAYER
  5
C5
330
2
100
AcDbSymbolTableRecord
100
AcDbLayerTableRecord
  2
$DDT_AUDIT_GENERATED_(C5)
 70
     0
 62
     7
  6
Continuous
370
    -3
390
F
  0
LAYER
  5
172
330
2
100
AcDbSymbolTableRecord
100
AcDbLayerTableRecord
  2
$DDT_AUDIT_GENERATED_(172)
 70
     0
 62
     7
  6
Continuous
370
    -3
390
F
  0
LAYER
  5
181
330
2
100
AcDbSymbolTableRecord
100
AcDbLayerTableRecord
  2
$DDT_AUDIT_GENERATED_(181)
 70
     0
 62
     7
  6
Continuous
370
    -3
390
F
  0
LAYER
  5
186
330
2
100
AcDbSymbolTableRecord
100
AcDbLayerTableRecord
  2
$DDT_AUDIT_GENERATED_(186)
 70
     0
 62
     7
  6
Continuous
370
    -3
390
F
  0
LAYER
  5
224
330
2
100
AcDbSymbolTableRecord
100
AcDbLayerTableRecord
  2
$DDT_AUDIT_GENERATED_(224)
 70
     0
 62
     7
  6
Continuous
370
    -3
390
F
  0
ENDTAB
  0
TABLE
  2
STYLE
  5
3
330
0
100
AcDbSymbolTable
 70
     2
  0
STYLE
  5
11
330
3
100
AcDbSymbolTableRecord
100
AcDbTextStyleTableRecord
  2
Standard
 70
     0
 40
0.0
 41
1.0
 50
0.0
 71
     0
 42
2.5
  3
txt
  4

  0
STYLE
  5
27B
330
3
100
AcDbSymbolTableRecord
100
AcDbTextStyleTableRecord
  2
SEACAD_seiso_ttf
 70
     0
 40
0.0
 41
1.0
 50
0.0
 71
     0
 42
0.2
  3
seiso.ttf
  4

  0
ENDTAB
  0
TABLE
  2
VIEW
  5
6
330
0
100
AcDbSymbolTable
 70
     0
  0
ENDTAB
  0
TABLE
  2
UCS
  5
7
330
0
100
AcDbSymbolTable
 70
     0
  0
ENDTAB
  0
TABLE
  2
APPID
  5
9
330
0
100
AcDbSymbolTable
 70
     1
  0
APPID
  5
12
330
9
100
AcDbSymbolTableRecord
100
AcDbRegAppTableRecord
  2
ACAD
 70
     0
  0
ENDTAB
  0
TABLE
  2
DIMSTYLE
  5
A
330
0
100
AcDbSymbolTable
 70
     1
100
AcDbDimStyleTable
  0
DIMSTYLE
105
27
330
A
100
AcDbSymbolTableRecord
100
AcDbDimStyleTableRecord
  2
ISO-25
 70
     0
 41
2.5
 42
0.625
 43
3.75
 44
1.25
 73
     0
 74
     0
 77
     1
 78
     8
140
2.5
141
2.5
143
0.0393700787
147
0.625
171
     3
172
     1
271
     2
272
     2
274
     3
278
    44
283
     0
284
     8
340
11
  0
ENDTAB
  0
TABLE
  2
BLOCK_RECORD
  5
1
330
0
100
AcDbSymbolTable
 70
    11
  0
BLOCK_RECORD
  5
1F
330
1
100
AcDbSymbolTableRecord
100
AcDbBlockTableRecord
  2
*Model_Space
340
22
  0
BLOCK_RECORD
  5
1B
330
1
100
AcDbSymbolTableRecord
100
AcDbBlockTableRecord
  2
*Paper_Space
340
1E
  0
BLOCK_RECORD
  5
61
330
1
100
AcDbSymbolTableRecord
100
AcDbBlockTableRecord
  2
SEANNOT_GROUP
340
0
102
{BLKREFS
331
62
102
}
  0
BLOCK_RECORD
  5
68
330
1
100
AcDbSymbolTableRecord
100
AcDbBlockTableRecord
  2
SEANNOT_GROUP1
340
0
102
{BLKREFS
331
69
102
}
  0
BLOCK_RECORD
  5
6E
330
1
100
AcDbSymbolTableRecord
100
AcDbBlockTableRecord
  2
SEANNOT_GROUP2
340
0
102
{BLKREFS
331
6F
102
}
  0
BLOCK_RECORD
  5
74
330
1
100
AcDbSymbolTableRecord
100
AcDbBlockTableRecord
  2
SEANNOT_GROUP3
340
0
102
{BLKREFS
331
75
102
}
  0
BLOCK_RECORD
  5
7A
330
1
100
AcDbSymbolTableRecord
100
AcDbBlockTableRecord
  2
SEANNOT_GROUP4
340
0
102
{BLKREFS
331
7B
102
}
  0
BLOCK_RECORD
  5
84
330
1
100
AcDbSymbolTableRecord
100
AcDbBlockTableRecord
  2
SEANNOT_GROUP5
340
0
102
{BLKREFS
331
85
102
}
  0
BLOCK_RECORD
  5
8E
330
1
100
AcDbSymbolTableRecord
100
AcDbBlockTableRecord
  2
SEANNOT_GROUP6
340
0
102
{BLKREFS
331
8F
102
}
  0
BLOCK_RECORD
  5
98
330
1
100
AcDbSymbolTableRecord
100
AcDbBlockTableRecord
  2
SE
340
0
102
{BLKREFS
331
99
102
}
  0
BLOCK_RECORD
  5
1D3
330
1
100
AcDbSymbolTableRecord
100
AcDbBlockTableRecord
  2
SE1
340
0
102
{BLKREFS
331
1D4
102
}
  0
BLOCK_RECORD
  5
22C
330
1
100
AcDbSymbolTableRecord
100
AcDbBlockTableRecord
  2
SE2
340
0
102
{BLKREFS
331
22D
102
}
  0
ENDTAB
  0
ENDSEC
  0
SECTION
  2
BLOCKS
  0
BLOCK
  5
20
330
1F
100
AcDbEntity
  8
0
100
AcDbBlockBegin
  2
*Model_Space
 70
     0
 10
0.0
 20
0.0
 30
0.0
  3
*Model_Space
  1

  0
ENDBLK
  5
21
330
1F
100
AcDbEntity
  8
0
100
AcDbBlockEnd
  0
BLOCK
  5
1C
330
1B
100
AcDbEntity
 67
     1
  8
0
100
AcDbBlockBegin
  2
*Paper_Space
 70
     0
 10
0.0
 20
0.0
 30
0.0
  3
*Paper_Space
  1

  0
ENDBLK
  5
1D
330
1B
100
AcDbEntity
 67
     1
  8
0
100
AcDbBlockEnd
  0
BLOCK
  5
66
330
61
100
AcDbEntity
  8
0
100
AcDbBlockBegin
  2
SEANNOT_GROUP
 70
     0
 10
0.0
 20
0.0
 30
0.0
  3
SEANNOT_GROUP
  1

  0
LINE
  5
64
330
61
100
AcDbEntity
  8
Default
  6
CENTER2
 62
     7
100
AcDbLine
 10
454.9795456481
 20
374.0502369519
 30
0.0
 11
414.9795465422
 21
374.0502369519
 31
0.0
  0
LINE
  5
65
330
61
100
AcDbEntity
  8
Default
  6
CENTER2
 62
     7
100
AcDbLine
 10
434.9795460951
 20
394.0502365048
 30
0.0
 11
434.9795460951
 21
354.0502373989
 31
0.0
  0
ENDBLK
  5
67
330
61
100
AcDbEntity
  8
0
100
AcDbBlockEnd
  0
BLOCK
  5
6C
330
68
100
AcDbEntity
  8
0
100
AcDbBlockBegin
  2
SEANNOT_GROUP1
 70
     0
 10
0.0
 20
0.0
 30
0.0
  3
SEANNOT_GROUP1
  1

  0
LINE
  5
6A
330
68
100
AcDbEntity
  8
Default
  6
CENTER2
 62
     7
100
AcDbLine
 10
297.47811649
 20
374.0502369519
 30
0.0
 11
257.478117384
 21
374.0502369519
 31
0.0
  0
LINE
  5
6B
330
68
100
AcDbEntity
  8
Default
  6
CENTER2
 62
     7
100
AcDbLine
 10
277.478116937
 20
394.0502365048
 30
0.0
 11
277.478116937
 21
354.0502373989
 31
0.0
  0
ENDBLK
  5
6D
330
68
100
AcDbEntity
  8
0
100
AcDbBlockEnd
  0
BLOCK
  5
72
330
6E
100
AcDbEntity
  8
0
100
AcDbBlockBegin
  2
SEANNOT_GROUP2
 70
     0
 10
0.0
 20
0.0
 30
0.0
  3
SEANNOT_GROUP2
  1

  0
LINE
  5
70
330
6E
100
AcDbEntity
  8
Default
  6
CENTER2
 62
     7
100
AcDbLine
 10
197.504974209
 20
374.0502369519
 30
0.0
 11
157.5049751031
 21
374.0502369519
 31
0.0
  0
LINE
  5
71
330
6E
100
AcDbEntity
  8
Default
  6
CENTER2
 62
     7
100
AcDbLine
 10
177.5049746561
 20
394.0502365048
 30
0.0
 11
177.5049746561
 21
354.0502373989
 31
0.0
  0
ENDBLK
  5
73
330
6E
100
AcDbEntity
  8
0
100
AcDbBlockEnd
  0
BLOCK
  5
78
330
74
100
AcDbEntity
  8
0
100
AcDbBlockBegin
  2
SEANNOT_GROUP3
 70
     0
 10
0.0
 20
0.0
 30
0.0
  3
SEANNOT_GROUP3
  1

  0
LINE
  5
76
330
74
100
AcDbEntity
  8
Default
  6
CENTER2
 62
     7
100
AcDbLine
 10
97.47811649
 20
374.0502369519
 30
0.0
 11
57.478117384
 21
374.0502369519
 31
0.0
  0
LINE
  5
77
330
74
100
AcDbEntity
  8
Default
  6
CENTER2
 62
     7
100
AcDbLine
 10
77.478116937
 20
394.0502365048
 30
0.0
 11
77.478116937
 21
354.0502373989
 31
0.0
  0
ENDBLK
  5
79
330
74
100
AcDbEntity
  8
0
100
AcDbBlockEnd
  0
BLOCK
  5
82
330
7A
100
AcDbEntity
  8
0
100
AcDbBlockBegin
  2
SEANNOT_GROUP4
 70
     0
 10
0.0
 20
0.0
 30
0.0
  3
SEANNOT_GROUP4
  1

  0
LINE
  5
7C
330
7A
100
AcDbEntity
  8
Default
  6
CENTER2
 62
     7
100
AcDbLine
 10
97.5409218478
 20
270.4015598803
 30
0.0
 11
57.5409227419
 21
270.4015598803
 31
0.0
  0
LINE
  5
7D
330
7A
100
AcDbEntity
  8
Default
  6
CENTER2
 62
     7
100
AcDbLine
 10
77.5409222949
 20
290.4015594332
 30
0.0
 11
77.5409222949
 21
250.4015603273
 31
0.0
  0
LINE
  5
7E
330
7A
100
AcDbEntity
  8
Default
  6
CENTER2
 62
     7
100
AcDbLine
 10
102.5409217361
 20
270.4015598803
 30
0.0
 11
99.2138360592
 21
270.4015598803
 31
0.0
  0
LINE
  5
7F
330
7A
100
AcDbEntity
  8
Default
  6
CENTER2
 62
     7
100
AcDbLine
 10
77.5409222949
 20
295.4015593215
 30
0.0
 11
77.5409222949
 21
292.0744736446
 31
0.0
  0
LINE
  5
80
330
7A
100
AcDbEntity
  8
Default
  6
CENTER2
 62
     7
100
AcDbLine
 10
52.5409228537
 20
270.4015598803
 30
0.0
 11
55.8680085305
 21
270.4015598803
 31
0.0
  0
LINE
  5
81
330
7A
100
AcDbEntity
  8
Default
  6
CENTER2
 62
     7
100
AcDbLine
 10
77.5409222949
 20
245.4015604391
 30
0.0
 11
77.5409222949
 21
248.7286461159
 31
0.0
  0
ENDBLK
  5
83
330
7A
100
AcDbEntity
  8
0
100
AcDbBlockEnd
  0
BLOCK
  5
8C
330
84
100
AcDbEntity
  8
0
100
AcDbBlockBegin
  2
SEANNOT_GROUP5
 70
     0
 10
0.0
 20
0.0
 30
0.0
  3
SEANNOT_GROUP5
  1

  0
LINE
  5
86
330
84
100
AcDbEntity
  8
Default
  6
CENTER2
 62
     7
100
AcDbLine
 10
197.4915453495
 20
270.401852612
 30
0.0
 11
157.4915462436
 21
270.401852612
 31
0.0
  0
LINE
  5
87
330
84
100
AcDbEntity
  8
Default
  6
CENTER2
 62
     7
100
AcDbLine
 10
177.4915457965
 20
290.401852165
 30
0.0
 11
177.4915457965
 21
250.4018530591
 31
0.0
  0
LINE
  5
88
330
84
100
AcDbEntity
  8
Default
  6
CENTER2
 62
     7
100
AcDbLine
 10
202.4915452377
 20
270.401852612
 30
0.0
 11
192.4915457965
 21
270.401852612
 31
0.0
  0
LINE
  5
89
330
84
100
AcDbEntity
  8
Default
  6
CENTER2
 62
     7
100
AcDbLine
 10
177.4915457965
 20
295.4018520532
 30
0.0
 11
177.4915457965
 21
285.401852612
 31
0.0
  0
LINE
  5
8A
330
84
100
AcDbEntity
  8
Default
  6
CENTER2
 62
     7
100
AcDbLine
 10
152.4915463553
 20
270.401852612
 30
0.0
 11
162.4915457965
 21
270.401852612
 31
0.0
  0
LINE
  5
8B
330
84
100
AcDbEntity
  8
Default
  6
CENTER2
 62
     7
100
AcDbLine
 10
177.4915457965
 20
245.4018531708
 30
0.0
 11
177.4915457965
 21
255.401852612
 31
0.0
  0
ENDBLK
  5
8D
330
84
100
AcDbEntity
  8
0
100
AcDbBlockEnd
  0
BLOCK
  5
96
330
8E
100
AcDbEntity
  8
0
100
AcDbBlockBegin
  2
SEANNOT_GROUP6
 70
     0
 10
0.0
 20
0.0
 30
0.0
  3
SEANNOT_GROUP6
  1

  0
LINE
  5
90
330
8E
100
AcDbEntity
  8
Default
  6
CENTER2
 62
     7
100
AcDbLine
 10
297.3900032143
 20
270.4272716547
 30
0.0
 11
257.3900041084
 21
270.4272716547
 31
0.0
  0
LINE
  5
91
330
8E
100
AcDbEntity
  8
Default
  6
CENTER2
 62
     7
100
AcDbLine
 10
277.3900036613
 20
290.4272712076
 30
0.0
 11
277.3900036613
 21
250.4272721017
 31
0.0
  0
LINE
  5
92
330
8E
100
AcDbEntity
  8
Default
  6
CENTER2
 62
     7
100
AcDbLine
 10
302.3900031025
 20
270.4272716547
 30
0.0
 11
297.5480030994
 21
270.4272716547
 31
0.0
  0
LINE
  5
93
330
8E
100
AcDbEntity
  8
Default
  6
CENTER2
 62
     7
100
AcDbLine
 10
277.3900036613
 20
295.4272710959
 30
0.0
 11
277.3900036613
 21
290.5852710927
 31
0.0
  0
LINE
  5
94
330
8E
100
AcDbEntity
  8
Default
  6
CENTER2
 62
     7
100
AcDbLine
 10
252.3900042201
 20
270.4272716547
 30
0.0
 11
257.2320042233
 21
270.4272716547
 31
0.0
  0
LINE
  5
95
330
8E
100
AcDbEntity
  8
Default
  6
CENTER2
 62
     7
100
AcDbLine
 10
277.3900036613
 20
245.4272722135
 30
0.0
 11
277.3900036613
 21
250.2692722166
 31
0.0
  0
ENDBLK
  5
97
330
8E
100
AcDbEntity
  8
0
100
AcDbBlockEnd
  0
BLOCK
  5
1D1
330
98
100
AcDbEntity
  8
0
100
AcDbBlockBegin
  2
SE
 70
     0
 10
0.0
 20
0.0
 30
0.0
  3
SE
  1

  0
LINE
  5
9B
330
98
100
AcDbEntity
  8
$DDT_AUDIT_GENERATED_(9A)
  6
Continuous
 62
     7
100
AcDbLine
 10
204.9970238656
 20
374.0502369519
 30
0.0
 11
150.0129254466
 21
374.0502369519
 31
0.0
  0
LINE
  5
9C
330
98
100
AcDbEntity
  8
$DDT_AUDIT_GENERATED_(9A)
  6
Continuous
 62
     7
100
AcDbLine
 10
150.0131577
 20
379.050236937
 30
0.0
 11
204.9968087318
 21
379.050236937
 31
0.0
  0
LINE
  5
9D
330
98
100
AcDbEntity
  8
$DDT_AUDIT_GENERATED_(9A)
  6
Continuous
 62
     7
100
AcDbLine
 10
203.9968295437
 20
380.0502369519
 30
0.0
 11
151.0131252956
 21
380.0502369519
 31
0.0
  0
LINE
  5
9E
330
98
100
AcDbEntity
  8
$DDT_AUDIT_GENERATED_(9A)
  6
Continuous
 62
     7
100
AcDbLine
 10
204.9970239675
 20
374.0502369519
 30
0.0
 11
204.9970239675
 21
379.050236937
 31
0.0
  0
LINE
  5
9F
330
98
100
AcDbEntity
  8
$DDT_AUDIT_GENERATED_(9A)
  6
Continuous
 62
     7
100
AcDbLine
 10
150.0129252814
 20
379.050236937
 30
0.0
 11
150.0129252814
 21
374.0502369519
 31
0.0
  0
ARC
  5
A0
330
98
100
AcDbEntity
  8
$DDT_AUDIT_GENERATED_(9A)
  6
Continuous
 62
     7
100
AcDbCircle
 10
203.9971435184
 20
379.0505717577
 30
0.0
 40
0.9996652691797868
100
AcDbArc
 50
359.9808097583
 51
90.022203444
  0
ARC
  5
A1
330
98
100
AcDbEntity
  8
$DDT_AUDIT_GENERATED_(9A)
  6
Continuous
 62
     7
100
AcDbCircle
 10
151.0128220902
 20
379.050572581
 30
0.0
 40
0.9996644460684764
100
AcDbArc
 50
89.977770298
 51
180.0192374443
  0
ARC
  5
A3
330
98
100
AcDbEntity
  8
$DDT_AUDIT_GENERATED_(A2)
  6
Continuous
 62
     7
100
AcDbCircle
 10
168.0415457965
 20
379.7502369519
 30
0.0
 40
0.3000000000000008
100
AcDbArc
 50
41.8103148958
 51
90.0
  0
ARC
  5
A4
330
98
100
AcDbEntity
  8
$DDT_AUDIT_GENERATED_(A2)
  6
Continuous
 62
     7
100
AcDbCircle
 10
186.9415457965
 20
379.7502369519
 30
0.0
 40
0.2999999999999999
100
AcDbArc
 50
90.0
 51
138.1896851042
  0
ELLIPSE
  5
A6
330
98
100
AcDbEntity
  8
$DDT_AUDIT_GENERATED_(A5)
  6
Continuous
 62
     7
100
AcDbEllipse
 10
177.4915457965
 20
560.8898115117
 30
0.0
 11
-10.99999999999995
 21
0.0
 31
0.0
210
0.0
220
0.0
230
1.0
 40
0.1736481777
 41
3.141592653589793
 42
6.283185307179586
  0
ELLIPSE
  5
A7
330
98
100
AcDbEntity
  8
$DDT_AUDIT_GENERATED_(A5)
  6
Continuous
 62
     7
100
AcDbEllipse
 10
177.4915457965
 20
562.1925897135
 30
0.0
 11
-11.49999999999981
 21
0.0
 31
0.0
210
0.0
220
0.0
230
1.0
 40
0.1736481777
 41
3.141129232279724
 42
6.283185307179586
  0
ELLIPSE
  5
A8
330
98
100
AcDbEntity
  8
$DDT_AUDIT_GENERATED_(A5)
  6
Continuous
 62
     7
100
AcDbEllipse
 10
177.4915457965
 20
562.1925897135
 30
0.0
 11
-11.49999999999981
 21
0.0
 31
0.0
210
0.0
220
0.0
230
1.0
 40
0.1736481777
 41
0.0
 42
0.001570477992771
  0
ARC
  5
A9
330
98
100
AcDbEntity
  8
$DDT_AUDIT_GENERATED_(A5)
  6
Continuous
 62
     7
100
AcDbCircle
 10
177.4915457965
 20
627.7902369517
 30
0.0
 40
11.50000000000001
100
AcDbArc
 50
0.0
 51
180.0
  0
LINE
  5
AA
330
98
100
AcDbEntity
  8
$DDT_AUDIT_GENERATED_(A5)
  6
Continuous
 62
     7
100
AcDbLine
 10
165.9915457965
 20
562.1925897135
 30
0.0
 11
165.9915457965
 21
560.2319243052
 31
0.0
  0
LINE
  5
AB
330
98
100
AcDbEntity
  8
$DDT_AUDIT_GENERATED_(A5)
  6
Continuous
 62
     7
100
AcDbLine
 10
165.9915457965
 20
627.7902369517
 30
0.0
 11
165.9915457965
 21
565.8138502767
 31
0.0
  0
LINE
  5
AC
330
98
100
AcDbEntity
  8
$DDT_AUDIT_GENERATED_(A5)
  6
Continuous
 62
     7
100
AcDbLine
 10
188.9915457965
 20
565.8138502767
 30
0.0
 11
188.9915457965
 21
627.7902369517
 31
0.0
  0
LINE
  5
AD
330
98
100
AcDbEntity
  8
$DDT_AUDIT_GENERATED_(A5)
  6
Continuous
 62
     7
100
AcDbLine
 10
188.9915457965
 20
560.2319243052
 30
0.0
 11
188.9915457965
 21
562.1925897135
 31
0.0
  0
LINE
  5
AE
330
98
100
AcDbEntity
  8
$DDT_AUDIT_GENERATED_(A5)
  6
Continuous
 62
     7
100
AcDbLine
 10
188.9915457965
 20
380.0502369519
 30
0.0
 11
188.9915457965
 21
544.0082395729
 31
0.0
  0
LINE
  5
AF
330
98
100
AcDbEntity
  8
$DDT_AUDIT_GENERATED_(A5)
  6
Continuous
 62
     7
100
AcDbLine
 10
165.9915457965
 20
544.0272368437
 30
0.0
 11
165.9915457965
 21
380.0502369519
 31
0.0
  0
LINE
  5
B0
330
98
100
AcDbEntity
  8
$DDT_AUDIT_GENERATED_(A5)
  6
Continuous
 62
     7
100
AcDbLine
 10
165.9915457965
 20
565.8138502767
 30
0.0
 11
165.9915457965
 21
562.1925897135
 31
0.0
  0
LINE
  5
B1
330
98
100
AcDbEntity
  8
$DDT_AUDIT_GENERATED_(A5)
  6
Continuous
 62
     7
100
AcDbLine
 10
188.9915457965
 20
562.1925897135
 30
0.0
 11
188.9915457965
 21
565.8138502767
 31
0.0
  0
LINE
  5
B2
330
98
100
AcDbEntity
  8
$DDT_AUDIT_GENERATED_(A5)
  6
Continuous
 62
     7
100
AcDbLine
 10
166.4915457965
 20
560.8898115117
 30
0.0
 11
166.4915457965
 21
560.6872873213
 31
0.0
  0
LINE
  5
B3
330
98
100
AcDbEntity
  8
$DDT_AUDIT_GENERATED_(A5)
  6
Continuous
 62
     7
100
AcDbLine
 10
188.4915457965
 20
560.6872873213
 30
0.0
 11
188.4915457965
 21
560.8898115117
 31
0.0
  0
ARC
  5
B4
330
98
100
AcDbEntity
  8
$DDT_AUDIT_GENERATED_(A5)
  6
Continuous
 62
     7
100
AcDbCircle
 10
168.2806882718
 20
562.164665271
 30
0.0
 40
2.279688585192102
100
AcDbArc
 50
179.7338274917
 51
217.9373885038
  0
ARC
  5
B5
330
98
100
AcDbEntity
  8
$DDT_AUDIT_GENERATED_(A5)
  6
Continuous
 62
     7
100
AcDbCircle
 10
186.7926612943
 20
562.1088308436
 30
0.0
 40
2.17628383066822
100
AcDbArc
 50
321.7564457142
 51
2.0791060446
  0
ELLIPSE
  5
B7
330
98
100
AcDbEntity
  8
$DDT_AUDIT_GENERATED_(B6)
  6
Continuous
 62
     7
100
AcDbEllipse
 10
177.4915457965
 20
543.4094738957
 30
0.0
 11
-10.075
 21
2.775557561562891E-14
 31
0.0
210
0.0
220
0.0
230
1.0
 40
0.1736481777
 41
0.0000000000000159
 42
0.9077472441161395
  0
ELLIPSE
  5
B8
330
98
100
AcDbEntity
  8
$DDT_AUDIT_GENERATED_(B6)
  6
Continuous
 62
     7
100
AcDbEllipse
 10
177.4915457965
 20
543.4094738957
 30
0.0
 11
-10.075
 21
2.775557561562891E-14
 31
0.0
210
0.0
220
0.0
230
1.0
 40
0.1736481777
 41
2.233845409473658
 42
6.283185307179586
  0
ELLIPSE
  5
B9
330
98
100
AcDbEntity
  8
$DDT_AUDIT_GENERATED_(B6)
  6
Continuous
 62
     7
100
AcDbEllipse
 10
177.4915457965
 20
543.4094738957
 30
0.0
 11
10.575
 21
0.0
 31
0.0
210
0.0
220
0.0
230
1.0
 40
0.1736481777
 41
0.0
 42
0.4961349559459254
  0
ELLIPSE
  5
BA
330
98
100
AcDbEntity
  8
$DDT_AUDIT_GENERATED_(B6)
  6
Continuous
 62
     7
100
AcDbEllipse
 10
177.4915457965
 20
543.4094738957
 30
0.0
 11
10.575
 21
0.0
 31
0.0
210
0.0
220
0.0
230
1.0
 40
0.1736481777
 41
0.4961349559459254
 42
2.679864669878025
  0
ELLIPSE
  5
BB
330
98
100
AcDbEntity
  8
$DDT_AUDIT_GENERATED_(B6)
  6
Continuous
 62
     7
100
AcDbEllipse
 10
177.4915457965
 20
543.4094738957
 30
0.0
 11
10.575
 21
0.0
 31
0.0
210
0.0
220
0.0
230
1.0
 40
0.1736481777
 41
2.679864669878025
 42
3.803860641786886
  0
ELLIPSE
  5
BC
330
98
100
AcDbEntity
  8
$DDT_AUDIT_GENERATED_(B6)
  6
Continuous
 62
     7
100
AcDbEllipse
 10
177.4915457965
 20
543.4094738957
 30
0.0
 11
10.575
 21
0.0
 31
0.0
210
0.0
220
0.0
230
1.0
 40
0.1736481777
 41
3.803860641786886
 42
5.717915768922877
  0
ELLIPSE
  5
BD
330
98
100
AcDbEntity
  8
$DDT_AUDIT_GENERATED_(B6)
  6
Continuous
 62
     7
100
AcDbEllipse
 10
177.4915457965
 20
543.4094738957
 30
0.0
 11
10.575
 21
0.0
 31
0.0
210
0.0
220
0.0
230
1.0
 40
0.1736481777
 41
5.717915768922877
 42
6.283185307179586
  0
ELLIPSE
  5
BE
330
98
100
AcDbEntity
  8
$DDT_AUDIT_GENERATED_(B6)
  6
Continuous
 62
     7
100
AcDbEllipse
 10
177.4915457965
 20
544.3942816487
 30
0.0
 11
11.575
 21
0.0
 31
0.0
210
0.0
220
0.0
230
1.0
 40
0.1736481777
 41
0.0014214367892955
 42
3.147806850750001
  0
ELLIPSE
  5
BF
330
98
100
AcDbEntity
  8
$DDT_AUDIT_GENERATED_(B6)
  6
Continuous
 62
     7
100
AcDbEllipse
 10
177.4915457965
 20
560.0034845339
 30
0.0
 11
-11.575
 21
0.0
 31
0.0
210
0.0
220
0.0
230
1.0
 40
0.1736481777
 41
3.141592653589793
 42
6.283185307179586
  0
ELLIPSE
  5
C0
330
98
100
AcDbEntity
  8
$DDT_AUDIT_GENERATED_(B6)
  6
Continuous
 62
     7
100
AcDbEllipse
 10
177.4915457965
 20
560.1512056969
 30
0.0
 11
11.425
 21
0.0
 31
0.0
210
0.0
220
0.0
230
1.0
 40
0.1736481777
 41
0.1407190228632474
 42
3.000873630726546
  0
LINE
  5
C1
330
98
100
AcDbEntity
  8
$DDT_AUDIT_GENERATED_(B6)
  6
Continuous
 62
     7
100
AcDbLine
 10
189.0665457965
 20
544.3942816487
 30
0.0
 11
189.0665457965
 21
560.0034845339
 31
0.0
  0
LINE
  5
C2
330
98
100
AcDbEntity
  8
$DDT_AUDIT_GENERATED_(B6)
  6
Continuous
 62
     7
100
AcDbLine
 10
165.9165457965
 20
560.0034845339
 30
0.0
 11
165.9165457965
 21
544.3942816487
 31
0.0
  0
SPLINE
  5
C3
330
98
100
AcDbEntity
  8
$DDT_AUDIT_GENERATED_(B6)
  6
Continuous
 62
     7
100
AcDbSpline
210
0.0
220
0.0
230
1.0
 70
     8
 71
     3
 72
    13
 73
     9
 74
     0
 42
0.0000000030879439
 43
0.0000000001
 40
0.0
 40
0.0
 40
0.0
 40
0.0
 40
0.1011618390112644
 40
0.3799004143555674
 40
0.6107451337876457
 40
0.7716476342086387
 40
0.9209795056543498
 40
1.0
 40
1.0
 40
1.0
 40
1.0
 10
186.789715387049
 20
542.4861346650245
 30
0.0
 10
186.9255771450335
 20
542.5216284649048
 30
0.0
 10
187.359912988439
 20
542.6370173566453
 30
0.0
 10
187.9371291138228
 20
542.8806128146534
 30
0.0
 10
188.4714844828868
 20
543.2075706656549
 30
0.0
 10
188.8384495680966
 20
543.6003731410891
 30
0.0
 10
189.0579130849116
 20
544.0333104556618
 30
0.0
 10
189.0448221634564
 20
544.2973860074756
 30
0.0
 10
189.0389309249409
 20
544.4055103262403
 30
0.0
  0
SPLINE
  5
C4
330
98
100
AcDbEntity
  8
$DDT_AUDIT_GENERATED_(B6)
  6
Continuous
 62
     7
100
AcDbSpline
210
0.0
220
0.0
230
1.0
 70
     8
 71
     3
 72
    13
 73
     9
 74
     0
 42
0.0000000026258591
 43
0.0000000001
 40
0.0
 40
0.0
 40
0.0
 40
0.0
 40
0.1123174225494507
 40
0.2405956384047691
 40
0.3816921331282714
 40
0.5644498122092517
 40
0.8150214745094566
 40
1.0
 40
1.0
 40
1.0
 40
1.0
 10
165.9347216166834
 20
544.3518667278656
 30
0.0
 10
165.9519896123061
 20
544.175362771677
 30
0.0
 10
165.9852740950298
 20
543.8576626484125
 30
0.0
 10
166.2736128203395
 20
543.4417242011684
 30
0.0
 10
166.6470355397675
 20
543.1153169014871
 30
0.0
 10
167.1902467631922
 20
542.8116668207401
 30
0.0
 10
167.9075068728197
 20
542.5424174789667
 30
0.0
 10
168.502175485111
 20
542.3961373326661
 30
0.0
 10
168.8023206630207
 20
542.3245324080076
 30
0.0
  0
ELLIPSE
  5
C6
330
98
100
AcDbEntity
  8
$DDT_AUDIT_GENERATED_(C5)
  6
Continuous
 62
     7
100
AcDbEllipse
 10
177.4915457965
 20
543.1632719574
 30
0.0
 11
-9.0
 21
0.0
 31
0.0
210
0.0
220
0.0
230
1.0
 40
0.1736481777
 41
0.0
 42
6.283185307179586
  0
ELLIPSE
  5
C7
330
98
100
AcDbEntity
  8
$DDT_AUDIT_GENERATED_(C5)
  6
Continuous
 62
     7
100
AcDbEllipse
 10
177.4915457965
 20
543.1632719574
 30
0.0
 11
-5.249999999999997
 21
0.0
 31
0.0
210
0.0
220
0.0
230
1.0
 40
0.1736481777
 41
0.0
 42
6.283185307179586
  0
ELLIPSE
  5
C8
330
98
100
AcDbEntity
  8
$DDT_AUDIT_GENERATED_(C5)
  6
Continuous
 62
     7
100
AcDbEllipse
 10
177.4915457965
 20
543.1632719574
 30
0.0
 11
6.25
 21
0.0
 31
0.0
210
0.0
220
0.0
230
1.0
 40
0.1736481777
 41
0.0
 42
6.283185307179586
  0
ELLIPSE
  5
C9
330
98
100
AcDbEntity
  8
$DDT_AUDIT_GENERATED_(C5)
  6
Continuous
 62
     7
100
AcDbEllipse
 10
177.4915457965
 20
543.1632719574
 30
0.0
 11
2.750000000000003
 21
0.0
 31
0.0
210
0.0
220
0.0
230
1.0
 40
0.1736481777
 41
0.0
 42
6.283185307179586
  0
ELLIPSE
  5
CA
330
98
100
AcDbEntity
  8
$DDT_AUDIT_GENERATED_(C5)
  6
Continuous
 62
     7
100
AcDbEllipse
 10
177.4915457965
 20
543.1632719574
 30
0.0
 11
2.15
 21
0.0
 31
0.0
210
0.0
220
0.0
230
1.0
 40
0.1736481777
 41
0.0
 42
6.283185307179586
  0
ELLIPSE
  5
CB
330
98
100
AcDbEntity
  8
$DDT_AUDIT_GENERATED_(C5)
  6
Continuous
 62
     7
100
AcDbEllipse
 10
177.4915457965
 20
543.360233508
 30
0.0
 11
0.5196299438963559
 21
0.0
 31
0.0
210
0.0
220
0.0
230
1.0
 40
0.1736481777
 41
0.0
 42
6.283185307179586
  0
ELLIPSE
  5
CC
330
98
100
AcDbEntity
  8
$DDT_AUDIT_GENERATED_(C5)
  6
Continuous
 62
     7
100
AcDbEllipse
 10
177.4915457965
 20
543.1632719574
 30
0.0
 11
8.700000000000003
 21
0.0
 31
0.0
210
0.0
220
0.0
230
1.0
 40
0.1736481777
 41
0.0
 42
6.283185307179586
  0
ARC
  5
CD
330
98
100
AcDbEntity
  8
$DDT_AUDIT_GENERATED_(C5)
  6
Continuous
 62
     7
100
AcDbCircle
 10
177.4915457965
 20
508.4576874832
 30
0.0
 40
35.98784714392363
100
AcDbArc
 50
89.8407911065
 51
90.1592088935
  0
LINE
  5
CE
330
98
100
AcDbEntity
  8
$DDT_AUDIT_GENERATED_(C5)
  6
Continuous
 62
     7
100
AcDbLine
 10
177.5915457965
 20
544.445395691
 30
0.0
 11
177.5915457965
 21
544.673911302
 31
0.0
  0
LINE
  5
CF
330
98
100
AcDbEntity
  8
$DDT_AUDIT_GENERATED_(C5)
  6
Continuous
 62
     7
100
AcDbLine
 10
177.3915457965
 20
544.445395691
 30
0.0
 11
177.3915457965
 21
544.673911302
 31
0.0
  0
LINE
  5
D0
330
98
100
AcDbEntity
  8
$DDT_AUDIT_GENERATED_(C5)
  6
Continuous
 62
     7
100
AcDbLine
 10
179.2158699974
 20
543.380773077
 30
0.0
 11
178.0111757404
 21
543.5015506902
 31
0.0
  0
LINE
  5
D1
330
98
100
AcDbEntity
  8
$DDT_AUDIT_GENERATED_(C5)
  6
Continuous
 62
     7
100
AcDbLine
 10
175.7672215956
 20
543.380773077
 30
0.0
 11
176.9719158526
 21
543.5015506902
 31
0.0
  0
ELLIPSE
  5
D2
330
98
100
AcDbEntity
  8
$DDT_AUDIT_GENERATED_(C5)
  6
Continuous
 62
     7
100
AcDbEllipse
 10
177.4915457814
 20
543.3602334982
 30
0.0
 11
6.250000031219251
 21
2.625122341726183E-9
 31
0.0
210
0.0
220
0.0
230
1.0
 40
0.1736481784
 41
1.292996255083728
 42
1.324997620424486
  0
LINE
  5
D3
330
98
100
AcDbEntity
  8
$DDT_AUDIT_GENERATED_(C5)
  6
Continuous
 62
     7
100
AcDbLine
 10
179.2055503426
 20
544.4039253407
 30
0.0
 11
179.5557425843
 21
544.6308722633
 31
0.0
  0
LINE
  5
D4
330
98
100
AcDbEntity
  8
$DDT_AUDIT_GENERATED_(C5)
  6
Continuous
 62
     7
100
AcDbLine
 10
179.0123651773
 20
544.4129140318
 30
0.0
 11
179.3608096237
 21
544.6387282714
 31
0.0
  0
LINE
  5
D5
330
98
100
AcDbEntity
  8
$DDT_AUDIT_GENERATED_(C5)
  6
Continuous
 62
     7
100
AcDbLine
 10
179.0123651773
 20
544.4129140318
 30
0.0
 11
179.0123651773
 21
544.6507498737
 31
0.0
  0
ELLIPSE
  5
D6
330
98
100
AcDbEntity
  8
$DDT_AUDIT_GENERATED_(C5)
  6
Continuous
 62
     7
100
AcDbEllipse
 10
177.4915457601
 20
543.360233497
 30
0.0
 11
6.250000045639071
 21
5.655947932226013E-9
 31
0.0
210
0.0
220
0.0
230
1.0
 40
0.1736481782
 41
1.031196865864024
 42
1.063198231167605
  0
LINE
  5
D7
330
98
100
AcDbEntity
  8
$DDT_AUDIT_GENERATED_(C5)
  6
Continuous
 62
     7
100
AcDbLine
 10
180.7027483113
 20
544.2913291168
 30
0.0
 11
181.4307260323
 21
544.5102811316
 31
0.0
  0
LINE
  5
D8
330
98
100
AcDbEntity
  8
$DDT_AUDIT_GENERATED_(C5)
  6
Continuous
 62
     7
100
AcDbLine
 10
180.5295432306
 20
544.3086939346
 30
0.0
 11
181.2509879071
 21
544.5256810221
 31
0.0
  0
LINE
  5
D9
330
98
100
AcDbEntity
  8
$DDT_AUDIT_GENERATED_(C5)
  6
Continuous
 62
     7
100
AcDbLine
 10
180.5295432306
 20
544.3086939346
 30
0.0
 11
180.5295432306
 21
544.578910134
 31
0.0
  0
ELLIPSE
  5
DA
330
98
100
AcDbEntity
  8
$DDT_AUDIT_GENERATED_(C5)
  6
Continuous
 62
     7
100
AcDbEllipse
 10
177.4915457558
 20
543.3602335009
 30
0.0
 11
6.250000043202332
 21
5.194039642830717E-9
 31
0.0
210
0.0
220
0.0
230
1.0
 40
0.1736481777
 41
0.7693974782772318
 42
0.8013988436203878
  0
LINE
  5
DB
330
98
100
AcDbEntity
  8
$DDT_AUDIT_GENERATED_(C5)
  6
Continuous
 62
     7
100
AcDbLine
 10
181.9811081354
 20
544.1152802659
 30
0.0
 11
183.1268955471
 21
544.3142441619
 31
0.0
  0
LINE
  5
DC
330
98
100
AcDbEntity
  8
$DDT_AUDIT_GENERATED_(C5)
  6
Continuous
 62
     7
100
AcDbLine
 10
181.8396867792
 20
544.1398378267
 30
0.0
 11
182.972380125
 21
544.3365279621
 31
0.0
  0
LINE
  5
DD
330
98
100
AcDbEntity
  8
$DDT_AUDIT_GENERATED_(C5)
  6
Continuous
 62
     7
100
AcDbLine
 10
181.8396867792
 20
544.1398378267
 30
0.0
 11
181.8396867792
 21
544.4717967603
 31
0.0
  0
ELLIPSE
  5
DE
330
98
100
AcDbEntity
  8
$DDT_AUDIT_GENERATED_(C5)
  6
Continuous
 62
     7
100
AcDbEllipse
 10
177.4915457466
 20
543.3602335031
 30
0.0
 11
6.250000050445657
 21
4.428984956561521E-9
 31
0.0
210
0.0
220
0.0
230
1.0
 40
0.1736481773
 41
0.5075980908065084
 42
0.5395994561495464
  0
LINE
  5
DF
330
98
100
AcDbEntity
  8
$DDT_AUDIT_GENERATED_(C5)
  6
Continuous
 62
     7
100
AcDbLine
 10
182.9535117055
 20
543.8877762262
 30
0.0
 11
184.5459748713
 21
544.0474299301
 31
0.0
  0
LINE
  5
E0
330
98
100
AcDbEntity
  8
$DDT_AUDIT_GENERATED_(C5)
  6
Continuous
 62
     7
100
AcDbLine
 10
182.8535117055
 20
543.9178529728
 30
0.0
 11
184.4262915366
 21
544.0755333078
 31
0.0
  0
LINE
  5
E1
330
98
100
AcDbEntity
  8
$DDT_AUDIT_GENERATED_(C5)
  6
Continuous
 62
     7
100
AcDbLine
 10
182.8535117055
 20
543.9178529728
 30
0.0
 11
182.8535117055
 21
544.266771556
 31
0.0
  0
ELLIPSE
  5
E2
330
98
100
AcDbEntity
  8
$DDT_AUDIT_GENERATED_(C5)
  6
Continuous
 62
     7
100
AcDbEllipse
 10
177.4915457669
 20
543.3602335066
 30
0.0
 11
6.250000029668866
 21
1.395134008319587E-9
 31
0.0
210
0.0
220
0.0
230
1.0
 40
0.1736481773
 41
0.2457987044403865
 42
0.2778000698524287
  0
LINE
  5
E3
330
98
100
AcDbEntity
  8
$DDT_AUDIT_GENERATED_(C5)
  6
Continuous
 62
     7
100
AcDbLine
 10
183.5536913252
 20
543.6243210221
 30
0.0
 11
185.5822105836
 21
543.7187057694
 31
0.0
  0
LINE
  5
E4
330
98
100
AcDbEntity
  8
$DDT_AUDIT_GENERATED_(C5)
  6
Continuous
 62
     7
100
AcDbLine
 10
183.5019275162
 20
543.657867274
 30
0.0
 11
185.5059216936
 21
543.7511108965
 31
0.0
  0
LINE
  5
E5
330
98
100
AcDbEntity
  8
$DDT_AUDIT_GENERATED_(C5)
  6
Continuous
 62
     7
100
AcDbLine
 10
183.5019275162
 20
543.657867274
 30
0.0
 11
183.5019275162
 21
543.9427581042
 31
0.0
  0
ARC
  5
E6
330
98
100
AcDbEntity
  8
$DDT_AUDIT_GENERATED_(C5)
  6
Continuous
 62
     7
100
AcDbCircle
 10
185.7346689173
 20
543.360233508
 30
0.0
 40
0.2568762259794959
100
AcDbArc
 50
356.1238526717
 51
3.8761473283
  0
ELLIPSE
  5
E7
330
98
100
AcDbEntity
  8
$DDT_AUDIT_GENERATED_(C5)
  6
Continuous
 62
     7
100
AcDbEllipse
 10
177.4915457965
 20
543.360233508
 30
0.0
 11
8.500000000021441
 21
8.326672684688674E-14
 31
0.0
210
0.0
220
0.0
230
1.0
 40
0.1736481777
 41
0.0117649772881875
 42
0.1119139217712045
  0
ARC
  5
E8
330
98
100
AcDbEntity
  8
$DDT_AUDIT_GENERATED_(C5)
  6
Continuous
 62
     7
100
AcDbCircle
 10
183.5523093098
 20
543.360233508
 30
0.0
 40
0.189234846522081
100
AcDbArc
 50
354.7349422714
 51
5.2650577286
  0
LINE
  5
E9
330
98
100
AcDbEntity
  8
$DDT_AUDIT_GENERATED_(C5)
  6
Continuous
 62
     7
100
AcDbLine
 10
183.7415457965
 20
543.3428686903
 30
0.0
 11
185.9909575409
 21
543.3428686903
 31
0.0
  0
LINE
  5
EA
330
98
100
AcDbEntity
  8
$DDT_AUDIT_GENERATED_(C5)
  6
Continuous
 62
     7
100
AcDbLine
 10
183.7407457453
 20
543.3775983258
 30
0.0
 11
185.9909575409
 21
543.3775983258
 31
0.0
  0
LINE
  5
EB
330
98
100
AcDbEntity
  8
$DDT_AUDIT_GENERATED_(C5)
  6
Continuous
 62
     7
100
AcDbLine
 10
183.7407457453
 20
543.3775983258
 30
0.0
 11
183.7407457453
 21
543.6330244564
 31
0.0
  0
ELLIPSE
  5
EC
330
98
100
AcDbEntity
  8
$DDT_AUDIT_GENERATED_(C5)
  6
Continuous
 62
     7
100
AcDbEllipse
 10
177.4915463182
 20
543.3602334837
 30
0.0
 11
8.499999478011793
 21
2.426173151270916E-8
 31
0.0
210
0.0
220
0.0
230
1.0
 40
0.1736481824
 41
-0.2735643738985836
 42
-0.2500344185748125
  0
ELLIPSE
  5
ED
330
98
100
AcDbEntity
  8
$DDT_AUDIT_GENERATED_(C5)
  6
Continuous
 62
     7
100
AcDbEllipse
 10
177.4915457965
 20
543.360233508
 30
0.0
 11
8.500000000029921
 21
-2.775557561562891E-13
 31
0.0
210
0.0
220
0.0
230
1.0
 40
0.1736481777
 41
6.033150896668985
 42
6.271420329891588
  0
LINE
  5
EE
330
98
100
AcDbEntity
  8
$DDT_AUDIT_GENERATED_(C5)
  6
Continuous
 62
     7
100
AcDbLine
 10
185.7272290132
 20
542.9950137002
 30
0.0
 11
185.7272290132
 21
543.3428686903
 31
0.0
  0
LINE
  5
EF
330
98
100
AcDbEntity
  8
$DDT_AUDIT_GENERATED_(C5)
  6
Continuous
 62
     7
100
AcDbLine
 10
183.7091755039
 20
543.0529567235
 30
0.0
 11
185.6754652042
 21
542.9614674483
 31
0.0
  0
LINE
  5
F0
330
98
100
AcDbEntity
  8
$DDT_AUDIT_GENERATED_(C5)
  6
Continuous
 62
     7
100
AcDbLine
 10
183.7265371813
 20
543.0881036684
 30
0.0
 11
185.7272290132
 21
542.9950137002
 31
0.0
  0
ELLIPSE
  5
F1
330
98
100
AcDbEntity
  8
$DDT_AUDIT_GENERATED_(C5)
  6
Continuous
 62
     7
100
AcDbEllipse
 10
177.4915461465
 20
543.3602334729
 30
0.0
 11
8.49999964647191
 21
3.138886373044159E-8
 31
0.0
210
0.0
220
0.0
230
1.0
 40
0.1736481797
 41
-0.5353637641021844
 42
-0.5118338089669265
  0
ELLIPSE
  5
F2
330
98
100
AcDbEntity
  8
$DDT_AUDIT_GENERATED_(C5)
  6
Continuous
 62
     7
100
AcDbEllipse
 10
177.4915457965
 20
543.360233508
 30
0.0
 11
8.500000000029027
 21
-1.304512053934559E-12
 31
0.0
210
0.0
220
0.0
230
1.0
 40
0.1736481777
 41
-0.5118337983093149
 42
-0.2735643650867798
  0
LINE
  5
F3
330
98
100
AcDbEntity
  8
$DDT_AUDIT_GENERATED_(C5)
  6
Continuous
 62
     7
100
AcDbLine
 10
184.9022522844
 20
542.637318201
 30
0.0
 11
184.9022522844
 21
542.9974441864
 31
0.0
  0
LINE
  5
F4
330
98
100
AcDbEntity
  8
$DDT_AUDIT_GENERATED_(C5)
  6
Continuous
 62
     7
100
AcDbLine
 10
183.291148386
 20
542.758738418
 30
0.0
 11
184.8022522844
 21
542.6072414544
 31
0.0
  0
LINE
  5
F5
330
98
100
AcDbEntity
  8
$DDT_AUDIT_GENERATED_(C5)
  6
Continuous
 62
     7
100
AcDbLine
 10
183.3635799491
 20
542.791579061
 30
0.0
 11
184.9022522844
 21
542.637318201
 31
0.0
  0
ELLIPSE
  5
F6
330
98
100
AcDbEntity
  8
$DDT_AUDIT_GENERATED_(C5)
  6
Continuous
 62
     7
100
AcDbEllipse
 10
177.4915461302
 20
543.3602334502
 30
0.0
 11
8.499999646052061
 21
4.218328464311583E-8
 31
0.0
210
0.0
220
0.0
230
1.0
 40
0.1736481777
 41
-0.7971631557556096
 42
-0.7736332005262296
  0
ELLIPSE
  5
F7
330
98
100
AcDbEntity
  8
$DDT_AUDIT_GENERATED_(C5)
  6
Continuous
 62
     7
100
AcDbEllipse
 10
177.4915457965
 20
543.360233508
 30
0.0
 11
8.500000000020789
 21
-2.525757381022231E-12
 31
0.0
210
0.0
220
0.0
230
1.0
 40
0.1736481777
 41
-0.7736331861083849
 42
-0.53536375288577
  0
LINE
  5
F8
330
98
100
AcDbEntity
  8
$DDT_AUDIT_GENERATED_(C5)
  6
Continuous
 62
     7
100
AcDbLine
 10
183.5722481552
 20
542.3288881853
 30
0.0
 11
183.5722481552
 21
542.7305565296
 31
0.0
  0
LINE
  5
F9
330
98
100
AcDbEntity
  8
$DDT_AUDIT_GENERATED_(C5)
  6
Continuous
 62
     7
100
AcDbLine
 10
182.3794117701
 20
542.4869069283
 30
0.0
 11
183.4308267989
 21
542.3043306245
 31
0.0
  0
LINE
  5
FA
330
98
100
AcDbEntity
  8
$DDT_AUDIT_GENERATED_(C5)
  6
Continuous
 62
     7
100
AcDbLine
 10
182.5025313027
 20
542.5146425674
 30
0.0
 11
183.5722481552
 21
542.3288881853
 31
0.0
  0
ELLIPSE
  5
FB
330
98
100
AcDbEntity
  8
$DDT_AUDIT_GENERATED_(C5)
  6
Continuous
 62
     7
100
AcDbEllipse
 10
177.4915460319
 20
543.3602334373
 30
0.0
 11
8.499999705766166
 21
3.646125068534900E-8
 31
0.0
210
0.0
220
0.0
230
1.0
 40
0.1736481753
 41
-1.058962541547786
 42
-1.035432586319962
  0
ELLIPSE
  5
FC
330
98
100
AcDbEntity
  8
$DDT_AUDIT_GENERATED_(C5)
  6
Continuous
 62
     7
100
AcDbEllipse
 10
177.4915457965
 20
543.360233508
 30
0.0
 11
8.500000000004571
 21
-3.330669073875470E-13
 31
0.0
210
0.0
220
0.0
230
1.0
 40
0.1736481777
 41
-1.035432573908253
 42
-0.797163140685381
  0
LINE
  5
FD
330
98
100
AcDbEntity
  8
$DDT_AUDIT_GENERATED_(C5)
  6
Continuous
 62
     7
100
AcDbLine
 10
181.8278542091
 20
542.090742649
 30
0.0
 11
181.8278542091
 21
542.3816828919
 31
0.0
  0
LINE
  5
FE
330
98
100
AcDbEntity
  8
$DDT_AUDIT_GENERATED_(C5)
  6
Continuous
 62
     7
100
AcDbLine
 10
181.0123500958
 20
542.2665604839
 30
0.0
 11
181.6546491283
 21
542.0733778312
 31
0.0
  0
LINE
  5
FF
330
98
100
AcDbEntity
  8
$DDT_AUDIT_GENERATED_(C5)
  6
Continuous
 62
     7
100
AcDbLine
 10
181.1764423502
 20
542.2866661433
 30
0.0
 11
181.8278542091
 21
542.090742649
 31
0.0
  0
ELLIPSE
  5
100
330
98
100
AcDbEntity
  8
$DDT_AUDIT_GENERATED_(C5)
  6
Continuous
 62
     7
100
AcDbEllipse
 10
177.4915459095
 20
543.360233435
 30
0.0
 11
8.49999976725581
 21
1.951722117254917E-8
 31
0.0
210
0.0
220
0.0
230
1.0
 40
0.1736481738
 41
-1.32076192340833
 42
-1.297231968228172
  0
ELLIPSE
  5
101
330
98
100
AcDbEntity
  8
$DDT_AUDIT_GENERATED_(C5)
  6
Continuous
 62
     7
100
AcDbEllipse
 10
177.4915457965
 20
543.360233508
 30
0.0
 11
8.50000000000494
 21
-9.436895709313831E-13
 31
0.0
210
0.0
220
0.0
230
1.0
 40
0.1736481777
 41
-1.297231961707385
 42
-1.058962528484537
  0
LINE
  5
102
330
98
100
AcDbEntity
  8
$DDT_AUDIT_GENERATED_(C5)
  6
Continuous
 62
     7
100
AcDbLine
 10
179.7879480108
 20
541.9391108167
 30
0.0
 11
179.7879480108
 21
542.1538839597
 31
0.0
  0
LINE
  5
103
330
98
100
AcDbEntity
  8
$DDT_AUDIT_GENERATED_(C5)
  6
Continuous
 62
     7
100
AcDbLine
 10
179.2953603511
 20
542.1241540504
 30
0.0
 11
179.5947628455
 21
541.9301221256
 31
0.0
  0
LINE
  5
104
330
98
100
AcDbEntity
  8
$DDT_AUDIT_GENERATED_(C5)
  6
Continuous
 62
     7
100
AcDbLine
 10
179.4861111322
 20
542.1347203778
 30
0.0
 11
179.7879480108
 21
541.9391108167
 31
0.0
  0
ARC
  5
105
330
98
100
AcDbEntity
  8
$DDT_AUDIT_GENERATED_(C5)
  6
Continuous
 62
     7
100
AcDbCircle
 10
177.4915457965
 20
590.8304876227
 30
0.0
 40
48.94626362829077
100
AcDbArc
 50
269.8829413828
 51
270.1170586172
  0
ELLIPSE
  5
106
330
98
100
AcDbEntity
  8
$DDT_AUDIT_GENERATED_(C5)
  6
Continuous
 62
     7
100
AcDbEllipse
 10
177.4915457965
 20
543.360233508
 30
0.0
 11
8.500000000000542
 21
-8.326672684688674E-14
 31
0.0
210
0.0
220
0.0
230
1.0
 40
0.1736481777
 41
4.724153957672829
 42
4.962423390895801
  0
LINE
  5
107
330
98
100
AcDbEntity
  8
$DDT_AUDIT_GENERATED_(C5)
  6
Continuous
 62
     7
100
AcDbLine
 10
177.3915457965
 20
542.0781097744
 30
0.0
 11
177.3915457965
 21
541.8843261474
 31
0.0
  0
LINE
  5
108
330
98
100
AcDbEntity
  8
$DDT_AUDIT_GENERATED_(C5)
  6
Continuous
 62
     7
100
AcDbLine
 10
177.5915457965
 20
542.0781097744
 30
0.0
 11
177.5915457965
 21
541.8843261474
 31
0.0
  0
ELLIPSE
  5
109
330
98
100
AcDbEntity
  8
$DDT_AUDIT_GENERATED_(C5)
  6
Continuous
 62
     7
100
AcDbEllipse
 10
177.4915456832
 20
543.3602334344
 30
0.0
 11
-8.499999766167976
 21
1.963393336801289E-8
 31
0.0
210
0.0
220
0.0
230
1.0
 40
0.1736481738
 41
1.297231968242245
 42
1.32076192342521
  0
ELLIPSE
  5
10A
330
98
100
AcDbEntity
  8
$DDT_AUDIT_GENERATED_(C5)
  6
Continuous
 62
     7
100
AcDbEllipse
 10
177.4915457965
 20
543.360233508
 30
0.0
 11
-8.500000000016373
 21
-5.273559366969494E-13
 31
0.0
210
0.0
220
0.0
230
1.0
 40
0.1736481777
 41
1.320761916283799
 42
1.559031349506304
  0
LINE
  5
10B
330
98
100
AcDbEntity
  8
$DDT_AUDIT_GENERATED_(C5)
  6
Continuous
 62
     7
100
AcDbLine
 10
175.1951435823
 20
541.9391108167
 30
0.0
 11
175.1951435823
 21
542.1538839597
 31
0.0
  0
LINE
  5
10C
330
98
100
AcDbEntity
  8
$DDT_AUDIT_GENERATED_(C5)
  6
Continuous
 62
     7
100
AcDbLine
 10
175.4969804609
 20
542.1347203778
 30
0.0
 11
175.1951435823
 21
541.9391108167
 31
0.0
  0
LINE
  5
10D
330
98
100
AcDbEntity
  8
$DDT_AUDIT_GENERATED_(C5)
  6
Continuous
 62
     7
100
AcDbLine
 10
175.687731242
 20
542.1241540504
 30
0.0
 11
175.3883287476
 21
541.9301221256
 31
0.0
  0
ELLIPSE
  5
10E
330
98
100
AcDbEntity
  8
$DDT_AUDIT_GENERATED_(C5)
  6
Continuous
 62
     7
100
AcDbEllipse
 10
177.4915455604
 20
543.3602334369
 30
0.0
 11
-8.499999704888133
 21
3.667646741867259E-8
 31
0.0
210
0.0
220
0.0
230
1.0
 40
0.1736481752
 41
1.035432586360042
 42
1.058962541589769
  0
ELLIPSE
  5
10F
330
98
100
AcDbEntity
  8
$DDT_AUDIT_GENERATED_(C5)
  6
Continuous
 62
     7
100
AcDbEllipse
 10
177.4915457965
 20
543.360233508
 30
0.0
 11
-8.499999999996261
 21
7.771561172376096E-13
 31
0.0
210
0.0
220
0.0
230
1.0
 40
0.1736481777
 41
1.058962528484839
 42
1.297231961707883
  0
LINE
  5
110
330
98
100
AcDbEntity
  8
$DDT_AUDIT_GENERATED_(C5)
  6
Continuous
 62
     7
100
AcDbLine
 10
173.155237384
 20
542.090742649
 30
0.0
 11
173.155237384
 21
542.3816828919
 31
0.0
  0
LINE
  5
111
330
98
100
AcDbEntity
  8
$DDT_AUDIT_GENERATED_(C5)
  6
Continuous
 62
     7
100
AcDbLine
 10
173.8066492428
 20
542.2866661433
 30
0.0
 11
173.155237384
 21
542.090742649
 31
0.0
  0
LINE
  5
112
330
98
100
AcDbEntity
  8
$DDT_AUDIT_GENERATED_(C5)
  6
Continuous
 62
     7
100
AcDbLine
 10
173.9707414973
 20
542.2665604839
 30
0.0
 11
173.3284424647
 21
542.0733778312
 31
0.0
  0
ELLIPSE
  5
113
330
98
100
AcDbEntity
  8
$DDT_AUDIT_GENERATED_(C5)
  6
Continuous
 62
     7
100
AcDbEllipse
 10
177.4915455111
 20
543.3602334584
 30
0.0
 11
-8.499999697191621
 21
3.614539223484314E-8
 31
0.0
210
0.0
220
0.0
230
1.0
 40
0.1736481777
 41
0.7736331984365821
 42
0.7971631535717525
  0
ELLIPSE
  5
114
330
98
100
AcDbEntity
  8
$DDT_AUDIT_GENERATED_(C5)
  6
Continuous
 62
     7
100
AcDbEllipse
 10
177.4915457965
 20
543.360233508
 30
0.0
 11
-8.499999999977515
 21
3.136380044566067E-12
 31
0.0
210
0.0
220
0.0
230
1.0
 40
0.1736481777
 41
0.797163140686334
 42
1.035432573909757
  0
LINE
  5
115
330
98
100
AcDbEntity
  8
$DDT_AUDIT_GENERATED_(C5)
  6
Continuous
 62
     7
100
AcDbLine
 10
171.4108434379
 20
542.3288881853
 30
0.0
 11
171.4108434379
 21
542.7305565296
 31
0.0
  0
LINE
  5
116
330
98
100
AcDbEntity
  8
$DDT_AUDIT_GENERATED_(C5)
  6
Continuous
 62
     7
100
AcDbLine
 10
172.4805602903
 20
542.5146425674
 30
0.0
 11
171.4108434379
 21
542.3288881853
 31
0.0
  0
LINE
  5
117
330
98
100
AcDbEntity
  8
$DDT_AUDIT_GENERATED_(C5)
  6
Continuous
 62
     7
100
AcDbLine
 10
172.603679823
 20
542.4869069283
 30
0.0
 11
171.5522647941
 21
542.3043306245
 31
0.0
  0
ELLIPSE
  5
118
330
98
100
AcDbEntity
  8
$DDT_AUDIT_GENERATED_(C5)
  6
Continuous
 62
     7
100
AcDbEllipse
 10
177.4915454474
 20
543.360233473
 30
0.0
 11
-8.49999964720654
 21
3.132136217054438E-8
 31
0.0
210
0.0
220
0.0
230
1.0
 40
0.1736481797
 41
0.5118338089384931
 42
0.5353637640728508
  0
ELLIPSE
  5
119
330
98
100
AcDbEntity
  8
$DDT_AUDIT_GENERATED_(C5)
  6
Continuous
 62
     7
100
AcDbEllipse
 10
177.4915457966
 20
543.360233508
 30
0.0
 11
-8.500000000026869
 21
-3.164135620181696E-12
 31
0.0
210
0.0
220
0.0
230
1.0
 40
0.1736481777
 41
0.5353637528856126
 42
0.7736331861081187
  0
LINE
  5
11A
330
98
100
AcDbEntity
  8
$DDT_AUDIT_GENERATED_(C5)
  6
Continuous
 62
     7
100
AcDbLine
 10
170.0808393087
 20
542.637318201
 30
0.0
 11
170.0808393087
 21
542.9974441864
 31
0.0
  0
LINE
  5
11B
330
98
100
AcDbEntity
  8
$DDT_AUDIT_GENERATED_(C5)
  6
Continuous
 62
     7
100
AcDbLine
 10
171.6195116439
 20
542.791579061
 30
0.0
 11
170.0808393087
 21
542.637318201
 31
0.0
  0
LINE
  5
11C
330
98
100
AcDbEntity
  8
$DDT_AUDIT_GENERATED_(C5)
  6
Continuous
 62
     7
100
AcDbLine
 10
171.6919432071
 20
542.758738418
 30
0.0
 11
170.1808393087
 21
542.6072414544
 31
0.0
  0
ELLIPSE
  5
11D
330
98
100
AcDbEntity
  8
$DDT_AUDIT_GENERATED_(C5)
  6
Continuous
 62
     7
100
AcDbEllipse
 10
177.4915453412
 20
543.360233487
 30
0.0
 11
-8.499999544375353
 21
2.098834994690435E-8
 31
0.0
210
0.0
220
0.0
230
1.0
 40
0.1736481818
 41
0.2500344175466205
 42
0.2735643727752848
  0
ELLIPSE
  5
11E
330
98
100
AcDbEntity
  8
$DDT_AUDIT_GENERATED_(C5)
  6
Continuous
 62
     7
100
AcDbEllipse
 10
177.4915457965
 20
543.360233508
 30
0.0
 11
-8.500000000003999
 21
4.163336342344337E-13
 31
0.0
210
0.0
220
0.0
230
1.0
 40
0.1736481777
 41
0.2735643650872128
 42
0.5118337983101164
  0
LINE
  5
11F
330
98
100
AcDbEntity
  8
$DDT_AUDIT_GENERATED_(C5)
  6
Continuous
 62
     7
100
AcDbLine
 10
169.2558625799
 20
542.9950137002
 30
0.0
 11
169.2558625799
 21
543.3428686903
 31
0.0
  0
LINE
  5
120
330
98
100
AcDbEntity
  8
$DDT_AUDIT_GENERATED_(C5)
  6
Continuous
 62
     7
100
AcDbLine
 10
171.2565544118
 20
543.0881036684
 30
0.0
 11
169.2558625799
 21
542.9950137002
 31
0.0
  0
LINE
  5
121
330
98
100
AcDbEntity
  8
$DDT_AUDIT_GENERATED_(C5)
  6
Continuous
 62
     7
100
AcDbLine
 10
171.2739160892
 20
543.0529567235
 30
0.0
 11
169.3076263889
 21
542.9614674483
 31
0.0
  0
ARC
  5
122
330
98
100
AcDbEntity
  8
$DDT_AUDIT_GENERATED_(C5)
  6
Continuous
 62
     7
100
AcDbCircle
 10
169.2484226758
 20
543.360233508
 30
0.0
 40
0.2568762259794959
100
AcDbArc
 50
176.1238526717
 51
183.8761473283
  0
ELLIPSE
  5
123
330
98
100
AcDbEntity
  8
$DDT_AUDIT_GENERATED_(C5)
  6
Continuous
 62
     7
100
AcDbEllipse
 10
177.4915457965
 20
543.360233508
 30
0.0
 11
-8.500000000000034
 21
4.440892098500626E-13
 31
0.0
210
0.0
220
0.0
230
1.0
 40
0.1736481777
 41
0.0117649772881497
 42
0.2500344105110483
  0
LINE
  5
124
330
98
100
AcDbEntity
  8
$DDT_AUDIT_GENERATED_(C5)
  6
Continuous
 62
     7
100
AcDbLine
 10
171.2423458477
 20
543.3775983258
 30
0.0
 11
171.2423458477
 21
543.6330244564
 31
0.0
  0
LINE
  5
125
330
98
100
AcDbEntity
  8
$DDT_AUDIT_GENERATED_(C5)
  6
Continuous
 62
     7
100
AcDbLine
 10
171.2423458477
 20
543.3775983258
 30
0.0
 11
168.9921340522
 21
543.3775983258
 31
0.0
  0
LINE
  5
126
330
98
100
AcDbEntity
  8
$DDT_AUDIT_GENERATED_(C5)
  6
Continuous
 62
     7
100
AcDbLine
 10
171.2415457965
 20
543.3428686903
 30
0.0
 11
168.9921340522
 21
543.3428686903
 31
0.0
  0
ELLIPSE
  5
127
330
98
100
AcDbEntity
  8
$DDT_AUDIT_GENERATED_(C5)
  6
Continuous
 62
     7
100
AcDbEllipse
 10
177.4915457966
 20
543.360233508
 30
0.0
 11
-8.500000000026484
 21
1.942890293094024E-13
 31
0.0
210
0.0
220
0.0
230
1.0
 40
0.1736481777
 41
6.171271385408464
 42
6.271420329891286
  0
ELLIPSE
  5
128
330
98
100
AcDbEntity
  8
$DDT_AUDIT_GENERATED_(C5)
  6
Continuous
 62
     7
100
AcDbEllipse
 10
177.4915458524
 20
543.3602335054
 30
0.0
 11
-6.250000055913254
 21
2.610744953557287E-9
 31
0.0
210
0.0
220
0.0
230
1.0
 40
0.173648177
 41
-0.277800069240679
 42
-0.2457987038981226
  0
LINE
  5
129
330
98
100
AcDbEntity
  8
$DDT_AUDIT_GENERATED_(C5)
  6
Continuous
 62
     7
100
AcDbLine
 10
171.4811640769
 20
543.657867274
 30
0.0
 11
171.4811640769
 21
543.9427581042
 31
0.0
  0
LINE
  5
12A
330
98
100
AcDbEntity
  8
$DDT_AUDIT_GENERATED_(C5)
  6
Continuous
 62
     7
100
AcDbLine
 10
171.4811640769
 20
543.657867274
 30
0.0
 11
169.4771698995
 21
543.7511108965
 31
0.0
  0
LINE
  5
12B
330
98
100
AcDbEntity
  8
$DDT_AUDIT_GENERATED_(C5)
  6
Continuous
 62
     7
100
AcDbLine
 10
171.4294002678
 20
543.6243210221
 30
0.0
 11
169.4008810095
 21
543.7187057694
 31
0.0
  0
ELLIPSE
  5
12C
330
98
100
AcDbEntity
  8
$DDT_AUDIT_GENERATED_(C5)
  6
Continuous
 62
     7
100
AcDbEllipse
 10
177.4915457774
 20
543.3602335099
 30
0.0
 11
-6.249999980644442
 21
-1.708688746049347E-9
 31
0.0
210
0.0
220
0.0
230
1.0
 40
0.1736481778
 41
-0.5395994591856565
 42
-0.5075980936383955
  0
LINE
  5
12D
330
98
100
AcDbEntity
  8
$DDT_AUDIT_GENERATED_(C5)
  6
Continuous
 62
     7
100
AcDbLine
 10
172.1295798876
 20
543.9178529728
 30
0.0
 11
172.1295798876
 21
544.266771556
 31
0.0
  0
LINE
  5
12E
330
98
100
AcDbEntity
  8
$DDT_AUDIT_GENERATED_(C5)
  6
Continuous
 62
     7
100
AcDbLine
 10
172.1295798876
 20
543.9178529728
 30
0.0
 11
170.5568000565
 21
544.0755333078
 31
0.0
  0
LINE
  5
12F
330
98
100
AcDbEntity
  8
$DDT_AUDIT_GENERATED_(C5)
  6
Continuous
 62
     7
100
AcDbLine
 10
172.0295798876
 20
543.8877762262
 30
0.0
 11
170.4371167218
 21
544.0474299301
 31
0.0
  0
ELLIPSE
  5
130
330
98
100
AcDbEntity
  8
$DDT_AUDIT_GENERATED_(C5)
  6
Continuous
 62
     7
100
AcDbEllipse
 10
177.4915458374
 20
543.360233501
 30
0.0
 11
-6.250000043333307
 21
5.130978975032008E-9
 31
0.0
210
0.0
220
0.0
230
1.0
 40
0.1736481777
 41
-0.8013988436141819
 42
-0.7693974782714488
  0
LINE
  5
131
330
98
100
AcDbEntity
  8
$DDT_AUDIT_GENERATED_(C5)
  6
Continuous
 62
     7
100
AcDbLine
 10
173.1434048139
 20
544.1398378267
 30
0.0
 11
173.1434048139
 21
544.4717967603
 31
0.0
  0
LINE
  5
132
330
98
100
AcDbEntity
  8
$DDT_AUDIT_GENERATED_(C5)
  6
Continuous
 62
     7
100
AcDbLine
 10
173.1434048139
 20
544.1398378267
 30
0.0
 11
172.010711468
 21
544.3365279621
 31
0.0
  0
LINE
  5
133
330
98
100
AcDbEntity
  8
$DDT_AUDIT_GENERATED_(C5)
  6
Continuous
 62
     7
100
AcDbLine
 10
173.0019834576
 20
544.1152802659
 30
0.0
 11
171.856196046
 21
544.3142441619
 31
0.0
  0
ELLIPSE
  5
134
330
98
100
AcDbEntity
  8
$DDT_AUDIT_GENERATED_(C5)
  6
Continuous
 62
     7
100
AcDbEllipse
 10
177.4915458254
 20
543.3602334994
 30
0.0
 11
-6.250000036098193
 21
4.449662860395165E-9
 31
0.0
210
0.0
220
0.0
230
1.0
 40
0.1736481781
 41
-1.063198231741765
 42
-1.031196866398941
  0
LINE
  5
135
330
98
100
AcDbEntity
  8
$DDT_AUDIT_GENERATED_(C5)
  6
Continuous
 62
     7
100
AcDbLine
 10
174.4535483625
 20
544.3086939346
 30
0.0
 11
174.4535483625
 21
544.578910134
 31
0.0
  0
LINE
  5
136
330
98
100
AcDbEntity
  8
$DDT_AUDIT_GENERATED_(C5)
  6
Continuous
 62
     7
100
AcDbLine
 10
174.4535483625
 20
544.3086939346
 30
0.0
 11
173.732103686
 21
544.5256810221
 31
0.0
  0
LINE
  5
137
330
98
100
AcDbEntity
  8
$DDT_AUDIT_GENERATED_(C5)
  6
Continuous
 62
     7
100
AcDbLine
 10
174.2803432818
 20
544.2913291168
 30
0.0
 11
173.5523655608
 21
544.5102811316
 31
0.0
  0
ELLIPSE
  5
138
330
98
100
AcDbEntity
  8
$DDT_AUDIT_GENERATED_(C5)
  6
Continuous
 62
     7
100
AcDbEllipse
 10
177.4915458148
 20
543.3602334962
 30
0.0
 11
-6.250000037640109
 21
3.169242646094972E-9
 31
0.0
210
0.0
220
0.0
230
1.0
 40
0.1736481785
 41
-1.324997620143479
 42
-1.292996254833467
  0
LINE
  5
139
330
98
100
AcDbEntity
  8
$DDT_AUDIT_GENERATED_(C5)
  6
Continuous
 62
     7
100
AcDbLine
 10
175.9707264158
 20
544.4129140318
 30
0.0
 11
175.9707264158
 21
544.6507498737
 31
0.0
  0
LINE
  5
13A
330
98
100
AcDbEntity
  8
$DDT_AUDIT_GENERATED_(C5)
  6
Continuous
 62
     7
100
AcDbLine
 10
175.9707264158
 20
544.4129140318
 30
0.0
 11
175.6222819693
 21
544.6387282714
 31
0.0
  0
LINE
  5
13B
330
98
100
AcDbEntity
  8
$DDT_AUDIT_GENERATED_(C5)
  6
Continuous
 62
     7
100
AcDbLine
 10
175.7775412505
 20
544.4039253407
 30
0.0
 11
175.4273490088
 21
544.6308722633
 31
0.0
  0
ARC
  5
13C
330
98
100
AcDbEntity
  8
$DDT_AUDIT_GENERATED_(C5)
  6
Continuous
 62
     7
100
AcDbCircle
 10
177.4915457965
 20
528.0322776928
 30
0.0
 40
15.80548925698578
100
AcDbArc
 50
89.3656022836
 51
90.6343977164
  0
LINE
  5
13D
330
98
100
AcDbEntity
  8
$DDT_AUDIT_GENERATED_(C5)
  6
Continuous
 62
     7
100
AcDbLine
 10
177.6665457965
 20
543.8367981111
 30
0.0
 11
177.6665457965
 21
544.0744182756
 31
0.0
  0
LINE
  5
13E
330
98
100
AcDbEntity
  8
$DDT_AUDIT_GENERATED_(C5)
  6
Continuous
 62
     7
100
AcDbLine
 10
177.3165457965
 20
543.8367981111
 30
0.0
 11
177.3165457965
 21
544.0744182756
 31
0.0
  0
ELLIPSE
  5
13F
330
98
100
AcDbEntity
  8
$DDT_AUDIT_GENERATED_(C5)
  6
Continuous
 62
     7
100
AcDbEllipse
 10
177.4915457965
 20
543.360233508
 30
0.0
 11
2.749999999996901
 21
-3.330669073875470E-13
 31
0.0
210
0.0
220
0.0
230
1.0
 40
0.1736481777
 41
0.9835181589398972
 42
1.110876943454083
  0
LINE
  5
140
330
98
100
AcDbEntity
  8
$DDT_AUDIT_GENERATED_(C5)
  6
Continuous
 62
     7
100
AcDbLine
 10
178.7122044356
 20
544.0499409181
 30
0.0
 11
178.7122044356
 21
543.7881447764
 31
0.0
  0
LINE
  5
141
330
98
100
AcDbEntity
  8
$DDT_AUDIT_GENERATED_(C5)
  6
Continuous
 62
     7
100
AcDbLine
 10
179.015313327
 20
543.7577563453
 30
0.0
 11
179.7696204692
 21
543.9846273933
 31
0.0
  0
LINE
  5
142
330
98
100
AcDbEntity
  8
$DDT_AUDIT_GENERATED_(C5)
  6
Continuous
 62
     7
100
AcDbLine
 10
178.7122044356
 20
543.7881447764
 30
0.0
 11
179.4474852062
 21
544.0092933108
 31
0.0
  0
ELLIPSE
  5
143
330
98
100
AcDbEntity
  8
$DDT_AUDIT_GENERATED_(C5)
  6
Continuous
 62
     7
100
AcDbEllipse
 10
177.4915457965
 20
543.360233508
 30
0.0
 11
2.749999999995798
 21
1.998401444325282E-12
 31
0.0
210
0.0
220
0.0
230
1.0
 40
0.1736481777
 41
0.4599193833414905
 42
0.5872781678556265
  0
LINE
  5
144
330
98
100
AcDbEntity
  8
$DDT_AUDIT_GENERATED_(C5)
  6
Continuous
 62
     7
100
AcDbLine
 10
179.7807885782
 20
543.9836905479
 30
0.0
 11
179.7807885782
 21
543.6248329629
 31
0.0
  0
LINE
  5
145
330
98
100
AcDbEntity
  8
$DDT_AUDIT_GENERATED_(C5)
  6
Continuous
 62
     7
100
AcDbLine
 10
179.9557885782
 20
543.5721986563
 30
0.0
 11
181.5804568195
 21
543.7350811065
 31
0.0
  0
LINE
  5
146
330
98
100
AcDbEntity
  8
$DDT_AUDIT_GENERATED_(C5)
  6
Continuous
 62
     7
100
AcDbLine
 10
179.7807885782
 20
543.6248329629
 30
0.0
 11
181.3476899815
 21
543.7819239512
 31
0.0
  0
ELLIPSE
  5
147
330
98
100
AcDbEntity
  8
$DDT_AUDIT_GENERATED_(C5)
  6
Continuous
 62
     7
100
AcDbEllipse
 10
177.4915457965
 20
543.360233508
 30
0.0
 11
-2.750000000008768
 21
0.0
 31
0.0
210
0.0
220
0.0
230
1.0
 40
0.1736481777
 41
3.141592653589793
 42
3.205272045846844
  0
LINE
  5
148
330
98
100
AcDbEntity
  8
$DDT_AUDIT_GENERATED_(C5)
  6
Continuous
 62
     7
100
AcDbLine
 10
180.2359719661
 20
543.6002886722
 30
0.0
 11
180.2359719661
 21
543.3906219391
 31
0.0
  0
LINE
  5
149
330
98
100
AcDbEntity
  8
$DDT_AUDIT_GENERATED_(C5)
  6
Continuous
 62
     7
100
AcDbLine
 10
180.2415457965
 20
543.3298450769
 30
0.0
 11
182.6531663975
 21
543.3298450769
 31
0.0
  0
LINE
  5
14A
330
98
100
AcDbEntity
  8
$DDT_AUDIT_GENERATED_(C5)
  6
Continuous
 62
     7
100
AcDbLine
 10
180.2359719661
 20
543.3906219391
 30
0.0
 11
182.575672838
 21
543.3906219391
 31
0.0
  0
ELLIPSE
  5
14B
330
98
100
AcDbEntity
  8
$DDT_AUDIT_GENERATED_(C5)
  6
Continuous
 62
     7
100
AcDbEllipse
 10
177.4915457952
 20
543.3602335082
 30
0.0
 11
5.250000001368026
 21
-1.273425809245055E-10
 31
0.0
210
0.0
220
0.0
230
1.0
 40
0.1736481777
 41
-0.5569382847857227
 42
-0.4902592662730187
  0
LINE
  5
14C
330
98
100
AcDbEntity
  8
$DDT_AUDIT_GENERATED_(C5)
  6
Continuous
 62
     7
100
AcDbLine
 10
180.1718313664
 20
543.056429737
 30
0.0
 11
181.9481525569
 21
542.8783431957
 31
0.0
  0
LINE
  5
14D
330
98
100
AcDbEntity
  8
$DDT_AUDIT_GENERATED_(C5)
  6
Continuous
 62
     7
100
AcDbLine
 10
180.2306044005
 20
543.1207164736
 30
0.0
 11
182.1231525569
 21
542.9309775023
 31
0.0
  0
LINE
  5
14E
330
98
100
AcDbEntity
  8
$DDT_AUDIT_GENERATED_(C5)
  6
Continuous
 62
     7
100
AcDbLine
 10
182.1231525569
 20
543.3298450769
 30
0.0
 11
182.1231525569
 21
542.9309775023
 31
0.0
  0
ELLIPSE
  5
14F
330
98
100
AcDbEntity
  8
$DDT_AUDIT_GENERATED_(C5)
  6
Continuous
 62
     7
100
AcDbEllipse
 10
177.4915457983
 20
543.3602335075
 30
0.0
 11
5.249999997789386
 21
2.758349104681201E-10
 31
0.0
210
0.0
220
0.0
230
1.0
 40
0.1736481776
 41
-1.080537060624149
 42
-1.013858042079073
  0
LINE
  5
150
330
98
100
AcDbEntity
  8
$DDT_AUDIT_GENERATED_(C5)
  6
Continuous
 62
     7
100
AcDbLine
 10
179.1920883851
 20
542.78798876
 30
0.0
 11
179.9635326122
 21
542.5559634344
 31
0.0
  0
LINE
  5
151
330
98
100
AcDbEntity
  8
$DDT_AUDIT_GENERATED_(C5)
  6
Continuous
 62
     7
100
AcDbLine
 10
179.4582327155
 20
542.8294949285
 30
0.0
 11
180.2666415035
 21
542.5863518655
 31
0.0
  0
LINE
  5
152
330
98
100
AcDbEntity
  8
$DDT_AUDIT_GENERATED_(C5)
  6
Continuous
 62
     7
100
AcDbLine
 10
180.2666415035
 20
543.0469244687
 30
0.0
 11
180.2666415035
 21
542.5863518655
 31
0.0
  0
ARC
  5
153
330
98
100
AcDbEntity
  8
$DDT_AUDIT_GENERATED_(C5)
  6
Continuous
 62
     7
100
AcDbCircle
 10
177.4915457965
 20
572.6658311446
 30
0.0
 40
30.21725070590765
100
AcDbArc
 50
269.6681757198
 51
270.3318242802
  0
LINE
  5
154
330
98
100
AcDbEntity
  8
$DDT_AUDIT_GENERATED_(C5)
  6
Continuous
 62
     7
100
AcDbLine
 10
177.3165457965
 20
542.6867073544
 30
0.0
 11
177.3165457965
 21
542.4490871899
 31
0.0
  0
LINE
  5
155
330
98
100
AcDbEntity
  8
$DDT_AUDIT_GENERATED_(C5)
  6
Continuous
 62
     7
100
AcDbLine
 10
177.6665457965
 20
542.6867073544
 30
0.0
 11
177.6665457965
 21
542.4490871899
 31
0.0
  0
ELLIPSE
  5
156
330
98
100
AcDbEntity
  8
$DDT_AUDIT_GENERATED_(C5)
  6
Continuous
 62
     7
100
AcDbEllipse
 10
177.4915457947
 20
543.3602335075
 30
0.0
 11
-5.249999997700315
 21
2.872979631973749E-10
 31
0.0
210
0.0
220
0.0
230
1.0
 40
0.1736481776
 41
1.013858042085393
 42
1.080537060631342
  0
LINE
  5
157
330
98
100
AcDbEntity
  8
$DDT_AUDIT_GENERATED_(C5)
  6
Continuous
 62
     7
100
AcDbLine
 10
175.5248588776
 20
542.8294949285
 30
0.0
 11
174.7164500895
 21
542.5863518655
 31
0.0
  0
LINE
  5
158
330
98
100
AcDbEntity
  8
$DDT_AUDIT_GENERATED_(C5)
  6
Continuous
 62
     7
100
AcDbLine
 10
175.7910032079
 20
542.78798876
 30
0.0
 11
175.0195589808
 21
542.5559634344
 31
0.0
  0
LINE
  5
159
330
98
100
AcDbEntity
  8
$DDT_AUDIT_GENERATED_(C5)
  6
Continuous
 62
     7
100
AcDbLine
 10
174.7164500895
 20
543.0469244687
 30
0.0
 11
174.7164500895
 21
542.5863518655
 31
0.0
  0
ELLIPSE
  5
15A
330
98
100
AcDbEntity
  8
$DDT_AUDIT_GENERATED_(C5)
  6
Continuous
 62
     7
100
AcDbEllipse
 10
177.4915457934
 20
543.3602335077
 30
0.0
 11
-5.249999996867112
 21
2.826627820695649E-10
 31
0.0
210
0.0
220
0.0
230
1.0
 40
0.1736481777
 41
0.490259266482779
 42
0.5569382850280753
  0
LINE
  5
15B
330
98
100
AcDbEntity
  8
$DDT_AUDIT_GENERATED_(C5)
  6
Continuous
 62
     7
100
AcDbLine
 10
174.7524871926
 20
543.1207164736
 30
0.0
 11
172.8599390361
 21
542.9309775023
 31
0.0
  0
LINE
  5
15C
330
98
100
AcDbEntity
  8
$DDT_AUDIT_GENERATED_(C5)
  6
Continuous
 62
     7
100
AcDbLine
 10
174.8112602266
 20
543.056429737
 30
0.0
 11
173.0349390361
 21
542.8783431957
 31
0.0
  0
LINE
  5
15D
330
98
100
AcDbEntity
  8
$DDT_AUDIT_GENERATED_(C5)
  6
Continuous
 62
     7
100
AcDbLine
 10
172.8599390361
 20
543.3298450769
 30
0.0
 11
172.8599390361
 21
542.9309775023
 31
0.0
  0
LINE
  5
15E
330
98
100
AcDbEntity
  8
$DDT_AUDIT_GENERATED_(C5)
  6
Continuous
 62
     7
100
AcDbLine
 10
174.747119627
 20
543.6002886722
 30
0.0
 11
174.747119627
 21
543.3906219391
 31
0.0
  0
ELLIPSE
  5
15F
330
98
100
AcDbEntity
  8
$DDT_AUDIT_GENERATED_(C5)
  6
Continuous
 62
     7
100
AcDbEllipse
 10
177.4915457965
 20
543.360233508
 30
0.0
 11
2.750000000006369
 21
0.0
 31
0.0
210
0.0
220
0.0
230
1.0
 40
0.1736481777
 41
3.077913261332778
 42
3.141592653589793
  0
LINE
  5
160
330
98
100
AcDbEntity
  8
$DDT_AUDIT_GENERATED_(C5)
  6
Continuous
 62
     7
100
AcDbLine
 10
174.747119627
 20
543.3906219391
 30
0.0
 11
172.4074187551
 21
543.3906219391
 31
0.0
  0
LINE
  5
161
330
98
100
AcDbEntity
  8
$DDT_AUDIT_GENERATED_(C5)
  6
Continuous
 62
     7
100
AcDbLine
 10
174.7415457965
 20
543.3298450769
 30
0.0
 11
172.3299251956
 21
543.3298450769
 31
0.0
  0
LINE
  5
162
330
98
100
AcDbEntity
  8
$DDT_AUDIT_GENERATED_(C5)
  6
Continuous
 62
     7
100
AcDbLine
 10
175.2023030149
 20
543.9836905479
 30
0.0
 11
175.2023030149
 21
543.6248329629
 31
0.0
  0
ELLIPSE
  5
163
330
98
100
AcDbEntity
  8
$DDT_AUDIT_GENERATED_(C5)
  6
Continuous
 62
     7
100
AcDbEllipse
 10
177.4915457966
 20
543.360233508
 30
0.0
 11
-2.75000000008125
 21
3.469446951953614E-12
 31
0.0
210
0.0
220
0.0
230
1.0
 40
0.1736481777
 41
-0.5872781678467263
 42
-0.4599193833348352
  0
LINE
  5
164
330
98
100
AcDbEntity
  8
$DDT_AUDIT_GENERATED_(C5)
  6
Continuous
 62
     7
100
AcDbLine
 10
175.2023030149
 20
543.6248329629
 30
0.0
 11
173.6354016116
 21
543.7819239512
 31
0.0
  0
LINE
  5
165
330
98
100
AcDbEntity
  8
$DDT_AUDIT_GENERATED_(C5)
  6
Continuous
 62
     7
100
AcDbLine
 10
175.0273030149
 20
543.5721986563
 30
0.0
 11
173.4026347736
 21
543.7350811065
 31
0.0
  0
LINE
  5
166
330
98
100
AcDbEntity
  8
$DDT_AUDIT_GENERATED_(C5)
  6
Continuous
 62
     7
100
AcDbLine
 10
176.2708871574
 20
544.0499409181
 30
0.0
 11
176.2708871574
 21
543.7881447764
 31
0.0
  0
ELLIPSE
  5
167
330
98
100
AcDbEntity
  8
$DDT_AUDIT_GENERATED_(C5)
  6
Continuous
 62
     7
100
AcDbEllipse
 10
177.4915457965
 20
543.360233508
 30
0.0
 11
-2.749999999999552
 21
2.775557561562892E-14
 31
0.0
210
0.0
220
0.0
230
1.0
 40
0.1736481777
 41
-1.110876943453684
 42
-0.9835181589396722
  0
LINE
  5
168
330
98
100
AcDbEntity
  8
$DDT_AUDIT_GENERATED_(C5)
  6
Continuous
 62
     7
100
AcDbLine
 10
176.2708871574
 20
543.7881447764
 30
0.0
 11
175.5356063869
 21
544.0092933108
 31
0.0
  0
LINE
  5
169
330
98
100
AcDbEntity
  8
$DDT_AUDIT_GENERATED_(C5)
  6
Continuous
 62
     7
100
AcDbLine
 10
175.9677782661
 20
543.7577563453
 30
0.0
 11
175.2134711239
 21
543.9846273933
 31
0.0
  0
LINE
  5
16A
330
98
100
AcDbEntity
  8
$DDT_AUDIT_GENERATED_(C5)
  6
Continuous
 62
     7
100
AcDbLine
 10
168.4915457965
 20
544.1958073183
 30
0.0
 11
168.4915457965
 21
543.1632719574
 31
0.0
  0
LINE
  5
16B
330
98
100
AcDbEntity
  8
$DDT_AUDIT_GENERATED_(C5)
  6
Continuous
 62
     7
100
AcDbLine
 10
186.4915457965
 20
543.1632719574
 30
0.0
 11
186.4915457965
 21
544.1958073183
 31
0.0
  0
LINE
  5
16C
330
98
100
AcDbEntity
  8
$DDT_AUDIT_GENERATED_(C5)
  6
Continuous
 62
     7
100
AcDbLine
 10
171.2415457965
 20
543.360233508
 30
0.0
 11
171.2415457965
 21
543.1632719574
 31
0.0
  0
LINE
  5
16D
330
98
100
AcDbEntity
  8
$DDT_AUDIT_GENERATED_(C5)
  6
Continuous
 62
     7
100
AcDbLine
 10
183.7415457965
 20
543.1632719574
 30
0.0
 11
183.7415457965
 21
543.360233508
 31
0.0
  0
LINE
  5
16E
330
98
100
AcDbEntity
  8
$DDT_AUDIT_GENERATED_(C5)
  6
Continuous
 62
     7
100
AcDbLine
 10
174.7415457965
 20
543.360233508
 30
0.0
 11
174.7415457965
 21
543.1632719574
 31
0.0
  0
LINE
  5
16F
330
98
100
AcDbEntity
  8
$DDT_AUDIT_GENERATED_(C5)
  6
Continuous
 62
     7
100
AcDbLine
 10
180.2415457965
 20
543.1632719574
 30
0.0
 11
180.2415457965
 21
543.360233508
 31
0.0
  0
LINE
  5
170
330
98
100
AcDbEntity
  8
$DDT_AUDIT_GENERATED_(C5)
  6
Continuous
 62
     7
100
AcDbLine
 10
176.9719158526
 20
543.5255473683
 30
0.0
 11
176.9719158526
 21
543.360233508
 31
0.0
  0
LINE
  5
171
330
98
100
AcDbEntity
  8
$DDT_AUDIT_GENERATED_(C5)
  6
Continuous
 62
     7
100
AcDbLine
 10
178.0111757404
 20
543.360233508
 30
0.0
 11
178.0111757404
 21
543.5255473683
 31
0.0
  0
LINE
  5
173
330
98
100
AcDbEntity
  8
$DDT_AUDIT_GENERATED_(172)
  6
Continuous
 62
     7
100
AcDbLine
 10
304.9701661465
 20
374.0502369519
 30
0.0
 11
249.9860677275
 21
374.0502369519
 31
0.0
  0
LINE
  5
174
330
98
100
AcDbEntity
  8
$DDT_AUDIT_GENERATED_(172)
  6
Continuous
 62
     7
100
AcDbLine
 10
249.9862828612
 20
379.050236937
 30
0.0
 11
304.9699338931
 21
379.050236937
 31
0.0
  0
LINE
  5
175
330
98
100
AcDbEntity
  8
$DDT_AUDIT_GENERATED_(172)
  6
Continuous
 62
     7
100
AcDbLine
 10
303.9698816516
 20
380.0502369519
 30
0.0
 11
250.9863354682
 21
380.0502369519
 31
0.0
  0
LINE
  5
176
330
98
100
AcDbEntity
  8
$DDT_AUDIT_GENERATED_(172)
  6
Continuous
 62
     7
100
AcDbLine
 10
249.9860676255
 20
379.050236937
 30
0.0
 11
249.9860676255
 21
374.0502369519
 31
0.0
  0
LINE
  5
177
330
98
100
AcDbEntity
  8
$DDT_AUDIT_GENERATED_(172)
  6
Continuous
 62
     7
100
AcDbLine
 10
304.9701663117
 20
374.0502369519
 30
0.0
 11
304.9701663117
 21
379.050236937
 31
0.0
  0
ARC
  5
178
330
98
100
AcDbEntity
  8
$DDT_AUDIT_GENERATED_(172)
  6
Continuous
 62
     7
100
AcDbCircle
 10
303.9702695029
 20
379.050572581
 30
0.0
 40
0.9996644460685514
100
AcDbArc
 50
359.9807625557
 51
90.022229702
  0
ARC
  5
179
330
98
100
AcDbEntity
  8
$DDT_AUDIT_GENERATED_(172)
  6
Continuous
 62
     7
100
AcDbCircle
 10
250.9859480747
 20
379.0505717577
 30
0.0
 40
0.9996652691798334
100
AcDbArc
 50
89.977796556
 51
180.0191902417
  0
LINE
  5
17A
330
98
100
AcDbEntity
  8
$DDT_AUDIT_GENERATED_(172)
  6
Continuous
 62
     7
100
AcDbLine
 10
104.9701661465
 20
374.0502369519
 30
0.0
 11
49.9860677275
 21
374.0502369519
 31
0.0
  0
LINE
  5
17B
330
98
100
AcDbEntity
  8
$DDT_AUDIT_GENERATED_(172)
  6
Continuous
 62
     7
100
AcDbLine
 10
49.9862828612
 20
379.050236937
 30
0.0
 11
104.9699338931
 21
379.050236937
 31
0.0
  0
LINE
  5
17C
330
98
100
AcDbEntity
  8
$DDT_AUDIT_GENERATED_(172)
  6
Continuous
 62
     7
100
AcDbLine
 10
103.9698816516
 20
380.0502369519
 30
0.0
 11
50.9863354682
 21
380.0502369519
 31
0.0
  0
LINE
  5
17D
330
98
100
AcDbEntity
  8
$DDT_AUDIT_GENERATED_(172)
  6
Continuous
 62
     7
100
AcDbLine
 10
49.9860676255
 20
379.050236937
 30
0.0
 11
49.9860676255
 21
374.0502369519
 31
0.0
  0
LINE
  5
17E
330
98
100
AcDbEntity
  8
$DDT_AUDIT_GENERATED_(172)
  6
Continuous
 62
     7
100
AcDbLine
 10
104.9701663117
 20
374.0502369519
 30
0.0
 11
104.9701663117
 21
379.050236937
 31
0.0
  0
ARC
  5
17F
330
98
100
AcDbEntity
  8
$DDT_AUDIT_GENERATED_(172)
  6
Continuous
 62
     7
100
AcDbCircle
 10
103.9702695029
 20
379.050572581
 30
0.0
 40
0.9996644460684668
100
AcDbArc
 50
359.9807625557
 51
90.022229702
  0
ARC
  5
180
330
98
100
AcDbEntity
  8
$DDT_AUDIT_GENERATED_(172)
  6
Continuous
 62
     7
100
AcDbCircle
 10
50.9859480747
 20
379.0505717577
 30
0.0
 40
0.9996652691797702
100
AcDbArc
 50
89.977796556
 51
180.0191902417
  0
LINE
  5
182
330
98
100
AcDbEntity
  8
$DDT_AUDIT_GENERATED_(181)
  6
Continuous
 62
     7
100
AcDbLine
 10
263.1165457965
 20
380.3502369519
 30
0.0
 11
263.1165457965
 21
380.0502369519
 31
0.0
  0
LINE
  5
183
330
98
100
AcDbEntity
  8
$DDT_AUDIT_GENERATED_(181)
  6
Continuous
 62
     7
100
AcDbLine
 10
291.8665457965
 20
380.0502369519
 30
0.0
 11
291.8665457965
 21
380.3502369519
 31
0.0
  0
LINE
  5
184
330
98
100
AcDbEntity
  8
$DDT_AUDIT_GENERATED_(181)
  6
Continuous
 62
     7
100
AcDbLine
 10
63.1165457965
 20
380.3502369519
 30
0.0
 11
63.1165457965
 21
380.0502369519
 31
0.0
  0
LINE
  5
185
330
98
100
AcDbEntity
  8
$DDT_AUDIT_GENERATED_(181)
  6
Continuous
 62
     7
100
AcDbLine
 10
91.8665457965
 20
380.0502369519
 30
0.0
 11
91.8665457965
 21
380.3502369519
 31
0.0
  0
ARC
  5
187
330
98
100
AcDbEntity
  8
$DDT_AUDIT_GENERATED_(186)
  6
Continuous
 62
     7
100
AcDbCircle
 10
259.4741398364
 20
403.7352744771
 30
0.0
 40
0.2500000028568531
100
AcDbArc
 50
145.0384794575
 51
179.4301691715
  0
ARC
  5
188
330
98
100
AcDbEntity
  8
$DDT_AUDIT_GENERATED_(186)
  6
Continuous
 62
     7
100
AcDbCircle
 10
295.4386294342
 20
410.2263452149
 30
0.0
 40
0.2500095405937824
100
AcDbArc
 50
0.5814425264
 51
45.1067952283
  0
ARC
  5
189
330
98
100
AcDbEntity
  8
$DDT_AUDIT_GENERATED_(186)
  6
Continuous
 62
     7
100
AcDbCircle
 10
-951.1015823595
 20
7308.0288388496
 30
0.0
 40
7009.573715589953
100
AcDbArc
 50
279.9457462542
 51
280.2451015631
  0
ARC
  5
18A
330
98
100
AcDbEntity
  8
$DDT_AUDIT_GENERATED_(186)
  6
Continuous
 62
     7
100
AcDbCircle
 10
-951.1015823595
 20
7308.0288388496
 30
0.0
 40
7009.573715589953
100
AcDbArc
 50
279.9433020736
 51
279.9457462542
  0
ARC
  5
18B
330
98
100
AcDbEntity
  8
$DDT_AUDIT_GENERATED_(186)
  6
Continuous
 62
     7
100
AcDbCircle
 10
298.1454593336
 20
395.9178728953
 30
0.0
 40
14.52036419302712
100
AcDbArc
 50
99.741221689
 51
100.0277428002
  0
ARC
  5
18C
330
98
100
AcDbEntity
  8
$DDT_AUDIT_GENERATED_(186)
  6
Continuous
 62
     7
100
AcDbCircle
 10
2854.8770607011
 20
-13989.5329540825
 30
0.0
 40
14627.28279170316
100
AcDbArc
 50
100.2153880101
 51
100.2154285025
  0
ARC
  5
18D
330
98
100
AcDbEntity
  8
$DDT_AUDIT_GENERATED_(186)
  6
Continuous
 62
     7
100
AcDbCircle
 10
3167.3873285706
 20
-15844.4436830367
 30
0.0
 40
16508.1430935684
100
AcDbArc
 50
100.0229718495
 51
100.02300183
  0
ARC
  5
18E
330
98
100
AcDbEntity
  8
$DDT_AUDIT_GENERATED_(186)
  6
Continuous
 62
     7
100
AcDbCircle
 10
3167.3873285706
 20
-15844.4436830367
 30
0.0
 40
16508.1430935684
100
AcDbArc
 50
100.02300183
 51
100.1390797914
  0
ARC
  5
18F
330
98
100
AcDbEntity
  8
$DDT_AUDIT_GENERATED_(186)
  6
Continuous
 62
     7
100
AcDbCircle
 10
214.972133258
 20
665.1113195064
 30
0.0
 40
263.3255919227925
100
AcDbArc
 50
280.0485113981
 51
280.1382543411
  0
SPLINE
  5
190
330
98
100
AcDbEntity
  8
$DDT_AUDIT_GENERATED_(186)
  6
Continuous
 62
     7
100
AcDbSpline
210
0.0
220
0.0
230
1.0
 70
    12
 71
     3
 72
    12
 73
     8
 74
     0
 42
0.0000000299841957
 43
0.0000000001
 40
0.0
 40
0.0
 40
0.0
 40
0.0
 40
0.017399852301004
 40
0.017399852301004
 40
0.017399852301004
 40
0.5052895699163383
 40
1.0
 40
1.0
 40
1.0
 40
1.0
 10
260.9176923142069
 20
405.8250434243187
 30
0.0
 41
1.0
 10
260.9141497567462
 20
405.8247340705856
 30
0.0
 41
1.0
 10
260.9103892326065
 20
405.8240627960778
 30
0.0
 41
1.0
 10
260.9066614790834
 20
405.8233974784703
 30
0.0
 41
1.0
 10
260.8020778491082
 20
405.8047297175529
 30
0.0
 41
1.0
 10
260.6429112712299
 20
405.7762971085749
 30
0.0
 41
1.0
 10
260.5894374734089
 20
405.7667441679286
 30
0.0
 41
1.0
 10
260.5895336724112
 20
405.7667814800162
 30
0.0
 41
1.0
  0
LINE
  5
191
330
98
100
AcDbEntity
  8
$DDT_AUDIT_GENERATED_(186)
  6
Continuous
 62
     7
100
AcDbLine
 10
260.5895336724
 20
405.76678148
 30
0.0
 11
259.2692555662
 21
403.8785310204
 31
0.0
  0
LINE
  5
192
330
98
100
AcDbEntity
  8
$DDT_AUDIT_GENERATED_(186)
  6
Continuous
 62
     7
100
AcDbLine
 10
295.6150829965
 20
410.4034577896
 30
0.0
 11
294.26045926
 21
411.7529894185
 31
0.0
  0
ARC
  5
193
330
98
100
AcDbEntity
  8
$DDT_AUDIT_GENERATED_(186)
  6
Continuous
 62
     7
100
AcDbCircle
 10
294.0487217121
 20
411.5404200706
 30
0.0
 40
0.3000453066350252
100
AcDbArc
 50
86.7964700013
 51
90.1404378505
  0
ARC
  5
194
330
98
100
AcDbEntity
  8
$DDT_AUDIT_GENERATED_(186)
  6
Continuous
 62
     7
100
AcDbCircle
 10
294.0487217121
 20
411.5404200706
 30
0.0
 40
0.3000453066350252
100
AcDbArc
 50
45.1123204457
 51
53.1812582339
  0
ARC
  5
195
330
98
100
AcDbEntity
  8
$DDT_AUDIT_GENERATED_(186)
  6
Continuous
 62
     7
100
AcDbCircle
 10
315.3226532436
 20
403.3280679767
 30
0.0
 40
20.25532974297533
100
AcDbArc
 50
165.5578793541
 51
180.0437833461
  0
LINE
  5
196
330
98
100
AcDbEntity
  8
$DDT_AUDIT_GENERATED_(186)
  6
Continuous
 62
     7
100
AcDbLine
 10
344.9970317776
 20
407.9380248633
 30
0.0
 11
344.9970317776
 21
411.9287156052
 31
0.0
  0
LINE
  5
197
330
98
100
AcDbEntity
  8
$DDT_AUDIT_GENERATED_(186)
  6
Continuous
 62
     7
100
AcDbLine
 10
344.9970317776
 20
416.0766319146
 30
0.0
 11
344.9970317776
 21
411.9287156052
 31
0.0
  0
SPLINE
  5
198
330
98
100
AcDbEntity
  8
$DDT_AUDIT_GENERATED_(186)
  6
Continuous
 62
     7
100
AcDbSpline
210
0.0
220
0.0
230
1.0
 70
     8
 71
     3
 72
    22
 73
    18
 74
     0
 42
0.0000000011047164
 43
0.0000000001
 40
0.0
 40
0.0
 40
0.0
 40
0.0
 40
0.0142071674041639
 40
0.0269486572347512
 40
0.0382244073051371
 40
0.0480343630172152
 40
0.0563784776069033
 40
0.0632567126509194
 40
0.0966049799706438
 40
0.1262631889829338
 40
0.1921902981951296
 40
0.2514881986106561
 40
0.3152832874467739
 40
0.3760015536021443
 40
0.4385434300579965
 40
0.5001008541082222
 40
0.5049514373498413
 40
0.5049514373498413
 40
0.5049514373498413
 40
0.5049514373498413
 10
344.4970789516404
 20
411.9192347244065
 30
0.0
 10
344.4970269185368
 20
411.9859007211771
 30
0.0
 10
344.497016401134
 20
412.1123707010666
 30
0.0
 10
344.4970102875064
 20
412.2914380499317
 30
0.0
 10
344.4970473512403
 20
412.449431827086
 30
0.0
 10
344.497120021111
 20
412.5863730929735
 30
0.0
 10
344.4972129681306
 20
412.7023834006828
 30
0.0
 10
344.4973808470644
 20
412.9265633129308
 30
0.0
 10
344.4975633636523
 20
413.2455656039432
 30
0.0
 10
344.4982840372084
 20
413.8168033761722
 30
0.0
 10
344.4989981603687
 20
414.4648843680379
 30
0.0
 10
344.5008341168625
 20
415.159594223144
 30
0.0
 10
344.5020659627128
 20
415.7204934946571
 30
0.0
 10
344.5035734827983
 20
416.1491962035554
 30
0.0
 10
344.5042830620733
 20
416.4173213062702
 30
0.0
 10
344.5046313314327
 20
416.4871790122853
 30
0.0
 10
344.5046411829464
 20
416.490060678282
 30
0.0
 10
344.5046410400262
 20
416.4900946669936
 30
0.0
  0
SPLINE
  5
199
330
98
100
AcDbEntity
  8
$DDT_AUDIT_GENERATED_(186)
  6
Continuous
 62
     7
100
AcDbSpline
210
0.0
220
0.0
230
1.0
 70
     8
 71
     3
 72
    13
 73
     9
 74
     0
 42
0.0000000010944025
 43
0.0000000001
 40
0.5000555458381934
 40
0.5000555458381934
 40
0.5000555458381934
 40
0.5000555458381934
 40
0.6255313902746914
 40
0.7506581048891426
 40
0.8102048129322164
 40
0.8757464118624068
 40
0.9286225840274297
 40
1.0
 40
1.0
 40
1.0
 40
1.0
 10
344.5047379811156
 20
407.3510559141357
 30
0.0
 10
344.5047308162444
 20
407.351055358644
 30
0.0
 10
344.5039344472347
 20
407.5949862836266
 30
0.0
 10
344.5012406548082
 20
408.4530236319338
 30
0.0
 10
344.4996455768986
 20
409.3800089351049
 30
0.0
 10
344.4979832737419
 20
410.1310960417591
 30
0.0
 10
344.4978562830237
 20
410.9919484158106
 30
0.0
 10
344.4973330399741
 20
411.5809022590632
 30
0.0
 10
344.4970789516404
 20
411.9192347244065
 30
0.0
  0
LINE
  5
19A
330
98
100
AcDbEntity
  8
$DDT_AUDIT_GENERATED_(186)
  6
Continuous
 62
     7
100
AcDbLine
 10
295.7415477854
 20
380.3502369519
 30
0.0
 11
259.2415457985
 21
380.3502369519
 31
0.0
  0
ARC
  5
19B
330
98
100
AcDbEntity
  8
$DDT_AUDIT_GENERATED_(186)
  6
Continuous
 62
     7
100
AcDbCircle
 10
313.4138961753
 20
403.4256331196
 30
0.0
 40
18.34691501976874
100
AcDbArc
 50
180.3530270848
 51
196.3619720201
  0
LINE
  5
19C
330
98
100
AcDbEntity
  8
$DDT_AUDIT_GENERATED_(186)
  6
Continuous
 62
     7
100
AcDbLine
 10
295.70739037
 20
408.3797850507
 30
0.0
 11
295.6886447567
 21
410.228882479
 31
0.0
  0
LINE
  5
19D
330
98
100
AcDbEntity
  8
$DDT_AUDIT_GENERATED_(186)
  6
Continuous
 62
     7
100
AcDbLine
 10
259.2241522
 20
403.7377607911
 30
0.0
 11
258.9940321104
 21
380.6002245881
 31
0.0
  0
SPLINE
  5
19E
330
98
100
AcDbEntity
  8
$DDT_AUDIT_GENERATED_(186)
  6
Continuous
 62
     7
100
AcDbSpline
210
0.0
220
0.0
230
1.0
 70
     8
 71
     3
 72
     9
 73
     5
 74
     0
 42
0.0000000239258187
 43
0.0000000001
 40
0.5000000000000033
 40
0.5000000000000033
 40
0.5000000000000033
 40
0.5000000000000033
 40
0.6194893828094062
 40
0.8205157720467157
 40
0.8205157720467157
 40
0.8205157720467157
 40
0.8205157720467157
 10
295.8350259839841
 20
380.6000056110682
 30
0.0
 10
295.8594082316556
 20
380.6000403003254
 30
0.0
 10
295.9170791897045
 20
380.6001222362276
 30
0.0
 10
295.9540726620186
 20
380.6001746180979
 30
0.0
 10
295.968988149935
 20
380.6001957321265
 30
0.0
  0
LINE
  5
19F
330
98
100
AcDbEntity
  8
$DDT_AUDIT_GENERATED_(186)
  6
Continuous
 62
     7
100
AcDbLine
 10
295.9890114992
 20
380.6002241108
 30
0.0
 11
295.8100099855
 21
398.2572212013
 31
0.0
  0
ARC
  5
1A0
330
98
100
AcDbEntity
  8
$DDT_AUDIT_GENERATED_(186)
  6
Continuous
 62
     7
100
AcDbCircle
 10
259.2661702465
 20
380.6221436389
 30
0.0
 40
0.2730194313793901
100
AcDbArc
 50
184.6048815799
 51
264.8252883111
  0
ARC
  5
1A1
330
98
100
AcDbEntity
  8
$DDT_AUDIT_GENERATED_(186)
  6
Continuous
 62
     7
100
AcDbCircle
 10
259.4973612265
 20
403.7390459305
 30
0.0
 40
0.2509143370054331
100
AcDbArc
 50
145.1483001571
 51
179.4061481732
  0
ARC
  5
1A2
330
98
100
AcDbEntity
  8
$DDT_AUDIT_GENERATED_(186)
  6
Continuous
 62
     7
100
AcDbCircle
 10
294.2759951774
 20
314.5297821736
 30
0.0
 40
97.3109831180555
100
AcDbArc
 50
90.0127902059
 51
110.2855259749
  0
SPLINE
  5
1A3
330
98
100
AcDbEntity
  8
$DDT_AUDIT_GENERATED_(186)
  6
Continuous
 62
     7
100
AcDbSpline
210
0.0
220
0.0
230
1.0
 70
     8
 71
     3
 72
    13
 73
     9
 74
     0
 42
0.0000000138917411
 43
0.0000000001
 40
0.0
 40
0.0
 40
0.0
 40
0.0
 40
0.115831026443701
 40
0.2385419508024723
 40
0.4999994573024021
 40
0.7614573222138644
 40
0.8841686182833643
 40
1.0
 40
1.0
 40
1.0
 40
1.0
 10
296.2048608339813
 20
407.9667328518829
 30
0.0
 10
296.1748121786974
 20
407.9641754328445
 30
0.0
 10
296.1218940122721
 20
407.9604166823041
 30
0.0
 10
296.0039882244445
 20
407.9913157081725
 30
0.0
 10
295.8713106640499
 20
408.0711234320994
 30
0.0
 10
295.768480150436
 20
408.1868748422275
 30
0.0
 10
295.7164398530746
 20
408.2970935434227
 30
0.0
 10
295.7104097136233
 20
408.3498006663943
 30
0.0
 10
295.7074014761855
 20
408.379807236751
 30
0.0
  0
LINE
  5
1A4
330
98
100
AcDbEntity
  8
$DDT_AUDIT_GENERATED_(186)
  6
Continuous
 62
     7
100
AcDbLine
 10
296.2089765842
 20
398.8283749921
 30
0.0
 11
344.5047380984
 21
407.3510559348
 31
0.0
  0
LINE
  5
1A5
330
98
100
AcDbEntity
  8
$DDT_AUDIT_GENERATED_(186)
  6
Continuous
 62
     7
100
AcDbLine
 10
344.5188078767
 20
416.4925995831
 30
0.0
 11
296.2045125764
 21
407.9666480109
 31
0.0
  0
ARC
  5
1A6
330
98
100
AcDbEntity
  8
$DDT_AUDIT_GENERATED_(186)
  6
Continuous
 62
     7
100
AcDbCircle
 10
344.3479702917
 20
407.9824308503
 30
0.0
 40
0.6505457244946702
100
AcDbArc
 50
283.9354092867
 51
356.1289107063
  0
ARC
  5
1A7
330
98
100
AcDbEntity
  8
$DDT_AUDIT_GENERATED_(186)
  6
Continuous
 62
     7
100
AcDbCircle
 10
294.0435933037
 20
411.5395876537
 30
0.0
 40
0.2999412089959261
100
AcDbArc
 50
45.102177161
 51
90.1348374237
  0
ARC
  5
1A8
330
98
100
AcDbEntity
  8
$DDT_AUDIT_GENERATED_(186)
  6
Continuous
 62
     7
100
AcDbCircle
 10
260.8410786668
 20
405.5950974612
 30
0.0
 40
0.3008455939822512
100
AcDbArc
 50
110.2247235879
 51
144.9940948607
  0
ARC
  5
1A9
330
98
100
AcDbEntity
  8
$DDT_AUDIT_GENERATED_(186)
  6
Continuous
 62
     7
100
AcDbCircle
 10
296.4530781713
 20
398.2188732075
 30
0.0
 40
0.644198375431045
100
AcDbArc
 50
103.9902545572
 51
176.5979511958
  0
SPLINE
  5
1AA
330
98
100
AcDbEntity
  8
$DDT_AUDIT_GENERATED_(186)
  6
Continuous
 62
     7
100
AcDbSpline
210
0.0
220
0.0
230
1.0
 70
     8
 71
     3
 72
    13
 73
     9
 74
     0
 42
0.0000000139530598
 43
0.0000000001
 40
0.0
 40
0.0
 40
0.0
 40
0.0
 40
0.1157562150960354
 40
0.2384078020013228
 40
0.4998575926995836
 40
0.7613778230363029
 40
0.8841195410754716
 40
1.0
 40
1.0
 40
1.0
 40
1.0
 10
344.9970317775849
 20
416.0764104292399
 30
0.0
 10
344.9943193640474
 20
416.106312364447
 30
0.0
 10
344.9888088864435
 20
416.1588478274839
 30
0.0
 10
344.9377658065121
 20
416.2690147883183
 30
0.0
 10
344.8360040814358
 20
416.3849598199539
 30
0.0
 10
344.7042914799288
 20
416.4651274706669
 30
0.0
 10
344.587103691877
 20
416.4963063921547
 30
0.0
 10
344.5345072145398
 20
416.4926219782828
 30
0.0
 10
344.5046398622598
 20
416.4901058162393
 30
0.0
  0
LINE
  5
1AB
330
98
100
AcDbEntity
  8
$DDT_AUDIT_GENERATED_(186)
  6
Continuous
 62
     7
100
AcDbLine
 10
295.9044963737
 20
388.936931968
 30
0.0
 11
295.8998665147
 21
389.1868162341
 31
0.0
  0
ARC
  5
1AC
330
98
100
AcDbEntity
  8
$DDT_AUDIT_GENERATED_(186)
  6
Continuous
 62
     7
100
AcDbCircle
 10
295.7318380906
 20
380.5866825909
 30
0.0
 40
0.2352630198604626
100
AcDbArc
 50
294.6007629744
 51
3.299713714
  0
ARC
  5
1AD
330
98
100
AcDbEntity
  8
$DDT_AUDIT_GENERATED_(186)
  6
Continuous
 62
     7
100
AcDbCircle
 10
95.5089517566
 20
403.7352744771
 30
0.0
 40
0.250000002856867
100
AcDbArc
 50
0.5698308285
 51
34.9615205425
  0
ARC
  5
1AE
330
98
100
AcDbEntity
  8
$DDT_AUDIT_GENERATED_(186)
  6
Continuous
 62
     7
100
AcDbCircle
 10
59.5444621589
 20
410.2263452149
 30
0.0
 40
0.250009540593802
100
AcDbArc
 50
134.8932047717
 51
179.4185574736
  0
ARC
  5
1AF
330
98
100
AcDbEntity
  8
$DDT_AUDIT_GENERATED_(186)
  6
Continuous
 62
     7
100
AcDbCircle
 10
1305.1790505592
 20
7303.4353426619
 30
0.0
 40
7004.892841904251
100
AcDbArc
 50
259.7549113317
 51
260.0578578493
  0
LINE
  5
1B0
330
98
100
AcDbEntity
  8
$DDT_AUDIT_GENERATED_(186)
  6
Continuous
 62
     7
100
AcDbLine
 10
94.3935579207
 20
405.76678148
 30
0.0
 11
95.7138360269
 21
403.8785310204
 31
0.0
  0
LINE
  5
1B1
330
98
100
AcDbEntity
  8
$DDT_AUDIT_GENERATED_(186)
  6
Continuous
 62
     7
100
AcDbLine
 10
59.3680085965
 20
410.4034577896
 30
0.0
 11
60.7226323331
 21
411.7529894185
 31
0.0
  0
ARC
  5
1B2
330
98
100
AcDbEntity
  8
$DDT_AUDIT_GENERATED_(186)
  6
Continuous
 62
     7
100
AcDbCircle
 10
60.9343698809
 20
411.5404200706
 30
0.0
 40
0.3000453066350252
100
AcDbArc
 50
89.8595621495
 51
134.8876795543
  0
ARC
  5
1B3
330
98
100
AcDbEntity
  8
$DDT_AUDIT_GENERATED_(186)
  6
Continuous
 62
     7
100
AcDbCircle
 10
-1989.9337764238
 20
-11220.3576832518
 30
0.0
 40
11811.48553341755
100
AcDbArc
 50
79.8360099393
 51
79.8361301513
  0
ARC
  5
1B4
330
98
100
AcDbEntity
  8
$DDT_AUDIT_GENERATED_(186)
  6
Continuous
 62
     7
100
AcDbCircle
 10
-1989.9337764238
 20
-11220.3576832518
 30
0.0
 40
11811.48553341755
100
AcDbArc
 50
79.8361301513
 51
80.0014534282
  0
ARC
  5
1B5
330
98
100
AcDbEntity
  8
$DDT_AUDIT_GENERATED_(186)
  6
Continuous
 62
     7
100
AcDbCircle
 10
94.1476968065
 20
405.5948736434
 30
0.0
 40
0.2999999862772655
100
AcDbArc
 50
34.9615190229
 51
69.8441814381
  0
ARC
  5
1B6
330
98
100
AcDbEntity
  8
$DDT_AUDIT_GENERATED_(186)
  6
Continuous
 62
     7
100
AcDbCircle
 10
39.4387423916
 20
403.281587078
 30
0.0
 40
20.48161512800699
100
AcDbArc
 50
1.4171757832
 51
14.413365131
  0
LINE
  5
1B7
330
98
100
AcDbEntity
  8
$DDT_AUDIT_GENERATED_(186)
  6
Continuous
 62
     7
100
AcDbLine
 10
9.9860598155
 20
407.9381890596
 30
0.0
 11
9.9860598155
 21
412.0654177016
 31
0.0
  0
LINE
  5
1B8
330
98
100
AcDbEntity
  8
$DDT_AUDIT_GENERATED_(186)
  6
Continuous
 62
     7
100
AcDbLine
 10
9.9860598155
 20
416.0767202087
 30
0.0
 11
9.9860598155
 21
412.0654177016
 31
0.0
  0
ARC
  5
1B9
330
98
100
AcDbEntity
  8
$DDT_AUDIT_GENERATED_(186)
  6
Continuous
 62
     7
100
AcDbCircle
 10
-1238.3518774136
 20
412.1386011009
 30
0.0
 40
1248.837909321551
100
AcDbArc
 50
359.9969623972
 51
0.1996440047
  0
LINE
  5
1BA
330
98
100
AcDbEntity
  8
$DDT_AUDIT_GENERATED_(186)
  6
Continuous
 62
     7
100
AcDbLine
 10
10.4860557853
 20
412.0723918477
 30
0.0
 11
10.4858731717
 21
411.9192593325
 31
0.0
  0
ARC
  5
1BB
330
98
100
AcDbEntity
  8
$DDT_AUDIT_GENERATED_(186)
  6
Continuous
 62
     7
100
AcDbCircle
 10
-1412.0827363735
 20
411.9767948772
 30
0.0
 40
1422.568610718452
100
AcDbArc
 50
359.8136920885
 51
359.9976826821
  0
LINE
  5
1BC
330
98
100
AcDbEntity
  8
$DDT_AUDIT_GENERATED_(186)
  6
Continuous
 62
     7
100
AcDbLine
 10
95.7415457946
 20
380.3502369519
 30
0.0
 11
59.2415438077
 21
380.3502369519
 31
0.0
  0
LINE
  5
1BD
330
98
100
AcDbEntity
  8
$DDT_AUDIT_GENERATED_(186)
  6
Continuous
 62
     7
100
AcDbLine
 10
59.2757012231
 20
408.3797850507
 30
0.0
 11
59.2944468363
 21
410.228882479
 31
0.0
  0
LINE
  5
1BE
330
98
100
AcDbEntity
  8
$DDT_AUDIT_GENERATED_(186)
  6
Continuous
 62
     7
100
AcDbLine
 10
95.7589393931
 20
403.7377607911
 30
0.0
 11
95.9890594827
 21
380.6002245881
 31
0.0
  0
LINE
  5
1BF
330
98
100
AcDbEntity
  8
$DDT_AUDIT_GENERATED_(186)
  6
Continuous
 62
     7
100
AcDbLine
 10
58.9940800938
 20
380.6002241108
 30
0.0
 11
59.1730816076
 21
398.2572212013
 31
0.0
  0
ARC
  5
1C0
330
98
100
AcDbEntity
  8
$DDT_AUDIT_GENERATED_(186)
  6
Continuous
 62
     7
100
AcDbCircle
 10
95.7169213466
 20
380.6221436389
 30
0.0
 40
0.2730194313793901
100
AcDbArc
 50
275.1747116889
 51
355.3951184201
  0
SPLINE
  5
1C1
330
98
100
AcDbEntity
  8
$DDT_AUDIT_GENERATED_(186)
  6
Continuous
 62
     7
100
AcDbSpline
210
0.0
220
0.0
230
1.0
 70
     8
 71
     3
 72
     9
 73
     5
 74
     0
 42
0.0000000018404595
 43
0.0000000001
 40
0.9390745222888475
 40
0.9390745222888475
 40
0.9390745222888475
 40
0.9390745222888475
 40
0.9537368580216352
 40
1.0
 40
1.0
 40
1.0
 40
1.0
 10
95.6580254296412
 20
380.6001894139365
 30
0.0
 10
95.71134453817209
 20
380.6001929543073
 30
0.0
 10
95.9019516596185
 20
380.6002077577103
 30
0.0
 10
95.95146331251071
 20
380.6002173239923
 30
0.0
 10
95.98905948267449
 20
380.6002245880513
 30
0.0
  0
ARC
  5
1C2
330
98
100
AcDbEntity
  8
$DDT_AUDIT_GENERATED_(186)
  6
Continuous
 62
     7
100
AcDbCircle
 10
59.2661699061
 20
380.6220929653
 30
0.0
 40
0.2729691132635961
100
AcDbArc
 50
184.5951580228
 51
264.8239839825
  0
ARC
  5
1C3
330
98
100
AcDbEntity
  8
$DDT_AUDIT_GENERATED_(186)
  6
Continuous
 62
     7
100
AcDbCircle
 10
41.6507182905
 20
403.4198973472
 30
0.0
 40
18.26708628113821
100
AcDbArc
 50
344.4596239244
 51
1.1550787913
  0
ARC
  5
1C4
330
98
100
AcDbEntity
  8
$DDT_AUDIT_GENERATED_(186)
  6
Continuous
 62
     7
100
AcDbCircle
 10
41.6507182905
 20
403.4198973472
 30
0.0
 40
18.26708628113821
100
AcDbArc
 50
343.5832577218
 51
344.4596239244
  0
ARC
  5
1C5
330
98
100
AcDbEntity
  8
$DDT_AUDIT_GENERATED_(186)
  6
Continuous
 62
     7
100
AcDbCircle
 10
60.7071614144
 20
314.5301452693
 30
0.0
 40
97.3106200078054
100
AcDbArc
 50
69.7144358021
 51
89.9872480171
  0
SPLINE
  5
1C6
330
98
100
AcDbEntity
  8
$DDT_AUDIT_GENERATED_(186)
  6
Continuous
 62
     7
100
AcDbSpline
210
0.0
220
0.0
230
1.0
 70
     8
 71
     3
 72
    13
 73
     9
 74
     0
 42
0.0000000138917411
 43
0.0000000001
 40
0.0
 40
0.0
 40
0.0
 40
0.0
 40
0.1158313817166445
 40
0.2385426777861435
 40
0.500000542697604
 40
0.7614580491975319
 40
0.8841689735563001
 40
1.0
 40
1.0
 40
1.0
 40
1.0
 10
59.27569011688731
 20
408.379807236751
 30
0.0
 10
59.27268187944951
 20
408.3498006663943
 30
0.0
 10
59.26665173999819
 20
408.2970935434227
 30
0.0
 10
59.21461144263709
 20
408.1868748422275
 30
0.0
 10
59.11178092902264
 20
408.0711234320994
 30
0.0
 10
58.97910336862849
 20
407.9913157081725
 30
0.0
 10
58.86119758080071
 20
407.9604166823041
 30
0.0
 10
58.80827941437534
 20
407.9641754328445
 30
0.0
 10
58.77823075909151
 20
407.966732851883
 30
0.0
  0
LINE
  5
1C7
330
98
100
AcDbEntity
  8
$DDT_AUDIT_GENERATED_(186)
  6
Continuous
 62
     7
100
AcDbLine
 10
58.7785790166
 20
407.9666480109
 30
0.0
 11
10.4642837164
 21
416.4925995831
 31
0.0
  0
LINE
  5
1C8
330
98
100
AcDbEntity
  8
$DDT_AUDIT_GENERATED_(186)
  6
Continuous
 62
     7
100
AcDbLine
 10
10.4783534947
 20
407.3510559348
 30
0.0
 11
58.7741150088
 21
398.8283749921
 31
0.0
  0
ARC
  5
1C9
330
98
100
AcDbEntity
  8
$DDT_AUDIT_GENERATED_(186)
  6
Continuous
 62
     7
100
AcDbCircle
 10
10.6351213013
 20
407.9824308503
 30
0.0
 40
0.6505457244946655
100
AcDbArc
 50
183.8710892937
 51
256.0645907133
  0
ARC
  5
1CA
330
98
100
AcDbEntity
  8
$DDT_AUDIT_GENERATED_(186)
  6
Continuous
 62
     7
100
AcDbCircle
 10
-305.2000036771
 20
383.197755917
 30
0.0
 40
401.1433898770642
100
AcDbArc
 50
0.5733246748
 51
0.593040461
  0
ARC
  5
1CB
330
98
100
AcDbEntity
  8
$DDT_AUDIT_GENERATED_(186)
  6
Continuous
 62
     7
100
AcDbCircle
 10
166.3026943845
 20
388.2356189841
 30
0.0
 40
107.2257044198894
100
AcDbArc
 50
179.4373013505
 51
179.4916687691
  0
ARC
  5
1CC
330
98
100
AcDbEntity
  8
$DDT_AUDIT_GENERATED_(186)
  6
Continuous
 62
     7
100
AcDbCircle
 10
94.1420129263
 20
405.5950974612
 30
0.0
 40
0.3008455939827576
100
AcDbArc
 50
35.0059051393
 51
66.4716015037
  0
ARC
  5
1CD
330
98
100
AcDbEntity
  8
$DDT_AUDIT_GENERATED_(186)
  6
Continuous
 62
     7
100
AcDbCircle
 10
58.5300134218
 20
398.2188732075
 30
0.0
 40
0.6441983754308627
100
AcDbArc
 50
3.4020488042
 51
76.0097454428
  0
SPLINE
  5
1CE
330
98
100
AcDbEntity
  8
$DDT_AUDIT_GENERATED_(186)
  6
Continuous
 62
     7
100
AcDbSpline
210
0.0
220
0.0
230
1.0
 70
     8
 71
     3
 72
    13
 73
     9
 74
     0
 42
0.0000000139530598
 43
0.0000000001
 40
0.0
 40
0.0
 40
0.0
 40
0.0
 40
0.1158804589244956
 40
0.2386221769636709
 40
0.5001424073003704
 40
0.7615921979986704
 40
0.8842437849039643
 40
1.0
 40
1.0
 40
1.0
 40
1.0
 10
10.47845173081299
 20
416.4901058162393
 30
0.0
 10
10.44858437853302
 20
416.4926219782828
 30
0.0
 10
10.39598790119589
 20
416.4963063921547
 30
0.0
 10
10.2788001131443
 20
416.465127470667
 30
0.0
 10
10.14708751163726
 20
416.3849598199538
 30
0.0
 10
10.04532578656087
 20
416.2690147883184
 30
0.0
 10
9.994282706629221
 20
416.158847827484
 30
0.0
 10
9.988772229025333
 20
416.106312364447
 30
0.0
 10
9.986059815487918
 20
416.0764104292399
 30
0.0
  0
ARC
  5
1CF
330
98
100
AcDbEntity
  8
$DDT_AUDIT_GENERATED_(186)
  6
Continuous
 62
     7
100
AcDbCircle
 10
28.0298109699
 20
386.7193607907
 30
0.0
 40
67.89503229987129
100
AcDbArc
 50
354.8290541237
 51
0.5801602899
  0
ARC
  5
1D0
330
98
100
AcDbEntity
  8
$DDT_AUDIT_GENERATED_(186)
  6
Continuous
 62
     7
100
AcDbCircle
 10
59.2512535024
 20
380.5866825909
 30
0.0
 40
0.2352630198602278
100
AcDbArc
 50
196.419248507
 51
245.3992370256
  0
ENDBLK
  5
1D2
330
98
100
AcDbEntity
  8
0
100
AcDbBlockEnd
  0
BLOCK
  5
22A
330
1D3
100
AcDbEntity
  8
0
100
AcDbBlockBegin
  2
SE1
 70
     0
 10
0.0
 20
0.0
 30
0.0
  3
SE1
  1

  0
LINE
  5
1D5
330
1D3
100
AcDbEntity
  8
$DDT_AUDIT_GENERATED_(9A)
  6
Continuous
 62
     7
100
AcDbLine
 10
462.4865005808
 20
374.0502369519
 30
0.0
 11
462.4865005808
 21
379.050236937
 31
0.0
  0
ARC
  5
1D6
330
1D3
100
AcDbEntity
  8
$DDT_AUDIT_GENERATED_(9A)
  6
Continuous
 62
     7
100
AcDbCircle
 10
461.4866216118
 20
379.0505717046
 30
0.0
 40
0.9996653011589625
100
AcDbArc
 50
359.9808128048
 51
90.0188145777
  0
SPLINE
  5
1D7
330
1D3
100
AcDbEntity
  8
$DDT_AUDIT_GENERATED_(9A)
  6
Continuous
 62
     7
100
AcDbSpline
210
0.0
220
0.0
230
1.0
 70
     8
 71
     3
 72
    13
 73
     9
 74
     0
 42
0.0000000063014676
 43
0.0000000001
 40
0.0
 40
0.0
 40
0.0
 40
0.0
 40
0.1294353618362334
 40
0.2550301133060643
 40
0.4999999999999991
 40
0.7449698866939325
 40
0.8705646381637665
 40
1.0
 40
1.0
 40
1.0
 40
1.0
 10
408.4813830334915
 20
380.0502369518548
 30
0.0
 10
408.4072036545581
 20
380.0465559423236
 30
0.0
 10
408.2832921881806
 20
380.0384826139302
 30
0.0
 10
408.028346676542
 20
379.9584115153389
 30
0.0
 10
407.7567569598874
 20
379.7748630105579
 30
0.0
 10
407.5732084551062
 20
379.5032732939032
 30
0.0
 10
407.4931373565149
 20
379.2483277822646
 30
0.0
 10
407.4850640281217
 20
379.1244163158872
 30
0.0
 10
407.4813830185905
 20
379.0502369369538
 30
0.0
  0
ARC
  5
1D8
330
1D3
100
AcDbEntity
  8
$DDT_AUDIT_GENERATED_(A2)
  6
Continuous
 62
     7
100
AcDbCircle
 10
425.5317439156
 20
379.7502369519
 30
0.0
 40
0.3000000000000008
100
AcDbArc
 50
41.8103148958
 51
90.0
  0
ARC
  5
1D9
330
1D3
100
AcDbEntity
  8
$DDT_AUDIT_GENERATED_(A2)
  6
Continuous
 62
     7
100
AcDbCircle
 10
444.4317439156
 20
379.7502369519
 30
0.0
 40
0.2999999999999999
100
AcDbArc
 50
90.0
 51
138.1896851042
  0
LINE
  5
1DA
330
1D3
100
AcDbEntity
  8
$DDT_AUDIT_GENERATED_(A5)
  6
Continuous
 62
     7
100
AcDbLine
 10
573.8776809967
 20
558.9796815573
 30
0.0
 11
595.5434515629
 21
562.799941466
 31
0.0
  0
LINE
  5
1DB
330
1D3
100
AcDbEntity
  8
$DDT_AUDIT_GENERATED_(A5)
  6
Continuous
 62
     7
100
AcDbLine
 10
573.1555621733
 20
560.1956356703
 30
0.0
 11
595.8061404926
 21
564.1895437567
 31
0.0
  0
ARC
  5
1DC
330
1D3
100
AcDbEntity
  8
$DDT_AUDIT_GENERATED_(A5)
  6
Continuous
 62
     7
100
AcDbCircle
 10
509.9817439156
 20
552.7902369517
 30
0.0
 40
63.50000000000087
100
AcDbArc
 50
10.0
 51
180.0
  0
ARC
  5
1DD
330
1D3
100
AcDbEntity
  8
$DDT_AUDIT_GENERATED_(A5)
  6
Continuous
 62
     7
100
AcDbCircle
 10
509.9817439156
 20
552.7902369517
 30
0.0
 40
86.50000000000024
100
AcDbArc
 50
10.0
 51
90.0
  0
ARC
  5
1DE
330
1D3
100
AcDbEntity
  8
$DDT_AUDIT_GENERATED_(A5)
  6
Continuous
 62
     7
100
AcDbCircle
 10
509.9817439156
 20
552.7902369517
 30
0.0
 40
86.50000000000091
100
AcDbArc
 50
90.0
 51
180.0
  0
LINE
  5
1DF
330
1D3
100
AcDbEntity
  8
$DDT_AUDIT_GENERATED_(A5)
  6
Continuous
 62
     7
100
AcDbLine
 10
446.4817439156
 20
410.9337508064
 30
0.0
 11
446.4817439156
 21
552.7902369517
 31
0.0
  0
LINE
  5
1E0
330
1D3
100
AcDbEntity
  8
$DDT_AUDIT_GENERATED_(A5)
  6
Continuous
 62
     7
100
AcDbLine
 10
423.4817439156
 20
552.7902369517
 30
0.0
 11
423.4817439156
 21
411.0041022875
 31
0.0
  0
LINE
  5
1E1
330
1D3
100
AcDbEntity
  8
$DDT_AUDIT_GENERATED_(A5)
  6
Continuous
 62
     7
100
AcDbLine
 10
572.5170362318
 20
563.8168962335
 30
0.0
 11
573.1555621733
 21
560.1956356703
 31
0.0
  0
LINE
  5
1E2
330
1D3
100
AcDbEntity
  8
$DDT_AUDIT_GENERATED_(A5)
  6
Continuous
 62
     7
100
AcDbLine
 10
595.8061404926
 20
564.1895437567
 30
0.0
 11
595.1676145511
 21
567.8108043199
 31
0.0
  0
LINE
  5
1E3
330
1D3
100
AcDbEntity
  8
$DDT_AUDIT_GENERATED_(A5)
  6
Continuous
 62
     7
100
AcDbLine
 10
573.8776809967
 20
558.9796815573
 30
0.0
 11
574.0079171299
 21
558.2410757426
 31
0.0
  0
LINE
  5
1E4
330
1D3
100
AcDbEntity
  8
$DDT_AUDIT_GENERATED_(A5)
  6
Continuous
 62
     7
100
AcDbLine
 10
595.6736876962
 20
562.0613356512
 30
0.0
 11
595.5434515629
 21
562.799941466
 31
0.0
  0
ARC
  5
1E5
330
1D3
100
AcDbEntity
  8
$DDT_AUDIT_GENERATED_(A5)
  6
Continuous
 62
     7
100
AcDbCircle
 10
593.8365249866
 20
563.8422474013
 30
0.0
 40
1.999999999999956
100
AcDbArc
 50
328.5903778907
 51
10.0
  0
ARC
  5
1E6
330
1D3
100
AcDbEntity
  8
$DDT_AUDIT_GENERATED_(A5)
  6
Continuous
 62
     7
100
AcDbCircle
 10
575.1251776793
 20
560.5429320257
 30
0.0
 40
2.000000000000015
100
AcDbArc
 50
190.0
 51
231.4096221093
  0
LINE
  5
1E7
330
1D3
100
AcDbEntity
  8
$DDT_AUDIT_GENERATED_(A5)
  6
Continuous
 62
     7
100
AcDbLine
 10
574.6120966864
 20
558.3476088996
 30
0.0
 11
574.4818605532
 21
559.0862147143
 31
0.0
  0
LINE
  5
1E8
330
1D3
100
AcDbEntity
  8
$DDT_AUDIT_GENERATED_(A5)
  6
Continuous
 62
     7
100
AcDbLine
 10
595.0695081397
 20
561.9548024942
 30
0.0
 11
594.9392720065
 21
562.693408309
 31
0.0
  0
LINE
  5
1E9
330
1D3
100
AcDbEntity
  8
$DDT_AUDIT_GENERATED_(B6)
  6
Continuous
 62
     7
100
AcDbLine
 10
598.2071634215
 20
545.2458033745
 30
0.0
 11
577.3784794453
 21
541.5731444169
 31
0.0
  0
LINE
  5
1EA
330
1D3
100
AcDbEntity
  8
$DDT_AUDIT_GENERATED_(B6)
  6
Continuous
 62
     7
100
AcDbLine
 10
576.2200235146
 20
542.3843039922
 30
0.0
 11
599.0183229969
 21
546.4042593052
 31
0.0
  0
LINE
  5
1EB
330
1D3
100
AcDbEntity
  8
$DDT_AUDIT_GENERATED_(B6)
  6
Continuous
 62
     7
100
AcDbLine
 10
573.5893738349
 20
558.167275267
 30
0.0
 11
596.0922309912
 21
562.1351361267
 31
0.0
  0
LINE
  5
1EC
330
1D3
100
AcDbEntity
  8
$DDT_AUDIT_GENERATED_(B6)
  6
Continuous
 62
     7
100
AcDbLine
 10
599.0183229969
 20
546.4042593052
 30
0.0
 11
596.2659993808
 21
562.0134621904
 31
0.0
  0
LINE
  5
1ED
330
1D3
100
AcDbEntity
  8
$DDT_AUDIT_GENERATED_(B6)
  6
Continuous
 62
     7
100
AcDbLine
 10
573.4676998986
 20
557.9935068774
 30
0.0
 11
576.2200235146
 21
542.3843039922
 31
0.0
  0
ARC
  5
1EE
330
1D3
100
AcDbEntity
  8
$DDT_AUDIT_GENERATED_(B6)
  6
Continuous
 62
     7
100
AcDbCircle
 10
598.0335152438
 20
546.2306111275
 30
0.0
 40
0.9999999999999777
100
AcDbArc
 50
280.0
 51
10.0
  0
ARC
  5
1EF
330
1D3
100
AcDbEntity
  8
$DDT_AUDIT_GENERATED_(B6)
  6
Continuous
 62
     7
100
AcDbCircle
 10
577.2048312676
 20
542.5579521699
 30
0.0
 40
1.000000000000005
100
AcDbArc
 50
190.0
 51
280.0
  0
ARC
  5
1F0
330
1D3
100
AcDbEntity
  8
$DDT_AUDIT_GENERATED_(B6)
  6
Continuous
 62
     7
100
AcDbCircle
 10
596.1182782179
 20
561.9874149638
 30
0.0
 40
0.1500000000000037
100
AcDbArc
 50
10.0
 51
100.0
  0
ARC
  5
1F1
330
1D3
100
AcDbEntity
  8
$DDT_AUDIT_GENERATED_(B6)
  6
Continuous
 62
     7
100
AcDbCircle
 10
573.6154210615
 20
558.0195541041
 30
0.0
 40
0.1499999999999763
100
AcDbArc
 50
100.0
 51
190.0
  0
LINE
  5
1F2
330
1D3
100
AcDbEntity
  8
$DDT_AUDIT_GENERATED_(C5)
  6
Continuous
 62
     7
100
AcDbLine
 10
578.9729637007
 20
541.6004383584
 30
0.0
 11
596.6995032549
 21
544.7261055564
 31
0.0
  0
LINE
  5
1F3
330
1D3
100
AcDbEntity
  8
$DDT_AUDIT_GENERATED_(C5)
  6
Continuous
 62
     7
100
AcDbLine
 10
578.9295516563
 20
541.8466402967
 30
0.0
 11
578.9729637007
 21
541.6004383584
 31
0.0
  0
LINE
  5
1F4
330
1D3
100
AcDbEntity
  8
$DDT_AUDIT_GENERATED_(C5)
  6
Continuous
 62
     7
100
AcDbLine
 10
596.6995032549
 20
544.7261055564
 30
0.0
 11
596.6560912105
 21
544.9723074947
 31
0.0
  0
LINE
  5
1F5
330
1D3
100
AcDbEntity
  8
$DDT_AUDIT_GENERATED_(172)
  6
Continuous
 62
     7
100
AcDbLine
 10
407.4769873778
 20
374.0502369519
 30
0.0
 11
462.4821048125
 21
374.0502369519
 31
0.0
  0
LINE
  5
1F6
330
1D3
100
AcDbEntity
  8
$DDT_AUDIT_GENERATED_(172)
  6
Continuous
 62
     7
100
AcDbLine
 10
462.4821048125
 20
379.050236937
 30
0.0
 11
407.4772012098
 21
379.050236937
 31
0.0
  0
LINE
  5
1F7
330
1D3
100
AcDbEntity
  8
$DDT_AUDIT_GENERATED_(172)
  6
Continuous
 62
     7
100
AcDbLine
 10
408.4771944857
 20
380.0502369519
 30
0.0
 11
461.4821047976
 21
380.0502369519
 31
0.0
  0
LINE
  5
1F8
330
1D3
100
AcDbEntity
  8
$DDT_AUDIT_GENERATED_(172)
  6
Continuous
 62
     7
100
AcDbLine
 10
462.4821048125
 20
374.0502369519
 30
0.0
 11
462.4821048125
 21
379.050236937
 31
0.0
  0
LINE
  5
1F9
330
1D3
100
AcDbEntity
  8
$DDT_AUDIT_GENERATED_(172)
  6
Continuous
 62
     7
100
AcDbLine
 10
407.4769872504
 20
379.050236937
 30
0.0
 11
407.4769872504
 21
374.0502369519
 31
0.0
  0
SPLINE
  5
1FA
330
1D3
100
AcDbEntity
  8
$DDT_AUDIT_GENERATED_(172)
  6
Continuous
 62
     7
100
AcDbSpline
210
0.0
220
0.0
230
1.0
 70
     8
 71
     3
 72
    13
 73
     9
 74
     0
 42
0.0000000063014676
 43
0.0000000001
 40
0.0
 40
0.0
 40
0.0
 40
0.0
 40
0.1294353618362324
 40
0.2550301133060645
 40
0.4999999999999992
 40
0.7449698866939348
 40
0.8705646381637662
 40
1.0
 40
1.0
 40
1.0
 40
1.0
 10
462.4821048125344
 20
379.0502369369538
 30
0.0
 10
462.4784238030032
 20
379.1244163158872
 30
0.0
 10
462.4703504746099
 20
379.2483277822646
 30
0.0
 10
462.3902793760186
 20
379.5032732939032
 30
0.0
 10
462.2067308712375
 20
379.7748630105579
 30
0.0
 10
461.9351411545829
 20
379.9584115153389
 30
0.0
 10
461.6801956429442
 20
380.0384826139303
 30
0.0
 10
461.5562841765668
 20
380.0465559423236
 30
0.0
 10
461.4821047976334
 20
380.0502369518548
 30
0.0
  0
ARC
  5
1FB
330
1D3
100
AcDbEntity
  8
$DDT_AUDIT_GENERATED_(172)
  6
Continuous
 62
     7
100
AcDbCircle
 10
408.4768662193
 20
379.0505717046
 30
0.0
 40
0.9996653011589627
100
AcDbArc
 50
89.9811854223
 51
180.0191871952
  0
LINE
  5
1FC
330
1D3
100
AcDbEntity
  8
$DDT_AUDIT_GENERATED_(181)
  6
Continuous
 62
     7
100
AcDbLine
 10
420.6067439156
 20
380.3502369519
 30
0.0
 11
420.6067439156
 21
380.0502369519
 31
0.0
  0
LINE
  5
1FD
330
1D3
100
AcDbEntity
  8
$DDT_AUDIT_GENERATED_(181)
  6
Continuous
 62
     7
100
AcDbLine
 10
449.3567439156
 20
380.0502369519
 30
0.0
 11
449.3567439156
 21
380.3502369519
 31
0.0
  0
SPLINE
  5
1FE
330
1D3
100
AcDbEntity
  8
$DDT_AUDIT_GENERATED_(186)
  6
Continuous
 62
     7
100
AcDbSpline
210
0.0
220
0.0
230
1.0
 70
    12
 71
     3
 72
     8
 73
     4
 74
     0
 42
0.0000000007701775
 43
0.0000000001
 40
0.4517465745800631
 40
0.4517465745800631
 40
0.4517465745800631
 40
0.4517465745800631
 40
0.4550273175542328
 40
0.4550273175542328
 40
0.4550273175542328
 40
0.4550273175542328
 10
452.9507988610807
 20
407.6037404106522
 30
0.0
 41
1.0
 10
452.9600579319252
 20
407.5927215343976
 30
0.0
 41
1.0
 10
452.9690024223867
 20
407.581695439164
 30
0.0
 41
1.0
 10
452.9776319487987
 20
407.5706626566902
 30
0.0
 41
1.0
  0
SPLINE
  5
1FF
330
1D3
100
AcDbEntity
  8
$DDT_AUDIT_GENERATED_(186)
  6
Continuous
 62
     7
100
AcDbSpline
210
0.0
220
0.0
230
1.0
 70
     8
 71
     3
 72
     9
 73
     5
 74
     0
 42
0.0000000008986423
 43
0.0000000001
 40
0.4931538684482577
 40
0.4931538684482577
 40
0.4931538684482577
 40
0.4931538684482577
 40
0.4988979346249687
 40
0.4990018474342413
 40
0.4990018474342413
 40
0.4990018474342413
 40
0.4990018474342413
 10
451.5674843573669
 20
409.2507394586214
 30
0.0
 10
451.5823549395632
 20
409.2348105844579
 30
0.0
 10
451.5967465716521
 20
409.2185739567661
 30
0.0
 10
451.6103735990463
 20
409.2023195295692
 30
0.0
 10
451.610615496447
 20
409.2020306988461
 30
0.0
  0
LINE
  5
200
330
1D3
100
AcDbEntity
  8
$DDT_AUDIT_GENERATED_(186)
  6
Continuous
 62
     7
100
AcDbLine
 10
416.7315836609
 20
380.3502369519
 30
0.0
 11
416.7313670348
 21
380.3502369519
 31
0.0
  0
ARC
  5
201
330
1D3
100
AcDbEntity
  8
$DDT_AUDIT_GENERATED_(186)
  6
Continuous
 62
     7
100
AcDbCircle
 10
417.7641873999
 20
406.9213020158
 30
0.0
 40
1.017325426160107
100
AcDbArc
 50
137.8761492524
 51
177.538402715
  0
LINE
  5
202
330
1D3
100
AcDbEntity
  8
$DDT_AUDIT_GENERATED_(186)
  6
Continuous
 62
     7
100
AcDbLine
 10
453.4794803208
 20
380.574359316
 30
0.0
 11
453.4792367819
 21
380.5984638551
 31
0.0
  0
ARC
  5
203
330
1D3
100
AcDbEntity
  8
$DDT_AUDIT_GENERATED_(186)
  6
Continuous
 62
     7
100
AcDbCircle
 10
416.7585106151
 20
380.6244579234
 30
0.0
 40
0.2755448633587154
100
AcDbArc
 50
185.0455400457
 51
264.3812235356
  0
LINE
  5
204
330
1D3
100
AcDbEntity
  8
$DDT_AUDIT_GENERATED_(186)
  6
Continuous
 62
     7
100
AcDbLine
 10
416.7478038399
 20
406.9653127318
 30
0.0
 11
416.5876973572
 21
390.9619316098
 31
0.0
  0
LINE
  5
205
330
1D3
100
AcDbEntity
  8
$DDT_AUDIT_GENERATED_(186)
  6
Continuous
 62
     7
100
AcDbLine
 10
416.5479203214
 20
386.9860334858
 30
0.0
 11
416.4840332535
 21
380.6002264983
 31
0.0
  0
ARC
  5
206
330
1D3
100
AcDbEntity
  8
$DDT_AUDIT_GENERATED_(186)
  6
Continuous
 62
     7
100
AcDbCircle
 10
453.2047639664
 20
380.624433313
 30
0.0
 40
0.2755205903037168
100
AcDbArc
 50
275.6197406106
 51
354.9591006535
  0
SPLINE
  5
207
330
1D3
100
AcDbEntity
  8
$DDT_AUDIT_GENERATED_(186)
  6
Continuous
 62
     7
100
AcDbSpline
210
0.0
220
0.0
230
1.0
 70
    12
 71
     3
 72
    51
 73
    47
 74
     0
 42
0.0000000002900171
 43
0.0000000001
 40
0.0789252123400424
 40
0.0789252123400424
 40
0.0789252123400424
 40
0.0789252123400424
 40
0.0941827743957143
 40
0.1248226312632754
 40
0.1248226312632754
 40
0.1248226312632754
 40
0.1249507288720326
 40
0.1249507288720326
 40
0.1249507288720326
 40
0.1570234044631672
 40
0.1872521912744066
 40
0.1872521912744066
 40
0.1872521912744066
 40
0.1874362269664958
 40
0.1874362269664958
 40
0.1874362269664958
 40
0.2105224746233623
 40
0.2261465112328315
 40
0.2495804702996026
 40
0.2495804702996026
 40
0.2495804702996026
 40
0.2498114558361197
 40
0.2498114558361197
 40
0.2498114558361197
 40
0.3120656924415536
 40
0.3120656924415536
 40
0.3120656924415536
 40
0.3123310944052572
 40
0.3123310944052572
 40
0.3123310944052572
 40
0.3443533704540209
 40
0.3746621921797464
 40
0.3746621921797464
 40
0.3746621921797464
 40
0.3749477210971457
 40
0.3749477210971457
 40
0.3749477210971457
 40
0.406886421987441
 40
0.4371267269886651
 40
0.4371267269886651
 40
0.4371267269886651
 40
0.4374232472030416
 40
0.4374232472030416
 40
0.4374232472030416
 40
0.4753088870469541
 40
0.4993674759573495
 40
0.4993674759573495
 40
0.4993674759573495
 40
0.4993674759573495
 10
439.4918526478733
 20
410.1260259919314
 30
0.0
 41
0.9999999999997875
 10
439.7760987989956
 20
410.1129003652758
 30
0.0
 41
0.9999999999997877
 10
440.6256504338745
 20
410.0697199517023
 30
0.0
 41
0.9999999999997882
 10
441.4559748650179
 20
410.0155630521543
 30
0.0
 41
0.9999999999997888
 10
441.9990620852067
 20
409.974700184694
 30
0.0
 41
0.9999999999997895
 10
442.0013325460184
 20
409.9745298329517
 30
0.0
 41
0.9999999999997895
 10
442.0036028106249
 20
409.9743594199617
 30
0.0
 41
0.9999999999997895
 10
442.0058728774747
 20
409.9741889277159
 30
0.0
 41
0.9999999999997895
 10
442.5739951271256
 20
409.9314786991295
 30
0.0
 41
0.99999999999979
 10
443.6539348023016
 20
409.8380147007941
 30
0.0
 41
0.9999999999997913
 10
444.6763894370426
 20
409.726636270176
 30
0.0
 41
0.9999999999997928
 10
445.1566310773617
 20
409.6682998135755
 30
0.0
 41
0.9999999999997937
 10
445.1595549920809
 20
409.6679457074702
 30
0.0
 41
0.9999999999997937
 10
445.1624783292165
 20
409.6675915268954
 30
0.0
 41
0.9999999999997937
 10
445.1654010785181
 20
409.667237174382
 30
0.0
 41
0.9999999999997937
 10
445.5318913272826
 20
409.6227387460436
 30
0.0
 41
0.9999999999997944
 10
446.1316600676781
 20
409.5440693129714
 30
0.0
 41
0.9999999999997955
 10
447.0486349310574
 20
409.4077885110586
 30
0.0
 41
0.9999999999997973
 10
447.5938754165854
 20
409.3160425251249
 30
0.0
 41
0.9999999999997986
 10
447.9092944772088
 20
409.2589686766209
 30
0.0
 41
0.9999999999997995
 10
447.9124037743897
 20
409.258406214164
 30
0.0
 41
0.9999999999997995
 10
447.9155119387304
 20
409.2578434857572
 30
0.0
 41
0.9999999999997995
 10
447.9186189695395
 20
409.2572804846065
 30
0.0
 41
0.9999999999997995
 10
448.7565456345619
 20
409.1055009730493
 30
0.0
 41
0.9999999999998017
 10
449.5096817113676
 20
408.9394444436585
 30
0.0
 41
0.9999999999998042
 10
450.1658655316702
 20
408.7623224492102
 30
0.0
 41
0.9999999999998066
 10
450.1686630228206
 20
408.7615654182841
 30
0.0
 41
0.9999999999998066
 10
450.1714587593532
 20
408.7608082270637
 30
0.0
 41
0.9999999999998066
 10
450.1742527340056
 20
408.760050779971
 30
0.0
 41
0.9999999999998066
 10
450.5114757830501
 20
408.6687179501064
 30
0.0
 41
0.9999999999998079
 10
451.116578128646
 20
408.4862805778785
 30
0.0
 41
0.9999999999998106
 10
451.6201422614902
 20
408.293469818328
 30
0.0
 41
0.9999999999998135
 10
451.8394960203329
 20
408.1984699825234
 30
0.0
 41
0.9999999999998148
 10
451.8415618933446
 20
408.1975718856207
 30
0.0
 41
0.9999999999998148
 10
451.8436254943882
 20
408.1966738850631
 30
0.0
 41
0.9999999999998148
 10
451.84568680516
 20
408.1957756611381
 30
0.0
 41
0.9999999999998148
 10
452.0762050185957
 20
408.0953376609313
 30
0.0
 41
0.9999999999998164
 10
452.469790714683
 20
407.8965605730091
 30
0.0
 41
0.999999999999819
 10
452.7545586777354
 20
407.6916868218649
 30
0.0
 41
0.9999999999998219
 10
452.8663066384823
 20
407.591507193942
 30
0.0
 41
0.9999999999998233
 10
452.8674021050689
 20
407.5905235299318
 30
0.0
 41
0.9999999999998233
 10
452.8684949888622
 20
407.5895398349926
 30
0.0
 41
0.9999999999998233
 10
452.8695852870592
 20
407.5885560475086
 30
0.0
 41
0.9999999999998235
 10
453.0088196642985
 20
407.4628918364917
 30
0.0
 41
0.9999999999998253
 10
453.1679065129474
 20
407.2553449359098
 30
0.0
 41
0.9999999999998279
 10
453.2148586652081
 20
407.0463801379678
 30
0.0
 41
0.9999999999998308
 10
453.215684252871
 20
406.9652830399743
 30
0.0
 41
0.9999999999998319
  0
SPLINE
  5
208
330
1D3
100
AcDbEntity
  8
$DDT_AUDIT_GENERATED_(186)
  6
Continuous
 62
     7
100
AcDbSpline
210
0.0
220
0.0
230
1.0
 70
    12
 71
     3
 72
     8
 73
     4
 74
     0
 42
0.0000000007701775
 43
0.0000000001
 40
0.4517465745800633
 40
0.4517465745800633
 40
0.4517465745800633
 40
0.4517465745800633
 40
0.4550273175542343
 40
0.4550273175542343
 40
0.4550273175542343
 40
0.4550273175542343
 10
417.0126889700442
 20
407.6037404106522
 30
0.0
 41
1.0
 10
417.0034298991997
 20
407.5927215343977
 30
0.0
 41
1.0
 10
416.9944854087381
 20
407.581695439164
 30
0.0
 41
1.0
 10
416.9858558823262
 20
407.5706626566902
 30
0.0
 41
1.0
  0
SPLINE
  5
209
330
1D3
100
AcDbEntity
  8
$DDT_AUDIT_GENERATED_(186)
  6
Continuous
 62
     7
100
AcDbSpline
210
0.0
220
0.0
230
1.0
 70
     8
 71
     3
 72
    14
 73
    10
 74
     0
 42
0.0000000002940256
 43
0.0000000001
 40
0.0524427123107252
 40
0.0524427123107252
 40
0.0524427123107252
 40
0.0524427123107252
 40
0.0715834293236942
 40
0.1061545868723843
 40
0.1431635731220918
 40
0.1955687071689574
 40
0.2504153375730132
 40
0.3749886296029395
 40
0.4809561187976473
 40
0.4809561187976473
 40
0.4809561187976473
 40
0.4809561187976473
 10
430.4789549613128
 20
410.1262980677882
 30
0.0
 10
430.1331295228713
 20
410.1103153985715
 30
0.0
 10
429.1700283810561
 20
410.0606467508746
 30
0.0
 10
427.5863750711906
 20
409.9522636484206
 30
0.0
 10
425.5274002074117
 20
409.7629894029375
 30
0.0
 10
423.3188396864512
 20
409.4859837878309
 30
0.0
 10
420.2294787448371
 20
408.9450869728228
 30
0.0
 10
417.5201748705591
 20
408.1072525347349
 30
0.0
 10
416.7787302581125
 20
407.3479711954336
 30
0.0
 10
416.7525957284711
 20
406.9998864145015
 30
0.0
  0
SPLINE
  5
20A
330
1D3
100
AcDbEntity
  8
$DDT_AUDIT_GENERATED_(186)
  6
Continuous
 62
     7
100
AcDbSpline
210
0.0
220
0.0
230
1.0
 70
     8
 71
     3
 72
     8
 73
     4
 74
     0
 42
0.0000000010135936
 43
0.0000000001
 40
0.4809561187976473
 40
0.4809561187976473
 40
0.4809561187976473
 40
0.4809561187976473
 40
0.4846837542606278
 40
0.4846837542606278
 40
0.4846837542606278
 40
0.4846837542606278
 10
416.7525957284711
 20
406.9998864145015
 30
0.0
 10
416.7516763899056
 20
406.9876417800066
 30
0.0
 10
416.7511464325715
 20
406.9753982802048
 30
0.0
 10
416.7510062445396
 20
406.9631567134127
 30
0.0
  0
SPLINE
  5
20B
330
1D3
100
AcDbEntity
  8
$DDT_AUDIT_GENERATED_(186)
  6
Continuous
 62
     7
100
AcDbSpline
210
0.0
220
0.0
230
1.0
 70
     8
 71
     3
 72
     8
 73
     4
 74
     0
 42
0.0000000006279504
 43
0.0000000001
 40
0.5778534435905897
 40
0.5778534435905897
 40
0.5778534435905897
 40
0.5778534435905897
 40
0.5868990490930542
 40
0.5868990490930542
 40
0.5868990490930542
 40
0.5868990490930542
 10
418.8369172290592
 20
409.5774544669841
 30
0.0
 10
418.8744798013433
 20
409.6045342666983
 30
0.0
 10
418.9141863885738
 20
409.6315188166432
 30
0.0
 10
418.9560309529583
 20
409.658400797511
 30
0.0
  0
SPLINE
  5
20C
330
1D3
100
AcDbEntity
  8
$DDT_AUDIT_GENERATED_(186)
  6
Continuous
 62
     7
100
AcDbSpline
210
0.0
220
0.0
230
1.0
 70
     8
 71
     3
 72
    17
 73
    13
 74
     0
 42
0.0000000002719026
 43
0.0000000001
 40
0.5979853537112907
 40
0.5979853537112907
 40
0.5979853537112907
 40
0.5979853537112907
 40
0.6249812215489924
 40
0.6874016950803744
 40
0.7186568606408452
 40
0.7499156933052396
 40
0.7812494076231318
 40
0.8125812930117983
 40
0.8439445454607748
 40
0.8753022576466096
 40
0.9065279819687342
 40
0.9134597658137493
 40
0.9134597658137493
 40
0.9134597658137493
 40
0.9134597658137493
 10
419.1195072468122
 20
409.7567646756722
 30
0.0
 10
419.2599944947018
 20
409.8362073138581
 30
0.0
 10
419.7880152849581
 20
410.0960215101513
 30
0.0
 10
420.7739634243844
 20
410.4281751000345
 30
0.0
 10
422.0598423464532
 20
410.740766036078
 30
0.0
 10
423.1531387808172
 20
410.9583778397088
 30
0.0
 10
424.3623407303419
 20
411.156402080405
 30
0.0
 10
425.6784507348174
 20
411.3329215529791
 30
0.0
 10
427.0879592222432
 20
411.4858354429088
 30
0.0
 10
428.5747947541408
 20
411.6132035471805
 30
0.0
 10
429.7228204021106
 20
411.6878264820638
 30
0.0
 10
430.3651429688907
 20
411.7217519454914
 30
0.0
 10
430.4822011602672
 20
411.7276860472733
 30
0.0
  0
SPLINE
  5
20D
330
1D3
100
AcDbEntity
  8
$DDT_AUDIT_GENERATED_(186)
  6
Continuous
 62
     7
100
AcDbSpline
210
0.0
220
0.0
230
1.0
 70
     8
 71
     3
 72
    18
 73
    14
 74
     0
 42
0.00000000027927
 43
0.0000000001
 40
0.0866551736959118
 40
0.0866551736959118
 40
0.0866551736959118
 40
0.0866551736959118
 40
0.0934345639393668
 40
0.1246063460578721
 40
0.1559000594590841
 40
0.1871983581997377
 40
0.2184377156716112
 40
0.2496796239992165
 40
0.3121838955016805
 40
0.3435943935162737
 40
0.3750000832102492
 40
0.4063710501061639
 40
0.4180990752888184
 40
0.4180990752888184
 40
0.4180990752888184
 40
0.4180990752888184
 10
439.4902915517649
 20
411.7274383065661
 30
0.0
 10
439.6047815108417
 20
411.7216065159017
 30
0.0
 10
440.2436893192872
 20
411.6877331741874
 30
0.0
 10
441.3871883256525
 20
411.6135484484569
 30
0.0
 10
442.8717590487809
 20
411.4864645014121
 30
0.0
 10
444.278054906138
 20
411.3340759071298
 30
0.0
 10
445.5922521861851
 20
411.1581359985154
 30
0.0
 10
447.2023864828654
 20
410.8950437719606
 30
0.0
 10
448.5882172809714
 20
410.591232555548
 30
0.0
 10
449.6999536200825
 20
410.2575086127454
 30
0.0
 10
450.3947158483988
 20
409.9935054169001
 30
0.0
 10
450.8254742958642
 20
409.7765352772661
 30
0.0
 10
451.027038716573
 20
409.6484517580054
 30
0.0
 10
451.0783073661046
 20
409.6134324360086
 30
0.0
  0
ELLIPSE
  5
20E
330
1D3
100
AcDbEntity
  8
$DDT_AUDIT_GENERATED_(186)
  6
Continuous
 62
     7
100
AcDbEllipse
 10
434.9861809154
 20
412.0076163926
 30
0.0
 11
0.0
 21
4.000046165240641
 31
0.0
210
0.0
220
0.0
230
1.0
 40
1.0
 41
1.590522575310049
 42
4.726839688235965
  0
ELLIPSE
  5
20F
330
1D3
100
AcDbEntity
  8
$DDT_AUDIT_GENERATED_(186)
  6
Continuous
 62
     7
100
AcDbEllipse
 10
434.9861859497
 20
412.0073059312
 30
0.0
 11
0.0006631185194825568
 21
-4.069668138370977
 31
0.0
210
0.0
220
0.0
230
0.9999999999999999
 40
0.9828858596
 41
1.584915899421263
 42
4.731541264561336
  0
ARC
  5
210
330
1D3
100
AcDbEntity
  8
$DDT_AUDIT_GENERATED_(186)
  6
Continuous
 62
     7
100
AcDbCircle
 10
434.9849774803
 20
411.9924587091
 30
0.0
 40
4.499398508722433
100
AcDbArc
 50
1.0179382077
 51
180.9324825277
  0
LINE
  5
211
330
1D3
100
AcDbEntity
  8
$DDT_AUDIT_GENERATED_(186)
  6
Continuous
 62
     7
100
AcDbLine
 10
439.4836462476
 20
412.0723918477
 30
0.0
 11
439.4861748409
 21
411.9192593325
 31
0.0
  0
ARC
  5
212
330
1D3
100
AcDbEntity
  8
$DDT_AUDIT_GENERATED_(186)
  6
Continuous
 62
     7
100
AcDbCircle
 10
434.9861750248
 20
411.8520151728
 30
0.0
 40
4.500502207834135
100
AcDbArc
 50
350.667630281
 51
0.8561155773
  0
ARC
  5
213
330
1D3
100
AcDbEntity
  8
$DDT_AUDIT_GENERATED_(186)
  6
Continuous
 62
     7
100
AcDbCircle
 10
434.9861750248
 20
411.8520151728
 30
0.0
 40
4.500502207834135
100
AcDbArc
 50
192.0797132122
 51
350.667630281
  0
ARC
  5
214
330
1D3
100
AcDbEntity
  8
$DDT_AUDIT_GENERATED_(186)
  6
Continuous
 62
     7
100
AcDbCircle
 10
434.9861750248
 20
411.8520151728
 30
0.0
 40
4.500502207834135
100
AcDbArc
 50
179.1441977706
 51
192.0797132122
  0
LINE
  5
215
330
1D3
100
AcDbEntity
  8
$DDT_AUDIT_GENERATED_(186)
  6
Continuous
 62
     7
100
AcDbLine
 10
434.9818550237
 20
380.3502369519
 30
0.0
 11
453.2321207963
 21
380.3502369519
 31
0.0
  0
LINE
  5
216
330
1D3
100
AcDbEntity
  8
$DDT_AUDIT_GENERATED_(186)
  6
Continuous
 62
     7
100
AcDbLine
 10
434.9818550237
 20
380.3502369519
 30
0.0
 11
416.7315836607
 21
380.3502369519
 31
0.0
  0
ARC
  5
217
330
1D3
100
AcDbEntity
  8
$DDT_AUDIT_GENERATED_(186)
  6
Continuous
 62
     7
100
AcDbCircle
 10
434.9861757263
 20
403.3360333442
 30
0.0
 40
4.500090944230654
100
AcDbArc
 50
180.3624858123
 51
184.631796565
  0
ARC
  5
218
330
1D3
100
AcDbEntity
  8
$DDT_AUDIT_GENERATED_(186)
  6
Continuous
 62
     7
100
AcDbCircle
 10
434.9861757263
 20
403.3360333442
 30
0.0
 40
4.500090944230654
100
AcDbArc
 50
184.631796565
 51
359.633968052
  0
ARC
  5
219
330
1D3
100
AcDbEntity
  8
$DDT_AUDIT_GENERATED_(186)
  6
Continuous
 62
     7
100
AcDbCircle
 10
452.1993004312
 20
406.9213020158
 30
0.0
 40
1.017325426160322
100
AcDbArc
 50
2.461597285
 51
42.1238507476
  0
ARC
  5
21A
330
1D3
100
AcDbEntity
  8
$DDT_AUDIT_GENERATED_(186)
  6
Continuous
 62
     7
100
AcDbCircle
 10
417.630313497
 20
406.9757861765
 30
0.0
 40
0.8702634899439955
100
AcDbArc
 50
142.3037292281
 51
177.5699863138
  0
LINE
  5
21B
330
1D3
100
AcDbEntity
  8
$DDT_AUDIT_GENERATED_(186)
  6
Continuous
 62
     7
100
AcDbLine
 10
417.0121649189
 20
407.6031163489
 30
0.0
 11
416.986080021
 21
407.5608688805
 31
0.0
  0
ARC
  5
21C
330
1D3
100
AcDbEntity
  8
$DDT_AUDIT_GENERATED_(186)
  6
Continuous
 62
     7
100
AcDbCircle
 10
-1180.6417840931
 20
1748.6130983948
 30
0.0
 40
2085.858557058545
100
AcDbArc
 50
319.990302013
 51
320.0491540564
  0
LINE
  5
21D
330
1D3
100
AcDbEntity
  8
$DDT_AUDIT_GENERATED_(186)
  6
Continuous
 62
     7
100
AcDbLine
 10
439.4861748409
 20
403.3072827031
 30
0.0
 11
439.4861748409
 21
411.9192593364
 31
0.0
  0
LINE
  5
21E
330
1D3
100
AcDbEntity
  8
$DDT_AUDIT_GENERATED_(186)
  6
Continuous
 62
     7
100
AcDbLine
 10
430.4861748409
 20
411.9192265207
 30
0.0
 11
430.4861748409
 21
403.3075638749
 31
0.0
  0
LINE
  5
21F
330
1D3
100
AcDbEntity
  8
$DDT_AUDIT_GENERATED_(186)
  6
Continuous
 62
     7
100
AcDbLine
 10
416.7506294646
 20
406.9635696424
 30
0.0
 11
416.4840075103
 21
380.574359316
 31
0.0
  0
ARC
  5
220
330
1D3
100
AcDbEntity
  8
$DDT_AUDIT_GENERATED_(186)
  6
Continuous
 62
     7
100
AcDbCircle
 10
453.204977216
 20
380.6244579234
 30
0.0
 40
0.2755448633587166
100
AcDbArc
 50
275.6187764644
 51
354.9544599543
  0
ARC
  5
221
330
1D3
100
AcDbEntity
  8
$DDT_AUDIT_GENERATED_(186)
  6
Continuous
 62
     7
100
AcDbCircle
 10
2054.3417073714
 20
1751.6129121781
 30
0.0
 40
2090.646780434423
100
AcDbArc
 50
219.9477871718
 51
220.0065548606
  0
LINE
  5
222
330
1D3
100
AcDbEntity
  8
$DDT_AUDIT_GENERATED_(186)
  6
Continuous
 62
     7
100
AcDbLine
 10
453.4794545776
 20
380.6002264983
 30
0.0
 11
453.2156839912
 21
406.9653127318
 31
0.0
  0
ARC
  5
223
330
1D3
100
AcDbEntity
  8
$DDT_AUDIT_GENERATED_(186)
  6
Continuous
 62
     7
100
AcDbCircle
 10
416.7587238647
 20
380.624433313
 30
0.0
 40
0.2755205903036972
100
AcDbArc
 50
185.0408993465
 51
264.3802593894
  0
LINE
  5
225
330
1D3
100
AcDbEntity
  8
$DDT_AUDIT_GENERATED_(224)
  6
Continuous
 62
     7
100
AcDbLine
 10
404.2317439156
 20
387.0502369519
 30
0.0
 11
404.2317439156
 21
391.0502369519
 31
0.0
  0
ARC
  5
226
330
1D3
100
AcDbEntity
  8
$DDT_AUDIT_GENERATED_(224)
  6
Continuous
 62
     7
100
AcDbCircle
 10
416.2317439156
 20
385.0502369519
 30
0.0
 40
2.000000000000002
100
AcDbArc
 50
80.6950793865
 51
90.0
  0
ARC
  5
227
330
1D3
100
AcDbEntity
  8
$DDT_AUDIT_GENERATED_(224)
  6
Continuous
 62
     7
100
AcDbCircle
 10
416.2317439156
 20
385.0502369519
 30
0.0
 40
6.000000000000014
100
AcDbArc
 50
86.537075147
 51
90.0
  0
LINE
  5
228
330
1D3
100
AcDbEntity
  8
$DDT_AUDIT_GENERATED_(224)
  6
Continuous
 62
     7
100
AcDbLine
 10
404.2317439156
 20
387.0502369519
 30
0.0
 11
416.2317439156
 21
387.0502369519
 31
0.0
  0
LINE
  5
229
330
1D3
100
AcDbEntity
  8
$DDT_AUDIT_GENERATED_(224)
  6
Continuous
 62
     7
100
AcDbLine
 10
416.2317439156
 20
391.0502369519
 30
0.0
 11
404.2317439156
 21
391.0502369519
 31
0.0
  0
ENDBLK
  5
22B
330
1D3
100
AcDbEntity
  8
0
100
AcDbBlockEnd
  0
BLOCK
  5
279
330
22C
100
AcDbEntity
  8
0
100
AcDbBlockBegin
  2
SE2
 70
     0
 10
0.0
 20
0.0
 30
0.0
  3
SE2
  1

  0
SPLINE
  5
22E
330
22C
100
AcDbEntity
  8
$DDT_AUDIT_GENERATED_(9A)
  6
Continuous
 62
     7
100
AcDbSpline
210
0.0
220
0.0
230
1.0
 70
     8
 71
     3
 72
    21
 73
    17
 74
     0
 42
0.0000000000575216
 43
0.0000000001
 40
0.0118069244710622
 40
0.0118069244710622
 40
0.0118069244710622
 40
0.0118069244710622
 40
0.031249999999989
 40
0.062499999999978
 40
0.0937500000000258
 40
0.1250000000000148
 40
0.1562500000000037
 40
0.1874999999999927
 40
0.2187499999999817
 40
0.2500000000000295
 40
0.2812500000000184
 40
0.3125000000000074
 40
0.3437499999999964
 40
0.3749999999999853
 40
0.4062499999999742
 40
0.4304427947021832
 40
0.4304427947021832
 40
0.4304427947021832
 40
0.4304427947021832
 10
175.4872640798914
 20
297.8276084750058
 30
0.0
 10
174.3761905350971
 20
297.7455160843809
 30
0.0
 10
171.470659316554
 20
297.3540348512093
 30
0.0
 10
166.8702011703464
 20
295.9565354556172
 30
0.0
 10
161.9931782097884
 20
293.3237681601552
 30
0.0
 10
157.7592110067044
 20
289.7847488516212
 30
0.0
 10
154.3623454484554
 20
285.5574251251542
 30
0.0
 10
151.8765776870664
 20
280.8081381810932
 30
0.0
 10
150.3682534106084
 20
275.7424784959972
 30
0.0
 10
149.8424504114184
 20
270.4851588362703
 30
0.0
 10
150.3414181432724
 20
265.1452241278672
 30
0.0
 10
151.8847244693844
 20
259.9428662557752
 30
0.0
 10
154.4554758032294
 20
255.0790932018382
 30
0.0
 10
157.9526130773234
 20
250.8108932792742
 30
0.0
 10
161.8878011318248
 20
247.5940456329404
 30
0.0
 10
164.7037051926998
 20
246.0230857625154
 30
0.0
 10
165.970495612969
 20
245.4368412199742
 30
0.0
  0
SPLINE
  5
22F
330
22C
100
AcDbEntity
  8
$DDT_AUDIT_GENERATED_(9A)
  6
Continuous
 62
     7
100
AcDbSpline
210
0.0
220
0.0
230
1.0
 70
     8
 71
     3
 72
    21
 73
    17
 74
     0
 42
0.0000000000575152
 43
0.0000000001
 40
0.5694272141235502
 40
0.5694272141235502
 40
0.5694272141235502
 40
0.5694272141235502
 40
0.5937500000000258
 40
0.6250000000000148
 40
0.6562500000000038
 40
0.6874999999999928
 40
0.7187499999999817
 40
0.7500000000000294
 40
0.7812500000000183
 40
0.8125000000000073
 40
0.8437499999999963
 40
0.8749999999999852
 40
0.9062499999999742
 40
0.9375000000000221
 40
0.968750000000011
 40
0.9883471673752819
 40
0.9883471673752819
 40
0.9883471673752819
 40
0.9883471673752819
 10
189.0122058750692
 20
245.4241439646607
 30
0.0
 10
190.2865646618129
 20
246.0122329480831
 30
0.0
 10
193.1107163060522
 20
247.5854305547009
 30
0.0
 10
197.0526416344534
 20
250.8062513690142
 30
0.0
 10
200.5513393925654
 20
255.0739965708432
 30
0.0
 10
203.1229006674894
 20
259.9374591702422
 30
0.0
 10
204.6676513606414
 20
265.1396975196062
 30
0.0
 10
205.1675189371374
 20
270.4801592803857
 30
0.0
 10
204.6426685025144
 20
275.7382413292352
 30
0.0
 10
203.1346519072874
 20
280.8051863890482
 30
0.0
 10
200.6490611792224
 20
285.5554203111882
 30
0.0
 10
197.2517416035604
 20
289.7838832123062
 30
0.0
 10
193.0170939589254
 20
293.3234887111112
 30
0.0
 10
188.1393158376784
 20
295.9571001936032
 30
0.0
 10
183.5296478012083
 20
297.3566332340507
 30
0.0
 10
180.615391593517
 20
297.7478688889772
 30
0.0
 10
179.4957891600817
 20
297.8295339991644
 30
0.0
  0
SPLINE
  5
230
330
22C
100
AcDbEntity
  8
$DDT_AUDIT_GENERATED_(9A)
  6
Continuous
 62
     7
100
AcDbSpline
210
0.0
220
0.0
230
1.0
 70
     8
 71
     3
 72
    21
 73
    17
 74
     0
 42
0.0000000000596861
 43
0.0000000001
 40
0.0120929012093561
 40
0.0120929012093561
 40
0.0120929012093561
 40
0.0120929012093561
 40
0.031249999999989
 40
0.0624999999999779
 40
0.0937500000000257
 40
0.1250000000000147
 40
0.1562500000000037
 40
0.1874999999999926
 40
0.2187499999999816
 40
0.2499999999999706
 40
0.2812500000000184
 40
0.3125000000000073
 40
0.3437499999999963
 40
0.3749999999999853
 40
0.4062499999999742
 40
0.4277707406287254
 40
0.4277707406287254
 40
0.4277707406287254
 40
0.4277707406287254
 10
179.4956796970767
 20
296.8267735927828
 30
0.0
 10
180.5504360067574
 20
296.7469202837682
 30
0.0
 10
183.3342787084045
 20
296.3692494400174
 30
0.0
 10
187.7515223517614
 20
295.0279722091072
 30
0.0
 10
192.4525197174894
 20
292.4901117100342
 30
0.0
 10
196.5331650954374
 20
289.0789225097862
 30
0.0
 10
199.8071601538014
 20
285.0042061761482
 30
0.0
 10
202.2024504431504
 20
280.4264353951852
 30
0.0
 10
203.6554771375074
 20
275.5439706094212
 30
0.0
 10
204.1613739121084
 20
270.477182531783
 30
0.0
 10
203.6795639634624
 20
265.3309371917882
 30
0.0
 10
202.1910904451444
 20
260.3180625864242
 30
0.0
 10
199.7129529918744
 20
255.6311426642272
 30
0.0
 10
196.3413805719514
 20
251.5186722991872
 30
0.0
 10
192.6653942210061
 20
248.5150023176012
 30
0.0
 10
190.0950239196574
 20
247.0529292083999
 30
0.0
 10
189.016225937335
 20
246.5318663285701
 30
0.0
  0
SPLINE
  5
231
330
22C
100
AcDbEntity
  8
$DDT_AUDIT_GENERATED_(9A)
  6
Continuous
 62
     7
100
AcDbSpline
210
0.0
220
0.0
230
1.0
 70
     8
 71
     3
 72
    21
 73
    17
 74
     0
 42
0.0000000000596928
 43
0.0000000001
 40
0.572365596523626
 40
0.572365596523626
 40
0.572365596523626
 40
0.572365596523626
 40
0.5937500000000258
 40
0.6250000000000148
 40
0.6562500000000037
 40
0.6874999999999927
 40
0.7187499999999817
 40
0.7499999999999706
 40
0.7812500000000183
 40
0.8125000000000072
 40
0.8437499999999962
 40
0.8749999999999851
 40
0.9062499999999741
 40
0.937500000000022
 40
0.968750000000011
 40
0.9877473680279459
 40
0.9877473680279459
 40
0.9877473680279459
 40
0.9877473680279459
 10
165.9667745150535
 20
246.5450029766947
 30
0.0
 10
164.8955079977547
 20
247.0638827746797
 30
0.0
 10
162.3333074715788
 20
248.5235314497192
 30
0.0
 10
158.6639935016654
 20
251.5231710938872
 30
0.0
 10
155.2940440275134
 20
255.6360438581262
 30
0.0
 10
152.8165600463854
 20
260.3232478196412
 30
0.0
 10
151.3295869633824
 20
265.3363359324412
 30
0.0
 10
150.8485549471754
 20
270.4818867669696
 30
0.0
 10
151.3554528967954
 20
275.5481856366322
 30
0.0
 10
152.8086888319584
 20
280.4291542715392
 30
0.0
 10
155.2042342687764
 20
285.0062330979312
 30
0.0
 10
158.4777347627074
 20
289.0797015309572
 30
0.0
 10
162.5577432501254
 20
292.4904157902592
 30
0.0
 10
167.2579864500404
 20
295.0273875280552
 30
0.0
 10
171.6661622535069
 20
296.3666862925602
 30
0.0
 10
174.4411758977277
 20
296.7445589256387
 30
0.0
 10
175.4873814230594
 20
296.8247846262731
 30
0.0
  0
ARC
  5
232
330
22C
100
AcDbEntity
  8
$DDT_AUDIT_GENERATED_(A5)
  6
Continuous
 62
     7
100
AcDbCircle
 10
177.4915457965
 20
270.401852612
 30
0.0
 40
11.50000000000001
100
AcDbArc
 50
0.0
 51
180.0
  0
ELLIPSE
  5
233
330
22C
100
AcDbEntity
  8
$DDT_AUDIT_GENERATED_(A5)
  6
Continuous
 62
     7
100
AcDbEllipse
 10
177.4915457965
 20
120.9027451947
 30
0.0
 11
11.49999999999977
 21
1.415534356397075E-12
 31
0.0
210
0.0
220
0.0
230
1.0
 40
0.984807753
 41
3.141592653589794
 42
3.573770380200695
  0
ELLIPSE
  5
234
330
22C
100
AcDbEntity
  8
$DDT_AUDIT_GENERATED_(A5)
  6
Continuous
 62
     7
100
AcDbEllipse
 10
177.4915457965
 20
120.9027451947
 30
0.0
 11
11.49999999999977
 21
1.415534356397075E-12
 31
0.0
210
0.0
220
0.0
230
1.0
 40
0.984807753
 41
5.862656160448743
 42
6.283185307179586
  0
LINE
  5
235
330
22C
100
AcDbEntity
  8
$DDT_AUDIT_GENERATED_(A5)
  6
Continuous
 62
     7
100
AcDbLine
 10
165.9915457965
 20
270.401852612
 30
0.0
 11
165.9915457965
 21
121.5412711361
 31
0.0
  0
LINE
  5
236
330
22C
100
AcDbEntity
  8
$DDT_AUDIT_GENERATED_(A5)
  6
Continuous
 62
     7
100
AcDbLine
 10
188.9915457965
 20
121.5412711361
 30
0.0
 11
188.9915457965
 21
270.401852612
 31
0.0
  0
LINE
  5
237
330
22C
100
AcDbEntity
  8
$DDT_AUDIT_GENERATED_(A5)
  6
Continuous
 62
     7
100
AcDbLine
 10
165.9915457965
 20
121.5412711361
 30
0.0
 11
165.9915457965
 21
120.9027451947
 31
0.0
  0
LINE
  5
238
330
22C
100
AcDbEntity
  8
$DDT_AUDIT_GENERATED_(A5)
  6
Continuous
 62
     7
100
AcDbLine
 10
188.9915457965
 20
120.9027451946
 30
0.0
 11
188.9915457965
 21
121.5412711361
 31
0.0
  0
ARC
  5
239
330
22C
100
AcDbEntity
  8
$DDT_AUDIT_GENERATED_(A5)
  6
Continuous
 62
     7
100
AcDbCircle
 10
177.4961831743
 20
121.1001251732
 30
0.0
 40
11.54472916643973
100
AcDbArc
 50
205.4275985175
 51
335.2129461763
  0
ELLIPSE
  5
23A
330
22C
100
AcDbEntity
  8
$DDT_AUDIT_GENERATED_(B6)
  6
Continuous
 62
     7
100
AcDbEllipse
 10
177.4915457965
 20
117.7644232719
 30
0.0
 11
-11.575
 21
3.053113317719180E-13
 31
0.0
210
0.0
220
0.0
230
1.0
 40
0.984807753
 41
0.0
 42
1.113268121316408
  0
ELLIPSE
  5
23B
330
22C
100
AcDbEntity
  8
$DDT_AUDIT_GENERATED_(B6)
  6
Continuous
 62
     7
100
AcDbEllipse
 10
177.4915457965
 20
117.7644232719
 30
0.0
 11
-11.575
 21
3.053113317719180E-13
 31
0.0
210
0.0
220
0.0
230
1.0
 40
0.984807753
 41
2.041823403532459
 42
3.141592653589793
  0
ELLIPSE
  5
23C
330
22C
100
AcDbEntity
  8
$DDT_AUDIT_GENERATED_(B6)
  6
Continuous
 62
     7
100
AcDbEllipse
 10
177.4915457965
 20
120.5167468879
 30
0.0
 11
-11.57500000000001
 21
-3.330669073875470E-13
 31
0.0
210
0.0
220
0.0
230
1.0
 40
0.984807753
 41
0.0
 42
3.141592653589793
  0
LINE
  5
23D
330
22C
100
AcDbEntity
  8
$DDT_AUDIT_GENERATED_(B6)
  6
Continuous
 62
     7
100
AcDbLine
 10
189.0665457965
 20
117.7644232719
 30
0.0
 11
189.0665457965
 21
120.5167468879
 31
0.0
  0
LINE
  5
23E
330
22C
100
AcDbEntity
  8
$DDT_AUDIT_GENERATED_(B6)
  6
Continuous
 62
     7
100
AcDbLine
 10
165.9165457965
 20
120.5167468879
 30
0.0
 11
165.9165457965
 21
117.7644232719
 31
0.0
  0
ARC
  5
23F
330
22C
100
AcDbEntity
  8
$DDT_AUDIT_GENERATED_(B6)
  6
Continuous
 62
     7
100
AcDbCircle
 10
177.4537577532
 20
117.7944797919
 30
0.0
 40
11.44446089378808
100
AcDbArc
 50
243.7245035509
 51
270.189183165
  0
ARC
  5
240
330
22C
100
AcDbEntity
  8
$DDT_AUDIT_GENERATED_(B6)
  6
Continuous
 62
     7
100
AcDbCircle
 10
177.5346057432
 20
117.7555106205
 30
0.0
 40
11.40551062050818
100
AcDbArc
 50
269.7836871005
 51
297.0971683994
  0
SPLINE
  5
241
330
22C
100
AcDbEntity
  8
$DDT_AUDIT_GENERATED_(172)
  6
Continuous
 62
     7
100
AcDbSpline
210
0.0
220
0.0
230
1.0
 70
     8
 71
     3
 72
    15
 73
    11
 74
     0
 42
0.0000000000575872
 43
0.0000000001
 40
0.0
 40
0.0
 40
0.0
 40
0.0
 40
0.031249999999989
 40
0.062499999999978
 40
0.0937500000000258
 40
0.1250000000000148
 40
0.1562500000000037
 40
0.1874999999999927
 40
0.2187499999999817
 40
0.2236144883016673
 40
0.2236144883016673
 40
0.2236144883016673
 40
0.2236144883016673
 10
277.4780972649641
 20
242.9014917150662
 30
0.0
 10
279.2502179960574
 20
242.9014917150752
 30
0.0
 10
282.8495664820154
 20
243.2483090045562
 30
0.0
 10
288.1128904227264
 20
244.8471697684592
 30
0.0
 10
292.9899133832844
 20
247.4799370639212
 30
0.0
 10
297.2238805863684
 20
251.0189563724552
 30
0.0
 10
300.6207461446174
 20
255.2462800989222
 30
0.0
 10
303.1065139060064
 20
259.9955670429832
 30
0.0
 10
304.1903271654895
 20
263.6355198173487
 30
0.0
 10
304.5526632394173
 20
265.6295815453605
 30
0.0
 10
304.5974740721667
 20
265.8988797742455
 30
0.0
  0
SPLINE
  5
242
330
22C
100
AcDbEntity
  8
$DDT_AUDIT_GENERATED_(172)
  6
Continuous
 62
     7
100
AcDbSpline
210
0.0
220
0.0
230
1.0
 70
     8
 71
     3
 72
    30
 73
    26
 74
     0
 42
0.0000000000575074
 43
0.0000000001
 40
0.2769775499351637
 40
0.2769775499351637
 40
0.2769775499351637
 40
0.2769775499351637
 40
0.2812500000000184
 40
0.3125000000000074
 40
0.3437499999999964
 40
0.3749999999999853
 40
0.4062499999999742
 40
0.4375000000000221
 40
0.5
 40
0.531249999999989
 40
0.562499999999978
 40
0.5937500000000258
 40
0.6250000000000148
 40
0.6562500000000038
 40
0.6874999999999928
 40
0.7187499999999817
 40
0.7500000000000294
 40
0.7812500000000183
 40
0.8125000000000073
 40
0.8437499999999963
 40
0.8749999999999852
 40
0.9062499999999742
 40
0.9375000000000221
 40
0.968750000000011
 40
1.0
 40
1.0
 40
1.0
 40
1.0
 10
304.5974732272084
 20
274.9136969223545
 30
0.0
 10
304.5574357168611
 20
275.1546812289826
 30
0.0
 10
304.1975707993694
 20
277.1555143684743
 30
0.0
 10
303.0983671236884
 20
280.8608389683012
 30
0.0
 10
300.5276157898434
 20
285.7246120222382
 30
0.0
 10
297.0304785157495
 20
289.9928119448022
 30
0.0
 10
292.7749474606374
 20
293.4715262702532
 30
0.0
 10
286.3404052982364
 20
296.8738114996392
 30
0.0
 10
279.2544540721804
 20
298.2499702568852
 30
0.0
 10
272.1667532424814
 20
297.5632851289242
 30
0.0
 10
267.0144660543185
 20
296.0265041901083
 30
0.0
 10
262.1868844395814
 20
293.4752500152962
 30
0.0
 10
257.9304499586194
 20
289.9974538550622
 30
0.0
 10
254.4317522005074
 20
285.7297086532332
 30
0.0
 10
251.8601909255834
 20
280.8662460538342
 30
0.0
 10
250.3154402324314
 20
275.6640077044702
 30
0.0
 10
249.8155726559354
 20
270.3235459436906
 30
0.0
 10
250.3404230905584
 20
265.0654638948412
 30
0.0
 10
251.8484396857854
 20
259.9985188350282
 30
0.0
 10
254.3340304138504
 20
255.2482849128882
 30
0.0
 10
257.7313499895124
 20
251.0198220117702
 30
0.0
 10
261.9659976341474
 20
247.4802165129652
 30
0.0
 10
266.8437757553944
 20
244.8466050304732
 30
0.0
 10
272.1077378656044
 20
243.2484229404362
 30
0.0
 10
275.7065530919744
 20
242.9014917150572
 30
0.0
 10
277.4780972649641
 20
242.9014917150662
 30
0.0
  0
SPLINE
  5
243
330
22C
100
AcDbEntity
  8
$DDT_AUDIT_GENERATED_(172)
  6
Continuous
 62
     7
100
AcDbSpline
210
0.0
220
0.0
230
1.0
 70
     8
 71
     3
 72
    30
 73
    26
 74
     0
 42
0.000000000059677
 43
0.0000000001
 40
0.0
 40
0.0
 40
0.0
 40
0.0
 40
0.031249999999989
 40
0.0624999999999779
 40
0.0937500000000257
 40
0.1250000000000147
 40
0.1562500000000037
 40
0.1874999999999926
 40
0.2187499999999816
 40
0.2499999999999706
 40
0.2812500000000184
 40
0.3125000000000073
 40
0.3437499999999963
 40
0.3749999999999853
 40
0.4062499999999742
 40
0.437500000000022
 40
0.468750000000011
 40
0.5
 40
0.5624999999999779
 40
0.5937500000000258
 40
0.6250000000000148
 40
0.6562500000000037
 40
0.6874999999999927
 40
0.7187499999999817
 40
0.7220090822934856
 40
0.7220090822934856
 40
0.7220090822934856
 40
0.7220090822934856
 10
277.4780972649589
 20
243.9014917299672
 30
0.0
 10
275.7716541858484
 20
243.9014917298512
 30
0.0
 10
272.3029788027314
 20
244.2358210874072
 30
0.0
 10
267.2315692413114
 20
245.7757330149692
 30
0.0
 10
262.5305718755834
 20
248.3135935140422
 30
0.0
 10
258.4499264976354
 20
251.7247827142902
 30
0.0
 10
255.1759314392714
 20
255.7994990479282
 30
0.0
 10
252.7806411499224
 20
260.3772698288912
 30
0.0
 10
251.3276144555654
 20
265.2597346146552
 30
0.0
 10
250.8217176809644
 20
270.3265226922934
 30
0.0
 10
251.3035276296104
 20
275.4727680322882
 30
0.0
 10
252.7920011479284
 20
280.4856426376522
 30
0.0
 10
255.2701386011984
 20
285.1725625598492
 30
0.0
 10
258.6417110211214
 20
289.2850329248892
 30
0.0
 10
262.7433616114684
 20
292.6365156500662
 30
0.0
 10
267.3954446218254
 20
295.0949456688682
 30
0.0
 10
272.3601053965884
 20
296.5757419799032
 30
0.0
 10
279.1898233215434
 20
297.2374992662632
 30
0.0
 10
286.0176741157604
 20
295.9113617188882
 30
0.0
 10
292.2182382125344
 20
292.6329596704152
 30
0.0
 10
296.3190980914075
 20
289.2805341301892
 30
0.0
 10
299.6890475655594
 20
285.1676613659502
 30
0.0
 10
302.1665315466874
 20
280.4804574044352
 30
0.0
 10
303.2095393902439
 20
276.964125951057
 30
0.0
 10
303.552439092256
 20
275.0919017520097
 30
0.0
 10
303.5830028622226
 20
274.9148863838406
 30
0.0
  0
SPLINE
  5
244
330
22C
100
AcDbEntity
  8
$DDT_AUDIT_GENERATED_(172)
  6
Continuous
 62
     7
100
AcDbSpline
210
0.0
220
0.0
230
1.0
 70
     8
 71
     3
 72
    15
 73
    11
 74
     0
 42
0.0000000000597529
 43
0.0000000001
 40
0.7774137619269412
 40
0.7774137619269412
 40
0.7774137619269412
 40
0.7774137619269412
 40
0.7812500000000183
 40
0.8125000000000072
 40
0.8437499999999962
 40
0.8749999999999851
 40
0.9062499999999741
 40
0.937500000000022
 40
0.968750000000011
 40
1.0
 40
1.0
 40
1.0
 40
1.0
 10
303.5830848977279
 20
265.8983330902731
 30
0.0
 10
303.5477472543122
 20
265.6939143661129
 30
0.0
 10
303.2026929474746
 20
263.8282586580542
 30
0.0
 10
302.1744027611144
 20
260.3745509525372
 30
0.0
 10
299.7788573242964
 20
255.7974721261452
 30
0.0
 10
296.5053568303654
 20
251.7240036931192
 30
0.0
 10
292.4253483429474
 20
248.3132894338172
 30
0.0
 10
287.7251051430324
 20
245.7763176960212
 30
0.0
 10
282.6541870069614
 20
244.2356635349042
 30
0.0
 10
279.1851645540404
 20
243.9014917298002
 30
0.0
 10
277.4780972649589
 20
243.9014917299672
 30
0.0
  0
SPLINE
  5
245
330
22C
100
AcDbEntity
  8
$DDT_AUDIT_GENERATED_(172)
  6
Continuous
 62
     7
100
AcDbSpline
210
0.0
220
0.0
230
1.0
 70
     8
 71
     3
 72
    30
 73
    26
 74
     0
 42
0.00000000005751
 43
0.0000000001
 40
0.0
 40
0.0
 40
0.0
 40
0.0
 40
0.031249999999989
 40
0.062499999999978
 40
0.0937500000000258
 40
0.1250000000000148
 40
0.1562500000000037
 40
0.1874999999999927
 40
0.2187499999999817
 40
0.2500000000000295
 40
0.2812500000000184
 40
0.3125000000000074
 40
0.3437499999999964
 40
0.3749999999999853
 40
0.4062499999999742
 40
0.4375000000000221
 40
0.5
 40
0.531249999999989
 40
0.562499999999978
 40
0.5937500000000258
 40
0.6250000000000148
 40
0.6562500000000038
 40
0.6874999999999928
 40
0.7187499999999817
 40
0.7231069842270615
 40
0.7231069842270615
 40
0.7231069842270615
 40
0.7231069842270615
 10
77.47809726496408
 20
242.9014917150662
 30
0.0
 10
79.25021799605739
 20
242.9014917150752
 30
0.0
 10
82.84956648201539
 20
243.2483090045562
 30
0.0
 10
88.11289042272638
 20
244.8471697684592
 30
0.0
 10
92.98991338328439
 20
247.4799370639212
 30
0.0
 10
97.22388058636838
 20
251.0189563724552
 30
0.0
 10
100.6207461446174
 20
255.2462800989222
 30
0.0
 10
103.1065139060064
 20
259.9955670429832
 30
0.0
 10
104.6148381824644
 20
265.0612267280792
 30
0.0
 10
105.1406411816544
 20
270.3185463878061
 30
0.0
 10
104.6416734498004
 20
275.6584810962092
 30
0.0
 10
103.0983671236884
 20
280.8608389683012
 30
0.0
 10
100.5276157898434
 20
285.7246120222382
 30
0.0
 10
97.0304785157494
 20
289.9928119448022
 30
0.0
 10
92.77494746063739
 20
293.4715262702532
 30
0.0
 10
86.34040529823639
 20
296.8738114996392
 30
0.0
 10
79.2544540721804
 20
298.2499702568852
 30
0.0
 10
72.16675324248138
 20
297.5632851289242
 30
0.0
 10
67.01446605431839
 20
296.0265041901083
 30
0.0
 10
62.18688443958138
 20
293.4752500152962
 30
0.0
 10
57.93044995861938
 20
289.9974538550622
 30
0.0
 10
54.43175220050739
 20
285.7297086532332
 30
0.0
 10
51.86019092558339
 20
280.8662460538342
 30
0.0
 10
50.75856561649783
 20
277.1563157363011
 30
0.0
 10
50.39795004165198
 20
275.1505559508371
 30
0.0
 10
50.35720009197752
 20
274.9047766114228
 30
0.0
  0
SPLINE
  5
246
330
22C
100
AcDbEntity
  8
$DDT_AUDIT_GENERATED_(172)
  6
Continuous
 62
     7
100
AcDbSpline
210
0.0
220
0.0
230
1.0
 70
     8
 71
     3
 72
    15
 73
    11
 74
     0
 42
0.0000000000575801
 43
0.0000000001
 40
0.7764651109430141
 40
0.7764651109430141
 40
0.7764651109430141
 40
0.7764651109430141
 40
0.7812500000000183
 40
0.8125000000000073
 40
0.8437499999999963
 40
0.8749999999999852
 40
0.9062499999999742
 40
0.9375000000000221
 40
0.968750000000011
 40
1.0
 40
1.0
 40
1.0
 40
1.0
 10
50.36020127813176
 20
265.8899613081516
 30
0.0
 10
50.40437065376421
 20
265.6250440812982
 30
0.0
 10
50.76612790652169
 20
263.6350930879078
 30
0.0
 10
51.84843968578539
 20
259.9985188350282
 30
0.0
 10
54.33403041385039
 20
255.2482849128882
 30
0.0
 10
57.73134998951239
 20
251.0198220117702
 30
0.0
 10
61.96599763414739
 20
247.4802165129652
 30
0.0
 10
66.84377575539438
 20
244.8466050304732
 30
0.0
 10
72.10773786560439
 20
243.2484229404362
 30
0.0
 10
75.70655309197438
 20
242.9014917150572
 30
0.0
 10
77.47809726496408
 20
242.9014917150662
 30
0.0
  0
SPLINE
  5
247
330
22C
100
AcDbEntity
  8
$DDT_AUDIT_GENERATED_(172)
  6
Continuous
 62
     7
100
AcDbSpline
210
0.0
220
0.0
230
1.0
 70
     8
 71
     3
 72
    15
 73
    11
 74
     0
 42
0.0000000000597454
 43
0.0000000001
 40
0.0
 40
0.0
 40
0.0
 40
0.0
 40
0.031249999999989
 40
0.0624999999999779
 40
0.0937500000000257
 40
0.1250000000000147
 40
0.1562500000000037
 40
0.1874999999999926
 40
0.2187499999999816
 40
0.2225043200121037
 40
0.2225043200121037
 40
0.2225043200121037
 40
0.2225043200121037
 10
77.47809726495886
 20
243.9014917299672
 30
0.0
 10
75.77165418584839
 20
243.9014917298512
 30
0.0
 10
72.30297880273139
 20
244.2358210874072
 30
0.0
 10
67.23156924131139
 20
245.7757330149692
 30
0.0
 10
62.53057187558339
 20
248.3135935140422
 30
0.0
 10
58.44992649763539
 20
251.7247827142902
 30
0.0
 10
55.17593143927138
 20
255.7994990479282
 30
0.0
 10
52.78064114992238
 20
260.3772698288912
 30
0.0
 10
51.75376866358547
 20
263.8277699287731
 30
0.0
 10
51.40930058807475
 20
265.6893271364194
 30
0.0
 10
51.37464541570228
 20
265.8893979106525
 30
0.0
  0
SPLINE
  5
248
330
22C
100
AcDbEntity
  8
$DDT_AUDIT_GENERATED_(172)
  6
Continuous
 62
     7
100
AcDbSpline
210
0.0
220
0.0
230
1.0
 70
     8
 71
     3
 72
    30
 73
    26
 74
     0
 42
0.0000000000596797
 43
0.0000000001
 40
0.2779041274523587
 40
0.2779041274523587
 40
0.2779041274523587
 40
0.2779041274523587
 40
0.2812500000000184
 40
0.3125000000000073
 40
0.3437499999999963
 40
0.3749999999999853
 40
0.4062499999999742
 40
0.437500000000022
 40
0.468750000000011
 40
0.5
 40
0.5624999999999779
 40
0.5937500000000258
 40
0.6250000000000148
 40
0.6562500000000037
 40
0.6874999999999927
 40
0.7187499999999817
 40
0.7499999999999706
 40
0.7812500000000183
 40
0.8125000000000072
 40
0.8437499999999962
 40
0.8749999999999851
 40
0.9062499999999741
 40
0.937500000000022
 40
0.968750000000011
 40
1.0
 40
1.0
 40
1.0
 40
1.0
 10
51.37159389950205
 20
274.9059607343308
 30
0.0
 10
51.402910160668
 20
275.0877128073739
 30
0.0
 10
51.7465628804332
 20
276.9648202124575
 30
0.0
 10
52.79200114792838
 20
280.4856426376522
 30
0.0
 10
55.27013860119839
 20
285.1725625598492
 30
0.0
 10
58.6417110211214
 20
289.2850329248892
 30
0.0
 10
62.74336161146839
 20
292.6365156500662
 30
0.0
 10
67.39544462182538
 20
295.0949456688682
 30
0.0
 10
72.36010539658838
 20
296.5757419799032
 30
0.0
 10
79.18982332154339
 20
297.2374992662632
 30
0.0
 10
86.01767411576039
 20
295.9113617188882
 30
0.0
 10
92.21823821253439
 20
292.6329596704152
 30
0.0
 10
96.31909809140738
 20
289.2805341301892
 30
0.0
 10
99.68904756555938
 20
285.1676613659502
 30
0.0
 10
102.1665315466874
 20
280.4804574044352
 30
0.0
 10
103.6535046296904
 20
275.4673692916352
 30
0.0
 10
104.1345366458974
 20
270.3218184571068
 30
0.0
 10
103.6276386962774
 20
265.2555195874442
 30
0.0
 10
102.1744027611144
 20
260.3745509525372
 30
0.0
 10
99.7788573242964
 20
255.7974721261452
 30
0.0
 10
96.50535683036539
 20
251.7240036931192
 30
0.0
 10
92.42534834294739
 20
248.3132894338172
 30
0.0
 10
87.7251051430324
 20
245.7763176960212
 30
0.0
 10
82.6541870069614
 20
244.2356635349042
 30
0.0
 10
79.18516455404038
 20
243.9014917298002
 30
0.0
 10
77.47809726495886
 20
243.9014917299672
 30
0.0
  0
ARC
  5
249
330
22C
100
AcDbEntity
  8
$DDT_AUDIT_GENERATED_(186)
  6
Continuous
 62
     7
100
AcDbCircle
 10
277.4421692947
 20
270.4043192513
 30
0.0
 40
18.17291375889631
100
AcDbArc
 50
359.9968074475
 51
180.0033751579
  0
ARC
  5
24A
330
22C
100
AcDbEntity
  8
$DDT_AUDIT_GENERATED_(186)
  6
Continuous
 62
     7
100
AcDbCircle
 10
277.4421692982
 20
270.4021453438
 30
0.0
 40
18.172913764326
100
AcDbArc
 50
179.9965212364
 51
0.0036613691
  0
ARC
  5
24B
330
22C
100
AcDbEntity
  8
$DDT_AUDIT_GENERATED_(186)
  6
Continuous
 62
     7
100
AcDbCircle
 10
277.3900036613
 20
270.4272716547
 30
0.0
 40
16.65799943806143
100
AcDbArc
 50
180.084797905
 51
359.9185623581
  0
ARC
  5
24C
330
22C
100
AcDbEntity
  8
$DDT_AUDIT_GENERATED_(186)
  6
Continuous
 62
     7
100
AcDbCircle
 10
277.3900050939
 20
270.3784165403
 30
0.0
 40
16.65800020692916
100
AcDbArc
 50
0.086601312
 51
179.9167589511
  0
ARC
  5
24D
330
22C
100
AcDbEntity
  8
$DDT_AUDIT_GENERATED_(186)
  6
Continuous
 62
     7
100
AcDbCircle
 10
295.7378752318
 20
265.2006150839
 30
0.0
 40
0.7068494087967391
100
AcDbArc
 50
93.3124656692
 51
161.5572575165
  0
ARC
  5
24E
330
22C
100
AcDbEntity
  8
$DDT_AUDIT_GENERATED_(186)
  6
Continuous
 62
     7
100
AcDbCircle
 10
295.7253476538
 20
275.5798743131
 30
0.0
 40
0.6929086202426232
100
AcDbArc
 50
198.6952249643
 51
267.7203977518
  0
ARC
  5
24F
330
22C
100
AcDbEntity
  8
$DDT_AUDIT_GENERATED_(186)
  6
Continuous
 62
     7
100
AcDbCircle
 10
275.9200791781
 20
270.3720413417
 30
0.0
 40
19.78733571294921
100
AcDbArc
 50
0.0902013967
 51
14.5938695228
  0
ARC
  5
250
330
22C
100
AcDbEntity
  8
$DDT_AUDIT_GENERATED_(186)
  6
Continuous
 62
     7
100
AcDbCircle
 10
275.8929740262
 20
270.4197762709
 30
0.0
 40
19.81442328354036
100
AcDbArc
 50
345.3972042978
 51
359.9520467745
  0
LINE
  5
251
330
22C
100
AcDbEntity
  8
$DDT_AUDIT_GENERATED_(186)
  6
Continuous
 62
     7
100
AcDbLine
 10
344.9970317776
 20
274.4059058301
 30
0.0
 11
344.9970317776
 21
266.4062753247
 31
0.0
  0
ARC
  5
252
330
22C
100
AcDbEntity
  8
$DDT_AUDIT_GENERATED_(186)
  6
Continuous
 62
     7
100
AcDbCircle
 10
-970.975820148
 20
270.398704499
 30
0.0
 40
1315.480570024423
100
AcDbArc
 50
359.8043321452
 51
359.8080471146
  0
ARC
  5
253
330
22C
100
AcDbEntity
  8
$DDT_AUDIT_GENERATED_(186)
  6
Continuous
 62
     7
100
AcDbCircle
 10
-970.975820148
 20
270.398704499
 30
0.0
 40
1315.480570024423
100
AcDbArc
 50
359.8080471146
 51
0.1962187916
  0
ARC
  5
254
330
22C
100
AcDbEntity
  8
$DDT_AUDIT_GENERATED_(186)
  6
Continuous
 62
     7
100
AcDbCircle
 10
344.4477370362
 20
266.4555015108
 30
0.0
 40
0.5514299655843521
100
AcDbArc
 50
275.13368864
 51
354.9562398815
  0
ARC
  5
255
330
22C
100
AcDbEntity
  8
$DDT_AUDIT_GENERATED_(186)
  6
Continuous
 62
     7
100
AcDbCircle
 10
344.4506856752
 20
274.3572259066
 30
0.0
 40
0.5485105272760288
100
AcDbArc
 50
5.0916591296
 51
21.8134833116
  0
ARC
  5
256
330
22C
100
AcDbEntity
  8
$DDT_AUDIT_GENERATED_(186)
  6
Continuous
 62
     7
100
AcDbCircle
 10
277.4915312456
 20
270.4020181096
 30
0.0
 40
18.49749913522183
100
AcDbArc
 50
180.0001425707
 51
345.2172006982
  0
ARC
  5
257
330
22C
100
AcDbEntity
  8
$DDT_AUDIT_GENERATED_(186)
  6
Continuous
 62
     7
100
AcDbCircle
 10
277.4922396471
 20
270.4018595947
 30
0.0
 40
18.49677373578493
100
AcDbArc
 50
345.2171155621
 51
345.8723642037
  0
ARC
  5
258
330
22C
100
AcDbEntity
  8
$DDT_AUDIT_GENERATED_(186)
  6
Continuous
 62
     7
100
AcDbCircle
 10
277.4915227465
 20
270.4018859548
 30
0.0
 40
18.49749063629521
100
AcDbArc
 50
14.3714764406
 51
179.9997332227
  0
LINE
  5
259
330
22C
100
AcDbEntity
  8
$DDT_AUDIT_GENERATED_(186)
  6
Continuous
 62
     7
100
AcDbLine
 10
295.6970353527
 20
265.9062835374
 30
0.0
 11
344.4970324632
 21
265.9062835374
 31
0.0
  0
LINE
  5
25A
330
22C
100
AcDbEntity
  8
$DDT_AUDIT_GENERATED_(186)
  6
Continuous
 62
     7
100
AcDbLine
 10
344.4972184214
 20
274.9062835374
 30
0.0
 11
295.6954419483
 21
274.9062835374
 31
0.0
  0
SPLINE
  5
25B
330
22C
100
AcDbEntity
  8
$DDT_AUDIT_GENERATED_(186)
  6
Continuous
 62
     7
100
AcDbSpline
210
0.0
220
0.0
230
1.0
 70
     8
 71
     3
 72
    10
 73
     6
 74
     0
 42
0.0000000165171293
 43
0.0000000001
 40
0.0
 40
0.0
 40
0.0
 40
0.0
 40
0.4954070558305792
 40
0.7490751512914694
 40
0.7889160205436907
 40
0.7889160205436907
 40
0.7889160205436907
 40
0.7889160205436907
 10
344.9632652946486
 20
274.5586185180538
 30
0.0
 10
344.9019611275689
 20
274.6566606078201
 30
0.0
 10
344.822491902164
 20
274.776193333727
 30
0.0
 10
344.6761799781396
 20
274.8371909427603
 30
0.0
 10
344.6237598701122
 20
274.8435455172517
 30
0.0
 10
344.6166414004366
 20
274.844146535851
 30
0.0
  0
SPLINE
  5
25C
330
22C
100
AcDbEntity
  8
$DDT_AUDIT_GENERATED_(186)
  6
Continuous
 62
     7
100
AcDbSpline
210
0.0
220
0.0
230
1.0
 70
     8
 71
     3
 72
    10
 73
     6
 74
     0
 42
0.0000000169038208
 43
0.0000000001
 40
0.0
 40
0.0
 40
0.0
 40
0.0
 40
0.2492292612698436
 40
0.502349255839593
 40
1.0
 40
1.0
 40
1.0
 40
1.0
 10
344.4972888406431
 20
265.991583905721
 30
0.0
 10
344.547804444878
 20
265.9814908320653
 30
0.0
 10
344.633151427509
 20
265.9663924254311
 30
0.0
 10
344.8186689531663
 20
266.0355791427485
 30
0.0
 10
344.8988538103243
 20
266.1519926758041
 30
0.0
 10
344.9607117950346
 20
266.2477987440639
 30
0.0
  0
ARC
  5
25D
330
22C
100
AcDbEntity
  8
$DDT_AUDIT_GENERATED_(186)
  6
Continuous
 62
     7
100
AcDbCircle
 10
77.5409222983
 20
270.3993859728
 30
0.0
 40
18.17291375889631
100
AcDbArc
 50
179.9968074475
 51
0.0033751579
  0
ARC
  5
25E
330
22C
100
AcDbEntity
  8
$DDT_AUDIT_GENERATED_(186)
  6
Continuous
 62
     7
100
AcDbCircle
 10
77.5409222949
 20
270.4015598803
 30
0.0
 40
18.172913764326
100
AcDbArc
 50
359.9965212364
 51
180.0036613691
  0
ARC
  5
25F
330
22C
100
AcDbEntity
  8
$DDT_AUDIT_GENERATED_(186)
  6
Continuous
 62
     7
100
AcDbCircle
 10
77.6215714698
 20
270.3966676371
 30
0.0
 40
18.32711569217109
100
AcDbArc
 50
174.936030239
 51
179.9882322889
  0
ARC
  5
260
330
22C
100
AcDbEntity
  8
$DDT_AUDIT_GENERATED_(186)
  6
Continuous
 62
     7
100
AcDbCircle
 10
77.5930879317
 20
270.3764335694
 30
0.0
 40
16.65799943806143
100
AcDbArc
 50
0.084797905
 51
179.9185623581
  0
ARC
  5
261
330
22C
100
AcDbEntity
  8
$DDT_AUDIT_GENERATED_(186)
  6
Continuous
 62
     7
100
AcDbCircle
 10
77.5930864991
 20
270.4252886837
 30
0.0
 40
16.65800020692916
100
AcDbArc
 50
180.086601312
 51
359.9167589511
  0
ARC
  5
262
330
22C
100
AcDbEntity
  8
$DDT_AUDIT_GENERATED_(186)
  6
Continuous
 62
     7
100
AcDbCircle
 10
59.2452163613
 20
275.6030901402
 30
0.0
 40
0.7068494087967391
100
AcDbArc
 50
273.3124656692
 51
341.5572575165
  0
ARC
  5
263
330
22C
100
AcDbEntity
  8
$DDT_AUDIT_GENERATED_(186)
  6
Continuous
 62
     7
100
AcDbCircle
 10
59.2577439393
 20
265.223830911
 30
0.0
 40
0.6929086202426232
100
AcDbArc
 50
18.6952249643
 51
87.7203977518
  0
ARC
  5
264
330
22C
100
AcDbEntity
  8
$DDT_AUDIT_GENERATED_(186)
  6
Continuous
 62
     7
100
AcDbCircle
 10
79.063012415
 20
270.4316638824
 30
0.0
 40
19.7873357129492
100
AcDbArc
 50
180.0902013967
 51
194.5938695228
  0
ARC
  5
265
330
22C
100
AcDbEntity
  8
$DDT_AUDIT_GENERATED_(186)
  6
Continuous
 62
     7
100
AcDbCircle
 10
79.0901175669
 20
270.3839289532
 30
0.0
 40
19.81442328354036
100
AcDbArc
 50
165.3972042978
 51
179.9520467745
  0
LINE
  5
266
330
22C
100
AcDbEntity
  8
$DDT_AUDIT_GENERATED_(186)
  6
Continuous
 62
     7
100
AcDbLine
 10
9.9860598155
 20
266.397799394
 30
0.0
 11
9.9860598155
 21
274.3974298994
 31
0.0
  0
ARC
  5
267
330
22C
100
AcDbEntity
  8
$DDT_AUDIT_GENERATED_(186)
  6
Continuous
 62
     7
100
AcDbCircle
 10
1325.9589117415
 20
270.405000725
 30
0.0
 40
1315.480570024801
100
AcDbArc
 50
179.8043321452
 51
179.8080471146
  0
ARC
  5
268
330
22C
100
AcDbEntity
  8
$DDT_AUDIT_GENERATED_(186)
  6
Continuous
 62
     7
100
AcDbCircle
 10
1325.9589117415
 20
270.405000725
 30
0.0
 40
1315.480570024801
100
AcDbArc
 50
179.8080471146
 51
180.1962187916
  0
ARC
  5
269
330
22C
100
AcDbEntity
  8
$DDT_AUDIT_GENERATED_(186)
  6
Continuous
 62
     7
100
AcDbCircle
 10
10.5353545569
 20
274.3482037133
 30
0.0
 40
0.551429965584373
100
AcDbArc
 50
95.1336886401
 51
174.9562398815
  0
ARC
  5
26A
330
22C
100
AcDbEntity
  8
$DDT_AUDIT_GENERATED_(186)
  6
Continuous
 62
     7
100
AcDbCircle
 10
10.5324059179
 20
266.4464793175
 30
0.0
 40
0.5485105272760288
100
AcDbArc
 50
201.8134833116
 51
265.1526343686
  0
ARC
  5
26B
330
22C
100
AcDbEntity
  8
$DDT_AUDIT_GENERATED_(186)
  6
Continuous
 62
     7
100
AcDbCircle
 10
10.5324059179
 20
266.4464793175
 30
0.0
 40
0.5485105272760288
100
AcDbArc
 50
185.0916591296
 51
201.8134833116
  0
ARC
  5
26C
330
22C
100
AcDbEntity
  8
$DDT_AUDIT_GENERATED_(186)
  6
Continuous
 62
     7
100
AcDbCircle
 10
77.4915603475
 20
270.4016871144
 30
0.0
 40
18.49749913522183
100
AcDbArc
 50
0.0001425707
 51
165.2172006982
  0
ARC
  5
26D
330
22C
100
AcDbEntity
  8
$DDT_AUDIT_GENERATED_(186)
  6
Continuous
 62
     7
100
AcDbCircle
 10
77.4908519459
 20
270.4018456294
 30
0.0
 40
18.49677373578493
100
AcDbArc
 50
165.2171155621
 51
165.8723642037
  0
ARC
  5
26E
330
22C
100
AcDbEntity
  8
$DDT_AUDIT_GENERATED_(186)
  6
Continuous
 62
     7
100
AcDbCircle
 10
77.4915688466
 20
270.4018192692
 30
0.0
 40
18.49749063629521
100
AcDbArc
 50
194.3714764406
 51
359.9997332227
  0
ARC
  5
26F
330
22C
100
AcDbEntity
  8
$DDT_AUDIT_GENERATED_(186)
  6
Continuous
 62
     7
100
AcDbCircle
 10
59.4816127872
 20
274.6611002619
 30
0.0
 40
0.2642170253951588
100
AcDbArc
 50
110.854139223
 51
142.6014665435
  0
LINE
  5
270
330
22C
100
AcDbEntity
  8
$DDT_AUDIT_GENERATED_(186)
  6
Continuous
 62
     7
100
AcDbLine
 10
59.2860562404
 20
274.8974216867
 30
0.0
 11
10.4860591298
 21
274.8974216867
 31
0.0
  0
LINE
  5
271
330
22C
100
AcDbEntity
  8
$DDT_AUDIT_GENERATED_(186)
  6
Continuous
 62
     7
100
AcDbLine
 10
10.4858731717
 20
265.8974216867
 30
0.0
 11
59.2876496448
 21
265.8974216867
 31
0.0
  0
SPLINE
  5
272
330
22C
100
AcDbEntity
  8
$DDT_AUDIT_GENERATED_(186)
  6
Continuous
 62
     7
100
AcDbSpline
210
0.0
220
0.0
230
1.0
 70
     8
 71
     3
 72
    10
 73
     6
 74
     0
 42
0.0000000165171293
 43
0.0000000001
 40
0.0
 40
0.0
 40
0.0
 40
0.0
 40
0.4954070558305899
 40
0.7490751512914811
 40
0.7889160205437318
 40
0.7889160205437318
 40
0.7889160205437318
 40
0.7889160205437318
 10
10.01982629842416
 20
266.2450867060226
 30
0.0
 10
10.08113046550388
 20
266.1470446162563
 30
0.0
 10
10.16059969090885
 20
266.0275118903494
 30
0.0
 10
10.30691161493319
 20
265.966514281316
 30
0.0
 10
10.35933172296061
 20
265.9601597068247
 30
0.0
 10
10.36645019263616
 20
265.9595586882254
 30
0.0
  0
ARC
  5
273
330
22C
100
AcDbEntity
  8
$DDT_AUDIT_GENERATED_(224)
  6
Continuous
 62
     7
100
AcDbCircle
 10
177.4915457965
 20
285.151852612
 30
0.0
 40
2.000000000000002
100
AcDbArc
 50
180.0
 51
0.0
  0
LINE
  5
274
330
22C
100
AcDbEntity
  8
$DDT_AUDIT_GENERATED_(224)
  6
Continuous
 62
     7
100
AcDbLine
 10
179.4915457965
 20
301.151852612
 30
0.0
 11
175.4915457965
 21
301.151852612
 31
0.0
  0
LINE
  5
275
330
22C
100
AcDbEntity
  8
$DDT_AUDIT_GENERATED_(224)
  6
Continuous
 62
     7
100
AcDbLine
 10
179.4915457965
 20
285.151852612
 30
0.0
 11
179.4915457965
 21
289.151852612
 31
0.0
  0
LINE
  5
276
330
22C
100
AcDbEntity
  8
$DDT_AUDIT_GENERATED_(224)
  6
Continuous
 62
     7
100
AcDbLine
 10
175.4915457965
 20
289.151852612
 30
0.0
 11
175.4915457965
 21
285.151852612
 31
0.0
  0
LINE
  5
277
330
22C
100
AcDbEntity
  8
$DDT_AUDIT_GENERATED_(224)
  6
Continuous
 62
     7
100
AcDbLine
 10
175.4915457965
 20
301.151852612
 30
0.0
 11
175.4915457965
 21
289.151852612
 31
0.0
  0
LINE
  5
278
330
22C
100
AcDbEntity
  8
$DDT_AUDIT_GENERATED_(224)
  6
Continuous
 62
     7
100
AcDbLine
 10
179.4915457965
 20
289.151852612
 30
0.0
 11
179.4915457965
 21
301.151852612
 31
0.0
  0
ENDBLK
  5
27A
330
22C
100
AcDbEntity
  8
0
100
AcDbBlockEnd
  0
ENDSEC
  0
SECTION
  2
ENTITIES
  0
ARC
  5
5E
330
1F
100
AcDbEntity
  8
Default
  6
Continuous
 62
     7
100
AcDbCircle
 10
445.7837314772
 20
373.7330211772
 30
0.0
 40
44.84374161233087
100
AcDbArc
 50
126.9399583335
 51
127.6876392312
  0
SPLINE
  5
5F
330
1F
100
AcDbEntity
  8
Default
  6
Continuous
 62
     7
100
AcDbSpline
210
0.0
220
0.0
230
1.0
 70
     8
 71
     3
 72
     8
 73
     4
 74
     0
 42
0.000000051682432
 43
0.0000000001
 40
0.0
 40
0.0
 40
0.0
 40
0.0
 40
1.0
 40
1.0
 40
1.0
 40
1.0
 10
418.9549709568061
 20
409.6577195138241
 30
0.0
 10
419.0654735267733
 20
409.7237755654335
 30
0.0
 10
419.1206287756946
 20
409.756965758691
 30
0.0
 10
419.12043670357
 20
409.7572900935965
 30
0.0
  0
ARC
  5
60
330
1F
100
AcDbEntity
  8
Default
  6
Continuous
 62
     7
100
AcDbCircle
 10
468.669325284
 20
432.6093290628
 30
0.0
 40
28.95283570464852
100
AcDbArc
 50
232.5781168058
 51
233.8485006683
  0
INSERT
  5
62
330
1F
100
AcDbEntity
  8
Default
100
AcDbBlockReference
  2
SEANNOT_GROUP
 10
0.0
 20
0.0
 30
0.0
  0
INSERT
  5
69
330
1F
100
AcDbEntity
  8
Default
100
AcDbBlockReference
  2
SEANNOT_GROUP1
 10
0.0
 20
0.0
 30
0.0
  0
INSERT
  5
6F
330
1F
100
AcDbEntity
  8
Default
100
AcDbBlockReference
  2
SEANNOT_GROUP2
 10
0.0
 20
0.0
 30
0.0
  0
INSERT
  5
75
330
1F
100
AcDbEntity
  8
Default
100
AcDbBlockReference
  2
SEANNOT_GROUP3
 10
0.0
 20
0.0
 30
0.0
  0
INSERT
  5
7B
330
1F
100
AcDbEntity
  8
Default
100
AcDbBlockReference
  2
SEANNOT_GROUP4
 10
0.0
 20
0.0
 30
0.0
  0
INSERT
  5
85
330
1F
100
AcDbEntity
  8
Default
100
AcDbBlockReference
  2
SEANNOT_GROUP5
 10
0.0
 20
0.0
 30
0.0
  0
INSERT
  5
8F
330
1F
100
AcDbEntity
  8
Default
100
AcDbBlockReference
  2
SEANNOT_GROUP6
 10
0.0
 20
0.0
 30
0.0
  0
INSERT
  5
99
330
1F
100
AcDbEntity
  8
Default
100
AcDbBlockReference
  2
SE
 10
0.0
 20
0.0
 30
0.0
  0
INSERT
  5
1D4
330
1F
100
AcDbEntity
  8
Default
100
AcDbBlockReference
  2
SE1
 10
0.0
 20
0.0
 30
0.0
  0
INSERT
  5
22D
330
1F
100
AcDbEntity
  8
Default
100
AcDbBlockReference
  2
SE2
 10
0.0
 20
0.0
 30
0.0
  0
TEXT
  5
27C
330
1F
100
AcDbEntity
  8
Default
  6
Continuous
 62
     7
100
AcDbText
 10
5.9362635081
 20
53.4225120485
 30
0.0
 40
10.0
  1
Grohe AG^J
  7
SEACAD_seiso_ttf
 11
5.9362635081
 21
63.4225120485
 31
0.0
100
AcDbText
 73
     3
  0
TEXT
  5
27D
330
1F
100
AcDbEntity
  8
Default
  6
Continuous
 62
     7
100
AcDbText
 10
5.9362635081
 20
37.0588756849
 30
0.0
 40
10.0
  1
 
  7
SEACAD_seiso_ttf
 11
5.9362635081
 21
47.0588756849
 31
0.0
100
AcDbText
 73
     3
  0
TEXT
  5
27E
330
1F
100
AcDbEntity
  8
Default
  6
Continuous
 62
     7
100
AcDbText
 10
5.9362635081
 20
20.6952393213
 30
0.0
 40
10.0
  1
ecn: 
  7
SEACAD_seiso_ttf
 11
5.9362635081
 21
30.6952393213
 31
0.0
100
AcDbText
 73
     3
  0
TEXT
  5
27F
330
1F
100
AcDbEntity
  8
Default
  6
Continuous
 62
     7
100
AcDbText
 10
5.9362635081
 20
4.3316029576
 30
0.0
 40
10.0
  1
unit: mm
  7
SEACAD_seiso_ttf
 11
5.9362635081
 21
14.3316029576
 31
0.0
100
AcDbText
 73
     3
  0
LINE
  5
280
330
1F
100
AcDbEntity
  8
Default
  6
Continuous
 62
     7
100
AcDbLine
 10
0.0
 20
0.0
 30
0.0
 11
100.0
 21
0.0
 31
0.0
  0
LINE
  5
281
330
1F
100
AcDbEntity
  8
Default
  6
Continuous
 62
     7
100
AcDbLine
 10
0.0
 20
0.0
 30
0.0
 11
0.0
 21
100.0
 31
0.0
  0
TEXT
  5
282
330
1F
100
AcDbEntity
  8
Default
  6
Continuous
 62
     7
100
AcDbText
 10
24.3923665681
 20
-18.2375342018
 30
0.0
 40
10.0
  1
100 mm
  7
SEACAD_seiso_ttf
 11
24.3923665681
 21
-8.2375342018
 31
0.0
100
AcDbText
 73
     3
  0
TEXT
  5
283
330
1F
100
AcDbEntity
  8
Default
  6
Continuous
 62
     7
100
AcDbText
 10
-7.6150308803
 20
24.6231930421
 30
0.0
 40
10.0
  1
100 mm
 50
90.0
  7
SEACAD_seiso_ttf
 11
-17.6150308803
 21
24.6231930421
 31
0.0
100
AcDbText
 73
     3
  0
TEXT
  5
284
330
1F
100
AcDbEntity
  8
Default
  6
Continuous
 62
     7
100
AcDbText
 10
28.4878128572
 20
20.0907663715
 30
0.0
 40
10.0
  1
218737
  7
SEACAD_seiso_ttf
 11
28.4878128572
 21
30.0907663715
 31
0.0
100
AcDbText
 73
     3
  0
TEXT
  5
285
330
1F
100
AcDbEntity
  8
Default
  6
Continuous
 62
     7
100
AcDbText
 10
5.9012241913
 20
36.7242780188
 30
0.0
 40
10.0
  1
20216001
  7
SEACAD_seiso_ttf
 11
5.9012241913
 21
46.7242780188
 31
0.0
100
AcDbText
 73
     3
  0
ENDSEC
  0
SECTION
  2
OBJECTS
  0
DICTIONARY
  5
C
330
0
100
AcDbDictionary
281
     1
  3
ACAD_GROUP
350
D
  3
ACAD_LAYOUT
350
1A
  3
ACAD_MLEADERSTYLE
350
289
  3
ACAD_MLINESTYLE
350
17
  3
ACAD_PLOTSETTINGS
350
19
  3
ACAD_PLOTSTYLENAME
350
E
  3
ACAD_SCALELIST
350
3B
  3
ACAD_TABLESTYLE
350
288
  3
ACAD_VISUALSTYLE
350
2A
  3
AcDbVariableDictionary
350
286
  0
DICTIONARY
  5
D
102
{ACAD_REACTORS
330
C
102
}
330
C
100
AcDbDictionary
281
     1
  0
DICTIONARY
  5
1A
102
{ACAD_REACTORS
330
C
102
}
330
C
100
AcDbDictionary
281
     1
  3
Layout1
350
1E
  3
Model
350
22
  0
DICTIONARY
  5
289
102
{ACAD_REACTORS
330
C
102
}
330
C
100
AcDbDictionary
281
     1
  0
DICTIONARY
  5
17
102
{ACAD_REACTORS
330
C
102
}
330
C
100
AcDbDictionary
281
     1
  3
Standard
350
18
  0
DICTIONARY
  5
19
102
{ACAD_REACTORS
330
C
102
}
330
C
100
AcDbDictionary
281
     1
  0
ACDBDICTIONARYWDFLT
  5
E
102
{ACAD_REACTORS
330
C
102
}
330
C
100
AcDbDictionary
281
     1
  3
Normal
350
F
100
AcDbDictionaryWithDefault
340
F
  0
DICTIONARY
  5
3B
102
{ACAD_REACTORS
330
C
102
}
330
C
100
AcDbDictionary
281
     1
  3
A0
350
3C
  3
A1
350
3D
  3
A2
350
3E
  3
A3
350
3F
  3
A4
350
40
  3
A5
350
41
  3
A6
350
42
  3
A7
350
43
  3
A8
350
44
  3
A9
350
45
  3
B0
350
46
  3
B1
350
47
  3
B2
350
48
  3
B3
350
49
  3
B4
350
4A
  3
B5
350
4B
  3
B6
350
4C
  3
B7
350
4D
  3
B8
350
4E
  3
B9
350
4F
  3
C0
350
50
  3
C1
350
51
  3
C2
350
52
  3
C3
350
53
  3
C4
350
54
  3
C5
350
55
  3
C6
350
56
  3
C7
350
57
  3
C8
350
58
  3
C9
350
59
  3
D0
350
5A
  3
D1
350
5B
  3
D2
350
5C
  0
DICTIONARY
  5
288
102
{ACAD_REACTORS
330
C
102
}
330
C
100
AcDbDictionary
281
     1
  0
DICTIONARY
  5
2A
102
{ACAD_REACTORS
330
C
102
}
330
C
100
AcDbDictionary
281
     1
  3
2dWireframe
350
2F
  3
3D Hidden
350
31
  3
3dWireframe
350
30
  3
Basic
350
32
  3
Brighten
350
36
  3
ColorChange
350
3A
  3
Conceptual
350
34
  3
Dim
350
35
  3
Facepattern
350
39
  3
Flat
350
2B
  3
FlatWithEdges
350
2C
  3
Gouraud
350
2D
  3
GouraudWithEdges
350
2E
  3
Linepattern
350
38
  3
Realistic
350
33
  3
Thicken
350
37
  0
DICTIONARY
  5
286
102
{ACAD_REACTORS
330
C
102
}
330
C
100
AcDbDictionary
281
     1
  3
CANNOSCALE
350
287
  3
PSOLHEIGHT
350
28B
  3
PSOLWIDTH
350
28A
  0
LAYOUT
  5
1E
102
{ACAD_REACTORS
330
1A
102
}
330
1A
100
AcDbPlotSettings
  1

  2
none_device
  4

  6

 40
0.0
 41
0.0
 42
0.0
 43
0.0
 44
0.0
 45
0.0
 46
0.0
 47
0.0
 48
0.0
 49
0.0
140
0.0
141
0.0
142
1.0
143
1.0
 70
   688
 72
     0
 73
     0
 74
     5
  7

 75
    16
147
1.0
148
0.0
149
0.0
100
AcDbLayout
  1
Layout1
 70
     1
 71
     1
 10
0.0
 20
0.0
 11
1682.0
 21
2378.0
 12
0.0
 22
0.0
 32
0.0
 14
0.0
 24
0.0
 34
0.0
 15
1682.0
 25
2378.0
 35
0.0
146
0.0
 13
0.0
 23
0.0
 33
0.0
 16
1.0
 26
0.0
 36
0.0
 17
0.0
 27
1.0
 37
0.0
 76
     0
330
1B
  0
LAYOUT
  5
22
102
{ACAD_REACTORS
330
1A
102
}
330
1A
100
AcDbPlotSettings
  1

  2
none_device
  4

  6

 40
0.0
 41
0.0
 42
0.0
 43
0.0
 44
0.0
 45
0.0
 46
0.0
 47
0.0
 48
0.0
 49
0.0
140
0.0
141
0.0
142
1.0
143
1.0
 70
  1712
 72
     0
 73
     0
 74
     0
  7

 75
     0
147
1.0
148
0.0
149
0.0
100
AcDbLayout
  1
Model
 70
     1
 71
     0
 10
0.0
 20
0.0
 11
1682.0
 21
2378.0
 12
0.0
 22
0.0
 32
0.0
 14
0.0
 24
0.0
 34
0.0
 15
1682.0
 25
2378.0
 35
0.0
146
0.0
 13
0.0
 23
0.0
 33
0.0
 16
1.0
 26
0.0
 36
0.0
 17
0.0
 27
1.0
 37
0.0
 76
     0
330
1F
331
29
  0
MLINESTYLE
  5
18
102
{ACAD_REACTORS
330
17
102
}
330
17
100
AcDbMlineStyle
  2
Standard
 70
     0
  3

 62
   256
 51
90.0
 52
90.0
 71
     2
 49
0.5
 62
   256
  6
BYLAYER
 49
-0.5
 62
   256
  6
BYLAYER
  0
ACDBPLACEHOLDER
  5
F
102
{ACAD_REACTORS
330
E
102
}
330
E
  0
SCALE
  5
3C
102
{ACAD_REACTORS
330
3B
102
}
330
3B
100
AcDbScale
 70
     0
300
1:1
140
1.0
141
1.0
290
     1
  0
SCALE
  5
3D
102
{ACAD_REACTORS
330
3B
102
}
330
3B
100
AcDbScale
 70
     0
300
1:2
140
1.0
141
2.0
290
     0
  0
SCALE
  5
3E
102
{ACAD_REACTORS
330
3B
102
}
330
3B
100
AcDbScale
 70
     0
300
1:4
140
1.0
141
4.0
290
     0
  0
SCALE
  5
3F
102
{ACAD_REACTORS
330
3B
102
}
330
3B
100
AcDbScale
 70
     0
300
1:5
140
1.0
141
5.0
290
     0
  0
SCALE
  5
40
102
{ACAD_REACTORS
330
3B
102
}
330
3B
100
AcDbScale
 70
     0
300
1:8
140
1.0
141
8.0
290
     0
  0
SCALE
  5
41
102
{ACAD_REACTORS
330
3B
102
}
330
3B
100
AcDbScale
 70
     0
300
1:10
140
1.0
141
10.0
290
     0
  0
SCALE
  5
42
102
{ACAD_REACTORS
330
3B
102
}
330
3B
100
AcDbScale
 70
     0
300
1:16
140
1.0
141
16.0
290
     0
  0
SCALE
  5
43
102
{ACAD_REACTORS
330
3B
102
}
330
3B
100
AcDbScale
 70
     0
300
1:20
140
1.0
141
20.0
290
     0
  0
SCALE
  5
44
102
{ACAD_REACTORS
330
3B
102
}
330
3B
100
AcDbScale
 70
     0
300
1:30
140
1.0
141
30.0
290
     0
  0
SCALE
  5
45
102
{ACAD_REACTORS
330
3B
102
}
330
3B
100
AcDbScale
 70
     0
300
1:40
140
1.0
141
40.0
290
     0
  0
SCALE
  5
46
102
{ACAD_REACTORS
330
3B
102
}
330
3B
100
AcDbScale
 70
     0
300
1:50
140
1.0
141
50.0
290
     0
  0
SCALE
  5
47
102
{ACAD_REACTORS
330
3B
102
}
330
3B
100
AcDbScale
 70
     0
300
1:100
140
1.0
141
100.0
290
     0
  0
SCALE
  5
48
102
{ACAD_REACTORS
330
3B
102
}
330
3B
100
AcDbScale
 70
     0
300
2:1
140
2.0
141
1.0
290
     0
  0
SCALE
  5
49
102
{ACAD_REACTORS
330
3B
102
}
330
3B
100
AcDbScale
 70
     0
300
4:1
140
4.0
141
1.0
290
     0
  0
SCALE
  5
4A
102
{ACAD_REACTORS
330
3B
102
}
330
3B
100
AcDbScale
 70
     0
300
8:1
140
8.0
141
1.0
290
     0
  0
SCALE
  5
4B
102
{ACAD_REACTORS
330
3B
102
}
330
3B
100
AcDbScale
 70
     0
300
10:1
140
10.0
141
1.0
290
     0
  0
SCALE
  5
4C
102
{ACAD_REACTORS
330
3B
102
}
330
3B
100
AcDbScale
 70
     0
300
100:1
140
100.0
141
1.0
290
     0
  0
SCALE
  5
4D
102
{ACAD_REACTORS
330
3B
102
}
330
3B
100
AcDbScale
 70
     0
300
1/128" = 1'-0"
140
0.0078125
141
12.0
290
     0
  0
SCALE
  5
4E
102
{ACAD_REACTORS
330
3B
102
}
330
3B
100
AcDbScale
 70
     0
300
1/64" = 1'-0"
140
0.015625
141
12.0
290
     0
  0
SCALE
  5
4F
102
{ACAD_REACTORS
330
3B
102
}
330
3B
100
AcDbScale
 70
     0
300
1/32" = 1'-0"
140
0.03125
141
12.0
290
     0
  0
SCALE
  5
50
102
{ACAD_REACTORS
330
3B
102
}
330
3B
100
AcDbScale
 70
     0
300
1/16" = 1'-0"
140
0.0625
141
12.0
290
     0
  0
SCALE
  5
51
102
{ACAD_REACTORS
330
3B
102
}
330
3B
100
AcDbScale
 70
     0
300
3/32" = 1'-0"
140
0.09375
141
12.0
290
     0
  0
SCALE
  5
52
102
{ACAD_REACTORS
330
3B
102
}
330
3B
100
AcDbScale
 70
     0
300
1/8" = 1'-0"
140
0.125
141
12.0
290
     0
  0
SCALE
  5
53
102
{ACAD_REACTORS
330
3B
102
}
330
3B
100
AcDbScale
 70
     0
300
3/16" = 1'-0"
140
0.1875
141
12.0
290
     0
  0
SCALE
  5
54
102
{ACAD_REACTORS
330
3B
102
}
330
3B
100
AcDbScale
 70
     0
300
1/4" = 1'-0"
140
0.25
141
12.0
290
     0
  0
SCALE
  5
55
102
{ACAD_REACTORS
330
3B
102
}
330
3B
100
AcDbScale
 70
     0
300
3/8" = 1'-0"
140
0.375
141
12.0
290
     0
  0
SCALE
  5
56
102
{ACAD_REACTORS
330
3B
102
}
330
3B
100
AcDbScale
 70
     0
300
1/2" = 1'-0"
140
0.5
141
12.0
290
     0
  0
SCALE
  5
57
102
{ACAD_REACTORS
330
3B
102
}
330
3B
100
AcDbScale
 70
     0
300
3/4" = 1'-0"
140
0.75
141
12.0
290
     0
  0
SCALE
  5
58
102
{ACAD_REACTORS
330
3B
102
}
330
3B
100
AcDbScale
 70
     0
300
1" = 1'-0"
140
1.0
141
12.0
290
     0
  0
SCALE
  5
59
102
{ACAD_REACTORS
330
3B
102
}
330
3B
100
AcDbScale
 70
     0
300
1-1/2" = 1'-0"
140
1.5
141
12.0
290
     0
  0
SCALE
  5
5A
102
{ACAD_REACTORS
330
3B
102
}
330
3B
100
AcDbScale
 70
     0
300
3" = 1'-0"
140
3.0
141
12.0
290
     0
  0
SCALE
  5
5B
102
{ACAD_REACTORS
330
3B
102
}
330
3B
100
AcDbScale
 70
     0
300
6" = 1'-0"
140
6.0
141
12.0
290
     0
  0
SCALE
  5
5C
102
{ACAD_REACTORS
330
3B
102
}
330
3B
100
AcDbScale
 70
     0
300
1'-0" = 1'-0"
140
12.0
141
12.0
290
     0
  0
VISUALSTYLE
  5
2F
102
{ACAD_REACTORS
330
2A
102
}
330
2A
100
AcDbVisualStyle
  2
2dWireframe
 70
     4
 71
     0
 72
     2
 73
     0
 90
        0
 40
-0.6
 41
-30.0
 62
     5
 63
     7
 74
     1
 91
        4
 64
     7
 65
   257
 75
     1
175
     1
 42
1.0
 92
        0
 66
   257
 43
1.0
 76
     1
 77
     6
 78
     2
 67
     7
 79
     5
170
     0
171
     0
290
     0
174
     0
 93
        1
 44
0.0
173
     0
291
     0
 45
0.0
1001
ACAD
1000
AcDbSavedByObjectVersion
1070
     0
  0
VISUALSTYLE
  5
31
102
{ACAD_REACTORS
330
2A
102
}
330
2A
100
AcDbVisualStyle
  2
3D Hidden
 70
     6
 71
     1
 72
     2
 73
     2
 90
        0
 40
-0.6
 41
-30.0
 62
     5
 63
     7
 74
     2
 91
        2
 64
     7
 65
   257
 75
     2
175
     1
 42
40.0
 92
        0
 66
   257
 43
1.0
 76
     1
 77
     6
 78
     2
 67
     7
 79
     3
170
     0
171
     0
290
     0
174
     0
 93
        1
 44
0.0
173
     0
291
     0
 45
0.0
1001
ACAD
1000
AcDbSavedByObjectVersion
1070
     0
  0
VISUALSTYLE
  5
30
102
{ACAD_REACTORS
330
2A
102
}
330
2A
100
AcDbVisualStyle
  2
3dWireframe
 70
     5
 71
     0
 72
     2
 73
     0
 90
        0
 40
-0.6
 41
-30.0
 62
     5
 63
     7
 74
     1
 91
        4
 64
     7
 65
   257
 75
     1
175
     1
 42
1.0
 92
        0
 66
   257
 43
1.0
 76
     1
 77
     6
 78
     2
 67
     7
 79
     5
170
     0
171
     0
290
     0
174
     0
 93
        1
 44
0.0
173
     0
291
     0
 45
0.0
1001
ACAD
1000
AcDbSavedByObjectVersion
1070
     0
  0
VISUALSTYLE
  5
32
102
{ACAD_REACTORS
330
2A
102
}
330
2A
100
AcDbVisualStyle
  2
Basic
 70
     7
 71
     1
 72
     0
 73
     1
 90
        0
 40
-0.6
 41
-30.0
 62
     5
 63
     7
 74
     0
 91
        4
 64
     7
 65
   257
 75
     1
175
     1
 42
1.0
 92
        8
 66
     7
 43
1.0
 76
     1
 77
     6
 78
     2
 67
     7
 79
     5
170
     0
171
     0
290
     0
174
     0
 93
        1
 44
0.0
173
     0
291
     1
 45
0.0
1001
ACAD
1000
AcDbSavedByObjectVersion
1070
     0
  0
VISUALSTYLE
  5
36
102
{ACAD_REACTORS
330
2A
102
}
330
2A
100
AcDbVisualStyle
  2
Brighten
 70
    12
 71
     2
 72
     2
 73
     0
 90
        0
 40
-0.6
 41
-30.0
 62
     5
 63
     7
 74
     1
 91
        4
 64
     7
 65
   257
 75
     1
175
     1
 42
1.0
 92
        8
 66
     7
 43
1.0
 76
     1
 77
     6
 78
     2
 67
     7
 79
     5
170
     0
171
     0
290
     0
174
     0
 93
        1
 44
50.0
173
     0
291
     1
 45
0.0
1001
ACAD
1000
AcDbSavedByObjectVersion
1070
     0
  0
VISUALSTYLE
  5
3A
102
{ACAD_REACTORS
330
2A
102
}
330
2A
100
AcDbVisualStyle
  2
ColorChange
 70
    16
 71
     2
 72
     2
 73
     3
 90
        0
 40
-0.6
 41
-30.0
 62
     5
 63
     8
 74
     1
 91
        4
 64
     7
 65
   257
 75
     1
175
     1
 42
1.0
 92
        8
 66
     8
 43
1.0
 76
     1
 77
     6
 78
     2
 67
     7
 79
     5
170
     0
171
     0
290
     0
174
     0
 93
        1
 44
0.0
173
     0
291
     1
 45
0.0
1001
ACAD
1000
AcDbSavedByObjectVersion
1070
     0
  0
VISUALSTYLE
  5
34
102
{ACAD_REACTORS
330
2A
102
}
330
2A
100
AcDbVisualStyle
  2
Conceptual
 70
     9
 71
     3
 72
     2
 73
     0
 90
        0
 40
-0.6
 41
-30.0
 62
     5
 63
     7
 74
     2
 91
        2
 64
     7
 65
   257
 75
     1
175
     1
 42
40.0
 92
        8
 66
     7
 43
1.0
 76
     1
 77
     6
 78
     2
 67
     7
 79
     3
170
     0
171
     0
290
     0
174
     0
 93
        1
 44
0.0
173
     0
291
     0
 45
0.0
1001
ACAD
1000
AcDbSavedByObjectVersion
1070
     0
  0
VISUALSTYLE
  5
35
102
{ACAD_REACTORS
330
2A
102
}
330
2A
100
AcDbVisualStyle
  2
Dim
 70
    11
 71
     2
 72
     2
 73
     0
 90
        0
 40
-0.6
 41
-30.0
 62
     5
 63
     7
 74
     1
 91
        4
 64
     7
 65
   257
 75
     1
175
     1
 42
1.0
 92
        8
 66
     7
 43
1.0
 76
     1
 77
     6
 78
     2
 67
     7
 79
     5
170
     0
171
     0
290
     0
174
     0
 93
        1
 44
-50.0
173
     0
291
     1
 45
0.0
1001
ACAD
1000
AcDbSavedByObjectVersion
1070
     0
  0
VISUALSTYLE
  5
39
102
{ACAD_REACTORS
330
2A
102
}
330
2A
100
AcDbVisualStyle
  2
Facepattern
 70
    15
 71
     2
 72
     2
 73
     0
 90
        0
 40
-0.6
 41
-30.0
 62
     5
 63
     7
 74
     1
 91
        4
 64
     7
 65
   257
 75
     1
175
     1
 42
1.0
 92
        8
 66
     7
 43
1.0
 76
     1
 77
     6
 78
     2
 67
     7
 79
     5
170
     0
171
     0
290
     0
174
     0
 93
        1
 44
0.0
173
     0
291
     1
 45
0.0
1001
ACAD
1000
AcDbSavedByObjectVersion
1070
     0
  0
VISUALSTYLE
  5
2B
102
{ACAD_REACTORS
330
2A
102
}
330
2A
100
AcDbVisualStyle
  2
Flat
 70
     0
 71
     2
 72
     1
 73
     1
 90
        2
 40
-0.6
 41
30.0
 62
     5
 63
     7
 74
     0
 91
        4
 64
     7
 65
   257
 75
     1
175
     1
 42
1.0
 92
        8
 66
     7
 43
1.0
 76
     1
 77
     6
 78
     2
 67
     7
 79
     5
170
     0
171
     0
290
     0
174
     0
 93
       13
 44
0.0
173
     0
291
     1
 45
0.0
1001
ACAD
1000
AcDbSavedByObjectVersion
1070
     0
  0
VISUALSTYLE
  5
2C
102
{ACAD_REACTORS
330
2A
102
}
330
2A
100
AcDbVisualStyle
  2
FlatWithEdges
 70
     1
 71
     2
 72
     1
 73
     1
 90
        2
 40
-0.6
 41
30.0
 62
     5
 63
     7
 74
     1
 91
        4
 64
     7
 65
   257
 75
     1
175
     1
 42
1.0
 92
        0
 66
   257
 43
1.0
 76
     1
 77
     6
 78
     2
 67
     7
 79
     5
170
     0
171
     0
290
     0
174
     0
 93
       13
 44
0.0
173
     0
291
     1
 45
0.0
1001
ACAD
1000
AcDbSavedByObjectVersion
1070
     0
  0
VISUALSTYLE
  5
2D
102
{ACAD_REACTORS
330
2A
102
}
330
2A
100
AcDbVisualStyle
  2
Gouraud
 70
     2
 71
     2
 72
     2
 73
     1
 90
        2
 40
-0.6
 41
30.0
 62
     5
 63
     7
 74
     0
 91
        4
 64
     7
 65
   257
 75
     1
175
     1
 42
1.0
 92
        0
 66
     7
 43
1.0
 76
     1
 77
     6
 78
     2
 67
     7
 79
     5
170
     0
171
     0
290
     0
174
     0
 93
       13
 44
0.0
173
     0
291
     1
 45
0.0
1001
ACAD
1000
AcDbSavedByObjectVersion
1070
     0
  0
VISUALSTYLE
  5
2E
102
{ACAD_REACTORS
330
2A
102
}
330
2A
100
AcDbVisualStyle
  2
GouraudWithEdges
 70
     3
 71
     2
 72
     2
 73
     1
 90
        2
 40
-0.6
 41
30.0
 62
     5
 63
     7
 74
     1
 91
        4
 64
     7
 65
   257
 75
     1
175
     1
 42
1.0
 92
        0
 66
   257
 43
1.0
 76
     1
 77
     6
 78
     2
 67
     7
 79
     5
170
     0
171
     0
290
     0
174
     0
 93
       13
 44
0.0
173
     0
291
     1
 45
0.0
1001
ACAD
1000
AcDbSavedByObjectVersion
1070
     0
  0
VISUALSTYLE
  5
38
102
{ACAD_REACTORS
330
2A
102
}
330
2A
100
AcDbVisualStyle
  2
Linepattern
 70
    14
 71
     2
 72
     2
 73
     0
 90
        0
 40
-0.6
 41
-30.0
 62
     5
 63
     7
 74
     1
 91
        4
 64
     7
 65
   257
 75
     7
175
     7
 42
1.0
 92
        8
 66
     7
 43
1.0
 76
     1
 77
     6
 78
     2
 67
     7
 79
     5
170
     0
171
     0
290
     0
174
     0
 93
        1
 44
0.0
173
     0
291
     1
 45
0.0
1001
ACAD
1000
AcDbSavedByObjectVersion
1070
     0
  0
VISUALSTYLE
  5
33
102
{ACAD_REACTORS
330
2A
102
}
330
2A
100
AcDbVisualStyle
  2
Realistic
 70
     8
 71
     2
 72
     2
 73
     0
 90
        0
 40
-0.6
 41
-30.0
 62
     5
 63
     7
 74
     1
 91
        0
 64
     7
 65
   257
 75
     1
175
     1
 42
1.0
 92
        8
 66
     8
 43
1.0
 76
     1
 77
     6
 78
     2
 67
     7
 79
     5
170
     0
171
     0
290
     0
174
     0
 93
       13
 44
0.0
173
     0
291
     0
 45
0.0
1001
ACAD
1000
AcDbSavedByObjectVersion
1070
     0
  0
VISUALSTYLE
  5
37
102
{ACAD_REACTORS
330
2A
102
}
330
2A
100
AcDbVisualStyle
  2
Thicken
 70
    13
 71
     2
 72
     2
 73
     0
 90
        0
 40
-0.6
 41
-30.0
 62
     5
 63
     7
 74
     1
 91
        4
 64
     7
 65
   257
 75
     1
175
     1
 42
1.0
 92
       12
 66
     7
 43
1.0
 76
     1
 77
     6
 78
     2
 67
     7
 79
     5
170
     0
171
     0
290
     0
174
     0
 93
        1
 44
0.0
173
     0
291
     1
 45
0.0
1001
ACAD
1000
AcDbSavedByObjectVersion
1070
     0
  0
DICTIONARYVAR
  5
287
102
{ACAD_REACTORS
330
286
102
}
330
286
100
DictionaryVariables
280
     0
  1
1:1
  0
DICTIONARYVAR
  5
28B
102
{ACAD_REACTORS
330
286
102
}
330
286
100
DictionaryVariables
280
     0
  1
80.000000
  0
DICTIONARYVAR
  5
28A
102
{ACAD_REACTORS
330
286
102
}
330
286
100
DictionaryVariables
280
     0
  1
5.000000
  0
ENDSEC
  0
EOF
