  0
SECTION
  2
HEADER
  9
$ACADVER
  1
AC1015
  9
$ACADMAINTVER
 70
     6
  9
$DWGCODEPAGE
  3
ANSI_1252
  9
$INSBASE
 10
0.0
 20
0.0
 30
0.0
  9
$EXTMIN
 10
0.0
 20
0.0
 30
0.0
  9
$EXTMAX
 10
1682.0
 20
2378.0
 30
0.0
  9
$LIMMIN
 10
0.0
 20
0.0
  9
$LIMMAX
 10
1682.0
 20
2378.0
  9
$ORTHOMODE
 70
     0
  9
$REGENMODE
 70
     1
  9
$FILLMODE
 70
     1
  9
$QTEXTMODE
 70
     0
  9
$MIRRTEXT
 70
     1
  9
$LTSCALE
 40
1.0
  9
$ATTMODE
 70
     1
  9
$TEXTSIZE
 40
2.5
  9
$TRACEWID
 40
1.0
  9
$TEXTSTYLE
  7
Standard
  9
$CLAYER
  8
0
  9
$CELTYPE
  6
ByLayer
  9
$CECOLOR
 62
   256
  9
$CELTSCALE
 40
1.0
  9
$DISPSILH
 70
     0
  9
$DIMSCALE
 40
1.0
  9
$DIMASZ
 40
2.5
  9
$DIMEXO
 40
0.625
  9
$DIMDLI
 40
3.75
  9
$DIMRND
 40
0.0
  9
$DIMDLE
 40
0.0
  9
$DIMEXE
 40
1.25
  9
$DIMTP
 40
0.0
  9
$DIMTM
 40
0.0
  9
$DIMTXT
 40
2.5
  9
$DIMCEN
 40
2.5
  9
$DIMTSZ
 40
0.0
  9
$DIMTOL
 70
     0
  9
$DIMLIM
 70
     0
  9
$DIMTIH
 70
     0
  9
$DIMTOH
 70
     0
  9
$DIMSE1
 70
     0
  9
$DIMSE2
 70
     0
  9
$DIMTAD
 70
     1
  9
$DIMZIN
 70
     8
  9
$DIMBLK
  1

  9
$DIMASO
 70
     1
  9
$DIMSHO
 70
     1
  9
$DIMPOST
  1

  9
$DIMAPOST
  1

  9
$DIMALT
 70
     0
  9
$DIMALTD
 70
     3
  9
$DIMALTF
 40
0.0393700787
  9
$DIMLFAC
 40
1.0
  9
$DIMTOFL
 70
     1
  9
$DIMTVP
 40
0.0
  9
$DIMTIX
 70
     0
  9
$DIMSOXD
 70
     0
  9
$DIMSAH
 70
     0
  9
$DIMBLK1
  1

  9
$DIMBLK2
  1

  9
$DIMSTYLE
  2
ISO-25
  9
$DIMCLRD
 70
     0
  9
$DIMCLRE
 70
     0
  9
$DIMCLRT
 70
     0
  9
$DIMTFAC
 40
1.0
  9
$DIMGAP
 40
0.625
  9
$DIMJUST
 70
     0
  9
$DIMSD1
 70
     0
  9
$DIMSD2
 70
     0
  9
$DIMTOLJ
 70
     0
  9
$DIMTZIN
 70
     8
  9
$DIMALTZ
 70
     0
  9
$DIMALTTZ
 70
     0
  9
$DIMUPT
 70
     0
  9
$DIMDEC
 70
     2
  9
$DIMTDEC
 70
     2
  9
$DIMALTU
 70
     2
  9
$DIMALTTD
 70
     3
  9
$DIMTXSTY
  7
Standard
  9
$DIMAUNIT
 70
     0
  9
$DIMADEC
 70
     0
  9
$DIMALTRND
 40
0.0
  9
$DIMAZIN
 70
     0
  9
$DIMDSEP
 70
    44
  9
$DIMATFIT
 70
     3
  9
$DIMFRAC
 70
     0
  9
$DIMLDRBLK
  1

  9
$DIMLUNIT
 70
     2
  9
$DIMLWD
 70
    -2
  9
$DIMLWE
 70
    -2
  9
$DIMTMOVE
 70
     0
  9
$LUNITS
 70
     2
  9
$LUPREC
 70
     4
  9
$SKETCHINC
 40
1.0
  9
$FILLETRAD
 40
10.0
  9
$AUNITS
 70
     0
  9
$AUPREC
 70
     0
  9
$MENU
  1
.
  9
$ELEVATION
 40
0.0
  9
$PELEVATION
 40
0.0
  9
$THICKNESS
 40
0.0
  9
$LIMCHECK
 70
     0
  9
$CHAMFERA
 40
10.0
  9
$CHAMFERB
 40
10.0
  9
$CHAMFERC
 40
20.0
  9
$CHAMFERD
 40
0.0
  9
$SKPOLY
 70
     0
  9
$TDCREATE
 40
2455568.633860718
  9
$TDUCREATE
 40
2455568.592194051
  9
$TDUPDATE
 40
2455568.633860729
  9
$TDUUPDATE
 40
2455568.592194063
  9
$TDINDWG
 40
0.0000000116
  9
$TDUSRTIMER
 40
0.0000000116
  9
$USRTIMER
 70
     1
  9
$ANGBASE
 50
0.0
  9
$ANGDIR
 70
     0
  9
$PDMODE
 70
     0
  9
$PDSIZE
 40
0.0
  9
$PLINEWID
 40
0.0
  9
$SPLFRAME
 70
     0
  9
$SPLINETYPE
 70
     6
  9
$SPLINESEGS
 70
     8
  9
$HANDSEED
  5
144
  9
$SURFTAB1
 70
     6
  9
$SURFTAB2
 70
     6
  9
$SURFTYPE
 70
     6
  9
$SURFU
 70
     6
  9
$SURFV
 70
     6
  9
$UCSBASE
  2

  9
$UCSNAME
  2

  9
$UCSORG
 10
0.0
 20
0.0
 30
0.0
  9
$UCSXDIR
 10
1.0
 20
0.0
 30
0.0
  9
$UCSYDIR
 10
0.0
 20
1.0
 30
0.0
  9
$UCSORTHOREF
  2

  9
$UCSORTHOVIEW
 70
     0
  9
$UCSORGTOP
 10
0.0
 20
0.0
 30
0.0
  9
$UCSORGBOTTOM
 10
0.0
 20
0.0
 30
0.0
  9
$UCSORGLEFT
 10
0.0
 20
0.0
 30
0.0
  9
$UCSORGRIGHT
 10
0.0
 20
0.0
 30
0.0
  9
$UCSORGFRONT
 10
0.0
 20
0.0
 30
0.0
  9
$UCSORGBACK
 10
0.0
 20
0.0
 30
0.0
  9
$PUCSBASE
  2

  9
$PUCSNAME
  2

  9
$PUCSORG
 10
0.0
 20
0.0
 30
0.0
  9
$PUCSXDIR
 10
1.0
 20
0.0
 30
0.0
  9
$PUCSYDIR
 10
0.0
 20
1.0
 30
0.0
  9
$PUCSORTHOREF
  2

  9
$PUCSORTHOVIEW
 70
     0
  9
$PUCSORGTOP
 10
0.0
 20
0.0
 30
0.0
  9
$PUCSORGBOTTOM
 10
0.0
 20
0.0
 30
0.0
  9
$PUCSORGLEFT
 10
0.0
 20
0.0
 30
0.0
  9
$PUCSORGRIGHT
 10
0.0
 20
0.0
 30
0.0
  9
$PUCSORGFRONT
 10
0.0
 20
0.0
 30
0.0
  9
$PUCSORGBACK
 10
0.0
 20
0.0
 30
0.0
  9
$USERI1
 70
     0
  9
$USERI2
 70
     0
  9
$USERI3
 70
     0
  9
$USERI4
 70
     0
  9
$USERI5
 70
     0
  9
$USERR1
 40
0.0
  9
$USERR2
 40
0.0
  9
$USERR3
 40
0.0
  9
$USERR4
 40
0.0
  9
$USERR5
 40
0.0
  9
$WORLDVIEW
 70
     1
  9
$SHADEDGE
 70
     3
  9
$SHADEDIF
 70
    70
  9
$TILEMODE
 70
     1
  9
$MAXACTVP
 70
    64
  9
$PINSBASE
 10
0.0
 20
0.0
 30
0.0
  9
$PLIMCHECK
 70
     0
  9
$PEXTMIN
 10
0.0
 20
0.0
 30
0.0
  9
$PEXTMAX
 10
1682.0
 20
2378.0
 30
0.0
  9
$PLIMMIN
 10
0.0
 20
0.0
  9
$PLIMMAX
 10
1682.0
 20
2378.0
  9
$UNITMODE
 70
     0
  9
$VISRETAIN
 70
     1
  9
$PLINEGEN
 70
     0
  9
$PSLTSCALE
 70
     1
  9
$TREEDEPTH
 70
  3020
  9
$CMLSTYLE
  2
Standard
  9
$CMLJUST
 70
     0
  9
$CMLSCALE
 40
20.0
  9
$PROXYGRAPHICS
 70
     1
  9
$MEASUREMENT
 70
     1
  9
$CELWEIGHT
370
    -1
  9
$ENDCAPS
280
     0
  9
$JOINSTYLE
280
     0
  9
$LWDISPLAY
290
     0
  9
$INSUNITS
 70
     4
  9
$HYPERLINKBASE
  1

  9
$STYLESHEET
  1

  9
$XEDIT
290
     1
  9
$CEPSNTYPE
380
     0
  9
$PSTYLEMODE
290
     1
  9
$FINGERPRINTGUID
  2
{11B5556A-CCB1-4372-9675-7528DA367E8C}
  9
$VERSIONGUID
  2
{FAEB1C32-E019-11D5-929B-00C0DF256EC4}
  9
$EXTNAMES
290
     1
  9
$PSVPSCALE
 40
0.0
  9
$OLESTARTUP
290
     0
  0
ENDSEC
  0
SECTION
  2
CLASSES
  0
CLASS
  1
ACDBDICTIONARYWDFLT
  2
AcDbDictionaryWithDefault
  3
ObjectDBX Classes
 90
        0
280
     0
281
     0
  0
CLASS
  1
VISUALSTYLE
  2
AcDbVisualStyle
  3
ObjectDBX Classes
 90
     4095
280
     0
281
     0
  0
CLASS
  1
SCALE
  2
AcDbScale
  3
ObjectDBX Classes
 90
     1153
280
     0
281
     0
  0
CLASS
  1
DICTIONARYVAR
  2
AcDbDictionaryVar
  3
ObjectDBX Classes
 90
        0
280
     0
281
     0
  0
CLASS
  1
ACDBPLACEHOLDER
  2
AcDbPlaceHolder
  3
ObjectDBX Classes
 90
        0
280
     0
281
     0
  0
CLASS
  1
LAYOUT
  2
AcDbLayout
  3
ObjectDBX Classes
 90
        0
280
     0
281
     0
  0
ENDSEC
  0
SECTION
  2
TABLES
  0
TABLE
  2
VPORT
  5
8
330
0
100
AcDbSymbolTable
 70
     1
  0
VPORT
  5
29
330
8
100
AcDbSymbolTableRecord
100
AcDbViewportTableRecord
  2
*Active
 70
     0
 10
0.0
 20
0.0
 11
1.0
 21
1.0
 12
344.1869158879
 22
148.5
 13
0.0
 23
0.0
 14
10.0
 24
10.0
 15
10.0
 25
10.0
 16
0.0
 26
0.0
 36
1.0
 17
0.0
 27
0.0
 37
0.0
 40
297.0
 41
1.9729729729
 42
50.0
 43
0.0
 44
0.0
 50
0.0
 51
0.0
 71
     0
 72
   100
 73
     1
 74
     3
 75
     0
 76
     0
 77
     0
 78
     0
281
     0
 65
     1
110
0.0
120
0.0
130
0.0
111
1.0
121
0.0
131
0.0
112
0.0
122
1.0
132
0.0
 79
     0
146
0.0
  0
ENDTAB
  0
TABLE
  2
LTYPE
  5
5
330
0
100
AcDbSymbolTable
 70
     2
  0
LTYPE
  5
14
330
5
100
AcDbSymbolTableRecord
100
AcDbLinetypeTableRecord
  2
ByBlock
 70
     0
  3

 72
    65
 73
     0
 40
0.0
  0
LTYPE
  5
15
330
5
100
AcDbSymbolTableRecord
100
AcDbLinetypeTableRecord
  2
ByLayer
 70
     0
  3

 72
    65
 73
     0
 40
0.0
  0
LTYPE
  5
16
330
5
100
AcDbSymbolTableRecord
100
AcDbLinetypeTableRecord
  2
Continuous
 70
     0
  3
Solid line
 72
    65
 73
     0
 40
0.0
  0
LTYPE
  5
60
330
5
100
AcDbSymbolTableRecord
100
AcDbLinetypeTableRecord
  2
CENTER2
 70
     0
  3
Center (.5x) ___ _ ___ _ ___ _ ___ _ ___ _ ___
 72
    65
 73
     4
 40
28.575
 49
19.05
 74
     4
 75
     0
340
0
 46
0.0
 50
0.0
 44
0.0
 45
0.0
 49
-3.175
 74
     4
 75
     0
340
0
 46
0.0
 50
0.0
 44
0.0
 45
0.0
 49
3.175
 74
     4
 75
     0
340
0
 46
0.0
 50
0.0
 44
0.0
 45
0.0
 49
-3.175
 74
     4
 75
     0
340
0
 46
0.0
 50
0.0
 44
0.0
 45
0.0
  0
ENDTAB
  0
TABLE
  2
LAYER
  5
2
330
0
100
AcDbSymbolTable
 70
     3
  0
LAYER
  5
10
330
2
100
AcDbSymbolTableRecord
100
AcDbLayerTableRecord
  2
0
 70
     0
 62
     7
  6
Continuous
370
    -3
390
F
  0
LAYER
  5
5D
330
2
100
AcDbSymbolTableRecord
100
AcDbLayerTableRecord
  2
Default
 70
     0
 62
     7
  6
Continuous
370
    -3
390
F
  0
LAYER
  5
77
330
2
100
AcDbSymbolTableRecord
100
AcDbLayerTableRecord
  2
36176000_WANDV.Z
 70
     0
 62
     7
  6
Continuous
370
    -3
390
F
  0
ENDTAB
  0
TABLE
  2
STYLE
  5
3
330
0
100
AcDbSymbolTable
 70
     2
  0
STYLE
  5
11
330
3
100
AcDbSymbolTableRecord
100
AcDbTextStyleTableRecord
  2
Standard
 70
     0
 40
0.0
 41
1.0
 50
0.0
 71
     0
 42
2.5
  3
txt
  4

  0
STYLE
  5
133
330
3
100
AcDbSymbolTableRecord
100
AcDbTextStyleTableRecord
  2
SEACAD_seiso_ttf
 70
     0
 40
0.0
 41
1.0
 50
0.0
 71
     0
 42
0.2
  3
seiso.ttf
  4

  0
ENDTAB
  0
TABLE
  2
VIEW
  5
6
330
0
100
AcDbSymbolTable
 70
     0
  0
ENDTAB
  0
TABLE
  2
UCS
  5
7
330
0
100
AcDbSymbolTable
 70
     0
  0
ENDTAB
  0
TABLE
  2
APPID
  5
9
330
0
100
AcDbSymbolTable
 70
     1
  0
APPID
  5
12
330
9
100
AcDbSymbolTableRecord
100
AcDbRegAppTableRecord
  2
ACAD
 70
     0
  0
ENDTAB
  0
TABLE
  2
DIMSTYLE
  5
A
330
0
100
AcDbSymbolTable
 70
     1
100
AcDbDimStyleTable
  0
DIMSTYLE
105
27
330
A
100
AcDbSymbolTableRecord
100
AcDbDimStyleTableRecord
  2
ISO-25
 70
     0
 41
2.5
 42
0.625
 43
3.75
 44
1.25
 73
     0
 74
     0
 77
     1
 78
     8
140
2.5
141
2.5
143
0.0393700787
147
0.625
171
     3
172
     1
271
     2
272
     2
274
     3
278
    44
283
     0
284
     8
340
11
  0
ENDTAB
  0
TABLE
  2
BLOCK_RECORD
  5
1
330
0
100
AcDbSymbolTable
 70
     7
  0
BLOCK_RECORD
  5
1F
330
1
100
AcDbSymbolTableRecord
100
AcDbBlockTableRecord
  2
*Model_Space
340
22
  0
BLOCK_RECORD
  5
1B
330
1
100
AcDbSymbolTableRecord
100
AcDbBlockTableRecord
  2
*Paper_Space
340
1E
  0
BLOCK_RECORD
  5
5E
330
1
100
AcDbSymbolTableRecord
100
AcDbBlockTableRecord
  2
SEANNOT_GROUP
340
0
102
{BLKREFS
331
5F
102
}
  0
BLOCK_RECORD
  5
65
330
1
100
AcDbSymbolTableRecord
100
AcDbBlockTableRecord
  2
SEANNOT_GROUP1
340
0
102
{BLKREFS
331
66
102
}
  0
BLOCK_RECORD
  5
6B
330
1
100
AcDbSymbolTableRecord
100
AcDbBlockTableRecord
  2
SEANNOT_GROUP2
340
0
102
{BLKREFS
331
6C
102
}
  0
BLOCK_RECORD
  5
75
330
1
100
AcDbSymbolTableRecord
100
AcDbBlockTableRecord
  2
SE
340
0
102
{BLKREFS
331
76
102
}
  0
BLOCK_RECORD
  5
A4
330
1
100
AcDbSymbolTableRecord
100
AcDbBlockTableRecord
  2
SE1
340
0
102
{BLKREFS
331
A5
102
}
  0
BLOCK_RECORD
  5
DE
330
1
100
AcDbSymbolTableRecord
100
AcDbBlockTableRecord
  2
SE2
340
0
102
{BLKREFS
331
DF
102
}
  0
ENDTAB
  0
ENDSEC
  0
SECTION
  2
BLOCKS
  0
BLOCK
  5
20
330
1F
100
AcDbEntity
  8
0
100
AcDbBlockBegin
  2
*Model_Space
 70
     0
 10
0.0
 20
0.0
 30
0.0
  3
*Model_Space
  1

  0
ENDBLK
  5
21
330
1F
100
AcDbEntity
  8
0
100
AcDbBlockEnd
  0
BLOCK
  5
1C
330
1B
100
AcDbEntity
 67
     1
  8
0
100
AcDbBlockBegin
  2
*Paper_Space
 70
     0
 10
0.0
 20
0.0
 30
0.0
  3
*Paper_Space
  1

  0
ENDBLK
  5
1D
330
1B
100
AcDbEntity
 67
     1
  8
0
100
AcDbBlockEnd
  0
BLOCK
  5
63
330
5E
100
AcDbEntity
  8
0
100
AcDbBlockBegin
  2
SEANNOT_GROUP
 70
     0
 10
0.0
 20
0.0
 30
0.0
  3
SEANNOT_GROUP
  1

  0
LINE
  5
61
330
5E
100
AcDbEntity
  8
Default
  6
CENTER2
 62
     7
100
AcDbLine
 10
56.849999553
 20
272.7545773825
 30
0.0
 11
16.850000447
 21
272.7545773825
 31
0.0
  0
LINE
  5
62
330
5E
100
AcDbEntity
  8
Default
  6
CENTER2
 62
     7
100
AcDbLine
 10
36.85
 20
292.7545769354
 30
0.0
 11
36.85
 21
252.7545778295
 31
0.0
  0
ENDBLK
  5
64
330
5E
100
AcDbEntity
  8
0
100
AcDbBlockEnd
  0
BLOCK
  5
69
330
65
100
AcDbEntity
  8
0
100
AcDbBlockBegin
  2
SEANNOT_GROUP1
 70
     0
 10
0.0
 20
0.0
 30
0.0
  3
SEANNOT_GROUP1
  1

  0
LINE
  5
67
330
65
100
AcDbEntity
  8
Default
  6
CENTER2
 62
     7
100
AcDbLine
 10
128.5627104304
 20
349.55
 30
0.0
 11
88.5627113244
 21
349.55
 31
0.0
  0
LINE
  5
68
330
65
100
AcDbEntity
  8
Default
  6
CENTER2
 62
     7
100
AcDbLine
 10
108.5627108774
 20
369.549999553
 30
0.0
 11
108.5627108774
 21
329.550000447
 31
0.0
  0
ENDBLK
  5
6A
330
65
100
AcDbEntity
  8
0
100
AcDbBlockEnd
  0
BLOCK
  5
73
330
6B
100
AcDbEntity
  8
0
100
AcDbBlockBegin
  2
SEANNOT_GROUP2
 70
     0
 10
0.0
 20
0.0
 30
0.0
  3
SEANNOT_GROUP2
  1

  0
LINE
  5
6D
330
6B
100
AcDbEntity
  8
Default
  6
CENTER2
 62
     7
100
AcDbLine
 10
56.849999553
 20
349.55
 30
0.0
 11
16.850000447
 21
349.55
 31
0.0
  0
LINE
  5
6E
330
6B
100
AcDbEntity
  8
Default
  6
CENTER2
 62
     7
100
AcDbLine
 10
36.85
 20
369.549999553
 30
0.0
 11
36.85
 21
329.550000447
 31
0.0
  0
LINE
  5
6F
330
6B
100
AcDbEntity
  8
Default
  6
CENTER2
 62
     7
100
AcDbLine
 10
61.8499994412
 20
349.55
 30
0.0
 11
70.85
 21
349.55
 31
0.0
  0
LINE
  5
70
330
6B
100
AcDbEntity
  8
Default
  6
CENTER2
 62
     7
100
AcDbLine
 10
36.85
 20
374.5499994412
 30
0.0
 11
36.85
 21
383.55
 31
0.0
  0
LINE
  5
71
330
6B
100
AcDbEntity
  8
Default
  6
CENTER2
 62
     7
100
AcDbLine
 10
11.8500005588
 20
349.55
 30
0.0
 11
2.85
 21
349.55
 31
0.0
  0
LINE
  5
72
330
6B
100
AcDbEntity
  8
Default
  6
CENTER2
 62
     7
100
AcDbLine
 10
36.85
 20
324.5500005588
 30
0.0
 11
36.85
 21
315.55
 31
0.0
  0
ENDBLK
  5
74
330
6B
100
AcDbEntity
  8
0
100
AcDbBlockEnd
  0
BLOCK
  5
A2
330
75
100
AcDbEntity
  8
0
100
AcDbBlockBegin
  2
SE
 70
     0
 10
0.0
 20
0.0
 30
0.0
  3
SE
  1

  0
ARC
  5
78
330
75
100
AcDbEntity
  8
36176000_WANDV.Z
  6
Continuous
 62
     7
100
AcDbCircle
 10
36.85
 20
349.55
 30
0.0
 40
30.5
100
AcDbArc
 50
299.1360625938
 51
0.0
  0
ARC
  5
79
330
75
100
AcDbEntity
  8
36176000_WANDV.Z
  6
Continuous
 62
     7
100
AcDbCircle
 10
36.85
 20
349.55
 30
0.0
 40
30.5
100
AcDbArc
 50
0.0
 51
240.8639374062
  0
ARC
  5
7A
330
75
100
AcDbEntity
  8
36176000_WANDV.Z
  6
Continuous
 62
     7
100
AcDbCircle
 10
36.85
 20
349.55
 30
0.0
 40
26.5232366884683
100
AcDbArc
 50
304.0479431986
 51
0.0
  0
ARC
  5
7B
330
75
100
AcDbEntity
  8
36176000_WANDV.Z
  6
Continuous
 62
     7
100
AcDbCircle
 10
36.85
 20
349.55
 30
0.0
 40
26.5232366884683
100
AcDbArc
 50
0.0
 51
235.9520568014
  0
CIRCLE
  5
7C
330
75
100
AcDbEntity
  8
36176000_WANDV.Z
  6
Continuous
 62
     7
100
AcDbCircle
 10
36.85
 20
349.55
 30
0.0
 40
17.25
  0
CIRCLE
  5
7D
330
75
100
AcDbEntity
  8
36176000_WANDV.Z
  6
Continuous
 62
     7
100
AcDbCircle
 10
36.85
 20
349.55
 30
0.0
 40
17.35
  0
ELLIPSE
  5
7E
330
75
100
AcDbEntity
  8
36176000_WANDV.Z
  6
Continuous
 62
     7
100
AcDbEllipse
 10
36.85
 20
306.9721516545
 30
0.0
 11
10.75
 21
0.0
 31
0.0
210
0.0
220
0.0
230
1.0
 40
0.3420201433
 41
0.0
 42
6.283185307179586
  0
ELLIPSE
  5
7F
330
75
100
AcDbEntity
  8
36176000_WANDV.Z
  6
Continuous
 62
     7
100
AcDbEllipse
 10
36.85
 20
309.7912295169
 30
0.0
 11
-11.79999999999972
 21
6.245004513516506E-14
 31
0.0
210
0.0
220
0.0
230
1.0
 40
0.3420201433
 41
2.771250021498077
 42
3.511935285681524
  0
LINE
  5
80
330
75
100
AcDbEntity
  8
36176000_WANDV.Z
  6
Continuous
 62
     7
100
AcDbLine
 10
47.85
 20
309.5450521526
 30
0.0
 11
47.85
 21
311.2519398505
 31
0.0
  0
LINE
  5
81
330
75
100
AcDbEntity
  8
36176000_WANDV.Z
  6
Continuous
 62
     7
100
AcDbLine
 10
47.85
 20
308.1551804119
 30
0.0
 11
47.85
 21
309.5450521526
 31
0.0
  0
LINE
  5
82
330
75
100
AcDbEntity
  8
36176000_WANDV.Z
  6
Continuous
 62
     7
100
AcDbLine
 10
47.85
 20
306.3859078634
 30
0.0
 11
47.85
 21
308.1551804119
 31
0.0
  0
LINE
  5
83
330
75
100
AcDbEntity
  8
36176000_WANDV.Z
  6
Continuous
 62
     7
100
AcDbLine
 10
47.85
 20
306.3859078634
 30
0.0
 11
47.85
 21
306.2579478772
 31
0.0
  0
LINE
  5
84
330
75
100
AcDbEntity
  8
36176000_WANDV.Z
  6
Continuous
 62
     7
100
AcDbLine
 10
25.85
 20
308.1551804119
 30
0.0
 11
25.85
 21
306.3859078634
 31
0.0
  0
ELLIPSE
  5
85
330
75
100
AcDbEntity
  8
36176000_WANDV.Z
  6
Continuous
 62
     7
100
AcDbEllipse
 10
36.85
 20
307.2705441377
 30
0.0
 11
11.30000000000001
 21
0.0
 31
0.0
210
0.0
220
0.0
230
1.0
 40
0.3420201433
 41
-0.6820876318287734
 42
-0.6090540193261322
  0
LINE
  5
86
330
75
100
AcDbEntity
  8
36176000_WANDV.Z
  6
Continuous
 62
     7
100
AcDbLine
 10
25.85
 20
309.5450521526
 30
0.0
 11
25.85
 21
308.1551804119
 31
0.0
  0
LINE
  5
87
330
75
100
AcDbEntity
  8
36176000_WANDV.Z
  6
Continuous
 62
     7
100
AcDbLine
 10
25.85
 20
306.2579399911
 30
0.0
 11
25.85
 21
306.3859078634
 31
0.0
  0
ELLIPSE
  5
88
330
75
100
AcDbEntity
  8
36176000_WANDV.Z
  6
Continuous
 62
     7
100
AcDbEllipse
 10
36.85
 20
309.7912295169
 30
0.0
 11
11.79999999999957
 21
-2.081668171172169E-14
 31
0.0
210
0.0
220
0.0
230
1.0
 40
0.3420201433
 41
2.771250021498061
 42
3.511935285681508
  0
LINE
  5
89
330
75
100
AcDbEntity
  8
36176000_WANDV.Z
  6
Continuous
 62
     7
100
AcDbLine
 10
25.85
 20
311.2519398505
 30
0.0
 11
25.85
 21
309.5450521526
 31
0.0
  0
LINE
  5
8A
330
75
100
AcDbEntity
  8
36176000_WANDV.Z
  6
Continuous
 62
     7
100
AcDbLine
 10
28.0782807923
 20
304.8340990727
 30
0.0
 11
28.5052228776
 21
304.6542946237
 31
0.0
  0
LINE
  5
8B
330
75
100
AcDbEntity
  8
36176000_WANDV.Z
  6
Continuous
 62
     7
100
AcDbLine
 10
45.1947771224
 20
304.6542946237
 30
0.0
 11
45.6217192077
 21
304.8340990727
 31
0.0
  0
ARC
  5
8C
330
75
100
AcDbEntity
  8
36176000_WANDV.Z
  6
Continuous
 62
     7
100
AcDbCircle
 10
43.7849945585
 20
310.2744602432
 30
0.0
 40
5.710181017522403
100
AcDbArc
 50
294.4210821182
 51
315.4086732724
  0
ARC
  5
8D
330
75
100
AcDbEntity
  8
36176000_WANDV.Z
  6
Continuous
 62
     7
100
AcDbCircle
 10
30.443207503
 20
310.9687848925
 30
0.0
 40
6.577201956377071
100
AcDbArc
 50
225.6734823729
 51
248.755983496
  0
LINE
  5
8E
330
75
100
AcDbEntity
  8
36176000_WANDV.Z
  6
Continuous
 62
     7
100
AcDbLine
 10
25.05
 20
314.9595389312
 30
0.0
 11
25.05
 21
309.7912295169
 31
0.0
  0
LINE
  5
8F
330
75
100
AcDbEntity
  8
36176000_WANDV.Z
  6
Continuous
 62
     7
100
AcDbLine
 10
48.65
 20
309.7912295169
 30
0.0
 11
48.65
 21
314.9595389312
 31
0.0
  0
ARC
  5
90
330
75
100
AcDbEntity
  8
36176000_WANDV.Z
  6
Continuous
 62
     7
100
AcDbCircle
 10
36.85
 20
349.55
 30
0.0
 40
18.09999999999843
100
AcDbArc
 50
295.47111444
 51
244.4690602687
  0
LINE
  5
91
330
75
100
AcDbEntity
  8
36176000_WANDV.Z
  6
Continuous
 62
     7
100
AcDbLine
 10
30.7759048872
 20
332.4605826881
 30
0.0
 11
29.0392611375
 21
333.2213394352
 31
0.0
  0
SPLINE
  5
92
330
75
100
AcDbEntity
  8
36176000_WANDV.Z
  6
Continuous
 62
     7
100
AcDbSpline
210
0.0
220
0.0
230
1.0
 70
     8
 71
     3
 72
    16
 73
    12
 74
     0
 42
0.0000000007986414
 43
0.0000000001
 40
0.0
 40
0.0
 40
0.0
 40
0.0
 40
0.1250000000000001
 40
0.1250000000000001
 40
0.2500000000000002
 40
0.2500000000000002
 40
0.5000000000000001
 40
0.5000000000000001
 40
0.75
 40
0.75
 40
1.0
 40
1.0
 40
1.0
 40
1.0
 10
42.89283498651839
 20
332.4495082352315
 30
0.0
 10
42.40742348540078
 20
332.2608211550266
 30
0.0
 10
41.92719067833011
 20
332.0560242570828
 30
0.0
 10
40.94396073433182
 20
331.7172454584939
 30
0.0
 10
40.44510577743841
 20
331.5703781151507
 30
0.0
 10
38.9214712473247
 20
331.213984048708
 30
0.0
 10
37.88050971939704
 20
331.0943978797083
 30
0.0
 10
35.78776590235496
 20
331.0969570362891
 30
0.0
 10
34.7595039487718
 20
331.2240914142049
 30
0.0
 10
32.74047130423701
 20
331.738905011941
 30
0.0
 10
31.74927622560148
 20
332.0800833029786
 30
0.0
 10
30.77590488718363
 20
332.4605826880533
 30
0.0
  0
LINE
  5
93
330
75
100
AcDbEntity
  8
36176000_WANDV.Z
  6
Continuous
 62
     7
100
AcDbLine
 10
42.8928349865
 20
332.4495082352
 30
0.0
 11
44.6501036731
 21
333.2167309003
 31
0.0
  0
SPLINE
  5
94
330
75
100
AcDbEntity
  8
36176000_WANDV.Z
  6
Continuous
 62
     7
100
AcDbSpline
210
0.0
220
0.0
230
1.0
 70
    12
 71
     3
 72
     8
 73
     4
 74
     0
 42
0.0000000026048209
 43
0.0000000001
 40
0.4745080206907644
 40
0.4745080206907644
 40
0.4745080206907644
 40
0.4745080206907644
 40
0.4762151464989101
 40
0.4762151464989101
 40
0.4762151464989101
 40
0.4762151464989101
 10
51.6965196471096
 20
332.0861958046015
 30
0.0
 41
0.9999999999996091
 10
51.69674228690981
 20
332.0884887133703
 30
0.0
 41
0.9999999999996092
 10
51.69691282904884
 20
332.0906658522477
 30
0.0
 41
0.9999999999996093
 10
51.69702961810444
 20
332.0927287650226
 30
0.0
 41
0.9999999999996094
  0
SPLINE
  5
95
330
75
100
AcDbEntity
  8
36176000_WANDV.Z
  6
Continuous
 62
     7
100
AcDbSpline
210
0.0
220
0.0
230
1.0
 70
    12
 71
     3
 72
     8
 73
     4
 74
     0
 42
0.0000000026831814
 43
0.0000000001
 40
0.5242879370985619
 40
0.5242879370985619
 40
0.5242879370985619
 40
0.5242879370985619
 40
0.5255242241694634
 40
0.5255242241694634
 40
0.5255242241694634
 40
0.5255242241694634
 10
21.99865113304974
 20
332.0947758019644
 30
0.0
 41
0.9999999999995535
 10
21.99866223097711
 20
332.0933071314165
 30
0.0
 41
0.9999999999995534
 10
21.99870388492716
 20
332.0917724417588
 30
0.0
 41
0.9999999999995532
 10
21.99877602897727
 20
332.0901704907802
 30
0.0
 41
0.9999999999995531
  0
ARC
  5
96
330
75
100
AcDbEntity
  8
36176000_WANDV.Z
  6
Continuous
 62
     7
100
AcDbCircle
 10
36.8500000562
 20
349.55059537
 30
0.0
 40
18.10021186450357
100
AcDbArc
 50
207.7416062879
 51
209.203451458
  0
ARC
  5
97
330
75
100
AcDbEntity
  8
36176000_WANDV.Z
  6
Continuous
 62
     7
100
AcDbCircle
 10
36.8500000562
 20
349.55059537
 30
0.0
 40
18.10021186450357
100
AcDbArc
 50
307.3724143834
 51
311.5399210861
  0
ARC
  5
98
330
75
100
AcDbEntity
  8
36176000_WANDV.Z
  6
Continuous
 62
     7
100
AcDbCircle
 10
36.8500000562
 20
349.55059537
 30
0.0
 40
18.10021186450357
100
AcDbArc
 50
331.2089826998
 51
334.022272661
  0
ARC
  5
99
330
75
100
AcDbEntity
  8
36176000_WANDV.Z
  6
Continuous
 62
     7
100
AcDbCircle
 10
36.8500000562
 20
349.55059537
 30
0.0
 40
18.10021186450357
100
AcDbArc
 50
334.2248931101
 51
339.031438967
  0
ELLIPSE
  5
9A
330
75
100
AcDbEntity
  8
36176000_WANDV.Z
  6
Continuous
 62
     7
100
AcDbEllipse
 10
36.85
 20
313.55
 30
0.0
 11
14.84999999999978
 21
-6.938893903907229E-15
 31
0.0
210
0.0
220
0.0
230
1.0
 40
0.3420201433
 41
5.630758515747625
 42
6.283185307179586
  0
ELLIPSE
  5
9B
330
75
100
AcDbEntity
  8
36176000_WANDV.Z
  6
Continuous
 62
     7
100
AcDbEllipse
 10
36.85
 20
313.55
 30
0.0
 11
14.84999999999978
 21
-6.938893903907229E-15
 31
0.0
210
0.0
220
0.0
230
1.0
 40
0.3420201433
 41
0.0000000000000014
 42
3.794019445021759
  0
SPLINE
  5
9C
330
75
100
AcDbEntity
  8
36176000_WANDV.Z
  6
Continuous
 62
     7
100
AcDbSpline
210
0.0
220
0.0
230
1.0
 70
     8
 71
     3
 72
    27
 73
    23
 74
     0
 42
0.0000000006261014
 43
0.0000000001
 40
0.344269221508182
 40
0.344269221508182
 40
0.344269221508182
 40
0.344269221508182
 40
0.3490174447544243
 40
0.3884412772765584
 40
0.4244842664229707
 40
0.454576188469568
 40
0.4785410089418021
 40
0.4970444168947761
 40
0.5114327093561717
 40
0.5242651121273366
 40
0.5393135646556886
 40
0.5674403745505774
 40
0.602642017287695
 40
0.6407064274475247
 40
0.6784025695156225
 40
0.7153626505860751
 40
0.7512590437663111
 40
0.7884915210612388
 40
0.8339170911422489
 40
0.886018550465348
 40
0.9424285926051825
 40
1.0
 40
1.0
 40
1.0
 40
1.0
 10
20.21492959961332
 20
342.3682112542129
 30
0.0
 10
20.21471996104865
 20
342.3681230593266
 30
0.0
 10
20.21305690542309
 20
342.3665570864648
 30
0.0
 10
20.21489280527007
 20
342.3510484376403
 30
0.0
 10
20.22728481078724
 20
342.3043407183079
 30
0.0
 10
20.25721627206047
 20
342.2094273234614
 30
0.0
 10
20.30097141095976
 20
342.0743343623765
 30
0.0
 10
20.35605270138969
 20
341.9037267816086
 30
0.0
 10
20.42470079897982
 20
341.6873206467848
 30
0.0
 10
20.50890431100908
 20
341.4134245611693
 30
0.0
 10
20.61376155284617
 20
341.0600635988958
 30
0.0
 10
20.75411367900877
 20
340.5629400187772
 30
0.0
 10
20.9229636514262
 20
339.9195509068318
 30
0.0
 10
21.09451506950829
 20
339.2084563587003
 30
0.0
 10
21.25511108728027
 20
338.4794780056315
 30
0.0
 10
21.39937906867976
 20
337.7592731086648
 30
0.0
 10
21.53009307594173
 20
337.0367499040534
 30
0.0
 10
21.65599847554618
 20
336.2569108385348
 30
0.0
 10
21.77975319015622
 20
335.3674773829826
 30
0.0
 10
21.89191391831167
 20
334.3523551359017
 30
0.0
 10
21.97933021232427
 20
333.2231368247217
 30
0.0
 10
21.9921626024167
 20
332.5145897357125
 30
0.0
 10
21.99879407677867
 20
332.0897816353687
 30
0.0
  0
LINE
  5
9D
330
75
100
AcDbEntity
  8
36176000_WANDV.Z
  6
Continuous
 62
     7
100
AcDbLine
 10
20.817182826
 20
341.1493068841
 30
0.0
 11
20.8090191094
 21
341.1650688508
 31
0.0
  0
LINE
  5
9E
330
75
100
AcDbEntity
  8
36176000_WANDV.Z
  6
Continuous
 62
     7
100
AcDbLine
 10
21.7356924536
 20
339.5949441393
 30
0.0
 11
21.6960938837
 21
339.652890197
 31
0.0
  0
SPLINE
  5
9F
330
75
100
AcDbEntity
  8
36176000_WANDV.Z
  6
Continuous
 62
     7
100
AcDbSpline
210
0.0
220
0.0
230
1.0
 70
     8
 71
     3
 72
    43
 73
    39
 74
     0
 42
0.000000000549602
 43
0.0000000001
 40
0.0
 40
0.0
 40
0.0
 40
0.0
 40
0.0358754699781171
 40
0.0713929640285256
 40
0.1049938713920263
 40
0.135428456764347
 40
0.1618018197107008
 40
0.1838653136702248
 40
0.2349434044166313
 40
0.2870209457819843
 40
0.3048822164129763
 40
0.3195223605017569
 40
0.3310923145028936
 40
0.3378480401733419
 40
0.343942373321886
 40
0.3507903743289871
 40
0.3590398587635811
 40
0.3691106719863391
 40
0.3812611402281805
 40
0.4036946852645648
 40
0.4313336756708047
 40
0.4637982780735934
 40
0.4980664328599104
 40
0.5441429495372797
 40
0.5894806369518999
 40
0.6331531305800973
 40
0.6747573475045764
 40
0.7140531401502779
 40
0.7511490148866019
 40
0.7865735660487081
 40
0.8208473923294629
 40
0.8544246697528308
 40
0.8854970384953177
 40
0.9125589153684811
 40
0.9361043572377163
 40
0.962542897821841
 40
0.983737488899143
 40
1.0
 40
1.0
 40
1.0
 40
1.0
 10
51.69647165706304
 20
332.0857078675693
 30
0.0
 10
51.70175214786462
 20
332.458166226017
 30
0.0
 10
51.7120430403121
 20
333.0826210112797
 30
0.0
 10
51.78252962226506
 20
334.0870673568135
 30
0.0
 10
51.87593958880822
 20
335.0100635245796
 30
0.0
 10
51.98355753187951
 20
335.8476795670617
 30
0.0
 10
52.0925784295338
 20
336.5722757887279
 30
0.0
 10
52.24562182303955
 20
337.4809925086406
 30
0.0
 10
52.46803121647345
 20
338.6224434178423
 30
0.0
 10
52.72546319095514
 20
339.7250578216683
 30
0.0
 10
52.92708168097456
 20
340.4924355138282
 30
0.0
 10
53.03748991501873
 20
340.8906839320031
 30
0.0
 10
53.12313686620109
 20
341.1865384803132
 30
0.0
 10
53.18907721164756
 20
341.4074416676299
 30
0.0
 10
53.24147375993365
 20
341.5790259666109
 30
0.0
 10
53.28628403756854
 20
341.7229085403903
 30
0.0
 10
53.32605703976145
 20
341.8489034733546
 30
0.0
 10
53.36085029924143
 20
341.9583463494664
 30
0.0
 10
53.39667632473222
 20
342.0714032541187
 30
0.0
 10
53.42497819944979
 20
342.1638263315869
 30
0.0
 10
53.43765905387045
 20
342.215681048594
 30
0.0
 10
53.42595416385154
 20
342.2045872444411
 30
0.0
 10
53.3928861922541
 20
342.1457520615381
 30
0.0
 10
53.32735810129308
 20
342.0127377339832
 30
0.0
 10
53.21754799752852
 20
341.7854572355718
 30
0.0
 10
53.06752349768423
 20
341.4836429545858
 30
0.0
 10
52.87503761394391
 20
341.111513738802
 30
0.0
 10
52.63752937054572
 20
340.6771857197486
 30
0.0
 10
52.35170449637977
 20
340.1881282620819
 30
0.0
 10
52.01698796856589
 20
339.6554184581352
 30
0.0
 10
51.63230924877351
 20
339.0891201173698
 30
0.0
 10
51.20410007650593
 20
338.5083645981694
 30
0.0
 10
50.76014515180284
 20
337.9554258037295
 30
0.0
 10
50.33261926583304
 20
337.4630061089284
 30
0.0
 10
49.90357212016744
 20
337.0020756761917
 30
0.0
 10
49.49116907930192
 20
336.5883831581904
 30
0.0
 10
49.09601107750564
 20
336.2174940689171
 30
0.0
 10
48.88625433482017
 20
336.0314678961878
 30
0.0
 10
48.77837492724902
 20
335.9361619761243
 30
0.0
  0
LINE
  5
A0
330
75
100
AcDbEntity
  8
36176000_WANDV.Z
  6
Continuous
 62
     7
100
AcDbLine
 10
22.0
 20
332.0875533227
 30
0.0
 11
22.0
 21
313.55
 31
0.0
  0
LINE
  5
A1
330
75
100
AcDbEntity
  8
36176000_WANDV.Z
  6
Continuous
 62
     7
100
AcDbLine
 10
51.7
 20
313.55
 30
0.0
 11
51.7
 21
332.0895647791
 31
0.0
  0
ENDBLK
  5
A3
330
75
100
AcDbEntity
  8
0
100
AcDbBlockEnd
  0
BLOCK
  5
DC
330
A4
100
AcDbEntity
  8
0
100
AcDbBlockBegin
  2
SE1
 70
     0
 10
0.0
 20
0.0
 30
0.0
  3
SE1
  1

  0
LINE
  5
A6
330
A4
100
AcDbEntity
  8
36176000_WANDV.Z
  6
Continuous
 62
     7
100
AcDbLine
 10
6.35
 20
272.7545773825
 30
0.0
 11
67.35
 21
272.7545773825
 31
0.0
  0
LINE
  5
A7
330
A4
100
AcDbEntity
  8
36176000_WANDV.Z
  6
Continuous
 62
     7
100
AcDbLine
 10
10.3267633115
 20
265.1453680075
 30
0.0
 11
63.3732366885
 21
265.1453680075
 31
0.0
  0
LINE
  5
A8
330
A4
100
AcDbEntity
  8
36176000_WANDV.Z
  6
Continuous
 62
     7
100
AcDbLine
 10
15.1198424563
 20
262.7545773825
 30
0.0
 11
58.5801575437
 21
262.7545773825
 31
0.0
  0
LINE
  5
A9
330
A4
100
AcDbEntity
  8
36176000_WANDV.Z
  6
Continuous
 62
     7
100
AcDbLine
 10
19.6
 20
123.0556772525
 30
0.0
 11
54.1
 21
123.0556772525
 31
0.0
  0
LINE
  5
AA
330
A4
100
AcDbEntity
  8
36176000_WANDV.Z
  6
Continuous
 62
     7
100
AcDbLine
 10
19.6
 20
135.2545773825
 30
0.0
 11
54.1
 21
135.2545773825
 31
0.0
  0
LINE
  5
AB
330
A4
100
AcDbEntity
  8
36176000_WANDV.Z
  6
Continuous
 62
     7
100
AcDbLine
 10
6.35
 20
272.7545773825
 30
0.0
 11
10.3267633115
 21
265.1453680075
 31
0.0
  0
LINE
  5
AC
330
A4
100
AcDbEntity
  8
36176000_WANDV.Z
  6
Continuous
 62
     7
100
AcDbLine
 10
63.3732366885
 20
265.1453680075
 30
0.0
 11
67.35
 21
272.7545773825
 31
0.0
  0
ARC
  5
AD
330
A4
100
AcDbEntity
  8
36176000_WANDV.Z
  6
Continuous
 62
     7
100
AcDbCircle
 10
15.1198424563
 20
268.7545773825
 30
0.0
 40
5.999999999999994
100
AcDbArc
 50
216.9799057351
 51
270.0
  0
ARC
  5
AE
330
A4
100
AcDbEntity
  8
36176000_WANDV.Z
  6
Continuous
 62
     7
100
AcDbCircle
 10
58.5801575437
 20
268.7545773825
 30
0.0
 40
6.0
100
AcDbArc
 50
270.0
 51
323.0200942649
  0
LINE
  5
AF
330
A4
100
AcDbEntity
  8
36176000_WANDV.Z
  6
Continuous
 62
     7
100
AcDbLine
 10
19.6
 20
123.0556772525
 30
0.0
 11
36.85
 21
122.7545773825
 31
0.0
  0
LINE
  5
B0
330
A4
100
AcDbEntity
  8
36176000_WANDV.Z
  6
Continuous
 62
     7
100
AcDbLine
 10
36.85
 20
122.7545773825
 30
0.0
 11
54.1
 21
123.0556772525
 31
0.0
  0
LINE
  5
B1
330
A4
100
AcDbEntity
  8
36176000_WANDV.Z
  6
Continuous
 62
     7
100
AcDbLine
 10
54.1
 20
123.0556772525
 30
0.0
 11
54.1
 21
135.2545773825
 31
0.0
  0
LINE
  5
B2
330
A4
100
AcDbEntity
  8
36176000_WANDV.Z
  6
Continuous
 62
     7
100
AcDbLine
 10
19.6
 20
135.2545773825
 30
0.0
 11
19.6
 21
123.0556772525
 31
0.0
  0
LINE
  5
B3
330
A4
100
AcDbEntity
  8
36176000_WANDV.Z
  6
Continuous
 62
     7
100
AcDbLine
 10
19.5
 20
144.2545773825
 30
0.0
 11
54.2
 21
144.2545773825
 31
0.0
  0
LINE
  5
B4
330
A4
100
AcDbEntity
  8
36176000_WANDV.Z
  6
Continuous
 62
     7
100
AcDbLine
 10
23.05
 20
142.2545773825
 30
0.0
 11
50.65
 21
142.2545773825
 31
0.0
  0
LINE
  5
B5
330
A4
100
AcDbEntity
  8
36176000_WANDV.Z
  6
Continuous
 62
     7
100
AcDbLine
 10
38.0665672542
 20
141.3545773825
 30
0.0
 11
35.6334327458
 21
141.3545773825
 31
0.0
  0
ARC
  5
B6
330
A4
100
AcDbEntity
  8
36176000_WANDV.Z
  6
Continuous
 62
     7
100
AcDbCircle
 10
42.2075680531
 20
129.414111428
 30
0.0
 40
12.6381412726628
100
AcDbArc
 50
70.8732519109
 51
109.1267480891
  0
LINE
  5
B7
330
A4
100
AcDbEntity
  8
36176000_WANDV.Z
  6
Continuous
 62
     7
100
AcDbLine
 10
48.0690547624
 20
141.3545773825
 30
0.0
 11
46.3485688521
 21
141.3545773825
 31
0.0
  0
SPLINE
  5
B8
330
A4
100
AcDbEntity
  8
36176000_WANDV.Z
  6
Continuous
 62
     7
100
AcDbSpline
210
0.0
220
0.0
230
1.0
 70
     8
 71
     3
 72
    14
 73
    10
 74
     0
 42
0.0000000026187769
 43
0.0000000001
 40
0.0
 40
0.0
 40
0.0
 40
0.0
 40
0.2500000000000008
 40
0.2500000000000008
 40
0.3750000000000006
 40
0.3750000000000006
 40
0.5000000000000004
 40
0.5000000000000004
 40
1.0
 40
1.0
 40
1.0
 40
1.0
 10
48.06905476243704
 20
141.3545773824718
 30
0.0
 10
48.34866051660104
 20
141.5773588589004
 30
0.0
 10
48.63120591743456
 20
141.753004559794
 30
0.0
 10
49.06028400622576
 20
141.9321318212046
 30
0.0
 10
49.20418597658231
 20
141.9777956329523
 30
0.0
 10
49.49386265098599
 20
142.0390949010701
 30
0.0
 10
49.6401200464904
 20
142.0547128056979
 30
0.0
 10
50.37065140753135
 20
142.0540312278469
 30
0.0
 10
50.94058122438731
 20
141.7999645799546
 30
0.0
 10
51.49957214788567
 20
141.3545773824718
 30
0.0
  0
LINE
  5
B9
330
A4
100
AcDbEntity
  8
36176000_WANDV.Z
  6
Continuous
 62
     7
100
AcDbLine
 10
51.4995721479
 20
141.3545773825
 30
0.0
 11
51.55
 21
141.3545773825
 31
0.0
  0
LINE
  5
BA
330
A4
100
AcDbEntity
  8
36176000_WANDV.Z
  6
Continuous
 62
     7
100
AcDbLine
 10
22.15
 20
141.3545773825
 30
0.0
 11
22.2004278521
 21
141.3545773825
 31
0.0
  0
SPLINE
  5
BB
330
A4
100
AcDbEntity
  8
36176000_WANDV.Z
  6
Continuous
 62
     7
100
AcDbSpline
210
0.0
220
0.0
230
1.0
 70
     8
 71
     3
 72
    14
 73
    10
 74
     0
 42
0.0000000026187769
 43
0.0000000001
 40
0.0
 40
0.0
 40
0.0
 40
0.0
 40
0.2500000000000008
 40
0.2500000000000008
 40
0.3750000000000007
 40
0.3750000000000007
 40
0.5000000000000006
 40
0.5000000000000006
 40
1.0
 40
1.0
 40
1.0
 40
1.0
 10
22.20042785211434
 20
141.3545773824718
 30
0.0
 10
22.48003360627833
 20
141.5773588589004
 30
0.0
 10
22.76257900711186
 20
141.7530045597941
 30
0.0
 10
23.19165709590307
 20
141.9321318212046
 30
0.0
 10
23.33555906625961
 20
141.9777956329523
 30
0.0
 10
23.62523574066329
 20
142.0390949010701
 30
0.0
 10
23.7714931361677
 20
142.0547128056978
 30
0.0
 10
24.50202449720867
 20
142.054031227847
 30
0.0
 10
25.07195431406462
 20
141.7999645799546
 30
0.0
 10
25.63094523756298
 20
141.3545773824718
 30
0.0
  0
LINE
  5
BC
330
A4
100
AcDbEntity
  8
36176000_WANDV.Z
  6
Continuous
 62
     7
100
AcDbLine
 10
27.3514311479
 20
141.3545773825
 30
0.0
 11
25.6309452376
 21
141.3545773825
 31
0.0
  0
ARC
  5
BD
330
A4
100
AcDbEntity
  8
36176000_WANDV.Z
  6
Continuous
 62
     7
100
AcDbCircle
 10
31.4924319469
 20
129.414111428
 30
0.0
 40
12.6381412726632
100
AcDbArc
 50
70.8732519109
 51
109.1267480891
  0
LINE
  5
BE
330
A4
100
AcDbEntity
  8
36176000_WANDV.Z
  6
Continuous
 62
     7
100
AcDbLine
 10
25.6309452376
 20
141.3545773825
 30
0.0
 11
25.6309452376
 21
136.1545773825
 31
0.0
  0
LINE
  5
BF
330
A4
100
AcDbEntity
  8
36176000_WANDV.Z
  6
Continuous
 62
     7
100
AcDbLine
 10
27.3514311479
 20
136.1545773825
 30
0.0
 11
25.6309452376
 21
136.1545773825
 31
0.0
  0
LINE
  5
C0
330
A4
100
AcDbEntity
  8
36176000_WANDV.Z
  6
Continuous
 62
     7
100
AcDbLine
 10
27.3514311479
 20
136.1545773825
 30
0.0
 11
27.3514311479
 21
141.3545773825
 31
0.0
  0
LINE
  5
C1
330
A4
100
AcDbEntity
  8
36176000_WANDV.Z
  6
Continuous
 62
     7
100
AcDbLine
 10
48.0690547624
 20
136.1545773825
 30
0.0
 11
46.3485688521
 21
136.1545773825
 31
0.0
  0
ARC
  5
C2
330
A4
100
AcDbEntity
  8
36176000_WANDV.Z
  6
Continuous
 62
     7
100
AcDbCircle
 10
42.2075680531
 20
148.095043337
 30
0.0
 40
12.63814127266342
100
AcDbArc
 50
250.8732519109
 51
289.1267480891
  0
LINE
  5
C3
330
A4
100
AcDbEntity
  8
36176000_WANDV.Z
  6
Continuous
 62
     7
100
AcDbLine
 10
38.0665672542
 20
136.1545773825
 30
0.0
 11
35.6334327458
 21
136.1545773825
 31
0.0
  0
ARC
  5
C4
330
A4
100
AcDbEntity
  8
36176000_WANDV.Z
  6
Continuous
 62
     7
100
AcDbCircle
 10
31.4924319469
 20
148.095043337
 30
0.0
 40
12.63814127266274
100
AcDbArc
 50
250.8732519109
 51
289.1267480891
  0
SPLINE
  5
C5
330
A4
100
AcDbEntity
  8
36176000_WANDV.Z
  6
Continuous
 62
     7
100
AcDbSpline
210
0.0
220
0.0
230
1.0
 70
     8
 71
     3
 72
    14
 73
    10
 74
     0
 42
0.0000000026187769
 43
0.0000000001
 40
0.0
 40
0.0
 40
0.0
 40
0.0
 40
0.2500000000000008
 40
0.2500000000000008
 40
0.3750000000000005
 40
0.3750000000000005
 40
0.5000000000000002
 40
0.5000000000000002
 40
1.0
 40
1.0
 40
1.0
 40
1.0
 10
25.63094523756298
 20
136.1545773824718
 30
0.0
 10
25.35133948339897
 20
135.9317959060432
 30
0.0
 10
25.06879408256545
 20
135.7561502051495
 30
0.0
 10
24.63971599377424
 20
135.577022943739
 30
0.0
 10
24.4958140234177
 20
135.5313591319913
 30
0.0
 10
24.20613734901402
 20
135.4700598638734
 30
0.0
 10
24.0598799535096
 20
135.4544419592457
 30
0.0
 10
23.32934859246864
 20
135.4551235370966
 30
0.0
 10
22.7594187756127
 20
135.709190184989
 30
0.0
 10
22.20042785211434
 20
136.1545773824718
 30
0.0
  0
LINE
  5
C6
330
A4
100
AcDbEntity
  8
36176000_WANDV.Z
  6
Continuous
 62
     7
100
AcDbLine
 10
22.15
 20
136.1545773825
 30
0.0
 11
22.2004278521
 21
136.1545773825
 31
0.0
  0
LINE
  5
C7
330
A4
100
AcDbEntity
  8
36176000_WANDV.Z
  6
Continuous
 62
     7
100
AcDbLine
 10
51.4995721479
 20
136.1545773825
 30
0.0
 11
51.55
 21
136.1545773825
 31
0.0
  0
SPLINE
  5
C8
330
A4
100
AcDbEntity
  8
36176000_WANDV.Z
  6
Continuous
 62
     7
100
AcDbSpline
210
0.0
220
0.0
230
1.0
 70
     8
 71
     3
 72
    14
 73
    10
 74
     0
 42
0.0000000026187769
 43
0.0000000001
 40
0.0
 40
0.0
 40
0.0
 40
0.0
 40
0.2500000000000013
 40
0.2500000000000013
 40
0.3750000000000011
 40
0.3750000000000011
 40
0.500000000000001
 40
0.500000000000001
 40
1.0
 40
1.0
 40
1.0
 40
1.0
 10
51.49957214788567
 20
136.1545773824718
 30
0.0
 10
51.21996639372167
 20
135.9317959060431
 30
0.0
 10
50.93742099288814
 20
135.7561502051495
 30
0.0
 10
50.50834290409693
 20
135.577022943739
 30
0.0
 10
50.3644409337404
 20
135.5313591319913
 30
0.0
 10
50.07476425933672
 20
135.4700598638734
 30
0.0
 10
49.92850686383231
 20
135.4544419592457
 30
0.0
 10
49.19797550279134
 20
135.4551235370966
 30
0.0
 10
48.6280456859354
 20
135.709190184989
 30
0.0
 10
48.06905476243704
 20
136.1545773824718
 30
0.0
  0
LINE
  5
C9
330
A4
100
AcDbEntity
  8
36176000_WANDV.Z
  6
Continuous
 62
     7
100
AcDbLine
 10
22.2004278521
 20
136.1545773825
 30
0.0
 11
22.2004278521
 21
141.3545773825
 31
0.0
  0
LINE
  5
CA
330
A4
100
AcDbEntity
  8
36176000_WANDV.Z
  6
Continuous
 62
     7
100
AcDbLine
 10
51.4995721479
 20
141.3545773825
 30
0.0
 11
51.4995721479
 21
136.1545773825
 31
0.0
  0
LINE
  5
CB
330
A4
100
AcDbEntity
  8
36176000_WANDV.Z
  6
Continuous
 62
     7
100
AcDbLine
 10
46.3485688521
 20
141.3545773825
 30
0.0
 11
46.3485688521
 21
136.1545773825
 31
0.0
  0
LINE
  5
CC
330
A4
100
AcDbEntity
  8
36176000_WANDV.Z
  6
Continuous
 62
     7
100
AcDbLine
 10
48.0690547624
 20
136.1545773825
 30
0.0
 11
48.0690547624
 21
141.3545773825
 31
0.0
  0
LINE
  5
CD
330
A4
100
AcDbEntity
  8
36176000_WANDV.Z
  6
Continuous
 62
     7
100
AcDbLine
 10
38.0665672542
 20
136.1545773825
 30
0.0
 11
38.0665672542
 21
141.3545773825
 31
0.0
  0
LINE
  5
CE
330
A4
100
AcDbEntity
  8
36176000_WANDV.Z
  6
Continuous
 62
     7
100
AcDbLine
 10
35.6334327458
 20
141.3545773825
 30
0.0
 11
35.6334327458
 21
136.1545773825
 31
0.0
  0
LINE
  5
CF
330
A4
100
AcDbEntity
  8
36176000_WANDV.Z
  6
Continuous
 62
     7
100
AcDbLine
 10
54.2
 20
144.2545773825
 30
0.0
 11
54.2
 21
146.2545773825
 31
0.0
  0
LINE
  5
D0
330
A4
100
AcDbEntity
  8
36176000_WANDV.Z
  6
Continuous
 62
     7
100
AcDbLine
 10
19.5
 20
146.2545773825
 30
0.0
 11
19.5
 21
144.2545773825
 31
0.0
  0
LINE
  5
D1
330
A4
100
AcDbEntity
  8
36176000_WANDV.Z
  6
Continuous
 62
     7
100
AcDbLine
 10
50.65
 20
142.2545773825
 30
0.0
 11
50.65
 21
144.2545773825
 31
0.0
  0
LINE
  5
D2
330
A4
100
AcDbEntity
  8
36176000_WANDV.Z
  6
Continuous
 62
     7
100
AcDbLine
 10
23.05
 20
144.2545773825
 30
0.0
 11
23.05
 21
142.2545773825
 31
0.0
  0
LINE
  5
D3
330
A4
100
AcDbEntity
  8
36176000_WANDV.Z
  6
Continuous
 62
     7
100
AcDbLine
 10
51.55
 20
141.3545773825
 30
0.0
 11
50.65
 21
142.2545773825
 31
0.0
  0
LINE
  5
D4
330
A4
100
AcDbEntity
  8
36176000_WANDV.Z
  6
Continuous
 62
     7
100
AcDbLine
 10
23.05
 20
142.2545773825
 30
0.0
 11
22.15
 21
141.3545773825
 31
0.0
  0
LINE
  5
D5
330
A4
100
AcDbEntity
  8
36176000_WANDV.Z
  6
Continuous
 62
     7
100
AcDbLine
 10
22.15
 20
136.1545773825
 30
0.0
 11
23.05
 21
135.2545773825
 31
0.0
  0
LINE
  5
D6
330
A4
100
AcDbEntity
  8
36176000_WANDV.Z
  6
Continuous
 62
     7
100
AcDbLine
 10
50.65
 20
135.2545773825
 30
0.0
 11
51.55
 21
136.1545773825
 31
0.0
  0
LINE
  5
D7
330
A4
100
AcDbEntity
  8
36176000_WANDV.Z
  6
Continuous
 62
     7
100
AcDbLine
 10
22.15
 20
141.3545773825
 30
0.0
 11
22.15
 21
136.1545773825
 31
0.0
  0
LINE
  5
D8
330
A4
100
AcDbEntity
  8
36176000_WANDV.Z
  6
Continuous
 62
     7
100
AcDbLine
 10
51.55
 20
136.1545773825
 30
0.0
 11
51.55
 21
141.3545773825
 31
0.0
  0
LINE
  5
D9
330
A4
100
AcDbEntity
  8
36176000_WANDV.Z
  6
Continuous
 62
     7
100
AcDbLine
 10
54.95
 20
146.2545773825
 30
0.0
 11
18.75
 21
146.2545773825
 31
0.0
  0
LINE
  5
DA
330
A4
100
AcDbEntity
  8
36176000_WANDV.Z
  6
Continuous
 62
     7
100
AcDbLine
 10
18.75
 20
262.7545773825
 30
0.0
 11
18.75
 21
146.2545773825
 31
0.0
  0
LINE
  5
DB
330
A4
100
AcDbEntity
  8
36176000_WANDV.Z
  6
Continuous
 62
     7
100
AcDbLine
 10
54.95
 20
146.2545773825
 30
0.0
 11
54.95
 21
262.7545773825
 31
0.0
  0
ENDBLK
  5
DD
330
A4
100
AcDbEntity
  8
0
100
AcDbBlockEnd
  0
BLOCK
  5
131
330
DE
100
AcDbEntity
  8
0
100
AcDbBlockBegin
  2
SE2
 70
     0
 10
0.0
 20
0.0
 30
0.0
  3
SE2
  1

  0
LINE
  5
E0
330
DE
100
AcDbEntity
  8
36176000_WANDV.Z
  6
Continuous
 62
     7
100
AcDbLine
 10
108.5627108774
 20
319.05
 30
0.0
 11
108.5627108774
 21
380.05
 31
0.0
  0
LINE
  5
E1
330
DE
100
AcDbEntity
  8
36176000_WANDV.Z
  6
Continuous
 62
     7
100
AcDbLine
 10
116.1719202523
 20
323.0267633115
 30
0.0
 11
116.1719202523
 21
376.0732366885
 31
0.0
  0
LINE
  5
E2
330
DE
100
AcDbEntity
  8
36176000_WANDV.Z
  6
Continuous
 62
     7
100
AcDbLine
 10
118.5627108774
 20
327.8198424563
 30
0.0
 11
118.5627108774
 21
371.2801575437
 31
0.0
  0
LINE
  5
E3
330
DE
100
AcDbEntity
  8
36176000_WANDV.Z
  6
Continuous
 62
     7
100
AcDbLine
 10
258.2616110074
 20
366.8
 30
0.0
 11
258.2616110074
 21
332.3
 31
0.0
  0
LINE
  5
E4
330
DE
100
AcDbEntity
  8
36176000_WANDV.Z
  6
Continuous
 62
     7
100
AcDbLine
 10
246.0627108774
 20
366.8
 30
0.0
 11
246.0627108774
 21
332.3
 31
0.0
  0
LINE
  5
E5
330
DE
100
AcDbEntity
  8
36176000_WANDV.Z
  6
Continuous
 62
     7
100
AcDbLine
 10
108.5627108774
 20
319.05
 30
0.0
 11
116.1719202523
 21
323.0267633115
 31
0.0
  0
LINE
  5
E6
330
DE
100
AcDbEntity
  8
36176000_WANDV.Z
  6
Continuous
 62
     7
100
AcDbLine
 10
116.1719202523
 20
376.0732366885
 30
0.0
 11
108.5627108774
 21
380.05
 31
0.0
  0
ARC
  5
E7
330
DE
100
AcDbEntity
  8
36176000_WANDV.Z
  6
Continuous
 62
     7
100
AcDbCircle
 10
112.5627108774
 20
327.8198424563
 30
0.0
 40
5.999999999999994
100
AcDbArc
 50
306.9799057351
 51
0.0
  0
ARC
  5
E8
330
DE
100
AcDbEntity
  8
36176000_WANDV.Z
  6
Continuous
 62
     7
100
AcDbCircle
 10
112.5627108774
 20
371.2801575437
 30
0.0
 40
6.0
100
AcDbArc
 50
0.0
 51
53.0200942649
  0
LINE
  5
E9
330
DE
100
AcDbEntity
  8
36176000_WANDV.Z
  6
Continuous
 62
     7
100
AcDbLine
 10
258.2616110074
 20
332.3
 30
0.0
 11
258.5627108774
 21
349.55
 31
0.0
  0
LINE
  5
EA
330
DE
100
AcDbEntity
  8
36176000_WANDV.Z
  6
Continuous
 62
     7
100
AcDbLine
 10
258.5627108774
 20
349.55
 30
0.0
 11
258.2616110074
 21
366.8
 31
0.0
  0
LINE
  5
EB
330
DE
100
AcDbEntity
  8
36176000_WANDV.Z
  6
Continuous
 62
     7
100
AcDbLine
 10
258.2616110074
 20
366.8
 30
0.0
 11
246.0627108774
 21
366.8
 31
0.0
  0
LINE
  5
EC
330
DE
100
AcDbEntity
  8
36176000_WANDV.Z
  6
Continuous
 62
     7
100
AcDbLine
 10
246.0627108774
 20
332.3
 30
0.0
 11
258.2616110074
 21
332.3
 31
0.0
  0
LINE
  5
ED
330
DE
100
AcDbEntity
  8
36176000_WANDV.Z
  6
Continuous
 62
     7
100
AcDbLine
 10
235.0627108774
 20
332.3694257228
 30
0.0
 11
235.0627108774
 21
332.2
 31
0.0
  0
LINE
  5
EE
330
DE
100
AcDbEntity
  8
36176000_WANDV.Z
  6
Continuous
 62
     7
100
AcDbLine
 10
237.0627108774
 20
366.9
 30
0.0
 11
237.0627108774
 21
332.2
 31
0.0
  0
LINE
  5
EF
330
DE
100
AcDbEntity
  8
36176000_WANDV.Z
  6
Continuous
 62
     7
100
AcDbLine
 10
239.0627108774
 20
363.35
 30
0.0
 11
239.0627108774
 21
335.75
 31
0.0
  0
LINE
  5
F0
330
DE
100
AcDbEntity
  8
36176000_WANDV.Z
  6
Continuous
 62
     7
100
AcDbLine
 10
239.9627108774
 20
364.1995721479
 30
0.0
 11
239.9627108774
 21
364.25
 31
0.0
  0
LINE
  5
F1
330
DE
100
AcDbEntity
  8
36176000_WANDV.Z
  6
Continuous
 62
     7
100
AcDbLine
 10
239.9627108774
 20
334.85
 30
0.0
 11
239.9627108774
 21
334.9004278521
 31
0.0
  0
SPLINE
  5
F2
330
DE
100
AcDbEntity
  8
36176000_WANDV.Z
  6
Continuous
 62
     7
100
AcDbSpline
210
0.0
220
0.0
230
1.0
 70
     8
 71
     3
 72
    14
 73
    10
 74
     0
 42
0.0000000026187769
 43
0.0000000001
 40
0.0
 40
0.0
 40
0.0
 40
0.0
 40
0.2500000000000007
 40
0.2500000000000007
 40
0.3750000000000004
 40
0.3750000000000004
 40
0.5000000000000001
 40
0.5000000000000001
 40
1.0
 40
1.0
 40
1.0
 40
1.0
 10
239.9627108774099
 20
334.9004278521152
 30
0.0
 10
239.7399294009822
 20
335.1800336062786
 30
0.0
 10
239.5642837000894
 20
335.4625790071115
 30
0.0
 10
239.3851564386798
 20
335.8916570959017
 30
0.0
 10
239.3394926269322
 20
336.0355590662579
 30
0.0
 10
239.2781933588147
 20
336.3252357406609
 30
0.0
 10
239.262575454187
 20
336.471493136165
 30
0.0
 10
239.2632570320379
 20
337.2020244972043
 30
0.0
 10
239.517323679929
 20
337.771954314059
 30
0.0
 10
239.9627108774099
 20
338.3309452375562
 30
0.0
  0
LINE
  5
F3
330
DE
100
AcDbEntity
  8
36176000_WANDV.Z
  6
Continuous
 62
     7
100
AcDbLine
 10
239.9627108774
 20
340.0514311479
 30
0.0
 11
239.9627108774
 21
338.3309452376
 31
0.0
  0
ARC
  5
F4
330
DE
100
AcDbEntity
  8
36176000_WANDV.Z
  6
Continuous
 62
     7
100
AcDbCircle
 10
251.9031768319
 20
344.1924319469
 30
0.0
 40
12.63814127266312
100
AcDbArc
 50
160.873251911
 51
199.126748089
  0
LINE
  5
F5
330
DE
100
AcDbEntity
  8
36176000_WANDV.Z
  6
Continuous
 62
     7
100
AcDbLine
 10
239.9627108774
 20
350.7665672542
 30
0.0
 11
239.9627108774
 21
348.3334327458
 31
0.0
  0
ARC
  5
F6
330
DE
100
AcDbEntity
  8
36176000_WANDV.Z
  6
Continuous
 62
     7
100
AcDbCircle
 10
251.9031768319
 20
354.9075680531
 30
0.0
 40
12.63814127266329
100
AcDbArc
 50
160.8732519109
 51
199.1267480891
  0
LINE
  5
F7
330
DE
100
AcDbEntity
  8
36176000_WANDV.Z
  6
Continuous
 62
     7
100
AcDbLine
 10
239.9627108774
 20
360.7690547624
 30
0.0
 11
239.9627108774
 21
359.0485688521
 31
0.0
  0
SPLINE
  5
F8
330
DE
100
AcDbEntity
  8
36176000_WANDV.Z
  6
Continuous
 62
     7
100
AcDbSpline
210
0.0
220
0.0
230
1.0
 70
     8
 71
     3
 72
    14
 73
    10
 74
     0
 42
0.0000000026187769
 43
0.0000000001
 40
0.0
 40
0.0
 40
0.0
 40
0.0
 40
0.2499999999999984
 40
0.2499999999999984
 40
0.3749999999999986
 40
0.3749999999999986
 40
0.4999999999999988
 40
0.4999999999999988
 40
1.0
 40
1.0
 40
1.0
 40
1.0
 10
239.9627108774099
 20
360.7690547624342
 30
0.0
 10
239.7399294009809
 20
361.0486605165985
 30
0.0
 10
239.5642837000869
 20
361.3312059174323
 30
0.0
 10
239.385156438676
 20
361.7602840062239
 30
0.0
 10
239.3394926269282
 20
361.9041859765806
 30
0.0
 10
239.2781933588102
 20
362.1938626509846
 30
0.0
 10
239.2625754541825
 20
362.3401200464891
 30
0.0
 10
239.2632570320333
 20
363.0706514075308
 30
0.0
 10
239.5173236799262
 20
363.6405812243872
 30
0.0
 10
239.9627108774099
 20
364.199572147886
 30
0.0
  0
LINE
  5
F9
330
DE
100
AcDbEntity
  8
36176000_WANDV.Z
  6
Continuous
 62
     7
100
AcDbLine
 10
239.9627108774
 20
359.0485688521
 30
0.0
 11
245.1627108774
 21
359.0485688521
 31
0.0
  0
LINE
  5
FA
330
DE
100
AcDbEntity
  8
36176000_WANDV.Z
  6
Continuous
 62
     7
100
AcDbLine
 10
245.1627108774
 20
360.7690547624
 30
0.0
 11
245.1627108774
 21
359.0485688521
 31
0.0
  0
LINE
  5
FB
330
DE
100
AcDbEntity
  8
36176000_WANDV.Z
  6
Continuous
 62
     7
100
AcDbLine
 10
245.1627108774
 20
360.7690547624
 30
0.0
 11
239.9627108774
 21
360.7690547624
 31
0.0
  0
LINE
  5
FC
330
DE
100
AcDbEntity
  8
36176000_WANDV.Z
  6
Continuous
 62
     7
100
AcDbLine
 10
245.1627108774
 20
364.1995721479
 30
0.0
 11
245.1627108774
 21
364.25
 31
0.0
  0
SPLINE
  5
FD
330
DE
100
AcDbEntity
  8
36176000_WANDV.Z
  6
Continuous
 62
     7
100
AcDbSpline
210
0.0
220
0.0
230
1.0
 70
     8
 71
     3
 72
    14
 73
    10
 74
     0
 42
0.0000000026187769
 43
0.0000000001
 40
0.0
 40
0.0
 40
0.0
 40
0.0
 40
0.2499999999999991
 40
0.2499999999999991
 40
0.3749999999999993
 40
0.3749999999999993
 40
0.4999999999999996
 40
0.4999999999999996
 40
1.0
 40
1.0
 40
1.0
 40
1.0
 10
245.1627108774099
 20
364.199572147886
 30
0.0
 10
245.385492353839
 20
363.9199663937218
 30
0.0
 10
245.5611380547329
 20
363.6374209928881
 30
0.0
 10
245.7402653161438
 20
363.2083429040964
 30
0.0
 10
245.7859291278916
 20
363.0644409337397
 30
0.0
 10
245.8472283960096
 20
362.7747642593358
 30
0.0
 10
245.8628463006373
 20
362.6285068638312
 30
0.0
 10
245.8621647227864
 20
361.8979755027896
 30
0.0
 10
245.6080980748935
 20
361.3280456859331
 30
0.0
 10
245.1627108774099
 20
360.7690547624342
 30
0.0
  0
ARC
  5
FE
330
DE
100
AcDbEntity
  8
36176000_WANDV.Z
  6
Continuous
 62
     7
100
AcDbCircle
 10
233.2222449229
 20
354.9075680531
 30
0.0
 40
12.63814127266271
100
AcDbArc
 50
340.8732519109
 51
19.1267480891
  0
LINE
  5
FF
330
DE
100
AcDbEntity
  8
36176000_WANDV.Z
  6
Continuous
 62
     7
100
AcDbLine
 10
245.1627108774
 20
350.7665672542
 30
0.0
 11
245.1627108774
 21
348.3334327458
 31
0.0
  0
ARC
  5
100
330
DE
100
AcDbEntity
  8
36176000_WANDV.Z
  6
Continuous
 62
     7
100
AcDbCircle
 10
233.2222449229
 20
344.1924319469
 30
0.0
 40
12.63814127266256
100
AcDbArc
 50
340.873251911
 51
19.126748089
  0
LINE
  5
101
330
DE
100
AcDbEntity
  8
36176000_WANDV.Z
  6
Continuous
 62
     7
100
AcDbLine
 10
245.1627108774
 20
340.0514311479
 30
0.0
 11
245.1627108774
 21
338.3309452376
 31
0.0
  0
SPLINE
  5
102
330
DE
100
AcDbEntity
  8
36176000_WANDV.Z
  6
Continuous
 62
     7
100
AcDbSpline
210
0.0
220
0.0
230
1.0
 70
     8
 71
     3
 72
    14
 73
    10
 74
     0
 42
0.0000000026187769
 43
0.0000000001
 40
0.0
 40
0.0
 40
0.0
 40
0.0
 40
0.2499999999999987
 40
0.2499999999999987
 40
0.3749999999999988
 40
0.3749999999999988
 40
0.499999999999999
 40
0.499999999999999
 40
1.0
 40
1.0
 40
1.0
 40
1.0
 10
245.1627108774099
 20
338.3309452375562
 30
0.0
 10
245.3854923538375
 20
338.0513394833928
 30
0.0
 10
245.5611380547303
 20
337.7687940825599
 30
0.0
 10
245.7402653161401
 20
337.3397159937697
 30
0.0
 10
245.7859291278876
 20
337.1958140234135
 30
0.0
 10
245.8472283960051
 20
336.9061373490105
 30
0.0
 10
245.8628463006327
 20
336.7598799535065
 30
0.0
 10
245.8621647227819
 20
336.0293485924672
 30
0.0
 10
245.6080980748908
 20
335.4594187756124
 30
0.0
 10
245.1627108774099
 20
334.9004278521152
 30
0.0
  0
LINE
  5
103
330
DE
100
AcDbEntity
  8
36176000_WANDV.Z
  6
Continuous
 62
     7
100
AcDbLine
 10
245.1627108774
 20
334.85
 30
0.0
 11
245.1627108774
 21
334.9004278521
 31
0.0
  0
LINE
  5
104
330
DE
100
AcDbEntity
  8
36176000_WANDV.Z
  6
Continuous
 62
     7
100
AcDbLine
 10
239.9627108774
 20
348.3334327458
 30
0.0
 11
245.1627108774
 21
348.3334327458
 31
0.0
  0
LINE
  5
105
330
DE
100
AcDbEntity
  8
36176000_WANDV.Z
  6
Continuous
 62
     7
100
AcDbLine
 10
245.1627108774
 20
350.7665672542
 30
0.0
 11
239.9627108774
 21
350.7665672542
 31
0.0
  0
LINE
  5
106
330
DE
100
AcDbEntity
  8
36176000_WANDV.Z
  6
Continuous
 62
     7
100
AcDbLine
 10
239.9627108774
 20
338.3309452376
 30
0.0
 11
245.1627108774
 21
338.3309452376
 31
0.0
  0
LINE
  5
107
330
DE
100
AcDbEntity
  8
36176000_WANDV.Z
  6
Continuous
 62
     7
100
AcDbLine
 10
245.1627108774
 20
340.0514311479
 30
0.0
 11
239.9627108774
 21
340.0514311479
 31
0.0
  0
LINE
  5
108
330
DE
100
AcDbEntity
  8
36176000_WANDV.Z
  6
Continuous
 62
     7
100
AcDbLine
 10
245.1627108774
 20
334.9004278521
 30
0.0
 11
239.9627108774
 21
334.9004278521
 31
0.0
  0
LINE
  5
109
330
DE
100
AcDbEntity
  8
36176000_WANDV.Z
  6
Continuous
 62
     7
100
AcDbLine
 10
239.9627108774
 20
364.1995721479
 30
0.0
 11
245.1627108774
 21
364.1995721479
 31
0.0
  0
LINE
  5
10A
330
DE
100
AcDbEntity
  8
36176000_WANDV.Z
  6
Continuous
 62
     7
100
AcDbLine
 10
237.0627108774
 20
366.9
 30
0.0
 11
235.0627108774
 21
366.9
 31
0.0
  0
LINE
  5
10B
330
DE
100
AcDbEntity
  8
36176000_WANDV.Z
  6
Continuous
 62
     7
100
AcDbLine
 10
235.0627108774
 20
332.2
 30
0.0
 11
237.0627108774
 21
332.2
 31
0.0
  0
LINE
  5
10C
330
DE
100
AcDbEntity
  8
36176000_WANDV.Z
  6
Continuous
 62
     7
100
AcDbLine
 10
239.0627108774
 20
363.35
 30
0.0
 11
237.0627108774
 21
363.35
 31
0.0
  0
LINE
  5
10D
330
DE
100
AcDbEntity
  8
36176000_WANDV.Z
  6
Continuous
 62
     7
100
AcDbLine
 10
237.0627108774
 20
335.75
 30
0.0
 11
239.0627108774
 21
335.75
 31
0.0
  0
LINE
  5
10E
330
DE
100
AcDbEntity
  8
36176000_WANDV.Z
  6
Continuous
 62
     7
100
AcDbLine
 10
239.9627108774
 20
364.25
 30
0.0
 11
239.0627108774
 21
363.35
 31
0.0
  0
LINE
  5
10F
330
DE
100
AcDbEntity
  8
36176000_WANDV.Z
  6
Continuous
 62
     7
100
AcDbLine
 10
239.0627108774
 20
335.75
 30
0.0
 11
239.9627108774
 21
334.85
 31
0.0
  0
LINE
  5
110
330
DE
100
AcDbEntity
  8
36176000_WANDV.Z
  6
Continuous
 62
     7
100
AcDbLine
 10
245.1627108774
 20
334.85
 30
0.0
 11
246.0627108774
 21
335.75
 31
0.0
  0
LINE
  5
111
330
DE
100
AcDbEntity
  8
36176000_WANDV.Z
  6
Continuous
 62
     7
100
AcDbLine
 10
246.0627108774
 20
363.35
 30
0.0
 11
245.1627108774
 21
364.25
 31
0.0
  0
LINE
  5
112
330
DE
100
AcDbEntity
  8
36176000_WANDV.Z
  6
Continuous
 62
     7
100
AcDbLine
 10
239.9627108774
 20
334.85
 30
0.0
 11
245.1627108774
 21
334.85
 31
0.0
  0
LINE
  5
113
330
DE
100
AcDbEntity
  8
36176000_WANDV.Z
  6
Continuous
 62
     7
100
AcDbLine
 10
245.1627108774
 20
364.25
 30
0.0
 11
239.9627108774
 21
364.25
 31
0.0
  0
LINE
  5
114
330
DE
100
AcDbEntity
  8
36176000_WANDV.Z
  6
Continuous
 62
     7
100
AcDbLine
 10
212.8551562072
 20
303.2954351137
 30
0.0
 11
233.0585475541
 21
310.6488681952
 31
0.0
  0
LINE
  5
115
330
DE
100
AcDbEntity
  8
36176000_WANDV.Z
  6
Continuous
 62
     7
100
AcDbLine
 10
225.2787640867
 20
308.1551804119
 30
0.0
 11
233.4667725136
 21
311.1353717572
 31
0.0
  0
SPLINE
  5
116
330
DE
100
AcDbEntity
  8
36176000_WANDV.Z
  6
Continuous
 62
     7
100
AcDbSpline
210
0.0
220
0.0
230
1.0
 70
     8
 71
     3
 72
    10
 73
     6
 74
     0
 42
0.0000000019260148
 43
0.0000000001
 40
0.0
 40
0.0
 40
0.0
 40
0.0
 40
0.5
 40
0.5
 40
1.0
 40
1.0
 40
1.0
 40
1.0
 10
225.2787640866969
 20
308.1551804119372
 30
0.0
 10
224.5074286719942
 20
307.7531670963939
 30
0.0
 10
223.7174516916027
 20
307.4025774158039
 30
0.0
 10
222.0970993395816
 20
306.8128389152484
 30
0.0
 10
221.2667245121204
 20
306.5736885941684
 30
0.0
 10
220.4177277106827
 20
306.385907863383
 30
0.0
  0
LINE
  5
117
330
DE
100
AcDbEntity
  8
36176000_WANDV.Z
  6
Continuous
 62
     7
100
AcDbLine
 10
212.2297192838
 20
303.4057165181
 30
0.0
 11
220.4177277107
 21
306.3859078634
 31
0.0
  0
LINE
  5
118
330
DE
100
AcDbEntity
  8
36176000_WANDV.Z
  6
Continuous
 62
     7
100
AcDbLine
 10
233.6404206912
 20
312.1201795103
 30
0.0
 11
226.565316424
 21
309.5450521526
 31
0.0
  0
SPLINE
  5
119
330
DE
100
AcDbEntity
  8
36176000_WANDV.Z
  6
Continuous
 62
     7
100
AcDbSpline
210
0.0
220
0.0
230
1.0
 70
     8
 71
     3
 72
    14
 73
    10
 74
     0
 42
0.0000000049320844
 43
0.0000000001
 40
0.0
 40
0.0
 40
0.0
 40
0.0
 40
0.1249999999999972
 40
0.1249999999999972
 40
0.2499999999999943
 40
0.2499999999999943
 40
0.4999999999999887
 40
0.4999999999999887
 40
1.0
 40
1.0
 40
1.0
 40
1.0
 10
226.5653164239589
 20
309.545052152633
 30
0.0
 10
226.5941915398731
 20
309.4657184236746
 30
0.0
 10
226.5927009652264
 20
309.3757401401864
 30
0.0
 10
226.550261834521
 20
309.2121818290389
 30
0.0
 10
226.5111099164308
 20
309.1351233650693
 30
0.0
 10
226.372650881624
 20
308.9239180398752
 30
0.0
 10
226.2504870781266
 20
308.8034822411476
 30
0.0
 10
225.86669312811
 20
308.4814403215257
 30
0.0
 10
225.5750039503284
 20
308.3095780546547
 30
0.0
 10
225.2787640866969
 20
308.1551804119372
 30
0.0
  0
SPLINE
  5
11A
330
DE
100
AcDbEntity
  8
36176000_WANDV.Z
  6
Continuous
 62
     7
100
AcDbSpline
210
0.0
220
0.0
230
1.0
 70
     8
 71
     3
 72
    14
 73
    10
 74
     0
 42
0.0000000049319876
 43
0.0000000001
 40
0.0
 40
0.0
 40
0.0
 40
0.0
 40
0.5000000000000099
 40
0.5000000000000099
 40
0.7500000000000149
 40
0.7500000000000149
 40
0.8750000000000074
 40
0.8750000000000074
 40
1.0
 40
1.0
 40
1.0
 40
1.0
 10
220.4177277106827
 20
306.385907863383
 30
0.0
 10
220.0901503105114
 20
306.3134544413102
 30
0.0
 10
219.7588863446843
 20
306.257869848289
 30
0.0
 10
219.2553414348391
 20
306.2579514829304
 30
0.0
 10
219.0857741575996
 20
306.2718058887071
 30
0.0
 10
218.8454456878452
 20
306.3438609567297
 30
0.0
 10
218.7654605668994
 20
306.3776453241046
 30
0.0
 10
218.6269772961865
 20
306.4759117098578
 30
0.0
 10
218.5677911353624
 20
306.5439215952229
 30
0.0
 10
218.5387791079687
 20
306.6236314853859
 30
0.0
  0
LINE
  5
11B
330
DE
100
AcDbEntity
  8
36176000_WANDV.Z
  6
Continuous
 62
     7
100
AcDbLine
 10
211.4636748407
 20
304.0485041278
 30
0.0
 11
218.538779108
 21
306.6236314854
 31
0.0
  0
LINE
  5
11C
330
DE
100
AcDbEntity
  8
36176000_WANDV.Z
  6
Continuous
 62
     7
100
AcDbLine
 10
225.9440601087
 20
311.2519398505
 30
0.0
 11
217.9175227927
 21
308.3305191832
 31
0.0
  0
LINE
  5
11D
330
DE
100
AcDbEntity
  8
36176000_WANDV.Z
  6
Continuous
 62
     7
100
AcDbLine
 10
225.9440601087
 20
311.2519398505
 30
0.0
 11
226.565316424
 21
309.5450521526
 31
0.0
  0
LINE
  5
11E
330
DE
100
AcDbEntity
  8
36176000_WANDV.Z
  6
Continuous
 62
     7
100
AcDbLine
 10
218.538779108
 20
306.6236314854
 30
0.0
 11
217.9175227927
 21
308.3305191832
 31
0.0
  0
LINE
  5
11F
330
DE
100
AcDbEntity
  8
36176000_WANDV.Z
  6
Continuous
 62
     7
100
AcDbLine
 10
212.2297192838
 20
303.4057165181
 30
0.0
 11
212.8551562072
 21
303.2954351137
 31
0.0
  0
LINE
  5
120
330
DE
100
AcDbEntity
  8
36176000_WANDV.Z
  6
Continuous
 62
     7
100
AcDbLine
 10
233.0585475541
 20
310.6488681952
 30
0.0
 11
233.4667725136
 21
311.1353717572
 31
0.0
  0
ARC
  5
121
330
DE
100
AcDbEntity
  8
36176000_WANDV.Z
  6
Continuous
 62
     7
100
AcDbCircle
 10
232.7007280705
 20
311.7781593669
 30
0.0
 40
0.9999999999999989
100
AcDbArc
 50
320.0
 51
20.0
  0
ARC
  5
122
330
DE
100
AcDbEntity
  8
36176000_WANDV.Z
  6
Continuous
 62
     7
100
AcDbCircle
 10
212.4033674615
 20
304.3905242711
 30
0.0
 40
0.9999999999999941
100
AcDbArc
 50
200.0
 51
260.0
  0
LINE
  5
123
330
DE
100
AcDbEntity
  8
36176000_WANDV.Z
  6
Continuous
 62
     7
100
AcDbLine
 10
209.4743379521
 20
309.5141623088
 30
0.0
 11
211.4636748407
 21
304.0485041278
 31
0.0
  0
LINE
  5
124
330
DE
100
AcDbEntity
  8
36176000_WANDV.Z
  6
Continuous
 62
     7
100
AcDbLine
 10
233.6404206912
 20
312.1201795103
 30
0.0
 11
231.6510838027
 21
317.5858376912
 31
0.0
  0
LINE
  5
125
330
DE
100
AcDbEntity
  8
36176000_WANDV.Z
  6
Continuous
 62
     7
100
AcDbLine
 10
235.0627108774
 20
333.2174165518
 30
0.0
 11
235.0627108774
 21
367.65
 31
0.0
  0
LINE
  5
126
330
DE
100
AcDbEntity
  8
36176000_WANDV.Z
  6
Continuous
 62
     7
100
AcDbLine
 10
235.0627108774
 20
332.4605826881
 30
0.0
 11
235.0627108774
 21
333.2213394352
 31
0.0
  0
LINE
  5
127
330
DE
100
AcDbEntity
  8
36176000_WANDV.Z
  6
Continuous
 62
     7
100
AcDbLine
 10
235.0627108774
 20
331.0956672976
 30
0.0
 11
235.0627108774
 21
332.4605826881
 31
0.0
  0
SPLINE
  5
128
330
DE
100
AcDbEntity
  8
36176000_WANDV.Z
  6
Continuous
 62
     7
100
AcDbSpline
210
0.0
220
0.0
230
1.0
 70
     8
 71
     3
 72
     8
 73
     4
 74
     0
 42
0.0000000001389641
 43
0.0000000001
 40
0.0
 40
0.0
 40
0.0
 40
0.0
 40
0.0006361950226314
 40
0.0006361950226314
 40
0.0006361950226314
 40
0.0006361950226314
 10
235.0626897514505
 20
333.2129982506277
 30
0.0
 10
235.0527042927037
 20
333.2241754098815
 30
0.0
 10
235.0426169905697
 20
333.2359384527293
 30
0.0
 10
235.0328043025431
 20
333.2476739526128
 30
0.0
  0
SPLINE
  5
129
330
DE
100
AcDbEntity
  8
36176000_WANDV.Z
  6
Continuous
 62
     7
100
AcDbSpline
210
0.0
220
0.0
230
1.0
 70
     8
 71
     3
 72
   525
 73
   521
 74
     0
 42
0.0000000001001493
 43
0.0000000001
 40
0.5128542456553276
 40
0.5128542456553276
 40
0.5128542456553276
 40
0.5128542456553276
 40
0.5136718749999403
 40
0.5136718749999403
 40
0.5156249999999415
 40
0.5156249999999415
 40
0.519531249999944
 40
0.519531249999944
 40
0.5214843749999453
 40
0.5214843749999453
 40
0.5234374999999466
 40
0.5234374999999466
 40
0.5253906249999478
 40
0.5253906249999478
 40
0.5273437499999492
 40
0.5273437499999492
 40
0.5283203124999497
 40
0.5283203124999497
 40
0.5292968749999503
 40
0.5292968749999503
 40
0.5302734374999509
 40
0.5302734374999509
 40
0.5312499999999515
 40
0.5312499999999515
 40
0.5351562499999538
 40
0.5351562499999538
 40
0.537109374999955
 40
0.537109374999955
 40
0.5390624999999561
 40
0.5390624999999561
 40
0.5410156249999574
 40
0.5410156249999574
 40
0.5429687499999585
 40
0.5429687499999585
 40
0.5468749999999608
 40
0.5468749999999608
 40
0.5507812499999631
 40
0.5507812499999631
 40
0.5517578124999638
 40
0.5517578124999638
 40
0.5527343749999644
 40
0.5527343749999644
 40
0.5532226562499646
 40
0.5532226562499646
 40
0.5537109374999648
 40
0.554199218749965
 40
0.554199218749965
 40
0.5546874999999654
 40
0.5546874999999654
 40
0.5566406249999664
 40
0.5566406249999664
 40
0.5585937499999675
 40
0.5585937499999675
 40
0.5605468749999685
 40
0.5605468749999685
 40
0.5624999999999696
 40
0.5624999999999696
 40
0.5644531249999706
 40
0.5644531249999706
 40
0.5664062499999717
 40
0.5664062499999717
 40
0.5703124999999738
 40
0.5703124999999738
 40
0.5742187499999759
 40
0.5742187499999759
 40
0.5751953124999765
 40
0.5751953124999765
 40
0.5761718749999771
 40
0.5761718749999771
 40
0.5771484374999777
 40
0.5771484374999777
 40
0.5781249999999782
 40
0.5781249999999782
 40
0.5800781249999793
 40
0.5800781249999793
 40
0.5820312499999803
 40
0.5820312499999803
 40
0.5839843749999815
 40
0.5839843749999815
 40
0.5849609374999819
 40
0.5849609374999819
 40
0.5859374999999823
 40
0.5859374999999823
 40
0.5878906249999835
 40
0.5878906249999835
 40
0.5888671874999839
 40
0.5888671874999839
 40
0.5898437499999845
 40
0.5898437499999845
 40
0.5937499999999865
 40
0.5937499999999865
 40
0.5976562499999885
 40
0.5976562499999885
 40
0.5996093749999895
 40
0.5996093749999895
 40
0.60058593749999
 40
0.60058593749999
 40
0.6010742187499902
 40
0.6010742187499902
 40
0.6015624999999905
 40
0.6015624999999905
 40
0.6025390624999909
 40
0.6025390624999909
 40
0.6035156249999913
 40
0.6035156249999913
 40
0.6054687499999925
 40
0.6054687499999925
 40
0.6074218749999936
 40
0.6074218749999936
 40
0.608398437499994
 40
0.608398437499994
 40
0.6088867187499941
 40
0.6088867187499941
 40
0.6093749999999942
 40
0.6093749999999942
 40
0.6113281249999949
 40
0.6113281249999949
 40
0.6132812499999954
 40
0.6132812499999954
 40
0.6152343749999961
 40
0.6152343749999961
 40
0.6171874999999967
 40
0.6171874999999967
 40
0.6176757812499968
 40
0.6176757812499968
 40
0.618164062499997
 40
0.618164062499997
 40
0.6186523437499971
 40
0.6186523437499971
 40
0.6191406249999972
 40
0.6191406249999972
 40
0.6210937499999981
 40
0.6210937499999981
 40
0.6220703124999987
 40
0.6220703124999987
 40
0.6230468749999991
 40
0.6230468749999991
 40
0.6249999999999999
 40
0.6249999999999999
 40
0.6289062500000017
 40
0.6289062500000017
 40
0.6328125000000033
 40
0.6328125000000033
 40
0.6347656250000041
 40
0.6347656250000041
 40
0.636718750000005
 40
0.636718750000005
 40
0.6386718750000058
 40
0.6386718750000058
 40
0.6396484375000063
 40
0.6396484375000063
 40
0.6406250000000068
 40
0.6406250000000068
 40
0.6416015625000072
 40
0.6416015625000072
 40
0.6425781250000077
 40
0.6425781250000077
 40
0.6445312500000084
 40
0.6464843750000092
 40
0.6464843750000092
 40
0.6484375000000099
 40
0.6484375000000099
 40
0.6523437500000115
 40
0.6523437500000115
 40
0.6542968750000125
 40
0.6542968750000125
 40
0.6562500000000134
 40
0.6562500000000134
 40
0.657226562500014
 40
0.657226562500014
 40
0.6582031250000144
 40
0.6582031250000144
 40
0.6601562500000153
 40
0.6601562500000153
 40
0.6640625000000174
 40
0.6640625000000174
 40
0.6660156250000183
 40
0.6660156250000183
 40
0.6679687500000193
 40
0.6679687500000193
 40
0.6718750000000213
 40
0.6718750000000213
 40
0.6728515625000218
 40
0.6728515625000218
 40
0.6738281250000222
 40
0.6738281250000222
 40
0.6757812500000229
 40
0.6757812500000229
 40
0.6796875000000241
 40
0.6796875000000241
 40
0.6875000000000266
 40
0.6875000000000266
 40
0.688476562500027
 40
0.688476562500027
 40
0.6894531250000272
 40
0.6894531250000272
 40
0.6914062500000275
 40
0.6914062500000275
 40
0.693359375000028
 40
0.693359375000028
 40
0.6953125000000283
 40
0.6953125000000283
 40
0.6972656250000288
 40
0.6972656250000288
 40
0.6992187500000292
 40
0.6992187500000292
 40
0.7031250000000304
 40
0.7031250000000304
 40
0.718750000000035
 40
0.718750000000035
 40
0.7226562500000363
 40
0.7226562500000363
 40
0.7231445312500362
 40
0.7231445312500362
 40
0.7236328125000362
 40
0.724609375000036
 40
0.724609375000036
 40
0.726562500000035
 40
0.726562500000035
 40
0.7275390625000346
 40
0.7275390625000346
 40
0.7285156250000342
 40
0.7285156250000342
 40
0.7294921875000338
 40
0.7294921875000338
 40
0.7299804687500335
 40
0.7299804687500335
 40
0.7304687500000333
 40
0.7304687500000333
 40
0.7309570312500332
 40
0.7309570312500332
 40
0.731445312500033
 40
0.731445312500033
 40
0.7324218750000329
 40
0.7324218750000329
 40
0.7343750000000328
 40
0.7343750000000328
 40
0.7363281250000325
 40
0.7363281250000325
 40
0.7382812500000324
 40
0.7382812500000324
 40
0.7402343750000322
 40
0.7402343750000322
 40
0.7421875000000321
 40
0.7441406250000319
 40
0.745117187500032
 40
0.745117187500032
 40
0.746093750000032
 40
0.746093750000032
 40
0.7465820312500319
 40
0.7465820312500319
 40
0.7470703125000318
 40
0.7470703125000318
 40
0.7475585937500316
 40
0.7475585937500316
 40
0.7480468750000315
 40
0.7480468750000315
 40
0.7500000000000316
 40
0.7500000000000316
 40
0.7519531250000318
 40
0.7519531250000318
 40
0.7539062500000318
 40
0.7539062500000318
 40
0.7578125000000319
 40
0.7578125000000319
 40
0.7656250000000318
 40
0.7656250000000318
 40
0.7695312500000319
 40
0.7695312500000319
 40
0.7714843750000316
 40
0.7714843750000316
 40
0.7724609375000313
 40
0.7724609375000313
 40
0.7734375000000311
 40
0.7734375000000311
 40
0.77734375000003
 40
0.77734375000003
 40
0.779296875000029
 40
0.779296875000029
 40
0.7812500000000281
 40
0.7812500000000281
 40
0.7851562500000272
 40
0.7851562500000272
 40
0.7890625000000263
 40
0.7890625000000263
 40
0.7929687500000254
 40
0.7929687500000254
 40
0.794921875000025
 40
0.794921875000025
 40
0.7958984375000248
 40
0.7958984375000248
 40
0.7968750000000245
 40
0.8007812500000239
 40
0.8007812500000239
 40
0.8017578125000238
 40
0.8017578125000238
 40
0.8027343750000235
 40
0.8027343750000235
 40
0.8037109375000233
 40
0.8037109375000233
 40
0.8046875000000232
 40
0.8046875000000232
 40
0.8066406250000229
 40
0.8066406250000229
 40
0.8085937500000226
 40
0.8085937500000226
 40
0.8105468750000223
 40
0.8105468750000223
 40
0.8125000000000221
 40
0.8125000000000221
 40
0.8164062500000212
 40
0.8164062500000212
 40
0.8203125000000203
 40
0.8203125000000203
 40
0.82128906250002
 40
0.82128906250002
 40
0.8222656250000198
 40
0.8232421875000194
 40
0.8232421875000194
 40
0.8242187500000191
 40
0.8242187500000191
 40
0.8281250000000181
 40
0.8281250000000181
 40
0.8291015625000179
 40
0.8291015625000179
 40
0.8295898437500179
 40
0.8295898437500179
 40
0.8300781250000178
 40
0.8320312500000172
 40
0.8339843750000168
 40
0.8339843750000168
 40
0.8349609375000164
 40
0.8349609375000164
 40
0.8359375000000161
 40
0.8359375000000161
 40
0.8398437500000158
 40
0.8398437500000158
 40
0.8417968750000155
 40
0.8417968750000155
 40
0.8437500000000154
 40
0.8437500000000154
 40
0.8476562500000154
 40
0.8476562500000154
 40
0.8496093750000152
 40
0.8496093750000152
 40
0.8515625000000151
 40
0.8515625000000151
 40
0.859375000000014
 40
0.859375000000014
 40
0.8603515625000139
 40
0.8603515625000139
 40
0.8613281250000139
 40
0.8613281250000139
 40
0.8632812500000138
 40
0.8632812500000138
 40
0.8652343750000138
 40
0.8652343750000138
 40
0.8662109375000138
 40
0.8662109375000138
 40
0.8671875000000138
 40
0.8671875000000138
 40
0.8710937500000137
 40
0.8710937500000137
 40
0.8730468750000138
 40
0.8740234375000139
 40
0.874511718750014
 40
0.874511718750014
 40
0.8750000000000141
 40
0.8750000000000141
 40
0.8754882812500143
 40
0.8754882812500143
 40
0.8759765625000144
 40
0.8759765625000144
 40
0.8764648437500145
 40
0.8764648437500145
 40
0.8769531250000147
 40
0.878906250000014
 40
0.878906250000014
 40
0.8808593750000132
 40
0.8808593750000132
 40
0.8828125000000125
 40
0.8828125000000125
 40
0.8867187500000114
 40
0.8867187500000114
 40
0.8886718750000108
 40
0.8886718750000108
 40
0.8896484375000105
 40
0.8896484375000105
 40
0.8906250000000102
 40
0.8906250000000102
 40
0.8916015625000099
 40
0.8916015625000099
 40
0.8925781250000095
 40
0.8925781250000095
 40
0.8945312500000088
 40
0.8945312500000088
 40
0.898437500000007
 40
0.898437500000007
 40
0.8994140625000067
 40
0.8994140625000067
 40
0.9003906250000064
 40
0.9003906250000064
 40
0.9023437500000057
 40
0.9023437500000057
 40
0.904296875000005
 40
0.904296875000005
 40
0.9062500000000042
 40
0.9062500000000042
 40
0.9082031250000036
 40
0.9082031250000036
 40
0.9101562500000028
 40
0.9101562500000028
 40
0.9140625000000019
 40
0.9140625000000019
 40
0.9160156250000013
 40
0.9160156250000013
 40
0.9169921875000009
 40
0.9169921875000009
 40
0.9179687500000006
 40
0.9179687500000006
 40
0.9199218749999998
 40
0.9199218749999998
 40
0.9208984374999996
 40
0.9208984374999996
 40
0.9218749999999992
 40
0.9218749999999992
 40
0.9228515624999989
 40
0.9233398437499988
 40
0.9233398437499988
 40
0.9238281249999987
 40
0.9238281249999987
 40
0.9257812499999987
 40
0.9257812499999987
 40
0.9296874999999989
 40
0.9296874999999989
 40
0.9306640624999988
 40
0.9306640624999988
 40
0.9316406249999988
 40
0.9316406249999988
 40
0.9335937499999986
 40
0.9335937499999986
 40
0.9345703124999983
 40
0.9345703124999983
 40
0.9355468749999982
 40
0.9355468749999982
 40
0.9374999999999978
 40
0.9374999999999978
 40
0.9384765624999976
 40
0.9384765624999976
 40
0.9394531249999972
 40
0.9394531249999972
 40
0.9414062499999967
 40
0.9414062499999967
 40
0.9433593749999962
 40
0.9433593749999962
 40
0.9453124999999957
 40
0.9453124999999957
 40
0.9462890624999954
 40
0.9462890624999954
 40
0.9472656249999951
 40
0.9472656249999951
 40
0.9482421874999948
 40
0.9482421874999948
 40
0.9492187499999946
 40
0.9492187499999946
 40
0.9511718749999942
 40
0.9511718749999942
 40
0.953124999999994
 40
0.953124999999994
 40
0.9550781249999937
 40
0.9550781249999937
 40
0.9555664062499938
 40
0.9555664062499938
 40
0.956054687499994
 40
0.956054687499994
 40
0.9565429687499941
 40
0.9565429687499941
 40
0.9570312499999942
 40
0.9570312499999942
 40
0.9609374999999961
 40
0.9609374999999961
 40
0.9628906249999971
 40
0.9628906249999971
 40
0.9648437499999982
 40
0.9648437499999982
 40
0.9687500000000001
 40
0.9687500000000001
 40
0.9707031250000012
 40
0.9707031250000012
 40
0.9716796875000016
 40
0.9716796875000016
 40
0.9721679687500018
 40
0.9721679687500018
 40
0.972656250000002
 40
0.972656250000002
 40
0.9746093750000019
 40
0.9746093750000019
 40
0.9765625000000017
 40
0.9765625000000017
 40
0.9785156250000016
 40
0.9785156250000016
 40
0.9804687500000013
 40
0.9804687500000013
 40
0.9824218750000012
 40
0.9824218750000012
 40
0.9843750000000011
 40
0.9843750000000011
 40
0.9863281250000009
 40
0.9863281250000009
 40
0.9882812500000008
 40
0.9882812500000008
 40
0.9902343750000006
 40
0.9902343750000006
 40
0.9921875000000004
 40
0.9921875000000004
 40
0.9941406250000002
 40
0.9941406250000002
 40
0.9960937500000001
 40
0.9960937500000001
 40
1.0
 40
1.0
 40
1.0
 40
1.0
 10
194.7434818308618
 20
331.4499469671923
 30
0.0
 10
194.7435267894151
 20
331.4499612142455
 30
0.0
 10
194.7436745743239
 20
331.4500022651762
 30
0.0
 10
194.7442073453955
 20
331.4500581026498
 30
0.0
 10
194.744568712708
 20
331.4501560383497
 30
0.0
 10
194.7456633077784
 20
331.4506241754046
 30
0.0
 10
194.7464294372058
 20
331.4511886414264
 30
0.0
 10
194.7478404905953
 20
331.4527174538971
 30
0.0
 10
194.7478755424639
 20
331.4528021370911
 30
0.0
 10
194.7490042915503
 20
331.4536465435452
 30
0.0
 10
194.7496477346639
 20
331.4541685547705
 30
0.0
 10
194.7510927580315
 20
331.4554916641732
 30
0.0
 10
194.7524337228528
 20
331.4568819417474
 30
0.0
 10
194.7538672428988
 20
331.4585403327368
 30
0.0
 10
194.7543735768921
 20
331.4591871873025
 30
0.0
 10
194.7548174388373
 20
331.4597591638084
 30
0.0
 10
194.7547565869994
 20
331.4596767046729
 30
0.0
 10
194.7553919721826
 20
331.4605177695696
 30
0.0
 10
194.7554733512869
 20
331.4603338562205
 30
0.0
 10
194.7567216569256
 20
331.464568611771
 30
0.0
 10
194.756942417562
 20
331.465471096267
 30
0.0
 10
194.7578029827824
 20
331.4689408240866
 30
0.0
 10
194.7580653142371
 20
331.4700815420048
 30
0.0
 10
194.759858860459
 20
331.4782046687245
 30
0.0
 10
194.7624991650996
 20
331.4937623005328
 30
0.0
 10
194.7642549311935
 20
331.5060593684394
 30
0.0
 10
194.7643867267593
 20
331.5137973846298
 30
0.0
 10
194.7685052231328
 20
331.5271124046217
 30
0.0
 10
194.7687051056364
 20
331.5278759704335
 30
0.0
 10
194.7715029799412
 20
331.5376838528013
 30
0.0
 10
194.7736245348986
 20
331.5452807843957
 30
0.0
 10
194.7793128804234
 20
331.5679017967056
 30
0.0
 10
194.7833596600809
 20
331.5855606085197
 30
0.0
 10
194.7901691742959
 20
331.6172463226204
 30
0.0
 10
194.794928320755
 20
331.6348239737465
 30
0.0
 10
194.8110203983614
 20
331.6838290224397
 30
0.0
 10
194.8184574219774
 20
331.7084679094634
 30
0.0
 10
194.8280763332567
 20
331.7426656190134
 30
0.0
 10
194.830000100814
 20
331.7496269746061
 30
0.0
 10
194.8338476065314
 20
331.7637930367067
 30
0.0
 10
194.834750025798
 20
331.7671418989801
 30
0.0
 10
194.8382495865463
 20
331.7804143195828
 30
0.0
 10
194.8393557978169
 20
331.7848965356472
 30
0.0
 10
194.8402381032055
 20
331.7872836190445
 30
0.0
 10
194.8422595468149
 20
331.7926506493852
 30
0.0
 10
194.8465592668658
 20
331.8041900357414
 30
0.0
 10
194.8519981251375
 20
331.8190396103624
 30
0.0
 10
194.8518318846014
 20
331.8186106841321
 30
0.0
 10
194.8579090500623
 20
331.8354358462797
 30
0.0
 10
194.8622027608329
 20
331.8473542551459
 30
0.0
 10
194.8798843669346
 20
331.8995607504605
 30
0.0
 10
194.8860256575871
 20
331.9187735744766
 30
0.0
 10
194.8929092140953
 20
331.9403840263938
 30
0.0
 10
194.899330883485
 20
331.9608750174778
 30
0.0
 10
194.9105810807459
 20
331.997942062121
 30
0.0
 10
194.9148935891119
 20
332.0085305247733
 30
0.0
 10
194.9257864631759
 20
332.0367310896739
 30
0.0
 10
194.9329099392264
 20
332.0554076624155
 30
0.0
 10
194.9505109693641
 20
332.1031476195545
 30
0.0
 10
194.9630079845872
 20
332.1381394608761
 30
0.0
 10
194.9886129054554
 20
332.2119673805333
 30
0.0
 10
194.9999868036845
 20
332.2482940677868
 30
0.0
 10
195.0379135457195
 20
332.3435642953248
 30
0.0
 10
195.0567620811249
 20
332.3928865454475
 30
0.0
 10
195.0802233414945
 20
332.4566569267981
 30
0.0
 10
195.084915564171
 20
332.4695306649215
 30
0.0
 10
195.0942999507294
 20
332.4955169686541
 30
0.0
 10
195.096793949814
 20
332.5024750906896
 30
0.0
 10
195.1064212142727
 20
332.529537515426
 30
0.0
 10
195.1130682465862
 20
332.5484164119723
 30
0.0
 10
195.1224564315775
 20
332.5753433688525
 30
0.0
 10
195.1289600290751
 20
332.5895386871306
 30
0.0
 10
195.1433764799286
 20
332.6245536131397
 30
0.0
 10
195.1546614061086
 20
332.6523017486108
 30
0.0
 10
195.1805791763572
 20
332.7174449624491
 30
0.0
 10
195.2001494605675
 20
332.767731426222
 30
0.0
 10
195.2261636793011
 20
332.8360268520887
 30
0.0
 10
195.2364697099773
 20
332.863675895951
 30
0.0
 10
195.2478771379557
 20
332.8944798263458
 30
0.0
 10
195.2510043442758
 20
332.9029746499567
 30
0.0
 10
195.2559082175708
 20
332.9163252764093
 30
0.0
 10
195.2660207190222
 20
332.9410464035484
 30
0.0
 10
195.2899154957946
 20
332.9968180675001
 30
0.0
 10
195.3056504944231
 20
333.0343156683392
 30
0.0
 10
195.3225426684194
 20
333.0750149258208
 30
0.0
 10
195.3298228490324
 20
333.0926311855557
 30
0.0
 10
195.3476821221537
 20
333.1363332074138
 30
0.0
 10
195.3601316173092
 20
333.1671077378776
 30
0.0
 10
195.4090424807728
 20
333.289400448758
 30
0.0
 10
195.4291184591505
 20
333.3523187411556
 30
0.0
 10
195.5035282872545
 20
333.5201599426704
 30
0.0
 10
195.5414179399938
 20
333.6082321541704
 30
0.0
 10
195.5977251319569
 20
333.7429467500812
 30
0.0
 10
195.6162201400103
 20
333.7879075287843
 30
0.0
 10
195.6388798748891
 20
333.8435133193226
 30
0.0
 10
195.6540138772342
 20
333.8808917955836
 30
0.0
 10
195.6682732063157
 20
333.916409157623
 30
0.0
 10
195.672785304181
 20
333.9276840937092
 30
0.0
 10
195.682239680031
 20
333.951383158789
 30
0.0
 10
195.6831156295055
 20
333.9557381471963
 30
0.0
 10
195.7073170928245
 20
334.0070115220918
 30
0.0
 10
195.7120596985115
 20
334.0171539690169
 30
0.0
 10
195.7337756175015
 20
334.0637005090857
 30
0.0
 10
195.7453070244512
 20
334.0885654856778
 30
0.0
 10
195.7819215876645
 20
334.168104873457
 30
0.0
 10
195.8292279982369
 20
334.2726130395938
 30
0.0
 10
195.8893293078848
 20
334.4081380295672
 30
0.0
 10
195.9108036399433
 20
334.4575582061855
 30
0.0
 10
195.9301506538829
 20
334.5021793269163
 30
0.0
 10
195.934455577838
 20
334.5121518144427
 30
0.0
 10
195.9376968427336
 20
334.519659626648
 30
0.0
 10
195.9386156154022
 20
334.5217763905495
 30
0.0
 10
195.9499399187268
 20
334.5480652726681
 30
0.0
 10
195.9553658626904
 20
334.5606963336363
 30
0.0
 10
195.9833650480546
 20
334.6260503958948
 30
0.0
 10
196.0175216475618
 20
334.6862630611799
 30
0.0
 10
196.0584995702696
 20
334.7675312976831
 30
0.0
 10
196.0857751524377
 20
334.8219394490558
 30
0.0
 10
196.1538995584022
 20
334.9600828081248
 30
0.0
 10
196.1874327175598
 20
335.0291712865628
 30
0.0
 10
196.2312759369053
 20
335.1201467751731
 30
0.0
 10
196.2522686507181
 20
335.1638700961544
 30
0.0
 10
196.2980329398892
 20
335.260634376585
 30
0.0
 10
196.296894356232
 20
335.2593845304752
 30
0.0
 10
196.311258573576
 20
335.2848833316009
 30
0.0
 10
196.3186002220429
 20
335.2979453031001
 30
0.0
 10
196.3336025985665
 20
335.32470191555
 30
0.0
 10
196.331041849747
 20
335.3201382296486
 30
0.0
 10
196.3370075466457
 20
335.3307975645627
 30
0.0
 10
196.3405479704442
 20
335.3371285538097
 30
0.0
 10
196.3610379661826
 20
335.3738222592148
 30
0.0
 10
196.3863511683602
 20
335.4192618650085
 30
0.0
 10
196.4377027800067
 20
335.512642229152
 30
0.0
 10
196.4570502852855
 20
335.5479804200889
 30
0.0
 10
196.5002058986368
 20
335.6273541814792
 30
0.0
 10
196.5298650845991
 20
335.6823229686847
 30
0.0
 10
196.5800071726993
 20
335.7757535070863
 30
0.0
 10
196.6096041681313
 20
335.8314732668036
 30
0.0
 10
196.6869019645236
 20
335.9778388163693
 30
0.0
 10
196.7675972469472
 20
336.1000964324643
 30
0.0
 10
196.9072862388981
 20
336.3286451690426
 30
0.0
 10
196.9798854431345
 20
336.4494582231417
 30
0.0
 10
197.0705370873069
 20
336.6020575783136
 30
0.0
 10
197.1300956453986
 20
336.6933096482044
 30
0.0
 10
197.1954263199712
 20
336.7863546829365
 30
0.0
 10
197.2356333553833
 20
336.8438730103508
 30
0.0
 10
197.3311308224588
 20
336.9817536501751
 30
0.0
 10
197.4046379327001
 20
337.088955954063
 30
0.0
 10
197.4541722584408
 20
337.1616640212083
 30
0.0
 10
197.4547135820252
 20
337.162444490476
 30
0.0
 10
197.4991392316723
 20
337.227913314552
 30
0.0
 10
197.5199020754517
 20
337.2586205249518
 30
0.0
 10
197.5585278009224
 20
337.3158961530075
 30
0.0
 10
197.5806325041673
 20
337.3487664957849
 30
0.0
 10
197.6225769300825
 20
337.4113387991053
 30
0.0
 10
197.6303915796527
 20
337.4190293883015
 30
0.0
 10
197.6689883533022
 20
337.4677910064516
 30
0.0
 10
197.7367941459702
 20
337.5536576491227
 30
0.0
 10
197.8372867942423
 20
337.6822807794735
 30
0.0
 10
197.9541228703166
 20
337.8330468461069
 30
0.0
 10
197.9879088549636
 20
337.8770182304874
 30
0.0
 10
198.0937711683964
 20
338.0149905512612
 30
0.0
 10
198.1897644719147
 20
338.1230166758514
 30
0.0
 10
198.3301305705252
 20
338.2794041431388
 30
0.0
 10
198.3769192526416
 20
338.3317678735601
 30
0.0
 10
198.4704965820331
 20
338.4369582256475
 30
0.0
 10
198.5286863134409
 20
338.5027293870202
 30
0.0
 10
198.5739605246719
 20
338.5540426132745
 30
0.0
 10
198.598652969673
 20
338.5820370853011
 30
0.0
 10
198.6672399421903
 20
338.660096465924
 30
0.0
 10
198.6807593312078
 20
338.6760921176258
 30
0.0
 10
198.7637554080132
 20
338.7545338229141
 30
0.0
 10
198.8089510376024
 20
338.7974092330738
 30
0.0
 10
198.9890655214387
 20
338.969021493055
 30
0.0
 10
199.1029380324362
 20
339.0785490460033
 30
0.0
 10
199.2567877367138
 20
339.2274568955688
 30
0.0
 10
199.3277277576676
 20
339.3037696835221
 30
0.0
 10
199.4285011512201
 20
339.3863349781153
 30
0.0
 10
199.4791410101118
 20
339.4279471043444
 30
0.0
 10
199.6306765328257
 20
339.5528213163561
 30
0.0
 10
199.7317001784338
 20
339.6365444274449
 30
0.0
 10
199.8579796901923
 20
339.7417763264017
 30
0.0
 10
199.8671391962121
 20
339.7494151322781
 30
0.0
 10
199.9207678338447
 20
339.7941905333781
 30
0.0
 10
199.9588336734095
 20
339.8260229799035
 30
0.0
 10
200.0351138872713
 20
339.8899051051031
 30
0.0
 10
200.089557997321
 20
339.9242253389338
 30
0.0
 10
200.248221178529
 20
340.0372986747571
 30
0.0
 10
200.4365538754759
 20
340.1723295511918
 30
0.0
 10
200.7199116000175
 20
340.3765202019032
 30
0.0
 10
201.0168152648104
 20
340.5552266901275
 30
0.0
 10
201.3242297211714
 20
340.741585886271
 30
0.0
 10
201.3583868822373
 20
340.7623155181891
 30
0.0
 10
201.4267012028648
 20
340.8038205748111
 30
0.0
 10
201.4400425291614
 20
340.8119294763586
 30
0.0
 10
201.5742953693265
 20
340.8936380708481
 30
0.0
 10
201.6189395091316
 20
340.9160006085099
 30
0.0
 10
201.7403045729493
 20
340.9778263502722
 30
0.0
 10
201.7668469462357
 20
340.9913649639678
 30
0.0
 10
201.8911987264815
 20
341.0548784622284
 30
0.0
 10
201.9796063944582
 20
341.1001139470685
 30
0.0
 10
202.1112360029282
 20
341.1675913742409
 30
0.0
 10
202.1662908353838
 20
341.1958678736843
 30
0.0
 10
202.2548805567362
 20
341.2414042657876
 30
0.0
 10
202.3283464721978
 20
341.276569176499
 30
0.0
 10
202.519911868644
 20
341.359971175662
 30
0.0
 10
202.6588194298545
 20
341.4206127070182
 30
0.0
 10
203.3189821096096
 20
341.7096097135183
 30
0.0
 10
203.937151229394
 20
341.928288072266
 30
0.0
 10
204.7044117587973
 20
342.1626722456677
 30
0.0
 10
204.8446705638908
 20
342.2137244925397
 30
0.0
 10
205.0349464120953
 20
342.2610458365702
 30
0.0
 10
205.0210329506335
 20
342.2575856231871
 30
0.0
 10
205.0284595580984
 20
342.2594328128632
 30
0.0
 10
205.0449625674964
 20
342.263537670439
 30
0.0
 10
205.0775548714961
 20
342.2716457277666
 30
0.0
 10
205.1641918722982
 20
342.2932062867878
 30
0.0
 10
205.250553063236
 20
342.3147044605086
 30
0.0
 10
205.4229996352477
 20
342.3576925952133
 30
0.0
 10
205.487632623519
 20
342.3738124870213
 30
0.0
 10
205.6312001952633
 20
342.4096466304872
 30
0.0
 10
205.7279893635686
 20
342.4338262876409
 30
0.0
 10
205.8176513287556
 20
342.4562364032948
 30
0.0
 10
205.8598224108717
 20
342.4667813636461
 30
0.0
 10
205.9190891833296
 20
342.4816062092138
 30
0.0
 10
205.9395663537904
 20
342.4867292236702
 30
0.0
 10
205.9820097089087
 20
342.4973499289811
 30
0.0
 10
205.987368555287
 20
342.4987048925198
 30
0.0
 10
206.0594543025323
 20
342.5167208987739
 30
0.0
 10
206.0682947316044
 20
342.5166855025802
 30
0.0
 10
206.1139152540715
 20
342.5256060037933
 30
0.0
 10
206.1319941691484
 20
342.5291417588024
 30
0.0
 10
206.1878788820245
 20
342.5400725916707
 30
0.0
 10
206.2288663531148
 20
342.5480916246807
 30
0.0
 10
206.3630217539043
 20
342.5743481075339
 30
0.0
 10
206.4719388236805
 20
342.5956764007
 30
0.0
 10
206.7267347399042
 20
342.645624295469
 30
0.0
 10
206.8180643582792
 20
342.6635489843079
 30
0.0
 10
206.9285869155552
 20
342.6852434079866
 30
0.0
 10
207.0263817029057
 20
342.7044464466829
 30
0.0
 10
207.209789425176
 20
342.7404886740142
 30
0.0
 10
207.2750078638568
 20
342.7478725086925
 30
0.0
 10
207.4250435129215
 20
342.7704324832386
 30
0.0
 10
207.5750791619581
 20
342.7930017204184
 30
0.0
 10
207.7626237231842
 20
342.8212363090402
 30
0.0
 10
207.8751504598883
 20
342.838187379639
 30
0.0
 10
207.9501682843508
 20
342.8494903804014
 30
0.0
 10
207.9638961049811
 20
342.8515589398048
 30
0.0
 10
208.0278347839087
 20
342.8611956958077
 30
0.0
 10
208.0523908592331
 20
342.864897107082
 30
0.0
 10
208.1079893745789
 20
342.8732790164135
 30
0.0
 10
208.0906104043836
 20
342.8704557427264
 30
0.0
 10
208.1168642432677
 20
342.8734718462289
 30
0.0
 10
208.1365292581384
 20
342.8757188908426
 30
0.0
 10
208.1889354787372
 20
342.8816916702868
 30
0.0
 10
208.2427081740251
 20
342.8878082832615
 30
0.0
 10
208.3044255189792
 20
342.8948257895847
 30
0.0
 10
208.3741784763823
 20
342.9027579203891
 30
0.0
 10
208.5544425540679
 20
342.9232661830355
 30
0.0
 10
208.6664170350016
 20
342.9360104471105
 30
0.0
 10
208.8316606769915
 20
342.9548240700389
 30
0.0
 10
208.8804632467619
 20
342.960382098175
 30
0.0
 10
209.1163977491159
 20
342.9872589170397
 30
0.0
 10
209.2750609468424
 20
342.9975226381439
 30
0.0
 10
209.7532587342152
 20
343.0352225755597
 30
0.0
 10
210.0677976423057
 20
343.0591436342473
 30
0.0
 10
210.4824938850989
 20
343.0784166737153
 30
0.0
 10
210.6133436982525
 20
343.0844992198223
 30
0.0
 10
210.8249151367138
 20
343.094336257795
 30
0.0
 10
210.8964341573605
 20
343.0976544360445
 30
0.0
 10
210.9864659840062
 20
343.0990659174966
 30
0.0
 10
211.0346308362118
 20
343.0998210397426
 30
0.0
 10
211.1033540382084
 20
343.1008984964321
 30
0.0
 10
211.1168507937683
 20
343.1011102291288
 30
0.0
 10
211.4499552138469
 20
343.1063321125592
 30
0.0
 10
211.6225319228947
 20
343.1090265693339
 30
0.0
 10
211.7405367459432
 20
343.1108424635902
 30
0.0
 10
211.7391947723981
 20
343.1110571247062
 30
0.0
 10
211.7865848136281
 20
343.110728253521
 30
0.0
 10
211.8138755061441
 20
343.1105388661254
 30
0.0
 10
211.9065345993945
 20
343.109895851402
 30
0.0
 10
211.997488991281
 20
343.1092646774347
 30
0.0
 10
212.1285891768541
 20
343.1083549289965
 30
0.0
 10
212.1936878957765
 20
343.1073399292948
 30
0.0
 10
212.323330331385
 20
343.1046213695591
 30
0.0
 10
212.3881515492114
 20
343.1032621517636
 30
0.0
 10
212.4853833758877
 20
343.1012234197691
 30
0.0
 10
212.5114518510507
 20
343.1006768321872
 30
0.0
 10
212.5691511482074
 20
343.0994670632188
 30
0.0
 10
212.6369774250079
 20
343.0958175581874
 30
0.0
 10
212.7333003689274
 20
343.0911797857183
 30
0.0
 10
212.9741077287258
 20
343.079586262501
 30
0.0
 10
213.2149150885232
 20
343.0679972839735
 30
0.0
 10
213.4557224483198
 20
343.0564119569111
 30
0.0
 10
213.4995717546299
 20
343.0543025418362
 30
0.0
 10
213.5673682519786
 20
343.0510412820806
 30
0.0
 10
213.6188028190624
 20
343.0485671603201
 30
0.0
 10
213.7567445900488
 20
343.0419327892816
 30
0.0
 10
213.7900415957548
 20
343.0386624259496
 30
0.0
 10
213.8781221256489
 20
343.0309061618996
 30
0.0
 10
213.9182912851932
 20
343.0273694304252
 30
0.0
 10
214.0221385287919
 20
343.0182269302304
 30
0.0
 10
214.1116257794888
 20
343.0103498062705
 30
0.0
 10
214.3311117908115
 20
342.9910371264682
 30
0.0
 10
214.4527946471059
 20
342.9803342834866
 30
0.0
 10
214.6271975379705
 20
342.9649984234627
 30
0.0
 10
214.6893233879646
 20
342.9595368079651
 30
0.0
 10
214.862457365717
 20
342.944319914911
 30
0.0
 10
214.9559280020681
 20
342.9320584221734
 30
0.0
 10
215.2628567058924
 20
342.892344738978
 30
0.0
 10
215.4487995497672
 20
342.8683078155589
 30
0.0
 10
215.8374349269701
 20
342.8181111660161
 30
0.0
 10
216.0333817547396
 20
342.7939771221937
 30
0.0
 10
216.2504205950978
 20
342.7573072060292
 30
0.0
 10
216.3126039610991
 20
342.7468046490318
 30
0.0
 10
216.3476428129738
 20
342.7408875554242
 30
0.0
 10
216.4032778404655
 20
342.731492727031
 30
0.0
 10
216.5001052191917
 20
342.71514955311
 30
0.0
 10
216.617528773535
 20
342.6953384398483
 30
0.0
 10
216.6946142167717
 20
342.6823384209585
 30
0.0
 10
216.9546735923011
 20
342.6384965196826
 30
0.0
 10
217.0926322104773
 20
342.6171735037279
 30
0.0
 10
217.298660107429
 20
342.5760787703862
 30
0.0
 10
217.3328099392375
 20
342.5692691025072
 30
0.0
 10
217.3947707033117
 20
342.5569173385423
 30
0.0
 10
217.401773112913
 20
342.5555211079091
 30
0.0
 10
217.4765053245597
 20
342.5406281597639
 30
0.0
 10
217.6557842869979
 20
342.504911333672
 30
0.0
 10
217.9105223192804
 20
342.4542354174789
 30
0.0
 10
218.0402960722694
 20
342.4284542315881
 30
0.0
 10
218.1013788669544
 20
342.4163209543343
 30
0.0
 10
218.1156985451733
 20
342.4134771277856
 30
0.0
 10
218.1322553949256
 20
342.410189090232
 30
0.0
 10
218.1818679913077
 20
342.3994765207132
 30
0.0
 10
218.382756962687
 20
342.3547384119732
 30
0.0
 10
218.555353453766
 20
342.3163532190637
 30
0.0
 10
218.8052270481525
 20
342.2608660653599
 30
0.0
 10
218.8726151474238
 20
342.2459111227022
 30
0.0
 10
219.0534344732997
 20
342.2058160154724
 30
0.0
 10
219.1532125214431
 20
342.1843281237763
 30
0.0
 10
219.340159214957
 20
342.1383225743982
 30
0.0
 10
219.5221007145912
 20
342.093605062527
 30
0.0
 10
219.7502525996593
 20
342.0376297640343
 30
0.0
 10
219.8281018133769
 20
342.0185457689219
 30
0.0
 10
219.9643212790735
 20
341.9851761177866
 30
0.0
 10
220.0591695389928
 20
341.9633845189302
 30
0.0
 10
220.4120657706161
 20
341.86884617532
 30
0.0
 10
220.6964683970361
 20
341.7928954150677
 30
0.0
 10
221.0110401852862
 20
341.7091704632086
 30
0.0
 10
221.0722675085897
 20
341.6907376443417
 30
0.0
 10
221.1815076759085
 20
341.6587167734384
 30
0.0
 10
221.214348788545
 20
341.6490968557204
 30
0.0
 10
221.3558885600863
 20
341.6076550714437
 30
0.0
 10
221.4714440673098
 20
341.5738527097236
 30
0.0
 10
221.7449464008151
 20
341.4940139267728
 30
0.0
 10
221.8811719078689
 20
341.454334093286
 30
0.0
 10
222.0192387169374
 20
341.4141632927172
 30
0.0
 10
222.0369899963474
 20
341.4089995135377
 30
0.0
 10
222.1512514994513
 20
341.3757924188401
 30
0.0
 10
222.205711965722
 20
341.3599782255145
 30
0.0
 10
222.4646628706695
 20
341.2848370400188
 30
0.0
 10
222.658479159687
 20
341.2144235185281
 30
0.0
 10
222.9580063665433
 20
341.1152920501464
 30
0.0
 10
223.1077699689648
 20
341.065805842255
 30
0.0
 10
223.2824941700279
 20
341.0082127730088
 30
0.0
 10
223.357375970106
 20
340.9835603873599
 30
0.0
 10
223.4072971700741
 20
340.9671322296859
 30
0.0
 10
223.4112445673191
 20
340.9658336333346
 30
0.0
 10
223.4676417601845
 20
340.9472886080239
 30
0.0
 10
223.5073946741564
 20
340.9342242223186
 30
0.0
 10
223.5571987597992
 20
340.9178646981039
 30
0.0
 10
223.5805068800321
 20
340.9090969229158
 30
0.0
 10
223.6276386892971
 20
340.8910709378619
 30
0.0
 10
223.628627172046
 20
340.8906938008386
 30
0.0
 10
223.6562475210596
 20
340.8801349955857
 30
0.0
 10
223.7318656957585
 20
340.8512348645923
 30
0.0
 10
223.8403203812834
 20
340.8098326649553
 30
0.0
 10
224.0558786119799
 20
340.7277534165397
 30
0.0
 10
224.2085652096389
 20
340.6697565771983
 30
0.0
 10
224.4212243125596
 20
340.5891798879854
 30
0.0
 10
224.4919248822731
 20
340.5624490987523
 30
0.0
 10
224.779939142896
 20
340.4537391657049
 30
0.0
 10
224.9942309153223
 20
340.355818899585
 30
0.0
 10
225.3120932171549
 20
340.2169720757902
 30
0.0
 10
225.4180473135988
 20
340.1708111248217
 30
0.0
 10
225.5769784520142
 20
340.101754505051
 30
0.0
 10
225.6474592462978
 20
340.0711823092552
 30
0.0
 10
225.7056381885775
 20
340.0459696691316
 30
0.0
 10
225.7587526350777
 20
340.0229580569848
 30
0.0
 10
225.9130314787989
 20
339.956297632673
 30
0.0
 10
225.9476319205728
 20
339.9413852381054
 30
0.0
 10
226.0539780533943
 20
339.8955745705358
 30
0.0
 10
226.0936653860667
 20
339.874133562494
 30
0.0
 10
226.2344409813296
 20
339.8035111253922
 30
0.0
 10
226.3469913067997
 20
339.7472113793926
 30
0.0
 10
226.6417138777086
 20
339.6002755930868
 30
0.0
 10
226.838195586997
 20
339.5029313172103
 30
0.0
 10
227.0837977177939
 20
339.3820400081232
 30
0.0
 10
227.1082593962958
 20
339.3700124419869
 30
0.0
 10
227.2239882163493
 20
339.3132319404677
 30
0.0
 10
227.2788342893296
 20
339.2842481612204
 30
0.0
 10
227.4126817205829
 20
339.2088913138061
 30
0.0
 10
227.4862127510344
 20
339.1676113643275
 30
0.0
 10
227.6791418143634
 20
339.0597037306197
 30
0.0
 10
227.8170473487571
 20
338.982878793994
 30
0.0
 10
228.044159530298
 20
338.8570396412044
 30
0.0
 10
228.1381084177638
 20
338.8052726015748
 30
0.0
 10
228.2867917860861
 20
338.723541490592
 30
0.0
 10
228.3401239614188
 20
338.6969884525847
 30
0.0
 10
228.4751193220083
 20
338.6140913087627
 30
0.0
 10
228.555701899425
 20
338.5647969456327
 30
0.0
 10
228.6879693437929
 20
338.4840607665514
 30
0.0
 10
228.9090088271593
 20
338.3499606660164
 30
0.0
 10
229.0740878002215
 20
338.250590959403
 30
0.0
 10
229.1469377989272
 20
338.2102259587509
 30
0.0
 10
229.2419378170427
 20
338.1482038199053
 30
0.0
 10
229.2761571243519
 20
338.12547477893
 30
0.0
 10
229.2987040546021
 20
338.1106450056504
 30
0.0
 10
229.3149346374867
 20
338.0999729591945
 30
0.0
 10
229.3784977394192
 20
338.0582400695202
 30
0.0
 10
229.4407016117456
 20
338.0174508704423
 30
0.0
 10
229.5637501267924
 20
337.9372402054568
 30
0.0
 10
229.6097234162342
 20
337.9073350448346
 30
0.0
 10
229.7115842306368
 20
337.8412942754966
 30
0.0
 10
229.7516692664612
 20
337.8153969154063
 30
0.0
 10
229.8193722618047
 20
337.7717217414879
 30
0.0
 10
229.8668831625859
 20
337.7411401492558
 30
0.0
 10
229.9094945447776
 20
337.7137850321265
 30
0.0
 10
229.9368133509967
 20
337.6962617972782
 30
0.0
 10
229.9660454791414
 20
337.6775351473284
 30
0.0
 10
230.0378317253362
 20
337.6313782891769
 30
0.0
 10
230.0843167192173
 20
337.5957951947901
 30
0.0
 10
230.2744100425336
 20
337.4626534852399
 30
0.0
 10
230.3855606038389
 20
337.3854777562847
 30
0.0
 10
230.5342343648933
 20
337.2830501108152
 30
0.0
 10
230.5584771176125
 20
337.2663845738601
 30
0.0
 10
230.607180465649
 20
337.2329607284111
 30
0.0
 10
230.6532563733673
 20
337.2014099124816
 30
0.0
 10
230.7431313678366
 20
337.1400379020478
 30
0.0
 10
230.7907768301633
 20
337.1031898988533
 30
0.0
 10
230.8733454614682
 20
337.0415197864387
 30
0.0
 10
230.902719889204
 20
337.0196248666926
 30
0.0
 10
230.9651718459436
 20
336.9731990188457
 30
0.0
 10
231.0188668020682
 20
336.9333906013788
 30
0.0
 10
231.1487886600468
 20
336.8374891418604
 30
0.0
 10
231.2160524054193
 20
336.7882795251243
 30
0.0
 10
231.2879217835581
 20
336.7358303336702
 30
0.0
 10
231.3070405362844
 20
336.721912306601
 30
0.0
 10
231.3356026284304
 20
336.7011371122413
 30
0.0
 10
231.3278214803155
 20
336.706779281792
 30
0.0
 10
231.4131653110053
 20
336.6448369579639
 30
0.0
 10
231.4645512078731
 20
336.6042084174559
 30
0.0
 10
231.5794969865863
 20
336.5127469103077
 30
0.0
 10
231.6173444005951
 20
336.4827587619797
 30
0.0
 10
231.7434278707198
 20
336.3834544514896
 30
0.0
 10
231.8282375976506
 20
336.3171658261533
 30
0.0
 10
231.9012233745684
 20
336.260436862444
 30
0.0
 10
231.9102409663693
 20
336.2534342794719
 30
0.0
 10
231.9688585877942
 20
336.2080715533772
 30
0.0
 10
231.9963600996714
 20
336.1868584192264
 30
0.0
 10
232.0477485257554
 20
336.1473215153224
 30
0.0
 10
232.0909230476643
 20
336.1145957459086
 30
0.0
 10
232.122287322772
 20
336.0897261379351
 30
0.0
 10
232.1399215122841
 20
336.073788434867
 30
0.0
 10
232.1937509724279
 20
336.0280079543036
 30
0.0
 10
232.2400302303144
 20
335.9887621321526
 30
0.0
 10
232.353374648335
 20
335.8934064403618
 30
0.0
 10
232.4331277804428
 20
335.8268119748325
 30
0.0
 10
232.5541672305001
 20
335.7265975296206
 30
0.0
 10
232.6053129392052
 20
335.6846228036728
 30
0.0
 10
232.6575275546821
 20
335.64195197918
 30
0.0
 10
232.685205368488
 20
335.6193723332697
 30
0.0
 10
232.7199370780167
 20
335.5911025467749
 30
0.0
 10
232.7318935040498
 20
335.5813890116844
 30
0.0
 10
232.7449874986535
 20
335.5707239615467
 30
0.0
 10
232.7472724453131
 20
335.5685409553342
 30
0.0
 10
232.7700020480031
 20
335.5477714165734
 30
0.0
 10
232.7816441534879
 20
335.5371497919839
 30
0.0
 10
232.8889188401114
 20
335.4394471003473
 30
0.0
 10
232.982990986606
 20
335.3549451987488
 30
0.0
 10
233.124266957432
 20
335.2298165658624
 30
0.0
 10
233.1636013445313
 20
335.1952182060464
 30
0.0
 10
233.2525930811009
 20
335.1174758168663
 30
0.0
 10
233.315083460952
 20
335.064744920129
 30
0.0
 10
233.4392817323168
 20
334.9427751358748
 30
0.0
 10
233.5266322212908
 20
334.8582591907243
 30
0.0
 10
233.6542175914338
 20
334.73686264601
 30
0.0
 10
233.6967460387994
 20
334.6967277939573
 30
0.0
 10
233.7605386958247
 20
334.6370256455972
 30
0.0
 10
233.772373597211
 20
334.6259858014109
 30
0.0
 10
233.8059556211953
 20
334.5947988694124
 30
0.0
 10
233.8192393742329
 20
334.5824857326125
 30
0.0
 10
233.8499863703937
 20
334.5540864521952
 30
0.0
 10
233.855589734974
 20
334.5486488984549
 30
0.0
 10
233.8981781493886
 20
334.5038043969251
 30
0.0
 10
233.9257319196237
 20
334.474994631482
 30
0.0
 10
233.9954087690671
 20
334.4027012587889
 30
0.0
 10
234.0454928710386
 20
334.3511585854748
 30
0.0
 10
234.1346227196595
 20
334.2605756432854
 30
0.0
 10
234.1710374817886
 20
334.2240452445857
 30
0.0
 10
234.2275666816841
 20
334.1676247252664
 30
0.0
 10
234.2446676678242
 20
334.1510026941646
 30
0.0
 10
234.3006797414358
 20
334.0950768487161
 30
0.0
 10
234.3410800089187
 20
334.046236655059
 30
0.0
 10
234.3808536658458
 20
334.0019781080378
 30
0.0
 10
234.410066954889
 20
333.969570123763
 30
0.0
 10
234.4871464541347
 20
333.8852933187453
 30
0.0
 10
234.5234568307223
 20
333.8461472633698
 30
0.0
 10
234.5743299753205
 20
333.7916734634688
 30
0.0
 10
234.606874274745
 20
333.7571339829584
 30
0.0
 10
234.6722431929024
 20
333.6883826655178
 30
0.0
 10
234.6753585160251
 20
333.6803894426925
 30
0.0
 10
234.7106176116807
 20
333.6377666457571
 30
0.0
 10
234.7354113879556
 20
333.6079125737665
 30
0.0
 10
234.7993273973998
 20
333.5321141563264
 30
0.0
 10
234.8453810554172
 20
333.478312759062
 30
0.0
 10
234.9033713541562
 20
333.4114804456998
 30
0.0
 10
234.9242612898245
 20
333.3876862388869
 30
0.0
 10
235.0041777548738
 20
333.2975338264867
 30
0.0
 10
235.026956734801
 20
333.2627431333159
 30
0.0
 10
235.0627195905381
 20
333.2193769685452
 30
0.0
  0
LINE
  5
12A
330
DE
100
AcDbEntity
  8
36176000_WANDV.Z
  6
Continuous
 62
     7
100
AcDbLine
 10
206.6082754587
 20
308.4710008716
 30
0.0
 11
234.5171462961
 21
318.6289991284
 31
0.0
  0
SPLINE
  5
12B
330
DE
100
AcDbEntity
  8
36176000_WANDV.Z
  6
Continuous
 62
     7
100
AcDbSpline
210
0.0
220
0.0
230
1.0
 70
     8
 71
     3
 72
    20
 73
    16
 74
     0
 42
0.0000000014394453
 43
0.0000000001
 40
0.0
 40
0.0
 40
0.0
 40
0.0
 40
0.1077369885349273
 40
0.2022889862422632
 40
0.2802861957235449
 40
0.3395784322580087
 40
0.3932164708556308
 40
0.447212394208664
 40
0.5061837015561532
 40
0.5701299109040306
 40
0.6462830266764195
 40
0.7413941431774406
 40
0.8535223416187929
 40
0.9775421693447632
 40
1.0
 40
1.0
 40
1.0
 40
1.0
 10
231.9630588724842
 20
325.6523265395066
 30
0.0
 10
231.8837159118659
 20
325.9143550267519
 30
0.0
 10
231.7635918364145
 20
326.332125514723
 30
0.0
 10
231.7210663449925
 20
326.9946583259047
 30
0.0
 10
231.7715988774964
 20
327.5271704991801
 30
0.0
 10
231.8720970034283
 20
327.9581204267264
 30
0.0
 10
232.0015611326768
 20
328.3217448240396
 30
0.0
 10
232.1698371069239
 20
328.6686907911851
 30
0.0
 10
232.3889518597633
 20
329.0150779644873
 30
0.0
 10
232.6857932532312
 20
329.3679622370832
 30
0.0
 10
233.0737394047562
 20
329.7487377242659
 30
0.0
 10
233.5744644656978
 20
330.1740332006998
 30
0.0
 10
234.1958357291883
 20
330.6101444447796
 30
0.0
 10
234.7228593039082
 20
330.9344982799869
 30
0.0
 10
235.0135050970848
 20
331.0663618840353
 30
0.0
 10
235.0654853551563
 20
331.0898697465199
 30
0.0
  0
ARC
  5
12C
330
DE
100
AcDbEntity
  8
36176000_WANDV.Z
  6
Continuous
 62
     7
100
AcDbCircle
 10
194.3998146672
 20
325.9593483945
 30
0.0
 40
5.501567287131541
100
AcDbArc
 50
23.5796074118
 51
86.4201990484
  0
LINE
  5
12D
330
DE
100
AcDbEntity
  8
36176000_WANDV.Z
  6
Continuous
 62
     7
100
AcDbLine
 10
118.5627108774
 20
331.45
 30
0.0
 11
194.7434741224
 21
331.45
 31
0.0
  0
LINE
  5
12E
330
DE
100
AcDbEntity
  8
36176000_WANDV.Z
  6
Continuous
 62
     7
100
AcDbLine
 10
235.0627108774
 20
367.65
 30
0.0
 11
118.5627108774
 21
367.65
 31
0.0
  0
LINE
  5
12F
330
DE
100
AcDbEntity
  8
36176000_WANDV.Z
  6
Continuous
 62
     7
100
AcDbLine
 10
199.4420291828
 20
328.1601006969
 30
0.0
 11
206.6082754587
 21
308.4710008716
 31
0.0
  0
LINE
  5
130
330
DE
100
AcDbEntity
  8
36176000_WANDV.Z
  6
Continuous
 62
     7
100
AcDbLine
 10
234.5171462961
 20
318.6289991284
 30
0.0
 11
231.9611341855
 21
325.6515846861
 31
0.0
  0
ENDBLK
  5
132
330
DE
100
AcDbEntity
  8
0
100
AcDbBlockEnd
  0
ENDSEC
  0
SECTION
  2
ENTITIES
  0
INSERT
  5
5F
330
1F
100
AcDbEntity
  8
Default
100
AcDbBlockReference
  2
SEANNOT_GROUP
 10
0.0
 20
0.0
 30
0.0
  0
INSERT
  5
66
330
1F
100
AcDbEntity
  8
Default
100
AcDbBlockReference
  2
SEANNOT_GROUP1
 10
0.0
 20
0.0
 30
0.0
  0
INSERT
  5
6C
330
1F
100
AcDbEntity
  8
Default
100
AcDbBlockReference
  2
SEANNOT_GROUP2
 10
0.0
 20
0.0
 30
0.0
  0
INSERT
  5
76
330
1F
100
AcDbEntity
  8
Default
100
AcDbBlockReference
  2
SE
 10
0.0
 20
0.0
 30
0.0
  0
INSERT
  5
A5
330
1F
100
AcDbEntity
  8
Default
100
AcDbBlockReference
  2
SE1
 10
0.0
 20
0.0
 30
0.0
  0
INSERT
  5
DF
330
1F
100
AcDbEntity
  8
Default
100
AcDbBlockReference
  2
SE2
 10
0.0
 20
0.0
 30
0.0
  0
TEXT
  5
134
330
1F
100
AcDbEntity
  8
Default
  6
Continuous
 62
     7
100
AcDbText
 10
5.9362635081
 20
53.4225120485
 30
0.0
 40
10.0
  1
Grohe AG^J
  7
SEACAD_seiso_ttf
 11
5.9362635081
 21
63.4225120485
 31
0.0
100
AcDbText
 73
     3
  0
TEXT
  5
135
330
1F
100
AcDbEntity
  8
Default
  6
Continuous
 62
     7
100
AcDbText
 10
5.9362635081
 20
37.0588756849
 30
0.0
 40
10.0
  1
 
  7
SEACAD_seiso_ttf
 11
5.9362635081
 21
47.0588756849
 31
0.0
100
AcDbText
 73
     3
  0
TEXT
  5
136
330
1F
100
AcDbEntity
  8
Default
  6
Continuous
 62
     7
100
AcDbText
 10
5.9362635081
 20
20.6952393213
 30
0.0
 40
10.0
  1
ecn: 
  7
SEACAD_seiso_ttf
 11
5.9362635081
 21
30.6952393213
 31
0.0
100
AcDbText
 73
     3
  0
TEXT
  5
137
330
1F
100
AcDbEntity
  8
Default
  6
Continuous
 62
     7
100
AcDbText
 10
5.9362635081
 20
4.3316029576
 30
0.0
 40
10.0
  1
unit: mm
  7
SEACAD_seiso_ttf
 11
5.9362635081
 21
14.3316029576
 31
0.0
100
AcDbText
 73
     3
  0
LINE
  5
138
330
1F
100
AcDbEntity
  8
Default
  6
Continuous
 62
     7
100
AcDbLine
 10
0.0
 20
0.0
 30
0.0
 11
100.0
 21
0.0
 31
0.0
  0
LINE
  5
139
330
1F
100
AcDbEntity
  8
Default
  6
Continuous
 62
     7
100
AcDbLine
 10
0.0
 20
0.0
 30
0.0
 11
0.0
 21
100.0
 31
0.0
  0
TEXT
  5
13A
330
1F
100
AcDbEntity
  8
Default
  6
Continuous
 62
     7
100
AcDbText
 10
24.3923665681
 20
-18.2375342018
 30
0.0
 40
10.0
  1
100 mm
  7
SEACAD_seiso_ttf
 11
24.3923665681
 21
-8.2375342018
 31
0.0
100
AcDbText
 73
     3
  0
TEXT
  5
13B
330
1F
100
AcDbEntity
  8
Default
  6
Continuous
 62
     7
100
AcDbText
 10
-7.6150308803
 20
24.6231930421
 30
0.0
 40
10.0
  1
100 mm
 50
90.0
  7
SEACAD_seiso_ttf
 11
-17.6150308803
 21
24.6231930421
 31
0.0
100
AcDbText
 73
     3
  0
TEXT
  5
13C
330
1F
100
AcDbEntity
  8
Default
  6
Continuous
 62
     7
100
AcDbText
 10
28.4878128572
 20
20.0907663715
 30
0.0
 40
10.0
  1
210379
  7
SEACAD_seiso_ttf
 11
28.4878128572
 21
30.0907663715
 31
0.0
100
AcDbText
 73
     3
  0
TEXT
  5
13D
330
1F
100
AcDbEntity
  8
Default
  6
Continuous
 62
     7
100
AcDbText
 10
5.9012241913
 20
36.7242780188
 30
0.0
 40
10.0
  1
36176000
  7
SEACAD_seiso_ttf
 11
5.9012241913
 21
46.7242780188
 31
0.0
100
AcDbText
 73
     3
  0
ENDSEC
  0
SECTION
  2
OBJECTS
  0
DICTIONARY
  5
C
330
0
100
AcDbDictionary
281
     1
  3
ACAD_GROUP
350
D
  3
ACAD_LAYOUT
350
1A
  3
ACAD_MLEADERSTYLE
350
141
  3
ACAD_MLINESTYLE
350
17
  3
ACAD_PLOTSETTINGS
350
19
  3
ACAD_PLOTSTYLENAME
350
E
  3
ACAD_SCALELIST
350
3B
  3
ACAD_TABLESTYLE
350
140
  3
ACAD_VISUALSTYLE
350
2A
  3
AcDbVariableDictionary
350
13E
  0
DICTIONARY
  5
D
102
{ACAD_REACTORS
330
C
102
}
330
C
100
AcDbDictionary
281
     1
  0
DICTIONARY
  5
1A
102
{ACAD_REACTORS
330
C
102
}
330
C
100
AcDbDictionary
281
     1
  3
Layout1
350
1E
  3
Model
350
22
  0
DICTIONARY
  5
141
102
{ACAD_REACTORS
330
C
102
}
330
C
100
AcDbDictionary
281
     1
  0
DICTIONARY
  5
17
102
{ACAD_REACTORS
330
C
102
}
330
C
100
AcDbDictionary
281
     1
  3
Standard
350
18
  0
DICTIONARY
  5
19
102
{ACAD_REACTORS
330
C
102
}
330
C
100
AcDbDictionary
281
     1
  0
ACDBDICTIONARYWDFLT
  5
E
102
{ACAD_REACTORS
330
C
102
}
330
C
100
AcDbDictionary
281
     1
  3
Normal
350
F
100
AcDbDictionaryWithDefault
340
F
  0
DICTIONARY
  5
3B
102
{ACAD_REACTORS
330
C
102
}
330
C
100
AcDbDictionary
281
     1
  3
A0
350
3C
  3
A1
350
3D
  3
A2
350
3E
  3
A3
350
3F
  3
A4
350
40
  3
A5
350
41
  3
A6
350
42
  3
A7
350
43
  3
A8
350
44
  3
A9
350
45
  3
B0
350
46
  3
B1
350
47
  3
B2
350
48
  3
B3
350
49
  3
B4
350
4A
  3
B5
350
4B
  3
B6
350
4C
  3
B7
350
4D
  3
B8
350
4E
  3
B9
350
4F
  3
C0
350
50
  3
C1
350
51
  3
C2
350
52
  3
C3
350
53
  3
C4
350
54
  3
C5
350
55
  3
C6
350
56
  3
C7
350
57
  3
C8
350
58
  3
C9
350
59
  3
D0
350
5A
  3
D1
350
5B
  3
D2
350
5C
  0
DICTIONARY
  5
140
102
{ACAD_REACTORS
330
C
102
}
330
C
100
AcDbDictionary
281
     1
  0
DICTIONARY
  5
2A
102
{ACAD_REACTORS
330
C
102
}
330
C
100
AcDbDictionary
281
     1
  3
2dWireframe
350
2F
  3
3D Hidden
350
31
  3
3dWireframe
350
30
  3
Basic
350
32
  3
Brighten
350
36
  3
ColorChange
350
3A
  3
Conceptual
350
34
  3
Dim
350
35
  3
Facepattern
350
39
  3
Flat
350
2B
  3
FlatWithEdges
350
2C
  3
Gouraud
350
2D
  3
GouraudWithEdges
350
2E
  3
Linepattern
350
38
  3
Realistic
350
33
  3
Thicken
350
37
  0
DICTIONARY
  5
13E
102
{ACAD_REACTORS
330
C
102
}
330
C
100
AcDbDictionary
281
     1
  3
CANNOSCALE
350
13F
  3
PSOLHEIGHT
350
143
  3
PSOLWIDTH
350
142
  0
LAYOUT
  5
1E
102
{ACAD_REACTORS
330
1A
102
}
330
1A
100
AcDbPlotSettings
  1

  2
none_device
  4

  6

 40
0.0
 41
0.0
 42
0.0
 43
0.0
 44
0.0
 45
0.0
 46
0.0
 47
0.0
 48
0.0
 49
0.0
140
0.0
141
0.0
142
1.0
143
1.0
 70
   688
 72
     0
 73
     0
 74
     5
  7

 75
    16
147
1.0
148
0.0
149
0.0
100
AcDbLayout
  1
Layout1
 70
     1
 71
     1
 10
0.0
 20
0.0
 11
1682.0
 21
2378.0
 12
0.0
 22
0.0
 32
0.0
 14
0.0
 24
0.0
 34
0.0
 15
1682.0
 25
2378.0
 35
0.0
146
0.0
 13
0.0
 23
0.0
 33
0.0
 16
1.0
 26
0.0
 36
0.0
 17
0.0
 27
1.0
 37
0.0
 76
     0
330
1B
  0
LAYOUT
  5
22
102
{ACAD_REACTORS
330
1A
102
}
330
1A
100
AcDbPlotSettings
  1

  2
none_device
  4

  6

 40
0.0
 41
0.0
 42
0.0
 43
0.0
 44
0.0
 45
0.0
 46
0.0
 47
0.0
 48
0.0
 49
0.0
140
0.0
141
0.0
142
1.0
143
1.0
 70
  1712
 72
     0
 73
     0
 74
     0
  7

 75
     0
147
1.0
148
0.0
149
0.0
100
AcDbLayout
  1
Model
 70
     1
 71
     0
 10
0.0
 20
0.0
 11
1682.0
 21
2378.0
 12
0.0
 22
0.0
 32
0.0
 14
0.0
 24
0.0
 34
0.0
 15
1682.0
 25
2378.0
 35
0.0
146
0.0
 13
0.0
 23
0.0
 33
0.0
 16
1.0
 26
0.0
 36
0.0
 17
0.0
 27
1.0
 37
0.0
 76
     0
330
1F
331
29
  0
MLINESTYLE
  5
18
102
{ACAD_REACTORS
330
17
102
}
330
17
100
AcDbMlineStyle
  2
Standard
 70
     0
  3

 62
   256
 51
90.0
 52
90.0
 71
     2
 49
0.5
 62
   256
  6
BYLAYER
 49
-0.5
 62
   256
  6
BYLAYER
  0
ACDBPLACEHOLDER
  5
F
102
{ACAD_REACTORS
330
E
102
}
330
E
  0
SCALE
  5
3C
102
{ACAD_REACTORS
330
3B
102
}
330
3B
100
AcDbScale
 70
     0
300
1:1
140
1.0
141
1.0
290
     1
  0
SCALE
  5
3D
102
{ACAD_REACTORS
330
3B
102
}
330
3B
100
AcDbScale
 70
     0
300
1:2
140
1.0
141
2.0
290
     0
  0
SCALE
  5
3E
102
{ACAD_REACTORS
330
3B
102
}
330
3B
100
AcDbScale
 70
     0
300
1:4
140
1.0
141
4.0
290
     0
  0
SCALE
  5
3F
102
{ACAD_REACTORS
330
3B
102
}
330
3B
100
AcDbScale
 70
     0
300
1:5
140
1.0
141
5.0
290
     0
  0
SCALE
  5
40
102
{ACAD_REACTORS
330
3B
102
}
330
3B
100
AcDbScale
 70
     0
300
1:8
140
1.0
141
8.0
290
     0
  0
SCALE
  5
41
102
{ACAD_REACTORS
330
3B
102
}
330
3B
100
AcDbScale
 70
     0
300
1:10
140
1.0
141
10.0
290
     0
  0
SCALE
  5
42
102
{ACAD_REACTORS
330
3B
102
}
330
3B
100
AcDbScale
 70
     0
300
1:16
140
1.0
141
16.0
290
     0
  0
SCALE
  5
43
102
{ACAD_REACTORS
330
3B
102
}
330
3B
100
AcDbScale
 70
     0
300
1:20
140
1.0
141
20.0
290
     0
  0
SCALE
  5
44
102
{ACAD_REACTORS
330
3B
102
}
330
3B
100
AcDbScale
 70
     0
300
1:30
140
1.0
141
30.0
290
     0
  0
SCALE
  5
45
102
{ACAD_REACTORS
330
3B
102
}
330
3B
100
AcDbScale
 70
     0
300
1:40
140
1.0
141
40.0
290
     0
  0
SCALE
  5
46
102
{ACAD_REACTORS
330
3B
102
}
330
3B
100
AcDbScale
 70
     0
300
1:50
140
1.0
141
50.0
290
     0
  0
SCALE
  5
47
102
{ACAD_REACTORS
330
3B
102
}
330
3B
100
AcDbScale
 70
     0
300
1:100
140
1.0
141
100.0
290
     0
  0
SCALE
  5
48
102
{ACAD_REACTORS
330
3B
102
}
330
3B
100
AcDbScale
 70
     0
300
2:1
140
2.0
141
1.0
290
     0
  0
SCALE
  5
49
102
{ACAD_REACTORS
330
3B
102
}
330
3B
100
AcDbScale
 70
     0
300
4:1
140
4.0
141
1.0
290
     0
  0
SCALE
  5
4A
102
{ACAD_REACTORS
330
3B
102
}
330
3B
100
AcDbScale
 70
     0
300
8:1
140
8.0
141
1.0
290
     0
  0
SCALE
  5
4B
102
{ACAD_REACTORS
330
3B
102
}
330
3B
100
AcDbScale
 70
     0
300
10:1
140
10.0
141
1.0
290
     0
  0
SCALE
  5
4C
102
{ACAD_REACTORS
330
3B
102
}
330
3B
100
AcDbScale
 70
     0
300
100:1
140
100.0
141
1.0
290
     0
  0
SCALE
  5
4D
102
{ACAD_REACTORS
330
3B
102
}
330
3B
100
AcDbScale
 70
     0
300
1/128" = 1'-0"
140
0.0078125
141
12.0
290
     0
  0
SCALE
  5
4E
102
{ACAD_REACTORS
330
3B
102
}
330
3B
100
AcDbScale
 70
     0
300
1/64" = 1'-0"
140
0.015625
141
12.0
290
     0
  0
SCALE
  5
4F
102
{ACAD_REACTORS
330
3B
102
}
330
3B
100
AcDbScale
 70
     0
300
1/32" = 1'-0"
140
0.03125
141
12.0
290
     0
  0
SCALE
  5
50
102
{ACAD_REACTORS
330
3B
102
}
330
3B
100
AcDbScale
 70
     0
300
1/16" = 1'-0"
140
0.0625
141
12.0
290
     0
  0
SCALE
  5
51
102
{ACAD_REACTORS
330
3B
102
}
330
3B
100
AcDbScale
 70
     0
300
3/32" = 1'-0"
140
0.09375
141
12.0
290
     0
  0
SCALE
  5
52
102
{ACAD_REACTORS
330
3B
102
}
330
3B
100
AcDbScale
 70
     0
300
1/8" = 1'-0"
140
0.125
141
12.0
290
     0
  0
SCALE
  5
53
102
{ACAD_REACTORS
330
3B
102
}
330
3B
100
AcDbScale
 70
     0
300
3/16" = 1'-0"
140
0.1875
141
12.0
290
     0
  0
SCALE
  5
54
102
{ACAD_REACTORS
330
3B
102
}
330
3B
100
AcDbScale
 70
     0
300
1/4" = 1'-0"
140
0.25
141
12.0
290
     0
  0
SCALE
  5
55
102
{ACAD_REACTORS
330
3B
102
}
330
3B
100
AcDbScale
 70
     0
300
3/8" = 1'-0"
140
0.375
141
12.0
290
     0
  0
SCALE
  5
56
102
{ACAD_REACTORS
330
3B
102
}
330
3B
100
AcDbScale
 70
     0
300
1/2" = 1'-0"
140
0.5
141
12.0
290
     0
  0
SCALE
  5
57
102
{ACAD_REACTORS
330
3B
102
}
330
3B
100
AcDbScale
 70
     0
300
3/4" = 1'-0"
140
0.75
141
12.0
290
     0
  0
SCALE
  5
58
102
{ACAD_REACTORS
330
3B
102
}
330
3B
100
AcDbScale
 70
     0
300
1" = 1'-0"
140
1.0
141
12.0
290
     0
  0
SCALE
  5
59
102
{ACAD_REACTORS
330
3B
102
}
330
3B
100
AcDbScale
 70
     0
300
1-1/2" = 1'-0"
140
1.5
141
12.0
290
     0
  0
SCALE
  5
5A
102
{ACAD_REACTORS
330
3B
102
}
330
3B
100
AcDbScale
 70
     0
300
3" = 1'-0"
140
3.0
141
12.0
290
     0
  0
SCALE
  5
5B
102
{ACAD_REACTORS
330
3B
102
}
330
3B
100
AcDbScale
 70
     0
300
6" = 1'-0"
140
6.0
141
12.0
290
     0
  0
SCALE
  5
5C
102
{ACAD_REACTORS
330
3B
102
}
330
3B
100
AcDbScale
 70
     0
300
1'-0" = 1'-0"
140
12.0
141
12.0
290
     0
  0
VISUALSTYLE
  5
2F
102
{ACAD_REACTORS
330
2A
102
}
330
2A
100
AcDbVisualStyle
  2
2dWireframe
 70
     4
 71
     0
 72
     2
 73
     0
 90
        0
 40
-0.6
 41
-30.0
 62
     5
 63
     7
 74
     1
 91
        4
 64
     7
 65
   257
 75
     1
175
     1
 42
1.0
 92
        0
 66
   257
 43
1.0
 76
     1
 77
     6
 78
     2
 67
     7
 79
     5
170
     0
171
     0
290
     0
174
     0
 93
        1
 44
0.0
173
     0
291
     0
 45
0.0
1001
ACAD
1000
AcDbSavedByObjectVersion
1070
     0
  0
VISUALSTYLE
  5
31
102
{ACAD_REACTORS
330
2A
102
}
330
2A
100
AcDbVisualStyle
  2
3D Hidden
 70
     6
 71
     1
 72
     2
 73
     2
 90
        0
 40
-0.6
 41
-30.0
 62
     5
 63
     7
 74
     2
 91
        2
 64
     7
 65
   257
 75
     2
175
     1
 42
40.0
 92
        0
 66
   257
 43
1.0
 76
     1
 77
     6
 78
     2
 67
     7
 79
     3
170
     0
171
     0
290
     0
174
     0
 93
        1
 44
0.0
173
     0
291
     0
 45
0.0
1001
ACAD
1000
AcDbSavedByObjectVersion
1070
     0
  0
VISUALSTYLE
  5
30
102
{ACAD_REACTORS
330
2A
102
}
330
2A
100
AcDbVisualStyle
  2
3dWireframe
 70
     5
 71
     0
 72
     2
 73
     0
 90
        0
 40
-0.6
 41
-30.0
 62
     5
 63
     7
 74
     1
 91
        4
 64
     7
 65
   257
 75
     1
175
     1
 42
1.0
 92
        0
 66
   257
 43
1.0
 76
     1
 77
     6
 78
     2
 67
     7
 79
     5
170
     0
171
     0
290
     0
174
     0
 93
        1
 44
0.0
173
     0
291
     0
 45
0.0
1001
ACAD
1000
AcDbSavedByObjectVersion
1070
     0
  0
VISUALSTYLE
  5
32
102
{ACAD_REACTORS
330
2A
102
}
330
2A
100
AcDbVisualStyle
  2
Basic
 70
     7
 71
     1
 72
     0
 73
     1
 90
        0
 40
-0.6
 41
-30.0
 62
     5
 63
     7
 74
     0
 91
        4
 64
     7
 65
   257
 75
     1
175
     1
 42
1.0
 92
        8
 66
     7
 43
1.0
 76
     1
 77
     6
 78
     2
 67
     7
 79
     5
170
     0
171
     0
290
     0
174
     0
 93
        1
 44
0.0
173
     0
291
     1
 45
0.0
1001
ACAD
1000
AcDbSavedByObjectVersion
1070
     0
  0
VISUALSTYLE
  5
36
102
{ACAD_REACTORS
330
2A
102
}
330
2A
100
AcDbVisualStyle
  2
Brighten
 70
    12
 71
     2
 72
     2
 73
     0
 90
        0
 40
-0.6
 41
-30.0
 62
     5
 63
     7
 74
     1
 91
        4
 64
     7
 65
   257
 75
     1
175
     1
 42
1.0
 92
        8
 66
     7
 43
1.0
 76
     1
 77
     6
 78
     2
 67
     7
 79
     5
170
     0
171
     0
290
     0
174
     0
 93
        1
 44
50.0
173
     0
291
     1
 45
0.0
1001
ACAD
1000
AcDbSavedByObjectVersion
1070
     0
  0
VISUALSTYLE
  5
3A
102
{ACAD_REACTORS
330
2A
102
}
330
2A
100
AcDbVisualStyle
  2
ColorChange
 70
    16
 71
     2
 72
     2
 73
     3
 90
        0
 40
-0.6
 41
-30.0
 62
     5
 63
     8
 74
     1
 91
        4
 64
     7
 65
   257
 75
     1
175
     1
 42
1.0
 92
        8
 66
     8
 43
1.0
 76
     1
 77
     6
 78
     2
 67
     7
 79
     5
170
     0
171
     0
290
     0
174
     0
 93
        1
 44
0.0
173
     0
291
     1
 45
0.0
1001
ACAD
1000
AcDbSavedByObjectVersion
1070
     0
  0
VISUALSTYLE
  5
34
102
{ACAD_REACTORS
330
2A
102
}
330
2A
100
AcDbVisualStyle
  2
Conceptual
 70
     9
 71
     3
 72
     2
 73
     0
 90
        0
 40
-0.6
 41
-30.0
 62
     5
 63
     7
 74
     2
 91
        2
 64
     7
 65
   257
 75
     1
175
     1
 42
40.0
 92
        8
 66
     7
 43
1.0
 76
     1
 77
     6
 78
     2
 67
     7
 79
     3
170
     0
171
     0
290
     0
174
     0
 93
        1
 44
0.0
173
     0
291
     0
 45
0.0
1001
ACAD
1000
AcDbSavedByObjectVersion
1070
     0
  0
VISUALSTYLE
  5
35
102
{ACAD_REACTORS
330
2A
102
}
330
2A
100
AcDbVisualStyle
  2
Dim
 70
    11
 71
     2
 72
     2
 73
     0
 90
        0
 40
-0.6
 41
-30.0
 62
     5
 63
     7
 74
     1
 91
        4
 64
     7
 65
   257
 75
     1
175
     1
 42
1.0
 92
        8
 66
     7
 43
1.0
 76
     1
 77
     6
 78
     2
 67
     7
 79
     5
170
     0
171
     0
290
     0
174
     0
 93
        1
 44
-50.0
173
     0
291
     1
 45
0.0
1001
ACAD
1000
AcDbSavedByObjectVersion
1070
     0
  0
VISUALSTYLE
  5
39
102
{ACAD_REACTORS
330
2A
102
}
330
2A
100
AcDbVisualStyle
  2
Facepattern
 70
    15
 71
     2
 72
     2
 73
     0
 90
        0
 40
-0.6
 41
-30.0
 62
     5
 63
     7
 74
     1
 91
        4
 64
     7
 65
   257
 75
     1
175
     1
 42
1.0
 92
        8
 66
     7
 43
1.0
 76
     1
 77
     6
 78
     2
 67
     7
 79
     5
170
     0
171
     0
290
     0
174
     0
 93
        1
 44
0.0
173
     0
291
     1
 45
0.0
1001
ACAD
1000
AcDbSavedByObjectVersion
1070
     0
  0
VISUALSTYLE
  5
2B
102
{ACAD_REACTORS
330
2A
102
}
330
2A
100
AcDbVisualStyle
  2
Flat
 70
     0
 71
     2
 72
     1
 73
     1
 90
        2
 40
-0.6
 41
30.0
 62
     5
 63
     7
 74
     0
 91
        4
 64
     7
 65
   257
 75
     1
175
     1
 42
1.0
 92
        8
 66
     7
 43
1.0
 76
     1
 77
     6
 78
     2
 67
     7
 79
     5
170
     0
171
     0
290
     0
174
     0
 93
       13
 44
0.0
173
     0
291
     1
 45
0.0
1001
ACAD
1000
AcDbSavedByObjectVersion
1070
     0
  0
VISUALSTYLE
  5
2C
102
{ACAD_REACTORS
330
2A
102
}
330
2A
100
AcDbVisualStyle
  2
FlatWithEdges
 70
     1
 71
     2
 72
     1
 73
     1
 90
        2
 40
-0.6
 41
30.0
 62
     5
 63
     7
 74
     1
 91
        4
 64
     7
 65
   257
 75
     1
175
     1
 42
1.0
 92
        0
 66
   257
 43
1.0
 76
     1
 77
     6
 78
     2
 67
     7
 79
     5
170
     0
171
     0
290
     0
174
     0
 93
       13
 44
0.0
173
     0
291
     1
 45
0.0
1001
ACAD
1000
AcDbSavedByObjectVersion
1070
     0
  0
VISUALSTYLE
  5
2D
102
{ACAD_REACTORS
330
2A
102
}
330
2A
100
AcDbVisualStyle
  2
Gouraud
 70
     2
 71
     2
 72
     2
 73
     1
 90
        2
 40
-0.6
 41
30.0
 62
     5
 63
     7
 74
     0
 91
        4
 64
     7
 65
   257
 75
     1
175
     1
 42
1.0
 92
        0
 66
     7
 43
1.0
 76
     1
 77
     6
 78
     2
 67
     7
 79
     5
170
     0
171
     0
290
     0
174
     0
 93
       13
 44
0.0
173
     0
291
     1
 45
0.0
1001
ACAD
1000
AcDbSavedByObjectVersion
1070
     0
  0
VISUALSTYLE
  5
2E
102
{ACAD_REACTORS
330
2A
102
}
330
2A
100
AcDbVisualStyle
  2
GouraudWithEdges
 70
     3
 71
     2
 72
     2
 73
     1
 90
        2
 40
-0.6
 41
30.0
 62
     5
 63
     7
 74
     1
 91
        4
 64
     7
 65
   257
 75
     1
175
     1
 42
1.0
 92
        0
 66
   257
 43
1.0
 76
     1
 77
     6
 78
     2
 67
     7
 79
     5
170
     0
171
     0
290
     0
174
     0
 93
       13
 44
0.0
173
     0
291
     1
 45
0.0
1001
ACAD
1000
AcDbSavedByObjectVersion
1070
     0
  0
VISUALSTYLE
  5
38
102
{ACAD_REACTORS
330
2A
102
}
330
2A
100
AcDbVisualStyle
  2
Linepattern
 70
    14
 71
     2
 72
     2
 73
     0
 90
        0
 40
-0.6
 41
-30.0
 62
     5
 63
     7
 74
     1
 91
        4
 64
     7
 65
   257
 75
     7
175
     7
 42
1.0
 92
        8
 66
     7
 43
1.0
 76
     1
 77
     6
 78
     2
 67
     7
 79
     5
170
     0
171
     0
290
     0
174
     0
 93
        1
 44
0.0
173
     0
291
     1
 45
0.0
1001
ACAD
1000
AcDbSavedByObjectVersion
1070
     0
  0
VISUALSTYLE
  5
33
102
{ACAD_REACTORS
330
2A
102
}
330
2A
100
AcDbVisualStyle
  2
Realistic
 70
     8
 71
     2
 72
     2
 73
     0
 90
        0
 40
-0.6
 41
-30.0
 62
     5
 63
     7
 74
     1
 91
        0
 64
     7
 65
   257
 75
     1
175
     1
 42
1.0
 92
        8
 66
     8
 43
1.0
 76
     1
 77
     6
 78
     2
 67
     7
 79
     5
170
     0
171
     0
290
     0
174
     0
 93
       13
 44
0.0
173
     0
291
     0
 45
0.0
1001
ACAD
1000
AcDbSavedByObjectVersion
1070
     0
  0
VISUALSTYLE
  5
37
102
{ACAD_REACTORS
330
2A
102
}
330
2A
100
AcDbVisualStyle
  2
Thicken
 70
    13
 71
     2
 72
     2
 73
     0
 90
        0
 40
-0.6
 41
-30.0
 62
     5
 63
     7
 74
     1
 91
        4
 64
     7
 65
   257
 75
     1
175
     1
 42
1.0
 92
       12
 66
     7
 43
1.0
 76
     1
 77
     6
 78
     2
 67
     7
 79
     5
170
     0
171
     0
290
     0
174
     0
 93
        1
 44
0.0
173
     0
291
     1
 45
0.0
1001
ACAD
1000
AcDbSavedByObjectVersion
1070
     0
  0
DICTIONARYVAR
  5
13F
102
{ACAD_REACTORS
330
13E
102
}
330
13E
100
DictionaryVariables
280
     0
  1
1:1
  0
DICTIONARYVAR
  5
143
102
{ACAD_REACTORS
330
13E
102
}
330
13E
100
DictionaryVariables
280
     0
  1
80.000000
  0
DICTIONARYVAR
  5
142
102
{ACAD_REACTORS
330
13E
102
}
330
13E
100
DictionaryVariables
280
     0
  1
5.000000
  0
ENDSEC
  0
EOF
