  0
SECTION
  2
HEADER
  9
$ACADVER
  1
AC1009
  9
$DWGCODEPAGE
  3
ansi_1252
  9
$INSBASE
 10
0.0
 20
0.0
 30
0.0
  9
$EXTMIN
 10
1.000000000000000E+20
 20
1.000000000000000E+20
 30
1.000000000000000E+20
  9
$EXTMAX
 10
-1.000000000000000E+20
 20
-1.000000000000000E+20
 30
-1.000000000000000E+20
  9
$LIMMIN
 10
0.0
 20
0.0
  9
$LIMMAX
 10
12.0
 20
9.0
  9
$ORTHOMODE
 70
     0
  9
$REGENMODE
 70
     1
  9
$FILLMODE
 70
     1
  9
$QTEXTMODE
 70
     0
  9
$MIRRTEXT
 70
     1
  9
$DRAGMODE
 70
     2
  9
$LTSCALE
 40
1.0
  9
$OSMODE
 70
    37
  9
$ATTMODE
 70
     1
  9
$TEXTSIZE
 40
0.2
  9
$TRACEWID
 40
0.05
  9
$TEXTSTYLE
  7
STANDARD
  9
$CLAYER
  8
0
  9
$CELTYPE
  6
BYLAYER
  9
$CECOLOR
 62
   256
  9
$DIMSCALE
 40
1.0
  9
$DIMASZ
 40
0.18
  9
$DIMEXO
 40
0.0625
  9
$DIMDLI
 40
0.38
  9
$DIMRND
 40
0.0
  9
$DIMDLE
 40
0.0
  9
$DIMEXE
 40
0.18
  9
$DIMTP
 40
0.0
  9
$DIMTM
 40
0.0
  9
$DIMTXT
 40
0.18
  9
$DIMCEN
 40
0.09
  9
$DIMTSZ
 40
0.0
  9
$DIMTOL
 70
     0
  9
$DIMLIM
 70
     0
  9
$DIMTIH
 70
     1
  9
$DIMTOH
 70
     1
  9
$DIMSE1
 70
     0
  9
$DIMSE2
 70
     0
  9
$DIMTAD
 70
     0
  9
$DIMZIN
 70
     0
  9
$DIMBLK
  1

  9
$DIMASO
 70
     1
  9
$DIMSHO
 70
     1
  9
$DIMPOST
  1

  9
$DIMAPOST
  1

  9
$DIMALT
 70
     0
  9
$DIMALTD
 70
     2
  9
$DIMALTF
 40
25.4
  9
$DIMLFAC
 40
1.0
  9
$DIMTOFL
 70
     0
  9
$DIMTVP
 40
0.0
  9
$DIMTIX
 70
     0
  9
$DIMSOXD
 70
     0
  9
$DIMSAH
 70
     0
  9
$DIMBLK1
  1

  9
$DIMBLK2
  1

  9
$DIMSTYLE
  2
STANDARD
  9
$DIMCLRD
 70
     0
  9
$DIMCLRE
 70
     0
  9
$DIMCLRT
 70
     0
  9
$DIMTFAC
 40
1.0
  9
$DIMGAP
 40
0.09
  9
$LUNITS
 70
     2
  9
$LUPREC
 70
     4
  9
$SKETCHINC
 40
0.1
  9
$FILLETRAD
 40
0.5
  9
$AUNITS
 70
     0
  9
$AUPREC
 70
     0
  9
$MENU
  1
.
  9
$ELEVATION
 40
0.0
  9
$PELEVATION
 40
0.0
  9
$THICKNESS
 40
0.0
  9
$LIMCHECK
 70
     0
  9
$CHAMFERA
 40
0.5
  9
$CHAMFERB
 40
0.5
  9
$SKPOLY
 70
     0
  9
$TDCREATE
 40
2455567.436776586
  9
$TDUPDATE
 40
2455567.436776586
  9
$TDINDWG
 40
0.0000000116
  9
$TDUSRTIMER
 40
0.0000000116
  9
$USRTIMER
 70
     1
  9
$ANGBASE
 50
0.0
  9
$ANGDIR
 70
     0
  9
$PDMODE
 70
     0
  9
$PDSIZE
 40
0.0
  9
$PLINEWID
 40
0.0
  9
$COORDS
 70
     1
  9
$SPLFRAME
 70
     0
  9
$SPLINETYPE
 70
     6
  9
$SPLINESEGS
 70
     8
  9
$ATTDIA
 70
     0
  9
$ATTREQ
 70
     1
  9
$HANDLING
 70
     1
  9
$HANDSEED
  5
846
  9
$SURFTAB1
 70
     6
  9
$SURFTAB2
 70
     6
  9
$SURFTYPE
 70
     6
  9
$SURFU
 70
     6
  9
$SURFV
 70
     6
  9
$UCSNAME
  2

  9
$UCSORG
 10
0.0
 20
0.0
 30
0.0
  9
$UCSXDIR
 10
1.0
 20
0.0
 30
0.0
  9
$UCSYDIR
 10
0.0
 20
1.0
 30
0.0
  9
$PUCSNAME
  2

  9
$PUCSORG
 10
0.0
 20
0.0
 30
0.0
  9
$PUCSXDIR
 10
1.0
 20
0.0
 30
0.0
  9
$PUCSYDIR
 10
0.0
 20
1.0
 30
0.0
  9
$USERI1
 70
     0
  9
$USERI2
 70
     0
  9
$USERI3
 70
     0
  9
$USERI4
 70
     0
  9
$USERI5
 70
     0
  9
$USERR1
 40
0.0
  9
$USERR2
 40
0.0
  9
$USERR3
 40
0.0
  9
$USERR4
 40
0.0
  9
$USERR5
 40
0.0
  9
$WORLDVIEW
 70
     1
  9
$SHADEDGE
 70
     3
  9
$SHADEDIF
 70
    70
  9
$TILEMODE
 70
     1
  9
$MAXACTVP
 70
    64
  9
$PLIMCHECK
 70
     0
  9
$PEXTMIN
 10
1.000000000000000E+20
 20
1.000000000000000E+20
 30
1.000000000000000E+20
  9
$PEXTMAX
 10
-1.000000000000000E+20
 20
-1.000000000000000E+20
 30
-1.000000000000000E+20
  9
$PLIMMIN
 10
0.0
 20
0.0
  9
$PLIMMAX
 10
12.0
 20
9.0
  9
$UNITMODE
 70
     0
  9
$VISRETAIN
 70
     1
  9
$PLINEGEN
 70
     0
  9
$PSLTSCALE
 70
     1
  0
ENDSEC
  0
SECTION
  2
TABLES
  0
TABLE
  2
VPORT
 70
     1
  0
VPORT
  2
*ACTIVE
 70
     0
 10
0.0
 20
0.0
 11
1.0
 21
1.0
 12
0.0
 22
0.0
 13
0.0
 23
0.0
 14
0.5
 24
0.5
 15
0.5
 25
0.5
 16
352.9591064453125
 26
-352.9591064453125
 36
352.9591064453125
 17
61.43798828125
 27
0.0
 37
1.25
 40
315.7818177301926
 41
1.972972972850329
 42
50.0
 43
0.0
 44
0.0
 50
0.0
 51
0.0
 71
     0
 72
   100
 73
     1
 74
     3
 75
     0
 76
     0
 77
     0
 78
     0
  0
ENDTAB
  0
TABLE
  2
LTYPE
 70
     1
  0
LTYPE
  2
CONTINUOUS
 70
     0
  3
Solid line
 72
    65
 73
     0
 40
0.0
  0
ENDTAB
  0
TABLE
  2
LAYER
 70
     2
  0
LAYER
  2
0
 70
     0
 62
     7
  6
CONTINUOUS
  0
LAYER
  2
LAYER_1
 70
     0
 62
     7
  6
CONTINUOUS
  0
ENDTAB
  0
TABLE
  2
STYLE
 70
     1
  0
STYLE
  2
STANDARD
 70
     0
 40
0.0
 41
1.0
 50
0.0
 71
     0
 42
0.2
  3
txt
  4

  0
ENDTAB
  0
TABLE
  2
VIEW
 70
     0
  0
ENDTAB
  0
TABLE
  2
UCS
 70
     0
  0
ENDTAB
  0
TABLE
  2
APPID
 70
     1
  0
APPID
  2
ACAD
 70
     0
  0
ENDTAB
  0
TABLE
  2
DIMSTYLE
 70
     1
  0
DIMSTYLE
  2
STANDARD
 70
     0
  3

  4

  5

  6

  7

 40
1.0
 41
0.18
 42
0.0625
 43
0.38
 44
0.18
 45
0.0
 46
0.0
 47
0.0
 48
0.0
140
0.18
141
0.09
142
0.0
143
25.4
144
1.0
145
0.0
146
1.0
147
0.09
 71
     0
 72
     0
 73
     1
 74
     1
 75
     0
 76
     0
 77
     0
 78
     0
170
     0
171
     2
172
     0
173
     0
174
     0
175
     0
176
     0
177
     0
178
     0
  0
ENDTAB
  0
ENDSEC
  0
SECTION
  2
BLOCKS
  0
BLOCK
  8
0
  2
$MODEL_SPACE
 70
     0
 10
0.0
 20
0.0
 30
0.0
  3
$MODEL_SPACE
  1

  0
ENDBLK
  5
21
  8
0
  0
BLOCK
 67
     1
  8
0
  2
$PAPER_SPACE
 70
     0
 10
0.0
 20
0.0
 30
0.0
  3
$PAPER_SPACE
  1

  0
ENDBLK
  5
1D
 67
     1
  8
0
  0
BLOCK
  8
0
  2
38
 70
     0
 10
0.0
 20
0.0
 30
0.0
  3
38
  1

  0
POLYLINE
  5
3C
  8
0
 62
     9
 66
     1
 10
0.0
 20
0.0
 30
0.0
 70
    64
 71
    75
 72
   122
  0
VERTEX
  5
3D
  8
0
 10
76.93187713623047
 20
-0.050025001168251
 30
-19.83799934387207
 70
   192
  0
VERTEX
  5
3E
  8
0
 10
77.19508361816406
 20
2.279278516769409
 30
-19.83799934387207
 70
   192
  0
VERTEX
  5
3F
  8
0
 10
77.00833892822266
 20
1.207926392555237
 30
-13.66199970245361
 70
   192
  0
VERTEX
  5
40
  8
0
 10
77.96537017822266
 20
4.494932174682617
 30
-19.83799934387207
 70
   192
  0
VERTEX
  5
41
  8
0
 10
77.61058807373047
 20
3.663200855255127
 30
-13.66199970245361
 70
   192
  0
VERTEX
  5
42
  8
0
 10
78.78272247314453
 20
5.905652523040771
 30
-13.66199970245361
 70
   192
  0
VERTEX
  5
43
  8
0
 10
79.21211242675781
 20
6.484085083007812
 30
-19.83799934387207
 70
   192
  0
VERTEX
  5
44
  8
0
 10
80.87210845947266
 20
8.144254684448242
 30
-19.83799934387207
 70
   192
  0
VERTEX
  5
45
  8
0
 10
80.45750427246094
 20
7.796035766601562
 30
-13.66199970245361
 70
   192
  0
VERTEX
  5
46
  8
0
 10
82.85948944091797
 20
9.393458366394043
 30
-19.83799934387207
 70
   192
  0
VERTEX
  5
47
  8
0
 10
82.5359878540039
 20
9.230645179748535
 30
-13.66199970245361
 70
   192
  0
VERTEX
  5
48
  8
0
 10
84.89826965332031
 20
10.1276159286499
 30
-13.66199970245361
 70
   192
  0
VERTEX
  5
49
  8
0
 10
85.0753173828125
 20
10.16978645324707
 30
-19.83799934387207
 70
   192
  0
VERTEX
  5
4A
  8
0
 10
87.40937805175781
 20
10.42747497558594
 30
-13.66199970245361
 70
   192
  0
VERTEX
  5
4B
  8
0
 10
87.40937805175781
 20
10.42747497558594
 30
-19.83799934387207
 70
   192
  0
VERTEX
  5
4C
  8
0
 10
77.01042175292969
 20
-1.319135546684265
 30
-13.66199970245361
 70
   192
  0
VERTEX
  5
4D
  8
0
 10
77.19916534423828
 20
-2.386943578720093
 30
-19.83799934387207
 70
   192
  0
VERTEX
  5
4E
  8
0
 10
77.62056732177734
 20
-3.769595623016357
 30
-13.66199970245361
 70
   192
  0
VERTEX
  5
4F
  8
0
 10
78.79778289794922
 20
-6.002707481384277
 30
-13.66199970245361
 70
   192
  0
VERTEX
  5
50
  8
0
 10
77.98057556152344
 20
-4.601343631744385
 30
-19.83799934387207
 70
   192
  0
VERTEX
  5
51
  8
0
 10
80.47404479980469
 20
-7.892684459686279
 30
-13.66199970245361
 70
   192
  0
VERTEX
  5
52
  8
0
 10
79.23101806640625
 20
-6.585030555725098
 30
-19.83799934387207
 70
   192
  0
VERTEX
  5
53
  8
0
 10
80.88876342773438
 20
-8.241384506225586
 30
-19.83799934387207
 70
   192
  0
VERTEX
  5
54
  8
0
 10
82.55120086669922
 20
-9.325170516967773
 30
-13.66199970245361
 70
   192
  0
VERTEX
  5
55
  8
0
 10
84.90892028808594
 20
-10.21914482116699
 30
-13.66199970245361
 70
   192
  0
VERTEX
  5
56
  8
0
 10
82.872802734375
 20
-9.486984252929688
 30
-19.83799934387207
 70
   192
  0
VERTEX
  5
57
  8
0
 10
87.40937805175781
 20
-10.52752494812012
 30
-13.66199970245361
 70
   192
  0
VERTEX
  5
58
  8
0
 10
85.0836410522461
 20
-10.26082229614258
 30
-19.83799934387207
 70
   192
  0
VERTEX
  5
59
  8
0
 10
87.40937805175781
 20
-10.52752494812012
 30
-19.83799934387207
 70
   192
  0
VERTEX
  5
5A
  8
0
 10
78.93579864501953
 20
-3.920168399810791
 30
-21.0
 70
   192
  0
VERTEX
  5
5B
  8
0
 10
78.19039154052734
 20
-1.381204128265381
 30
-21.0
 70
   192
  0
VERTEX
  5
5C
  8
0
 10
80.37287902832031
 20
-6.153587818145752
 30
-21.0
 70
   192
  0
VERTEX
  5
5D
  8
0
 10
82.373779296875
 20
-7.887001991271973
 30
-21.0
 70
   192
  0
VERTEX
  5
5E
  8
0
 10
84.78645324707031
 20
-8.98893928527832
 30
-21.0
 70
   192
  0
VERTEX
  5
5F
  8
0
 10
87.40937805175781
 20
-9.365525245666504
 30
-21.0
 70
   192
  0
VERTEX
  5
60
  8
0
 10
78.18867492675781
 20
1.274805784225464
 30
-21.0
 70
   192
  0
VERTEX
  5
61
  8
0
 10
78.9346923828125
 20
3.81723165512085
 30
-21.0
 70
   192
  0
VERTEX
  5
62
  8
0
 10
80.36846160888672
 20
6.048675537109375
 30
-21.0
 70
   192
  0
VERTEX
  5
63
  8
0
 10
82.37144470214844
 20
7.785306453704834
 30
-21.0
 70
   192
  0
VERTEX
  5
64
  8
0
 10
84.78486633300781
 20
8.887831687927246
 30
-21.0
 70
   192
  0
VERTEX
  5
65
  8
0
 10
87.40937805175781
 20
9.263776779174805
 30
-21.0
 70
   192
  0
VERTEX
  5
66
  8
0
 10
90.03398132324219
 20
8.888148307800293
 30
-21.0
 70
   192
  0
VERTEX
  5
67
  8
0
 10
92.44237518310547
 20
7.788053035736084
 30
-21.0
 70
   192
  0
VERTEX
  5
68
  8
0
 10
94.44976043701172
 20
6.050198554992676
 30
-21.0
 70
   192
  0
VERTEX
  5
69
  8
0
 10
95.88263702392578
 20
3.821230888366699
 30
-21.0
 70
   192
  0
VERTEX
  5
6A
  8
0
 10
96.62975311279297
 20
1.276604771614075
 30
-21.0
 70
   192
  0
VERTEX
  5
6B
  8
0
 10
96.63023376464844
 20
-1.372373461723328
 30
-21.0
 70
   192
  0
VERTEX
  5
6C
  8
0
 10
95.88309478759766
 20
-3.919596672058105
 30
-21.0
 70
   192
  0
VERTEX
  5
6D
  8
0
 10
90.0378646850586
 20
-8.9866304397583
 30
-21.0
 70
   192
  0
VERTEX
  5
6E
  8
0
 10
94.45276641845703
 20
-6.145115375518799
 30
-21.0
 70
   192
  0
VERTEX
  5
6F
  8
0
 10
92.445556640625
 20
-7.88693904876709
 30
-21.0
 70
   192
  0
VERTEX
  5
70
  8
0
 10
89.90982818603516
 20
-10.21914482116699
 30
-19.83799934387207
 70
   192
  0
VERTEX
  5
71
  8
0
 10
94.3447036743164
 20
-7.892684459686279
 30
-19.83799934387207
 70
   192
  0
VERTEX
  5
72
  8
0
 10
97.81040954589844
 20
1.207926392555237
 30
-19.83799934387207
 70
   192
  0
VERTEX
  5
73
  8
0
 10
97.19818115234375
 20
-3.769595623016357
 30
-19.83799934387207
 70
   192
  0
VERTEX
  5
74
  8
0
 10
94.36124420166016
 20
7.796035766601562
 30
-19.83799934387207
 70
   192
  0
VERTEX
  5
75
  8
0
 10
96.03602600097656
 20
5.905652523040771
 30
-19.83799934387207
 70
   192
  0
VERTEX
  5
76
  8
0
 10
97.20816040039062
 20
3.663200855255127
 30
-19.83799934387207
 70
   192
  0
VERTEX
  5
77
  8
0
 10
92.28276062011719
 20
9.230645179748535
 30
-19.83799934387207
 70
   192
  0
VERTEX
  5
78
  8
0
 10
89.92047882080078
 20
10.1276159286499
 30
-19.83799934387207
 70
   192
  0
VERTEX
  5
79
  8
0
 10
96.02096557617188
 20
-6.002707481384277
 30
-19.83799934387207
 70
   192
  0
VERTEX
  5
7A
  8
0
 10
97.80833435058594
 20
-1.319135546684265
 30
-19.83799934387207
 70
   192
  0
VERTEX
  5
7B
  8
0
 10
92.26754760742188
 20
-9.325170516967773
 30
-19.83799934387207
 70
   192
  0
VERTEX
  5
7C
  8
0
 10
89.90982818603516
 20
10.11909484863281
 30
-13.66199970245361
 70
   192
  0
VERTEX
  5
7D
  8
0
 10
96.02096557617188
 20
5.902657508850098
 30
-13.66199970245361
 70
   192
  0
VERTEX
  5
7E
  8
0
 10
92.26754760742188
 20
9.225120544433594
 30
-13.66199970245361
 70
   192
  0
VERTEX
  5
7F
  8
0
 10
97.81040954589844
 20
-1.307976365089417
 30
-13.66199970245361
 70
   192
  0
VERTEX
  5
80
  8
0
 10
97.19818115234375
 20
3.669545412063599
 30
-13.66199970245361
 70
   192
  0
VERTEX
  5
81
  8
0
 10
97.80833435058594
 20
1.219085454940796
 30
-13.66199970245361
 70
   192
  0
VERTEX
  5
82
  8
0
 10
96.03602600097656
 20
-6.005702495574951
 30
-13.66199970245361
 70
   192
  0
VERTEX
  5
83
  8
0
 10
97.20816040039062
 20
-3.763250827789307
 30
-13.66199970245361
 70
   192
  0
VERTEX
  5
84
  8
0
 10
92.28276062011719
 20
-9.330695152282715
 30
-13.66199970245361
 70
   192
  0
VERTEX
  5
85
  8
0
 10
94.36124420166016
 20
-7.896085739135742
 30
-13.66199970245361
 70
   192
  0
VERTEX
  5
86
  8
0
 10
89.92047882080078
 20
-10.22766590118408
 30
-13.66199970245361
 70
   192
  0
VERTEX
  5
87
  8
0
 10
94.3447036743164
 20
7.7926344871521
 30
-13.66199970245361
 70
   192
  0
VERTEX
  5
88
  8
0
 62
     9
 10
0.0
 20
0.0
 30
0.0
 70
   128
 71
     3
 72
     2
 73
     1
  0
VERTEX
  5
89
  8
0
 62
     9
 10
0.0
 20
0.0
 30
0.0
 70
   128
 71
     2
 72
     5
 73
     4
  0
VERTEX
  5
8A
  8
0
 62
     9
 10
0.0
 20
0.0
 30
0.0
 70
   128
 71
     5
 72
     2
 73
     3
  0
VERTEX
  5
8B
  8
0
 62
     9
 10
0.0
 20
0.0
 30
0.0
 70
   128
 71
     7
 72
     4
 73
     6
  0
VERTEX
  5
8C
  8
0
 62
     9
 10
0.0
 20
0.0
 30
0.0
 70
   128
 71
     5
 72
     6
 73
     4
  0
VERTEX
  5
8D
  8
0
 62
     9
 10
0.0
 20
0.0
 30
0.0
 70
   128
 71
     9
 72
     8
 73
     7
  0
VERTEX
  5
8E
  8
0
 62
     9
 10
0.0
 20
0.0
 30
0.0
 70
   128
 71
     7
 72
     6
 73
     9
  0
VERTEX
  5
8F
  8
0
 62
     9
 10
0.0
 20
0.0
 30
0.0
 70
   128
 71
     8
 72
    11
 73
    10
  0
VERTEX
  5
90
  8
0
 62
     9
 10
0.0
 20
0.0
 30
0.0
 70
   128
 71
    11
 72
     8
 73
     9
  0
VERTEX
  5
91
  8
0
 62
     9
 10
0.0
 20
0.0
 30
0.0
 70
   128
 71
    13
 72
    10
 73
    12
  0
VERTEX
  5
92
  8
0
 62
     9
 10
0.0
 20
0.0
 30
0.0
 70
   128
 71
    11
 72
    12
 73
    10
  0
VERTEX
  5
93
  8
0
 62
     9
 10
0.0
 20
0.0
 30
0.0
 70
   128
 71
    13
 72
    12
 73
    14
  0
VERTEX
  5
94
  8
0
 62
     9
 10
0.0
 20
0.0
 30
0.0
 70
   128
 71
    15
 72
    13
 73
    14
  0
VERTEX
  5
95
  8
0
 62
     9
 10
0.0
 20
0.0
 30
0.0
 70
   128
 71
     1
 72
    16
 73
     3
  0
VERTEX
  5
96
  8
0
 62
     9
 10
0.0
 20
0.0
 30
0.0
 70
   128
 71
    18
 72
    16
 73
    17
  0
VERTEX
  5
97
  8
0
 62
     9
 10
0.0
 20
0.0
 30
0.0
 70
   128
 71
     1
 72
    17
 73
    16
  0
VERTEX
  5
98
  8
0
 62
     9
 10
0.0
 20
0.0
 30
0.0
 70
   128
 71
    20
 72
    19
 73
    18
  0
VERTEX
  5
99
  8
0
 62
     9
 10
0.0
 20
0.0
 30
0.0
 70
   128
 71
    18
 72
    17
 73
    20
  0
VERTEX
  5
9A
  8
0
 62
     9
 10
0.0
 20
0.0
 30
0.0
 70
   128
 71
    19
 72
    22
 73
    21
  0
VERTEX
  5
9B
  8
0
 62
     9
 10
0.0
 20
0.0
 30
0.0
 70
   128
 71
    22
 72
    19
 73
    20
  0
VERTEX
  5
9C
  8
0
 62
     9
 10
0.0
 20
0.0
 30
0.0
 70
   128
 71
    24
 72
    21
 73
    23
  0
VERTEX
  5
9D
  8
0
 62
     9
 10
0.0
 20
0.0
 30
0.0
 70
   128
 71
    22
 72
    23
 73
    21
  0
VERTEX
  5
9E
  8
0
 62
     9
 10
0.0
 20
0.0
 30
0.0
 70
   128
 71
    26
 72
    25
 73
    24
  0
VERTEX
  5
9F
  8
0
 62
     9
 10
0.0
 20
0.0
 30
0.0
 70
   128
 71
    24
 72
    23
 73
    26
  0
VERTEX
  5
A0
  8
0
 62
     9
 10
0.0
 20
0.0
 30
0.0
 70
   128
 71
    25
 72
    28
 73
    27
  0
VERTEX
  5
A1
  8
0
 62
     9
 10
0.0
 20
0.0
 30
0.0
 70
   128
 71
    28
 72
    25
 73
    26
  0
VERTEX
  5
A2
  8
0
 62
     9
 10
0.0
 20
0.0
 30
0.0
 70
   128
 71
    28
 72
    29
 73
    27
  0
VERTEX
  5
A3
  8
0
 62
     9
 10
0.0
 20
0.0
 30
0.0
 70
   128
 71
    20
 72
    30
 73
    22
  0
VERTEX
  5
A4
  8
0
 62
     9
 10
0.0
 20
0.0
 30
0.0
 70
   128
 71
    30
 72
    17
 73
    31
  0
VERTEX
  5
A5
  8
0
 62
     9
 10
0.0
 20
0.0
 30
0.0
 70
   128
 71
    33
 72
    23
 73
    32
  0
VERTEX
  5
A6
  8
0
 62
     9
 10
0.0
 20
0.0
 30
0.0
 70
   128
 71
    30
 72
    32
 73
    22
  0
VERTEX
  5
A7
  8
0
 62
     9
 10
0.0
 20
0.0
 30
0.0
 70
   128
 71
    23
 72
    33
 73
    26
  0
VERTEX
  5
A8
  8
0
 62
     9
 10
0.0
 20
0.0
 30
0.0
 70
   128
 71
    22
 72
    32
 73
    23
  0
VERTEX
  5
A9
  8
0
 62
     9
 10
0.0
 20
0.0
 30
0.0
 70
   128
 71
    34
 72
    26
 73
    33
  0
VERTEX
  5
AA
  8
0
 62
     9
 10
0.0
 20
0.0
 30
0.0
 70
   128
 71
    28
 72
    34
 73
    35
  0
VERTEX
  5
AB
  8
0
 62
     9
 10
0.0
 20
0.0
 30
0.0
 70
   128
 71
    30
 72
    20
 73
    17
  0
VERTEX
  5
AC
  8
0
 62
     9
 10
0.0
 20
0.0
 30
0.0
 70
   128
 71
    29
 72
    28
 73
    35
  0
VERTEX
  5
AD
  8
0
 62
     9
 10
0.0
 20
0.0
 30
0.0
 70
   128
 71
    26
 72
    34
 73
    28
  0
VERTEX
  5
AE
  8
0
 62
     9
 10
0.0
 20
0.0
 30
0.0
 70
   128
 71
    36
 72
    31
 73
     1
  0
VERTEX
  5
AF
  8
0
 62
     9
 10
0.0
 20
0.0
 30
0.0
 70
   128
 71
    17
 72
     1
 73
    31
  0
VERTEX
  5
B0
  8
0
 62
     9
 10
0.0
 20
0.0
 30
0.0
 70
   128
 71
     2
 72
    37
 73
    36
  0
VERTEX
  5
B1
  8
0
 62
     9
 10
0.0
 20
0.0
 30
0.0
 70
   128
 71
    36
 72
     1
 73
     2
  0
VERTEX
  5
B2
  8
0
 62
     9
 10
0.0
 20
0.0
 30
0.0
 70
   128
 71
     4
 72
     7
 73
    37
  0
VERTEX
  5
B3
  8
0
 62
     9
 10
0.0
 20
0.0
 30
0.0
 70
   128
 71
     4
 72
    37
 73
     2
  0
VERTEX
  5
B4
  8
0
 62
     9
 10
0.0
 20
0.0
 30
0.0
 70
   128
 71
    38
 72
     7
 73
     8
  0
VERTEX
  5
B5
  8
0
 62
     9
 10
0.0
 20
0.0
 30
0.0
 70
   128
 71
     7
 72
    38
 73
    37
  0
VERTEX
  5
B6
  8
0
 62
     9
 10
0.0
 20
0.0
 30
0.0
 70
   128
 71
    10
 72
    39
 73
     8
  0
VERTEX
  5
B7
  8
0
 62
     9
 10
0.0
 20
0.0
 30
0.0
 70
   128
 71
    38
 72
     8
 73
    39
  0
VERTEX
  5
B8
  8
0
 62
     9
 10
0.0
 20
0.0
 30
0.0
 70
   128
 71
    10
 72
    13
 73
    40
  0
VERTEX
  5
B9
  8
0
 62
     9
 10
0.0
 20
0.0
 30
0.0
 70
   128
 71
    40
 72
    39
 73
    10
  0
VERTEX
  5
BA
  8
0
 62
     9
 10
0.0
 20
0.0
 30
0.0
 70
   128
 71
    13
 72
    41
 73
    40
  0
VERTEX
  5
BB
  8
0
 62
     9
 10
0.0
 20
0.0
 30
0.0
 70
   128
 71
    13
 72
    15
 73
    41
  0
VERTEX
  5
BC
  8
0
 62
     9
 10
0.0
 20
0.0
 30
0.0
 70
   128
 71
    30
 72
    31
 73
    42
  0
VERTEX
  5
BD
  8
0
 62
     9
 10
0.0
 20
0.0
 30
0.0
 70
   128
 71
    36
 72
    37
 73
    40
  0
VERTEX
  5
BE
  8
0
 62
     9
 10
0.0
 20
0.0
 30
0.0
 70
   128
 71
    38
 72
    39
 73
    37
  0
VERTEX
  5
BF
  8
0
 62
     9
 10
0.0
 20
0.0
 30
0.0
 70
   128
 71
    41
 72
    36
 73
    40
  0
VERTEX
  5
C0
  8
0
 62
     9
 10
0.0
 20
0.0
 30
0.0
 70
   128
 71
    31
 72
    36
 73
    41
  0
VERTEX
  5
C1
  8
0
 62
     9
 10
0.0
 20
0.0
 30
0.0
 70
   128
 71
    39
 72
    40
 73
    37
  0
VERTEX
  5
C2
  8
0
 62
     9
 10
0.0
 20
0.0
 30
0.0
 70
   128
 71
    31
 72
    41
 73
    42
  0
VERTEX
  5
C3
  8
0
 62
     9
 10
0.0
 20
0.0
 30
0.0
 70
   128
 71
    43
 72
    32
 73
    30
  0
VERTEX
  5
C4
  8
0
 62
     9
 10
0.0
 20
0.0
 30
0.0
 70
   128
 71
    42
 72
    43
 73
    30
  0
VERTEX
  5
C5
  8
0
 62
     9
 10
0.0
 20
0.0
 30
0.0
 70
   128
 71
    44
 72
    32
 73
    43
  0
VERTEX
  5
C6
  8
0
 62
     9
 10
0.0
 20
0.0
 30
0.0
 70
   128
 71
    44
 72
    33
 73
    32
  0
VERTEX
  5
C7
  8
0
 62
     9
 10
0.0
 20
0.0
 30
0.0
 70
   128
 71
    44
 72
    45
 73
    33
  0
VERTEX
  5
C8
  8
0
 62
     9
 10
0.0
 20
0.0
 30
0.0
 70
   128
 71
    45
 72
    46
 73
    34
  0
VERTEX
  5
C9
  8
0
 62
     9
 10
0.0
 20
0.0
 30
0.0
 70
   128
 71
    34
 72
    33
 73
    45
  0
VERTEX
  5
CA
  8
0
 62
     9
 10
0.0
 20
0.0
 30
0.0
 70
   128
 71
    35
 72
    46
 73
    47
  0
VERTEX
  5
CB
  8
0
 62
     9
 10
0.0
 20
0.0
 30
0.0
 70
   128
 71
    46
 72
    35
 73
    34
  0
VERTEX
  5
CC
  8
0
 62
     9
 10
0.0
 20
0.0
 30
0.0
 70
   128
 71
    49
 72
    47
 73
    48
  0
VERTEX
  5
CD
  8
0
 62
     9
 10
0.0
 20
0.0
 30
0.0
 70
   128
 71
    50
 72
    49
 73
    48
  0
VERTEX
  5
CE
  8
0
 62
     9
 10
0.0
 20
0.0
 30
0.0
 70
   128
 71
    49
 72
    35
 73
    47
  0
VERTEX
  5
CF
  8
0
 62
     9
 10
0.0
 20
0.0
 30
0.0
 70
   128
 71
    51
 72
    49
 73
    50
  0
VERTEX
  5
D0
  8
0
 62
     9
 10
0.0
 20
0.0
 30
0.0
 70
   128
 71
    35
 72
    49
 73
    52
  0
VERTEX
  5
D1
  8
0
 62
     9
 10
0.0
 20
0.0
 30
0.0
 70
   128
 71
    53
 72
    51
 73
    50
  0
VERTEX
  5
D2
  8
0
 62
     9
 10
0.0
 20
0.0
 30
0.0
 70
   128
 71
    46
 72
    54
 73
    47
  0
VERTEX
  5
D3
  8
0
 62
     9
 10
0.0
 20
0.0
 30
0.0
 70
   128
 71
    48
 72
    47
 73
    55
  0
VERTEX
  5
D4
  8
0
 62
     9
 10
0.0
 20
0.0
 30
0.0
 70
   128
 71
    56
 72
    44
 73
    43
  0
VERTEX
  5
D5
  8
0
 62
     9
 10
0.0
 20
0.0
 30
0.0
 70
   128
 71
    58
 72
    45
 73
    57
  0
VERTEX
  5
D6
  8
0
 62
     9
 10
0.0
 20
0.0
 30
0.0
 70
   128
 71
    42
 72
    59
 73
    43
  0
VERTEX
  5
D7
  8
0
 62
     9
 10
0.0
 20
0.0
 30
0.0
 70
   128
 71
    56
 72
    43
 73
    59
  0
VERTEX
  5
D8
  8
0
 62
     9
 10
0.0
 20
0.0
 30
0.0
 70
   128
 71
    42
 72
    41
 73
    60
  0
VERTEX
  5
D9
  8
0
 62
     9
 10
0.0
 20
0.0
 30
0.0
 70
   128
 71
    60
 72
    59
 73
    42
  0
VERTEX
  5
DA
  8
0
 62
     9
 10
0.0
 20
0.0
 30
0.0
 70
   128
 71
    57
 72
    44
 73
    56
  0
VERTEX
  5
DB
  8
0
 62
     9
 10
0.0
 20
0.0
 30
0.0
 70
   128
 71
    41
 72
    15
 73
    60
  0
VERTEX
  5
DC
  8
0
 62
     9
 10
0.0
 20
0.0
 30
0.0
 70
   128
 71
    61
 72
    48
 73
    55
  0
VERTEX
  5
DD
  8
0
 62
     9
 10
0.0
 20
0.0
 30
0.0
 70
   128
 71
    57
 72
    45
 73
    44
  0
VERTEX
  5
DE
  8
0
 62
     9
 10
0.0
 20
0.0
 30
0.0
 70
   128
 71
    54
 72
    46
 73
    58
  0
VERTEX
  5
DF
  8
0
 62
     9
 10
0.0
 20
0.0
 30
0.0
 70
   128
 71
    45
 72
    58
 73
    46
  0
VERTEX
  5
E0
  8
0
 62
     9
 10
0.0
 20
0.0
 30
0.0
 70
   128
 71
    47
 72
    54
 73
    62
  0
VERTEX
  5
E1
  8
0
 62
     9
 10
0.0
 20
0.0
 30
0.0
 70
   128
 71
    47
 72
    62
 73
    55
  0
VERTEX
  5
E2
  8
0
 62
     9
 10
0.0
 20
0.0
 30
0.0
 70
   128
 71
    50
 72
    48
 73
    61
  0
VERTEX
  5
E3
  8
0
 62
     9
 10
0.0
 20
0.0
 30
0.0
 70
   128
 71
    53
 72
    50
 73
    61
  0
VERTEX
  5
E4
  8
0
 62
     9
 10
0.0
 20
0.0
 30
0.0
 70
   128
 71
    63
 72
    49
 73
    51
  0
VERTEX
  5
E5
  8
0
 62
     9
 10
0.0
 20
0.0
 30
0.0
 70
   128
 71
    63
 72
    51
 73
    53
  0
VERTEX
  5
E6
  8
0
 62
     9
 10
0.0
 20
0.0
 30
0.0
 70
   128
 71
    52
 72
    29
 73
    35
  0
VERTEX
  5
E7
  8
0
 62
     9
 10
0.0
 20
0.0
 30
0.0
 70
   128
 71
    63
 72
    52
 73
    49
  0
VERTEX
  5
E8
  8
0
 62
     9
 10
0.0
 20
0.0
 30
0.0
 70
   128
 71
    14
 72
    64
 73
    60
  0
VERTEX
  5
E9
  8
0
 62
     9
 10
0.0
 20
0.0
 30
0.0
 70
   128
 71
    57
 72
    65
 73
    58
  0
VERTEX
  5
EA
  8
0
 62
     9
 10
0.0
 20
0.0
 30
0.0
 70
   128
 71
    56
 72
    59
 73
    66
  0
VERTEX
  5
EB
  8
0
 62
     9
 10
0.0
 20
0.0
 30
0.0
 70
   128
 71
    67
 72
    55
 73
    62
  0
VERTEX
  5
EC
  8
0
 62
     9
 10
0.0
 20
0.0
 30
0.0
 70
   128
 71
    69
 72
    54
 73
    68
  0
VERTEX
  5
ED
  8
0
 62
     9
 10
0.0
 20
0.0
 30
0.0
 70
   128
 71
    70
 72
    53
 73
    61
  0
VERTEX
  5
EE
  8
0
 62
     9
 10
0.0
 20
0.0
 30
0.0
 70
   128
 71
    61
 72
    55
 73
    71
  0
VERTEX
  5
EF
  8
0
 62
     9
 10
0.0
 20
0.0
 30
0.0
 70
   128
 71
    73
 72
    72
 73
    63
  0
VERTEX
  5
F0
  8
0
 62
     9
 10
0.0
 20
0.0
 30
0.0
 70
   128
 71
    63
 72
    53
 73
    73
  0
VERTEX
  5
F1
  8
0
 62
     9
 10
0.0
 20
0.0
 30
0.0
 70
   128
 71
    52
 72
    72
 73
    74
  0
VERTEX
  5
F2
  8
0
 62
     9
 10
0.0
 20
0.0
 30
0.0
 70
   128
 71
    72
 72
    52
 73
    63
  0
VERTEX
  5
F3
  8
0
 62
     9
 10
0.0
 20
0.0
 30
0.0
 70
   128
 71
    27
 72
    29
 73
    74
  0
VERTEX
  5
F4
  8
0
 62
     9
 10
0.0
 20
0.0
 30
0.0
 70
   128
 71
    52
 72
    74
 73
    29
  0
VERTEX
  5
F5
  8
0
 62
     9
 10
0.0
 20
0.0
 30
0.0
 70
   128
 71
    61
 72
    71
 73
    70
  0
VERTEX
  5
F6
  8
0
 62
     9
 10
0.0
 20
0.0
 30
0.0
 70
   128
 71
    73
 72
    53
 73
    70
  0
VERTEX
  5
F7
  8
0
 62
     9
 10
0.0
 20
0.0
 30
0.0
 70
   128
 71
    62
 72
    69
 73
    67
  0
VERTEX
  5
F8
  8
0
 62
     9
 10
0.0
 20
0.0
 30
0.0
 70
   128
 71
    71
 72
    55
 73
    67
  0
VERTEX
  5
F9
  8
0
 62
     9
 10
0.0
 20
0.0
 30
0.0
 70
   128
 71
    68
 72
    54
 73
    58
  0
VERTEX
  5
FA
  8
0
 62
     9
 10
0.0
 20
0.0
 30
0.0
 70
   128
 71
    69
 72
    62
 73
    54
  0
VERTEX
  5
FB
  8
0
 62
     9
 10
0.0
 20
0.0
 30
0.0
 70
   128
 71
    75
 72
    65
 73
    57
  0
VERTEX
  5
FC
  8
0
 62
     9
 10
0.0
 20
0.0
 30
0.0
 70
   128
 71
    65
 72
    68
 73
    58
  0
VERTEX
  5
FD
  8
0
 62
     9
 10
0.0
 20
0.0
 30
0.0
 70
   128
 71
    75
 72
    56
 73
    66
  0
VERTEX
  5
FE
  8
0
 62
     9
 10
0.0
 20
0.0
 30
0.0
 70
   128
 71
    56
 72
    75
 73
    57
  0
VERTEX
  5
FF
  8
0
 62
     9
 10
0.0
 20
0.0
 30
0.0
 70
   128
 71
    59
 72
    60
 73
    64
  0
VERTEX
  5
100
  8
0
 62
     9
 10
0.0
 20
0.0
 30
0.0
 70
   128
 71
    59
 72
    64
 73
    66
  0
VERTEX
  5
101
  8
0
 62
     9
 10
0.0
 20
0.0
 30
0.0
 70
   128
 71
    60
 72
    15
 73
    14
  0
SEQEND
  5
102
  8
0
 62
     9
  0
ENDBLK
  5
106
  8
0
  0
BLOCK
  8
0
  2
39
 70
     0
 10
0.0
 20
0.0
 30
0.0
  3
39
  1

  0
POLYLINE
  5
108
  8
0
 62
     9
 66
     1
 10
0.0
 20
0.0
 30
0.0
 70
    64
 71
    86
 72
   158
  0
VERTEX
  5
109
  8
0
 10
93.92355346679688
 20
-141.8847808837891
 30
-7.260160446166992
 70
   192
  0
VERTEX
  5
10A
  8
0
 10
95.84375
 20
-142.6999969482422
 30
-4.874999523162842
 70
   192
  0
VERTEX
  5
10B
  8
0
 10
118.9575119018555
 20
-142.4076995849609
 30
-20.34078598022461
 70
   192
  0
VERTEX
  5
10C
  8
0
 10
120.8083724975586
 20
-142.4021301269531
 30
-17.13499641418457
 70
   192
  0
VERTEX
  5
10D
  8
0
 10
117.4557495117188
 20
-140.2415313720703
 30
-22.9419116973877
 70
   192
  0
VERTEX
  5
10E
  8
0
 10
91.99555206298828
 20
-139.7366027832031
 30
-8.62448787689209
 70
   192
  0
VERTEX
  5
10F
  8
0
 10
116.8759536743164
 20
-136.6999969482422
 30
-23.94615173339844
 70
   192
  0
VERTEX
  5
110
  8
0
 10
91.05558776855469
 20
-136.6999969482422
 30
-9.038759231567383
 70
   192
  0
VERTEX
  5
111
  8
0
 10
96.9253158569336
 20
-141.8597106933594
 30
-1.976238608360291
 70
   192
  0
VERTEX
  5
112
  8
0
 10
97.1275634765625
 20
-139.7144317626953
 30
0.3787149786949158
 70
   192
  0
VERTEX
  5
113
  8
0
 10
122.3080368041992
 20
-140.2059783935547
 30
-14.53750991821289
 70
   192
  0
VERTEX
  5
114
  8
0
 10
122.8759536743164
 20
-136.6999969482422
 30
-13.55384731292725
 70
   192
  0
VERTEX
  5
115
  8
0
 10
97.05558776855469
 20
-136.6999969482422
 30
1.353545904159546
 70
   192
  0
VERTEX
  5
116
  8
0
 10
78.17073822021484
 20
-142.3835754394531
 30
-3.121553659439087
 70
   192
  0
VERTEX
  5
117
  8
0
 10
54.00560760498047
 20
-142.4076843261719
 30
-17.15921783447266
 70
   192
  0
VERTEX
  5
118
  8
0
 10
52.50384521484375
 20
-140.2415313720703
 30
-14.55809020996094
 70
   192
  0
VERTEX
  5
119
  8
0
 10
80.04352569580078
 20
-142.3989868164062
 30
-6.397024154663086
 70
   192
  0
VERTEX
  5
11A
  8
0
 10
51.92404556274414
 20
-136.6999969482422
 30
-13.55384731292725
 70
   192
  0
VERTEX
  5
11B
  8
0
 10
77.7444076538086
 20
-136.6999969482422
 30
1.353545904159546
 70
   192
  0
VERTEX
  5
11C
  8
0
 10
77.67058563232422
 20
-140.2234344482422
 30
-0.0062602874822915
 70
   192
  0
VERTEX
  5
11D
  8
0
 10
55.85646820068359
 20
-142.4021301269531
 30
-20.36499977111816
 70
   192
  0
VERTEX
  5
11E
  8
0
 10
82.46865844726562
 20
-140.2517242431641
 30
-8.429702758789062
 70
   192
  0
VERTEX
  5
11F
  8
0
 10
57.35612487792969
 20
-140.2059631347656
 30
-22.96248435974121
 70
   192
  0
VERTEX
  5
120
  8
0
 10
83.7444076538086
 20
-136.6999969482422
 30
-9.038759231567383
 70
   192
  0
VERTEX
  5
121
  8
0
 10
57.92404556274414
 20
-136.6999969482422
 30
-23.94615173339844
 70
   192
  0
VERTEX
  5
122
  8
0
 10
87.3712158203125
 20
-144.1999969482422
 30
-9.747148513793945
 70
   192
  0
VERTEX
  5
123
  8
0
 10
87.37545776367188
 20
-121.1999969482422
 30
-9.739961624145508
 70
   192
  0
VERTEX
  5
124
  8
0
 10
91.93578338623047
 20
-133.6856231689453
 30
-8.613683700561523
 70
   192
  0
VERTEX
  5
125
  8
0
 10
92.25945281982422
 20
-121.1999969482422
 30
-8.491003036499023
 70
   192
  0
VERTEX
  5
126
  8
0
 10
93.8741455078125
 20
-131.5402679443359
 30
-7.261045455932617
 70
   192
  0
VERTEX
  5
127
  8
0
 10
95.84375
 20
-121.1999969482422
 30
-4.875
 70
   192
  0
VERTEX
  5
128
  8
0
 10
95.84375
 20
-130.6999969482422
 30
-4.874999523162842
 70
   192
  0
VERTEX
  5
129
  8
0
 10
92.24079132080078
 20
-144.1999969482422
 30
-8.45535659790039
 70
   192
  0
VERTEX
  5
12A
  8
0
 10
82.5250015258789
 20
-144.1999969482422
 30
-8.443747520446777
 70
   192
  0
VERTEX
  5
12B
  8
0
 10
82.5250015258789
 20
-121.1999969482422
 30
-8.443747520446777
 70
   192
  0
VERTEX
  5
12C
  8
0
 10
82.4726333618164
 20
-133.1544342041016
 30
-8.431720733642578
 70
   192
  0
VERTEX
  5
12D
  8
0
 10
95.84375
 20
-144.1999969482422
 30
-4.875
 70
   192
  0
VERTEX
  5
12E
  8
0
 10
80.05489349365234
 20
-131.0058898925781
 30
-6.411022186279297
 70
   192
  0
VERTEX
  5
12F
  8
0
 10
78.96627044677734
 20
-121.1999969482422
 30
-4.802617073059082
 70
   192
  0
VERTEX
  5
130
  8
0
 10
78.1750259399414
 20
-131.01220703125
 30
-3.133930206298828
 70
   192
  0
VERTEX
  5
131
  8
0
 10
78.95625305175781
 20
-144.1999969482422
 30
4.875
 70
   192
  0
VERTEX
  5
132
  8
0
 10
77.6528549194336
 20
-144.1999969482422
 30
0.0287832971662283
 70
   192
  0
VERTEX
  5
133
  8
0
 10
77.67052459716797
 20
-133.1719818115234
 30
-0.009217195212841
 70
   192
  0
VERTEX
  5
134
  8
0
 10
77.6956787109375
 20
-121.1999969482422
 30
0.0511738620698452
 70
   192
  0
VERTEX
  5
135
  8
0
 10
78.95625305175781
 20
-121.1999969482422
 30
4.875
 70
   192
  0
VERTEX
  5
136
  8
0
 10
78.94464111328125
 20
-144.1999969482422
 30
-4.840790271759033
 70
   192
  0
VERTEX
  5
137
  8
0
 10
89.31128692626953
 20
-142.3835754394531
 30
9.553552627563477
 70
   192
  0
VERTEX
  5
138
  8
0
 10
89.23687744140625
 20
-142.4076843261719
 30
37.5
 70
   192
  0
VERTEX
  5
139
  8
0
 10
92.24040222167969
 20
-140.2415313720703
 30
37.5
 70
   192
  0
VERTEX
  5
13A
  8
0
 10
85.53825378417969
 20
-142.3989868164062
 30
9.569404602050781
 70
   192
  0
VERTEX
  5
13B
  8
0
 10
93.4000015258789
 20
-136.6999969482422
 30
37.5
 70
   192
  0
VERTEX
  5
13C
  8
0
 10
93.4000015258789
 20
-136.6999969482422
 30
7.685213088989258
 70
   192
  0
VERTEX
  5
13D
  8
0
 10
92.25928497314453
 20
-140.2234344482422
 30
8.429052352905273
 70
   192
  0
VERTEX
  5
13E
  8
0
 10
85.53515625
 20
-142.4021301269531
 30
37.5
 70
   192
  0
VERTEX
  5
13F
  8
0
 10
82.56533813476562
 20
-140.2517242431641
 30
8.48552131652832
 70
   192
  0
VERTEX
  5
140
  8
0
 10
82.53584289550781
 20
-140.2059631347656
 30
37.5
 70
   192
  0
VERTEX
  5
141
  8
0
 10
81.4000015258789
 20
-136.6999969482422
 30
7.685213088989258
 70
   192
  0
VERTEX
  5
142
  8
0
 10
81.4000015258789
 20
-136.6999969482422
 30
37.5
 70
   192
  0
VERTEX
  5
143
  8
0
 10
92.25768280029297
 20
-133.1442260742188
 30
37.5
 70
   192
  0
VERTEX
  5
144
  8
0
 10
85.52802276611328
 20
-131.0141296386719
 30
37.5
 70
   192
  0
VERTEX
  5
145
  8
0
 10
89.23534393310547
 20
-130.9971466064453
 30
37.5
 70
   192
  0
VERTEX
  5
146
  8
0
 10
82.5503158569336
 20
-133.22265625
 30
37.5
 70
   192
  0
VERTEX
  5
147
  8
0
 10
92.23682403564453
 20
-133.1510772705078
 30
8.484330177307129
 70
   192
  0
VERTEX
  5
148
  8
0
 10
85.48731994628906
 20
-131.0168914794922
 30
9.553278923034668
 70
   192
  0
VERTEX
  5
149
  8
0
 10
89.26310729980469
 20
-131.0018157958984
 30
9.568942070007324
 70
   192
  0
VERTEX
  5
14A
  8
0
 10
82.54033660888672
 20
-133.1770477294922
 30
8.428855895996094
 70
   192
  0
VERTEX
  5
14B
  8
0
 10
97.14717102050781
 20
-144.1999969482422
 30
-0.0287857353687286
 70
   192
  0
VERTEX
  5
14C
  8
0
 10
96.9490966796875
 20
-131.5150146484375
 30
-2.020024299621582
 70
   192
  0
VERTEX
  5
14D
  8
0
 10
97.1668701171875
 20
-133.6631927490234
 30
0.3321120738983154
 70
   192
  0
VERTEX
  5
14E
  8
0
 10
97.10432434082031
 20
-121.1999969482422
 30
-0.0511738620698452
 70
   192
  0
VERTEX
  5
14F
  8
0
 10
87.42454528808594
 20
-121.1999969482422
 30
9.739961624145508
 70
   192
  0
VERTEX
  5
150
  8
0
 10
82.5405502319336
 20
-121.1999969482422
 30
8.491003036499023
 70
   192
  0
VERTEX
  5
151
  8
0
 10
92.2750015258789
 20
-121.1999969482422
 30
8.443747520446777
 70
   192
  0
VERTEX
  5
152
  8
0
 10
82.5592041015625
 20
-144.1999969482422
 30
8.455363273620605
 70
   192
  0
VERTEX
  5
153
  8
0
 10
95.85536193847656
 20
-144.1999969482422
 30
4.840797424316406
 70
   192
  0
VERTEX
  5
154
  8
0
 10
95.83372497558594
 20
-121.1999969482422
 30
4.802617073059082
 70
   192
  0
VERTEX
  5
155
  8
0
 10
87.42878723144531
 20
-144.1999969482422
 30
9.747167587280273
 70
   192
  0
VERTEX
  5
156
  8
0
 10
92.2750015258789
 20
-144.1999969482422
 30
8.443747520446777
 70
   192
  0
VERTEX
  5
157
  8
0
 10
55.86003494262695
 20
-131.0141296386719
 30
-20.37117958068848
 70
   192
  0
VERTEX
  5
158
  8
0
 10
57.3488883972168
 20
-133.22265625
 30
-22.94994926452637
 70
   192
  0
VERTEX
  5
159
  8
0
 10
52.49520874023438
 20
-133.1442260742188
 30
-14.54312515258789
 70
   192
  0
VERTEX
  5
15A
  8
0
 10
54.00637817382812
 20
-130.9971466064453
 30
-17.16054916381836
 70
   192
  0
VERTEX
  5
15B
  8
0
 10
122.3007965087891
 20
-133.22265625
 30
-14.55004978179932
 70
   192
  0
VERTEX
  5
15C
  8
0
 10
120.8119430541992
 20
-131.0141296386719
 30
-17.12882041931152
 70
   192
  0
VERTEX
  5
15D
  8
0
 10
117.4471130371094
 20
-133.1442260742188
 30
-22.95687484741211
 70
   192
  0
VERTEX
  5
15E
  8
0
 10
118.9582824707031
 20
-130.9971466064453
 30
-20.33945083618164
 70
   192
  0
VERTEX
  5
15F
  8
0
 62
     9
 10
0.0
 20
0.0
 30
0.0
 70
   128
 71
     3
 72
     2
 73
     1
  0
VERTEX
  5
160
  8
0
 62
     9
 10
0.0
 20
0.0
 30
0.0
 70
   128
 71
     4
 72
     2
 73
     3
  0
VERTEX
  5
161
  8
0
 62
     9
 10
0.0
 20
0.0
 30
0.0
 70
   128
 71
     6
 72
     5
 73
     1
  0
VERTEX
  5
162
  8
0
 62
     9
 10
0.0
 20
0.0
 30
0.0
 70
   128
 71
     3
 72
     1
 73
     5
  0
VERTEX
  5
163
  8
0
 62
     9
 10
0.0
 20
0.0
 30
0.0
 70
   128
 71
     8
 72
     7
 73
     6
  0
VERTEX
  5
164
  8
0
 62
     9
 10
0.0
 20
0.0
 30
0.0
 70
   128
 71
     6
 72
     7
 73
     5
  0
VERTEX
  5
165
  8
0
 62
     9
 10
0.0
 20
0.0
 30
0.0
 70
   128
 71
     2
 72
     4
 73
     9
  0
VERTEX
  5
166
  8
0
 62
     9
 10
0.0
 20
0.0
 30
0.0
 70
   128
 71
    11
 72
    10
 73
     9
  0
VERTEX
  5
167
  8
0
 62
     9
 10
0.0
 20
0.0
 30
0.0
 70
   128
 71
     9
 72
     4
 73
    11
  0
VERTEX
  5
168
  8
0
 62
     9
 10
0.0
 20
0.0
 30
0.0
 70
   128
 71
    12
 72
    10
 73
    11
  0
VERTEX
  5
169
  8
0
 62
     9
 10
0.0
 20
0.0
 30
0.0
 70
   128
 71
    12
 72
    13
 73
    10
  0
VERTEX
  5
16A
  8
0
 62
     9
 10
0.0
 20
0.0
 30
0.0
 70
   128
 71
    16
 72
    15
 73
    14
  0
VERTEX
  5
16B
  8
0
 62
     9
 10
0.0
 20
0.0
 30
0.0
 70
   128
 71
    15
 72
    17
 73
    14
  0
VERTEX
  5
16C
  8
0
 62
     9
 10
0.0
 20
0.0
 30
0.0
 70
   128
 71
    20
 72
    19
 73
    18
  0
VERTEX
  5
16D
  8
0
 62
     9
 10
0.0
 20
0.0
 30
0.0
 70
   128
 71
    16
 72
    14
 73
    20
  0
VERTEX
  5
16E
  8
0
 62
     9
 10
0.0
 20
0.0
 30
0.0
 70
   128
 71
    20
 72
    18
 73
    16
  0
VERTEX
  5
16F
  8
0
 62
     9
 10
0.0
 20
0.0
 30
0.0
 70
   128
 71
    21
 72
    17
 73
    15
  0
VERTEX
  5
170
  8
0
 62
     9
 10
0.0
 20
0.0
 30
0.0
 70
   128
 71
    21
 72
    23
 73
    22
  0
VERTEX
  5
171
  8
0
 62
     9
 10
0.0
 20
0.0
 30
0.0
 70
   128
 71
    22
 72
    17
 73
    21
  0
VERTEX
  5
172
  8
0
 62
     9
 10
0.0
 20
0.0
 30
0.0
 70
   128
 71
    23
 72
    24
 73
    22
  0
VERTEX
  5
173
  8
0
 62
     9
 10
0.0
 20
0.0
 30
0.0
 70
   128
 71
    23
 72
    25
 73
    24
  0
VERTEX
  5
174
  8
0
 62
     9
 10
0.0
 20
0.0
 30
0.0
 70
   128
 71
    27
 72
     8
 73
    26
  0
VERTEX
  5
175
  8
0
 62
     9
 10
0.0
 20
0.0
 30
0.0
 70
   128
 71
     8
 72
    29
 73
    28
  0
VERTEX
  5
176
  8
0
 62
     9
 10
0.0
 20
0.0
 30
0.0
 70
   128
 71
    29
 72
     8
 73
    27
  0
VERTEX
  5
177
  8
0
 62
     9
 10
0.0
 20
0.0
 30
0.0
 70
   128
 71
    31
 72
    30
 73
    29
  0
VERTEX
  5
178
  8
0
 62
     9
 10
0.0
 20
0.0
 30
0.0
 70
   128
 71
    28
 72
    29
 73
    30
  0
VERTEX
  5
179
  8
0
 62
     9
 10
0.0
 20
0.0
 30
0.0
 70
   128
 71
    32
 72
    30
 73
    31
  0
VERTEX
  5
17A
  8
0
 62
     9
 10
0.0
 20
0.0
 30
0.0
 70
   128
 71
     8
 72
    33
 73
    26
  0
VERTEX
  5
17B
  8
0
 62
     9
 10
0.0
 20
0.0
 30
0.0
 70
   128
 71
     8
 72
     6
 73
    33
  0
VERTEX
  5
17C
  8
0
 62
     9
 10
0.0
 20
0.0
 30
0.0
 70
   128
 71
    26
 72
    34
 73
    24
  0
VERTEX
  5
17D
  8
0
 62
     9
 10
0.0
 20
0.0
 30
0.0
 70
   128
 71
    26
 72
    24
 73
    27
  0
VERTEX
  5
17E
  8
0
 62
     9
 10
0.0
 20
0.0
 30
0.0
 70
   128
 71
    33
 72
     6
 73
     1
  0
VERTEX
  5
17F
  8
0
 62
     9
 10
0.0
 20
0.0
 30
0.0
 70
   128
 71
    36
 72
    35
 73
    24
  0
VERTEX
  5
180
  8
0
 62
     9
 10
0.0
 20
0.0
 30
0.0
 70
   128
 71
    37
 72
     1
 73
     2
  0
VERTEX
  5
181
  8
0
 62
     9
 10
0.0
 20
0.0
 30
0.0
 70
   128
 71
    33
 72
     1
 73
    37
  0
VERTEX
  5
182
  8
0
 62
     9
 10
0.0
 20
0.0
 30
0.0
 70
   128
 71
    40
 72
    39
 73
    38
  0
VERTEX
  5
183
  8
0
 62
     9
 10
0.0
 20
0.0
 30
0.0
 70
   128
 71
    38
 72
    39
 73
    35
  0
VERTEX
  5
184
  8
0
 62
     9
 10
0.0
 20
0.0
 30
0.0
 70
   128
 71
    42
 72
    41
 73
    19
  0
VERTEX
  5
185
  8
0
 62
     9
 10
0.0
 20
0.0
 30
0.0
 70
   128
 71
    44
 72
    40
 73
    43
  0
VERTEX
  5
186
  8
0
 62
     9
 10
0.0
 20
0.0
 30
0.0
 70
   128
 71
    41
 72
    45
 73
    19
  0
VERTEX
  5
187
  8
0
 62
     9
 10
0.0
 20
0.0
 30
0.0
 70
   128
 71
    34
 72
    22
 73
    24
  0
VERTEX
  5
188
  8
0
 62
     9
 10
0.0
 20
0.0
 30
0.0
 70
   128
 71
    24
 72
    35
 73
    27
  0
VERTEX
  5
189
  8
0
 62
     9
 10
0.0
 20
0.0
 30
0.0
 70
   128
 71
    46
 72
    14
 73
    17
  0
VERTEX
  5
18A
  8
0
 62
     9
 10
0.0
 20
0.0
 30
0.0
 70
   128
 71
    36
 72
    38
 73
    35
  0
VERTEX
  5
18B
  8
0
 62
     9
 10
0.0
 20
0.0
 30
0.0
 70
   128
 71
    22
 72
    34
 73
    17
  0
VERTEX
  5
18C
  8
0
 62
     9
 10
0.0
 20
0.0
 30
0.0
 70
   128
 71
    14
 72
    42
 73
    20
  0
VERTEX
  5
18D
  8
0
 62
     9
 10
0.0
 20
0.0
 30
0.0
 70
   128
 71
    39
 72
    40
 73
    44
  0
VERTEX
  5
18E
  8
0
 62
     9
 10
0.0
 20
0.0
 30
0.0
 70
   128
 71
    19
 72
    20
 73
    42
  0
VERTEX
  5
18F
  8
0
 62
     9
 10
0.0
 20
0.0
 30
0.0
 70
   128
 71
    44
 72
    19
 73
    45
  0
VERTEX
  5
190
  8
0
 62
     9
 10
0.0
 20
0.0
 30
0.0
 70
   128
 71
    19
 72
    44
 73
    43
  0
VERTEX
  5
191
  8
0
 62
     9
 10
0.0
 20
0.0
 30
0.0
 70
   128
 71
    42
 72
    14
 73
    46
  0
VERTEX
  5
192
  8
0
 62
     9
 10
0.0
 20
0.0
 30
0.0
 70
   128
 71
    46
 72
    17
 73
    34
  0
VERTEX
  5
193
  8
0
 62
     9
 10
0.0
 20
0.0
 30
0.0
 70
   128
 71
    49
 72
    48
 73
    47
  0
VERTEX
  5
194
  8
0
 62
     9
 10
0.0
 20
0.0
 30
0.0
 70
   128
 71
    48
 72
    50
 73
    47
  0
VERTEX
  5
195
  8
0
 62
     9
 10
0.0
 20
0.0
 30
0.0
 70
   128
 71
    53
 72
    52
 73
    51
  0
VERTEX
  5
196
  8
0
 62
     9
 10
0.0
 20
0.0
 30
0.0
 70
   128
 71
    49
 72
    47
 73
    53
  0
VERTEX
  5
197
  8
0
 62
     9
 10
0.0
 20
0.0
 30
0.0
 70
   128
 71
    53
 72
    51
 73
    49
  0
VERTEX
  5
198
  8
0
 62
     9
 10
0.0
 20
0.0
 30
0.0
 70
   128
 71
    54
 72
    50
 73
    48
  0
VERTEX
  5
199
  8
0
 62
     9
 10
0.0
 20
0.0
 30
0.0
 70
   128
 71
    54
 72
    56
 73
    55
  0
VERTEX
  5
19A
  8
0
 62
     9
 10
0.0
 20
0.0
 30
0.0
 70
   128
 71
    55
 72
    50
 73
    54
  0
VERTEX
  5
19B
  8
0
 62
     9
 10
0.0
 20
0.0
 30
0.0
 70
   128
 71
    56
 72
    57
 73
    55
  0
VERTEX
  5
19C
  8
0
 62
     9
 10
0.0
 20
0.0
 30
0.0
 70
   128
 71
    56
 72
    58
 73
    57
  0
VERTEX
  5
19D
  8
0
 62
     9
 10
0.0
 20
0.0
 30
0.0
 70
   128
 71
    61
 72
    60
 73
    59
  0
VERTEX
  5
19E
  8
0
 62
     9
 10
0.0
 20
0.0
 30
0.0
 70
   128
 71
    49
 72
    51
 73
    60
  0
VERTEX
  5
19F
  8
0
 62
     9
 10
0.0
 20
0.0
 30
0.0
 70
   128
 71
    51
 72
    59
 73
    60
  0
VERTEX
  5
1A0
  8
0
 62
     9
 10
0.0
 20
0.0
 30
0.0
 70
   128
 71
    54
 72
    48
 73
    56
  0
VERTEX
  5
1A1
  8
0
 62
     9
 10
0.0
 20
0.0
 30
0.0
 70
   128
 71
    49
 72
    62
 73
    48
  0
VERTEX
  5
1A2
  8
0
 62
     9
 10
0.0
 20
0.0
 30
0.0
 70
   128
 71
    56
 72
    48
 73
    58
  0
VERTEX
  5
1A3
  8
0
 62
     9
 10
0.0
 20
0.0
 30
0.0
 70
   128
 71
    60
 72
    62
 73
    49
  0
VERTEX
  5
1A4
  8
0
 62
     9
 10
0.0
 20
0.0
 30
0.0
 70
   128
 71
    62
 72
    58
 73
    48
  0
VERTEX
  5
1A5
  8
0
 62
     9
 10
0.0
 20
0.0
 30
0.0
 70
   128
 71
    52
 72
    63
 73
    59
  0
VERTEX
  5
1A6
  8
0
 62
     9
 10
0.0
 20
0.0
 30
0.0
 70
   128
 71
    62
 72
    60
 73
    64
  0
VERTEX
  5
1A7
  8
0
 62
     9
 10
0.0
 20
0.0
 30
0.0
 70
   128
 71
    60
 72
    61
 73
    65
  0
VERTEX
  5
1A8
  8
0
 62
     9
 10
0.0
 20
0.0
 30
0.0
 70
   128
 71
    57
 72
    58
 73
    66
  0
VERTEX
  5
1A9
  8
0
 62
     9
 10
0.0
 20
0.0
 30
0.0
 70
   128
 71
    62
 72
    66
 73
    58
  0
VERTEX
  5
1AA
  8
0
 62
     9
 10
0.0
 20
0.0
 30
0.0
 70
   128
 71
    60
 72
    65
 73
    64
  0
VERTEX
  5
1AB
  8
0
 62
     9
 10
0.0
 20
0.0
 30
0.0
 70
   128
 71
    62
 72
    64
 73
    66
  0
VERTEX
  5
1AC
  8
0
 62
     9
 10
0.0
 20
0.0
 30
0.0
 70
   128
 71
    61
 72
    59
 73
    63
  0
VERTEX
  5
1AD
  8
0
 62
     9
 10
0.0
 20
0.0
 30
0.0
 70
   128
 71
    61
 72
    63
 73
    65
  0
VERTEX
  5
1AE
  8
0
 62
     9
 10
0.0
 20
0.0
 30
0.0
 70
   128
 71
    59
 72
    51
 73
    52
  0
VERTEX
  5
1AF
  8
0
 62
     9
 10
0.0
 20
0.0
 30
0.0
 70
   128
 71
    67
 72
    37
 73
     9
  0
VERTEX
  5
1B0
  8
0
 62
     9
 10
0.0
 20
0.0
 30
0.0
 70
   128
 71
    70
 72
    69
 73
    68
  0
VERTEX
  5
1B1
  8
0
 62
     9
 10
0.0
 20
0.0
 30
0.0
 70
   128
 71
    72
 72
    64
 73
    71
  0
VERTEX
  5
1B2
  8
0
 62
     9
 10
0.0
 20
0.0
 30
0.0
 70
   128
 71
    73
 72
    63
 73
    52
  0
VERTEX
  5
1B3
  8
0
 62
     9
 10
0.0
 20
0.0
 30
0.0
 70
   128
 71
    41
 72
    74
 73
    57
  0
VERTEX
  5
1B4
  8
0
 62
     9
 10
0.0
 20
0.0
 30
0.0
 70
   128
 71
    72
 72
    57
 73
    66
  0
VERTEX
  5
1B5
  8
0
 62
     9
 10
0.0
 20
0.0
 30
0.0
 70
   128
 71
    57
 72
    45
 73
    41
  0
VERTEX
  5
1B6
  8
0
 62
     9
 10
0.0
 20
0.0
 30
0.0
 70
   128
 71
    65
 72
    71
 73
    64
  0
VERTEX
  5
1B7
  8
0
 62
     9
 10
0.0
 20
0.0
 30
0.0
 70
   128
 71
    65
 72
    63
 73
    73
  0
VERTEX
  5
1B8
  8
0
 62
     9
 10
0.0
 20
0.0
 30
0.0
 70
   128
 71
    13
 72
    75
 73
    67
  0
VERTEX
  5
1B9
  8
0
 62
     9
 10
0.0
 20
0.0
 30
0.0
 70
   128
 71
    73
 72
    52
 73
    76
  0
VERTEX
  5
1BA
  8
0
 62
     9
 10
0.0
 20
0.0
 30
0.0
 70
   128
 71
     9
 72
    10
 73
    67
  0
VERTEX
  5
1BB
  8
0
 62
     9
 10
0.0
 20
0.0
 30
0.0
 70
   128
 71
     2
 72
     9
 73
    37
  0
VERTEX
  5
1BC
  8
0
 62
     9
 10
0.0
 20
0.0
 30
0.0
 70
   128
 71
    31
 72
    68
 73
    32
  0
VERTEX
  5
1BD
  8
0
 62
     9
 10
0.0
 20
0.0
 30
0.0
 70
   128
 71
    70
 72
    76
 73
    13
  0
VERTEX
  5
1BE
  8
0
 62
     9
 10
0.0
 20
0.0
 30
0.0
 70
   128
 71
    10
 72
    13
 73
    67
  0
VERTEX
  5
1BF
  8
0
 62
     9
 10
0.0
 20
0.0
 30
0.0
 70
   128
 71
    13
 72
    69
 73
    70
  0
VERTEX
  5
1C0
  8
0
 62
     9
 10
0.0
 20
0.0
 30
0.0
 70
   128
 71
    75
 72
    13
 73
    76
  0
VERTEX
  5
1C1
  8
0
 62
     9
 10
0.0
 20
0.0
 30
0.0
 70
   128
 71
    70
 72
    68
 73
    31
  0
VERTEX
  5
1C2
  8
0
 62
     9
 10
0.0
 20
0.0
 30
0.0
 70
   128
 71
    74
 72
    55
 73
    57
  0
VERTEX
  5
1C3
  8
0
 62
     9
 10
0.0
 20
0.0
 30
0.0
 70
   128
 71
    57
 72
    72
 73
    45
  0
VERTEX
  5
1C4
  8
0
 62
     9
 10
0.0
 20
0.0
 30
0.0
 70
   128
 71
    74
 72
    50
 73
    55
  0
VERTEX
  5
1C5
  8
0
 62
     9
 10
0.0
 20
0.0
 30
0.0
 70
   128
 71
    66
 72
    64
 73
    72
  0
VERTEX
  5
1C6
  8
0
 62
     9
 10
0.0
 20
0.0
 30
0.0
 70
   128
 71
    47
 72
    50
 73
    77
  0
VERTEX
  5
1C7
  8
0
 62
     9
 10
0.0
 20
0.0
 30
0.0
 70
   128
 71
    47
 72
    78
 73
    53
  0
VERTEX
  5
1C8
  8
0
 62
     9
 10
0.0
 20
0.0
 30
0.0
 70
   128
 71
    71
 72
    65
 73
    73
  0
VERTEX
  5
1C9
  8
0
 62
     9
 10
0.0
 20
0.0
 30
0.0
 70
   128
 71
    78
 72
    75
 73
    52
  0
VERTEX
  5
1CA
  8
0
 62
     9
 10
0.0
 20
0.0
 30
0.0
 70
   128
 71
    52
 72
    75
 73
    76
  0
VERTEX
  5
1CB
  8
0
 62
     9
 10
0.0
 20
0.0
 30
0.0
 70
   128
 71
    52
 72
    53
 73
    78
  0
VERTEX
  5
1CC
  8
0
 62
     9
 10
0.0
 20
0.0
 30
0.0
 70
   128
 71
    78
 72
    47
 73
    77
  0
VERTEX
  5
1CD
  8
0
 62
     9
 10
0.0
 20
0.0
 30
0.0
 70
   128
 71
    77
 72
    50
 73
    74
  0
VERTEX
  5
1CE
  8
0
 62
     9
 10
0.0
 20
0.0
 30
0.0
 70
   128
 71
    80
 72
    25
 73
    79
  0
VERTEX
  5
1CF
  8
0
 62
     9
 10
0.0
 20
0.0
 30
0.0
 70
   128
 71
    21
 72
    18
 73
    81
  0
VERTEX
  5
1D0
  8
0
 62
     9
 10
0.0
 20
0.0
 30
0.0
 70
   128
 71
    25
 72
    82
 73
    79
  0
VERTEX
  5
1D1
  8
0
 62
     9
 10
0.0
 20
0.0
 30
0.0
 70
   128
 71
    25
 72
    23
 73
    82
  0
VERTEX
  5
1D2
  8
0
 62
     9
 10
0.0
 20
0.0
 30
0.0
 70
   128
 71
    23
 72
    21
 73
    81
  0
VERTEX
  5
1D3
  8
0
 62
     9
 10
0.0
 20
0.0
 30
0.0
 70
   128
 71
    81
 72
    82
 73
    23
  0
VERTEX
  5
1D4
  8
0
 62
     9
 10
0.0
 20
0.0
 30
0.0
 70
   128
 71
    15
 72
    18
 73
    21
  0
VERTEX
  5
1D5
  8
0
 62
     9
 10
0.0
 20
0.0
 30
0.0
 70
   128
 71
    15
 72
    16
 73
    18
  0
VERTEX
  5
1D6
  8
0
 62
     9
 10
0.0
 20
0.0
 30
0.0
 70
   128
 71
    19
 72
    43
 73
    81
  0
VERTEX
  5
1D7
  8
0
 62
     9
 10
0.0
 20
0.0
 30
0.0
 70
   128
 71
    80
 72
    79
 73
    38
  0
VERTEX
  5
1D8
  8
0
 62
     9
 10
0.0
 20
0.0
 30
0.0
 70
   128
 71
    79
 72
    82
 73
    40
  0
VERTEX
  5
1D9
  8
0
 62
     9
 10
0.0
 20
0.0
 30
0.0
 70
   128
 71
    24
 72
    25
 73
    36
  0
VERTEX
  5
1DA
  8
0
 62
     9
 10
0.0
 20
0.0
 30
0.0
 70
   128
 71
    80
 72
    36
 73
    25
  0
VERTEX
  5
1DB
  8
0
 62
     9
 10
0.0
 20
0.0
 30
0.0
 70
   128
 71
    79
 72
    40
 73
    38
  0
VERTEX
  5
1DC
  8
0
 62
     9
 10
0.0
 20
0.0
 30
0.0
 70
   128
 71
    80
 72
    38
 73
    36
  0
VERTEX
  5
1DD
  8
0
 62
     9
 10
0.0
 20
0.0
 30
0.0
 70
   128
 71
    82
 72
    81
 73
    43
  0
VERTEX
  5
1DE
  8
0
 62
     9
 10
0.0
 20
0.0
 30
0.0
 70
   128
 71
    82
 72
    43
 73
    40
  0
VERTEX
  5
1DF
  8
0
 62
     9
 10
0.0
 20
0.0
 30
0.0
 70
   128
 71
    81
 72
    18
 73
    19
  0
VERTEX
  5
1E0
  8
0
 62
     9
 10
0.0
 20
0.0
 30
0.0
 70
   128
 71
    84
 72
    83
 73
     5
  0
VERTEX
  5
1E1
  8
0
 62
     9
 10
0.0
 20
0.0
 30
0.0
 70
   128
 71
     3
 72
    12
 73
    11
  0
VERTEX
  5
1E2
  8
0
 62
     9
 10
0.0
 20
0.0
 30
0.0
 70
   128
 71
     4
 72
     3
 73
    11
  0
VERTEX
  5
1E3
  8
0
 62
     9
 10
0.0
 20
0.0
 30
0.0
 70
   128
 71
    86
 72
    84
 73
    85
  0
VERTEX
  5
1E4
  8
0
 62
     9
 10
0.0
 20
0.0
 30
0.0
 70
   128
 71
    84
 72
     7
 73
    85
  0
VERTEX
  5
1E5
  8
0
 62
     9
 10
0.0
 20
0.0
 30
0.0
 70
   128
 71
     5
 72
     7
 73
    84
  0
VERTEX
  5
1E6
  8
0
 62
     9
 10
0.0
 20
0.0
 30
0.0
 70
   128
 71
     3
 72
    83
 73
    12
  0
VERTEX
  5
1E7
  8
0
 62
     9
 10
0.0
 20
0.0
 30
0.0
 70
   128
 71
     5
 72
    83
 73
     3
  0
VERTEX
  5
1E8
  8
0
 62
     9
 10
0.0
 20
0.0
 30
0.0
 70
   128
 71
     7
 72
     8
 73
    28
  0
VERTEX
  5
1E9
  8
0
 62
     9
 10
0.0
 20
0.0
 30
0.0
 70
   128
 71
    84
 72
    32
 73
    68
  0
VERTEX
  5
1EA
  8
0
 62
     9
 10
0.0
 20
0.0
 30
0.0
 70
   128
 71
    86
 72
    85
 73
    30
  0
VERTEX
  5
1EB
  8
0
 62
     9
 10
0.0
 20
0.0
 30
0.0
 70
   128
 71
    12
 72
    83
 73
    69
  0
VERTEX
  5
1EC
  8
0
 62
     9
 10
0.0
 20
0.0
 30
0.0
 70
   128
 71
    68
 72
    69
 73
    83
  0
VERTEX
  5
1ED
  8
0
 62
     9
 10
0.0
 20
0.0
 30
0.0
 70
   128
 71
    12
 72
    69
 73
    13
  0
VERTEX
  5
1EE
  8
0
 62
     9
 10
0.0
 20
0.0
 30
0.0
 70
   128
 71
    32
 72
    84
 73
    86
  0
VERTEX
  5
1EF
  8
0
 62
     9
 10
0.0
 20
0.0
 30
0.0
 70
   128
 71
    84
 72
    68
 73
    83
  0
VERTEX
  5
1F0
  8
0
 62
     9
 10
0.0
 20
0.0
 30
0.0
 70
   128
 71
    85
 72
    28
 73
    30
  0
VERTEX
  5
1F1
  8
0
 62
     9
 10
0.0
 20
0.0
 30
0.0
 70
   128
 71
    86
 72
    30
 73
    32
  0
VERTEX
  5
1F2
  8
0
 62
     9
 10
0.0
 20
0.0
 30
0.0
 70
   128
 71
    28
 72
    85
 73
     7
  0
VERTEX
  5
1F3
  8
0
 62
     9
 10
0.0
 20
0.0
 30
0.0
 70
   128
 71
    33
 72
    42
 73
    26
  0
VERTEX
  5
1F4
  8
0
 62
     9
 10
0.0
 20
0.0
 30
0.0
 70
   128
 71
    42
 72
    46
 73
    26
  0
VERTEX
  5
1F5
  8
0
 62
     9
 10
0.0
 20
0.0
 30
0.0
 70
   128
 71
    34
 72
    26
 73
    46
  0
VERTEX
  5
1F6
  8
0
 62
     9
 10
0.0
 20
0.0
 30
0.0
 70
   128
 71
    42
 72
    33
 73
    41
  0
VERTEX
  5
1F7
  8
0
 62
     9
 10
0.0
 20
0.0
 30
0.0
 70
   128
 71
    74
 72
    33
 73
    37
  0
VERTEX
  5
1F8
  8
0
 62
     9
 10
0.0
 20
0.0
 30
0.0
 70
   128
 71
    74
 72
    67
 73
    77
  0
VERTEX
  5
1F9
  8
0
 62
     9
 10
0.0
 20
0.0
 30
0.0
 70
   128
 71
    77
 72
    67
 73
    75
  0
VERTEX
  5
1FA
  8
0
 62
     9
 10
0.0
 20
0.0
 30
0.0
 70
   128
 71
    78
 72
    77
 73
    75
  0
VERTEX
  5
1FB
  8
0
 62
     9
 10
0.0
 20
0.0
 30
0.0
 70
   128
 71
    74
 72
    41
 73
    33
  0
VERTEX
  5
1FC
  8
0
 62
     9
 10
0.0
 20
0.0
 30
0.0
 70
   128
 71
    67
 72
    74
 73
    37
  0
SEQEND
  5
1FD
  8
0
 62
     9
  0
ENDBLK
  5
200
  8
0
  0
BLOCK
  8
0
  2
40
 70
     0
 10
0.0
 20
0.0
 30
0.0
  3
40
  1

  0
POLYLINE
  5
202
  8
0
 62
     9
 66
     1
 10
0.0
 20
0.0
 30
0.0
 70
    64
 71
    71
 72
   101
  0
VERTEX
  5
203
  8
0
 10
81.37654876708984
 20
-121.0
 30
13.57197856903076
 70
   192
  0
VERTEX
  5
204
  8
0
 10
78.67572784423828
 20
-116.0
 30
12.02061080932617
 70
   192
  0
VERTEX
  5
205
  8
0
 10
81.36972045898438
 20
-116.0
 30
13.54667472839355
 70
   192
  0
VERTEX
  5
206
  8
0
 10
84.31816864013672
 20
-116.0
 30
14.51363945007324
 70
   192
  0
VERTEX
  5
207
  8
0
 10
84.32401275634766
 20
-121.0
 30
14.52754211425781
 70
   192
  0
VERTEX
  5
208
  8
0
 10
87.39334106445312
 20
-121.0
 30
14.85055160522461
 70
   192
  0
VERTEX
  5
209
  8
0
 10
87.4007797241211
 20
-116.0
 30
14.84257698059082
 70
   192
  0
VERTEX
  5
20A
  8
0
 10
90.49392700195312
 20
-116.0
 30
14.51973628997803
 70
   192
  0
VERTEX
  5
20B
  8
0
 10
90.48845672607422
 20
-121.0
 30
14.52510166168213
 70
   192
  0
VERTEX
  5
20C
  8
0
 10
93.44574737548828
 20
-116.0
 30
13.55388259887695
 70
   192
  0
VERTEX
  5
20D
  8
0
 10
93.45513153076172
 20
-121.0
 30
13.55878829956055
 70
   192
  0
VERTEX
  5
20E
  8
0
 10
96.13199615478516
 20
-121.0
 30
12.01134395599365
 70
   192
  0
VERTEX
  5
20F
  8
0
 10
96.1307601928711
 20
-116.0
 30
12.0015172958374
 70
   192
  0
VERTEX
  5
210
  8
0
 10
98.43537139892578
 20
-116.0
 30
9.928346633911133
 70
   192
  0
VERTEX
  5
211
  8
0
 10
98.42752075195312
 20
-121.0
 30
9.94597339630127
 70
   192
  0
VERTEX
  5
212
  8
0
 10
100.2604751586914
 20
-121.0
 30
7.425000190734863
 70
   192
  0
VERTEX
  5
213
  8
0
 10
100.2604751586914
 20
-116.0
 30
7.425000190734863
 70
   192
  0
VERTEX
  5
214
  8
0
 10
78.67161560058594
 20
-121.0
 30
12.01338005065918
 70
   192
  0
VERTEX
  5
215
  8
0
 10
76.42705535888672
 20
-116.0
 30
9.893035888671875
 70
   192
  0
VERTEX
  5
216
  8
0
 10
76.3629379272461
 20
-121.0
 30
9.935685157775879
 70
   192
  0
VERTEX
  5
217
  8
0
 10
74.54808044433594
 20
-121.0
 30
7.438481330871582
 70
   192
  0
VERTEX
  5
218
  8
0
 10
74.53710174560547
 20
-116.0
 30
7.427259922027588
 70
   192
  0
VERTEX
  5
219
  8
0
 10
73.2822036743164
 20
-121.0
 30
4.600391387939453
 70
   192
  0
VERTEX
  5
21A
  8
0
 10
73.27405548095703
 20
-116.0
 30
4.59124755859375
 70
   192
  0
VERTEX
  5
21B
  8
0
 10
72.62232971191406
 20
-116.0
 30
1.556657075881958
 70
   192
  0
VERTEX
  5
21C
  8
0
 10
72.63137817382812
 20
-121.0
 30
1.546633005142212
 70
   192
  0
VERTEX
  5
21D
  8
0
 10
72.63123321533203
 20
-121.0
 30
-1.551628351211548
 70
   192
  0
VERTEX
  5
21E
  8
0
 10
72.62126159667969
 20
-116.0
 30
-1.549894213676453
 70
   192
  0
VERTEX
  5
21F
  8
0
 10
73.27243041992188
 20
-121.0
 30
-4.574525356292725
 70
   192
  0
VERTEX
  5
220
  8
0
 10
73.26882934570312
 20
-116.0
 30
-4.589037418365479
 70
   192
  0
VERTEX
  5
221
  8
0
 10
74.53952026367188
 20
-116.0
 30
-7.425000190734863
 70
   192
  0
VERTEX
  5
222
  8
0
 10
74.53952026367188
 20
-121.0
 30
-7.425000190734863
 70
   192
  0
VERTEX
  5
223
  8
0
 10
85.98285675048828
 20
-121.0
 30
-7.364767074584961
 70
   192
  0
VERTEX
  5
224
  8
0
 10
81.35926818847656
 20
-121.0
 30
-13.57616901397705
 70
   192
  0
VERTEX
  5
225
  8
0
 10
82.2262191772461
 20
-121.0
 30
-5.429703235626221
 70
   192
  0
VERTEX
  5
226
  8
0
 10
82.76097106933594
 20
-121.0
 30
5.892895698547363
 70
   192
  0
VERTEX
  5
227
  8
0
 10
84.31316375732422
 20
-121.0
 30
-14.52904796600342
 70
   192
  0
VERTEX
  5
228
  8
0
 10
96.11662292480469
 20
-121.0
 30
-11.99571132659912
 70
   192
  0
VERTEX
  5
229
  8
0
 10
93.4480209350586
 20
-121.0
 30
-13.565749168396
 70
   192
  0
VERTEX
  5
22A
  8
0
 10
90.18946075439453
 20
-121.0
 30
-6.96158504486084
 70
   192
  0
VERTEX
  5
22B
  8
0
 10
76.36019134521484
 20
-121.0
 30
-9.943431854248047
 70
   192
  0
VERTEX
  5
22C
  8
0
 10
80.31146240234375
 20
-121.0
 30
2.449527025222778
 70
   192
  0
VERTEX
  5
22D
  8
0
 10
80.11219787597656
 20
-121.0
 30
-1.771148562431335
 70
   192
  0
VERTEX
  5
22E
  8
0
 10
93.5098648071289
 20
-121.0
 30
-4.348865509033203
 70
   192
  0
VERTEX
  5
22F
  8
0
 10
102.1589965820312
 20
-121.0
 30
1.560301780700684
 70
   192
  0
VERTEX
  5
230
  8
0
 10
94.8912124633789
 20
-121.0
 30
-0.3565546274185181
 70
   192
  0
VERTEX
  5
231
  8
0
 10
101.5158843994141
 20
-121.0
 30
4.592738151550293
 70
   192
  0
VERTEX
  5
232
  8
0
 10
86.68354797363281
 20
-121.0
 30
7.465530395507812
 70
   192
  0
VERTEX
  5
233
  8
0
 10
90.83439636230469
 20
-121.0
 30
6.667384624481201
 70
   192
  0
VERTEX
  5
234
  8
0
 10
93.89518737792969
 20
-121.0
 30
3.75
 70
   192
  0
VERTEX
  5
235
  8
0
 10
102.1608810424805
 20
-121.0
 30
-1.541171193122864
 70
   192
  0
VERTEX
  5
236
  8
0
 10
101.5214233398438
 20
-121.0
 30
-4.580450057983398
 70
   192
  0
VERTEX
  5
237
  8
0
 10
98.42826080322266
 20
-121.0
 30
-9.925766944885254
 70
   192
  0
VERTEX
  5
238
  8
0
 10
87.40074920654297
 20
-121.0
 30
-14.85322761535645
 70
   192
  0
VERTEX
  5
239
  8
0
 10
90.48114776611328
 20
-121.0
 30
-14.44936847686768
 70
   192
  0
VERTEX
  5
23A
  8
0
 10
78.66838073730469
 20
-121.0
 30
-12.02381801605225
 70
   192
  0
VERTEX
  5
23B
  8
0
 10
100.2544403076172
 20
-121.0
 30
-7.420612335205078
 70
   192
  0
VERTEX
  5
23C
  8
0
 10
101.5259399414062
 20
-116.0
 30
-4.59124755859375
 70
   192
  0
VERTEX
  5
23D
  8
0
 10
102.1787414550781
 20
-116.0
 30
1.549894213676453
 70
   192
  0
VERTEX
  5
23E
  8
0
 10
102.1776733398438
 20
-116.0
 30
-1.556657075881958
 70
   192
  0
VERTEX
  5
23F
  8
0
 10
96.12427520751953
 20
-116.0
 30
-12.02061080932617
 70
   192
  0
VERTEX
  5
240
  8
0
 10
98.3729476928711
 20
-116.0
 30
-9.893035888671875
 70
   192
  0
VERTEX
  5
241
  8
0
 10
87.39921569824219
 20
-116.0
 30
-14.84257698059082
 70
   192
  0
VERTEX
  5
242
  8
0
 10
90.4818344116211
 20
-116.0
 30
-14.51363945007324
 70
   192
  0
VERTEX
  5
243
  8
0
 10
81.35425567626953
 20
-116.0
 30
-13.55388259887695
 70
   192
  0
VERTEX
  5
244
  8
0
 10
84.30607604980469
 20
-116.0
 30
-14.51973628997803
 70
   192
  0
VERTEX
  5
245
  8
0
 10
78.66924285888672
 20
-116.0
 30
-12.0015172958374
 70
   192
  0
VERTEX
  5
246
  8
0
 10
76.36463165283203
 20
-116.0
 30
-9.928346633911133
 70
   192
  0
VERTEX
  5
247
  8
0
 10
93.4302749633789
 20
-116.0
 30
-13.54667472839355
 70
   192
  0
VERTEX
  5
248
  8
0
 10
100.2629013061523
 20
-116.0
 30
-7.427259922027588
 70
   192
  0
VERTEX
  5
249
  8
0
 10
101.5311660766602
 20
-116.0
 30
4.589037418365479
 70
   192
  0
VERTEX
  5
24A
  8
0
 62
     9
 10
0.0
 20
0.0
 30
0.0
 70
   128
 71
     3
 72
     2
 73
     1
  0
VERTEX
  5
24B
  8
0
 62
     9
 10
0.0
 20
0.0
 30
0.0
 70
   128
 71
     1
 72
     5
 73
     4
  0
VERTEX
  5
24C
  8
0
 62
     9
 10
0.0
 20
0.0
 30
0.0
 70
   128
 71
     4
 72
     3
 73
     1
  0
VERTEX
  5
24D
  8
0
 62
     9
 10
0.0
 20
0.0
 30
0.0
 70
   128
 71
     7
 72
     5
 73
     6
  0
VERTEX
  5
24E
  8
0
 62
     9
 10
0.0
 20
0.0
 30
0.0
 70
   128
 71
     5
 72
     7
 73
     4
  0
VERTEX
  5
24F
  8
0
 62
     9
 10
0.0
 20
0.0
 30
0.0
 70
   128
 71
     9
 72
     8
 73
     6
  0
VERTEX
  5
250
  8
0
 62
     9
 10
0.0
 20
0.0
 30
0.0
 70
   128
 71
     7
 72
     6
 73
     8
  0
VERTEX
  5
251
  8
0
 62
     9
 10
0.0
 20
0.0
 30
0.0
 70
   128
 71
     9
 72
    11
 73
    10
  0
VERTEX
  5
252
  8
0
 62
     9
 10
0.0
 20
0.0
 30
0.0
 70
   128
 71
    10
 72
     8
 73
     9
  0
VERTEX
  5
253
  8
0
 62
     9
 10
0.0
 20
0.0
 30
0.0
 70
   128
 71
    13
 72
    11
 73
    12
  0
VERTEX
  5
254
  8
0
 62
     9
 10
0.0
 20
0.0
 30
0.0
 70
   128
 71
    11
 72
    13
 73
    10
  0
VERTEX
  5
255
  8
0
 62
     9
 10
0.0
 20
0.0
 30
0.0
 70
   128
 71
    15
 72
    14
 73
    12
  0
VERTEX
  5
256
  8
0
 62
     9
 10
0.0
 20
0.0
 30
0.0
 70
   128
 71
    13
 72
    12
 73
    14
  0
VERTEX
  5
257
  8
0
 62
     9
 10
0.0
 20
0.0
 30
0.0
 70
   128
 71
    14
 72
    15
 73
    16
  0
VERTEX
  5
258
  8
0
 62
     9
 10
0.0
 20
0.0
 30
0.0
 70
   128
 71
    17
 72
    14
 73
    16
  0
VERTEX
  5
259
  8
0
 62
     9
 10
0.0
 20
0.0
 30
0.0
 70
   128
 71
     2
 72
    18
 73
     1
  0
VERTEX
  5
25A
  8
0
 62
     9
 10
0.0
 20
0.0
 30
0.0
 70
   128
 71
    20
 72
     2
 73
    19
  0
VERTEX
  5
25B
  8
0
 62
     9
 10
0.0
 20
0.0
 30
0.0
 70
   128
 71
     2
 72
    20
 73
    18
  0
VERTEX
  5
25C
  8
0
 62
     9
 10
0.0
 20
0.0
 30
0.0
 70
   128
 71
    22
 72
    21
 73
    19
  0
VERTEX
  5
25D
  8
0
 62
     9
 10
0.0
 20
0.0
 30
0.0
 70
   128
 71
    20
 72
    19
 73
    21
  0
VERTEX
  5
25E
  8
0
 62
     9
 10
0.0
 20
0.0
 30
0.0
 70
   128
 71
    22
 72
    24
 73
    23
  0
VERTEX
  5
25F
  8
0
 62
     9
 10
0.0
 20
0.0
 30
0.0
 70
   128
 71
    23
 72
    21
 73
    22
  0
VERTEX
  5
260
  8
0
 62
     9
 10
0.0
 20
0.0
 30
0.0
 70
   128
 71
    26
 72
    24
 73
    25
  0
VERTEX
  5
261
  8
0
 62
     9
 10
0.0
 20
0.0
 30
0.0
 70
   128
 71
    24
 72
    26
 73
    23
  0
VERTEX
  5
262
  8
0
 62
     9
 10
0.0
 20
0.0
 30
0.0
 70
   128
 71
    28
 72
    27
 73
    25
  0
VERTEX
  5
263
  8
0
 62
     9
 10
0.0
 20
0.0
 30
0.0
 70
   128
 71
    26
 72
    25
 73
    27
  0
VERTEX
  5
264
  8
0
 62
     9
 10
0.0
 20
0.0
 30
0.0
 70
   128
 71
    28
 72
    30
 73
    29
  0
VERTEX
  5
265
  8
0
 62
     9
 10
0.0
 20
0.0
 30
0.0
 70
   128
 71
    29
 72
    27
 73
    28
  0
VERTEX
  5
266
  8
0
 62
     9
 10
0.0
 20
0.0
 30
0.0
 70
   128
 71
    31
 72
    29
 73
    30
  0
VERTEX
  5
267
  8
0
 62
     9
 10
0.0
 20
0.0
 30
0.0
 70
   128
 71
    31
 72
    32
 73
    29
  0
VERTEX
  5
268
  8
0
 62
     9
 10
0.0
 20
0.0
 30
0.0
 70
   128
 71
    35
 72
    34
 73
    33
  0
VERTEX
  5
269
  8
0
 62
     9
 10
0.0
 20
0.0
 30
0.0
 70
   128
 71
    36
 72
    20
 73
    21
  0
VERTEX
  5
26A
  8
0
 62
     9
 10
0.0
 20
0.0
 30
0.0
 70
   128
 71
    37
 72
    33
 73
    34
  0
VERTEX
  5
26B
  8
0
 62
     9
 10
0.0
 20
0.0
 30
0.0
 70
   128
 71
    40
 72
    39
 73
    38
  0
VERTEX
  5
26C
  8
0
 62
     9
 10
0.0
 20
0.0
 30
0.0
 70
   128
 71
    35
 72
    32
 73
    41
  0
VERTEX
  5
26D
  8
0
 62
     9
 10
0.0
 20
0.0
 30
0.0
 70
   128
 71
    26
 72
    43
 73
    42
  0
VERTEX
  5
26E
  8
0
 62
     9
 10
0.0
 20
0.0
 30
0.0
 70
   128
 71
    38
 72
    44
 73
    40
  0
VERTEX
  5
26F
  8
0
 62
     9
 10
0.0
 20
0.0
 30
0.0
 70
   128
 71
    47
 72
    46
 73
    45
  0
VERTEX
  5
270
  8
0
 62
     9
 10
0.0
 20
0.0
 30
0.0
 70
   128
 71
    36
 72
    21
 73
    42
  0
VERTEX
  5
271
  8
0
 62
     9
 10
0.0
 20
0.0
 30
0.0
 70
   128
 71
    49
 72
     9
 73
    48
  0
VERTEX
  5
272
  8
0
 62
     9
 10
0.0
 20
0.0
 30
0.0
 70
   128
 71
    50
 72
    46
 73
    47
  0
VERTEX
  5
273
  8
0
 62
     9
 10
0.0
 20
0.0
 30
0.0
 70
   128
 71
    11
 72
    49
 73
    12
  0
VERTEX
  5
274
  8
0
 62
     9
 10
0.0
 20
0.0
 30
0.0
 70
   128
 71
    15
 72
    12
 73
    49
  0
VERTEX
  5
275
  8
0
 62
     9
 10
0.0
 20
0.0
 30
0.0
 70
   128
 71
    50
 72
    16
 73
    15
  0
VERTEX
  5
276
  8
0
 62
     9
 10
0.0
 20
0.0
 30
0.0
 70
   128
 71
     6
 72
     5
 73
    48
  0
VERTEX
  5
277
  8
0
 62
     9
 10
0.0
 20
0.0
 30
0.0
 70
   128
 71
    47
 72
    16
 73
    50
  0
VERTEX
  5
278
  8
0
 62
     9
 10
0.0
 20
0.0
 30
0.0
 70
   128
 71
    46
 72
    52
 73
    51
  0
VERTEX
  5
279
  8
0
 62
     9
 10
0.0
 20
0.0
 30
0.0
 70
   128
 71
    48
 72
     5
 73
     1
  0
VERTEX
  5
27A
  8
0
 62
     9
 10
0.0
 20
0.0
 30
0.0
 70
   128
 71
    42
 72
    23
 73
    26
  0
VERTEX
  5
27B
  8
0
 62
     9
 10
0.0
 20
0.0
 30
0.0
 70
   128
 71
    52
 72
    46
 73
    44
  0
VERTEX
  5
27C
  8
0
 62
     9
 10
0.0
 20
0.0
 30
0.0
 70
   128
 71
    44
 72
    38
 73
    53
  0
VERTEX
  5
27D
  8
0
 62
     9
 10
0.0
 20
0.0
 30
0.0
 70
   128
 71
     1
 72
    36
 73
    48
  0
VERTEX
  5
27E
  8
0
 62
     9
 10
0.0
 20
0.0
 30
0.0
 70
   128
 71
    43
 72
    26
 73
    27
  0
VERTEX
  5
27F
  8
0
 62
     9
 10
0.0
 20
0.0
 30
0.0
 70
   128
 71
    32
 72
    35
 73
    43
  0
VERTEX
  5
280
  8
0
 62
     9
 10
0.0
 20
0.0
 30
0.0
 70
   128
 71
    29
 72
    32
 73
    43
  0
VERTEX
  5
281
  8
0
 62
     9
 10
0.0
 20
0.0
 30
0.0
 70
   128
 71
    54
 72
    40
 73
    33
  0
VERTEX
  5
282
  8
0
 62
     9
 10
0.0
 20
0.0
 30
0.0
 70
   128
 71
    55
 72
    40
 73
    54
  0
VERTEX
  5
283
  8
0
 62
     9
 10
0.0
 20
0.0
 30
0.0
 70
   128
 71
    56
 72
    34
 73
    35
  0
VERTEX
  5
284
  8
0
 62
     9
 10
0.0
 20
0.0
 30
0.0
 70
   128
 71
    51
 72
    45
 73
    46
  0
VERTEX
  5
285
  8
0
 62
     9
 10
0.0
 20
0.0
 30
0.0
 70
   128
 71
     1
 72
    18
 73
    36
  0
VERTEX
  5
286
  8
0
 62
     9
 10
0.0
 20
0.0
 30
0.0
 70
   128
 71
    44
 72
    53
 73
    57
  0
VERTEX
  5
287
  8
0
 62
     9
 10
0.0
 20
0.0
 30
0.0
 70
   128
 71
    57
 72
    52
 73
    44
  0
VERTEX
  5
288
  8
0
 62
     9
 10
0.0
 20
0.0
 30
0.0
 70
   128
 71
    40
 72
    55
 73
    39
  0
VERTEX
  5
289
  8
0
 62
     9
 10
0.0
 20
0.0
 30
0.0
 70
   128
 71
    33
 72
    37
 73
    54
  0
VERTEX
  5
28A
  8
0
 62
     9
 10
0.0
 20
0.0
 30
0.0
 70
   128
 71
    35
 72
    41
 73
    56
  0
VERTEX
  5
28B
  8
0
 62
     9
 10
0.0
 20
0.0
 30
0.0
 70
   128
 71
    43
 72
    27
 73
    29
  0
VERTEX
  5
28C
  8
0
 62
     9
 10
0.0
 20
0.0
 30
0.0
 70
   128
 71
    42
 72
    21
 73
    23
  0
VERTEX
  5
28D
  8
0
 62
     9
 10
0.0
 20
0.0
 30
0.0
 70
   128
 71
    36
 72
    18
 73
    20
  0
VERTEX
  5
28E
  8
0
 62
     9
 10
0.0
 20
0.0
 30
0.0
 70
   128
 71
     9
 72
     6
 73
    48
  0
VERTEX
  5
28F
  8
0
 62
     9
 10
0.0
 20
0.0
 30
0.0
 70
   128
 71
    49
 72
    11
 73
     9
  0
VERTEX
  5
290
  8
0
 62
     9
 10
0.0
 20
0.0
 30
0.0
 70
   128
 71
    50
 72
    15
 73
    49
  0
VERTEX
  5
291
  8
0
 62
     9
 10
0.0
 20
0.0
 30
0.0
 70
   128
 71
    17
 72
    16
 73
    47
  0
VERTEX
  5
292
  8
0
 62
     9
 10
0.0
 20
0.0
 30
0.0
 70
   128
 71
    58
 72
    51
 73
    52
  0
VERTEX
  5
293
  8
0
 62
     9
 10
0.0
 20
0.0
 30
0.0
 70
   128
 71
    60
 72
    59
 73
    45
  0
VERTEX
  5
294
  8
0
 62
     9
 10
0.0
 20
0.0
 30
0.0
 70
   128
 71
    39
 72
    61
 73
    38
  0
VERTEX
  5
295
  8
0
 62
     9
 10
0.0
 20
0.0
 30
0.0
 70
   128
 71
    53
 72
    62
 73
    57
  0
VERTEX
  5
296
  8
0
 62
     9
 10
0.0
 20
0.0
 30
0.0
 70
   128
 71
    54
 72
    63
 73
    55
  0
VERTEX
  5
297
  8
0
 62
     9
 10
0.0
 20
0.0
 30
0.0
 70
   128
 71
    64
 72
    39
 73
    55
  0
VERTEX
  5
298
  8
0
 62
     9
 10
0.0
 20
0.0
 30
0.0
 70
   128
 71
    34
 72
    65
 73
    37
  0
VERTEX
  5
299
  8
0
 62
     9
 10
0.0
 20
0.0
 30
0.0
 70
   128
 71
    66
 72
    54
 73
    37
  0
VERTEX
  5
29A
  8
0
 62
     9
 10
0.0
 20
0.0
 30
0.0
 70
   128
 71
    34
 72
    56
 73
    67
  0
VERTEX
  5
29B
  8
0
 62
     9
 10
0.0
 20
0.0
 30
0.0
 70
   128
 71
    67
 72
    65
 73
    34
  0
VERTEX
  5
29C
  8
0
 62
     9
 10
0.0
 20
0.0
 30
0.0
 70
   128
 71
    68
 72
    56
 73
    41
  0
VERTEX
  5
29D
  8
0
 62
     9
 10
0.0
 20
0.0
 30
0.0
 70
   128
 71
    56
 72
    68
 73
    67
  0
VERTEX
  5
29E
  8
0
 62
     9
 10
0.0
 20
0.0
 30
0.0
 70
   128
 71
    31
 72
    68
 73
    32
  0
VERTEX
  5
29F
  8
0
 62
     9
 10
0.0
 20
0.0
 30
0.0
 70
   128
 71
    41
 72
    32
 73
    68
  0
VERTEX
  5
2A0
  8
0
 62
     9
 10
0.0
 20
0.0
 30
0.0
 70
   128
 71
    54
 72
    66
 73
    63
  0
VERTEX
  5
2A1
  8
0
 62
     9
 10
0.0
 20
0.0
 30
0.0
 70
   128
 71
    65
 72
    66
 73
    37
  0
VERTEX
  5
2A2
  8
0
 62
     9
 10
0.0
 20
0.0
 30
0.0
 70
   128
 71
    69
 72
    39
 73
    64
  0
VERTEX
  5
2A3
  8
0
 62
     9
 10
0.0
 20
0.0
 30
0.0
 70
   128
 71
    63
 72
    64
 73
    55
  0
VERTEX
  5
2A4
  8
0
 62
     9
 10
0.0
 20
0.0
 30
0.0
 70
   128
 71
    38
 72
    61
 73
    53
  0
VERTEX
  5
2A5
  8
0
 62
     9
 10
0.0
 20
0.0
 30
0.0
 70
   128
 71
    69
 72
    61
 73
    39
  0
VERTEX
  5
2A6
  8
0
 62
     9
 10
0.0
 20
0.0
 30
0.0
 70
   128
 71
    57
 72
    62
 73
    70
  0
VERTEX
  5
2A7
  8
0
 62
     9
 10
0.0
 20
0.0
 30
0.0
 70
   128
 71
    53
 72
    61
 73
    62
  0
VERTEX
  5
2A8
  8
0
 62
     9
 10
0.0
 20
0.0
 30
0.0
 70
   128
 71
    70
 72
    58
 73
    52
  0
VERTEX
  5
2A9
  8
0
 62
     9
 10
0.0
 20
0.0
 30
0.0
 70
   128
 71
    52
 72
    57
 73
    70
  0
VERTEX
  5
2AA
  8
0
 62
     9
 10
0.0
 20
0.0
 30
0.0
 70
   128
 71
    60
 72
    45
 73
    51
  0
VERTEX
  5
2AB
  8
0
 62
     9
 10
0.0
 20
0.0
 30
0.0
 70
   128
 71
    60
 72
    51
 73
    58
  0
VERTEX
  5
2AC
  8
0
 62
     9
 10
0.0
 20
0.0
 30
0.0
 70
   128
 71
    59
 72
    71
 73
    47
  0
VERTEX
  5
2AD
  8
0
 62
     9
 10
0.0
 20
0.0
 30
0.0
 70
   128
 71
    59
 72
    47
 73
    45
  0
VERTEX
  5
2AE
  8
0
 62
     9
 10
0.0
 20
0.0
 30
0.0
 70
   128
 71
    47
 72
    71
 73
    17
  0
SEQEND
  5
2AF
  8
0
 62
     9
  0
ENDBLK
  5
2B2
  8
0
  0
BLOCK
  8
0
  2
41
 70
     0
 10
0.0
 20
0.0
 30
0.0
  3
41
  1

  0
POLYLINE
  5
2B4
  8
0
 62
     9
 66
     1
 10
0.0
 20
0.0
 30
0.0
 70
    64
 71
    86
 72
   158
  0
VERTEX
  5
2B5
  8
0
 10
84.3742904663086
 20
141.8847808837891
 30
9.279641151428223
 70
   192
  0
VERTEX
  5
2B6
  8
0
 10
87.4000015258789
 20
142.6999969482422
 30
9.749999046325684
 70
   192
  0
VERTEX
  5
2B7
  8
0
 10
85.56312561035156
 20
142.4076843261719
 30
37.5
 70
   192
  0
VERTEX
  5
2B8
  8
0
 10
89.26483917236328
 20
142.4021301269531
 30
37.5
 70
   192
  0
VERTEX
  5
2B9
  8
0
 10
82.55960083007812
 20
140.2415313720703
 30
37.5
 70
   192
  0
VERTEX
  5
2BA
  8
0
 10
82.22875213623047
 20
139.7366027832031
 30
8.292110443115234
 70
   192
  0
VERTEX
  5
2BB
  8
0
 10
81.4000015258789
 20
136.6999969482422
 30
37.5
 70
   192
  0
VERTEX
  5
2BC
  8
0
 10
81.4000015258789
 20
136.6999969482422
 30
7.685213088989258
 70
   192
  0
VERTEX
  5
2BD
  8
0
 10
90.45118713378906
 20
141.8597106933594
 30
9.237288475036621
 70
   192
  0
VERTEX
  5
2BE
  8
0
 10
92.59175872802734
 20
139.7144317626953
 30
8.234962463378906
 70
   192
  0
VERTEX
  5
2BF
  8
0
 10
92.26416015625
 20
140.2059631347656
 30
37.5
 70
   192
  0
VERTEX
  5
2C0
  8
0
 10
93.4000015258789
 20
136.6999969482422
 30
37.5
 70
   192
  0
VERTEX
  5
2C1
  8
0
 10
93.4000015258789
 20
136.6999969482422
 30
7.685213088989258
 70
   192
  0
VERTEX
  5
2C2
  8
0
 10
80.08202362060547
 20
142.3835754394531
 30
-6.431999206542969
 70
   192
  0
VERTEX
  5
2C3
  8
0
 10
55.84248733520508
 20
142.4076843261719
 30
-20.34078216552734
 70
   192
  0
VERTEX
  5
2C4
  8
0
 10
57.3442497253418
 20
140.2415313720703
 30
-22.94190979003906
 70
   192
  0
VERTEX
  5
2C5
  8
0
 10
78.18177795410156
 20
142.3989868164062
 30
-3.172380447387695
 70
   192
  0
VERTEX
  5
2C6
  8
0
 10
57.92404556274414
 20
136.6999969482422
 30
-23.94615173339844
 70
   192
  0
VERTEX
  5
2C7
  8
0
 10
83.7444076538086
 20
136.6999969482422
 30
-9.038759231567383
 70
   192
  0
VERTEX
  5
2C8
  8
0
 10
82.52986907958984
 20
140.2234344482422
 30
-8.422792434692383
 70
   192
  0
VERTEX
  5
2C9
  8
0
 10
53.99162673950195
 20
142.4021301269531
 30
-17.13500022888184
 70
   192
  0
VERTEX
  5
2CA
  8
0
 10
77.63398742675781
 20
140.2517242431641
 30
-0.0558189228177071
 70
   192
  0
VERTEX
  5
2CB
  8
0
 10
52.49197006225586
 20
140.2059631347656
 30
-14.53751659393311
 70
   192
  0
VERTEX
  5
2CC
  8
0
 10
77.7444076538086
 20
136.6999969482422
 30
1.353545904159546
 70
   192
  0
VERTEX
  5
2CD
  8
0
 10
51.92404556274414
 20
136.6999969482422
 30
-13.55384731292725
 70
   192
  0
VERTEX
  5
2CE
  8
0
 10
78.94432830810547
 20
144.1999969482422
 30
4.848647117614746
 70
   192
  0
VERTEX
  5
2CF
  8
0
 10
78.95267486572266
 20
121.1999969482422
 30
4.848724842071533
 70
   192
  0
VERTEX
  5
2D0
  8
0
 10
82.20822143554688
 20
133.6856231689453
 30
8.234946250915527
 70
   192
  0
VERTEX
  5
2D1
  8
0
 10
82.47630310058594
 20
121.1999969482422
 30
8.45390796661377
 70
   192
  0
VERTEX
  5
2D2
  8
0
 10
84.34882354736328
 20
131.5402679443359
 30
9.23729419708252
 70
   192
  0
VERTEX
  5
2D3
  8
0
 10
87.4000015258789
 20
121.1999969482422
 30
9.75
 70
   192
  0
VERTEX
  5
2D4
  8
0
 10
87.4000015258789
 20
130.6999969482422
 30
9.749999046325684
 70
   192
  0
VERTEX
  5
2D5
  8
0
 10
82.49784088134766
 20
144.1999969482422
 30
8.419925689697266
 70
   192
  0
VERTEX
  5
2D6
  8
0
 10
77.6500015258789
 20
144.1999969482422
 30
-0.000000000000016
 70
   192
  0
VERTEX
  5
2D7
  8
0
 10
77.6500015258789
 20
121.1999969482422
 30
-0.0000000000000147
 70
   192
  0
VERTEX
  5
2D8
  8
0
 10
77.63423156738281
 20
133.1544342041016
 30
-0.0513628348708153
 70
   192
  0
VERTEX
  5
2D9
  8
0
 10
87.4000015258789
 20
144.1999969482422
 30
9.75
 70
   192
  0
VERTEX
  5
2DA
  8
0
 10
78.17533874511719
 20
131.0058898925781
 30
-3.155537843704224
 70
   192
  0
VERTEX
  5
2DB
  8
0
 10
79.0239486694336
 20
121.1999969482422
 30
-4.90251350402832
 70
   192
  0
VERTEX
  5
2DC
  8
0
 10
80.07344818115234
 20
131.01220703125
 30
-6.422099113464355
 70
   192
  0
VERTEX
  5
2DD
  8
0
 10
87.4000015258789
 20
144.1999969482422
 30
-9.75
 70
   192
  0
VERTEX
  5
2DE
  8
0
 10
82.55135345458984
 20
144.1999969482422
 30
-8.455670356750488
 70
   192
  0
VERTEX
  5
2DF
  8
0
 10
82.52727508544922
 20
133.1719818115234
 30
-8.421367645263672
 70
   192
  0
VERTEX
  5
2E0
  8
0
 10
82.59215545654297
 20
121.1999969482422
 30
-8.429777145385742
 70
   192
  0
VERTEX
  5
2E1
  8
0
 10
87.4000015258789
 20
121.1999969482422
 30
-9.75
 70
   192
  0
VERTEX
  5
2E2
  8
0
 10
78.98007202148438
 20
144.1999969482422
 30
-4.902158737182617
 70
   192
  0
VERTEX
  5
2E3
  8
0
 10
96.62926483154297
 20
142.3835754394531
 30
-3.121553659439087
 70
   192
  0
VERTEX
  5
2E4
  8
0
 10
120.7943878173828
 20
142.4076843261719
 30
-17.15921783447266
 70
   192
  0
VERTEX
  5
2E5
  8
0
 10
122.2961502075195
 20
140.2415313720703
 30
-14.55809020996094
 70
   192
  0
VERTEX
  5
2E6
  8
0
 10
94.7564697265625
 20
142.3989868164062
 30
-6.397024154663086
 70
   192
  0
VERTEX
  5
2E7
  8
0
 10
122.8759536743164
 20
136.6999969482422
 30
-13.55384731292725
 70
   192
  0
VERTEX
  5
2E8
  8
0
 10
97.05558776855469
 20
136.6999969482422
 30
1.353545904159546
 70
   192
  0
VERTEX
  5
2E9
  8
0
 10
97.1294174194336
 20
140.2234344482422
 30
-0.0062602874822915
 70
   192
  0
VERTEX
  5
2EA
  8
0
 10
118.9435348510742
 20
142.4021301269531
 30
-20.36499977111816
 70
   192
  0
VERTEX
  5
2EB
  8
0
 10
92.33134460449219
 20
140.2517242431641
 30
-8.429702758789062
 70
   192
  0
VERTEX
  5
2EC
  8
0
 10
117.4438705444336
 20
140.2059631347656
 30
-22.96248435974121
 70
   192
  0
VERTEX
  5
2ED
  8
0
 10
91.05558776855469
 20
136.6999969482422
 30
-9.038759231567383
 70
   192
  0
VERTEX
  5
2EE
  8
0
 10
116.8759536743164
 20
136.6999969482422
 30
-23.94615173339844
 70
   192
  0
VERTEX
  5
2EF
  8
0
 10
117.4511108398438
 20
133.22265625
 30
-22.94994926452637
 70
   192
  0
VERTEX
  5
2F0
  8
0
 10
118.9399642944336
 20
131.0141296386719
 30
-20.37117958068848
 70
   192
  0
VERTEX
  5
2F1
  8
0
 10
120.7936248779297
 20
130.9971466064453
 30
-17.16054916381836
 70
   192
  0
VERTEX
  5
2F2
  8
0
 10
122.3047943115234
 20
133.1442260742188
 30
-14.54312515258789
 70
   192
  0
VERTEX
  5
2F3
  8
0
 10
97.16606140136719
 20
133.1510772705078
 30
-0.0533504523336887
 70
   192
  0
VERTEX
  5
2F4
  8
0
 10
94.717041015625
 20
131.0168914794922
 30
-6.433069705963135
 70
   192
  0
VERTEX
  5
2F5
  8
0
 10
96.61849975585938
 20
131.0018157958984
 30
-3.17097282409668
 70
   192
  0
VERTEX
  5
2F6
  8
0
 10
92.26976776123047
 20
133.1770477294922
 30
-8.423020362854004
 70
   192
  0
VERTEX
  5
2F7
  8
0
 10
92.2486572265625
 20
144.1999969482422
 30
8.455687522888184
 70
   192
  0
VERTEX
  5
2F8
  8
0
 10
90.42515563964844
 20
131.5150146484375
 30
9.27977466583252
 70
   192
  0
VERTEX
  5
2F9
  8
0
 10
92.57105255126953
 20
133.6631927490234
 30
8.292299270629883
 70
   192
  0
VERTEX
  5
2FA
  8
0
 10
92.20783996582031
 20
121.1999969482422
 30
8.429777145385742
 70
   192
  0
VERTEX
  5
2FB
  8
0
 10
95.84732818603516
 20
121.1999969482422
 30
-4.848724842071533
 70
   192
  0
VERTEX
  5
2FC
  8
0
 10
92.32369995117188
 20
121.1999969482422
 30
-8.45390796661377
 70
   192
  0
VERTEX
  5
2FD
  8
0
 10
97.1500015258789
 20
121.1999969482422
 30
-0.0000000000000147
 70
   192
  0
VERTEX
  5
2FE
  8
0
 10
92.30216217041016
 20
144.1999969482422
 30
-8.41993522644043
 70
   192
  0
VERTEX
  5
2FF
  8
0
 10
95.81993865966797
 20
144.1999969482422
 30
4.90216064453125
 70
   192
  0
VERTEX
  5
300
  8
0
 10
95.77605438232422
 20
121.1999969482422
 30
4.90251350402832
 70
   192
  0
VERTEX
  5
301
  8
0
 10
95.8556900024414
 20
144.1999969482422
 30
-4.848654270172119
 70
   192
  0
VERTEX
  5
302
  8
0
 10
97.1500015258789
 20
144.1999969482422
 30
-0.0000000000000231
 70
   192
  0
VERTEX
  5
303
  8
0
 10
52.49920654296875
 20
133.22265625
 30
-14.55004978179932
 70
   192
  0
VERTEX
  5
304
  8
0
 10
53.98805999755859
 20
131.0141296386719
 30
-17.12882041931152
 70
   192
  0
VERTEX
  5
305
  8
0
 10
55.84171676635742
 20
130.9971466064453
 30
-20.33945083618164
 70
   192
  0
VERTEX
  5
306
  8
0
 10
57.35288619995117
 20
133.1442260742188
 30
-22.95687484741211
 70
   192
  0
VERTEX
  5
307
  8
0
 10
92.24968719482422
 20
133.22265625
 30
37.5
 70
   192
  0
VERTEX
  5
308
  8
0
 10
89.27197265625
 20
131.0141296386719
 30
37.5
 70
   192
  0
VERTEX
  5
309
  8
0
 10
82.54232025146484
 20
133.1442260742188
 30
37.5
 70
   192
  0
VERTEX
  5
30A
  8
0
 10
85.56465911865234
 20
130.9971466064453
 30
37.5
 70
   192
  0
VERTEX
  5
30B
  8
0
 62
     9
 10
0.0
 20
0.0
 30
0.0
 70
   128
 71
     3
 72
     2
 73
     1
  0
VERTEX
  5
30C
  8
0
 62
     9
 10
0.0
 20
0.0
 30
0.0
 70
   128
 71
     4
 72
     2
 73
     3
  0
VERTEX
  5
30D
  8
0
 62
     9
 10
0.0
 20
0.0
 30
0.0
 70
   128
 71
     6
 72
     5
 73
     1
  0
VERTEX
  5
30E
  8
0
 62
     9
 10
0.0
 20
0.0
 30
0.0
 70
   128
 71
     3
 72
     1
 73
     5
  0
VERTEX
  5
30F
  8
0
 62
     9
 10
0.0
 20
0.0
 30
0.0
 70
   128
 71
     8
 72
     7
 73
     6
  0
VERTEX
  5
310
  8
0
 62
     9
 10
0.0
 20
0.0
 30
0.0
 70
   128
 71
     6
 72
     7
 73
     5
  0
VERTEX
  5
311
  8
0
 62
     9
 10
0.0
 20
0.0
 30
0.0
 70
   128
 71
     2
 72
     4
 73
     9
  0
VERTEX
  5
312
  8
0
 62
     9
 10
0.0
 20
0.0
 30
0.0
 70
   128
 71
    11
 72
    10
 73
     9
  0
VERTEX
  5
313
  8
0
 62
     9
 10
0.0
 20
0.0
 30
0.0
 70
   128
 71
     9
 72
     4
 73
    11
  0
VERTEX
  5
314
  8
0
 62
     9
 10
0.0
 20
0.0
 30
0.0
 70
   128
 71
    12
 72
    10
 73
    11
  0
VERTEX
  5
315
  8
0
 62
     9
 10
0.0
 20
0.0
 30
0.0
 70
   128
 71
    12
 72
    13
 73
    10
  0
VERTEX
  5
316
  8
0
 62
     9
 10
0.0
 20
0.0
 30
0.0
 70
   128
 71
    16
 72
    15
 73
    14
  0
VERTEX
  5
317
  8
0
 62
     9
 10
0.0
 20
0.0
 30
0.0
 70
   128
 71
    15
 72
    17
 73
    14
  0
VERTEX
  5
318
  8
0
 62
     9
 10
0.0
 20
0.0
 30
0.0
 70
   128
 71
    20
 72
    19
 73
    18
  0
VERTEX
  5
319
  8
0
 62
     9
 10
0.0
 20
0.0
 30
0.0
 70
   128
 71
    16
 72
    14
 73
    20
  0
VERTEX
  5
31A
  8
0
 62
     9
 10
0.0
 20
0.0
 30
0.0
 70
   128
 71
    20
 72
    18
 73
    16
  0
VERTEX
  5
31B
  8
0
 62
     9
 10
0.0
 20
0.0
 30
0.0
 70
   128
 71
    21
 72
    17
 73
    15
  0
VERTEX
  5
31C
  8
0
 62
     9
 10
0.0
 20
0.0
 30
0.0
 70
   128
 71
    21
 72
    23
 73
    22
  0
VERTEX
  5
31D
  8
0
 62
     9
 10
0.0
 20
0.0
 30
0.0
 70
   128
 71
    22
 72
    17
 73
    21
  0
VERTEX
  5
31E
  8
0
 62
     9
 10
0.0
 20
0.0
 30
0.0
 70
   128
 71
    23
 72
    24
 73
    22
  0
VERTEX
  5
31F
  8
0
 62
     9
 10
0.0
 20
0.0
 30
0.0
 70
   128
 71
    23
 72
    25
 73
    24
  0
VERTEX
  5
320
  8
0
 62
     9
 10
0.0
 20
0.0
 30
0.0
 70
   128
 71
    27
 72
     8
 73
    26
  0
VERTEX
  5
321
  8
0
 62
     9
 10
0.0
 20
0.0
 30
0.0
 70
   128
 71
     8
 72
    29
 73
    28
  0
VERTEX
  5
322
  8
0
 62
     9
 10
0.0
 20
0.0
 30
0.0
 70
   128
 71
    29
 72
     8
 73
    27
  0
VERTEX
  5
323
  8
0
 62
     9
 10
0.0
 20
0.0
 30
0.0
 70
   128
 71
    31
 72
    30
 73
    29
  0
VERTEX
  5
324
  8
0
 62
     9
 10
0.0
 20
0.0
 30
0.0
 70
   128
 71
    28
 72
    29
 73
    30
  0
VERTEX
  5
325
  8
0
 62
     9
 10
0.0
 20
0.0
 30
0.0
 70
   128
 71
    32
 72
    30
 73
    31
  0
VERTEX
  5
326
  8
0
 62
     9
 10
0.0
 20
0.0
 30
0.0
 70
   128
 71
     8
 72
    33
 73
    26
  0
VERTEX
  5
327
  8
0
 62
     9
 10
0.0
 20
0.0
 30
0.0
 70
   128
 71
     8
 72
     6
 73
    33
  0
VERTEX
  5
328
  8
0
 62
     9
 10
0.0
 20
0.0
 30
0.0
 70
   128
 71
    26
 72
    34
 73
    24
  0
VERTEX
  5
329
  8
0
 62
     9
 10
0.0
 20
0.0
 30
0.0
 70
   128
 71
    26
 72
    24
 73
    27
  0
VERTEX
  5
32A
  8
0
 62
     9
 10
0.0
 20
0.0
 30
0.0
 70
   128
 71
    33
 72
     6
 73
     1
  0
VERTEX
  5
32B
  8
0
 62
     9
 10
0.0
 20
0.0
 30
0.0
 70
   128
 71
    36
 72
    35
 73
    24
  0
VERTEX
  5
32C
  8
0
 62
     9
 10
0.0
 20
0.0
 30
0.0
 70
   128
 71
    37
 72
     1
 73
     2
  0
VERTEX
  5
32D
  8
0
 62
     9
 10
0.0
 20
0.0
 30
0.0
 70
   128
 71
    33
 72
     1
 73
    37
  0
VERTEX
  5
32E
  8
0
 62
     9
 10
0.0
 20
0.0
 30
0.0
 70
   128
 71
    40
 72
    39
 73
    38
  0
VERTEX
  5
32F
  8
0
 62
     9
 10
0.0
 20
0.0
 30
0.0
 70
   128
 71
    38
 72
    39
 73
    35
  0
VERTEX
  5
330
  8
0
 62
     9
 10
0.0
 20
0.0
 30
0.0
 70
   128
 71
    42
 72
    41
 73
    19
  0
VERTEX
  5
331
  8
0
 62
     9
 10
0.0
 20
0.0
 30
0.0
 70
   128
 71
    44
 72
    40
 73
    43
  0
VERTEX
  5
332
  8
0
 62
     9
 10
0.0
 20
0.0
 30
0.0
 70
   128
 71
    41
 72
    45
 73
    19
  0
VERTEX
  5
333
  8
0
 62
     9
 10
0.0
 20
0.0
 30
0.0
 70
   128
 71
    34
 72
    22
 73
    24
  0
VERTEX
  5
334
  8
0
 62
     9
 10
0.0
 20
0.0
 30
0.0
 70
   128
 71
    24
 72
    35
 73
    27
  0
VERTEX
  5
335
  8
0
 62
     9
 10
0.0
 20
0.0
 30
0.0
 70
   128
 71
    46
 72
    14
 73
    17
  0
VERTEX
  5
336
  8
0
 62
     9
 10
0.0
 20
0.0
 30
0.0
 70
   128
 71
    36
 72
    38
 73
    35
  0
VERTEX
  5
337
  8
0
 62
     9
 10
0.0
 20
0.0
 30
0.0
 70
   128
 71
    22
 72
    34
 73
    17
  0
VERTEX
  5
338
  8
0
 62
     9
 10
0.0
 20
0.0
 30
0.0
 70
   128
 71
    14
 72
    42
 73
    20
  0
VERTEX
  5
339
  8
0
 62
     9
 10
0.0
 20
0.0
 30
0.0
 70
   128
 71
    39
 72
    40
 73
    44
  0
VERTEX
  5
33A
  8
0
 62
     9
 10
0.0
 20
0.0
 30
0.0
 70
   128
 71
    19
 72
    20
 73
    42
  0
VERTEX
  5
33B
  8
0
 62
     9
 10
0.0
 20
0.0
 30
0.0
 70
   128
 71
    44
 72
    19
 73
    45
  0
VERTEX
  5
33C
  8
0
 62
     9
 10
0.0
 20
0.0
 30
0.0
 70
   128
 71
    19
 72
    44
 73
    43
  0
VERTEX
  5
33D
  8
0
 62
     9
 10
0.0
 20
0.0
 30
0.0
 70
   128
 71
    42
 72
    14
 73
    46
  0
VERTEX
  5
33E
  8
0
 62
     9
 10
0.0
 20
0.0
 30
0.0
 70
   128
 71
    46
 72
    17
 73
    34
  0
VERTEX
  5
33F
  8
0
 62
     9
 10
0.0
 20
0.0
 30
0.0
 70
   128
 71
    49
 72
    48
 73
    47
  0
VERTEX
  5
340
  8
0
 62
     9
 10
0.0
 20
0.0
 30
0.0
 70
   128
 71
    48
 72
    50
 73
    47
  0
VERTEX
  5
341
  8
0
 62
     9
 10
0.0
 20
0.0
 30
0.0
 70
   128
 71
    53
 72
    52
 73
    51
  0
VERTEX
  5
342
  8
0
 62
     9
 10
0.0
 20
0.0
 30
0.0
 70
   128
 71
    49
 72
    47
 73
    53
  0
VERTEX
  5
343
  8
0
 62
     9
 10
0.0
 20
0.0
 30
0.0
 70
   128
 71
    53
 72
    51
 73
    49
  0
VERTEX
  5
344
  8
0
 62
     9
 10
0.0
 20
0.0
 30
0.0
 70
   128
 71
    54
 72
    50
 73
    48
  0
VERTEX
  5
345
  8
0
 62
     9
 10
0.0
 20
0.0
 30
0.0
 70
   128
 71
    54
 72
    56
 73
    55
  0
VERTEX
  5
346
  8
0
 62
     9
 10
0.0
 20
0.0
 30
0.0
 70
   128
 71
    55
 72
    50
 73
    54
  0
VERTEX
  5
347
  8
0
 62
     9
 10
0.0
 20
0.0
 30
0.0
 70
   128
 71
    56
 72
    57
 73
    55
  0
VERTEX
  5
348
  8
0
 62
     9
 10
0.0
 20
0.0
 30
0.0
 70
   128
 71
    56
 72
    58
 73
    57
  0
VERTEX
  5
349
  8
0
 62
     9
 10
0.0
 20
0.0
 30
0.0
 70
   128
 71
    60
 72
    59
 73
    58
  0
VERTEX
  5
34A
  8
0
 62
     9
 10
0.0
 20
0.0
 30
0.0
 70
   128
 71
    61
 72
    58
 73
    56
  0
VERTEX
  5
34B
  8
0
 62
     9
 10
0.0
 20
0.0
 30
0.0
 70
   128
 71
    58
 72
    61
 73
    60
  0
VERTEX
  5
34C
  8
0
 62
     9
 10
0.0
 20
0.0
 30
0.0
 70
   128
 71
    61
 72
    56
 73
    62
  0
VERTEX
  5
34D
  8
0
 62
     9
 10
0.0
 20
0.0
 30
0.0
 70
   128
 71
    62
 72
    56
 73
    54
  0
VERTEX
  5
34E
  8
0
 62
     9
 10
0.0
 20
0.0
 30
0.0
 70
   128
 71
    51
 72
    54
 73
    48
  0
VERTEX
  5
34F
  8
0
 62
     9
 10
0.0
 20
0.0
 30
0.0
 70
   128
 71
    54
 72
    51
 73
    62
  0
VERTEX
  5
350
  8
0
 62
     9
 10
0.0
 20
0.0
 30
0.0
 70
   128
 71
    48
 72
    49
 73
    51
  0
VERTEX
  5
351
  8
0
 62
     9
 10
0.0
 20
0.0
 30
0.0
 70
   128
 71
    52
 72
    63
 73
    62
  0
VERTEX
  5
352
  8
0
 62
     9
 10
0.0
 20
0.0
 30
0.0
 70
   128
 71
    59
 72
    60
 73
    64
  0
VERTEX
  5
353
  8
0
 62
     9
 10
0.0
 20
0.0
 30
0.0
 70
   128
 71
    60
 72
    61
 73
    65
  0
VERTEX
  5
354
  8
0
 62
     9
 10
0.0
 20
0.0
 30
0.0
 70
   128
 71
    57
 72
    58
 73
    66
  0
VERTEX
  5
355
  8
0
 62
     9
 10
0.0
 20
0.0
 30
0.0
 70
   128
 71
    59
 72
    66
 73
    58
  0
VERTEX
  5
356
  8
0
 62
     9
 10
0.0
 20
0.0
 30
0.0
 70
   128
 71
    60
 72
    65
 73
    64
  0
VERTEX
  5
357
  8
0
 62
     9
 10
0.0
 20
0.0
 30
0.0
 70
   128
 71
    59
 72
    64
 73
    66
  0
VERTEX
  5
358
  8
0
 62
     9
 10
0.0
 20
0.0
 30
0.0
 70
   128
 71
    61
 72
    62
 73
    63
  0
VERTEX
  5
359
  8
0
 62
     9
 10
0.0
 20
0.0
 30
0.0
 70
   128
 71
    61
 72
    63
 73
    65
  0
VERTEX
  5
35A
  8
0
 62
     9
 10
0.0
 20
0.0
 30
0.0
 70
   128
 71
    62
 72
    51
 73
    52
  0
VERTEX
  5
35B
  8
0
 62
     9
 10
0.0
 20
0.0
 30
0.0
 70
   128
 71
    67
 72
    37
 73
     9
  0
VERTEX
  5
35C
  8
0
 62
     9
 10
0.0
 20
0.0
 30
0.0
 70
   128
 71
    70
 72
    69
 73
    68
  0
VERTEX
  5
35D
  8
0
 62
     9
 10
0.0
 20
0.0
 30
0.0
 70
   128
 71
    72
 72
    64
 73
    71
  0
VERTEX
  5
35E
  8
0
 62
     9
 10
0.0
 20
0.0
 30
0.0
 70
   128
 71
    73
 72
    63
 73
    52
  0
VERTEX
  5
35F
  8
0
 62
     9
 10
0.0
 20
0.0
 30
0.0
 70
   128
 71
    41
 72
    74
 73
    57
  0
VERTEX
  5
360
  8
0
 62
     9
 10
0.0
 20
0.0
 30
0.0
 70
   128
 71
    72
 72
    57
 73
    66
  0
VERTEX
  5
361
  8
0
 62
     9
 10
0.0
 20
0.0
 30
0.0
 70
   128
 71
    57
 72
    45
 73
    41
  0
VERTEX
  5
362
  8
0
 62
     9
 10
0.0
 20
0.0
 30
0.0
 70
   128
 71
    65
 72
    71
 73
    64
  0
VERTEX
  5
363
  8
0
 62
     9
 10
0.0
 20
0.0
 30
0.0
 70
   128
 71
    65
 72
    63
 73
    73
  0
VERTEX
  5
364
  8
0
 62
     9
 10
0.0
 20
0.0
 30
0.0
 70
   128
 71
    13
 72
    75
 73
    67
  0
VERTEX
  5
365
  8
0
 62
     9
 10
0.0
 20
0.0
 30
0.0
 70
   128
 71
    73
 72
    52
 73
    76
  0
VERTEX
  5
366
  8
0
 62
     9
 10
0.0
 20
0.0
 30
0.0
 70
   128
 71
     9
 72
    10
 73
    67
  0
VERTEX
  5
367
  8
0
 62
     9
 10
0.0
 20
0.0
 30
0.0
 70
   128
 71
     2
 72
     9
 73
    37
  0
VERTEX
  5
368
  8
0
 62
     9
 10
0.0
 20
0.0
 30
0.0
 70
   128
 71
    31
 72
    68
 73
    32
  0
VERTEX
  5
369
  8
0
 62
     9
 10
0.0
 20
0.0
 30
0.0
 70
   128
 71
    70
 72
    76
 73
    13
  0
VERTEX
  5
36A
  8
0
 62
     9
 10
0.0
 20
0.0
 30
0.0
 70
   128
 71
    10
 72
    13
 73
    67
  0
VERTEX
  5
36B
  8
0
 62
     9
 10
0.0
 20
0.0
 30
0.0
 70
   128
 71
    13
 72
    69
 73
    70
  0
VERTEX
  5
36C
  8
0
 62
     9
 10
0.0
 20
0.0
 30
0.0
 70
   128
 71
    75
 72
    13
 73
    76
  0
VERTEX
  5
36D
  8
0
 62
     9
 10
0.0
 20
0.0
 30
0.0
 70
   128
 71
    70
 72
    68
 73
    31
  0
VERTEX
  5
36E
  8
0
 62
     9
 10
0.0
 20
0.0
 30
0.0
 70
   128
 71
    74
 72
    55
 73
    57
  0
VERTEX
  5
36F
  8
0
 62
     9
 10
0.0
 20
0.0
 30
0.0
 70
   128
 71
    57
 72
    72
 73
    45
  0
VERTEX
  5
370
  8
0
 62
     9
 10
0.0
 20
0.0
 30
0.0
 70
   128
 71
    74
 72
    50
 73
    55
  0
VERTEX
  5
371
  8
0
 62
     9
 10
0.0
 20
0.0
 30
0.0
 70
   128
 71
    66
 72
    64
 73
    72
  0
VERTEX
  5
372
  8
0
 62
     9
 10
0.0
 20
0.0
 30
0.0
 70
   128
 71
    47
 72
    50
 73
    77
  0
VERTEX
  5
373
  8
0
 62
     9
 10
0.0
 20
0.0
 30
0.0
 70
   128
 71
    47
 72
    78
 73
    53
  0
VERTEX
  5
374
  8
0
 62
     9
 10
0.0
 20
0.0
 30
0.0
 70
   128
 71
    71
 72
    65
 73
    73
  0
VERTEX
  5
375
  8
0
 62
     9
 10
0.0
 20
0.0
 30
0.0
 70
   128
 71
    78
 72
    75
 73
    52
  0
VERTEX
  5
376
  8
0
 62
     9
 10
0.0
 20
0.0
 30
0.0
 70
   128
 71
    52
 72
    75
 73
    76
  0
VERTEX
  5
377
  8
0
 62
     9
 10
0.0
 20
0.0
 30
0.0
 70
   128
 71
    52
 72
    53
 73
    78
  0
VERTEX
  5
378
  8
0
 62
     9
 10
0.0
 20
0.0
 30
0.0
 70
   128
 71
    78
 72
    47
 73
    77
  0
VERTEX
  5
379
  8
0
 62
     9
 10
0.0
 20
0.0
 30
0.0
 70
   128
 71
    77
 72
    50
 73
    74
  0
VERTEX
  5
37A
  8
0
 62
     9
 10
0.0
 20
0.0
 30
0.0
 70
   128
 71
    80
 72
    79
 73
    25
  0
VERTEX
  5
37B
  8
0
 62
     9
 10
0.0
 20
0.0
 30
0.0
 70
   128
 71
    81
 72
    25
 73
    23
  0
VERTEX
  5
37C
  8
0
 62
     9
 10
0.0
 20
0.0
 30
0.0
 70
   128
 71
    25
 72
    81
 73
    80
  0
VERTEX
  5
37D
  8
0
 62
     9
 10
0.0
 20
0.0
 30
0.0
 70
   128
 71
    81
 72
    23
 73
    82
  0
VERTEX
  5
37E
  8
0
 62
     9
 10
0.0
 20
0.0
 30
0.0
 70
   128
 71
    82
 72
    23
 73
    21
  0
VERTEX
  5
37F
  8
0
 62
     9
 10
0.0
 20
0.0
 30
0.0
 70
   128
 71
    18
 72
    21
 73
    15
  0
VERTEX
  5
380
  8
0
 62
     9
 10
0.0
 20
0.0
 30
0.0
 70
   128
 71
    21
 72
    18
 73
    82
  0
VERTEX
  5
381
  8
0
 62
     9
 10
0.0
 20
0.0
 30
0.0
 70
   128
 71
    15
 72
    16
 73
    18
  0
VERTEX
  5
382
  8
0
 62
     9
 10
0.0
 20
0.0
 30
0.0
 70
   128
 71
    19
 72
    43
 73
    82
  0
VERTEX
  5
383
  8
0
 62
     9
 10
0.0
 20
0.0
 30
0.0
 70
   128
 71
    79
 72
    80
 73
    38
  0
VERTEX
  5
384
  8
0
 62
     9
 10
0.0
 20
0.0
 30
0.0
 70
   128
 71
    80
 72
    81
 73
    40
  0
VERTEX
  5
385
  8
0
 62
     9
 10
0.0
 20
0.0
 30
0.0
 70
   128
 71
    24
 72
    25
 73
    36
  0
VERTEX
  5
386
  8
0
 62
     9
 10
0.0
 20
0.0
 30
0.0
 70
   128
 71
    79
 72
    36
 73
    25
  0
VERTEX
  5
387
  8
0
 62
     9
 10
0.0
 20
0.0
 30
0.0
 70
   128
 71
    80
 72
    40
 73
    38
  0
VERTEX
  5
388
  8
0
 62
     9
 10
0.0
 20
0.0
 30
0.0
 70
   128
 71
    79
 72
    38
 73
    36
  0
VERTEX
  5
389
  8
0
 62
     9
 10
0.0
 20
0.0
 30
0.0
 70
   128
 71
    81
 72
    82
 73
    43
  0
VERTEX
  5
38A
  8
0
 62
     9
 10
0.0
 20
0.0
 30
0.0
 70
   128
 71
    81
 72
    43
 73
    40
  0
VERTEX
  5
38B
  8
0
 62
     9
 10
0.0
 20
0.0
 30
0.0
 70
   128
 71
    82
 72
    18
 73
    19
  0
VERTEX
  5
38C
  8
0
 62
     9
 10
0.0
 20
0.0
 30
0.0
 70
   128
 71
    84
 72
    83
 73
     5
  0
VERTEX
  5
38D
  8
0
 62
     9
 10
0.0
 20
0.0
 30
0.0
 70
   128
 71
     3
 72
    12
 73
    11
  0
VERTEX
  5
38E
  8
0
 62
     9
 10
0.0
 20
0.0
 30
0.0
 70
   128
 71
     4
 72
     3
 73
    11
  0
VERTEX
  5
38F
  8
0
 62
     9
 10
0.0
 20
0.0
 30
0.0
 70
   128
 71
    86
 72
    84
 73
    85
  0
VERTEX
  5
390
  8
0
 62
     9
 10
0.0
 20
0.0
 30
0.0
 70
   128
 71
    84
 72
     7
 73
    85
  0
VERTEX
  5
391
  8
0
 62
     9
 10
0.0
 20
0.0
 30
0.0
 70
   128
 71
     5
 72
     7
 73
    84
  0
VERTEX
  5
392
  8
0
 62
     9
 10
0.0
 20
0.0
 30
0.0
 70
   128
 71
     3
 72
    83
 73
    12
  0
VERTEX
  5
393
  8
0
 62
     9
 10
0.0
 20
0.0
 30
0.0
 70
   128
 71
     5
 72
    83
 73
     3
  0
VERTEX
  5
394
  8
0
 62
     9
 10
0.0
 20
0.0
 30
0.0
 70
   128
 71
     7
 72
     8
 73
    28
  0
VERTEX
  5
395
  8
0
 62
     9
 10
0.0
 20
0.0
 30
0.0
 70
   128
 71
    84
 72
    32
 73
    68
  0
VERTEX
  5
396
  8
0
 62
     9
 10
0.0
 20
0.0
 30
0.0
 70
   128
 71
    86
 72
    85
 73
    30
  0
VERTEX
  5
397
  8
0
 62
     9
 10
0.0
 20
0.0
 30
0.0
 70
   128
 71
    12
 72
    83
 73
    69
  0
VERTEX
  5
398
  8
0
 62
     9
 10
0.0
 20
0.0
 30
0.0
 70
   128
 71
    68
 72
    69
 73
    83
  0
VERTEX
  5
399
  8
0
 62
     9
 10
0.0
 20
0.0
 30
0.0
 70
   128
 71
    12
 72
    69
 73
    13
  0
VERTEX
  5
39A
  8
0
 62
     9
 10
0.0
 20
0.0
 30
0.0
 70
   128
 71
    32
 72
    84
 73
    86
  0
VERTEX
  5
39B
  8
0
 62
     9
 10
0.0
 20
0.0
 30
0.0
 70
   128
 71
    84
 72
    68
 73
    83
  0
VERTEX
  5
39C
  8
0
 62
     9
 10
0.0
 20
0.0
 30
0.0
 70
   128
 71
    85
 72
    28
 73
    30
  0
VERTEX
  5
39D
  8
0
 62
     9
 10
0.0
 20
0.0
 30
0.0
 70
   128
 71
    86
 72
    30
 73
    32
  0
VERTEX
  5
39E
  8
0
 62
     9
 10
0.0
 20
0.0
 30
0.0
 70
   128
 71
    28
 72
    85
 73
     7
  0
VERTEX
  5
39F
  8
0
 62
     9
 10
0.0
 20
0.0
 30
0.0
 70
   128
 71
    37
 72
    34
 73
    33
  0
VERTEX
  5
3A0
  8
0
 62
     9
 10
0.0
 20
0.0
 30
0.0
 70
   128
 71
    75
 72
    41
 73
    42
  0
VERTEX
  5
3A1
  8
0
 62
     9
 10
0.0
 20
0.0
 30
0.0
 70
   128
 71
    33
 72
    34
 73
    26
  0
VERTEX
  5
3A2
  8
0
 62
     9
 10
0.0
 20
0.0
 30
0.0
 70
   128
 71
    46
 72
    37
 73
    67
  0
VERTEX
  5
3A3
  8
0
 62
     9
 10
0.0
 20
0.0
 30
0.0
 70
   128
 71
    46
 72
    34
 73
    37
  0
VERTEX
  5
3A4
  8
0
 62
     9
 10
0.0
 20
0.0
 30
0.0
 70
   128
 71
    75
 72
    42
 73
    46
  0
VERTEX
  5
3A5
  8
0
 62
     9
 10
0.0
 20
0.0
 30
0.0
 70
   128
 71
    46
 72
    67
 73
    75
  0
VERTEX
  5
3A6
  8
0
 62
     9
 10
0.0
 20
0.0
 30
0.0
 70
   128
 71
    78
 72
    41
 73
    75
  0
VERTEX
  5
3A7
  8
0
 62
     9
 10
0.0
 20
0.0
 30
0.0
 70
   128
 71
    77
 72
    74
 73
    78
  0
VERTEX
  5
3A8
  8
0
 62
     9
 10
0.0
 20
0.0
 30
0.0
 70
   128
 71
    74
 72
    41
 73
    78
  0
SEQEND
  5
3A9
  8
0
 62
     9
  0
ENDBLK
  5
3AC
  8
0
  0
BLOCK
  8
0
  2
42
 70
     0
 10
0.0
 20
0.0
 30
0.0
  3
42
  1

  0
POLYLINE
  5
3AE
  8
0
 62
     9
 66
     1
 10
0.0
 20
0.0
 30
0.0
 70
    64
 71
    71
 72
   101
  0
VERTEX
  5
3AF
  8
0
 10
96.14195251464844
 20
121.0
 30
-12.0024528503418
 70
   192
  0
VERTEX
  5
3B0
  8
0
 10
93.4480209350586
 20
116.0
 30
-13.565749168396
 70
   192
  0
VERTEX
  5
3B1
  8
0
 10
96.11662292480469
 20
116.0
 30
-11.99571132659912
 70
   192
  0
VERTEX
  5
3B2
  8
0
 10
98.42826080322266
 20
116.0
 30
-9.925766944885254
 70
   192
  0
VERTEX
  5
3B3
  8
0
 10
98.44322967529297
 20
121.0
 30
-9.927652359008789
 70
   192
  0
VERTEX
  5
3B4
  8
0
 10
100.2576293945312
 20
121.0
 30
-7.431043148040771
 70
   192
  0
VERTEX
  5
3B5
  8
0
 10
100.2544403076172
 20
116.0
 30
-7.420612335205078
 70
   192
  0
VERTEX
  5
3B6
  8
0
 10
101.5214233398438
 20
116.0
 30
-4.580450057983398
 70
   192
  0
VERTEX
  5
3B7
  8
0
 10
101.5233306884766
 20
121.0
 30
-4.587871074676514
 70
   192
  0
VERTEX
  5
3B8
  8
0
 10
102.1608810424805
 20
116.0
 30
-1.541171193122864
 70
   192
  0
VERTEX
  5
3B9
  8
0
 10
102.1698226928711
 20
121.0
 30
-1.535497903823853
 70
   192
  0
VERTEX
  5
3BA
  8
0
 10
102.1681289672852
 20
121.0
 30
1.556461691856384
 70
   192
  0
VERTEX
  5
3BB
  8
0
 10
102.1589965820312
 20
116.0
 30
1.560301780700684
 70
   192
  0
VERTEX
  5
3BC
  8
0
 10
101.5158843994141
 20
116.0
 30
4.592738151550293
 70
   192
  0
VERTEX
  5
3BD
  8
0
 10
101.527229309082
 20
121.0
 30
4.577127933502197
 70
   192
  0
VERTEX
  5
3BE
  8
0
 10
100.2604751586914
 20
121.0
 30
7.425000190734863
 70
   192
  0
VERTEX
  5
3BF
  8
0
 10
100.2604751586914
 20
116.0
 30
7.425000190734863
 70
   192
  0
VERTEX
  5
3C0
  8
0
 10
93.439697265625
 20
121.0
 30
-13.56569194793701
 70
   192
  0
VERTEX
  5
3C1
  8
0
 10
90.48114776611328
 20
116.0
 30
-14.44936847686768
 70
   192
  0
VERTEX
  5
3C2
  8
0
 10
90.48602294921875
 20
121.0
 30
-14.52622032165527
 70
   192
  0
VERTEX
  5
3C3
  8
0
 10
87.41595458984375
 20
121.0
 30
-14.84932804107666
 70
   192
  0
VERTEX
  5
3C4
  8
0
 10
87.40074920654297
 20
116.0
 30
-14.85322761535645
 70
   192
  0
VERTEX
  5
3C5
  8
0
 10
84.32515716552734
 20
121.0
 30
-14.52656841278076
 70
   192
  0
VERTEX
  5
3C6
  8
0
 10
84.31316375732422
 20
116.0
 30
-14.52904796600342
 70
   192
  0
VERTEX
  5
3C7
  8
0
 10
81.35926818847656
 20
116.0
 30
-13.57616901397705
 70
   192
  0
VERTEX
  5
3C8
  8
0
 10
81.35511016845703
 20
121.0
 30
-13.56331634521484
 70
   192
  0
VERTEX
  5
3C9
  8
0
 10
78.67186737060547
 20
121.0
 30
-12.01431179046631
 70
   192
  0
VERTEX
  5
3CA
  8
0
 10
78.66838073730469
 20
116.0
 30
-12.02381801605225
 70
   192
  0
VERTEX
  5
3CB
  8
0
 10
76.37455749511719
 20
121.0
 30
-9.947571754455566
 70
   192
  0
VERTEX
  5
3CC
  8
0
 10
76.36019134521484
 20
116.0
 30
-9.943431854248047
 70
   192
  0
VERTEX
  5
3CD
  8
0
 10
74.53952026367188
 20
116.0
 30
-7.425000190734863
 70
   192
  0
VERTEX
  5
3CE
  8
0
 10
74.53952026367188
 20
121.0
 30
-7.425000190734863
 70
   192
  0
VERTEX
  5
3CF
  8
0
 10
90.83682250976562
 20
121.0
 30
6.665854930877686
 70
   192
  0
VERTEX
  5
3D0
  8
0
 10
90.49392700195312
 20
121.0
 30
14.51973628997803
 70
   192
  0
VERTEX
  5
3D1
  8
0
 10
86.68870544433594
 20
121.0
 30
7.465733528137207
 70
   192
  0
VERTEX
  5
3D2
  8
0
 10
81.36972045898438
 20
121.0
 30
13.54667472839355
 70
   192
  0
VERTEX
  5
3D3
  8
0
 10
82.76582336425781
 20
121.0
 30
5.896536350250244
 70
   192
  0
VERTEX
  5
3D4
  8
0
 10
78.67572784423828
 20
121.0
 30
12.02061080932617
 70
   192
  0
VERTEX
  5
3D5
  8
0
 10
87.4007797241211
 20
121.0
 30
14.84257698059082
 70
   192
  0
VERTEX
  5
3D6
  8
0
 10
84.31816864013672
 20
121.0
 30
14.51363945007324
 70
   192
  0
VERTEX
  5
3D7
  8
0
 10
74.53710174560547
 20
121.0
 30
7.427259922027588
 70
   192
  0
VERTEX
  5
3D8
  8
0
 10
80.3133544921875
 20
121.0
 30
2.455098390579224
 70
   192
  0
VERTEX
  5
3D9
  8
0
 10
76.42705535888672
 20
121.0
 30
9.893035888671875
 70
   192
  0
VERTEX
  5
3DA
  8
0
 10
93.44574737548828
 20
121.0
 30
13.55388259887695
 70
   192
  0
VERTEX
  5
3DB
  8
0
 10
96.1307601928711
 20
121.0
 30
12.0015172958374
 70
   192
  0
VERTEX
  5
3DC
  8
0
 10
72.62232971191406
 20
121.0
 30
1.556657075881958
 70
   192
  0
VERTEX
  5
3DD
  8
0
 10
73.27405548095703
 20
121.0
 30
4.59124755859375
 70
   192
  0
VERTEX
  5
3DE
  8
0
 10
98.43537139892578
 20
121.0
 30
9.928346633911133
 70
   192
  0
VERTEX
  5
3DF
  8
0
 10
80.11084747314453
 20
121.0
 30
-1.765772581100464
 70
   192
  0
VERTEX
  5
3E0
  8
0
 10
94.89131927490234
 20
121.0
 30
-0.3594194352626801
 70
   192
  0
VERTEX
  5
3E1
  8
0
 10
93.89518737792969
 20
121.0
 30
3.75
 70
   192
  0
VERTEX
  5
3E2
  8
0
 10
90.18388366699219
 20
121.0
 30
-6.963961601257324
 70
   192
  0
VERTEX
  5
3E3
  8
0
 10
85.97708129882812
 20
121.0
 30
-7.363615989685059
 70
   192
  0
VERTEX
  5
3E4
  8
0
 10
93.50711059570312
 20
121.0
 30
-4.353229999542236
 70
   192
  0
VERTEX
  5
3E5
  8
0
 10
82.22224426269531
 20
121.0
 30
-5.425844669342041
 70
   192
  0
VERTEX
  5
3E6
  8
0
 10
72.62126159667969
 20
121.0
 30
-1.549894213676453
 70
   192
  0
VERTEX
  5
3E7
  8
0
 10
73.26882934570312
 20
121.0
 30
-4.589037418365479
 70
   192
  0
VERTEX
  5
3E8
  8
0
 10
90.48683166503906
 20
116.0
 30
14.52904796600342
 70
   192
  0
VERTEX
  5
3E9
  8
0
 10
96.1316146850586
 20
116.0
 30
12.02381801605225
 70
   192
  0
VERTEX
  5
3EA
  8
0
 10
93.44073486328125
 20
116.0
 30
13.57616901397705
 70
   192
  0
VERTEX
  5
3EB
  8
0
 10
81.35198211669922
 20
116.0
 30
13.565749168396
 70
   192
  0
VERTEX
  5
3EC
  8
0
 10
84.31885528564453
 20
116.0
 30
14.44936847686768
 70
   192
  0
VERTEX
  5
3ED
  8
0
 10
74.54556274414062
 20
116.0
 30
7.420612335205078
 70
   192
  0
VERTEX
  5
3EE
  8
0
 10
76.37173461914062
 20
116.0
 30
9.925766944885254
 70
   192
  0
VERTEX
  5
3EF
  8
0
 10
72.63912200927734
 20
116.0
 30
1.541171193122864
 70
   192
  0
VERTEX
  5
3F0
  8
0
 10
73.27857971191406
 20
116.0
 30
4.580450057983398
 70
   192
  0
VERTEX
  5
3F1
  8
0
 10
72.64099884033203
 20
116.0
 30
-1.560301780700684
 70
   192
  0
VERTEX
  5
3F2
  8
0
 10
73.28411102294922
 20
116.0
 30
-4.592738151550293
 70
   192
  0
VERTEX
  5
3F3
  8
0
 10
78.6833724975586
 20
116.0
 30
11.99571132659912
 70
   192
  0
VERTEX
  5
3F4
  8
0
 10
87.39925384521484
 20
116.0
 30
14.85322761535645
 70
   192
  0
VERTEX
  5
3F5
  8
0
 10
98.43980407714844
 20
116.0
 30
9.943431854248047
 70
   192
  0
VERTEX
  5
3F6
  8
0
 62
     9
 10
0.0
 20
0.0
 30
0.0
 70
   128
 71
     3
 72
     2
 73
     1
  0
VERTEX
  5
3F7
  8
0
 62
     9
 10
0.0
 20
0.0
 30
0.0
 70
   128
 71
     1
 72
     5
 73
     4
  0
VERTEX
  5
3F8
  8
0
 62
     9
 10
0.0
 20
0.0
 30
0.0
 70
   128
 71
     4
 72
     3
 73
     1
  0
VERTEX
  5
3F9
  8
0
 62
     9
 10
0.0
 20
0.0
 30
0.0
 70
   128
 71
     7
 72
     5
 73
     6
  0
VERTEX
  5
3FA
  8
0
 62
     9
 10
0.0
 20
0.0
 30
0.0
 70
   128
 71
     5
 72
     7
 73
     4
  0
VERTEX
  5
3FB
  8
0
 62
     9
 10
0.0
 20
0.0
 30
0.0
 70
   128
 71
     9
 72
     8
 73
     6
  0
VERTEX
  5
3FC
  8
0
 62
     9
 10
0.0
 20
0.0
 30
0.0
 70
   128
 71
     7
 72
     6
 73
     8
  0
VERTEX
  5
3FD
  8
0
 62
     9
 10
0.0
 20
0.0
 30
0.0
 70
   128
 71
     9
 72
    11
 73
    10
  0
VERTEX
  5
3FE
  8
0
 62
     9
 10
0.0
 20
0.0
 30
0.0
 70
   128
 71
    10
 72
     8
 73
     9
  0
VERTEX
  5
3FF
  8
0
 62
     9
 10
0.0
 20
0.0
 30
0.0
 70
   128
 71
    13
 72
    11
 73
    12
  0
VERTEX
  5
400
  8
0
 62
     9
 10
0.0
 20
0.0
 30
0.0
 70
   128
 71
    11
 72
    13
 73
    10
  0
VERTEX
  5
401
  8
0
 62
     9
 10
0.0
 20
0.0
 30
0.0
 70
   128
 71
    15
 72
    14
 73
    12
  0
VERTEX
  5
402
  8
0
 62
     9
 10
0.0
 20
0.0
 30
0.0
 70
   128
 71
    13
 72
    12
 73
    14
  0
VERTEX
  5
403
  8
0
 62
     9
 10
0.0
 20
0.0
 30
0.0
 70
   128
 71
    14
 72
    15
 73
    16
  0
VERTEX
  5
404
  8
0
 62
     9
 10
0.0
 20
0.0
 30
0.0
 70
   128
 71
    17
 72
    14
 73
    16
  0
VERTEX
  5
405
  8
0
 62
     9
 10
0.0
 20
0.0
 30
0.0
 70
   128
 71
     2
 72
    18
 73
     1
  0
VERTEX
  5
406
  8
0
 62
     9
 10
0.0
 20
0.0
 30
0.0
 70
   128
 71
    20
 72
     2
 73
    19
  0
VERTEX
  5
407
  8
0
 62
     9
 10
0.0
 20
0.0
 30
0.0
 70
   128
 71
     2
 72
    20
 73
    18
  0
VERTEX
  5
408
  8
0
 62
     9
 10
0.0
 20
0.0
 30
0.0
 70
   128
 71
    22
 72
    21
 73
    19
  0
VERTEX
  5
409
  8
0
 62
     9
 10
0.0
 20
0.0
 30
0.0
 70
   128
 71
    20
 72
    19
 73
    21
  0
VERTEX
  5
40A
  8
0
 62
     9
 10
0.0
 20
0.0
 30
0.0
 70
   128
 71
    22
 72
    24
 73
    23
  0
VERTEX
  5
40B
  8
0
 62
     9
 10
0.0
 20
0.0
 30
0.0
 70
   128
 71
    23
 72
    21
 73
    22
  0
VERTEX
  5
40C
  8
0
 62
     9
 10
0.0
 20
0.0
 30
0.0
 70
   128
 71
    26
 72
    24
 73
    25
  0
VERTEX
  5
40D
  8
0
 62
     9
 10
0.0
 20
0.0
 30
0.0
 70
   128
 71
    24
 72
    26
 73
    23
  0
VERTEX
  5
40E
  8
0
 62
     9
 10
0.0
 20
0.0
 30
0.0
 70
   128
 71
    28
 72
    27
 73
    25
  0
VERTEX
  5
40F
  8
0
 62
     9
 10
0.0
 20
0.0
 30
0.0
 70
   128
 71
    26
 72
    25
 73
    27
  0
VERTEX
  5
410
  8
0
 62
     9
 10
0.0
 20
0.0
 30
0.0
 70
   128
 71
    28
 72
    30
 73
    29
  0
VERTEX
  5
411
  8
0
 62
     9
 10
0.0
 20
0.0
 30
0.0
 70
   128
 71
    29
 72
    27
 73
    28
  0
VERTEX
  5
412
  8
0
 62
     9
 10
0.0
 20
0.0
 30
0.0
 70
   128
 71
    31
 72
    29
 73
    30
  0
VERTEX
  5
413
  8
0
 62
     9
 10
0.0
 20
0.0
 30
0.0
 70
   128
 71
    31
 72
    32
 73
    29
  0
VERTEX
  5
414
  8
0
 62
     9
 10
0.0
 20
0.0
 30
0.0
 70
   128
 71
    35
 72
    34
 73
    33
  0
VERTEX
  5
415
  8
0
 62
     9
 10
0.0
 20
0.0
 30
0.0
 70
   128
 71
    35
 72
    37
 73
    36
  0
VERTEX
  5
416
  8
0
 62
     9
 10
0.0
 20
0.0
 30
0.0
 70
   128
 71
    38
 72
    36
 73
    37
  0
VERTEX
  5
417
  8
0
 62
     9
 10
0.0
 20
0.0
 30
0.0
 70
   128
 71
    39
 72
    34
 73
    35
  0
VERTEX
  5
418
  8
0
 62
     9
 10
0.0
 20
0.0
 30
0.0
 70
   128
 71
    35
 72
    36
 73
    40
  0
VERTEX
  5
419
  8
0
 62
     9
 10
0.0
 20
0.0
 30
0.0
 70
   128
 71
    37
 72
    42
 73
    41
  0
VERTEX
  5
41A
  8
0
 62
     9
 10
0.0
 20
0.0
 30
0.0
 70
   128
 71
    43
 72
    37
 73
    41
  0
VERTEX
  5
41B
  8
0
 62
     9
 10
0.0
 20
0.0
 30
0.0
 70
   128
 71
    33
 72
    34
 73
    44
  0
VERTEX
  5
41C
  8
0
 62
     9
 10
0.0
 20
0.0
 30
0.0
 70
   128
 71
    44
 72
    45
 73
    33
  0
VERTEX
  5
41D
  8
0
 62
     9
 10
0.0
 20
0.0
 30
0.0
 70
   128
 71
    47
 72
    42
 73
    46
  0
VERTEX
  5
41E
  8
0
 62
     9
 10
0.0
 20
0.0
 30
0.0
 70
   128
 71
    33
 72
    45
 73
    48
  0
VERTEX
  5
41F
  8
0
 62
     9
 10
0.0
 20
0.0
 30
0.0
 70
   128
 71
    46
 72
    42
 73
    49
  0
VERTEX
  5
420
  8
0
 62
     9
 10
0.0
 20
0.0
 30
0.0
 70
   128
 71
    50
 72
    15
 73
    12
  0
VERTEX
  5
421
  8
0
 62
     9
 10
0.0
 20
0.0
 30
0.0
 70
   128
 71
    48
 72
    51
 73
    33
  0
VERTEX
  5
422
  8
0
 62
     9
 10
0.0
 20
0.0
 30
0.0
 70
   128
 71
    12
 72
    11
 73
    50
  0
VERTEX
  5
423
  8
0
 62
     9
 10
0.0
 20
0.0
 30
0.0
 70
   128
 71
    21
 72
    52
 73
    20
  0
VERTEX
  5
424
  8
0
 62
     9
 10
0.0
 20
0.0
 30
0.0
 70
   128
 71
    53
 72
    23
 73
    26
  0
VERTEX
  5
425
  8
0
 62
     9
 10
0.0
 20
0.0
 30
0.0
 70
   128
 71
     1
 72
    52
 73
    54
  0
VERTEX
  5
426
  8
0
 62
     9
 10
0.0
 20
0.0
 30
0.0
 70
   128
 71
    53
 72
    52
 73
    21
  0
VERTEX
  5
427
  8
0
 62
     9
 10
0.0
 20
0.0
 30
0.0
 70
   128
 71
    52
 72
     1
 73
    18
  0
VERTEX
  5
428
  8
0
 62
     9
 10
0.0
 20
0.0
 30
0.0
 70
   128
 71
    54
 72
    50
 73
     9
  0
VERTEX
  5
429
  8
0
 62
     9
 10
0.0
 20
0.0
 30
0.0
 70
   128
 71
     5
 72
    54
 73
     6
  0
VERTEX
  5
42A
  8
0
 62
     9
 10
0.0
 20
0.0
 30
0.0
 70
   128
 71
    27
 72
    55
 73
    26
  0
VERTEX
  5
42B
  8
0
 62
     9
 10
0.0
 20
0.0
 30
0.0
 70
   128
 71
    26
 72
    55
 73
    53
  0
VERTEX
  5
42C
  8
0
 62
     9
 10
0.0
 20
0.0
 30
0.0
 70
   128
 71
    16
 72
    15
 73
    51
  0
VERTEX
  5
42D
  8
0
 62
     9
 10
0.0
 20
0.0
 30
0.0
 70
   128
 71
    55
 72
    29
 73
    32
  0
VERTEX
  5
42E
  8
0
 62
     9
 10
0.0
 20
0.0
 30
0.0
 70
   128
 71
    56
 72
    46
 73
    49
  0
VERTEX
  5
42F
  8
0
 62
     9
 10
0.0
 20
0.0
 30
0.0
 70
   128
 71
    49
 72
    32
 73
    57
  0
VERTEX
  5
430
  8
0
 62
     9
 10
0.0
 20
0.0
 30
0.0
 70
   128
 71
    32
 72
    49
 73
    55
  0
VERTEX
  5
431
  8
0
 62
     9
 10
0.0
 20
0.0
 30
0.0
 70
   128
 71
    16
 72
    51
 73
    48
  0
VERTEX
  5
432
  8
0
 62
     9
 10
0.0
 20
0.0
 30
0.0
 70
   128
 71
    54
 72
     5
 73
     1
  0
VERTEX
  5
433
  8
0
 62
     9
 10
0.0
 20
0.0
 30
0.0
 70
   128
 71
    35
 72
    40
 73
    39
  0
VERTEX
  5
434
  8
0
 62
     9
 10
0.0
 20
0.0
 30
0.0
 70
   128
 71
    37
 72
    43
 73
    38
  0
VERTEX
  5
435
  8
0
 62
     9
 10
0.0
 20
0.0
 30
0.0
 70
   128
 71
    42
 72
    47
 73
    41
  0
VERTEX
  5
436
  8
0
 62
     9
 10
0.0
 20
0.0
 30
0.0
 70
   128
 71
    49
 72
    57
 73
    56
  0
VERTEX
  5
437
  8
0
 62
     9
 10
0.0
 20
0.0
 30
0.0
 70
   128
 71
    55
 72
    27
 73
    29
  0
VERTEX
  5
438
  8
0
 62
     9
 10
0.0
 20
0.0
 30
0.0
 70
   128
 71
    53
 72
    21
 73
    23
  0
VERTEX
  5
439
  8
0
 62
     9
 10
0.0
 20
0.0
 30
0.0
 70
   128
 71
    52
 72
    18
 73
    20
  0
VERTEX
  5
43A
  8
0
 62
     9
 10
0.0
 20
0.0
 30
0.0
 70
   128
 71
    54
 72
     9
 73
     6
  0
VERTEX
  5
43B
  8
0
 62
     9
 10
0.0
 20
0.0
 30
0.0
 70
   128
 71
    50
 72
    11
 73
     9
  0
VERTEX
  5
43C
  8
0
 62
     9
 10
0.0
 20
0.0
 30
0.0
 70
   128
 71
    51
 72
    15
 73
    50
  0
VERTEX
  5
43D
  8
0
 62
     9
 10
0.0
 20
0.0
 30
0.0
 70
   128
 71
    17
 72
    16
 73
    48
  0
VERTEX
  5
43E
  8
0
 62
     9
 10
0.0
 20
0.0
 30
0.0
 70
   128
 71
    58
 72
    44
 73
    34
  0
VERTEX
  5
43F
  8
0
 62
     9
 10
0.0
 20
0.0
 30
0.0
 70
   128
 71
    60
 72
    59
 73
    45
  0
VERTEX
  5
440
  8
0
 62
     9
 10
0.0
 20
0.0
 30
0.0
 70
   128
 71
    38
 72
    61
 73
    36
  0
VERTEX
  5
441
  8
0
 62
     9
 10
0.0
 20
0.0
 30
0.0
 70
   128
 71
    40
 72
    62
 73
    39
  0
VERTEX
  5
442
  8
0
 62
     9
 10
0.0
 20
0.0
 30
0.0
 70
   128
 71
    41
 72
    63
 73
    43
  0
VERTEX
  5
443
  8
0
 62
     9
 10
0.0
 20
0.0
 30
0.0
 70
   128
 71
    64
 72
    38
 73
    43
  0
VERTEX
  5
444
  8
0
 62
     9
 10
0.0
 20
0.0
 30
0.0
 70
   128
 71
    46
 72
    65
 73
    47
  0
VERTEX
  5
445
  8
0
 62
     9
 10
0.0
 20
0.0
 30
0.0
 70
   128
 71
    66
 72
    41
 73
    47
  0
VERTEX
  5
446
  8
0
 62
     9
 10
0.0
 20
0.0
 30
0.0
 70
   128
 71
    46
 72
    56
 73
    67
  0
VERTEX
  5
447
  8
0
 62
     9
 10
0.0
 20
0.0
 30
0.0
 70
   128
 71
    67
 72
    65
 73
    46
  0
VERTEX
  5
448
  8
0
 62
     9
 10
0.0
 20
0.0
 30
0.0
 70
   128
 71
    68
 72
    56
 73
    57
  0
VERTEX
  5
449
  8
0
 62
     9
 10
0.0
 20
0.0
 30
0.0
 70
   128
 71
    56
 72
    68
 73
    67
  0
VERTEX
  5
44A
  8
0
 62
     9
 10
0.0
 20
0.0
 30
0.0
 70
   128
 71
    31
 72
    68
 73
    32
  0
VERTEX
  5
44B
  8
0
 62
     9
 10
0.0
 20
0.0
 30
0.0
 70
   128
 71
    57
 72
    32
 73
    68
  0
VERTEX
  5
44C
  8
0
 62
     9
 10
0.0
 20
0.0
 30
0.0
 70
   128
 71
    41
 72
    66
 73
    63
  0
VERTEX
  5
44D
  8
0
 62
     9
 10
0.0
 20
0.0
 30
0.0
 70
   128
 71
    65
 72
    66
 73
    47
  0
VERTEX
  5
44E
  8
0
 62
     9
 10
0.0
 20
0.0
 30
0.0
 70
   128
 71
    69
 72
    38
 73
    64
  0
VERTEX
  5
44F
  8
0
 62
     9
 10
0.0
 20
0.0
 30
0.0
 70
   128
 71
    63
 72
    64
 73
    43
  0
VERTEX
  5
450
  8
0
 62
     9
 10
0.0
 20
0.0
 30
0.0
 70
   128
 71
    36
 72
    61
 73
    40
  0
VERTEX
  5
451
  8
0
 62
     9
 10
0.0
 20
0.0
 30
0.0
 70
   128
 71
    69
 72
    61
 73
    38
  0
VERTEX
  5
452
  8
0
 62
     9
 10
0.0
 20
0.0
 30
0.0
 70
   128
 71
    39
 72
    62
 73
    70
  0
VERTEX
  5
453
  8
0
 62
     9
 10
0.0
 20
0.0
 30
0.0
 70
   128
 71
    40
 72
    61
 73
    62
  0
VERTEX
  5
454
  8
0
 62
     9
 10
0.0
 20
0.0
 30
0.0
 70
   128
 71
    70
 72
    58
 73
    34
  0
VERTEX
  5
455
  8
0
 62
     9
 10
0.0
 20
0.0
 30
0.0
 70
   128
 71
    34
 72
    39
 73
    70
  0
VERTEX
  5
456
  8
0
 62
     9
 10
0.0
 20
0.0
 30
0.0
 70
   128
 71
    60
 72
    45
 73
    44
  0
VERTEX
  5
457
  8
0
 62
     9
 10
0.0
 20
0.0
 30
0.0
 70
   128
 71
    60
 72
    44
 73
    58
  0
VERTEX
  5
458
  8
0
 62
     9
 10
0.0
 20
0.0
 30
0.0
 70
   128
 71
    59
 72
    71
 73
    48
  0
VERTEX
  5
459
  8
0
 62
     9
 10
0.0
 20
0.0
 30
0.0
 70
   128
 71
    59
 72
    48
 73
    45
  0
VERTEX
  5
45A
  8
0
 62
     9
 10
0.0
 20
0.0
 30
0.0
 70
   128
 71
    48
 72
    71
 73
    17
  0
SEQEND
  5
45B
  8
0
 62
     9
  0
ENDBLK
  5
45E
  8
0
  0
BLOCK
  8
0
  2
43
 70
     0
 10
0.0
 20
0.0
 30
0.0
  3
43
  1

  0
POLYLINE
  5
460
  8
0
 62
     9
 66
     1
 10
0.0
 20
0.0
 30
0.0
 70
    64
 71
    40
 72
    40
  0
VERTEX
  5
461
  8
0
 10
22.10000038146973
 20
-79.77982330322266
 30
14.74356937408447
 70
   192
  0
VERTEX
  5
462
  8
0
 10
22.10000038146973
 20
-75.0
 30
15.5
 70
   192
  0
VERTEX
  5
463
  8
0
 10
64.5999984741211
 20
-75.0
 30
15.5
 70
   192
  0
VERTEX
  5
464
  8
0
 10
64.5999984741211
 20
-79.80187225341797
 30
14.73325824737549
 70
   192
  0
VERTEX
  5
465
  8
0
 10
64.5999984741211
 20
-84.11457824707031
 30
12.52933692932129
 70
   192
  0
VERTEX
  5
466
  8
0
 10
64.5999984741211
 20
-87.54792022705078
 30
9.101149559020996
 70
   192
  0
VERTEX
  5
467
  8
0
 10
22.10000038146973
 20
-84.10537719726562
 30
12.54822063446045
 70
   192
  0
VERTEX
  5
468
  8
0
 10
22.10000038146973
 20
-89.6871109008789
 30
4.794502258300781
 70
   192
  0
VERTEX
  5
469
  8
0
 10
22.10000038146973
 20
-87.53974151611328
 30
9.119475364685059
 70
   192
  0
VERTEX
  5
46A
  8
0
 10
64.5999984741211
 20
-89.6561508178711
 30
4.768749237060547
 70
   192
  0
VERTEX
  5
46B
  8
0
 10
22.10000038146973
 20
-90.5
 30
0.0000000000000062
 70
   192
  0
VERTEX
  5
46C
  8
0
 10
64.5999984741211
 20
-90.5
 30
0.0000000000000159
 70
   192
  0
VERTEX
  5
46D
  8
0
 10
64.5999984741211
 20
-70.22017669677734
 30
14.74356937408447
 70
   192
  0
VERTEX
  5
46E
  8
0
 10
22.10000038146973
 20
-65.88542175292969
 30
12.52933692932129
 70
   192
  0
VERTEX
  5
46F
  8
0
 10
22.10000038146973
 20
-70.19812774658203
 30
14.73325824737549
 70
   192
  0
VERTEX
  5
470
  8
0
 10
64.5999984741211
 20
-65.89462280273438
 30
12.54822063446045
 70
   192
  0
VERTEX
  5
471
  8
0
 10
22.10000038146973
 20
-62.45207977294922
 30
9.101149559020996
 70
   192
  0
VERTEX
  5
472
  8
0
 10
64.5999984741211
 20
-62.46025848388672
 30
9.119475364685059
 70
   192
  0
VERTEX
  5
473
  8
0
 10
64.5999984741211
 20
-60.31288909912109
 30
4.794502258300781
 70
   192
  0
VERTEX
  5
474
  8
0
 10
22.10000038146973
 20
-60.34385299682617
 30
4.768749237060547
 70
   192
  0
VERTEX
  5
475
  8
0
 10
64.5999984741211
 20
-59.5
 30
0.0000000000000121
 70
   192
  0
VERTEX
  5
476
  8
0
 10
22.10000038146973
 20
-59.5
 30
0.0000000000000024
 70
   192
  0
VERTEX
  5
477
  8
0
 10
22.10000038146973
 20
-89.6561508178711
 30
-4.768749237060547
 70
   192
  0
VERTEX
  5
478
  8
0
 10
64.5999984741211
 20
-79.77982330322266
 30
-14.74356937408447
 70
   192
  0
VERTEX
  5
479
  8
0
 10
22.10000038146973
 20
-75.0
 30
-15.5
 70
   192
  0
VERTEX
  5
47A
  8
0
 10
22.10000038146973
 20
-79.80187225341797
 30
-14.73325824737549
 70
   192
  0
VERTEX
  5
47B
  8
0
 10
22.10000038146973
 20
-87.54792022705078
 30
-9.101149559020996
 70
   192
  0
VERTEX
  5
47C
  8
0
 10
64.5999984741211
 20
-87.53974151611328
 30
-9.119475364685059
 70
   192
  0
VERTEX
  5
47D
  8
0
 10
64.5999984741211
 20
-84.10537719726562
 30
-12.54822063446045
 70
   192
  0
VERTEX
  5
47E
  8
0
 10
64.5999984741211
 20
-65.88542175292969
 30
-12.52933692932129
 70
   192
  0
VERTEX
  5
47F
  8
0
 10
22.10000038146973
 20
-65.89462280273438
 30
-12.54822063446045
 70
   192
  0
VERTEX
  5
480
  8
0
 10
22.10000038146973
 20
-70.22017669677734
 30
-14.74356937408447
 70
   192
  0
VERTEX
  5
481
  8
0
 10
64.5999984741211
 20
-75.0
 30
-15.5
 70
   192
  0
VERTEX
  5
482
  8
0
 10
64.5999984741211
 20
-70.19812774658203
 30
-14.73325824737549
 70
   192
  0
VERTEX
  5
483
  8
0
 10
64.5999984741211
 20
-62.45207977294922
 30
-9.101149559020996
 70
   192
  0
VERTEX
  5
484
  8
0
 10
22.10000038146973
 20
-60.31288909912109
 30
-4.794502258300781
 70
   192
  0
VERTEX
  5
485
  8
0
 10
22.10000038146973
 20
-62.46025848388672
 30
-9.119475364685059
 70
   192
  0
VERTEX
  5
486
  8
0
 10
64.5999984741211
 20
-60.34385299682617
 30
-4.768749237060547
 70
   192
  0
VERTEX
  5
487
  8
0
 10
22.10000038146973
 20
-84.11457824707031
 30
-12.52933692932129
 70
   192
  0
VERTEX
  5
488
  8
0
 10
64.5999984741211
 20
-89.6871109008789
 30
-4.794502258300781
 70
   192
  0
VERTEX
  5
489
  8
0
 62
     9
 10
0.0
 20
0.0
 30
0.0
 70
   128
 71
     3
 72
     2
 73
     1
  0
VERTEX
  5
48A
  8
0
 62
     9
 10
0.0
 20
0.0
 30
0.0
 70
   128
 71
     1
 72
     5
 73
     4
  0
VERTEX
  5
48B
  8
0
 62
     9
 10
0.0
 20
0.0
 30
0.0
 70
   128
 71
     3
 72
     1
 73
     4
  0
VERTEX
  5
48C
  8
0
 62
     9
 10
0.0
 20
0.0
 30
0.0
 70
   128
 71
     5
 72
     7
 73
     6
  0
VERTEX
  5
48D
  8
0
 62
     9
 10
0.0
 20
0.0
 30
0.0
 70
   128
 71
     7
 72
     5
 73
     1
  0
VERTEX
  5
48E
  8
0
 62
     9
 10
0.0
 20
0.0
 30
0.0
 70
   128
 71
     6
 72
     9
 73
     8
  0
VERTEX
  5
48F
  8
0
 62
     9
 10
0.0
 20
0.0
 30
0.0
 70
   128
 71
     7
 72
     9
 73
     6
  0
VERTEX
  5
490
  8
0
 62
     9
 10
0.0
 20
0.0
 30
0.0
 70
   128
 71
    11
 72
    10
 73
     8
  0
VERTEX
  5
491
  8
0
 62
     9
 10
0.0
 20
0.0
 30
0.0
 70
   128
 71
     6
 72
     8
 73
    10
  0
VERTEX
  5
492
  8
0
 62
     9
 10
0.0
 20
0.0
 30
0.0
 70
   128
 71
    12
 72
    10
 73
    11
  0
VERTEX
  5
493
  8
0
 62
     9
 10
0.0
 20
0.0
 30
0.0
 70
   128
 71
     2
 72
     3
 73
    13
  0
VERTEX
  5
494
  8
0
 62
     9
 10
0.0
 20
0.0
 30
0.0
 70
   128
 71
    15
 72
    13
 73
    14
  0
VERTEX
  5
495
  8
0
 62
     9
 10
0.0
 20
0.0
 30
0.0
 70
   128
 71
    15
 72
     2
 73
    13
  0
VERTEX
  5
496
  8
0
 62
     9
 10
0.0
 20
0.0
 30
0.0
 70
   128
 71
    17
 72
    14
 73
    16
  0
VERTEX
  5
497
  8
0
 62
     9
 10
0.0
 20
0.0
 30
0.0
 70
   128
 71
    13
 72
    16
 73
    14
  0
VERTEX
  5
498
  8
0
 62
     9
 10
0.0
 20
0.0
 30
0.0
 70
   128
 71
    19
 72
    17
 73
    18
  0
VERTEX
  5
499
  8
0
 62
     9
 10
0.0
 20
0.0
 30
0.0
 70
   128
 71
    17
 72
    16
 73
    18
  0
VERTEX
  5
49A
  8
0
 62
     9
 10
0.0
 20
0.0
 30
0.0
 70
   128
 71
    19
 72
    21
 73
    20
  0
VERTEX
  5
49B
  8
0
 62
     9
 10
0.0
 20
0.0
 30
0.0
 70
   128
 71
    20
 72
    17
 73
    19
  0
VERTEX
  5
49C
  8
0
 62
     9
 10
0.0
 20
0.0
 30
0.0
 70
   128
 71
    21
 72
    22
 73
    20
  0
VERTEX
  5
49D
  8
0
 62
     9
 10
0.0
 20
0.0
 30
0.0
 70
   128
 71
    12
 72
    11
 73
    23
  0
VERTEX
  5
49E
  8
0
 62
     9
 10
0.0
 20
0.0
 30
0.0
 70
   128
 71
    26
 72
    25
 73
    24
  0
VERTEX
  5
49F
  8
0
 62
     9
 10
0.0
 20
0.0
 30
0.0
 70
   128
 71
    29
 72
    28
 73
    27
  0
VERTEX
  5
4A0
  8
0
 62
     9
 10
0.0
 20
0.0
 30
0.0
 70
   128
 71
    32
 72
    31
 73
    30
  0
VERTEX
  5
4A1
  8
0
 62
     9
 10
0.0
 20
0.0
 30
0.0
 70
   128
 71
    34
 72
    33
 73
    32
  0
VERTEX
  5
4A2
  8
0
 62
     9
 10
0.0
 20
0.0
 30
0.0
 70
   128
 71
    37
 72
    36
 73
    35
  0
VERTEX
  5
4A3
  8
0
 62
     9
 10
0.0
 20
0.0
 30
0.0
 70
   128
 71
    37
 72
    35
 73
    31
  0
VERTEX
  5
4A4
  8
0
 62
     9
 10
0.0
 20
0.0
 30
0.0
 70
   128
 71
    38
 72
    36
 73
    22
  0
VERTEX
  5
4A5
  8
0
 62
     9
 10
0.0
 20
0.0
 30
0.0
 70
   128
 71
    36
 72
    38
 73
    35
  0
VERTEX
  5
4A6
  8
0
 62
     9
 10
0.0
 20
0.0
 30
0.0
 70
   128
 71
    38
 72
    22
 73
    21
  0
VERTEX
  5
4A7
  8
0
 62
     9
 10
0.0
 20
0.0
 30
0.0
 70
   128
 71
    32
 72
    30
 73
    34
  0
VERTEX
  5
4A8
  8
0
 62
     9
 10
0.0
 20
0.0
 30
0.0
 70
   128
 71
    31
 72
    35
 73
    30
  0
VERTEX
  5
4A9
  8
0
 62
     9
 10
0.0
 20
0.0
 30
0.0
 70
   128
 71
    25
 72
    33
 73
    24
  0
VERTEX
  5
4AA
  8
0
 62
     9
 10
0.0
 20
0.0
 30
0.0
 70
   128
 71
    32
 72
    33
 73
    25
  0
VERTEX
  5
4AB
  8
0
 62
     9
 10
0.0
 20
0.0
 30
0.0
 70
   128
 71
    29
 72
    39
 73
    24
  0
VERTEX
  5
4AC
  8
0
 62
     9
 10
0.0
 20
0.0
 30
0.0
 70
   128
 71
    39
 72
    26
 73
    24
  0
VERTEX
  5
4AD
  8
0
 62
     9
 10
0.0
 20
0.0
 30
0.0
 70
   128
 71
    40
 72
    27
 73
    28
  0
VERTEX
  5
4AE
  8
0
 62
     9
 10
0.0
 20
0.0
 30
0.0
 70
   128
 71
    29
 72
    27
 73
    39
  0
VERTEX
  5
4AF
  8
0
 62
     9
 10
0.0
 20
0.0
 30
0.0
 70
   128
 71
    23
 72
    40
 73
    12
  0
VERTEX
  5
4B0
  8
0
 62
     9
 10
0.0
 20
0.0
 30
0.0
 70
   128
 71
    40
 72
    23
 73
    27
  0
SEQEND
  5
4B1
  8
0
 62
     9
  0
ENDBLK
  5
4B4
  8
0
  0
BLOCK
  8
0
  2
44
 70
     0
 10
0.0
 20
0.0
 30
0.0
  3
44
  1

  0
POLYLINE
  5
4B6
  8
0
 62
     9
 66
     1
 10
0.0
 20
0.0
 30
0.0
 70
    64
 71
    40
 72
    40
  0
VERTEX
  5
4B7
  8
0
 10
22.10000038146973
 20
79.77982330322266
 30
-14.74356937408447
 70
   192
  0
VERTEX
  5
4B8
  8
0
 10
22.10000038146973
 20
75.0
 30
-15.5
 70
   192
  0
VERTEX
  5
4B9
  8
0
 10
64.5999984741211
 20
75.0
 30
-15.5
 70
   192
  0
VERTEX
  5
4BA
  8
0
 10
64.5999984741211
 20
79.80187225341797
 30
-14.73325824737549
 70
   192
  0
VERTEX
  5
4BB
  8
0
 10
64.5999984741211
 20
84.11457824707031
 30
-12.52933692932129
 70
   192
  0
VERTEX
  5
4BC
  8
0
 10
64.5999984741211
 20
87.54792022705078
 30
-9.101149559020996
 70
   192
  0
VERTEX
  5
4BD
  8
0
 10
22.10000038146973
 20
84.10537719726562
 30
-12.54822063446045
 70
   192
  0
VERTEX
  5
4BE
  8
0
 10
22.10000038146973
 20
89.6871109008789
 30
-4.794502258300781
 70
   192
  0
VERTEX
  5
4BF
  8
0
 10
22.10000038146973
 20
87.53974151611328
 30
-9.119475364685059
 70
   192
  0
VERTEX
  5
4C0
  8
0
 10
64.5999984741211
 20
89.6561508178711
 30
-4.768749237060547
 70
   192
  0
VERTEX
  5
4C1
  8
0
 10
22.10000038146973
 20
90.5
 30
0.0000000000000035
 70
   192
  0
VERTEX
  5
4C2
  8
0
 10
64.5999984741211
 20
90.5
 30
0.0000000000000035
 70
   192
  0
VERTEX
  5
4C3
  8
0
 10
64.5999984741211
 20
70.22017669677734
 30
-14.74356937408447
 70
   192
  0
VERTEX
  5
4C4
  8
0
 10
22.10000038146973
 20
65.88542175292969
 30
-12.52933692932129
 70
   192
  0
VERTEX
  5
4C5
  8
0
 10
22.10000038146973
 20
70.19812774658203
 30
-14.73325824737549
 70
   192
  0
VERTEX
  5
4C6
  8
0
 10
64.5999984741211
 20
65.89462280273438
 30
-12.54822063446045
 70
   192
  0
VERTEX
  5
4C7
  8
0
 10
22.10000038146973
 20
62.45207977294922
 30
-9.101149559020996
 70
   192
  0
VERTEX
  5
4C8
  8
0
 10
64.5999984741211
 20
62.46025848388672
 30
-9.119475364685059
 70
   192
  0
VERTEX
  5
4C9
  8
0
 10
64.5999984741211
 20
60.31288909912109
 30
-4.794502258300781
 70
   192
  0
VERTEX
  5
4CA
  8
0
 10
22.10000038146973
 20
60.34385299682617
 30
-4.768749237060547
 70
   192
  0
VERTEX
  5
4CB
  8
0
 10
64.5999984741211
 20
59.5
 30
0.0000000000000054
 70
   192
  0
VERTEX
  5
4CC
  8
0
 10
22.10000038146973
 20
59.5
 30
0.0000000000000054
 70
   192
  0
VERTEX
  5
4CD
  8
0
 10
22.10000038146973
 20
89.6561508178711
 30
4.768749237060547
 70
   192
  0
VERTEX
  5
4CE
  8
0
 10
64.5999984741211
 20
79.77982330322266
 30
14.74356937408447
 70
   192
  0
VERTEX
  5
4CF
  8
0
 10
22.10000038146973
 20
75.0
 30
15.5
 70
   192
  0
VERTEX
  5
4D0
  8
0
 10
22.10000038146973
 20
79.80187225341797
 30
14.73325824737549
 70
   192
  0
VERTEX
  5
4D1
  8
0
 10
22.10000038146973
 20
87.54792022705078
 30
9.101149559020996
 70
   192
  0
VERTEX
  5
4D2
  8
0
 10
64.5999984741211
 20
87.53974151611328
 30
9.119475364685059
 70
   192
  0
VERTEX
  5
4D3
  8
0
 10
64.5999984741211
 20
84.10537719726562
 30
12.54822063446045
 70
   192
  0
VERTEX
  5
4D4
  8
0
 10
64.5999984741211
 20
65.88542175292969
 30
12.52933692932129
 70
   192
  0
VERTEX
  5
4D5
  8
0
 10
22.10000038146973
 20
65.89462280273438
 30
12.54822063446045
 70
   192
  0
VERTEX
  5
4D6
  8
0
 10
22.10000038146973
 20
70.22017669677734
 30
14.74356937408447
 70
   192
  0
VERTEX
  5
4D7
  8
0
 10
64.5999984741211
 20
75.0
 30
15.5
 70
   192
  0
VERTEX
  5
4D8
  8
0
 10
64.5999984741211
 20
70.19812774658203
 30
14.73325824737549
 70
   192
  0
VERTEX
  5
4D9
  8
0
 10
64.5999984741211
 20
62.45207977294922
 30
9.101149559020996
 70
   192
  0
VERTEX
  5
4DA
  8
0
 10
22.10000038146973
 20
60.31288909912109
 30
4.794502258300781
 70
   192
  0
VERTEX
  5
4DB
  8
0
 10
22.10000038146973
 20
62.46025848388672
 30
9.119475364685059
 70
   192
  0
VERTEX
  5
4DC
  8
0
 10
64.5999984741211
 20
60.34385299682617
 30
4.768749237060547
 70
   192
  0
VERTEX
  5
4DD
  8
0
 10
22.10000038146973
 20
84.11457824707031
 30
12.52933692932129
 70
   192
  0
VERTEX
  5
4DE
  8
0
 10
64.5999984741211
 20
89.6871109008789
 30
4.794502258300781
 70
   192
  0
VERTEX
  5
4DF
  8
0
 62
     9
 10
0.0
 20
0.0
 30
0.0
 70
   128
 71
     3
 72
     2
 73
     1
  0
VERTEX
  5
4E0
  8
0
 62
     9
 10
0.0
 20
0.0
 30
0.0
 70
   128
 71
     1
 72
     5
 73
     4
  0
VERTEX
  5
4E1
  8
0
 62
     9
 10
0.0
 20
0.0
 30
0.0
 70
   128
 71
     3
 72
     1
 73
     4
  0
VERTEX
  5
4E2
  8
0
 62
     9
 10
0.0
 20
0.0
 30
0.0
 70
   128
 71
     5
 72
     7
 73
     6
  0
VERTEX
  5
4E3
  8
0
 62
     9
 10
0.0
 20
0.0
 30
0.0
 70
   128
 71
     7
 72
     5
 73
     1
  0
VERTEX
  5
4E4
  8
0
 62
     9
 10
0.0
 20
0.0
 30
0.0
 70
   128
 71
     6
 72
     9
 73
     8
  0
VERTEX
  5
4E5
  8
0
 62
     9
 10
0.0
 20
0.0
 30
0.0
 70
   128
 71
     7
 72
     9
 73
     6
  0
VERTEX
  5
4E6
  8
0
 62
     9
 10
0.0
 20
0.0
 30
0.0
 70
   128
 71
    11
 72
    10
 73
     8
  0
VERTEX
  5
4E7
  8
0
 62
     9
 10
0.0
 20
0.0
 30
0.0
 70
   128
 71
     6
 72
     8
 73
    10
  0
VERTEX
  5
4E8
  8
0
 62
     9
 10
0.0
 20
0.0
 30
0.0
 70
   128
 71
    12
 72
    10
 73
    11
  0
VERTEX
  5
4E9
  8
0
 62
     9
 10
0.0
 20
0.0
 30
0.0
 70
   128
 71
     2
 72
     3
 73
    13
  0
VERTEX
  5
4EA
  8
0
 62
     9
 10
0.0
 20
0.0
 30
0.0
 70
   128
 71
    15
 72
    13
 73
    14
  0
VERTEX
  5
4EB
  8
0
 62
     9
 10
0.0
 20
0.0
 30
0.0
 70
   128
 71
    15
 72
     2
 73
    13
  0
VERTEX
  5
4EC
  8
0
 62
     9
 10
0.0
 20
0.0
 30
0.0
 70
   128
 71
    17
 72
    14
 73
    16
  0
VERTEX
  5
4ED
  8
0
 62
     9
 10
0.0
 20
0.0
 30
0.0
 70
   128
 71
    13
 72
    16
 73
    14
  0
VERTEX
  5
4EE
  8
0
 62
     9
 10
0.0
 20
0.0
 30
0.0
 70
   128
 71
    19
 72
    17
 73
    18
  0
VERTEX
  5
4EF
  8
0
 62
     9
 10
0.0
 20
0.0
 30
0.0
 70
   128
 71
    17
 72
    16
 73
    18
  0
VERTEX
  5
4F0
  8
0
 62
     9
 10
0.0
 20
0.0
 30
0.0
 70
   128
 71
    19
 72
    21
 73
    20
  0
VERTEX
  5
4F1
  8
0
 62
     9
 10
0.0
 20
0.0
 30
0.0
 70
   128
 71
    20
 72
    17
 73
    19
  0
VERTEX
  5
4F2
  8
0
 62
     9
 10
0.0
 20
0.0
 30
0.0
 70
   128
 71
    21
 72
    22
 73
    20
  0
VERTEX
  5
4F3
  8
0
 62
     9
 10
0.0
 20
0.0
 30
0.0
 70
   128
 71
    12
 72
    11
 73
    23
  0
VERTEX
  5
4F4
  8
0
 62
     9
 10
0.0
 20
0.0
 30
0.0
 70
   128
 71
    26
 72
    25
 73
    24
  0
VERTEX
  5
4F5
  8
0
 62
     9
 10
0.0
 20
0.0
 30
0.0
 70
   128
 71
    29
 72
    28
 73
    27
  0
VERTEX
  5
4F6
  8
0
 62
     9
 10
0.0
 20
0.0
 30
0.0
 70
   128
 71
    32
 72
    31
 73
    30
  0
VERTEX
  5
4F7
  8
0
 62
     9
 10
0.0
 20
0.0
 30
0.0
 70
   128
 71
    34
 72
    33
 73
    32
  0
VERTEX
  5
4F8
  8
0
 62
     9
 10
0.0
 20
0.0
 30
0.0
 70
   128
 71
    37
 72
    36
 73
    35
  0
VERTEX
  5
4F9
  8
0
 62
     9
 10
0.0
 20
0.0
 30
0.0
 70
   128
 71
    37
 72
    35
 73
    31
  0
VERTEX
  5
4FA
  8
0
 62
     9
 10
0.0
 20
0.0
 30
0.0
 70
   128
 71
    38
 72
    36
 73
    22
  0
VERTEX
  5
4FB
  8
0
 62
     9
 10
0.0
 20
0.0
 30
0.0
 70
   128
 71
    36
 72
    38
 73
    35
  0
VERTEX
  5
4FC
  8
0
 62
     9
 10
0.0
 20
0.0
 30
0.0
 70
   128
 71
    38
 72
    22
 73
    21
  0
VERTEX
  5
4FD
  8
0
 62
     9
 10
0.0
 20
0.0
 30
0.0
 70
   128
 71
    32
 72
    30
 73
    34
  0
VERTEX
  5
4FE
  8
0
 62
     9
 10
0.0
 20
0.0
 30
0.0
 70
   128
 71
    31
 72
    35
 73
    30
  0
VERTEX
  5
4FF
  8
0
 62
     9
 10
0.0
 20
0.0
 30
0.0
 70
   128
 71
    25
 72
    33
 73
    24
  0
VERTEX
  5
500
  8
0
 62
     9
 10
0.0
 20
0.0
 30
0.0
 70
   128
 71
    32
 72
    33
 73
    25
  0
VERTEX
  5
501
  8
0
 62
     9
 10
0.0
 20
0.0
 30
0.0
 70
   128
 71
    29
 72
    39
 73
    24
  0
VERTEX
  5
502
  8
0
 62
     9
 10
0.0
 20
0.0
 30
0.0
 70
   128
 71
    39
 72
    26
 73
    24
  0
VERTEX
  5
503
  8
0
 62
     9
 10
0.0
 20
0.0
 30
0.0
 70
   128
 71
    40
 72
    27
 73
    28
  0
VERTEX
  5
504
  8
0
 62
     9
 10
0.0
 20
0.0
 30
0.0
 70
   128
 71
    29
 72
    27
 73
    39
  0
VERTEX
  5
505
  8
0
 62
     9
 10
0.0
 20
0.0
 30
0.0
 70
   128
 71
    23
 72
    40
 73
    12
  0
VERTEX
  5
506
  8
0
 62
     9
 10
0.0
 20
0.0
 30
0.0
 70
   128
 71
    40
 72
    23
 73
    27
  0
SEQEND
  5
507
  8
0
 62
     9
  0
ENDBLK
  5
50A
  8
0
  0
BLOCK
  8
0
  2
45
 70
     0
 10
0.0
 20
0.0
 30
0.0
  3
45
  1

  0
POLYLINE
  5
50C
  8
0
 62
     9
 66
     1
 10
0.0
 20
0.0
 30
0.0
 70
    64
 71
   100
 72
   186
  0
VERTEX
  5
50D
  8
0
 10
105.900749206543
 20
-117.0
 30
-4.290380001068115
 70
   192
  0
VERTEX
  5
50E
  8
0
 10
102.2844696044922
 20
117.0
 30
-11.78681945800781
 70
   192
  0
VERTEX
  5
50F
  8
0
 10
102.2204971313477
 20
-117.0
 30
-11.88258457183838
 70
   192
  0
VERTEX
  5
510
  8
0
 10
95.6767807006836
 20
117.0
 30
-17.09052467346191
 70
   192
  0
VERTEX
  5
511
  8
0
 10
95.61931610107422
 20
-117.0
 30
-17.12890625
 70
   192
  0
VERTEX
  5
512
  8
0
 10
87.4000015258789
 20
75.0
 30
-19.0
 70
   192
  0
VERTEX
  5
513
  8
0
 10
87.4000015258789
 20
117.0
 30
-19.0
 70
   192
  0
VERTEX
  5
514
  8
0
 10
87.4000015258789
 20
-75.0
 30
-19.0
 70
   192
  0
VERTEX
  5
515
  8
0
 10
87.4000015258789
 20
-117.0
 30
-19.0
 70
   192
  0
VERTEX
  5
516
  8
0
 10
105.9277267456055
 20
117.0
 30
-4.154839515686035
 70
   192
  0
VERTEX
  5
517
  8
0
 10
105.900749206543
 20
117.0
 30
4.290380001068115
 70
   192
  0
VERTEX
  5
518
  8
0
 10
105.9277267456055
 20
-117.0
 30
4.154839515686035
 70
   192
  0
VERTEX
  5
519
  8
0
 10
102.2844696044922
 20
-117.0
 30
11.78681945800781
 70
   192
  0
VERTEX
  5
51A
  8
0
 10
102.2204971313477
 20
117.0
 30
11.88258457183838
 70
   192
  0
VERTEX
  5
51B
  8
0
 10
95.6767807006836
 20
-117.0
 30
17.09052467346191
 70
   192
  0
VERTEX
  5
51C
  8
0
 10
95.61931610107422
 20
117.0
 30
17.12890625
 70
   192
  0
VERTEX
  5
51D
  8
0
 10
87.4000015258789
 20
75.0
 30
19.0
 70
   192
  0
VERTEX
  5
51E
  8
0
 10
87.4000015258789
 20
-75.0
 30
19.0
 70
   192
  0
VERTEX
  5
51F
  8
0
 10
87.4000015258789
 20
117.0
 30
19.0
 70
   192
  0
VERTEX
  5
520
  8
0
 10
87.4000015258789
 20
-117.0
 30
19.0
 70
   192
  0
VERTEX
  5
521
  8
0
 10
80.1939697265625
 20
-82.20602416992188
 30
-17.56090545654297
 70
   192
  0
VERTEX
  5
522
  8
0
 10
79.12322235107422
 20
-117.0
 30
-17.09052467346191
 70
   192
  0
VERTEX
  5
523
  8
0
 10
69.06415557861328
 20
-93.33584594726562
 30
4.944552421569824
 70
   192
  0
VERTEX
  5
524
  8
0
 10
68.89924621582031
 20
-117.0
 30
4.290380001068115
 70
   192
  0
VERTEX
  5
525
  8
0
 10
69.15376281738281
 20
-93.24623107910156
 30
-5.074679851531982
 70
   192
  0
VERTEX
  5
526
  8
0
 10
72.51553344726562
 20
-117.0
 30
-11.78681945800781
 70
   192
  0
VERTEX
  5
527
  8
0
 10
73.63397979736328
 20
-88.76602172851562
 30
-13.06525135040283
 70
   192
  0
VERTEX
  5
528
  8
0
 10
80.12506866455078
 20
-82.27493286132812
 30
17.59146881103516
 70
   192
  0
VERTEX
  5
529
  8
0
 10
79.18067932128906
 20
-117.0
 30
17.12890625
 70
   192
  0
VERTEX
  5
52A
  8
0
 10
73.72151947021484
 20
-88.67848205566406
 30
12.8795862197876
 70
   192
  0
VERTEX
  5
52B
  8
0
 10
72.57949829101562
 20
-117.0
 30
11.88258457183838
 70
   192
  0
VERTEX
  5
52C
  8
0
 10
68.87226867675781
 20
-117.0
 30
-4.154839515686035
 70
   192
  0
VERTEX
  5
52D
  8
0
 10
80.1939697265625
 20
67.79397583007812
 30
-17.56090545654297
 70
   192
  0
VERTEX
  5
52E
  8
0
 10
80.12506866455078
 20
-67.72506713867188
 30
-17.59146881103516
 70
   192
  0
VERTEX
  5
52F
  8
0
 10
69.15376281738281
 20
-56.75376510620117
 30
5.074679851531982
 70
   192
  0
VERTEX
  5
530
  8
0
 10
69.06415557861328
 20
-56.66415405273438
 30
-4.944552421569824
 70
   192
  0
VERTEX
  5
531
  8
0
 10
69.15376281738281
 20
56.75376510620117
 30
-5.074679851531982
 70
   192
  0
VERTEX
  5
532
  8
0
 10
73.72151947021484
 20
-61.3215217590332
 30
-12.8795862197876
 70
   192
  0
VERTEX
  5
533
  8
0
 10
73.63397979736328
 20
61.23397827148438
 30
-13.06525135040283
 70
   192
  0
VERTEX
  5
534
  8
0
 10
80.1939697265625
 20
-67.79397583007812
 30
17.56090545654297
 70
   192
  0
VERTEX
  5
535
  8
0
 10
73.63397979736328
 20
-61.23397827148438
 30
13.06525135040283
 70
   192
  0
VERTEX
  5
536
  8
0
 10
80.12506866455078
 20
67.72506713867188
 30
17.59146881103516
 70
   192
  0
VERTEX
  5
537
  8
0
 10
73.72151947021484
 20
61.3215217590332
 30
12.8795862197876
 70
   192
  0
VERTEX
  5
538
  8
0
 10
69.06415557861328
 20
56.66415405273438
 30
4.944552421569824
 70
   192
  0
VERTEX
  5
539
  8
0
 10
73.63397979736328
 20
88.76602172851562
 30
-13.06525135040283
 70
   192
  0
VERTEX
  5
53A
  8
0
 10
63.09999847412109
 20
89.88446807861328
 30
-11.78681945800781
 70
   192
  0
VERTEX
  5
53B
  8
0
 10
63.09999847412109
 20
83.27677917480469
 30
-17.09052467346191
 70
   192
  0
VERTEX
  5
53C
  8
0
 10
69.06415557861328
 20
93.33584594726562
 30
4.944552421569824
 70
   192
  0
VERTEX
  5
53D
  8
0
 10
63.09999847412109
 20
93.50074768066406
 30
4.290380001068115
 70
   192
  0
VERTEX
  5
53E
  8
0
 10
69.15376281738281
 20
93.24623107910156
 30
-5.074679851531982
 70
   192
  0
VERTEX
  5
53F
  8
0
 10
63.09999847412109
 20
93.5277328491211
 30
-4.154839515686035
 70
   192
  0
VERTEX
  5
540
  8
0
 10
63.09999847412109
 20
83.21932220458984
 30
17.12890625
 70
   192
  0
VERTEX
  5
541
  8
0
 10
73.72151947021484
 20
88.67848205566406
 30
12.8795862197876
 70
   192
  0
VERTEX
  5
542
  8
0
 10
80.12506866455078
 20
82.27493286132812
 30
17.59146881103516
 70
   192
  0
VERTEX
  5
543
  8
0
 10
63.09999847412109
 20
89.82050323486328
 30
11.88258457183838
 70
   192
  0
VERTEX
  5
544
  8
0
 10
63.09999847412109
 20
75.0
 30
19.0
 70
   192
  0
VERTEX
  5
545
  8
0
 10
80.1939697265625
 20
82.20602416992188
 30
-17.56090545654297
 70
   192
  0
VERTEX
  5
546
  8
0
 10
63.09999847412109
 20
75.0
 30
-19.0
 70
   192
  0
VERTEX
  5
547
  8
0
 10
63.09999847412109
 20
-60.11553192138672
 30
-11.78681945800781
 70
   192
  0
VERTEX
  5
548
  8
0
 10
63.09999847412109
 20
-66.72322082519531
 30
-17.09052467346191
 70
   192
  0
VERTEX
  5
549
  8
0
 10
63.09999847412109
 20
-56.49924850463867
 30
4.290380001068115
 70
   192
  0
VERTEX
  5
54A
  8
0
 10
63.09999847412109
 20
-56.47227096557617
 30
-4.154839515686035
 70
   192
  0
VERTEX
  5
54B
  8
0
 10
63.09999847412109
 20
-66.78067779541016
 30
17.12890625
 70
   192
  0
VERTEX
  5
54C
  8
0
 10
63.09999847412109
 20
-60.17950057983398
 30
11.88258457183838
 70
   192
  0
VERTEX
  5
54D
  8
0
 10
63.09999847412109
 20
-75.0
 30
19.0
 70
   192
  0
VERTEX
  5
54E
  8
0
 10
63.09999847412109
 20
-75.0
 30
-19.0
 70
   192
  0
VERTEX
  5
54F
  8
0
 10
63.09999847412109
 20
-72.26837158203125
 30
-12.18973445892334
 70
   192
  0
VERTEX
  5
550
  8
0
 10
63.09999847412109
 20
-94.0
 30
-0.0000000000000098
 70
   192
  0
VERTEX
  5
551
  8
0
 10
63.09999847412109
 20
-92.52320098876953
 30
-7.19549036026001
 70
   192
  0
VERTEX
  5
552
  8
0
 10
63.09999847412109
 20
-87.5
 30
-0.0000000000001421
 70
   192
  0
VERTEX
  5
553
  8
0
 10
63.09999847412109
 20
-82.81675720214844
 30
-9.750892639160156
 70
   192
  0
VERTEX
  5
554
  8
0
 10
63.09999847412109
 20
-88.36790466308594
 30
13.41742134094238
 70
   192
  0
VERTEX
  5
555
  8
0
 10
63.09999847412109
 20
-92.43519592285156
 30
7.23051929473877
 70
   192
  0
VERTEX
  5
556
  8
0
 10
63.09999847412109
 20
-82.75292205810547
 30
9.79306697845459
 70
   192
  0
VERTEX
  5
557
  8
0
 10
63.09999847412109
 20
-88.237548828125
 30
-13.21898651123047
 70
   192
  0
VERTEX
  5
558
  8
0
 10
63.09999847412109
 20
-72.17997741699219
 30
12.17264461517334
 70
   192
  0
VERTEX
  5
559
  8
0
 10
63.09999847412109
 20
-63.72966766357422
 30
5.404327869415283
 70
   192
  0
VERTEX
  5
55A
  8
0
 10
63.09999847412109
 20
-63.75497055053711
 30
-5.442631244659424
 70
   192
  0
VERTEX
  5
55B
  8
0
 10
63.09999847412109
 20
-82.2265625
 30
17.54479026794434
 70
   192
  0
VERTEX
  5
55C
  8
0
 10
63.09999847412109
 20
-82.33618927001953
 30
-17.5854377746582
 70
   192
  0
VERTEX
  5
55D
  8
0
 10
63.09999847412109
 20
77.73162841796875
 30
-12.18973445892334
 70
   192
  0
VERTEX
  5
55E
  8
0
 10
63.09999847412109
 20
56.0
 30
0.0
 70
   192
  0
VERTEX
  5
55F
  8
0
 10
63.09999847412109
 20
57.4767951965332
 30
-7.19549036026001
 70
   192
  0
VERTEX
  5
560
  8
0
 10
63.09999847412109
 20
62.5
 30
-0.0000000000001226
 70
   192
  0
VERTEX
  5
561
  8
0
 10
63.09999847412109
 20
67.18324279785156
 30
-9.750892639160156
 70
   192
  0
VERTEX
  5
562
  8
0
 10
63.09999847412109
 20
61.63209915161133
 30
13.41742134094238
 70
   192
  0
VERTEX
  5
563
  8
0
 10
63.09999847412109
 20
57.5648078918457
 30
7.23051929473877
 70
   192
  0
VERTEX
  5
564
  8
0
 10
63.09999847412109
 20
67.24707794189453
 30
9.79306697845459
 70
   192
  0
VERTEX
  5
565
  8
0
 10
63.09999847412109
 20
61.762451171875
 30
-13.21898651123047
 70
   192
  0
VERTEX
  5
566
  8
0
 10
63.09999847412109
 20
77.82002258300781
 30
12.17264461517334
 70
   192
  0
VERTEX
  5
567
  8
0
 10
63.09999847412109
 20
86.27033233642578
 30
5.404327869415283
 70
   192
  0
VERTEX
  5
568
  8
0
 10
63.09999847412109
 20
86.24502563476562
 30
-5.442631244659424
 70
   192
  0
VERTEX
  5
569
  8
0
 10
63.09999847412109
 20
67.7734375
 30
17.54479026794434
 70
   192
  0
VERTEX
  5
56A
  8
0
 10
63.09999847412109
 20
67.66381072998047
 30
-17.5854377746582
 70
   192
  0
VERTEX
  5
56B
  8
0
 10
68.89924621582031
 20
117.0
 30
-4.290380001068115
 70
   192
  0
VERTEX
  5
56C
  8
0
 10
79.18067932128906
 20
117.0
 30
-17.12890625
 70
   192
  0
VERTEX
  5
56D
  8
0
 10
72.57949829101562
 20
117.0
 30
-11.88258457183838
 70
   192
  0
VERTEX
  5
56E
  8
0
 10
79.12322235107422
 20
117.0
 30
17.09052467346191
 70
   192
  0
VERTEX
  5
56F
  8
0
 10
72.51553344726562
 20
117.0
 30
11.78681945800781
 70
   192
  0
VERTEX
  5
570
  8
0
 10
68.87226867675781
 20
117.0
 30
4.154839515686035
 70
   192
  0
VERTEX
  5
571
  8
0
 62
     9
 10
0.0
 20
0.0
 30
0.0
 70
   128
 71
     3
 72
     2
 73
     1
  0
VERTEX
  5
572
  8
0
 62
     9
 10
0.0
 20
0.0
 30
0.0
 70
   128
 71
     3
 72
     5
 73
     4
  0
VERTEX
  5
573
  8
0
 62
     9
 10
0.0
 20
0.0
 30
0.0
 70
   128
 71
     4
 72
     2
 73
     3
  0
VERTEX
  5
574
  8
0
 62
     9
 10
0.0
 20
0.0
 30
0.0
 70
   128
 71
     7
 72
     4
 73
     6
  0
VERTEX
  5
575
  8
0
 62
     9
 10
0.0
 20
0.0
 30
0.0
 70
   128
 71
     6
 72
     4
 73
     5
  0
VERTEX
  5
576
  8
0
 62
     9
 10
0.0
 20
0.0
 30
0.0
 70
   128
 71
     8
 72
     6
 73
     5
  0
VERTEX
  5
577
  8
0
 62
     9
 10
0.0
 20
0.0
 30
0.0
 70
   128
 71
     9
 72
     8
 73
     5
  0
VERTEX
  5
578
  8
0
 62
     9
 10
0.0
 20
0.0
 30
0.0
 70
   128
 71
     1
 72
     2
 73
    10
  0
VERTEX
  5
579
  8
0
 62
     9
 10
0.0
 20
0.0
 30
0.0
 70
   128
 71
     1
 72
    10
 73
    11
  0
VERTEX
  5
57A
  8
0
 62
     9
 10
0.0
 20
0.0
 30
0.0
 70
   128
 71
    11
 72
    12
 73
     1
  0
VERTEX
  5
57B
  8
0
 62
     9
 10
0.0
 20
0.0
 30
0.0
 70
   128
 71
    14
 72
    13
 73
    11
  0
VERTEX
  5
57C
  8
0
 62
     9
 10
0.0
 20
0.0
 30
0.0
 70
   128
 71
    12
 72
    11
 73
    13
  0
VERTEX
  5
57D
  8
0
 62
     9
 10
0.0
 20
0.0
 30
0.0
 70
   128
 71
    14
 72
    16
 73
    15
  0
VERTEX
  5
57E
  8
0
 62
     9
 10
0.0
 20
0.0
 30
0.0
 70
   128
 71
    15
 72
    13
 73
    14
  0
VERTEX
  5
57F
  8
0
 62
     9
 10
0.0
 20
0.0
 30
0.0
 70
   128
 71
    18
 72
    16
 73
    17
  0
VERTEX
  5
580
  8
0
 62
     9
 10
0.0
 20
0.0
 30
0.0
 70
   128
 71
    19
 72
    17
 73
    16
  0
VERTEX
  5
581
  8
0
 62
     9
 10
0.0
 20
0.0
 30
0.0
 70
   128
 71
    15
 72
    18
 73
    20
  0
VERTEX
  5
582
  8
0
 62
     9
 10
0.0
 20
0.0
 30
0.0
 70
   128
 71
    18
 72
    15
 73
    16
  0
VERTEX
  5
583
  8
0
 62
     9
 10
0.0
 20
0.0
 30
0.0
 70
   128
 71
     9
 72
    22
 73
    21
  0
VERTEX
  5
584
  8
0
 62
     9
 10
0.0
 20
0.0
 30
0.0
 70
   128
 71
    25
 72
    24
 73
    23
  0
VERTEX
  5
585
  8
0
 62
     9
 10
0.0
 20
0.0
 30
0.0
 70
   128
 71
    25
 72
    27
 73
    26
  0
VERTEX
  5
586
  8
0
 62
     9
 10
0.0
 20
0.0
 30
0.0
 70
   128
 71
    30
 72
    29
 73
    28
  0
VERTEX
  5
587
  8
0
 62
     9
 10
0.0
 20
0.0
 30
0.0
 70
   128
 71
    31
 72
    30
 73
    23
  0
VERTEX
  5
588
  8
0
 62
     9
 10
0.0
 20
0.0
 30
0.0
 70
   128
 71
    18
 72
    28
 73
    20
  0
VERTEX
  5
589
  8
0
 62
     9
 10
0.0
 20
0.0
 30
0.0
 70
   128
 71
    29
 72
    20
 73
    28
  0
VERTEX
  5
58A
  8
0
 62
     9
 10
0.0
 20
0.0
 30
0.0
 70
   128
 71
    31
 72
    29
 73
    30
  0
VERTEX
  5
58B
  8
0
 62
     9
 10
0.0
 20
0.0
 30
0.0
 70
   128
 71
    24
 72
    31
 73
    23
  0
VERTEX
  5
58C
  8
0
 62
     9
 10
0.0
 20
0.0
 30
0.0
 70
   128
 71
     8
 72
     9
 73
    21
  0
VERTEX
  5
58D
  8
0
 62
     9
 10
0.0
 20
0.0
 30
0.0
 70
   128
 71
    32
 72
    24
 73
    25
  0
VERTEX
  5
58E
  8
0
 62
     9
 10
0.0
 20
0.0
 30
0.0
 70
   128
 71
    27
 72
    22
 73
    26
  0
VERTEX
  5
58F
  8
0
 62
     9
 10
0.0
 20
0.0
 30
0.0
 70
   128
 71
    25
 72
    26
 73
    32
  0
VERTEX
  5
590
  8
0
 62
     9
 10
0.0
 20
0.0
 30
0.0
 70
   128
 71
    27
 72
    21
 73
    22
  0
VERTEX
  5
591
  8
0
 62
     9
 10
0.0
 20
0.0
 30
0.0
 70
   128
 71
     8
 72
    34
 73
    33
  0
VERTEX
  5
592
  8
0
 62
     9
 10
0.0
 20
0.0
 30
0.0
 70
   128
 71
    37
 72
    36
 73
    35
  0
VERTEX
  5
593
  8
0
 62
     9
 10
0.0
 20
0.0
 30
0.0
 70
   128
 71
    37
 72
    39
 73
    38
  0
VERTEX
  5
594
  8
0
 62
     9
 10
0.0
 20
0.0
 30
0.0
 70
   128
 71
    42
 72
    41
 73
    40
  0
VERTEX
  5
595
  8
0
 62
     9
 10
0.0
 20
0.0
 30
0.0
 70
   128
 71
    35
 72
    41
 73
    43
  0
VERTEX
  5
596
  8
0
 62
     9
 10
0.0
 20
0.0
 30
0.0
 70
   128
 71
    18
 72
    17
 73
    40
  0
VERTEX
  5
597
  8
0
 62
     9
 10
0.0
 20
0.0
 30
0.0
 70
   128
 71
    42
 72
    40
 73
    17
  0
VERTEX
  5
598
  8
0
 62
     9
 10
0.0
 20
0.0
 30
0.0
 70
   128
 71
    43
 72
    41
 73
    42
  0
VERTEX
  5
599
  8
0
 62
     9
 10
0.0
 20
0.0
 30
0.0
 70
   128
 71
    44
 72
    35
 73
    43
  0
VERTEX
  5
59A
  8
0
 62
     9
 10
0.0
 20
0.0
 30
0.0
 70
   128
 71
     6
 72
     8
 73
    33
  0
VERTEX
  5
59B
  8
0
 62
     9
 10
0.0
 20
0.0
 30
0.0
 70
   128
 71
    37
 72
    38
 73
    36
  0
VERTEX
  5
59C
  8
0
 62
     9
 10
0.0
 20
0.0
 30
0.0
 70
   128
 71
    37
 72
    35
 73
    44
  0
VERTEX
  5
59D
  8
0
 62
     9
 10
0.0
 20
0.0
 30
0.0
 70
   128
 71
    39
 72
    34
 73
    38
  0
VERTEX
  5
59E
  8
0
 62
     9
 10
0.0
 20
0.0
 30
0.0
 70
   128
 71
    39
 72
    33
 73
    34
  0
VERTEX
  5
59F
  8
0
 62
     9
 10
0.0
 20
0.0
 30
0.0
 70
   128
 71
    47
 72
    46
 73
    45
  0
VERTEX
  5
5A0
  8
0
 62
     9
 10
0.0
 20
0.0
 30
0.0
 70
   128
 71
    50
 72
    49
 73
    48
  0
VERTEX
  5
5A1
  8
0
 62
     9
 10
0.0
 20
0.0
 30
0.0
 70
   128
 71
    50
 72
    46
 73
    51
  0
VERTEX
  5
5A2
  8
0
 62
     9
 10
0.0
 20
0.0
 30
0.0
 70
   128
 71
    54
 72
    53
 73
    52
  0
VERTEX
  5
5A3
  8
0
 62
     9
 10
0.0
 20
0.0
 30
0.0
 70
   128
 71
    53
 72
    55
 73
    52
  0
VERTEX
  5
5A4
  8
0
 62
     9
 10
0.0
 20
0.0
 30
0.0
 70
   128
 71
    54
 72
    52
 73
    56
  0
VERTEX
  5
5A5
  8
0
 62
     9
 10
0.0
 20
0.0
 30
0.0
 70
   128
 71
    17
 72
    54
 73
    56
  0
VERTEX
  5
5A6
  8
0
 62
     9
 10
0.0
 20
0.0
 30
0.0
 70
   128
 71
    47
 72
    45
 73
    57
  0
VERTEX
  5
5A7
  8
0
 62
     9
 10
0.0
 20
0.0
 30
0.0
 70
   128
 71
    45
 72
    46
 73
    50
  0
VERTEX
  5
5A8
  8
0
 62
     9
 10
0.0
 20
0.0
 30
0.0
 70
   128
 71
    48
 72
    49
 73
    55
  0
VERTEX
  5
5A9
  8
0
 62
     9
 10
0.0
 20
0.0
 30
0.0
 70
   128
 71
    48
 72
    55
 73
    53
  0
VERTEX
  5
5AA
  8
0
 62
     9
 10
0.0
 20
0.0
 30
0.0
 70
   128
 71
    50
 72
    51
 73
    49
  0
VERTEX
  5
5AB
  8
0
 62
     9
 10
0.0
 20
0.0
 30
0.0
 70
   128
 71
    57
 72
    58
 73
    47
  0
VERTEX
  5
5AC
  8
0
 62
     9
 10
0.0
 20
0.0
 30
0.0
 70
   128
 71
    57
 72
     6
 73
    58
  0
VERTEX
  5
5AD
  8
0
 62
     9
 10
0.0
 20
0.0
 30
0.0
 70
   128
 71
    60
 72
    59
 73
    38
  0
VERTEX
  5
5AE
  8
0
 62
     9
 10
0.0
 20
0.0
 30
0.0
 70
   128
 71
    36
 72
    61
 73
    35
  0
VERTEX
  5
5AF
  8
0
 62
     9
 10
0.0
 20
0.0
 30
0.0
 70
   128
 71
    36
 72
    59
 73
    62
  0
VERTEX
  5
5B0
  8
0
 62
     9
 10
0.0
 20
0.0
 30
0.0
 70
   128
 71
    40
 72
    41
 73
    63
  0
VERTEX
  5
5B1
  8
0
 62
     9
 10
0.0
 20
0.0
 30
0.0
 70
   128
 71
    41
 72
    64
 73
    63
  0
VERTEX
  5
5B2
  8
0
 62
     9
 10
0.0
 20
0.0
 30
0.0
 70
   128
 71
    40
 72
    63
 73
    65
  0
VERTEX
  5
5B3
  8
0
 62
     9
 10
0.0
 20
0.0
 30
0.0
 70
   128
 71
    18
 72
    40
 73
    65
  0
VERTEX
  5
5B4
  8
0
 62
     9
 10
0.0
 20
0.0
 30
0.0
 70
   128
 71
    60
 72
    38
 73
    34
  0
VERTEX
  5
5B5
  8
0
 62
     9
 10
0.0
 20
0.0
 30
0.0
 70
   128
 71
    38
 72
    59
 73
    36
  0
VERTEX
  5
5B6
  8
0
 62
     9
 10
0.0
 20
0.0
 30
0.0
 70
   128
 71
    35
 72
    61
 73
    64
  0
VERTEX
  5
5B7
  8
0
 62
     9
 10
0.0
 20
0.0
 30
0.0
 70
   128
 71
    35
 72
    64
 73
    41
  0
VERTEX
  5
5B8
  8
0
 62
     9
 10
0.0
 20
0.0
 30
0.0
 70
   128
 71
    36
 72
    62
 73
    61
  0
VERTEX
  5
5B9
  8
0
 62
     9
 10
0.0
 20
0.0
 30
0.0
 70
   128
 71
    34
 72
    66
 73
    60
  0
VERTEX
  5
5BA
  8
0
 62
     9
 10
0.0
 20
0.0
 30
0.0
 70
   128
 71
    34
 72
     8
 73
    66
  0
VERTEX
  5
5BB
  8
0
 62
     9
 10
0.0
 20
0.0
 30
0.0
 70
   128
 71
    67
 72
    60
 73
    66
  0
VERTEX
  5
5BC
  8
0
 62
     9
 10
0.0
 20
0.0
 30
0.0
 70
   128
 71
    70
 72
    69
 73
    68
  0
VERTEX
  5
5BD
  8
0
 62
     9
 10
0.0
 20
0.0
 30
0.0
 70
   128
 71
    70
 72
    71
 73
    69
  0
VERTEX
  5
5BE
  8
0
 62
     9
 10
0.0
 20
0.0
 30
0.0
 70
   128
 71
    74
 72
    73
 73
    72
  0
VERTEX
  5
5BF
  8
0
 62
     9
 10
0.0
 20
0.0
 30
0.0
 70
   128
 71
    75
 72
    69
 73
    71
  0
VERTEX
  5
5C0
  8
0
 62
     9
 10
0.0
 20
0.0
 30
0.0
 70
   128
 71
    64
 72
    76
 73
    63
  0
VERTEX
  5
5C1
  8
0
 62
     9
 10
0.0
 20
0.0
 30
0.0
 70
   128
 71
    77
 72
    61
 73
    62
  0
VERTEX
  5
5C2
  8
0
 62
     9
 10
0.0
 20
0.0
 30
0.0
 70
   128
 71
    78
 72
    62
 73
    59
  0
VERTEX
  5
5C3
  8
0
 62
     9
 10
0.0
 20
0.0
 30
0.0
 70
   128
 71
    77
 72
    64
 73
    61
  0
VERTEX
  5
5C4
  8
0
 62
     9
 10
0.0
 20
0.0
 30
0.0
 70
   128
 71
    60
 72
    78
 73
    59
  0
VERTEX
  5
5C5
  8
0
 62
     9
 10
0.0
 20
0.0
 30
0.0
 70
   128
 71
    79
 72
    76
 73
    74
  0
VERTEX
  5
5C6
  8
0
 62
     9
 10
0.0
 20
0.0
 30
0.0
 70
   128
 71
    65
 72
    63
 73
    76
  0
VERTEX
  5
5C7
  8
0
 62
     9
 10
0.0
 20
0.0
 30
0.0
 70
   128
 71
    71
 72
    80
 73
    75
  0
VERTEX
  5
5C8
  8
0
 62
     9
 10
0.0
 20
0.0
 30
0.0
 70
   128
 71
    80
 72
    67
 73
    66
  0
VERTEX
  5
5C9
  8
0
 62
     9
 10
0.0
 20
0.0
 30
0.0
 70
   128
 71
    73
 72
    70
 73
    68
  0
VERTEX
  5
5CA
  8
0
 62
     9
 10
0.0
 20
0.0
 30
0.0
 70
   128
 71
    74
 72
    72
 73
    79
  0
VERTEX
  5
5CB
  8
0
 62
     9
 10
0.0
 20
0.0
 30
0.0
 70
   128
 71
    71
 72
    67
 73
    80
  0
VERTEX
  5
5CC
  8
0
 62
     9
 10
0.0
 20
0.0
 30
0.0
 70
   128
 71
    67
 72
    78
 73
    60
  0
VERTEX
  5
5CD
  8
0
 62
     9
 10
0.0
 20
0.0
 30
0.0
 70
   128
 71
    78
 72
    77
 73
    62
  0
VERTEX
  5
5CE
  8
0
 62
     9
 10
0.0
 20
0.0
 30
0.0
 70
   128
 71
    77
 72
    76
 73
    64
  0
VERTEX
  5
5CF
  8
0
 62
     9
 10
0.0
 20
0.0
 30
0.0
 70
   128
 71
    65
 72
    76
 73
    79
  0
VERTEX
  5
5D0
  8
0
 62
     9
 10
0.0
 20
0.0
 30
0.0
 70
   128
 71
    74
 72
    70
 73
    73
  0
VERTEX
  5
5D1
  8
0
 62
     9
 10
0.0
 20
0.0
 30
0.0
 70
   128
 71
    65
 72
    79
 73
    28
  0
VERTEX
  5
5D2
  8
0
 62
     9
 10
0.0
 20
0.0
 30
0.0
 70
   128
 71
    23
 72
    30
 73
    73
  0
VERTEX
  5
5D3
  8
0
 62
     9
 10
0.0
 20
0.0
 30
0.0
 70
   128
 71
    30
 72
    28
 73
    72
  0
VERTEX
  5
5D4
  8
0
 62
     9
 10
0.0
 20
0.0
 30
0.0
 70
   128
 71
    27
 72
    75
 73
    21
  0
VERTEX
  5
5D5
  8
0
 62
     9
 10
0.0
 20
0.0
 30
0.0
 70
   128
 71
    68
 72
    69
 73
    25
  0
VERTEX
  5
5D6
  8
0
 62
     9
 10
0.0
 20
0.0
 30
0.0
 70
   128
 71
    21
 72
    80
 73
    66
  0
VERTEX
  5
5D7
  8
0
 62
     9
 10
0.0
 20
0.0
 30
0.0
 70
   128
 71
    75
 72
    80
 73
    21
  0
VERTEX
  5
5D8
  8
0
 62
     9
 10
0.0
 20
0.0
 30
0.0
 70
   128
 71
    21
 72
    66
 73
     8
  0
VERTEX
  5
5D9
  8
0
 62
     9
 10
0.0
 20
0.0
 30
0.0
 70
   128
 71
    75
 72
    27
 73
    69
  0
VERTEX
  5
5DA
  8
0
 62
     9
 10
0.0
 20
0.0
 30
0.0
 70
   128
 71
    65
 72
    28
 73
    18
  0
VERTEX
  5
5DB
  8
0
 62
     9
 10
0.0
 20
0.0
 30
0.0
 70
   128
 71
    23
 72
    68
 73
    25
  0
VERTEX
  5
5DC
  8
0
 62
     9
 10
0.0
 20
0.0
 30
0.0
 70
   128
 71
    25
 72
    69
 73
    27
  0
VERTEX
  5
5DD
  8
0
 62
     9
 10
0.0
 20
0.0
 30
0.0
 70
   128
 71
    23
 72
    73
 73
    68
  0
VERTEX
  5
5DE
  8
0
 62
     9
 10
0.0
 20
0.0
 30
0.0
 70
   128
 71
    79
 72
    72
 73
    28
  0
VERTEX
  5
5DF
  8
0
 62
     9
 10
0.0
 20
0.0
 30
0.0
 70
   128
 71
    30
 72
    72
 73
    73
  0
VERTEX
  5
5E0
  8
0
 62
     9
 10
0.0
 20
0.0
 30
0.0
 70
   128
 71
    81
 72
    47
 73
    58
  0
VERTEX
  5
5E1
  8
0
 62
     9
 10
0.0
 20
0.0
 30
0.0
 70
   128
 71
    84
 72
    83
 73
    82
  0
VERTEX
  5
5E2
  8
0
 62
     9
 10
0.0
 20
0.0
 30
0.0
 70
   128
 71
    84
 72
    85
 73
    83
  0
VERTEX
  5
5E3
  8
0
 62
     9
 10
0.0
 20
0.0
 30
0.0
 70
   128
 71
    88
 72
    87
 73
    86
  0
VERTEX
  5
5E4
  8
0
 62
     9
 10
0.0
 20
0.0
 30
0.0
 70
   128
 71
    89
 72
    83
 73
    85
  0
VERTEX
  5
5E5
  8
0
 62
     9
 10
0.0
 20
0.0
 30
0.0
 70
   128
 71
    55
 72
    90
 73
    52
  0
VERTEX
  5
5E6
  8
0
 62
     9
 10
0.0
 20
0.0
 30
0.0
 70
   128
 71
    91
 72
    49
 73
    51
  0
VERTEX
  5
5E7
  8
0
 62
     9
 10
0.0
 20
0.0
 30
0.0
 70
   128
 71
    92
 72
    51
 73
    46
  0
VERTEX
  5
5E8
  8
0
 62
     9
 10
0.0
 20
0.0
 30
0.0
 70
   128
 71
    91
 72
    55
 73
    49
  0
VERTEX
  5
5E9
  8
0
 62
     9
 10
0.0
 20
0.0
 30
0.0
 70
   128
 71
    47
 72
    92
 73
    46
  0
VERTEX
  5
5EA
  8
0
 62
     9
 10
0.0
 20
0.0
 30
0.0
 70
   128
 71
    93
 72
    90
 73
    88
  0
VERTEX
  5
5EB
  8
0
 62
     9
 10
0.0
 20
0.0
 30
0.0
 70
   128
 71
    56
 72
    52
 73
    90
  0
VERTEX
  5
5EC
  8
0
 62
     9
 10
0.0
 20
0.0
 30
0.0
 70
   128
 71
    85
 72
    94
 73
    89
  0
VERTEX
  5
5ED
  8
0
 62
     9
 10
0.0
 20
0.0
 30
0.0
 70
   128
 71
    94
 72
    81
 73
    58
  0
VERTEX
  5
5EE
  8
0
 62
     9
 10
0.0
 20
0.0
 30
0.0
 70
   128
 71
    87
 72
    84
 73
    82
  0
VERTEX
  5
5EF
  8
0
 62
     9
 10
0.0
 20
0.0
 30
0.0
 70
   128
 71
    88
 72
    86
 73
    93
  0
VERTEX
  5
5F0
  8
0
 62
     9
 10
0.0
 20
0.0
 30
0.0
 70
   128
 71
    85
 72
    81
 73
    94
  0
VERTEX
  5
5F1
  8
0
 62
     9
 10
0.0
 20
0.0
 30
0.0
 70
   128
 71
    81
 72
    92
 73
    47
  0
VERTEX
  5
5F2
  8
0
 62
     9
 10
0.0
 20
0.0
 30
0.0
 70
   128
 71
    92
 72
    91
 73
    51
  0
VERTEX
  5
5F3
  8
0
 62
     9
 10
0.0
 20
0.0
 30
0.0
 70
   128
 71
    91
 72
    90
 73
    55
  0
VERTEX
  5
5F4
  8
0
 62
     9
 10
0.0
 20
0.0
 30
0.0
 70
   128
 71
    56
 72
    90
 73
    93
  0
VERTEX
  5
5F5
  8
0
 62
     9
 10
0.0
 20
0.0
 30
0.0
 70
   128
 71
    88
 72
    84
 73
    87
  0
VERTEX
  5
5F6
  8
0
 62
     9
 10
0.0
 20
0.0
 30
0.0
 70
   128
 71
    56
 72
    93
 73
    42
  0
VERTEX
  5
5F7
  8
0
 62
     9
 10
0.0
 20
0.0
 30
0.0
 70
   128
 71
    44
 72
    43
 73
    87
  0
VERTEX
  5
5F8
  8
0
 62
     9
 10
0.0
 20
0.0
 30
0.0
 70
   128
 71
    43
 72
    42
 73
    86
  0
VERTEX
  5
5F9
  8
0
 62
     9
 10
0.0
 20
0.0
 30
0.0
 70
   128
 71
    39
 72
    89
 73
    33
  0
VERTEX
  5
5FA
  8
0
 62
     9
 10
0.0
 20
0.0
 30
0.0
 70
   128
 71
    82
 72
    83
 73
    37
  0
VERTEX
  5
5FB
  8
0
 62
     9
 10
0.0
 20
0.0
 30
0.0
 70
   128
 71
    33
 72
    94
 73
    58
  0
VERTEX
  5
5FC
  8
0
 62
     9
 10
0.0
 20
0.0
 30
0.0
 70
   128
 71
    89
 72
    94
 73
    33
  0
VERTEX
  5
5FD
  8
0
 62
     9
 10
0.0
 20
0.0
 30
0.0
 70
   128
 71
    33
 72
    58
 73
     6
  0
VERTEX
  5
5FE
  8
0
 62
     9
 10
0.0
 20
0.0
 30
0.0
 70
   128
 71
    89
 72
    39
 73
    83
  0
VERTEX
  5
5FF
  8
0
 62
     9
 10
0.0
 20
0.0
 30
0.0
 70
   128
 71
    56
 72
    42
 73
    17
  0
VERTEX
  5
600
  8
0
 62
     9
 10
0.0
 20
0.0
 30
0.0
 70
   128
 71
    44
 72
    82
 73
    37
  0
VERTEX
  5
601
  8
0
 62
     9
 10
0.0
 20
0.0
 30
0.0
 70
   128
 71
    37
 72
    83
 73
    39
  0
VERTEX
  5
602
  8
0
 62
     9
 10
0.0
 20
0.0
 30
0.0
 70
   128
 71
    44
 72
    87
 73
    82
  0
VERTEX
  5
603
  8
0
 62
     9
 10
0.0
 20
0.0
 30
0.0
 70
   128
 71
    93
 72
    86
 73
    42
  0
VERTEX
  5
604
  8
0
 62
     9
 10
0.0
 20
0.0
 30
0.0
 70
   128
 71
    43
 72
    86
 73
    87
  0
VERTEX
  5
605
  8
0
 62
     9
 10
0.0
 20
0.0
 30
0.0
 70
   128
 71
     7
 72
     6
 73
    57
  0
VERTEX
  5
606
  8
0
 62
     9
 10
0.0
 20
0.0
 30
0.0
 70
   128
 71
    95
 72
    50
 73
    48
  0
VERTEX
  5
607
  8
0
 62
     9
 10
0.0
 20
0.0
 30
0.0
 70
   128
 71
    97
 72
    96
 73
    45
  0
VERTEX
  5
608
  8
0
 62
     9
 10
0.0
 20
0.0
 30
0.0
 70
   128
 71
    98
 72
    53
 73
    54
  0
VERTEX
  5
609
  8
0
 62
     9
 10
0.0
 20
0.0
 30
0.0
 70
   128
 71
    48
 72
    53
 73
    99
  0
VERTEX
  5
60A
  8
0
 62
     9
 10
0.0
 20
0.0
 30
0.0
 70
   128
 71
    99
 72
   100
 73
    48
  0
VERTEX
  5
60B
  8
0
 62
     9
 10
0.0
 20
0.0
 30
0.0
 70
   128
 71
    17
 72
    19
 73
    54
  0
VERTEX
  5
60C
  8
0
 62
     9
 10
0.0
 20
0.0
 30
0.0
 70
   128
 71
    54
 72
    19
 73
    98
  0
VERTEX
  5
60D
  8
0
 62
     9
 10
0.0
 20
0.0
 30
0.0
 70
   128
 71
    99
 72
    53
 73
    98
  0
VERTEX
  5
60E
  8
0
 62
     9
 10
0.0
 20
0.0
 30
0.0
 70
   128
 71
    97
 72
    50
 73
    95
  0
VERTEX
  5
60F
  8
0
 62
     9
 10
0.0
 20
0.0
 30
0.0
 70
   128
 71
    95
 72
    48
 73
   100
  0
VERTEX
  5
610
  8
0
 62
     9
 10
0.0
 20
0.0
 30
0.0
 70
   128
 71
    96
 72
    57
 73
    45
  0
VERTEX
  5
611
  8
0
 62
     9
 10
0.0
 20
0.0
 30
0.0
 70
   128
 71
    97
 72
    45
 73
    50
  0
VERTEX
  5
612
  8
0
 62
     9
 10
0.0
 20
0.0
 30
0.0
 70
   128
 71
    57
 72
    96
 73
     7
  0
VERTEX
  5
613
  8
0
 62
     9
 10
0.0
 20
0.0
 30
0.0
 70
   128
 71
   100
 72
     4
 73
     7
  0
VERTEX
  5
614
  8
0
 62
     9
 10
0.0
 20
0.0
 30
0.0
 70
   128
 71
    11
 72
    19
 73
    16
  0
VERTEX
  5
615
  8
0
 62
     9
 10
0.0
 20
0.0
 30
0.0
 70
   128
 71
    14
 72
    11
 73
    16
  0
VERTEX
  5
616
  8
0
 62
     9
 10
0.0
 20
0.0
 30
0.0
 70
   128
 71
    99
 72
    98
 73
     2
  0
VERTEX
  5
617
  8
0
 62
     9
 10
0.0
 20
0.0
 30
0.0
 70
   128
 71
    10
 72
    19
 73
    11
  0
VERTEX
  5
618
  8
0
 62
     9
 10
0.0
 20
0.0
 30
0.0
 70
   128
 71
    96
 72
    97
 73
    95
  0
VERTEX
  5
619
  8
0
 62
     9
 10
0.0
 20
0.0
 30
0.0
 70
   128
 71
     7
 72
    95
 73
   100
  0
VERTEX
  5
61A
  8
0
 62
     9
 10
0.0
 20
0.0
 30
0.0
 70
   128
 71
    95
 72
     7
 73
    96
  0
VERTEX
  5
61B
  8
0
 62
     9
 10
0.0
 20
0.0
 30
0.0
 70
   128
 71
   100
 72
    99
 73
     4
  0
VERTEX
  5
61C
  8
0
 62
     9
 10
0.0
 20
0.0
 30
0.0
 70
   128
 71
    10
 72
     2
 73
    98
  0
VERTEX
  5
61D
  8
0
 62
     9
 10
0.0
 20
0.0
 30
0.0
 70
   128
 71
     2
 72
     4
 73
    99
  0
VERTEX
  5
61E
  8
0
 62
     9
 10
0.0
 20
0.0
 30
0.0
 70
   128
 71
    98
 72
    19
 73
    10
  0
VERTEX
  5
61F
  8
0
 62
     9
 10
0.0
 20
0.0
 30
0.0
 70
   128
 71
    20
 72
     1
 73
    12
  0
VERTEX
  5
620
  8
0
 62
     9
 10
0.0
 20
0.0
 30
0.0
 70
   128
 71
    29
 72
     1
 73
    20
  0
VERTEX
  5
621
  8
0
 62
     9
 10
0.0
 20
0.0
 30
0.0
 70
   128
 71
    15
 72
    20
 73
    12
  0
VERTEX
  5
622
  8
0
 62
     9
 10
0.0
 20
0.0
 30
0.0
 70
   128
 71
    15
 72
    12
 73
    13
  0
VERTEX
  5
623
  8
0
 62
     9
 10
0.0
 20
0.0
 30
0.0
 70
   128
 71
     3
 72
     1
 73
    29
  0
VERTEX
  5
624
  8
0
 62
     9
 10
0.0
 20
0.0
 30
0.0
 70
   128
 71
    29
 72
    31
 73
     3
  0
VERTEX
  5
625
  8
0
 62
     9
 10
0.0
 20
0.0
 30
0.0
 70
   128
 71
    24
 72
     5
 73
    31
  0
VERTEX
  5
626
  8
0
 62
     9
 10
0.0
 20
0.0
 30
0.0
 70
   128
 71
     3
 72
    31
 73
     5
  0
VERTEX
  5
627
  8
0
 62
     9
 10
0.0
 20
0.0
 30
0.0
 70
   128
 71
    24
 72
     9
 73
     5
  0
VERTEX
  5
628
  8
0
 62
     9
 10
0.0
 20
0.0
 30
0.0
 70
   128
 71
    32
 72
    26
 73
    22
  0
VERTEX
  5
629
  8
0
 62
     9
 10
0.0
 20
0.0
 30
0.0
 70
   128
 71
    24
 72
    32
 73
     9
  0
VERTEX
  5
62A
  8
0
 62
     9
 10
0.0
 20
0.0
 30
0.0
 70
   128
 71
    22
 72
     9
 73
    32
  0
SEQEND
  5
62B
  8
0
 62
     9
  0
ENDBLK
  5
62E
  8
0
  0
BLOCK
  8
0
  2
46
 70
     0
 10
0.0
 20
0.0
 30
0.0
  3
46
  1

  0
POLYLINE
  5
630
  8
0
 62
     9
 66
     1
 10
0.0
 20
0.0
 30
0.0
 70
    64
 71
    88
 72
   172
  0
VERTEX
  5
631
  8
0
 10
28.0
 20
-54.07875823974609
 30
-6.802083015441895
 70
   192
  0
VERTEX
  5
632
  8
0
 10
15.0
 20
-53.00247573852539
 30
0.0110697224736214
 70
   192
  0
VERTEX
  5
633
  8
0
 10
28.0
 20
-53.00247573852539
 30
-0.0110697224736214
 70
   192
  0
VERTEX
  5
634
  8
0
 10
15.0
 20
-54.07591247558594
 30
-6.797753810882568
 70
   192
  0
VERTEX
  5
635
  8
0
 10
15.0
 20
-57.19369888305664
 30
-12.91629695892334
 70
   192
  0
VERTEX
  5
636
  8
0
 10
15.0
 20
-62.06001663208008
 30
-17.79165077209473
 70
   192
  0
VERTEX
  5
637
  8
0
 10
28.0
 20
-57.20135879516602
 30
-12.93010807037354
 70
   192
  0
VERTEX
  5
638
  8
0
 10
28.0
 20
-68.20182037353516
 30
-20.92374801635742
 70
   192
  0
VERTEX
  5
639
  8
0
 10
28.0
 20
-62.0683479309082
 30
-17.79701805114746
 70
   192
  0
VERTEX
  5
63A
  8
0
 10
28.0
 20
-74.99999237060547
 30
-21.99574089050293
 70
   192
  0
VERTEX
  5
63B
  8
0
 10
15.0
 20
-68.19378662109375
 30
-20.92018890380859
 70
   192
  0
VERTEX
  5
63C
  8
0
 10
15.0
 20
-75.0
 30
-22.0
 70
   192
  0
VERTEX
  5
63D
  8
0
 10
15.0
 20
-54.07875823974609
 30
6.802083015441895
 70
   192
  0
VERTEX
  5
63E
  8
0
 10
28.0
 20
-57.19369888305664
 30
12.91629695892334
 70
   192
  0
VERTEX
  5
63F
  8
0
 10
28.0
 20
-54.07591247558594
 30
6.797753810882568
 70
   192
  0
VERTEX
  5
640
  8
0
 10
15.0
 20
-57.20135879516602
 30
12.93010807037354
 70
   192
  0
VERTEX
  5
641
  8
0
 10
28.0
 20
-62.06001663208008
 30
17.79165077209473
 70
   192
  0
VERTEX
  5
642
  8
0
 10
15.0
 20
-62.0683479309082
 30
17.79701805114746
 70
   192
  0
VERTEX
  5
643
  8
0
 10
15.0
 20
-68.20182037353516
 30
20.92374801635742
 70
   192
  0
VERTEX
  5
644
  8
0
 10
28.0
 20
-68.19378662109375
 30
20.92018890380859
 70
   192
  0
VERTEX
  5
645
  8
0
 10
15.0
 20
-74.99999237060547
 30
21.99574089050293
 70
   192
  0
VERTEX
  5
646
  8
0
 10
28.0
 20
-75.0
 30
22.0
 70
   192
  0
VERTEX
  5
647
  8
0
 10
0.0
 20
-41.18905258178711
 30
-9.044262886047363
 70
   192
  0
VERTEX
  5
648
  8
0
 10
0.0
 20
-40.0
 30
-0.0000000000000246
 70
   192
  0
VERTEX
  5
649
  8
0
 10
15.0
 20
-40.0
 30
0.0000000000000299
 70
   192
  0
VERTEX
  5
64A
  8
0
 10
15.0
 20
-41.19942855834961
 30
-9.077686309814453
 70
   192
  0
VERTEX
  5
64B
  8
0
 10
0.0
 20
-44.68350601196289
 30
-17.48787117004395
 70
   192
  0
VERTEX
  5
64C
  8
0
 10
15.0
 20
-44.69141387939453
 30
-17.50574493408203
 70
   192
  0
VERTEX
  5
64D
  8
0
 10
0.0
 20
-50.2340202331543
 30
-24.7256031036377
 70
   192
  0
VERTEX
  5
64E
  8
0
 10
0.0
 20
-57.49425506591797
 30
-30.30858612060547
 70
   192
  0
VERTEX
  5
64F
  8
0
 10
15.0
 20
-50.27439498901367
 30
-24.76597785949707
 70
   192
  0
VERTEX
  5
650
  8
0
 10
15.0
 20
-57.51213073730469
 30
-30.31649398803711
 70
   192
  0
VERTEX
  5
651
  8
0
 10
0.0
 20
-65.92230987548828
 30
-33.80057144165039
 70
   192
  0
VERTEX
  5
652
  8
0
 10
15.0
 20
-65.9457778930664
 30
-33.80939865112305
 70
   192
  0
VERTEX
  5
653
  8
0
 10
0.0
 20
-75.0
 30
-35.0
 70
   192
  0
VERTEX
  5
654
  8
0
 10
15.0
 20
-75.0
 30
-35.0
 70
   192
  0
VERTEX
  5
655
  8
0
 10
15.0
 20
-41.18905258178711
 30
9.044262886047363
 70
   192
  0
VERTEX
  5
656
  8
0
 10
0.0
 20
-41.19942855834961
 30
9.077686309814453
 70
   192
  0
VERTEX
  5
657
  8
0
 10
15.0
 20
-44.68350601196289
 30
17.48787117004395
 70
   192
  0
VERTEX
  5
658
  8
0
 10
15.0
 20
-50.2340202331543
 30
24.7256031036377
 70
   192
  0
VERTEX
  5
659
  8
0
 10
0.0
 20
-44.69141387939453
 30
17.50574493408203
 70
   192
  0
VERTEX
  5
65A
  8
0
 10
0.0
 20
-50.27439498901367
 30
24.76597785949707
 70
   192
  0
VERTEX
  5
65B
  8
0
 10
15.0
 20
-57.49425506591797
 30
30.30858612060547
 70
   192
  0
VERTEX
  5
65C
  8
0
 10
0.0
 20
-57.51213073730469
 30
30.31649398803711
 70
   192
  0
VERTEX
  5
65D
  8
0
 10
15.0
 20
-65.92230987548828
 30
33.80057144165039
 70
   192
  0
VERTEX
  5
65E
  8
0
 10
15.0
 20
-75.0
 30
35.0
 70
   192
  0
VERTEX
  5
65F
  8
0
 10
0.0
 20
-65.9457778930664
 30
33.80939865112305
 70
   192
  0
VERTEX
  5
660
  8
0
 10
0.0
 20
-75.0
 30
35.0
 70
   192
  0
VERTEX
  5
661
  8
0
 10
0.0
 20
-84.0542221069336
 30
-33.80939865112305
 70
   192
  0
VERTEX
  5
662
  8
0
 10
15.0
 20
-84.07769012451172
 30
-33.80057144165039
 70
   192
  0
VERTEX
  5
663
  8
0
 10
0.0
 20
-108.8005752563477
 30
-9.077686309814453
 70
   192
  0
VERTEX
  5
664
  8
0
 10
0.0
 20
-105.3085861206055
 30
-17.50574493408203
 70
   192
  0
VERTEX
  5
665
  8
0
 10
15.0
 20
-105.3164901733398
 30
-17.48787117004395
 70
   192
  0
VERTEX
  5
666
  8
0
 10
15.0
 20
-92.50574493408203
 30
-30.30858612060547
 70
   192
  0
VERTEX
  5
667
  8
0
 10
0.0
 20
-99.72560119628906
 30
-24.76597785949707
 70
   192
  0
VERTEX
  5
668
  8
0
 10
0.0
 20
-92.48786926269531
 30
-30.31649398803711
 70
   192
  0
VERTEX
  5
669
  8
0
 10
0.0
 20
-108.8109436035156
 30
9.044262886047363
 70
   192
  0
VERTEX
  5
66A
  8
0
 10
15.0
 20
-108.8005752563477
 30
9.077686309814453
 70
   192
  0
VERTEX
  5
66B
  8
0
 10
0.0
 20
-105.3164901733398
 30
17.48787117004395
 70
   192
  0
VERTEX
  5
66C
  8
0
 10
15.0
 20
-108.8109436035156
 30
-9.044262886047363
 70
   192
  0
VERTEX
  5
66D
  8
0
 10
15.0
 20
-110.0
 30
0.0000000000000115
 70
   192
  0
VERTEX
  5
66E
  8
0
 10
0.0
 20
-110.0
 30
0.0000000000000202
 70
   192
  0
VERTEX
  5
66F
  8
0
 10
0.0
 20
-99.76597595214844
 30
24.7256031036377
 70
   192
  0
VERTEX
  5
670
  8
0
 10
15.0
 20
-99.72560119628906
 30
24.76597785949707
 70
   192
  0
VERTEX
  5
671
  8
0
 10
0.0
 20
-92.50574493408203
 30
30.30858612060547
 70
   192
  0
VERTEX
  5
672
  8
0
 10
15.0
 20
-105.3085861206055
 30
17.50574493408203
 70
   192
  0
VERTEX
  5
673
  8
0
 10
0.0
 20
-84.07769012451172
 30
33.80057144165039
 70
   192
  0
VERTEX
  5
674
  8
0
 10
15.0
 20
-92.48786926269531
 30
30.31649398803711
 70
   192
  0
VERTEX
  5
675
  8
0
 10
15.0
 20
-84.0542221069336
 30
33.80939865112305
 70
   192
  0
VERTEX
  5
676
  8
0
 10
15.0
 20
-99.76597595214844
 30
-24.7256031036377
 70
   192
  0
VERTEX
  5
677
  8
0
 10
15.0
 20
-87.91609191894531
 30
-17.80674171447754
 70
   192
  0
VERTEX
  5
678
  8
0
 10
15.0
 20
-81.79190826416016
 30
-20.92494964599609
 70
   192
  0
VERTEX
  5
679
  8
0
 10
15.0
 20
-92.79149627685547
 30
-12.9395751953125
 70
   192
  0
VERTEX
  5
67A
  8
0
 10
15.0
 20
-96.99832153320312
 30
-0.0091102151200175
 70
   192
  0
VERTEX
  5
67B
  8
0
 10
15.0
 20
-95.92369079589844
 30
6.797073364257812
 70
   192
  0
VERTEX
  5
67C
  8
0
 10
15.0
 20
-92.79723358154297
 30
12.93220996856689
 70
   192
  0
VERTEX
  5
67D
  8
0
 10
15.0
 20
-87.9292984008789
 30
17.79867362976074
 70
   192
  0
VERTEX
  5
67E
  8
0
 10
15.0
 20
-81.80220794677734
 30
20.92107963562012
 70
   192
  0
VERTEX
  5
67F
  8
0
 10
15.0
 20
-95.92137908935547
 30
-6.802274703979492
 70
   192
  0
VERTEX
  5
680
  8
0
 10
28.0
 20
-81.80220794677734
 30
-20.92107963562012
 70
   192
  0
VERTEX
  5
681
  8
0
 10
28.0
 20
-95.92369079589844
 30
-6.797073364257812
 70
   192
  0
VERTEX
  5
682
  8
0
 10
28.0
 20
-96.99832153320312
 30
0.0091102151200175
 70
   192
  0
VERTEX
  5
683
  8
0
 10
28.0
 20
-87.9292984008789
 30
-17.79867362976074
 70
   192
  0
VERTEX
  5
684
  8
0
 10
28.0
 20
-95.92137908935547
 30
6.802274703979492
 70
   192
  0
VERTEX
  5
685
  8
0
 10
28.0
 20
-92.79149627685547
 30
12.9395751953125
 70
   192
  0
VERTEX
  5
686
  8
0
 10
28.0
 20
-87.91609191894531
 30
17.80674171447754
 70
   192
  0
VERTEX
  5
687
  8
0
 10
28.0
 20
-81.79190826416016
 30
20.92494964599609
 70
   192
  0
VERTEX
  5
688
  8
0
 10
28.0
 20
-92.79723358154297
 30
-12.93220996856689
 70
   192
  0
VERTEX
  5
689
  8
0
 62
     9
 10
0.0
 20
0.0
 30
0.0
 70
   128
 71
     3
 72
     2
 73
     1
  0
VERTEX
  5
68A
  8
0
 62
     9
 10
0.0
 20
0.0
 30
0.0
 70
   128
 71
     5
 72
     1
 73
     4
  0
VERTEX
  5
68B
  8
0
 62
     9
 10
0.0
 20
0.0
 30
0.0
 70
   128
 71
     1
 72
     2
 73
     4
  0
VERTEX
  5
68C
  8
0
 62
     9
 10
0.0
 20
0.0
 30
0.0
 70
   128
 71
     7
 72
     5
 73
     6
  0
VERTEX
  5
68D
  8
0
 62
     9
 10
0.0
 20
0.0
 30
0.0
 70
   128
 71
     5
 72
     7
 73
     1
  0
VERTEX
  5
68E
  8
0
 62
     9
 10
0.0
 20
0.0
 30
0.0
 70
   128
 71
     9
 72
     6
 73
     8
  0
VERTEX
  5
68F
  8
0
 62
     9
 10
0.0
 20
0.0
 30
0.0
 70
   128
 71
     9
 72
     7
 73
     6
  0
VERTEX
  5
690
  8
0
 62
     9
 10
0.0
 20
0.0
 30
0.0
 70
   128
 71
    11
 72
    10
 73
     8
  0
VERTEX
  5
691
  8
0
 62
     9
 10
0.0
 20
0.0
 30
0.0
 70
   128
 71
     8
 72
     6
 73
    11
  0
VERTEX
  5
692
  8
0
 62
     9
 10
0.0
 20
0.0
 30
0.0
 70
   128
 71
    11
 72
    12
 73
    10
  0
VERTEX
  5
693
  8
0
 62
     9
 10
0.0
 20
0.0
 30
0.0
 70
   128
 71
     2
 72
     3
 73
    13
  0
VERTEX
  5
694
  8
0
 62
     9
 10
0.0
 20
0.0
 30
0.0
 70
   128
 71
    13
 72
    15
 73
    14
  0
VERTEX
  5
695
  8
0
 62
     9
 10
0.0
 20
0.0
 30
0.0
 70
   128
 71
     3
 72
    15
 73
    13
  0
VERTEX
  5
696
  8
0
 62
     9
 10
0.0
 20
0.0
 30
0.0
 70
   128
 71
    14
 72
    17
 73
    16
  0
VERTEX
  5
697
  8
0
 62
     9
 10
0.0
 20
0.0
 30
0.0
 70
   128
 71
    16
 72
    13
 73
    14
  0
VERTEX
  5
698
  8
0
 62
     9
 10
0.0
 20
0.0
 30
0.0
 70
   128
 71
    17
 72
    19
 73
    18
  0
VERTEX
  5
699
  8
0
 62
     9
 10
0.0
 20
0.0
 30
0.0
 70
   128
 71
    16
 72
    17
 73
    18
  0
VERTEX
  5
69A
  8
0
 62
     9
 10
0.0
 20
0.0
 30
0.0
 70
   128
 71
    21
 72
    19
 73
    20
  0
VERTEX
  5
69B
  8
0
 62
     9
 10
0.0
 20
0.0
 30
0.0
 70
   128
 71
    17
 72
    20
 73
    19
  0
VERTEX
  5
69C
  8
0
 62
     9
 10
0.0
 20
0.0
 30
0.0
 70
   128
 71
    22
 72
    21
 73
    20
  0
VERTEX
  5
69D
  8
0
 62
     9
 10
0.0
 20
0.0
 30
0.0
 70
   128
 71
    25
 72
    24
 73
    23
  0
VERTEX
  5
69E
  8
0
 62
     9
 10
0.0
 20
0.0
 30
0.0
 70
   128
 71
    23
 72
    27
 73
    26
  0
VERTEX
  5
69F
  8
0
 62
     9
 10
0.0
 20
0.0
 30
0.0
 70
   128
 71
    26
 72
    25
 73
    23
  0
VERTEX
  5
6A0
  8
0
 62
     9
 10
0.0
 20
0.0
 30
0.0
 70
   128
 71
    29
 72
    28
 73
    27
  0
VERTEX
  5
6A1
  8
0
 62
     9
 10
0.0
 20
0.0
 30
0.0
 70
   128
 71
    26
 72
    27
 73
    28
  0
VERTEX
  5
6A2
  8
0
 62
     9
 10
0.0
 20
0.0
 30
0.0
 70
   128
 71
    31
 72
    29
 73
    30
  0
VERTEX
  5
6A3
  8
0
 62
     9
 10
0.0
 20
0.0
 30
0.0
 70
   128
 71
    29
 72
    31
 73
    28
  0
VERTEX
  5
6A4
  8
0
 62
     9
 10
0.0
 20
0.0
 30
0.0
 70
   128
 71
    30
 72
    33
 73
    32
  0
VERTEX
  5
6A5
  8
0
 62
     9
 10
0.0
 20
0.0
 30
0.0
 70
   128
 71
    32
 72
    31
 73
    30
  0
VERTEX
  5
6A6
  8
0
 62
     9
 10
0.0
 20
0.0
 30
0.0
 70
   128
 71
    35
 72
    34
 73
    33
  0
VERTEX
  5
6A7
  8
0
 62
     9
 10
0.0
 20
0.0
 30
0.0
 70
   128
 71
    32
 72
    33
 73
    34
  0
VERTEX
  5
6A8
  8
0
 62
     9
 10
0.0
 20
0.0
 30
0.0
 70
   128
 71
    35
 72
    36
 73
    34
  0
VERTEX
  5
6A9
  8
0
 62
     9
 10
0.0
 20
0.0
 30
0.0
 70
   128
 71
    25
 72
    37
 73
    24
  0
VERTEX
  5
6AA
  8
0
 62
     9
 10
0.0
 20
0.0
 30
0.0
 70
   128
 71
    39
 72
    38
 73
    37
  0
VERTEX
  5
6AB
  8
0
 62
     9
 10
0.0
 20
0.0
 30
0.0
 70
   128
 71
    24
 72
    37
 73
    38
  0
VERTEX
  5
6AC
  8
0
 62
     9
 10
0.0
 20
0.0
 30
0.0
 70
   128
 71
    41
 72
    39
 73
    40
  0
VERTEX
  5
6AD
  8
0
 62
     9
 10
0.0
 20
0.0
 30
0.0
 70
   128
 71
    39
 72
    41
 73
    38
  0
VERTEX
  5
6AE
  8
0
 62
     9
 10
0.0
 20
0.0
 30
0.0
 70
   128
 71
    40
 72
    43
 73
    42
  0
VERTEX
  5
6AF
  8
0
 62
     9
 10
0.0
 20
0.0
 30
0.0
 70
   128
 71
    42
 72
    41
 73
    40
  0
VERTEX
  5
6B0
  8
0
 62
     9
 10
0.0
 20
0.0
 30
0.0
 70
   128
 71
    45
 72
    44
 73
    43
  0
VERTEX
  5
6B1
  8
0
 62
     9
 10
0.0
 20
0.0
 30
0.0
 70
   128
 71
    42
 72
    43
 73
    44
  0
VERTEX
  5
6B2
  8
0
 62
     9
 10
0.0
 20
0.0
 30
0.0
 70
   128
 71
    47
 72
    45
 73
    46
  0
VERTEX
  5
6B3
  8
0
 62
     9
 10
0.0
 20
0.0
 30
0.0
 70
   128
 71
    45
 72
    47
 73
    44
  0
VERTEX
  5
6B4
  8
0
 62
     9
 10
0.0
 20
0.0
 30
0.0
 70
   128
 71
    48
 72
    47
 73
    46
  0
VERTEX
  5
6B5
  8
0
 62
     9
 10
0.0
 20
0.0
 30
0.0
 70
   128
 71
    50
 72
    36
 73
    49
  0
VERTEX
  5
6B6
  8
0
 62
     9
 10
0.0
 20
0.0
 30
0.0
 70
   128
 71
    53
 72
    52
 73
    51
  0
VERTEX
  5
6B7
  8
0
 62
     9
 10
0.0
 20
0.0
 30
0.0
 70
   128
 71
    56
 72
    55
 73
    54
  0
VERTEX
  5
6B8
  8
0
 62
     9
 10
0.0
 20
0.0
 30
0.0
 70
   128
 71
    59
 72
    58
 73
    57
  0
VERTEX
  5
6B9
  8
0
 62
     9
 10
0.0
 20
0.0
 30
0.0
 70
   128
 71
    62
 72
    61
 73
    60
  0
VERTEX
  5
6BA
  8
0
 62
     9
 10
0.0
 20
0.0
 30
0.0
 70
   128
 71
    65
 72
    64
 73
    63
  0
VERTEX
  5
6BB
  8
0
 62
     9
 10
0.0
 20
0.0
 30
0.0
 70
   128
 71
    59
 72
    63
 73
    66
  0
VERTEX
  5
6BC
  8
0
 62
     9
 10
0.0
 20
0.0
 30
0.0
 70
   128
 71
    68
 72
    65
 73
    67
  0
VERTEX
  5
6BD
  8
0
 62
     9
 10
0.0
 20
0.0
 30
0.0
 70
   128
 71
    65
 72
    68
 73
    64
  0
VERTEX
  5
6BE
  8
0
 62
     9
 10
0.0
 20
0.0
 30
0.0
 70
   128
 71
    67
 72
    48
 73
    69
  0
VERTEX
  5
6BF
  8
0
 62
     9
 10
0.0
 20
0.0
 30
0.0
 70
   128
 71
    69
 72
    68
 73
    67
  0
VERTEX
  5
6C0
  8
0
 62
     9
 10
0.0
 20
0.0
 30
0.0
 70
   128
 71
    69
 72
    48
 73
    46
  0
VERTEX
  5
6C1
  8
0
 62
     9
 10
0.0
 20
0.0
 30
0.0
 70
   128
 71
    58
 72
    59
 73
    66
  0
VERTEX
  5
6C2
  8
0
 62
     9
 10
0.0
 20
0.0
 30
0.0
 70
   128
 71
    63
 72
    64
 73
    66
  0
VERTEX
  5
6C3
  8
0
 62
     9
 10
0.0
 20
0.0
 30
0.0
 70
   128
 71
    57
 72
    61
 73
    62
  0
VERTEX
  5
6C4
  8
0
 62
     9
 10
0.0
 20
0.0
 30
0.0
 70
   128
 71
    57
 72
    58
 73
    61
  0
VERTEX
  5
6C5
  8
0
 62
     9
 10
0.0
 20
0.0
 30
0.0
 70
   128
 71
    60
 72
    53
 73
    51
  0
VERTEX
  5
6C6
  8
0
 62
     9
 10
0.0
 20
0.0
 30
0.0
 70
   128
 71
    62
 72
    60
 73
    51
  0
VERTEX
  5
6C7
  8
0
 62
     9
 10
0.0
 20
0.0
 30
0.0
 70
   128
 71
    70
 72
    55
 73
    52
  0
VERTEX
  5
6C8
  8
0
 62
     9
 10
0.0
 20
0.0
 30
0.0
 70
   128
 71
    53
 72
    70
 73
    52
  0
VERTEX
  5
6C9
  8
0
 62
     9
 10
0.0
 20
0.0
 30
0.0
 70
   128
 71
    50
 72
    56
 73
    54
  0
VERTEX
  5
6CA
  8
0
 62
     9
 10
0.0
 20
0.0
 30
0.0
 70
   128
 71
    54
 72
    55
 73
    70
  0
VERTEX
  5
6CB
  8
0
 62
     9
 10
0.0
 20
0.0
 30
0.0
 70
   128
 71
    35
 72
    49
 73
    36
  0
VERTEX
  5
6CC
  8
0
 62
     9
 10
0.0
 20
0.0
 30
0.0
 70
   128
 71
    49
 72
    56
 73
    50
  0
VERTEX
  5
6CD
  8
0
 62
     9
 10
0.0
 20
0.0
 30
0.0
 70
   128
 71
    28
 72
    31
 73
     5
  0
VERTEX
  5
6CE
  8
0
 62
     9
 10
0.0
 20
0.0
 30
0.0
 70
   128
 71
    54
 72
    70
 73
    71
  0
VERTEX
  5
6CF
  8
0
 62
     9
 10
0.0
 20
0.0
 30
0.0
 70
   128
 71
    54
 72
    71
 73
    72
  0
VERTEX
  5
6D0
  8
0
 62
     9
 10
0.0
 20
0.0
 30
0.0
 70
   128
 71
    50
 72
    12
 73
    36
  0
VERTEX
  5
6D1
  8
0
 62
     9
 10
0.0
 20
0.0
 30
0.0
 70
   128
 71
    50
 72
    54
 73
    72
  0
VERTEX
  5
6D2
  8
0
 62
     9
 10
0.0
 20
0.0
 30
0.0
 70
   128
 71
    72
 72
    12
 73
    50
  0
VERTEX
  5
6D3
  8
0
 62
     9
 10
0.0
 20
0.0
 30
0.0
 70
   128
 71
    73
 72
    70
 73
    53
  0
VERTEX
  5
6D4
  8
0
 62
     9
 10
0.0
 20
0.0
 30
0.0
 70
   128
 71
    60
 72
    61
 73
    74
  0
VERTEX
  5
6D5
  8
0
 62
     9
 10
0.0
 20
0.0
 30
0.0
 70
   128
 71
    34
 72
    36
 73
    12
  0
VERTEX
  5
6D6
  8
0
 62
     9
 10
0.0
 20
0.0
 30
0.0
 70
   128
 71
     4
 72
    26
 73
    28
  0
VERTEX
  5
6D7
  8
0
 62
     9
 10
0.0
 20
0.0
 30
0.0
 70
   128
 71
    58
 72
    75
 73
    74
  0
VERTEX
  5
6D8
  8
0
 62
     9
 10
0.0
 20
0.0
 30
0.0
 70
   128
 71
    75
 72
    66
 73
    76
  0
VERTEX
  5
6D9
  8
0
 62
     9
 10
0.0
 20
0.0
 30
0.0
 70
   128
 71
    37
 72
    13
 73
    39
  0
VERTEX
  5
6DA
  8
0
 62
     9
 10
0.0
 20
0.0
 30
0.0
 70
   128
 71
    37
 72
    25
 73
     2
  0
VERTEX
  5
6DB
  8
0
 62
     9
 10
0.0
 20
0.0
 30
0.0
 70
   128
 71
    76
 72
    66
 73
    64
  0
VERTEX
  5
6DC
  8
0
 62
     9
 10
0.0
 20
0.0
 30
0.0
 70
   128
 71
    39
 72
    16
 73
    40
  0
VERTEX
  5
6DD
  8
0
 62
     9
 10
0.0
 20
0.0
 30
0.0
 70
   128
 71
    77
 72
    64
 73
    68
  0
VERTEX
  5
6DE
  8
0
 62
     9
 10
0.0
 20
0.0
 30
0.0
 70
   128
 71
    19
 72
    43
 73
    18
  0
VERTEX
  5
6DF
  8
0
 62
     9
 10
0.0
 20
0.0
 30
0.0
 70
   128
 71
    18
 72
    43
 73
    40
  0
VERTEX
  5
6E0
  8
0
 62
     9
 10
0.0
 20
0.0
 30
0.0
 70
   128
 71
    21
 72
    69
 73
    46
  0
VERTEX
  5
6E1
  8
0
 62
     9
 10
0.0
 20
0.0
 30
0.0
 70
   128
 71
    78
 72
    68
 73
    69
  0
VERTEX
  5
6E2
  8
0
 62
     9
 10
0.0
 20
0.0
 30
0.0
 70
   128
 71
    53
 72
    60
 73
    79
  0
VERTEX
  5
6E3
  8
0
 62
     9
 10
0.0
 20
0.0
 30
0.0
 70
   128
 71
    32
 72
    11
 73
     6
  0
VERTEX
  5
6E4
  8
0
 62
     9
 10
0.0
 20
0.0
 30
0.0
 70
   128
 71
    26
 72
     4
 73
     2
  0
VERTEX
  5
6E5
  8
0
 62
     9
 10
0.0
 20
0.0
 30
0.0
 70
   128
 71
    70
 72
    73
 73
    71
  0
VERTEX
  5
6E6
  8
0
 62
     9
 10
0.0
 20
0.0
 30
0.0
 70
   128
 71
    53
 72
    79
 73
    73
  0
VERTEX
  5
6E7
  8
0
 62
     9
 10
0.0
 20
0.0
 30
0.0
 70
   128
 71
    60
 72
    74
 73
    79
  0
VERTEX
  5
6E8
  8
0
 62
     9
 10
0.0
 20
0.0
 30
0.0
 70
   128
 71
    58
 72
    74
 73
    61
  0
VERTEX
  5
6E9
  8
0
 62
     9
 10
0.0
 20
0.0
 30
0.0
 70
   128
 71
    66
 72
    75
 73
    58
  0
VERTEX
  5
6EA
  8
0
 62
     9
 10
0.0
 20
0.0
 30
0.0
 70
   128
 71
    64
 72
    77
 73
    76
  0
VERTEX
  5
6EB
  8
0
 62
     9
 10
0.0
 20
0.0
 30
0.0
 70
   128
 71
    68
 72
    78
 73
    77
  0
VERTEX
  5
6EC
  8
0
 62
     9
 10
0.0
 20
0.0
 30
0.0
 70
   128
 71
    69
 72
    21
 73
    78
  0
VERTEX
  5
6ED
  8
0
 62
     9
 10
0.0
 20
0.0
 30
0.0
 70
   128
 71
    45
 72
    21
 73
    46
  0
VERTEX
  5
6EE
  8
0
 62
     9
 10
0.0
 20
0.0
 30
0.0
 70
   128
 71
    43
 72
    19
 73
    45
  0
VERTEX
  5
6EF
  8
0
 62
     9
 10
0.0
 20
0.0
 30
0.0
 70
   128
 71
    45
 72
    19
 73
    21
  0
VERTEX
  5
6F0
  8
0
 62
     9
 10
0.0
 20
0.0
 30
0.0
 70
   128
 71
    40
 72
    16
 73
    18
  0
VERTEX
  5
6F1
  8
0
 62
     9
 10
0.0
 20
0.0
 30
0.0
 70
   128
 71
    39
 72
    13
 73
    16
  0
VERTEX
  5
6F2
  8
0
 62
     9
 10
0.0
 20
0.0
 30
0.0
 70
   128
 71
    37
 72
     2
 73
    13
  0
VERTEX
  5
6F3
  8
0
 62
     9
 10
0.0
 20
0.0
 30
0.0
 70
   128
 71
    26
 72
     2
 73
    25
  0
VERTEX
  5
6F4
  8
0
 62
     9
 10
0.0
 20
0.0
 30
0.0
 70
   128
 71
    28
 72
     5
 73
     4
  0
VERTEX
  5
6F5
  8
0
 62
     9
 10
0.0
 20
0.0
 30
0.0
 70
   128
 71
    31
 72
     6
 73
     5
  0
VERTEX
  5
6F6
  8
0
 62
     9
 10
0.0
 20
0.0
 30
0.0
 70
   128
 71
    34
 72
    11
 73
    32
  0
VERTEX
  5
6F7
  8
0
 62
     9
 10
0.0
 20
0.0
 30
0.0
 70
   128
 71
    32
 72
     6
 73
    31
  0
VERTEX
  5
6F8
  8
0
 62
     9
 10
0.0
 20
0.0
 30
0.0
 70
   128
 71
    11
 72
    34
 73
    12
  0
VERTEX
  5
6F9
  8
0
 62
     9
 10
0.0
 20
0.0
 30
0.0
 70
   128
 71
    33
 72
    30
 73
    59
  0
VERTEX
  5
6FA
  8
0
 62
     9
 10
0.0
 20
0.0
 30
0.0
 70
   128
 71
    55
 72
    51
 73
    52
  0
VERTEX
  5
6FB
  8
0
 62
     9
 10
0.0
 20
0.0
 30
0.0
 70
   128
 71
    55
 72
    56
 73
    49
  0
VERTEX
  5
6FC
  8
0
 62
     9
 10
0.0
 20
0.0
 30
0.0
 70
   128
 71
    35
 72
    51
 73
    49
  0
VERTEX
  5
6FD
  8
0
 62
     9
 10
0.0
 20
0.0
 30
0.0
 70
   128
 71
    51
 72
    55
 73
    49
  0
VERTEX
  5
6FE
  8
0
 62
     9
 10
0.0
 20
0.0
 30
0.0
 70
   128
 71
    33
 72
    57
 73
    62
  0
VERTEX
  5
6FF
  8
0
 62
     9
 10
0.0
 20
0.0
 30
0.0
 70
   128
 71
    35
 72
    62
 73
    51
  0
VERTEX
  5
700
  8
0
 62
     9
 10
0.0
 20
0.0
 30
0.0
 70
   128
 71
    24
 72
    67
 73
    23
  0
VERTEX
  5
701
  8
0
 62
     9
 10
0.0
 20
0.0
 30
0.0
 70
   128
 71
    29
 72
    27
 73
    63
  0
VERTEX
  5
702
  8
0
 62
     9
 10
0.0
 20
0.0
 30
0.0
 70
   128
 71
    38
 72
    48
 73
    24
  0
VERTEX
  5
703
  8
0
 62
     9
 10
0.0
 20
0.0
 30
0.0
 70
   128
 71
    47
 72
    42
 73
    44
  0
VERTEX
  5
704
  8
0
 62
     9
 10
0.0
 20
0.0
 30
0.0
 70
   128
 71
    47
 72
    38
 73
    42
  0
VERTEX
  5
705
  8
0
 62
     9
 10
0.0
 20
0.0
 30
0.0
 70
   128
 71
    42
 72
    38
 73
    41
  0
VERTEX
  5
706
  8
0
 62
     9
 10
0.0
 20
0.0
 30
0.0
 70
   128
 71
    48
 72
    38
 73
    47
  0
VERTEX
  5
707
  8
0
 62
     9
 10
0.0
 20
0.0
 30
0.0
 70
   128
 71
    27
 72
    23
 73
    67
  0
VERTEX
  5
708
  8
0
 62
     9
 10
0.0
 20
0.0
 30
0.0
 70
   128
 71
    67
 72
    24
 73
    48
  0
VERTEX
  5
709
  8
0
 62
     9
 10
0.0
 20
0.0
 30
0.0
 70
   128
 71
    63
 72
    27
 73
    65
  0
VERTEX
  5
70A
  8
0
 62
     9
 10
0.0
 20
0.0
 30
0.0
 70
   128
 71
    27
 72
    67
 73
    65
  0
VERTEX
  5
70B
  8
0
 62
     9
 10
0.0
 20
0.0
 30
0.0
 70
   128
 71
    30
 72
    29
 73
    59
  0
VERTEX
  5
70C
  8
0
 62
     9
 10
0.0
 20
0.0
 30
0.0
 70
   128
 71
    29
 72
    63
 73
    59
  0
VERTEX
  5
70D
  8
0
 62
     9
 10
0.0
 20
0.0
 30
0.0
 70
   128
 71
    35
 72
    33
 73
    62
  0
VERTEX
  5
70E
  8
0
 62
     9
 10
0.0
 20
0.0
 30
0.0
 70
   128
 71
    33
 72
    59
 73
    57
  0
VERTEX
  5
70F
  8
0
 62
     9
 10
0.0
 20
0.0
 30
0.0
 70
   128
 71
    10
 72
    12
 73
    80
  0
VERTEX
  5
710
  8
0
 62
     9
 10
0.0
 20
0.0
 30
0.0
 70
   128
 71
    82
 72
    81
 73
    79
  0
VERTEX
  5
711
  8
0
 62
     9
 10
0.0
 20
0.0
 30
0.0
 70
   128
 71
    71
 72
    73
 73
    83
  0
VERTEX
  5
712
  8
0
 62
     9
 10
0.0
 20
0.0
 30
0.0
 70
   128
 71
    85
 72
    84
 73
    76
  0
VERTEX
  5
713
  8
0
 62
     9
 10
0.0
 20
0.0
 30
0.0
 70
   128
 71
    74
 72
    75
 73
    84
  0
VERTEX
  5
714
  8
0
 62
     9
 10
0.0
 20
0.0
 30
0.0
 70
   128
 71
    87
 72
    86
 73
    77
  0
VERTEX
  5
715
  8
0
 62
     9
 10
0.0
 20
0.0
 30
0.0
 70
   128
 71
    77
 72
    86
 73
    85
  0
VERTEX
  5
716
  8
0
 62
     9
 10
0.0
 20
0.0
 30
0.0
 70
   128
 71
    87
 72
    78
 73
    22
  0
VERTEX
  5
717
  8
0
 62
     9
 10
0.0
 20
0.0
 30
0.0
 70
   128
 71
    78
 72
    87
 73
    77
  0
VERTEX
  5
718
  8
0
 62
     9
 10
0.0
 20
0.0
 30
0.0
 70
   128
 71
    22
 72
    78
 73
    21
  0
VERTEX
  5
719
  8
0
 62
     9
 10
0.0
 20
0.0
 30
0.0
 70
   128
 71
    76
 72
    84
 73
    75
  0
VERTEX
  5
71A
  8
0
 62
     9
 10
0.0
 20
0.0
 30
0.0
 70
   128
 71
    77
 72
    85
 73
    76
  0
VERTEX
  5
71B
  8
0
 62
     9
 10
0.0
 20
0.0
 30
0.0
 70
   128
 71
    74
 72
    82
 73
    79
  0
VERTEX
  5
71C
  8
0
 62
     9
 10
0.0
 20
0.0
 30
0.0
 70
   128
 71
    74
 72
    84
 73
    82
  0
VERTEX
  5
71D
  8
0
 62
     9
 10
0.0
 20
0.0
 30
0.0
 70
   128
 71
    88
 72
    73
 73
    79
  0
VERTEX
  5
71E
  8
0
 62
     9
 10
0.0
 20
0.0
 30
0.0
 70
   128
 71
    81
 72
    88
 73
    79
  0
VERTEX
  5
71F
  8
0
 62
     9
 10
0.0
 20
0.0
 30
0.0
 70
   128
 71
    83
 72
    72
 73
    71
  0
VERTEX
  5
720
  8
0
 62
     9
 10
0.0
 20
0.0
 30
0.0
 70
   128
 71
    83
 72
    73
 73
    88
  0
VERTEX
  5
721
  8
0
 62
     9
 10
0.0
 20
0.0
 30
0.0
 70
   128
 71
    72
 72
    80
 73
    12
  0
VERTEX
  5
722
  8
0
 62
     9
 10
0.0
 20
0.0
 30
0.0
 70
   128
 71
    80
 72
    72
 73
    83
  0
VERTEX
  5
723
  8
0
 62
     9
 10
0.0
 20
0.0
 30
0.0
 70
   128
 71
    84
 72
     8
 73
    10
  0
VERTEX
  5
724
  8
0
 62
     9
 10
0.0
 20
0.0
 30
0.0
 70
   128
 71
    81
 72
    82
 73
    10
  0
VERTEX
  5
725
  8
0
 62
     9
 10
0.0
 20
0.0
 30
0.0
 70
   128
 71
    83
 72
    88
 73
    81
  0
VERTEX
  5
726
  8
0
 62
     9
 10
0.0
 20
0.0
 30
0.0
 70
   128
 71
    81
 72
    80
 73
    83
  0
VERTEX
  5
727
  8
0
 62
     9
 10
0.0
 20
0.0
 30
0.0
 70
   128
 71
    81
 72
    10
 73
    80
  0
VERTEX
  5
728
  8
0
 62
     9
 10
0.0
 20
0.0
 30
0.0
 70
   128
 71
     8
 72
    84
 73
     9
  0
VERTEX
  5
729
  8
0
 62
     9
 10
0.0
 20
0.0
 30
0.0
 70
   128
 71
    82
 72
    84
 73
    10
  0
VERTEX
  5
72A
  8
0
 62
     9
 10
0.0
 20
0.0
 30
0.0
 70
   128
 71
     9
 72
    85
 73
    86
  0
VERTEX
  5
72B
  8
0
 62
     9
 10
0.0
 20
0.0
 30
0.0
 70
   128
 71
    84
 72
    85
 73
     9
  0
VERTEX
  5
72C
  8
0
 62
     9
 10
0.0
 20
0.0
 30
0.0
 70
   128
 71
     7
 72
     9
 73
    86
  0
VERTEX
  5
72D
  8
0
 62
     9
 10
0.0
 20
0.0
 30
0.0
 70
   128
 71
     1
 72
     7
 73
    86
  0
VERTEX
  5
72E
  8
0
 62
     9
 10
0.0
 20
0.0
 30
0.0
 70
   128
 71
     3
 72
     1
 73
    87
  0
VERTEX
  5
72F
  8
0
 62
     9
 10
0.0
 20
0.0
 30
0.0
 70
   128
 71
    86
 72
    87
 73
     1
  0
VERTEX
  5
730
  8
0
 62
     9
 10
0.0
 20
0.0
 30
0.0
 70
   128
 71
    15
 72
     3
 73
    20
  0
VERTEX
  5
731
  8
0
 62
     9
 10
0.0
 20
0.0
 30
0.0
 70
   128
 71
    22
 72
     3
 73
    87
  0
VERTEX
  5
732
  8
0
 62
     9
 10
0.0
 20
0.0
 30
0.0
 70
   128
 71
    17
 72
    14
 73
    20
  0
VERTEX
  5
733
  8
0
 62
     9
 10
0.0
 20
0.0
 30
0.0
 70
   128
 71
    20
 72
    14
 73
    15
  0
VERTEX
  5
734
  8
0
 62
     9
 10
0.0
 20
0.0
 30
0.0
 70
   128
 71
    20
 72
     3
 73
    22
  0
SEQEND
  5
735
  8
0
 62
     9
  0
ENDBLK
  5
738
  8
0
  0
BLOCK
  8
0
  2
47
 70
     0
 10
0.0
 20
0.0
 30
0.0
  3
47
  1

  0
POLYLINE
  5
73A
  8
0
 62
     9
 66
     1
 10
0.0
 20
0.0
 30
0.0
 70
    64
 71
    88
 72
   172
  0
VERTEX
  5
73B
  8
0
 10
28.0
 20
95.9163589477539
 30
-6.817119121551514
 70
   192
  0
VERTEX
  5
73C
  8
0
 10
15.0
 20
96.99752044677734
 30
0.0242187213152647
 70
   192
  0
VERTEX
  5
73D
  8
0
 10
28.0
 20
96.99752044677734
 30
-0.0242187213152647
 70
   192
  0
VERTEX
  5
73E
  8
0
 10
15.0
 20
95.9273452758789
 30
-6.787662029266357
 70
   192
  0
VERTEX
  5
73F
  8
0
 10
15.0
 20
92.81096649169922
 30
-12.90986633300781
 70
   192
  0
VERTEX
  5
740
  8
0
 10
15.0
 20
87.94425964355469
 30
-17.78854370117188
 70
   192
  0
VERTEX
  5
741
  8
0
 10
28.0
 20
92.7877197265625
 30
-12.94512557983398
 70
   192
  0
VERTEX
  5
742
  8
0
 10
28.0
 20
81.77571105957031
 30
-20.93105125427246
 70
   192
  0
VERTEX
  5
743
  8
0
 10
28.0
 20
87.91448211669922
 30
-17.8094596862793
 70
   192
  0
VERTEX
  5
744
  8
0
 10
28.0
 20
74.99999237060547
 30
-21.99504470825195
 70
   192
  0
VERTEX
  5
745
  8
0
 10
15.0
 20
81.8087158203125
 30
-20.91937637329102
 70
   192
  0
VERTEX
  5
746
  8
0
 10
15.0
 20
75.0
 30
-22.0
 70
   192
  0
VERTEX
  5
747
  8
0
 10
15.0
 20
95.9163589477539
 30
6.817119121551514
 70
   192
  0
VERTEX
  5
748
  8
0
 10
28.0
 20
92.81096649169922
 30
12.90986633300781
 70
   192
  0
VERTEX
  5
749
  8
0
 10
28.0
 20
95.9273452758789
 30
6.787662029266357
 70
   192
  0
VERTEX
  5
74A
  8
0
 10
15.0
 20
92.7877197265625
 30
12.94512557983398
 70
   192
  0
VERTEX
  5
74B
  8
0
 10
28.0
 20
87.94425964355469
 30
17.78854370117188
 70
   192
  0
VERTEX
  5
74C
  8
0
 10
15.0
 20
87.91448211669922
 30
17.8094596862793
 70
   192
  0
VERTEX
  5
74D
  8
0
 10
15.0
 20
81.77571105957031
 30
20.93105125427246
 70
   192
  0
VERTEX
  5
74E
  8
0
 10
28.0
 20
81.8087158203125
 30
20.91937637329102
 70
   192
  0
VERTEX
  5
74F
  8
0
 10
15.0
 20
74.99999237060547
 30
21.99504470825195
 70
   192
  0
VERTEX
  5
750
  8
0
 10
28.0
 20
75.0
 30
22.0
 70
   192
  0
VERTEX
  5
751
  8
0
 10
0.0
 20
108.8109436035156
 30
-9.044262886047363
 70
   192
  0
VERTEX
  5
752
  8
0
 10
0.0
 20
110.0
 30
-0.000000000000042
 70
   192
  0
VERTEX
  5
753
  8
0
 10
15.0
 20
110.0
 30
0.0000000000000027
 70
   192
  0
VERTEX
  5
754
  8
0
 10
15.0
 20
108.8005752563477
 30
-9.077686309814453
 70
   192
  0
VERTEX
  5
755
  8
0
 10
0.0
 20
105.3164901733398
 30
-17.48787117004395
 70
   192
  0
VERTEX
  5
756
  8
0
 10
15.0
 20
105.3085861206055
 30
-17.50574493408203
 70
   192
  0
VERTEX
  5
757
  8
0
 10
0.0
 20
99.76597595214844
 30
-24.7256031036377
 70
   192
  0
VERTEX
  5
758
  8
0
 10
0.0
 20
92.50574493408203
 30
-30.30858612060547
 70
   192
  0
VERTEX
  5
759
  8
0
 10
15.0
 20
99.72560119628906
 30
-24.76597785949707
 70
   192
  0
VERTEX
  5
75A
  8
0
 10
15.0
 20
92.48786926269531
 30
-30.31649398803711
 70
   192
  0
VERTEX
  5
75B
  8
0
 10
0.0
 20
84.07769012451172
 30
-33.80057144165039
 70
   192
  0
VERTEX
  5
75C
  8
0
 10
15.0
 20
84.0542221069336
 30
-33.80939865112305
 70
   192
  0
VERTEX
  5
75D
  8
0
 10
0.0
 20
75.0
 30
-35.0
 70
   192
  0
VERTEX
  5
75E
  8
0
 10
15.0
 20
75.0
 30
-35.0
 70
   192
  0
VERTEX
  5
75F
  8
0
 10
15.0
 20
108.8109436035156
 30
9.044262886047363
 70
   192
  0
VERTEX
  5
760
  8
0
 10
0.0
 20
108.8005752563477
 30
9.077686309814453
 70
   192
  0
VERTEX
  5
761
  8
0
 10
15.0
 20
105.3164901733398
 30
17.48787117004395
 70
   192
  0
VERTEX
  5
762
  8
0
 10
15.0
 20
99.76597595214844
 30
24.7256031036377
 70
   192
  0
VERTEX
  5
763
  8
0
 10
0.0
 20
105.3085861206055
 30
17.50574493408203
 70
   192
  0
VERTEX
  5
764
  8
0
 10
0.0
 20
99.72560119628906
 30
24.76597785949707
 70
   192
  0
VERTEX
  5
765
  8
0
 10
15.0
 20
92.50574493408203
 30
30.30858612060547
 70
   192
  0
VERTEX
  5
766
  8
0
 10
0.0
 20
92.48786926269531
 30
30.31649398803711
 70
   192
  0
VERTEX
  5
767
  8
0
 10
15.0
 20
84.07769012451172
 30
33.80057144165039
 70
   192
  0
VERTEX
  5
768
  8
0
 10
15.0
 20
75.0
 30
35.0
 70
   192
  0
VERTEX
  5
769
  8
0
 10
0.0
 20
84.0542221069336
 30
33.80939865112305
 70
   192
  0
VERTEX
  5
76A
  8
0
 10
0.0
 20
75.0
 30
35.0
 70
   192
  0
VERTEX
  5
76B
  8
0
 10
0.0
 20
65.9457778930664
 30
-33.80939865112305
 70
   192
  0
VERTEX
  5
76C
  8
0
 10
15.0
 20
65.92230987548828
 30
-33.80057144165039
 70
   192
  0
VERTEX
  5
76D
  8
0
 10
0.0
 20
41.19942855834961
 30
-9.077686309814453
 70
   192
  0
VERTEX
  5
76E
  8
0
 10
0.0
 20
44.69141387939453
 30
-17.50574493408203
 70
   192
  0
VERTEX
  5
76F
  8
0
 10
15.0
 20
44.68350601196289
 30
-17.48787117004395
 70
   192
  0
VERTEX
  5
770
  8
0
 10
15.0
 20
57.49425506591797
 30
-30.30858612060547
 70
   192
  0
VERTEX
  5
771
  8
0
 10
0.0
 20
50.27439498901367
 30
-24.76597785949707
 70
   192
  0
VERTEX
  5
772
  8
0
 10
0.0
 20
57.51213073730469
 30
-30.31649398803711
 70
   192
  0
VERTEX
  5
773
  8
0
 10
0.0
 20
41.18905258178711
 30
9.044262886047363
 70
   192
  0
VERTEX
  5
774
  8
0
 10
15.0
 20
41.19942855834961
 30
9.077686309814453
 70
   192
  0
VERTEX
  5
775
  8
0
 10
0.0
 20
44.68350601196289
 30
17.48787117004395
 70
   192
  0
VERTEX
  5
776
  8
0
 10
15.0
 20
41.18905258178711
 30
-9.044262886047363
 70
   192
  0
VERTEX
  5
777
  8
0
 10
15.0
 20
40.0
 30
-0.0000000000000204
 70
   192
  0
VERTEX
  5
778
  8
0
 10
0.0
 20
40.0
 30
-0.0000000000000275
 70
   192
  0
VERTEX
  5
779
  8
0
 10
0.0
 20
50.2340202331543
 30
24.7256031036377
 70
   192
  0
VERTEX
  5
77A
  8
0
 10
15.0
 20
50.27439498901367
 30
24.76597785949707
 70
   192
  0
VERTEX
  5
77B
  8
0
 10
0.0
 20
57.49425506591797
 30
30.30858612060547
 70
   192
  0
VERTEX
  5
77C
  8
0
 10
15.0
 20
44.69141387939453
 30
17.50574493408203
 70
   192
  0
VERTEX
  5
77D
  8
0
 10
0.0
 20
65.92230987548828
 30
33.80057144165039
 70
   192
  0
VERTEX
  5
77E
  8
0
 10
15.0
 20
57.51213073730469
 30
30.31649398803711
 70
   192
  0
VERTEX
  5
77F
  8
0
 10
15.0
 20
65.9457778930664
 30
33.80939865112305
 70
   192
  0
VERTEX
  5
780
  8
0
 10
15.0
 20
50.2340202331543
 30
-24.7256031036377
 70
   192
  0
VERTEX
  5
781
  8
0
 10
15.0
 20
62.08816909790039
 30
-17.80983734130859
 70
   192
  0
VERTEX
  5
782
  8
0
 10
15.0
 20
68.21060180664062
 30
-20.92576599121094
 70
   192
  0
VERTEX
  5
783
  8
0
 10
15.0
 20
57.21315383911133
 30
-12.94596290588379
 70
   192
  0
VERTEX
  5
784
  8
0
 10
15.0
 20
53.0016975402832
 30
-0.0223936475813389
 70
   192
  0
VERTEX
  5
785
  8
0
 10
15.0
 20
54.07141876220703
 30
6.782021999359131
 70
   192
  0
VERTEX
  5
786
  8
0
 10
15.0
 20
57.19195556640625
 30
12.91733455657959
 70
   192
  0
VERTEX
  5
787
  8
0
 10
15.0
 20
62.05356597900391
 30
17.78618431091309
 70
   192
  0
VERTEX
  5
788
  8
0
 10
15.0
 20
68.17514038085938
 30
20.91371154785156
 70
   192
  0
VERTEX
  5
789
  8
0
 10
15.0
 20
54.0818977355957
 30
-6.812337875366211
 70
   192
  0
VERTEX
  5
78A
  8
0
 10
28.0
 20
68.17514038085938
 30
-20.91371154785156
 70
   192
  0
VERTEX
  5
78B
  8
0
 10
28.0
 20
54.07141876220703
 30
-6.782021999359131
 70
   192
  0
VERTEX
  5
78C
  8
0
 10
28.0
 20
53.0016975402832
 30
0.0223936475813389
 70
   192
  0
VERTEX
  5
78D
  8
0
 10
28.0
 20
62.05356597900391
 30
-17.78618431091309
 70
   192
  0
VERTEX
  5
78E
  8
0
 10
28.0
 20
54.0818977355957
 30
6.812337875366211
 70
   192
  0
VERTEX
  5
78F
  8
0
 10
28.0
 20
57.21315383911133
 30
12.94596290588379
 70
   192
  0
VERTEX
  5
790
  8
0
 10
28.0
 20
62.08816909790039
 30
17.80983734130859
 70
   192
  0
VERTEX
  5
791
  8
0
 10
28.0
 20
68.21060180664062
 30
20.92576599121094
 70
   192
  0
VERTEX
  5
792
  8
0
 10
28.0
 20
57.19195556640625
 30
-12.91733455657959
 70
   192
  0
VERTEX
  5
793
  8
0
 62
     9
 10
0.0
 20
0.0
 30
0.0
 70
   128
 71
     3
 72
     2
 73
     1
  0
VERTEX
  5
794
  8
0
 62
     9
 10
0.0
 20
0.0
 30
0.0
 70
   128
 71
     5
 72
     1
 73
     4
  0
VERTEX
  5
795
  8
0
 62
     9
 10
0.0
 20
0.0
 30
0.0
 70
   128
 71
     1
 72
     2
 73
     4
  0
VERTEX
  5
796
  8
0
 62
     9
 10
0.0
 20
0.0
 30
0.0
 70
   128
 71
     7
 72
     5
 73
     6
  0
VERTEX
  5
797
  8
0
 62
     9
 10
0.0
 20
0.0
 30
0.0
 70
   128
 71
     5
 72
     7
 73
     1
  0
VERTEX
  5
798
  8
0
 62
     9
 10
0.0
 20
0.0
 30
0.0
 70
   128
 71
     9
 72
     6
 73
     8
  0
VERTEX
  5
799
  8
0
 62
     9
 10
0.0
 20
0.0
 30
0.0
 70
   128
 71
     9
 72
     7
 73
     6
  0
VERTEX
  5
79A
  8
0
 62
     9
 10
0.0
 20
0.0
 30
0.0
 70
   128
 71
    11
 72
    10
 73
     8
  0
VERTEX
  5
79B
  8
0
 62
     9
 10
0.0
 20
0.0
 30
0.0
 70
   128
 71
     8
 72
     6
 73
    11
  0
VERTEX
  5
79C
  8
0
 62
     9
 10
0.0
 20
0.0
 30
0.0
 70
   128
 71
    11
 72
    12
 73
    10
  0
VERTEX
  5
79D
  8
0
 62
     9
 10
0.0
 20
0.0
 30
0.0
 70
   128
 71
     2
 72
     3
 73
    13
  0
VERTEX
  5
79E
  8
0
 62
     9
 10
0.0
 20
0.0
 30
0.0
 70
   128
 71
    13
 72
    15
 73
    14
  0
VERTEX
  5
79F
  8
0
 62
     9
 10
0.0
 20
0.0
 30
0.0
 70
   128
 71
     3
 72
    15
 73
    13
  0
VERTEX
  5
7A0
  8
0
 62
     9
 10
0.0
 20
0.0
 30
0.0
 70
   128
 71
    14
 72
    17
 73
    16
  0
VERTEX
  5
7A1
  8
0
 62
     9
 10
0.0
 20
0.0
 30
0.0
 70
   128
 71
    16
 72
    13
 73
    14
  0
VERTEX
  5
7A2
  8
0
 62
     9
 10
0.0
 20
0.0
 30
0.0
 70
   128
 71
    17
 72
    19
 73
    18
  0
VERTEX
  5
7A3
  8
0
 62
     9
 10
0.0
 20
0.0
 30
0.0
 70
   128
 71
    16
 72
    17
 73
    18
  0
VERTEX
  5
7A4
  8
0
 62
     9
 10
0.0
 20
0.0
 30
0.0
 70
   128
 71
    21
 72
    19
 73
    20
  0
VERTEX
  5
7A5
  8
0
 62
     9
 10
0.0
 20
0.0
 30
0.0
 70
   128
 71
    17
 72
    20
 73
    19
  0
VERTEX
  5
7A6
  8
0
 62
     9
 10
0.0
 20
0.0
 30
0.0
 70
   128
 71
    22
 72
    21
 73
    20
  0
VERTEX
  5
7A7
  8
0
 62
     9
 10
0.0
 20
0.0
 30
0.0
 70
   128
 71
    25
 72
    24
 73
    23
  0
VERTEX
  5
7A8
  8
0
 62
     9
 10
0.0
 20
0.0
 30
0.0
 70
   128
 71
    23
 72
    27
 73
    26
  0
VERTEX
  5
7A9
  8
0
 62
     9
 10
0.0
 20
0.0
 30
0.0
 70
   128
 71
    26
 72
    25
 73
    23
  0
VERTEX
  5
7AA
  8
0
 62
     9
 10
0.0
 20
0.0
 30
0.0
 70
   128
 71
    29
 72
    28
 73
    27
  0
VERTEX
  5
7AB
  8
0
 62
     9
 10
0.0
 20
0.0
 30
0.0
 70
   128
 71
    26
 72
    27
 73
    28
  0
VERTEX
  5
7AC
  8
0
 62
     9
 10
0.0
 20
0.0
 30
0.0
 70
   128
 71
    31
 72
    29
 73
    30
  0
VERTEX
  5
7AD
  8
0
 62
     9
 10
0.0
 20
0.0
 30
0.0
 70
   128
 71
    29
 72
    31
 73
    28
  0
VERTEX
  5
7AE
  8
0
 62
     9
 10
0.0
 20
0.0
 30
0.0
 70
   128
 71
    30
 72
    33
 73
    32
  0
VERTEX
  5
7AF
  8
0
 62
     9
 10
0.0
 20
0.0
 30
0.0
 70
   128
 71
    32
 72
    31
 73
    30
  0
VERTEX
  5
7B0
  8
0
 62
     9
 10
0.0
 20
0.0
 30
0.0
 70
   128
 71
    35
 72
    34
 73
    33
  0
VERTEX
  5
7B1
  8
0
 62
     9
 10
0.0
 20
0.0
 30
0.0
 70
   128
 71
    32
 72
    33
 73
    34
  0
VERTEX
  5
7B2
  8
0
 62
     9
 10
0.0
 20
0.0
 30
0.0
 70
   128
 71
    35
 72
    36
 73
    34
  0
VERTEX
  5
7B3
  8
0
 62
     9
 10
0.0
 20
0.0
 30
0.0
 70
   128
 71
    25
 72
    37
 73
    24
  0
VERTEX
  5
7B4
  8
0
 62
     9
 10
0.0
 20
0.0
 30
0.0
 70
   128
 71
    39
 72
    38
 73
    37
  0
VERTEX
  5
7B5
  8
0
 62
     9
 10
0.0
 20
0.0
 30
0.0
 70
   128
 71
    24
 72
    37
 73
    38
  0
VERTEX
  5
7B6
  8
0
 62
     9
 10
0.0
 20
0.0
 30
0.0
 70
   128
 71
    41
 72
    39
 73
    40
  0
VERTEX
  5
7B7
  8
0
 62
     9
 10
0.0
 20
0.0
 30
0.0
 70
   128
 71
    39
 72
    41
 73
    38
  0
VERTEX
  5
7B8
  8
0
 62
     9
 10
0.0
 20
0.0
 30
0.0
 70
   128
 71
    40
 72
    43
 73
    42
  0
VERTEX
  5
7B9
  8
0
 62
     9
 10
0.0
 20
0.0
 30
0.0
 70
   128
 71
    42
 72
    41
 73
    40
  0
VERTEX
  5
7BA
  8
0
 62
     9
 10
0.0
 20
0.0
 30
0.0
 70
   128
 71
    45
 72
    44
 73
    43
  0
VERTEX
  5
7BB
  8
0
 62
     9
 10
0.0
 20
0.0
 30
0.0
 70
   128
 71
    42
 72
    43
 73
    44
  0
VERTEX
  5
7BC
  8
0
 62
     9
 10
0.0
 20
0.0
 30
0.0
 70
   128
 71
    47
 72
    45
 73
    46
  0
VERTEX
  5
7BD
  8
0
 62
     9
 10
0.0
 20
0.0
 30
0.0
 70
   128
 71
    45
 72
    47
 73
    44
  0
VERTEX
  5
7BE
  8
0
 62
     9
 10
0.0
 20
0.0
 30
0.0
 70
   128
 71
    48
 72
    47
 73
    46
  0
VERTEX
  5
7BF
  8
0
 62
     9
 10
0.0
 20
0.0
 30
0.0
 70
   128
 71
    50
 72
    36
 73
    49
  0
VERTEX
  5
7C0
  8
0
 62
     9
 10
0.0
 20
0.0
 30
0.0
 70
   128
 71
    53
 72
    52
 73
    51
  0
VERTEX
  5
7C1
  8
0
 62
     9
 10
0.0
 20
0.0
 30
0.0
 70
   128
 71
    56
 72
    55
 73
    54
  0
VERTEX
  5
7C2
  8
0
 62
     9
 10
0.0
 20
0.0
 30
0.0
 70
   128
 71
    59
 72
    58
 73
    57
  0
VERTEX
  5
7C3
  8
0
 62
     9
 10
0.0
 20
0.0
 30
0.0
 70
   128
 71
    62
 72
    61
 73
    60
  0
VERTEX
  5
7C4
  8
0
 62
     9
 10
0.0
 20
0.0
 30
0.0
 70
   128
 71
    65
 72
    64
 73
    63
  0
VERTEX
  5
7C5
  8
0
 62
     9
 10
0.0
 20
0.0
 30
0.0
 70
   128
 71
    59
 72
    63
 73
    66
  0
VERTEX
  5
7C6
  8
0
 62
     9
 10
0.0
 20
0.0
 30
0.0
 70
   128
 71
    68
 72
    65
 73
    67
  0
VERTEX
  5
7C7
  8
0
 62
     9
 10
0.0
 20
0.0
 30
0.0
 70
   128
 71
    65
 72
    68
 73
    64
  0
VERTEX
  5
7C8
  8
0
 62
     9
 10
0.0
 20
0.0
 30
0.0
 70
   128
 71
    67
 72
    48
 73
    69
  0
VERTEX
  5
7C9
  8
0
 62
     9
 10
0.0
 20
0.0
 30
0.0
 70
   128
 71
    69
 72
    68
 73
    67
  0
VERTEX
  5
7CA
  8
0
 62
     9
 10
0.0
 20
0.0
 30
0.0
 70
   128
 71
    69
 72
    48
 73
    46
  0
VERTEX
  5
7CB
  8
0
 62
     9
 10
0.0
 20
0.0
 30
0.0
 70
   128
 71
    58
 72
    59
 73
    66
  0
VERTEX
  5
7CC
  8
0
 62
     9
 10
0.0
 20
0.0
 30
0.0
 70
   128
 71
    63
 72
    64
 73
    66
  0
VERTEX
  5
7CD
  8
0
 62
     9
 10
0.0
 20
0.0
 30
0.0
 70
   128
 71
    57
 72
    61
 73
    62
  0
VERTEX
  5
7CE
  8
0
 62
     9
 10
0.0
 20
0.0
 30
0.0
 70
   128
 71
    57
 72
    58
 73
    61
  0
VERTEX
  5
7CF
  8
0
 62
     9
 10
0.0
 20
0.0
 30
0.0
 70
   128
 71
    60
 72
    53
 73
    51
  0
VERTEX
  5
7D0
  8
0
 62
     9
 10
0.0
 20
0.0
 30
0.0
 70
   128
 71
    62
 72
    60
 73
    51
  0
VERTEX
  5
7D1
  8
0
 62
     9
 10
0.0
 20
0.0
 30
0.0
 70
   128
 71
    70
 72
    55
 73
    52
  0
VERTEX
  5
7D2
  8
0
 62
     9
 10
0.0
 20
0.0
 30
0.0
 70
   128
 71
    53
 72
    70
 73
    52
  0
VERTEX
  5
7D3
  8
0
 62
     9
 10
0.0
 20
0.0
 30
0.0
 70
   128
 71
    50
 72
    56
 73
    54
  0
VERTEX
  5
7D4
  8
0
 62
     9
 10
0.0
 20
0.0
 30
0.0
 70
   128
 71
    54
 72
    55
 73
    70
  0
VERTEX
  5
7D5
  8
0
 62
     9
 10
0.0
 20
0.0
 30
0.0
 70
   128
 71
    35
 72
    49
 73
    36
  0
VERTEX
  5
7D6
  8
0
 62
     9
 10
0.0
 20
0.0
 30
0.0
 70
   128
 71
    49
 72
    56
 73
    50
  0
VERTEX
  5
7D7
  8
0
 62
     9
 10
0.0
 20
0.0
 30
0.0
 70
   128
 71
    28
 72
    31
 73
     5
  0
VERTEX
  5
7D8
  8
0
 62
     9
 10
0.0
 20
0.0
 30
0.0
 70
   128
 71
    54
 72
    70
 73
    71
  0
VERTEX
  5
7D9
  8
0
 62
     9
 10
0.0
 20
0.0
 30
0.0
 70
   128
 71
    54
 72
    71
 73
    72
  0
VERTEX
  5
7DA
  8
0
 62
     9
 10
0.0
 20
0.0
 30
0.0
 70
   128
 71
    50
 72
    12
 73
    36
  0
VERTEX
  5
7DB
  8
0
 62
     9
 10
0.0
 20
0.0
 30
0.0
 70
   128
 71
    50
 72
    54
 73
    72
  0
VERTEX
  5
7DC
  8
0
 62
     9
 10
0.0
 20
0.0
 30
0.0
 70
   128
 71
    72
 72
    12
 73
    50
  0
VERTEX
  5
7DD
  8
0
 62
     9
 10
0.0
 20
0.0
 30
0.0
 70
   128
 71
    73
 72
    70
 73
    53
  0
VERTEX
  5
7DE
  8
0
 62
     9
 10
0.0
 20
0.0
 30
0.0
 70
   128
 71
    60
 72
    61
 73
    74
  0
VERTEX
  5
7DF
  8
0
 62
     9
 10
0.0
 20
0.0
 30
0.0
 70
   128
 71
    34
 72
    36
 73
    12
  0
VERTEX
  5
7E0
  8
0
 62
     9
 10
0.0
 20
0.0
 30
0.0
 70
   128
 71
     4
 72
    26
 73
    28
  0
VERTEX
  5
7E1
  8
0
 62
     9
 10
0.0
 20
0.0
 30
0.0
 70
   128
 71
    58
 72
    75
 73
    74
  0
VERTEX
  5
7E2
  8
0
 62
     9
 10
0.0
 20
0.0
 30
0.0
 70
   128
 71
    75
 72
    66
 73
    76
  0
VERTEX
  5
7E3
  8
0
 62
     9
 10
0.0
 20
0.0
 30
0.0
 70
   128
 71
    37
 72
    13
 73
    39
  0
VERTEX
  5
7E4
  8
0
 62
     9
 10
0.0
 20
0.0
 30
0.0
 70
   128
 71
    37
 72
    25
 73
     2
  0
VERTEX
  5
7E5
  8
0
 62
     9
 10
0.0
 20
0.0
 30
0.0
 70
   128
 71
    76
 72
    66
 73
    64
  0
VERTEX
  5
7E6
  8
0
 62
     9
 10
0.0
 20
0.0
 30
0.0
 70
   128
 71
    39
 72
    16
 73
    40
  0
VERTEX
  5
7E7
  8
0
 62
     9
 10
0.0
 20
0.0
 30
0.0
 70
   128
 71
    77
 72
    64
 73
    68
  0
VERTEX
  5
7E8
  8
0
 62
     9
 10
0.0
 20
0.0
 30
0.0
 70
   128
 71
    19
 72
    43
 73
    18
  0
VERTEX
  5
7E9
  8
0
 62
     9
 10
0.0
 20
0.0
 30
0.0
 70
   128
 71
    18
 72
    43
 73
    40
  0
VERTEX
  5
7EA
  8
0
 62
     9
 10
0.0
 20
0.0
 30
0.0
 70
   128
 71
    21
 72
    69
 73
    46
  0
VERTEX
  5
7EB
  8
0
 62
     9
 10
0.0
 20
0.0
 30
0.0
 70
   128
 71
    78
 72
    68
 73
    69
  0
VERTEX
  5
7EC
  8
0
 62
     9
 10
0.0
 20
0.0
 30
0.0
 70
   128
 71
    53
 72
    60
 73
    79
  0
VERTEX
  5
7ED
  8
0
 62
     9
 10
0.0
 20
0.0
 30
0.0
 70
   128
 71
    32
 72
    11
 73
     6
  0
VERTEX
  5
7EE
  8
0
 62
     9
 10
0.0
 20
0.0
 30
0.0
 70
   128
 71
    26
 72
     4
 73
     2
  0
VERTEX
  5
7EF
  8
0
 62
     9
 10
0.0
 20
0.0
 30
0.0
 70
   128
 71
    70
 72
    73
 73
    71
  0
VERTEX
  5
7F0
  8
0
 62
     9
 10
0.0
 20
0.0
 30
0.0
 70
   128
 71
    53
 72
    79
 73
    73
  0
VERTEX
  5
7F1
  8
0
 62
     9
 10
0.0
 20
0.0
 30
0.0
 70
   128
 71
    60
 72
    74
 73
    79
  0
VERTEX
  5
7F2
  8
0
 62
     9
 10
0.0
 20
0.0
 30
0.0
 70
   128
 71
    58
 72
    74
 73
    61
  0
VERTEX
  5
7F3
  8
0
 62
     9
 10
0.0
 20
0.0
 30
0.0
 70
   128
 71
    66
 72
    75
 73
    58
  0
VERTEX
  5
7F4
  8
0
 62
     9
 10
0.0
 20
0.0
 30
0.0
 70
   128
 71
    64
 72
    77
 73
    76
  0
VERTEX
  5
7F5
  8
0
 62
     9
 10
0.0
 20
0.0
 30
0.0
 70
   128
 71
    68
 72
    78
 73
    77
  0
VERTEX
  5
7F6
  8
0
 62
     9
 10
0.0
 20
0.0
 30
0.0
 70
   128
 71
    69
 72
    21
 73
    78
  0
VERTEX
  5
7F7
  8
0
 62
     9
 10
0.0
 20
0.0
 30
0.0
 70
   128
 71
    45
 72
    21
 73
    46
  0
VERTEX
  5
7F8
  8
0
 62
     9
 10
0.0
 20
0.0
 30
0.0
 70
   128
 71
    43
 72
    19
 73
    45
  0
VERTEX
  5
7F9
  8
0
 62
     9
 10
0.0
 20
0.0
 30
0.0
 70
   128
 71
    45
 72
    19
 73
    21
  0
VERTEX
  5
7FA
  8
0
 62
     9
 10
0.0
 20
0.0
 30
0.0
 70
   128
 71
    40
 72
    16
 73
    18
  0
VERTEX
  5
7FB
  8
0
 62
     9
 10
0.0
 20
0.0
 30
0.0
 70
   128
 71
    39
 72
    13
 73
    16
  0
VERTEX
  5
7FC
  8
0
 62
     9
 10
0.0
 20
0.0
 30
0.0
 70
   128
 71
    37
 72
     2
 73
    13
  0
VERTEX
  5
7FD
  8
0
 62
     9
 10
0.0
 20
0.0
 30
0.0
 70
   128
 71
    26
 72
     2
 73
    25
  0
VERTEX
  5
7FE
  8
0
 62
     9
 10
0.0
 20
0.0
 30
0.0
 70
   128
 71
    28
 72
     5
 73
     4
  0
VERTEX
  5
7FF
  8
0
 62
     9
 10
0.0
 20
0.0
 30
0.0
 70
   128
 71
    31
 72
     6
 73
     5
  0
VERTEX
  5
800
  8
0
 62
     9
 10
0.0
 20
0.0
 30
0.0
 70
   128
 71
    34
 72
    11
 73
    32
  0
VERTEX
  5
801
  8
0
 62
     9
 10
0.0
 20
0.0
 30
0.0
 70
   128
 71
    32
 72
     6
 73
    31
  0
VERTEX
  5
802
  8
0
 62
     9
 10
0.0
 20
0.0
 30
0.0
 70
   128
 71
    11
 72
    34
 73
    12
  0
VERTEX
  5
803
  8
0
 62
     9
 10
0.0
 20
0.0
 30
0.0
 70
   128
 71
    33
 72
    30
 73
    59
  0
VERTEX
  5
804
  8
0
 62
     9
 10
0.0
 20
0.0
 30
0.0
 70
   128
 71
    55
 72
    51
 73
    52
  0
VERTEX
  5
805
  8
0
 62
     9
 10
0.0
 20
0.0
 30
0.0
 70
   128
 71
    55
 72
    56
 73
    49
  0
VERTEX
  5
806
  8
0
 62
     9
 10
0.0
 20
0.0
 30
0.0
 70
   128
 71
    35
 72
    51
 73
    49
  0
VERTEX
  5
807
  8
0
 62
     9
 10
0.0
 20
0.0
 30
0.0
 70
   128
 71
    51
 72
    55
 73
    49
  0
VERTEX
  5
808
  8
0
 62
     9
 10
0.0
 20
0.0
 30
0.0
 70
   128
 71
    33
 72
    57
 73
    62
  0
VERTEX
  5
809
  8
0
 62
     9
 10
0.0
 20
0.0
 30
0.0
 70
   128
 71
    35
 72
    62
 73
    51
  0
VERTEX
  5
80A
  8
0
 62
     9
 10
0.0
 20
0.0
 30
0.0
 70
   128
 71
    24
 72
    67
 73
    23
  0
VERTEX
  5
80B
  8
0
 62
     9
 10
0.0
 20
0.0
 30
0.0
 70
   128
 71
    29
 72
    27
 73
    63
  0
VERTEX
  5
80C
  8
0
 62
     9
 10
0.0
 20
0.0
 30
0.0
 70
   128
 71
    38
 72
    48
 73
    24
  0
VERTEX
  5
80D
  8
0
 62
     9
 10
0.0
 20
0.0
 30
0.0
 70
   128
 71
    47
 72
    42
 73
    44
  0
VERTEX
  5
80E
  8
0
 62
     9
 10
0.0
 20
0.0
 30
0.0
 70
   128
 71
    47
 72
    38
 73
    42
  0
VERTEX
  5
80F
  8
0
 62
     9
 10
0.0
 20
0.0
 30
0.0
 70
   128
 71
    42
 72
    38
 73
    41
  0
VERTEX
  5
810
  8
0
 62
     9
 10
0.0
 20
0.0
 30
0.0
 70
   128
 71
    48
 72
    38
 73
    47
  0
VERTEX
  5
811
  8
0
 62
     9
 10
0.0
 20
0.0
 30
0.0
 70
   128
 71
    27
 72
    23
 73
    67
  0
VERTEX
  5
812
  8
0
 62
     9
 10
0.0
 20
0.0
 30
0.0
 70
   128
 71
    67
 72
    24
 73
    48
  0
VERTEX
  5
813
  8
0
 62
     9
 10
0.0
 20
0.0
 30
0.0
 70
   128
 71
    63
 72
    27
 73
    65
  0
VERTEX
  5
814
  8
0
 62
     9
 10
0.0
 20
0.0
 30
0.0
 70
   128
 71
    27
 72
    67
 73
    65
  0
VERTEX
  5
815
  8
0
 62
     9
 10
0.0
 20
0.0
 30
0.0
 70
   128
 71
    30
 72
    29
 73
    59
  0
VERTEX
  5
816
  8
0
 62
     9
 10
0.0
 20
0.0
 30
0.0
 70
   128
 71
    29
 72
    63
 73
    59
  0
VERTEX
  5
817
  8
0
 62
     9
 10
0.0
 20
0.0
 30
0.0
 70
   128
 71
    35
 72
    33
 73
    62
  0
VERTEX
  5
818
  8
0
 62
     9
 10
0.0
 20
0.0
 30
0.0
 70
   128
 71
    33
 72
    59
 73
    57
  0
VERTEX
  5
819
  8
0
 62
     9
 10
0.0
 20
0.0
 30
0.0
 70
   128
 71
    10
 72
    12
 73
    80
  0
VERTEX
  5
81A
  8
0
 62
     9
 10
0.0
 20
0.0
 30
0.0
 70
   128
 71
    82
 72
    81
 73
    79
  0
VERTEX
  5
81B
  8
0
 62
     9
 10
0.0
 20
0.0
 30
0.0
 70
   128
 71
    71
 72
    73
 73
    83
  0
VERTEX
  5
81C
  8
0
 62
     9
 10
0.0
 20
0.0
 30
0.0
 70
   128
 71
    85
 72
    84
 73
    76
  0
VERTEX
  5
81D
  8
0
 62
     9
 10
0.0
 20
0.0
 30
0.0
 70
   128
 71
    74
 72
    75
 73
    84
  0
VERTEX
  5
81E
  8
0
 62
     9
 10
0.0
 20
0.0
 30
0.0
 70
   128
 71
    87
 72
    86
 73
    77
  0
VERTEX
  5
81F
  8
0
 62
     9
 10
0.0
 20
0.0
 30
0.0
 70
   128
 71
    77
 72
    86
 73
    85
  0
VERTEX
  5
820
  8
0
 62
     9
 10
0.0
 20
0.0
 30
0.0
 70
   128
 71
    87
 72
    78
 73
    22
  0
VERTEX
  5
821
  8
0
 62
     9
 10
0.0
 20
0.0
 30
0.0
 70
   128
 71
    78
 72
    87
 73
    77
  0
VERTEX
  5
822
  8
0
 62
     9
 10
0.0
 20
0.0
 30
0.0
 70
   128
 71
    22
 72
    78
 73
    21
  0
VERTEX
  5
823
  8
0
 62
     9
 10
0.0
 20
0.0
 30
0.0
 70
   128
 71
    76
 72
    84
 73
    75
  0
VERTEX
  5
824
  8
0
 62
     9
 10
0.0
 20
0.0
 30
0.0
 70
   128
 71
    77
 72
    85
 73
    76
  0
VERTEX
  5
825
  8
0
 62
     9
 10
0.0
 20
0.0
 30
0.0
 70
   128
 71
    74
 72
    82
 73
    79
  0
VERTEX
  5
826
  8
0
 62
     9
 10
0.0
 20
0.0
 30
0.0
 70
   128
 71
    74
 72
    84
 73
    82
  0
VERTEX
  5
827
  8
0
 62
     9
 10
0.0
 20
0.0
 30
0.0
 70
   128
 71
    88
 72
    73
 73
    79
  0
VERTEX
  5
828
  8
0
 62
     9
 10
0.0
 20
0.0
 30
0.0
 70
   128
 71
    81
 72
    88
 73
    79
  0
VERTEX
  5
829
  8
0
 62
     9
 10
0.0
 20
0.0
 30
0.0
 70
   128
 71
    83
 72
    72
 73
    71
  0
VERTEX
  5
82A
  8
0
 62
     9
 10
0.0
 20
0.0
 30
0.0
 70
   128
 71
    83
 72
    73
 73
    88
  0
VERTEX
  5
82B
  8
0
 62
     9
 10
0.0
 20
0.0
 30
0.0
 70
   128
 71
    72
 72
    80
 73
    12
  0
VERTEX
  5
82C
  8
0
 62
     9
 10
0.0
 20
0.0
 30
0.0
 70
   128
 71
    80
 72
    72
 73
    83
  0
VERTEX
  5
82D
  8
0
 62
     9
 10
0.0
 20
0.0
 30
0.0
 70
   128
 71
    84
 72
     8
 73
    10
  0
VERTEX
  5
82E
  8
0
 62
     9
 10
0.0
 20
0.0
 30
0.0
 70
   128
 71
    81
 72
    82
 73
    10
  0
VERTEX
  5
82F
  8
0
 62
     9
 10
0.0
 20
0.0
 30
0.0
 70
   128
 71
    83
 72
    88
 73
    81
  0
VERTEX
  5
830
  8
0
 62
     9
 10
0.0
 20
0.0
 30
0.0
 70
   128
 71
    81
 72
    80
 73
    83
  0
VERTEX
  5
831
  8
0
 62
     9
 10
0.0
 20
0.0
 30
0.0
 70
   128
 71
    81
 72
    10
 73
    80
  0
VERTEX
  5
832
  8
0
 62
     9
 10
0.0
 20
0.0
 30
0.0
 70
   128
 71
     8
 72
    84
 73
     9
  0
VERTEX
  5
833
  8
0
 62
     9
 10
0.0
 20
0.0
 30
0.0
 70
   128
 71
    82
 72
    84
 73
    10
  0
VERTEX
  5
834
  8
0
 62
     9
 10
0.0
 20
0.0
 30
0.0
 70
   128
 71
     9
 72
    85
 73
    86
  0
VERTEX
  5
835
  8
0
 62
     9
 10
0.0
 20
0.0
 30
0.0
 70
   128
 71
    84
 72
    85
 73
     9
  0
VERTEX
  5
836
  8
0
 62
     9
 10
0.0
 20
0.0
 30
0.0
 70
   128
 71
     7
 72
     9
 73
    86
  0
VERTEX
  5
837
  8
0
 62
     9
 10
0.0
 20
0.0
 30
0.0
 70
   128
 71
     1
 72
     7
 73
    86
  0
VERTEX
  5
838
  8
0
 62
     9
 10
0.0
 20
0.0
 30
0.0
 70
   128
 71
     3
 72
     1
 73
    87
  0
VERTEX
  5
839
  8
0
 62
     9
 10
0.0
 20
0.0
 30
0.0
 70
   128
 71
    86
 72
    87
 73
     1
  0
VERTEX
  5
83A
  8
0
 62
     9
 10
0.0
 20
0.0
 30
0.0
 70
   128
 71
    15
 72
     3
 73
    20
  0
VERTEX
  5
83B
  8
0
 62
     9
 10
0.0
 20
0.0
 30
0.0
 70
   128
 71
    22
 72
     3
 73
    87
  0
VERTEX
  5
83C
  8
0
 62
     9
 10
0.0
 20
0.0
 30
0.0
 70
   128
 71
    17
 72
    14
 73
    20
  0
VERTEX
  5
83D
  8
0
 62
     9
 10
0.0
 20
0.0
 30
0.0
 70
   128
 71
    20
 72
    14
 73
    15
  0
VERTEX
  5
83E
  8
0
 62
     9
 10
0.0
 20
0.0
 30
0.0
 70
   128
 71
    20
 72
     3
 73
    22
  0
SEQEND
  5
83F
  8
0
 62
     9
  0
ENDBLK
  5
842
  8
0
  0
ENDSEC
  0
SECTION
  2
ENTITIES
  0
INSERT
  5
103
  8
LAYER_1
  2
38
 10
0.0
 20
0.0
 30
0.0
  0
INSERT
  5
1FE
  8
LAYER_1
  2
39
 10
0.0
 20
0.0
 30
0.0
  0
INSERT
  5
2B0
  8
LAYER_1
  2
40
 10
0.0
 20
0.0
 30
0.0
  0
INSERT
  5
3AA
  8
LAYER_1
  2
41
 10
0.0
 20
0.0
 30
0.0
  0
INSERT
  5
45C
  8
LAYER_1
  2
42
 10
0.0
 20
0.0
 30
0.0
  0
INSERT
  5
4B2
  8
LAYER_1
  2
43
 10
0.0
 20
0.0
 30
0.0
  0
INSERT
  5
508
  8
LAYER_1
  2
44
 10
0.0
 20
0.0
 30
0.0
  0
INSERT
  5
62C
  8
LAYER_1
  2
45
 10
0.0
 20
0.0
 30
0.0
  0
INSERT
  5
736
  8
LAYER_1
  2
46
 10
0.0
 20
0.0
 30
0.0
  0
INSERT
  5
840
  8
LAYER_1
  2
47
 10
0.0
 20
0.0
 30
0.0
  0
ENDSEC
  0
EOF
