  0
SECTION
  2
HEADER
  9
$ACADVER
  1
AC1015
  9
$ACADMAINTVER
 70
     6
  9
$DWGCODEPAGE
  3
ANSI_1252
  9
$INSBASE
 10
0.0
 20
0.0
 30
0.0
  9
$EXTMIN
 10
0.0
 20
0.0
 30
0.0
  9
$EXTMAX
 10
1682.0
 20
2378.0
 30
0.0
  9
$LIMMIN
 10
0.0
 20
0.0
  9
$LIMMAX
 10
1682.0
 20
2378.0
  9
$ORTHOMODE
 70
     0
  9
$REGENMODE
 70
     1
  9
$FILLMODE
 70
     1
  9
$QTEXTMODE
 70
     0
  9
$MIRRTEXT
 70
     1
  9
$LTSCALE
 40
1.0
  9
$ATTMODE
 70
     1
  9
$TEXTSIZE
 40
2.5
  9
$TRACEWID
 40
1.0
  9
$TEXTSTYLE
  7
Standard
  9
$CLAYER
  8
0
  9
$CELTYPE
  6
ByLayer
  9
$CECOLOR
 62
   256
  9
$CELTSCALE
 40
1.0
  9
$DISPSILH
 70
     0
  9
$DIMSCALE
 40
1.0
  9
$DIMASZ
 40
2.5
  9
$DIMEXO
 40
0.625
  9
$DIMDLI
 40
3.75
  9
$DIMRND
 40
0.0
  9
$DIMDLE
 40
0.0
  9
$DIMEXE
 40
1.25
  9
$DIMTP
 40
0.0
  9
$DIMTM
 40
0.0
  9
$DIMTXT
 40
2.5
  9
$DIMCEN
 40
2.5
  9
$DIMTSZ
 40
0.0
  9
$DIMTOL
 70
     0
  9
$DIMLIM
 70
     0
  9
$DIMTIH
 70
     0
  9
$DIMTOH
 70
     0
  9
$DIMSE1
 70
     0
  9
$DIMSE2
 70
     0
  9
$DIMTAD
 70
     1
  9
$DIMZIN
 70
     8
  9
$DIMBLK
  1

  9
$DIMASO
 70
     1
  9
$DIMSHO
 70
     1
  9
$DIMPOST
  1

  9
$DIMAPOST
  1

  9
$DIMALT
 70
     0
  9
$DIMALTD
 70
     3
  9
$DIMALTF
 40
0.0393700787
  9
$DIMLFAC
 40
1.0
  9
$DIMTOFL
 70
     1
  9
$DIMTVP
 40
0.0
  9
$DIMTIX
 70
     0
  9
$DIMSOXD
 70
     0
  9
$DIMSAH
 70
     0
  9
$DIMBLK1
  1

  9
$DIMBLK2
  1

  9
$DIMSTYLE
  2
ISO-25
  9
$DIMCLRD
 70
     0
  9
$DIMCLRE
 70
     0
  9
$DIMCLRT
 70
     0
  9
$DIMTFAC
 40
1.0
  9
$DIMGAP
 40
0.625
  9
$DIMJUST
 70
     0
  9
$DIMSD1
 70
     0
  9
$DIMSD2
 70
     0
  9
$DIMTOLJ
 70
     0
  9
$DIMTZIN
 70
     8
  9
$DIMALTZ
 70
     0
  9
$DIMALTTZ
 70
     0
  9
$DIMUPT
 70
     0
  9
$DIMDEC
 70
     2
  9
$DIMTDEC
 70
     2
  9
$DIMALTU
 70
     2
  9
$DIMALTTD
 70
     3
  9
$DIMTXSTY
  7
Standard
  9
$DIMAUNIT
 70
     0
  9
$DIMADEC
 70
     0
  9
$DIMALTRND
 40
0.0
  9
$DIMAZIN
 70
     0
  9
$DIMDSEP
 70
    44
  9
$DIMATFIT
 70
     3
  9
$DIMFRAC
 70
     0
  9
$DIMLDRBLK
  1

  9
$DIMLUNIT
 70
     2
  9
$DIMLWD
 70
    -2
  9
$DIMLWE
 70
    -2
  9
$DIMTMOVE
 70
     0
  9
$LUNITS
 70
     2
  9
$LUPREC
 70
     4
  9
$SKETCHINC
 40
1.0
  9
$FILLETRAD
 40
10.0
  9
$AUNITS
 70
     0
  9
$AUPREC
 70
     0
  9
$MENU
  1
.
  9
$ELEVATION
 40
0.0
  9
$PELEVATION
 40
0.0
  9
$THICKNESS
 40
0.0
  9
$LIMCHECK
 70
     0
  9
$CHAMFERA
 40
10.0
  9
$CHAMFERB
 40
10.0
  9
$CHAMFERC
 40
20.0
  9
$CHAMFERD
 40
0.0
  9
$SKPOLY
 70
     0
  9
$TDCREATE
 40
2455566.474498298
  9
$TDUCREATE
 40
2455566.432831632
  9
$TDUPDATE
 40
2455566.47449831
  9
$TDUUPDATE
 40
2455566.432831644
  9
$TDINDWG
 40
0.0000000116
  9
$TDUSRTIMER
 40
0.0000000116
  9
$USRTIMER
 70
     1
  9
$ANGBASE
 50
0.0
  9
$ANGDIR
 70
     0
  9
$PDMODE
 70
     0
  9
$PDSIZE
 40
0.0
  9
$PLINEWID
 40
0.0
  9
$SPLFRAME
 70
     0
  9
$SPLINETYPE
 70
     6
  9
$SPLINESEGS
 70
     8
  9
$HANDSEED
  5
165
  9
$SURFTAB1
 70
     6
  9
$SURFTAB2
 70
     6
  9
$SURFTYPE
 70
     6
  9
$SURFU
 70
     6
  9
$SURFV
 70
     6
  9
$UCSBASE
  2

  9
$UCSNAME
  2

  9
$UCSORG
 10
0.0
 20
0.0
 30
0.0
  9
$UCSXDIR
 10
1.0
 20
0.0
 30
0.0
  9
$UCSYDIR
 10
0.0
 20
1.0
 30
0.0
  9
$UCSORTHOREF
  2

  9
$UCSORTHOVIEW
 70
     0
  9
$UCSORGTOP
 10
0.0
 20
0.0
 30
0.0
  9
$UCSORGBOTTOM
 10
0.0
 20
0.0
 30
0.0
  9
$UCSORGLEFT
 10
0.0
 20
0.0
 30
0.0
  9
$UCSORGRIGHT
 10
0.0
 20
0.0
 30
0.0
  9
$UCSORGFRONT
 10
0.0
 20
0.0
 30
0.0
  9
$UCSORGBACK
 10
0.0
 20
0.0
 30
0.0
  9
$PUCSBASE
  2

  9
$PUCSNAME
  2

  9
$PUCSORG
 10
0.0
 20
0.0
 30
0.0
  9
$PUCSXDIR
 10
1.0
 20
0.0
 30
0.0
  9
$PUCSYDIR
 10
0.0
 20
1.0
 30
0.0
  9
$PUCSORTHOREF
  2

  9
$PUCSORTHOVIEW
 70
     0
  9
$PUCSORGTOP
 10
0.0
 20
0.0
 30
0.0
  9
$PUCSORGBOTTOM
 10
0.0
 20
0.0
 30
0.0
  9
$PUCSORGLEFT
 10
0.0
 20
0.0
 30
0.0
  9
$PUCSORGRIGHT
 10
0.0
 20
0.0
 30
0.0
  9
$PUCSORGFRONT
 10
0.0
 20
0.0
 30
0.0
  9
$PUCSORGBACK
 10
0.0
 20
0.0
 30
0.0
  9
$USERI1
 70
     0
  9
$USERI2
 70
     0
  9
$USERI3
 70
     0
  9
$USERI4
 70
     0
  9
$USERI5
 70
     0
  9
$USERR1
 40
0.0
  9
$USERR2
 40
0.0
  9
$USERR3
 40
0.0
  9
$USERR4
 40
0.0
  9
$USERR5
 40
0.0
  9
$WORLDVIEW
 70
     1
  9
$SHADEDGE
 70
     3
  9
$SHADEDIF
 70
    70
  9
$TILEMODE
 70
     1
  9
$MAXACTVP
 70
    64
  9
$PINSBASE
 10
0.0
 20
0.0
 30
0.0
  9
$PLIMCHECK
 70
     0
  9
$PEXTMIN
 10
0.0
 20
0.0
 30
0.0
  9
$PEXTMAX
 10
1682.0
 20
2378.0
 30
0.0
  9
$PLIMMIN
 10
0.0
 20
0.0
  9
$PLIMMAX
 10
1682.0
 20
2378.0
  9
$UNITMODE
 70
     0
  9
$VISRETAIN
 70
     1
  9
$PLINEGEN
 70
     0
  9
$PSLTSCALE
 70
     1
  9
$TREEDEPTH
 70
  3020
  9
$CMLSTYLE
  2
Standard
  9
$CMLJUST
 70
     0
  9
$CMLSCALE
 40
20.0
  9
$PROXYGRAPHICS
 70
     1
  9
$MEASUREMENT
 70
     1
  9
$CELWEIGHT
370
    -1
  9
$ENDCAPS
280
     0
  9
$JOINSTYLE
280
     0
  9
$LWDISPLAY
290
     0
  9
$INSUNITS
 70
     4
  9
$HYPERLINKBASE
  1

  9
$STYLESHEET
  1

  9
$XEDIT
290
     1
  9
$CEPSNTYPE
380
     0
  9
$PSTYLEMODE
290
     1
  9
$FINGERPRINTGUID
  2
{9C6D3DAA-3A27-4825-9621-FFAA430BBB00}
  9
$VERSIONGUID
  2
{FAEB1C32-E019-11D5-929B-00C0DF256EC4}
  9
$EXTNAMES
290
     1
  9
$PSVPSCALE
 40
0.0
  9
$OLESTARTUP
290
     0
  0
ENDSEC
  0
SECTION
  2
CLASSES
  0
CLASS
  1
ACDBDICTIONARYWDFLT
  2
AcDbDictionaryWithDefault
  3
ObjectDBX Classes
 90
        0
280
     0
281
     0
  0
CLASS
  1
VISUALSTYLE
  2
AcDbVisualStyle
  3
ObjectDBX Classes
 90
     4095
280
     0
281
     0
  0
CLASS
  1
SCALE
  2
AcDbScale
  3
ObjectDBX Classes
 90
     1153
280
     0
281
     0
  0
CLASS
  1
DICTIONARYVAR
  2
AcDbDictionaryVar
  3
ObjectDBX Classes
 90
        0
280
     0
281
     0
  0
CLASS
  1
ACDBPLACEHOLDER
  2
AcDbPlaceHolder
  3
ObjectDBX Classes
 90
        0
280
     0
281
     0
  0
CLASS
  1
LAYOUT
  2
AcDbLayout
  3
ObjectDBX Classes
 90
        0
280
     0
281
     0
  0
ENDSEC
  0
SECTION
  2
TABLES
  0
TABLE
  2
VPORT
  5
8
330
0
100
AcDbSymbolTable
 70
     1
  0
VPORT
  5
29
330
8
100
AcDbSymbolTableRecord
100
AcDbViewportTableRecord
  2
*Active
 70
     0
 10
0.0
 20
0.0
 11
1.0
 21
1.0
 12
344.1869158879
 22
148.5
 13
0.0
 23
0.0
 14
10.0
 24
10.0
 15
10.0
 25
10.0
 16
0.0
 26
0.0
 36
1.0
 17
0.0
 27
0.0
 37
0.0
 40
297.0
 41
1.9729729729
 42
50.0
 43
0.0
 44
0.0
 50
0.0
 51
0.0
 71
     0
 72
   100
 73
     1
 74
     3
 75
     0
 76
     0
 77
     0
 78
     0
281
     0
 65
     1
110
0.0
120
0.0
130
0.0
111
1.0
121
0.0
131
0.0
112
0.0
122
1.0
132
0.0
 79
     0
146
0.0
  0
ENDTAB
  0
TABLE
  2
LTYPE
  5
5
330
0
100
AcDbSymbolTable
 70
     2
  0
LTYPE
  5
14
330
5
100
AcDbSymbolTableRecord
100
AcDbLinetypeTableRecord
  2
ByBlock
 70
     0
  3

 72
    65
 73
     0
 40
0.0
  0
LTYPE
  5
15
330
5
100
AcDbSymbolTableRecord
100
AcDbLinetypeTableRecord
  2
ByLayer
 70
     0
  3

 72
    65
 73
     0
 40
0.0
  0
LTYPE
  5
16
330
5
100
AcDbSymbolTableRecord
100
AcDbLinetypeTableRecord
  2
Continuous
 70
     0
  3
Solid line
 72
    65
 73
     0
 40
0.0
  0
LTYPE
  5
60
330
5
100
AcDbSymbolTableRecord
100
AcDbLinetypeTableRecord
  2
CENTER2
 70
     0
  3
Center (.5x) ___ _ ___ _ ___ _ ___ _ ___ _ ___
 72
    65
 73
     4
 40
28.575
 49
19.05
 74
     4
 75
     0
340
0
 46
0.0
 50
0.0
 44
0.0
 45
0.0
 49
-3.175
 74
     4
 75
     0
340
0
 46
0.0
 50
0.0
 44
0.0
 45
0.0
 49
3.175
 74
     4
 75
     0
340
0
 46
0.0
 50
0.0
 44
0.0
 45
0.0
 49
-3.175
 74
     4
 75
     0
340
0
 46
0.0
 50
0.0
 44
0.0
 45
0.0
  0
ENDTAB
  0
TABLE
  2
LAYER
  5
2
330
0
100
AcDbSymbolTable
 70
     3
  0
LAYER
  5
10
330
2
100
AcDbSymbolTableRecord
100
AcDbLayerTableRecord
  2
0
 70
     0
 62
     7
  6
Continuous
370
    -3
390
F
  0
LAYER
  5
5D
330
2
100
AcDbSymbolTableRecord
100
AcDbLayerTableRecord
  2
Default
 70
     0
 62
     7
  6
Continuous
370
    -3
390
F
  0
LAYER
  5
77
330
2
100
AcDbSymbolTableRecord
100
AcDbLayerTableRecord
  2
28002000_BRS_KOP
 70
     0
 62
     7
  6
Continuous
370
    -3
390
F
  0
ENDTAB
  0
TABLE
  2
STYLE
  5
3
330
0
100
AcDbSymbolTable
 70
     2
  0
STYLE
  5
11
330
3
100
AcDbSymbolTableRecord
100
AcDbTextStyleTableRecord
  2
Standard
 70
     0
 40
0.0
 41
1.0
 50
0.0
 71
     0
 42
2.5
  3
txt
  4

  0
STYLE
  5
154
330
3
100
AcDbSymbolTableRecord
100
AcDbTextStyleTableRecord
  2
SEACAD_seiso_ttf
 70
     0
 40
0.0
 41
1.0
 50
0.0
 71
     0
 42
0.2
  3
seiso.ttf
  4

  0
ENDTAB
  0
TABLE
  2
VIEW
  5
6
330
0
100
AcDbSymbolTable
 70
     0
  0
ENDTAB
  0
TABLE
  2
UCS
  5
7
330
0
100
AcDbSymbolTable
 70
     0
  0
ENDTAB
  0
TABLE
  2
APPID
  5
9
330
0
100
AcDbSymbolTable
 70
     1
  0
APPID
  5
12
330
9
100
AcDbSymbolTableRecord
100
AcDbRegAppTableRecord
  2
ACAD
 70
     0
  0
ENDTAB
  0
TABLE
  2
DIMSTYLE
  5
A
330
0
100
AcDbSymbolTable
 70
     1
100
AcDbDimStyleTable
  0
DIMSTYLE
105
27
330
A
100
AcDbSymbolTableRecord
100
AcDbDimStyleTableRecord
  2
ISO-25
 70
     0
 41
2.5
 42
0.625
 43
3.75
 44
1.25
 73
     0
 74
     0
 77
     1
 78
     8
140
2.5
141
2.5
143
0.0393700787
147
0.625
171
     3
172
     1
271
     2
272
     2
274
     3
278
    44
283
     0
284
     8
340
11
  0
ENDTAB
  0
TABLE
  2
BLOCK_RECORD
  5
1
330
0
100
AcDbSymbolTable
 70
     7
  0
BLOCK_RECORD
  5
1F
330
1
100
AcDbSymbolTableRecord
100
AcDbBlockTableRecord
  2
*Model_Space
340
22
  0
BLOCK_RECORD
  5
1B
330
1
100
AcDbSymbolTableRecord
100
AcDbBlockTableRecord
  2
*Paper_Space
340
1E
  0
BLOCK_RECORD
  5
5E
330
1
100
AcDbSymbolTableRecord
100
AcDbBlockTableRecord
  2
SEANNOT_GROUP
340
0
102
{BLKREFS
331
5F
102
}
  0
BLOCK_RECORD
  5
65
330
1
100
AcDbSymbolTableRecord
100
AcDbBlockTableRecord
  2
SEANNOT_GROUP1
340
0
102
{BLKREFS
331
66
102
}
  0
BLOCK_RECORD
  5
6B
330
1
100
AcDbSymbolTableRecord
100
AcDbBlockTableRecord
  2
SEANNOT_GROUP2
340
0
102
{BLKREFS
331
6C
102
}
  0
BLOCK_RECORD
  5
75
330
1
100
AcDbSymbolTableRecord
100
AcDbBlockTableRecord
  2
SE
340
0
102
{BLKREFS
331
76
102
}
  0
BLOCK_RECORD
  5
EC
330
1
100
AcDbSymbolTableRecord
100
AcDbBlockTableRecord
  2
SE1
340
0
102
{BLKREFS
331
ED
102
}
  0
BLOCK_RECORD
  5
149
330
1
100
AcDbSymbolTableRecord
100
AcDbBlockTableRecord
  2
SE2
340
0
102
{BLKREFS
331
14A
102
}
  0
ENDTAB
  0
ENDSEC
  0
SECTION
  2
BLOCKS
  0
BLOCK
  5
20
330
1F
100
AcDbEntity
  8
0
100
AcDbBlockBegin
  2
*Model_Space
 70
     0
 10
0.0
 20
0.0
 30
0.0
  3
*Model_Space
  1

  0
ENDBLK
  5
21
330
1F
100
AcDbEntity
  8
0
100
AcDbBlockEnd
  0
BLOCK
  5
1C
330
1B
100
AcDbEntity
 67
     1
  8
0
100
AcDbBlockBegin
  2
*Paper_Space
 70
     0
 10
0.0
 20
0.0
 30
0.0
  3
*Paper_Space
  1

  0
ENDBLK
  5
1D
330
1B
100
AcDbEntity
 67
     1
  8
0
100
AcDbBlockEnd
  0
BLOCK
  5
63
330
5E
100
AcDbEntity
  8
0
100
AcDbBlockBegin
  2
SEANNOT_GROUP
 70
     0
 10
0.0
 20
0.0
 30
0.0
  3
SEANNOT_GROUP
  1

  0
LINE
  5
61
330
5E
100
AcDbEntity
  8
Default
  6
CENTER2
 62
     7
100
AcDbLine
 10
159.0534123437
 20
283.1913749209
 30
0.0
 11
119.0534132378
 21
283.1913749209
 31
0.0
  0
LINE
  5
62
330
5E
100
AcDbEntity
  8
Default
  6
CENTER2
 62
     7
100
AcDbLine
 10
139.0534127908
 20
303.1913744739
 30
0.0
 11
139.0534127908
 21
263.191375368
 31
0.0
  0
ENDBLK
  5
64
330
5E
100
AcDbEntity
  8
0
100
AcDbBlockEnd
  0
BLOCK
  5
69
330
65
100
AcDbEntity
  8
0
100
AcDbBlockBegin
  2
SEANNOT_GROUP1
 70
     0
 10
0.0
 20
0.0
 30
0.0
  3
SEANNOT_GROUP1
  1

  0
LINE
  5
67
330
65
100
AcDbEntity
  8
Default
  6
CENTER2
 62
     7
100
AcDbLine
 10
61.349999553
 20
190.4879621302
 30
0.0
 11
21.350000447
 21
190.4879621302
 31
0.0
  0
LINE
  5
68
330
65
100
AcDbEntity
  8
Default
  6
CENTER2
 62
     7
100
AcDbLine
 10
41.35
 20
210.4879616831
 30
0.0
 11
41.35
 21
170.4879625772
 31
0.0
  0
ENDBLK
  5
6A
330
65
100
AcDbEntity
  8
0
100
AcDbBlockEnd
  0
BLOCK
  5
73
330
6B
100
AcDbEntity
  8
0
100
AcDbBlockBegin
  2
SEANNOT_GROUP2
 70
     0
 10
0.0
 20
0.0
 30
0.0
  3
SEANNOT_GROUP2
  1

  0
LINE
  5
6D
330
6B
100
AcDbEntity
  8
Default
  6
CENTER2
 62
     7
100
AcDbLine
 10
61.349999553
 20
283.1913749209
 30
0.0
 11
21.350000447
 21
283.1913749209
 31
0.0
  0
LINE
  5
6E
330
6B
100
AcDbEntity
  8
Default
  6
CENTER2
 62
     7
100
AcDbLine
 10
41.35
 20
303.1913744739
 30
0.0
 11
41.35
 21
263.191375368
 31
0.0
  0
LINE
  5
6F
330
6B
100
AcDbEntity
  8
Default
  6
CENTER2
 62
     7
100
AcDbLine
 10
66.3499994412
 20
283.1913749209
 30
0.0
 11
79.85
 21
283.1913749209
 31
0.0
  0
LINE
  5
70
330
6B
100
AcDbEntity
  8
Default
  6
CENTER2
 62
     7
100
AcDbLine
 10
41.35
 20
308.1913743621
 30
0.0
 11
41.35
 21
316.6913749209
 31
0.0
  0
LINE
  5
71
330
6B
100
AcDbEntity
  8
Default
  6
CENTER2
 62
     7
100
AcDbLine
 10
16.3500005588
 20
283.1913749209
 30
0.0
 11
2.85
 21
283.1913749209
 31
0.0
  0
LINE
  5
72
330
6B
100
AcDbEntity
  8
Default
  6
CENTER2
 62
     7
100
AcDbLine
 10
41.35
 20
258.1913754797
 30
0.0
 11
41.35
 21
249.6913749209
 31
0.0
  0
ENDBLK
  5
74
330
6B
100
AcDbEntity
  8
0
100
AcDbBlockEnd
  0
BLOCK
  5
EA
330
75
100
AcDbEntity
  8
0
100
AcDbBlockBegin
  2
SE
 70
     0
 10
0.0
 20
0.0
 30
0.0
  3
SE
  1

  0
ELLIPSE
  5
78
330
75
100
AcDbEntity
  8
28002000_BRS_KOP
  6
Continuous
 62
     7
100
AcDbEllipse
 10
41.35
 20
283.1913749209
 30
0.0
 11
35.0
 21
0.0
 31
0.0
210
0.0
220
0.0
230
1.0
 40
0.8571428571
 41
1.570796326794896
 42
3.141592653589793
  0
ELLIPSE
  5
79
330
75
100
AcDbEntity
  8
28002000_BRS_KOP
  6
Continuous
 62
     7
100
AcDbEllipse
 10
41.35
 20
283.1913749209
 30
0.0
 11
35.0
 21
0.0
 31
0.0
210
0.0
220
0.0
230
1.0
 40
0.8571428571
 41
3.141592653589793
 42
3.66519142918809
  0
ELLIPSE
  5
7A
330
75
100
AcDbEntity
  8
28002000_BRS_KOP
  6
Continuous
 62
     7
100
AcDbEllipse
 10
41.35
 20
283.1913749209
 30
0.0
 11
35.0
 21
0.0
 31
0.0
210
0.0
220
0.0
230
1.0
 40
0.8571428571
 41
3.66519142918809
 42
3.98965473257124
  0
ELLIPSE
  5
7B
330
75
100
AcDbEntity
  8
28002000_BRS_KOP
  6
Continuous
 62
     7
100
AcDbEllipse
 10
41.35
 20
283.1913749209
 30
0.0
 11
35.0
 21
0.0
 31
0.0
210
0.0
220
0.0
230
1.0
 40
0.8571428571
 41
3.98965473257124
 42
4.207028470100532
  0
ELLIPSE
  5
7C
330
75
100
AcDbEntity
  8
28002000_BRS_KOP
  6
Continuous
 62
     7
100
AcDbEllipse
 10
41.35
 20
283.1913749209
 30
0.0
 11
35.0
 21
0.0
 31
0.0
210
0.0
220
0.0
230
1.0
 40
0.8571428571
 41
4.207028470100532
 42
4.356967778694466
  0
ELLIPSE
  5
7D
330
75
100
AcDbEntity
  8
28002000_BRS_KOP
  6
Continuous
 62
     7
100
AcDbEllipse
 10
41.35
 20
283.1913749209
 30
0.0
 11
35.0
 21
0.0
 31
0.0
210
0.0
220
0.0
230
1.0
 40
0.8571428571
 41
4.356967778694466
 42
4.507908781416154
  0
ELLIPSE
  5
7E
330
75
100
AcDbEntity
  8
28002000_BRS_KOP
  6
Continuous
 62
     7
100
AcDbEllipse
 10
41.35
 20
283.1913749209
 30
0.0
 11
35.0
 21
0.0
 31
0.0
210
0.0
220
0.0
230
1.0
 40
0.8571428571
 41
4.507908781416154
 42
4.71238898038469
  0
ELLIPSE
  5
7F
330
75
100
AcDbEntity
  8
28002000_BRS_KOP
  6
Continuous
 62
     7
100
AcDbEllipse
 10
41.35
 20
283.1913749209
 30
0.0
 11
35.0
 21
0.0
 31
0.0
210
0.0
220
0.0
230
1.0
 40
0.8571428571
 41
4.71238898038469
 42
4.916869179353226
  0
ELLIPSE
  5
80
330
75
100
AcDbEntity
  8
28002000_BRS_KOP
  6
Continuous
 62
     7
100
AcDbEllipse
 10
41.35
 20
283.1913749209
 30
0.0
 11
35.0
 21
0.0
 31
0.0
210
0.0
220
0.0
230
1.0
 40
0.8571428571
 41
4.916869179353226
 42
5.067810182074913
  0
ELLIPSE
  5
81
330
75
100
AcDbEntity
  8
28002000_BRS_KOP
  6
Continuous
 62
     7
100
AcDbEllipse
 10
41.35
 20
283.1913749209
 30
0.0
 11
35.0
 21
0.0
 31
0.0
210
0.0
220
0.0
230
1.0
 40
0.8571428571
 41
5.067810182074913
 42
5.217749490668847
  0
ELLIPSE
  5
82
330
75
100
AcDbEntity
  8
28002000_BRS_KOP
  6
Continuous
 62
     7
100
AcDbEllipse
 10
41.35
 20
283.1913749209
 30
0.0
 11
35.0
 21
0.0
 31
0.0
210
0.0
220
0.0
230
1.0
 40
0.8571428571
 41
5.217749490668847
 42
5.435123228198137
  0
ELLIPSE
  5
83
330
75
100
AcDbEntity
  8
28002000_BRS_KOP
  6
Continuous
 62
     7
100
AcDbEllipse
 10
41.35
 20
283.1913749209
 30
0.0
 11
35.0
 21
0.0
 31
0.0
210
0.0
220
0.0
230
1.0
 40
0.8571428571
 41
5.435123228198137
 42
5.759586531581288
  0
ELLIPSE
  5
84
330
75
100
AcDbEntity
  8
28002000_BRS_KOP
  6
Continuous
 62
     7
100
AcDbEllipse
 10
41.35
 20
283.1913749209
 30
0.0
 11
35.0
 21
0.0
 31
0.0
210
0.0
220
0.0
230
1.0
 40
0.8571428571
 41
5.759586531581288
 42
6.283185307179586
  0
ELLIPSE
  5
85
330
75
100
AcDbEntity
  8
28002000_BRS_KOP
  6
Continuous
 62
     7
100
AcDbEllipse
 10
41.35
 20
283.1913749209
 30
0.0
 11
35.0
 21
0.0
 31
0.0
210
0.0
220
0.0
230
1.0
 40
0.8571428571
 41
0.0
 42
1.570796326794896
  0
ELLIPSE
  5
86
330
75
100
AcDbEntity
  8
28002000_BRS_KOP
  6
Continuous
 62
     7
100
AcDbEllipse
 10
41.35
 20
269.4539789141
 30
0.0
 11
28.50000000000001
 21
-6.938893903907228E-15
 31
0.0
210
0.0
220
0.0
230
1.0
 40
0.2756373558
 41
1.570796326794896
 42
3.141592653589794
  0
ELLIPSE
  5
87
330
75
100
AcDbEntity
  8
28002000_BRS_KOP
  6
Continuous
 62
     7
100
AcDbEllipse
 10
41.35
 20
269.4539789141
 30
0.0
 11
28.49999999999999
 21
-3.469446951953614E-15
 31
0.0
210
0.0
220
0.0
230
1.0
 40
0.2756373558
 41
0.0
 42
1.570796326794897
  0
ELLIPSE
  5
88
330
75
100
AcDbEntity
  8
28002000_BRS_KOP
  6
Continuous
 62
     7
100
AcDbEllipse
 10
41.35
 20
269.3578527445
 30
0.0
 11
28.50000000000001
 21
0.0
 31
0.0
210
0.0
220
0.0
230
1.0
 40
0.2756373558
 41
0.0
 42
6.283185307179586
  0
LINE
  5
89
330
75
100
AcDbEntity
  8
28002000_BRS_KOP
  6
Continuous
 62
     7
100
AcDbLine
 10
12.85
 20
269.4539789141
 30
0.0
 11
12.85
 21
269.3578527445
 31
0.0
  0
LINE
  5
8A
330
75
100
AcDbEntity
  8
28002000_BRS_KOP
  6
Continuous
 62
     7
100
AcDbLine
 10
69.85
 20
269.3578527445
 30
0.0
 11
69.85
 21
269.4539789141
 31
0.0
  0
ELLIPSE
  5
8B
330
75
100
AcDbEntity
  8
28002000_BRS_KOP
  6
Continuous
 62
     7
100
AcDbEllipse
 10
41.35
 20
268.9372223233
 30
0.0
 11
24.10000000000001
 21
-3.469446951953614E-15
 31
0.0
210
0.0
220
0.0
230
1.0
 40
0.2756373558
 41
5.381176013785955
 42
6.283185307179586
  0
ELLIPSE
  5
8C
330
75
100
AcDbEntity
  8
28002000_BRS_KOP
  6
Continuous
 62
     7
100
AcDbEllipse
 10
41.35
 20
268.9372223233
 30
0.0
 11
24.10000000000001
 21
-3.469446951953614E-15
 31
0.0
210
0.0
220
0.0
230
1.0
 40
0.2756373558
 41
-1.204790237924382
 42
-1.00817082057713
  0
ELLIPSE
  5
8D
330
75
100
AcDbEntity
  8
28002000_BRS_KOP
  6
Continuous
 62
     7
100
AcDbEllipse
 10
41.35
 20
268.9372223233
 30
0.0
 11
24.10000000000001
 21
-3.469446951953614E-15
 31
0.0
210
0.0
220
0.0
230
1.0
 40
0.2756373558
 41
4.75986901768272
 42
4.980695573583846
  0
ELLIPSE
  5
8E
330
75
100
AcDbEntity
  8
28002000_BRS_KOP
  6
Continuous
 62
     7
100
AcDbEllipse
 10
41.35
 20
268.9372223233
 30
0.0
 11
24.10000000000001
 21
-3.469446951953614E-15
 31
0.0
210
0.0
220
0.0
230
1.0
 40
0.2756373558
 41
4.444061347602766
 42
4.664809193366739
  0
ELLIPSE
  5
8F
330
75
100
AcDbEntity
  8
28002000_BRS_KOP
  6
Continuous
 62
     7
100
AcDbEllipse
 10
41.35
 20
268.9372223233
 30
0.0
 11
24.10000000000001
 21
-3.469446951953614E-15
 31
0.0
210
0.0
220
0.0
230
1.0
 40
0.2756373558
 41
4.149390949882038
 42
4.34614585826874
  0
ELLIPSE
  5
90
330
75
100
AcDbEntity
  8
28002000_BRS_KOP
  6
Continuous
 62
     7
100
AcDbEllipse
 10
41.35
 20
268.9372223233
 30
0.0
 11
24.10000000000001
 21
-3.469446951953614E-15
 31
0.0
210
0.0
220
0.0
230
1.0
 40
0.2756373558
 41
0.0
 42
4.043492105164125
  0
ELLIPSE
  5
91
330
75
100
AcDbEntity
  8
28002000_BRS_KOP
  6
Continuous
 62
     7
100
AcDbEllipse
 10
23.2057699366
 20
265.1368452206
 30
0.0
 11
0.5451974203843669
 21
-0.07252429114600752
 31
0.0
210
0.0
220
0.0
230
1.0
 40
0.2217588047
 41
0.0
 42
6.283185307179586
  0
ELLIPSE
  5
92
330
75
100
AcDbEntity
  8
28002000_BRS_KOP
  6
Continuous
 62
     7
100
AcDbEllipse
 10
23.2057699366
 20
265.1368452206
 30
0.0
 11
1.01604973798905
 21
-0.1351589062266491
 31
0.0
210
0.0
220
0.0
230
0.9999999999999999
 40
0.2217588047
 41
0.0
 42
6.283185307179586
  0
ARC
  5
93
330
75
100
AcDbEntity
  8
28002000_BRS_KOP
  6
Continuous
 62
     7
100
AcDbCircle
 10
19.1685950547
 20
265.2405700101
 30
0.0
 40
3.020558909851789
100
AcDbArc
 50
1.5441673599
 51
25.7018983611
  0
ARC
  5
94
330
75
100
AcDbEntity
  8
28002000_BRS_KOP
  6
Continuous
 62
     7
100
AcDbCircle
 10
27.1637513508
 20
264.1705471352
 30
0.0
 40
3.055630661655443
100
AcDbArc
 50
139.5027074112
 51
164.3667537711
  0
LINE
  5
95
330
75
100
AcDbEntity
  8
28002000_BRS_KOP
  6
Continuous
 62
     7
100
AcDbLine
 10
22.1880570457
 20
265.3219666486
 30
0.0
 11
22.1866249299
 21
265.2646631204
 31
0.0
  0
ELLIPSE
  5
96
330
75
100
AcDbEntity
  8
28002000_BRS_KOP
  6
Continuous
 62
     7
100
AcDbEllipse
 10
21.710826899
 20
267.2084215202
 30
0.0
 11
0.5442142556180036
 21
-0.07956660092113196
 31
0.0
210
0.0
220
0.0
230
1.0
 40
0.272954872
 41
0.0
 42
6.283185307179586
  0
ELLIPSE
  5
97
330
75
100
AcDbEntity
  8
28002000_BRS_KOP
  6
Continuous
 62
     7
100
AcDbEllipse
 10
21.710826899
 20
267.2084215202
 30
0.0
 11
1.014217476379007
 21
-0.1482832108075649
 31
0.0
210
0.0
220
0.0
230
1.0
 40
0.272954872
 41
0.0
 42
6.283185307179586
  0
ARC
  5
98
330
75
100
AcDbEntity
  8
28002000_BRS_KOP
  6
Continuous
 62
     7
100
AcDbCircle
 10
17.8257190022
 20
267.3575474247
 30
0.0
 40
2.870129689566015
100
AcDbArc
 50
359.6824065118
 51
25.5452683772
  0
ARC
  5
99
330
75
100
AcDbEntity
  8
28002000_BRS_KOP
  6
Continuous
 62
     7
100
AcDbCircle
 10
25.521738655
 20
266.2255468903
 30
0.0
 40
2.91636845736064
100
AcDbArc
 50
138.3826604057
 51
163.6195165833
  0
ELLIPSE
  5
9A
330
75
100
AcDbEntity
  8
28002000_BRS_KOP
  6
Continuous
 62
     7
100
AcDbEllipse
 10
48.2946279127
 20
269.2020958017
 30
0.0
 11
1.024135371887692
 21
0.04209204257886109
 31
0.0
210
0.0
220
0.0
230
1.0
 40
0.3307194686
 41
0.0
 42
6.283185307179586
  0
ARC
  5
9B
330
75
100
AcDbEntity
  8
28002000_BRS_KOP
  6
Continuous
 62
     7
100
AcDbCircle
 10
52.0044501755
 20
268.9596248208
 30
0.0
 40
2.697869297608523
100
AcDbArc
 50
142.807119303
 51
174.3574073451
  0
ARC
  5
9C
330
75
100
AcDbEntity
  8
28002000_BRS_KOP
  6
Continuous
 62
     7
100
AcDbCircle
 10
44.6928874551
 20
268.6953395885
 30
0.0
 40
2.612464829622449
100
AcDbArc
 50
9.8318388281
 51
42.2721703377
  0
ELLIPSE
  5
9D
330
75
100
AcDbEntity
  8
28002000_BRS_KOP
  6
Continuous
 62
     7
100
AcDbEllipse
 10
38.9113709748
 20
269.7165580009
 30
0.0
 11
-1.024892612670639
 21
0.01483686264520945
 31
0.0
210
0.0
220
0.0
230
1.0
 40
0.3407317152
 41
0.0
 42
6.283185307179586
  0
ARC
  5
9E
330
75
100
AcDbEntity
  8
28002000_BRS_KOP
  6
Continuous
 62
     7
100
AcDbCircle
 10
42.5022249752
 20
269.3039599893
 30
0.0
 40
2.590373119405403
100
AcDbArc
 50
139.2009149839
 51
171.6363889931
  0
ARC
  5
9F
330
75
100
AcDbEntity
  8
28002000_BRS_KOP
  6
Continuous
 62
     7
100
AcDbCircle
 10
35.3219229342
 20
269.4127558469
 30
0.0
 40
2.577616013753172
100
AcDbArc
 50
6.6596494353
 51
39.2036508112
  0
ELLIPSE
  5
A0
330
75
100
AcDbEntity
  8
28002000_BRS_KOP
  6
Continuous
 62
     7
100
AcDbEllipse
 10
30.9566298462
 20
268.2514936094
 30
0.0
 11
-1.023087926807992
 21
0.06257870260500432
 31
0.0
210
0.0
220
0.0
230
1.0
 40
0.3122192492
 41
0.0
 42
6.283185307179586
  0
ARC
  5
A1
330
75
100
AcDbEntity
  8
28002000_BRS_KOP
  6
Continuous
 62
     7
100
AcDbCircle
 10
27.2394748586
 20
268.1074877714
 30
0.0
 40
2.695786201089636
100
AcDbArc
 50
4.0450238071
 51
36.2181200111
  0
ARC
  5
A2
330
75
100
AcDbEntity
  8
28002000_BRS_KOP
  6
Continuous
 62
     7
100
AcDbCircle
 10
34.6387415386
 20
267.6470766603
 30
0.0
 40
2.708486109002744
100
AcDbArc
 50
136.9742572886
 51
168.8166305764
  0
ELLIPSE
  5
A3
330
75
100
AcDbEntity
  8
28002000_BRS_KOP
  6
Continuous
 62
     7
100
AcDbEllipse
 10
29.090183995
 20
265.6651174781
 30
0.0
 11
-1.022421224936827
 21
0.072662499259777
 31
0.0
210
0.0
220
0.0
230
1.0
 40
0.2618842865
 41
0.0
 42
6.283185307179586
  0
ARC
  5
A4
330
75
100
AcDbEntity
  8
28002000_BRS_KOP
  6
Continuous
 62
     7
100
AcDbCircle
 10
25.2099578348
 20
265.5535531708
 30
0.0
 40
2.857742938889233
100
AcDbArc
 50
3.4552073439
 51
34.9285776145
  0
ARC
  5
A5
330
75
100
AcDbEntity
  8
28002000_BRS_KOP
  6
Continuous
 62
     7
100
AcDbCircle
 10
32.959623501
 20
264.9756587608
 30
0.0
 40
2.910533706694153
100
AcDbArc
 50
137.0596001949
 51
167.9908399229
  0
ELLIPSE
  5
A6
330
75
100
AcDbEntity
  8
28002000_BRS_KOP
  6
Continuous
 62
     7
100
AcDbEllipse
 10
34.4053720873
 20
263.4724936672
 30
0.0
 11
-1.024191090454177
 21
0.04071375976603606
 31
0.0
210
0.0
220
0.0
230
1.0
 40
0.2192123656
 41
0.0
 42
6.283185307179586
  0
ARC
  5
A7
330
75
100
AcDbEntity
  8
28002000_BRS_KOP
  6
Continuous
 62
     7
100
AcDbCircle
 10
38.3765144417
 20
262.9049623556
 30
0.0
 40
2.989660793657674
100
AcDbArc
 50
139.0841474395
 51
170.0274916344
  0
ARC
  5
A8
330
75
100
AcDbEntity
  8
28002000_BRS_KOP
  6
Continuous
 62
     7
100
AcDbCircle
 10
30.3877690696
 20
263.2195189126
 30
0.0
 40
3.004189981802928
100
AcDbArc
 50
5.4258534774
 51
36.1054844144
  0
ELLIPSE
  5
A9
330
75
100
AcDbEntity
  8
28002000_BRS_KOP
  6
Continuous
 62
     7
100
AcDbEllipse
 10
43.7886290252
 20
262.958031468
 30
0.0
 11
1.024900736265332
 21
0.01426466973959359
 31
0.0
210
0.0
220
0.0
230
0.9999999999999999
 40
0.209200119
 41
0.0
 42
6.283185307179586
  0
ARC
  5
AA
330
75
100
AcDbEntity
  8
28002000_BRS_KOP
  6
Continuous
 62
     7
100
AcDbCircle
 10
47.7901862511
 20
262.6107974609
 30
0.0
 40
2.993634106624646
100
AcDbArc
 50
142.2042665621
 51
173.2253075933
  0
ARC
  5
AB
330
75
100
AcDbEntity
  8
28002000_BRS_KOP
  6
Continuous
 62
     7
100
AcDbCircle
 10
39.7596946753
 20
262.477866121
 30
0.0
 40
3.037816708113991
100
AcDbArc
 50
8.6784727839
 51
39.1413096879
  0
ELLIPSE
  5
AC
330
75
100
AcDbEntity
  8
28002000_BRS_KOP
  6
Continuous
 62
     7
100
AcDbEllipse
 10
51.7433701538
 20
264.4230958594
 30
0.0
 11
1.023171037699068
 21
0.06120480057815459
 31
0.0
210
0.0
220
0.0
230
0.9999999999999998
 40
0.237712585
 41
0.0
 42
6.283185307179586
  0
ARC
  5
AD
330
75
100
AcDbEntity
  8
28002000_BRS_KOP
  6
Continuous
 62
     7
100
AcDbCircle
 10
47.8395728707
 20
263.7943168438
 30
0.0
 40
2.930264934484867
100
AcDbArc
 50
10.9708388783
 51
42.1774059723
  0
ARC
  5
AE
330
75
100
AcDbEntity
  8
28002000_BRS_KOP
  6
Continuous
 62
     7
100
AcDbCircle
 10
55.6880929268
 20
264.2616173352
 30
0.0
 40
2.92504772182663
100
AcDbArc
 50
144.4920728888
 51
175.7985533071
  0
ELLIPSE
  5
AF
330
75
100
AcDbEntity
  8
28002000_BRS_KOP
  6
Continuous
 62
     7
100
AcDbEllipse
 10
53.609816005
 20
267.0094719908
 30
0.0
 11
1.022380712602593
 21
0.07323031133497394
 31
0.0
210
0.0
220
0.0
230
0.9999999999999999
 40
0.2880475477
 41
0.0
 42
6.283185307179586
  0
ARC
  5
B0
330
75
100
AcDbEntity
  8
28002000_BRS_KOP
  6
Continuous
 62
     7
100
AcDbCircle
 10
49.820015129
 20
266.3325736883
 30
0.0
 40
2.829481227342701
100
AcDbArc
 50
12.0515358425
 51
43.3062806185
  0
ARC
  5
B1
330
75
100
AcDbEntity
  8
28002000_BRS_KOP
  6
Continuous
 62
     7
100
AcDbCircle
 10
57.4166904325
 20
266.8958130201
 30
0.0
 40
2.785727804952818
100
AcDbArc
 50
144.7209314127
 51
176.4095054978
  0
ELLIPSE
  5
B2
330
75
100
AcDbEntity
  8
28002000_BRS_KOP
  6
Continuous
 62
     7
100
AcDbEllipse
 10
23.2057699366
 20
269.2799978198
 30
0.0
 11
0.5448960479793284
 21
-0.07475491218985122
 31
0.0
210
0.0
220
0.0
230
1.0
 40
0.3241509394
 41
0.0
 42
6.283185307179586
  0
ELLIPSE
  5
B3
330
75
100
AcDbEntity
  8
28002000_BRS_KOP
  6
Continuous
 62
     7
100
AcDbEllipse
 10
23.2057699366
 20
269.2799978198
 30
0.0
 11
1.015488089416018
 21
-0.1393159727174492
 31
0.0
210
0.0
220
0.0
230
0.9999999999999998
 40
0.3241509394
 41
0.0
 42
6.283185307179586
  0
ARC
  5
B4
330
75
100
AcDbEntity
  8
28002000_BRS_KOP
  6
Continuous
 62
     7
100
AcDbCircle
 10
19.4463999421
 20
269.3831682248
 30
0.0
 40
2.742673065618591
100
AcDbArc
 50
0.2171309781
 51
26.4243077992
  0
ARC
  5
B5
330
75
100
AcDbEntity
  8
28002000_BRS_KOP
  6
Continuous
 62
     7
100
AcDbCircle
 10
26.7875527975
 20
268.4091362021
 30
0.0
 40
2.663848365677711
100
AcDbArc
 50
137.8713768526
 51
164.4496577397
  0
ELLIPSE
  5
B6
330
75
100
AcDbEntity
  8
28002000_BRS_KOP
  6
Continuous
 62
     7
100
AcDbEllipse
 10
27.4630075234
 20
271.0361954067
 30
0.0
 11
0.5469120815679106
 21
-0.05819944187923643
 31
0.0
210
0.0
220
0.0
230
0.9999999999999999
 40
0.3675528695
 41
0.0
 42
6.283185307179586
  0
ELLIPSE
  5
B7
330
75
100
AcDbEntity
  8
28002000_BRS_KOP
  6
Continuous
 62
     7
100
AcDbEllipse
 10
27.4630075234
 20
271.0361954067
 30
0.0
 11
1.019245242922016
 21
-0.1084625962294861
 31
0.0
210
0.0
220
0.0
230
1.0
 40
0.3675528695
 41
0.0
 42
6.283185307179586
  0
ARC
  5
B8
330
75
100
AcDbEntity
  8
28002000_BRS_KOP
  6
Continuous
 62
     7
100
AcDbCircle
 10
23.8793670373
 20
271.0338034534
 30
0.0
 40
2.563273376453376
100
AcDbArc
 50
1.9837479547
 51
28.7184013978
  0
ARC
  5
B9
330
75
100
AcDbEntity
  8
28002000_BRS_KOP
  6
Continuous
 62
     7
100
AcDbCircle
 10
30.9660099415
 20
270.2805188388
 30
0.0
 40
2.562717595085909
100
AcDbArc
 50
139.3424091794
 51
165.8906351258
  0
ELLIPSE
  5
BA
330
75
100
AcDbEntity
  8
28002000_BRS_KOP
  6
Continuous
 62
     7
100
AcDbEllipse
 10
33.8344138289
 20
272.2096491182
 30
0.0
 11
0.5490736139263375
 21
-0.03190872121961938
 31
0.0
210
0.0
220
0.0
230
0.9999999999999999
 40
0.3965531121
 41
0.0
 42
6.283185307179586
  0
ELLIPSE
  5
BB
330
75
100
AcDbEntity
  8
28002000_BRS_KOP
  6
Continuous
 62
     7
100
AcDbEllipse
 10
33.8344138289
 20
272.2096491182
 30
0.0
 11
1.023273553226357
 21
-0.05946625318201462
 31
0.0
210
0.0
220
0.0
230
0.9999999999999999
 40
0.3965531121
 41
0.0
 42
6.283185307179586
  0
ARC
  5
BC
330
75
100
AcDbEntity
  8
28002000_BRS_KOP
  6
Continuous
 62
     7
100
AcDbCircle
 10
30.4048413673
 20
272.0454748172
 30
0.0
 40
2.413143328275773
100
AcDbArc
 50
4.6395844885
 51
32.003865997
  0
ARC
  5
BD
330
75
100
AcDbEntity
  8
28002000_BRS_KOP
  6
Continuous
 62
     7
100
AcDbCircle
 10
37.2806465934
 20
271.6246341776
 30
0.0
 40
2.47634597478425
100
AcDbArc
 50
141.6631205443
 51
168.3586197594
  0
ELLIPSE
  5
BE
330
75
100
AcDbEntity
  8
28002000_BRS_KOP
  6
Continuous
 62
     7
100
AcDbEllipse
 10
41.35
 20
272.6217112642
 30
0.0
 11
0.5500000000000003
 21
0.0
 31
0.0
210
0.0
220
0.0
230
1.0
 40
0.4067366431
 41
0.0
 42
6.283185307179586
  0
ELLIPSE
  5
BF
330
75
100
AcDbEntity
  8
28002000_BRS_KOP
  6
Continuous
 62
     7
100
AcDbEllipse
 10
41.35
 20
272.6217112642
 30
0.0
 11
1.025
 21
0.0
 31
0.0
210
0.0
220
0.0
230
1.0
 40
0.4067366431
 41
0.0
 42
6.283185307179586
  0
ARC
  5
C0
330
75
100
AcDbEntity
  8
28002000_BRS_KOP
  6
Continuous
 62
     7
100
AcDbCircle
 10
37.9638188208
 20
272.2552467055
 30
0.0
 40
2.386522625291053
100
AcDbArc
 50
8.1077252495
 51
35.4573029279
  0
ARC
  5
C1
330
75
100
AcDbEntity
  8
28002000_BRS_KOP
  6
Continuous
 62
     7
100
AcDbCircle
 10
44.6796641733
 20
272.2867968215
 30
0.0
 40
2.322271918506363
100
AcDbArc
 50
144.3172252354
 51
172.4170230628
  0
ELLIPSE
  5
C2
330
75
100
AcDbEntity
  8
28002000_BRS_KOP
  6
Continuous
 62
     7
100
AcDbEllipse
 10
48.8655861711
 20
272.2096491182
 30
0.0
 11
-0.5490736139263375
 21
-0.03190872121961938
 31
0.0
210
0.0
220
0.0
230
0.9999999999999999
 40
0.3965531121
 41
0.0
 42
6.283185307179586
  0
ELLIPSE
  5
C3
330
75
100
AcDbEntity
  8
28002000_BRS_KOP
  6
Continuous
 62
     7
100
AcDbEllipse
 10
48.8655861711
 20
272.2096491182
 30
0.0
 11
-1.023273553226356
 21
-0.05946625318201462
 31
0.0
210
0.0
220
0.0
230
0.9999999999999999
 40
0.3965531121
 41
0.0
 42
6.283185307179586
  0
ARC
  5
C4
330
75
100
AcDbEntity
  8
28002000_BRS_KOP
  6
Continuous
 62
     7
100
AcDbCircle
 10
45.513533654
 20
271.6762698668
 30
0.0
 40
2.369397696841071
100
AcDbArc
 50
10.8317375589
 51
38.6926203668
  0
ARC
  5
C5
330
75
100
AcDbEntity
  8
28002000_BRS_KOP
  6
Continuous
 62
     7
100
AcDbCircle
 10
52.2431171752
 20
272.069719223
 30
0.0
 40
2.356030928445787
100
AcDbArc
 50
147.7028947744
 51
175.78226241
  0
ELLIPSE
  5
C6
330
75
100
AcDbEntity
  8
28002000_BRS_KOP
  6
Continuous
 62
     7
100
AcDbEllipse
 10
55.2369924766
 20
271.0361954067
 30
0.0
 11
-0.5469120815679106
 21
-0.05819944187923643
 31
0.0
210
0.0
220
0.0
230
0.9999999999999999
 40
0.3675528695
 41
0.0
 42
6.283185307179586
  0
ELLIPSE
  5
C7
330
75
100
AcDbEntity
  8
28002000_BRS_KOP
  6
Continuous
 62
     7
100
AcDbEllipse
 10
55.2369924766
 20
271.0361954067
 30
0.0
 11
-1.019245242922018
 21
-0.1084625962294861
 31
0.0
210
0.0
220
0.0
230
1.0
 40
0.3675528695
 41
0.0
 42
6.283185307179586
  0
ARC
  5
C8
330
75
100
AcDbEntity
  8
28002000_BRS_KOP
  6
Continuous
 62
     7
100
AcDbCircle
 10
51.7307789163
 20
270.2712123908
 30
0.0
 40
2.570132555674746
100
AcDbArc
 50
14.2374871395
 51
40.7980880605
  0
ARC
  5
C9
330
75
100
AcDbEntity
  8
28002000_BRS_KOP
  6
Continuous
 62
     7
100
AcDbCircle
 10
58.7535898232
 20
271.0536525611
 30
0.0
 40
2.493242458225624
100
AcDbArc
 50
150.9277870421
 51
178.4131350836
  0
ELLIPSE
  5
CA
330
75
100
AcDbEntity
  8
28002000_BRS_KOP
  6
Continuous
 62
     7
100
AcDbEllipse
 10
59.4942300634
 20
269.2799978198
 30
0.0
 11
-0.544896047979325
 21
-0.07475491218985122
 31
0.0
210
0.0
220
0.0
230
1.0
 40
0.3241509394
 41
0.0
 42
6.283185307179586
  0
ELLIPSE
  5
CB
330
75
100
AcDbEntity
  8
28002000_BRS_KOP
  6
Continuous
 62
     7
100
AcDbEllipse
 10
59.4942300634
 20
269.2799978198
 30
0.0
 11
-1.015488089416018
 21
-0.1393159727174492
 31
0.0
210
0.0
220
0.0
230
0.9999999999999998
 40
0.3241509394
 41
0.0
 42
6.283185307179586
  0
ARC
  5
CC
330
75
100
AcDbEntity
  8
28002000_BRS_KOP
  6
Continuous
 62
     7
100
AcDbCircle
 10
55.8889365228
 20
268.393884475
 30
0.0
 40
2.691715301099665
100
AcDbArc
 50
15.7253727593
 51
42.1436187946
  0
ARC
  5
CD
330
75
100
AcDbEntity
  8
28002000_BRS_KOP
  6
Continuous
 62
     7
100
AcDbCircle
 10
63.2171002794
 20
269.3957242224
 30
0.0
 40
2.703939540746259
100
AcDbArc
 50
153.6255845882
 51
179.8571034104
  0
ELLIPSE
  5
CE
330
75
100
AcDbEntity
  8
28002000_BRS_KOP
  6
Continuous
 62
     7
100
AcDbEllipse
 10
60.989173101
 20
267.2084215202
 30
0.0
 11
-0.5442142556180036
 21
-0.07956660092113196
 31
0.0
210
0.0
220
0.0
230
1.0
 40
0.272954872
 41
0.0
 42
6.283185307179586
  0
ELLIPSE
  5
CF
330
75
100
AcDbEntity
  8
28002000_BRS_KOP
  6
Continuous
 62
     7
100
AcDbEllipse
 10
60.989173101
 20
267.2084215202
 30
0.0
 11
-1.014217476379007
 21
-0.1482832108075649
 31
0.0
210
0.0
220
0.0
230
0.9999999999999999
 40
0.272954872
 41
0.0
 42
6.283185307179586
  0
ARC
  5
D0
330
75
100
AcDbEntity
  8
28002000_BRS_KOP
  6
Continuous
 62
     7
100
AcDbCircle
 10
57.2442370226
 20
266.2651291689
 30
0.0
 40
2.839402054318874
100
AcDbArc
 50
15.9716883444
 51
42.089510317
  0
ARC
  5
D1
330
75
100
AcDbEntity
  8
28002000_BRS_KOP
  6
Continuous
 62
     7
100
AcDbCircle
 10
64.7802109975
 20
267.3886580368
 30
0.0
 40
2.77138725819851
100
AcDbArc
 50
154.2768638813
 51
180.917959309
  0
ELLIPSE
  5
D2
330
75
100
AcDbEntity
  8
28002000_BRS_KOP
  6
Continuous
 62
     7
100
AcDbEllipse
 10
59.4942300634
 20
265.1368452206
 30
0.0
 11
-0.5451974203843704
 21
-0.0725242911460075
 31
0.0
210
0.0
220
0.0
230
1.0
 40
0.2217588047
 41
0.0
 42
6.283185307179586
  0
ELLIPSE
  5
D3
330
75
100
AcDbEntity
  8
28002000_BRS_KOP
  6
Continuous
 62
     7
100
AcDbEllipse
 10
59.4942300634
 20
265.1368452206
 30
0.0
 11
-1.01604973798905
 21
-0.1351589062266509
 31
0.0
210
0.0
220
0.0
230
0.9999999999999999
 40
0.2217588047
 41
0.0
 42
6.283185307179586
  0
ARC
  5
D4
330
75
100
AcDbEntity
  8
28002000_BRS_KOP
  6
Continuous
 62
     7
100
AcDbCircle
 10
55.6388478017
 20
264.2267829726
 30
0.0
 40
2.93854349918232
100
AcDbArc
 50
14.2490224598
 51
41.1042743575
  0
ARC
  5
D5
330
75
100
AcDbEntity
  8
28002000_BRS_KOP
  6
Continuous
 62
     7
100
AcDbCircle
 10
63.487972428
 20
265.2585522899
 30
0.0
 40
2.973859868285979
100
AcDbArc
 50
154.7492065904
 51
179.919702571
  0
ELLIPSE
  5
D6
330
75
100
AcDbEntity
  8
28002000_BRS_KOP
  6
Continuous
 62
     7
100
AcDbEllipse
 10
55.2369924766
 20
263.3806476337
 30
0.0
 11
-0.5472423231422333
 21
-0.05500763366926738
 31
0.0
210
0.0
220
0.0
230
0.9999999999999999
 40
0.1783568745
 41
0.0
 42
6.283185307179586
  0
ELLIPSE
  5
D7
330
75
100
AcDbEntity
  8
28002000_BRS_KOP
  6
Continuous
 62
     7
100
AcDbEllipse
 10
55.2369924766
 20
263.3806476337
 30
0.0
 11
-1.019860693128706
 21
-0.1025142263836338
 31
0.0
210
0.0
220
0.0
230
1.0
 40
0.1783568745
 41
0.0
 42
6.283185307179586
  0
ARC
  5
D8
330
75
100
AcDbEntity
  8
28002000_BRS_KOP
  6
Continuous
 62
     7
100
AcDbCircle
 10
51.2637467843
 20
262.5810646732
 30
0.0
 40
3.029428117958329
100
AcDbArc
 50
13.1288826393
 51
38.3128207292
  0
ARC
  5
D9
330
75
100
AcDbEntity
  8
28002000_BRS_KOP
  6
Continuous
 62
     7
100
AcDbCircle
 10
59.3493046303
 20
263.3695716606
 30
0.0
 40
3.09140544950151
100
AcDbArc
 50
152.9742240615
 51
177.9992849424
  0
ELLIPSE
  5
DA
330
75
100
AcDbEntity
  8
28002000_BRS_KOP
  6
Continuous
 62
     7
100
AcDbEllipse
 10
48.8655861711
 20
262.2071939222
 30
0.0
 11
-0.5492015722170532
 21
-0.02962487256201983
 31
0.0
210
0.0
220
0.0
230
0.9999999999999999
 40
0.1493566319
 41
0.0
 42
6.283185307179586
  0
ELLIPSE
  5
DB
330
75
100
AcDbEntity
  8
28002000_BRS_KOP
  6
Continuous
 62
     7
100
AcDbEllipse
 10
48.8655861711
 20
262.2071939222
 30
0.0
 11
-1.023512020949964
 21
-0.05520998977467417
 31
0.0
210
0.0
220
0.0
230
1.0
 40
0.1493566319
 41
0.0
 42
6.283185307179586
  0
ARC
  5
DC
330
75
100
AcDbEntity
  8
28002000_BRS_KOP
  6
Continuous
 62
     7
100
AcDbCircle
 10
44.8731982789
 20
261.6103575696
 30
0.0
 40
3.011847206601872
100
AcDbArc
 50
10.2252706503
 51
36.3293201339
  0
ARC
  5
DD
330
75
100
AcDbEntity
  8
28002000_BRS_KOP
  6
Continuous
 62
     7
100
AcDbCircle
 10
53.0696595097
 20
261.9899507432
 30
0.0
 40
3.190484284293163
100
AcDbArc
 50
150.680218873
 51
175.1750110928
  0
ELLIPSE
  5
DE
330
75
100
AcDbEntity
  8
28002000_BRS_KOP
  6
Continuous
 62
     7
100
AcDbEllipse
 10
41.35
 20
261.7951317762
 30
0.0
 11
-0.55
 21
0.0
 31
0.0
210
0.0
220
0.0
230
1.0
 40
0.139173101
 41
0.0
 42
6.283185307179586
  0
ELLIPSE
  5
DF
330
75
100
AcDbEntity
  8
28002000_BRS_KOP
  6
Continuous
 62
     7
100
AcDbEllipse
 10
41.35
 20
261.7951317762
 30
0.0
 11
1.025
 21
0.0
 31
0.0
210
0.0
220
0.0
230
1.0
 40
0.139173101
 41
0.0
 42
6.283185307179586
  0
ARC
  5
E0
330
75
100
AcDbEntity
  8
28002000_BRS_KOP
  6
Continuous
 62
     7
100
AcDbCircle
 10
37.2677745573
 20
261.3969185894
 30
0.0
 40
3.077773088049912
100
AcDbArc
 50
7.3131951855
 51
32.9788404602
  0
ARC
  5
E1
330
75
100
AcDbEntity
  8
28002000_BRS_KOP
  6
Continuous
 62
     7
100
AcDbCircle
 10
45.3942287981
 20
261.4069355799
 30
0.0
 40
3.038808077052408
100
AcDbArc
 50
149.8473535358
 51
172.7323834503
  0
ELLIPSE
  5
E2
330
75
100
AcDbEntity
  8
28002000_BRS_KOP
  6
Continuous
 62
     7
100
AcDbEllipse
 10
33.8344138289
 20
262.2071939222
 30
0.0
 11
0.5492015722170541
 21
-0.02962487256201983
 31
0.0
210
0.0
220
0.0
230
0.9999999999999999
 40
0.1493566319
 41
0.0
 42
6.283185307179586
  0
ELLIPSE
  5
E3
330
75
100
AcDbEntity
  8
28002000_BRS_KOP
  6
Continuous
 62
     7
100
AcDbEllipse
 10
33.8344138289
 20
262.2071939222
 30
0.0
 11
1.023512020949965
 21
-0.05520998977467417
 31
0.0
210
0.0
220
0.0
230
1.0
 40
0.1493566319
 41
0.0
 42
6.283185307179586
  0
ARC
  5
E4
330
75
100
AcDbEntity
  8
28002000_BRS_KOP
  6
Continuous
 62
     7
100
AcDbCircle
 10
29.7491117796
 20
262.0290382346
 30
0.0
 40
3.065421655987273
100
AcDbArc
 50
4.2433890201
 51
29.3716288126
  0
ARC
  5
E5
330
75
100
AcDbEntity
  8
28002000_BRS_KOP
  6
Continuous
 62
     7
100
AcDbCircle
 10
37.8669730001
 20
261.5920802016
 30
0.0
 40
3.055798842235204
100
AcDbArc
 50
143.9496124139
 51
169.5240526569
  0
ELLIPSE
  5
E6
330
75
100
AcDbEntity
  8
28002000_BRS_KOP
  6
Continuous
 62
     7
100
AcDbEllipse
 10
27.4630075234
 20
263.3806476337
 30
0.0
 11
0.5472423231422316
 21
-0.05500763366926738
 31
0.0
210
0.0
220
0.0
230
1.0
 40
0.1783568745
 41
0.0
 42
6.283185307179586
  0
ELLIPSE
  5
E7
330
75
100
AcDbEntity
  8
28002000_BRS_KOP
  6
Continuous
 62
     7
100
AcDbEllipse
 10
27.4630075234
 20
263.3806476337
 30
0.0
 11
1.019860693128708
 21
-0.1025142263836338
 31
0.0
210
0.0
220
0.0
230
1.0
 40
0.1783568745
 41
0.0
 42
6.283185307179586
  0
ARC
  5
E8
330
75
100
AcDbEntity
  8
28002000_BRS_KOP
  6
Continuous
 62
     7
100
AcDbCircle
 10
23.3321566977
 20
263.3597916062
 30
0.0
 40
3.111706137096992
100
AcDbArc
 50
2.1587480287
 51
27.1720181546
  0
ARC
  5
E9
330
75
100
AcDbEntity
  8
28002000_BRS_KOP
  6
Continuous
 62
     7
100
AcDbCircle
 10
31.3866794837
 20
262.6012853321
 30
0.0
 40
2.976193508519912
100
AcDbArc
 50
140.9477950901
 51
166.9791329069
  0
ENDBLK
  5
EB
330
75
100
AcDbEntity
  8
0
100
AcDbBlockEnd
  0
BLOCK
  5
147
330
EC
100
AcDbEntity
  8
0
100
AcDbBlockBegin
  2
SE1
 70
     0
 10
0.0
 20
0.0
 30
0.0
  3
SE1
  1

  0
LINE
  5
EE
330
EC
100
AcDbEntity
  8
28002000_BRS_KOP
  6
Continuous
 62
     7
100
AcDbLine
 10
139.0534127908
 20
313.1913749209
 30
0.0
 11
139.0534127908
 21
283.1913749209
 31
0.0
  0
LINE
  5
EF
330
EC
100
AcDbEntity
  8
28002000_BRS_KOP
  6
Continuous
 62
     7
100
AcDbLine
 10
139.0534127908
 20
283.1913749209
 30
0.0
 11
139.0534127908
 21
268.1913749209
 31
0.0
  0
LINE
  5
F0
330
EC
100
AcDbEntity
  8
28002000_BRS_KOP
  6
Continuous
 62
     7
100
AcDbLine
 10
139.0534127908
 20
268.1913749209
 30
0.0
 11
139.0534127908
 21
260.6913749209
 31
0.0
  0
LINE
  5
F1
330
EC
100
AcDbEntity
  8
28002000_BRS_KOP
  6
Continuous
 62
     7
100
AcDbLine
 10
139.0534127908
 20
260.6913749209
 30
0.0
 11
139.0534127908
 21
256.9413749209
 31
0.0
  0
LINE
  5
F2
330
EC
100
AcDbEntity
  8
28002000_BRS_KOP
  6
Continuous
 62
     7
100
AcDbLine
 10
139.0534127908
 20
256.9413749209
 30
0.0
 11
139.0534127908
 21
255.0663749209
 31
0.0
  0
LINE
  5
F3
330
EC
100
AcDbEntity
  8
28002000_BRS_KOP
  6
Continuous
 62
     7
100
AcDbLine
 10
139.0534127908
 20
255.0663749209
 30
0.0
 11
139.0534127908
 21
253.8163749209
 31
0.0
  0
LINE
  5
F4
330
EC
100
AcDbEntity
  8
28002000_BRS_KOP
  6
Continuous
 62
     7
100
AcDbLine
 10
139.0534127908
 20
253.8163749209
 30
0.0
 11
139.0534127908
 21
253.1913749209
 31
0.0
  0
LINE
  5
F5
330
EC
100
AcDbEntity
  8
28002000_BRS_KOP
  6
Continuous
 62
     7
100
AcDbLine
 10
223.1638111854
 20
277.3096435549
 30
0.0
 11
195.7678528511
 21
269.4539789141
 31
0.0
  0
LINE
  5
F6
330
EC
100
AcDbEntity
  8
28002000_BRS_KOP
  6
Continuous
 62
     7
100
AcDbLine
 10
195.7678528511
 20
269.4539789141
 30
0.0
 11
182.069873684
 21
265.5261465937
 31
0.0
  0
LINE
  5
F7
330
EC
100
AcDbEntity
  8
28002000_BRS_KOP
  6
Continuous
 62
     7
100
AcDbLine
 10
182.069873684
 20
265.5261465937
 30
0.0
 11
175.2208841004
 21
263.5622304335
 31
0.0
  0
LINE
  5
F8
330
EC
100
AcDbEntity
  8
28002000_BRS_KOP
  6
Continuous
 62
     7
100
AcDbLine
 10
175.2208841004
 20
263.5622304335
 30
0.0
 11
171.7963893086
 21
262.5802723535
 31
0.0
  0
LINE
  5
F9
330
EC
100
AcDbEntity
  8
28002000_BRS_KOP
  6
Continuous
 62
     7
100
AcDbLine
 10
171.7963893086
 20
262.5802723535
 30
0.0
 11
170.0841419128
 21
262.0892933134
 31
0.0
  0
LINE
  5
FA
330
EC
100
AcDbEntity
  8
28002000_BRS_KOP
  6
Continuous
 62
     7
100
AcDbLine
 10
170.0841419128
 20
262.0892933134
 30
0.0
 11
168.9426436488
 21
261.7619739534
 31
0.0
  0
LINE
  5
FB
330
EC
100
AcDbEntity
  8
28002000_BRS_KOP
  6
Continuous
 62
     7
100
AcDbLine
 10
168.9426436488
 20
261.7619739534
 30
0.0
 11
168.3718945169
 21
261.5983142734
 31
0.0
  0
LINE
  5
FC
330
EC
100
AcDbEntity
  8
28002000_BRS_KOP
  6
Continuous
 62
     7
100
AcDbLine
 10
168.3994582525
 20
261.5021881038
 30
0.0
 11
223.1913749209
 21
277.2135173853
 31
0.0
  0
LINE
  5
FD
330
EC
100
AcDbEntity
  8
28002000_BRS_KOP
  6
Continuous
 62
     7
100
AcDbLine
 10
139.0534127908
 20
253.1913749209
 30
0.0
 11
168.3718945169
 21
261.5983142734
 31
0.0
  0
SPLINE
  5
FE
330
EC
100
AcDbEntity
  8
28002000_BRS_KOP
  6
Continuous
 62
     7
100
AcDbSpline
210
0.0
220
0.0
230
1.0
 70
     8
 71
     3
 72
    32
 73
    28
 74
     0
 42
0.0000000001073707
 43
0.0000000001
 40
0.0
 40
0.0
 40
0.0
 40
0.0
 40
0.0227994162016248
 40
0.0465552912498997
 40
0.0712676373572153
 40
0.0969364538996674
 40
0.1235617685948564
 40
0.1511435532739824
 40
0.1796817766527959
 40
0.2091764082937128
 40
0.2396274497673229
 40
0.2710349055056089
 40
0.3033987085873515
 40
0.3367188673677564
 40
0.3709953922496977
 40
0.4062285255844846
 40
0.4537135762682685
 40
0.5028320193588658
 40
0.5535838548562763
 40
0.6059690827604998
 40
0.6599877030715364
 40
0.7156397157893866
 40
0.7696076676012733
 40
0.8250276719282781
 40
0.8818997287704008
 40
0.9402238381276415
 40
1.0
 40
1.0
 40
1.0
 40
1.0
 10
223.1638111853533
 20
277.3096435549223
 30
0.0
 10
222.6764938069012
 20
277.9167304474286
 30
0.0
 10
221.8347193293448
 20
278.95981026794
 30
0.0
 10
220.3428573507853
 20
280.6531607609455
 30
0.0
 10
218.7675204097739
 20
282.3142245211854
 30
0.0
 10
217.0531811093381
 20
283.9859883940495
 30
0.0
 10
215.2092705319043
 20
285.6430857373837
 30
0.0
 10
213.2276339095969
 20
287.2788259421408
 30
0.0
 10
211.1058499458122
 20
288.8803069267439
 30
0.0
 10
208.8405161065874
 20
290.43513334389
 30
0.0
 10
206.4294748703414
 20
291.9297522765489
 30
0.0
 10
203.8715767599792
 20
293.3502440369506
 30
0.0
 10
201.1667221847097
 20
294.6824660662196
 30
0.0
 10
198.3149026834976
 20
295.9080127052383
 30
0.0
 10
195.3213966911119
 20
297.0216636914832
 30
0.0
 10
191.8423950568092
 20
298.0676278729292
 30
0.0
 10
187.9043410961055
 20
299.1794654072487
 30
0.0
 10
183.5088186991703
 20
300.4451554362803
 30
0.0
 10
178.9654229439597
 20
301.7464632669816
 30
0.0
 10
174.2762443897759
 20
303.0914822498945
 30
0.0
 10
169.4408782450812
 20
304.4778836478558
 30
0.0
 10
164.5577195595968
 20
305.8781393880907
 30
0.0
 10
159.6349746120893
 20
307.2897051998287
 30
0.0
 10
154.6673145535981
 20
308.7141611487611
 30
0.0
 10
149.6026433783765
 20
310.1664315834363
 30
0.0
 10
144.2801628359854
 20
311.6926285054053
 30
0.0
 10
141.0153900702959
 20
312.6287869890617
 30
0.0
 10
139.0534127907504
 20
313.1913749209349
 30
0.0
  0
LINE
  5
FF
330
EC
100
AcDbEntity
  8
28002000_BRS_KOP
  6
Continuous
 62
     7
100
AcDbLine
 10
168.3718945169
 20
261.5983142734
 30
0.0
 11
168.3994582525
 21
261.5021881038
 31
0.0
  0
LINE
  5
100
330
EC
100
AcDbEntity
  8
28002000_BRS_KOP
  6
Continuous
 62
     7
100
AcDbLine
 10
223.1913749209
 20
277.2135173853
 30
0.0
 11
223.1638111854
 21
277.3096435549
 31
0.0
  0
LINE
  5
101
330
EC
100
AcDbEntity
  8
28002000_BRS_KOP
  6
Continuous
 62
     7
100
AcDbLine
 10
172.749623547
 20
262.2943620481
 30
0.0
 11
219.0824372912
 21
275.5800825985
 31
0.0
  0
LINE
  5
102
330
EC
100
AcDbEntity
  8
28002000_BRS_KOP
  6
Continuous
 62
     7
100
AcDbLine
 10
172.6290097146
 20
262.7149924694
 30
0.0
 11
172.749623547
 21
262.2943620481
 31
0.0
  0
LINE
  5
103
330
EC
100
AcDbEntity
  8
28002000_BRS_KOP
  6
Continuous
 62
     7
100
AcDbLine
 10
219.0824372912
 20
275.5800825985
 30
0.0
 11
218.9618234588
 21
276.0007130197
 31
0.0
  0
ARC
  5
104
330
EC
100
AcDbEntity
  8
28002000_BRS_KOP
  6
Continuous
 62
     7
100
AcDbCircle
 10
161.8269321606
 20
387.8200359673
 30
0.0
 40
125.9999999999999
100
AcDbArc
 50
274.9731000414
 51
276.4848748908
  0
ARC
  5
105
330
EC
100
AcDbEntity
  8
28002000_BRS_KOP
  6
Continuous
 62
     7
100
AcDbCircle
 10
161.8269321606
 20
387.8200359673
 30
0.0
 40
125.9999999999999
100
AcDbArc
 50
278.3310064635
 51
279.1925441031
  0
ARC
  5
106
330
EC
100
AcDbEntity
  8
28002000_BRS_KOP
  6
Continuous
 62
     7
100
AcDbCircle
 10
161.8269321606
 20
387.8200359673
 30
0.0
 40
125.9999999999999
100
AcDbArc
 50
280.1711974659
 51
280.7115105369
  0
ARC
  5
107
330
EC
100
AcDbEntity
  8
28002000_BRS_KOP
  6
Continuous
 62
     7
100
AcDbCircle
 10
161.8269321606
 20
387.8200359673
 30
0.0
 40
125.9999999999999
100
AcDbArc
 50
281.8553258028
 51
283.7183053222
  0
ARC
  5
108
330
EC
100
AcDbEntity
  8
28002000_BRS_KOP
  6
Continuous
 62
     7
100
AcDbCircle
 10
161.8269321606
 20
387.8200359673
 30
0.0
 40
125.9999999999999
100
AcDbArc
 50
288.2816946778
 51
288.6197110111
  0
ARC
  5
109
330
EC
100
AcDbEntity
  8
28002000_BRS_KOP
  6
Continuous
 62
     7
100
AcDbCircle
 10
161.8269321606
 20
387.8200359673
 30
0.0
 40
125.9999999999999
100
AcDbArc
 50
289.6843779262
 51
290.9547499578
  0
ARC
  5
10A
330
EC
100
AcDbEntity
  8
28002000_BRS_KOP
  6
Continuous
 62
     7
100
AcDbCircle
 10
161.8269321606
 20
387.8200359673
 30
0.0
 40
125.9999999999999
100
AcDbArc
 50
292.8082335512
 51
293.668276642
  0
ARC
  5
10B
330
EC
100
AcDbEntity
  8
28002000_BRS_KOP
  6
Continuous
 62
     7
100
AcDbCircle
 10
161.8269321606
 20
387.8200359673
 30
0.0
 40
125.9999999999999
100
AcDbArc
 50
295.5151251092
 51
297.0268999586
  0
ELLIPSE
  5
10C
330
EC
100
AcDbEntity
  8
28002000_BRS_KOP
  6
Continuous
 62
     7
100
AcDbEllipse
 10
189.1873109635
 20
265.1368452206
 30
0.0
 11
-0.5360726568233304
 21
-0.1229882376748894
 31
0.0
210
0.0
220
0.0
230
1.0
 40
0.1285791795
 41
0.0
 42
6.283185307179586
  0
ELLIPSE
  5
10D
330
EC
100
AcDbEntity
  8
28002000_BRS_KOP
  6
Continuous
 62
     7
100
AcDbEllipse
 10
189.1873109635
 20
265.1368452206
 30
0.0
 11
-0.9990444968071208
 21
-0.2292053520304739
 31
0.0
210
0.0
220
0.0
230
0.9999999999999999
 40
0.1285791795
 41
0.0
 42
6.283185307179586
  0
ARC
  5
10E
330
EC
100
AcDbEntity
  8
28002000_BRS_KOP
  6
Continuous
 62
     7
100
AcDbCircle
 10
185.1970489943
 20
263.7709211853
 30
0.0
 40
3.197777616256409
100
AcDbArc
 50
20.7103534223
 51
45.5307131075
  0
ARC
  5
10F
330
EC
100
AcDbEntity
  8
28002000_BRS_KOP
  6
Continuous
 62
     7
100
AcDbCircle
 10
193.3827810271
 20
265.6411174789
 30
0.0
 40
3.207324497508014
100
AcDbArc
 50
160.4281735889
 51
184.9628311709
  0
ARC
  5
110
330
EC
100
AcDbEntity
  8
28002000_BRS_KOP
  6
Continuous
 62
     7
100
AcDbCircle
 10
188.3770052439
 20
295.2289276119
 30
0.0
 40
30.0
100
AcDbArc
 50
276.3741981386
 51
279.2866649168
  0
ARC
  5
111
330
EC
100
AcDbEntity
  8
28002000_BRS_KOP
  6
Continuous
 62
     7
100
AcDbCircle
 10
188.3770052439
 20
295.2289276119
 30
0.0
 40
30.0
100
AcDbArc
 50
283.3434485436
 51
295.6258018614
  0
ELLIPSE
  5
112
330
EC
100
AcDbEntity
  8
28002000_BRS_KOP
  6
Continuous
 62
     7
100
AcDbEllipse
 10
196.4117560723
 20
267.2084215202
 30
0.0
 11
-0.5286939327660765
 21
-0.151600545699352
 31
0.0
210
0.0
220
0.0
230
1.0
 40
0.139173101
 41
0.0
 42
6.283185307179586
  0
ELLIPSE
  5
113
330
EC
100
AcDbEntity
  8
28002000_BRS_KOP
  6
Continuous
 62
     7
100
AcDbEllipse
 10
196.4117560723
 20
267.2084215202
 30
0.0
 11
-0.9852932383367788
 21
-0.2825282897124265
 31
0.0
210
0.0
220
0.0
230
1.0
 40
0.139173101
 41
0.0
 42
6.283185307179586
  0
ARC
  5
114
330
EC
100
AcDbEntity
  8
28002000_BRS_KOP
  6
Continuous
 62
     7
100
AcDbCircle
 10
192.5974315499
 20
265.70042061
 30
0.0
 40
3.077773088050559
100
AcDbArc
 50
23.3131951855
 51
48.9788404602
  0
ARC
  5
115
330
EC
100
AcDbEntity
  8
28002000_BRS_KOP
  6
Continuous
 62
     7
100
AcDbCircle
 10
200.4063196786
 20
267.9500039184
 30
0.0
 40
3.038808077051963
100
AcDbArc
 50
162.9368086201
 51
188.7323834503
  0
ELLIPSE
  5
116
330
EC
100
AcDbEntity
  8
28002000_BRS_KOP
  6
Continuous
 62
     7
100
AcDbEllipse
 10
206.652296279
 20
269.2020958017
 30
0.0
 11
0.9672329895662884
 21
0.3392423085269089
 31
0.0
210
0.0
220
0.0
230
1.0
 40
0.0387546204
 41
3.141592653589793
 42
5.661599237007529
  0
ARC
  5
117
330
EC
100
AcDbEntity
  8
28002000_BRS_KOP
  6
Continuous
 62
     7
100
AcDbCircle
 10
202.7889187749
 20
267.4002716932
 30
0.0
 40
3.238917905926186
100
AcDbArc
 50
26.7857284489
 51
41.1789701594
  0
ELLIPSE
  5
118
330
EC
100
AcDbEntity
  8
28002000_BRS_KOP
  6
Continuous
 62
     7
100
AcDbEllipse
 10
208.4464391834
 20
269.7165580009
 30
0.0
 11
0.9636528616900204
 21
0.3492823530564099
 31
0.0
210
0.0
220
0.0
230
1.0
 40
0.0136088129
 41
0.0
 42
6.283185307179586
  0
ARC
  5
119
330
EC
100
AcDbEntity
  8
28002000_BRS_KOP
  6
Continuous
 62
     7
100
AcDbCircle
 10
204.5699530274
 20
267.8341337289
 30
0.0
 40
3.290241775468417
100
AcDbArc
 50
27.7568513721
 51
57.6438661062
  0
ARC
  5
11A
330
EC
100
AcDbEntity
  8
28002000_BRS_KOP
  6
Continuous
 62
     7
100
AcDbCircle
 10
212.5918316872
 20
270.7567471836
 30
0.0
 40
3.252694318905781
100
AcDbArc
 50
179.6830510877
 51
192.2708833224
  0
ELLIPSE
  5
11B
330
EC
100
AcDbEntity
  8
28002000_BRS_KOP
  6
Continuous
 62
     7
100
AcDbEllipse
 10
203.3371524636
 20
268.2514936094
 30
0.0
 11
0.9735828046652101
 21
0.320564381147111
 31
0.0
210
0.0
220
0.0
230
1.0
 40
0.0580003882
 41
0.0
 42
6.283185307179586
  0
ARC
  5
11C
330
EC
100
AcDbEntity
  8
28002000_BRS_KOP
  6
Continuous
 62
     7
100
AcDbCircle
 10
207.5166062839
 20
269.1610773064
 30
0.0
 40
3.257591367292592
100
AcDbArc
 50
175.944366134
 51
190.4301375321
  0
ARC
  5
11D
330
EC
100
AcDbEntity
  8
28002000_BRS_KOP
  6
Continuous
 62
     7
100
AcDbCircle
 10
199.4674080815
 20
266.5307365524
 30
0.0
 40
3.212774068646515
100
AcDbArc
 50
25.7696743561
 51
55.5550662017
  0
ELLIPSE
  5
11E
330
EC
100
AcDbEntity
  8
28002000_BRS_KOP
  6
Continuous
 62
     7
100
AcDbEllipse
 10
194.317386986
 20
265.6651174781
 30
0.0
 11
0.9890554717832054
 21
0.2690618399842464
 31
0.0
210
0.0
220
0.0
230
1.0
 40
0.0684161227
 41
0.0
 42
6.283185307179586
  0
ARC
  5
11F
330
EC
100
AcDbEntity
  8
28002000_BRS_KOP
  6
Continuous
 62
     7
100
AcDbCircle
 10
198.5004212689
 20
266.3641834776
 30
0.0
 40
3.217975980056031
100
AcDbArc
 50
167.6566111405
 51
187.7035757216
  0
ARC
  5
120
330
EC
100
AcDbEntity
  8
28002000_BRS_KOP
  6
Continuous
 62
     7
100
AcDbCircle
 10
190.3409055573
 20
264.1425205519
 30
0.0
 40
3.234742063651908
100
AcDbArc
 50
22.7089930858
 51
52.889636672
  0
ELLIPSE
  5
121
330
EC
100
AcDbEntity
  8
28002000_BRS_KOP
  6
Continuous
 62
     7
100
AcDbEllipse
 10
186.670799038
 20
263.4724936672
 30
0.0
 11
1.000031129872729
 21
0.2248616002910997
 31
0.0
210
0.0
220
0.0
230
1.0
 40
0.0387546204
 41
0.0
 42
6.283185307179586
  0
ARC
  5
122
330
EC
100
AcDbEntity
  8
28002000_BRS_KOP
  6
Continuous
 62
     7
100
AcDbCircle
 10
182.6237695082
 20
262.1303263577
 30
0.0
 40
3.239808513677566
100
AcDbArc
 50
20.1282710172
 51
49.9570353134
  0
ARC
  5
123
330
EC
100
AcDbEntity
  8
28002000_BRS_KOP
  6
Continuous
 62
     7
100
AcDbCircle
 10
190.8822803534
 20
263.9866574865
 30
0.0
 40
3.219861624484195
100
AcDbArc
 50
155.3847165422
 51
185.1756935696
  0
ELLIPSE
  5
124
330
EC
100
AcDbEntity
  8
28002000_BRS_KOP
  6
Continuous
 62
     7
100
AcDbEllipse
 10
184.8766561336
 20
262.958031468
 30
0.0
 11
1.002315422253215
 21
0.21444998091248
 31
0.0
210
0.0
220
0.0
230
0.9999999999999999
 40
0.0136088129
 41
3.141592653590506
 42
6.2803517485524
  0
ARC
  5
125
330
EC
100
AcDbEntity
  8
28002000_BRS_KOP
  6
Continuous
 62
     7
100
AcDbCircle
 10
180.7807468886
 20
261.6231480213
 30
0.0
 40
3.288808514679703
100
AcDbArc
 50
19.9068064066
 51
32.3216632424
  0
ARC
  5
126
330
EC
100
AcDbEntity
  8
28002000_BRS_KOP
  6
Continuous
 62
     7
100
AcDbCircle
 10
189.1247710695
 20
263.422550141
 30
0.0
 40
3.252224835172104
100
AcDbArc
 50
182.6788837101
 51
184.4237510868
  0
ELLIPSE
  5
127
330
EC
100
AcDbEntity
  8
28002000_BRS_KOP
  6
Continuous
 62
     7
100
AcDbEllipse
 10
189.9859428534
 20
264.4230958594
 30
0.0
 11
0.9955182849438055
 21
0.2440662703909226
 31
0.0
210
0.0
220
0.0
230
0.9999999999999999
 40
0.0580003882
 41
3.148877841971895
 42
6.273889123683976
  0
ARC
  5
128
330
EC
100
AcDbEntity
  8
28002000_BRS_KOP
  6
Continuous
 62
     7
100
AcDbCircle
 10
185.9987977271
 20
263.0187964139
 30
0.0
 40
3.202803217150357
100
AcDbArc
 50
21.1479250632
 51
32.5913547904
  0
ARC
  5
129
330
EC
100
AcDbEntity
  8
28002000_BRS_KOP
  6
Continuous
 62
     7
100
AcDbCircle
 10
194.1807763792
 20
265.0156609306
 30
0.0
 40
3.213858114472365
100
AcDbArc
 50
175.9847543165
 51
186.232068965
  0
ELLIPSE
  5
12A
330
EC
100
AcDbEntity
  8
28002000_BRS_KOP
  6
Continuous
 62
     7
100
AcDbEllipse
 10
199.005708331
 20
267.0094719908
 30
0.0
 11
0.9813476621165219
 21
0.2959421667462007
 31
0.0
210
0.0
220
0.0
230
0.9999999999999999
 40
0.0684161227
 41
3.150698155037405
 42
6.272814538943353
  0
ARC
  5
12B
330
EC
100
AcDbEntity
  8
28002000_BRS_KOP
  6
Continuous
 62
     7
100
AcDbCircle
 10
195.0581886643
 20
265.3550630818
 30
0.0
 40
3.260691011016131
100
AcDbArc
 50
24.5423490175
 51
26.5546539696
  0
ARC
  5
12C
330
EC
100
AcDbEntity
  8
28002000_BRS_KOP
  6
Continuous
 62
     7
100
AcDbCircle
 10
203.224912213
 20
267.8149437223
 30
0.0
 40
3.275568471140039
100
AcDbArc
 50
184.463426718
 51
188.9700146697
  0
ELLIPSE
  5
12D
330
EC
100
AcDbEntity
  8
28002000_BRS_KOP
  6
Continuous
 62
     7
100
AcDbEllipse
 10
203.6362011811
 20
269.2799978198
 30
0.0
 11
-0.5197892324385472
 21
-0.1797752870695384
 31
0.0
210
0.0
220
0.0
230
1.0
 40
0.1285791795
 41
0.0
 42
6.283185307179586
  0
ELLIPSE
  5
12E
330
EC
100
AcDbEntity
  8
28002000_BRS_KOP
  6
Continuous
 62
     7
100
AcDbEllipse
 10
203.6362011811
 20
269.2799978198
 30
0.0
 11
-0.9686981149991254
 21
-0.3350357622659596
 31
0.0
210
0.0
220
0.0
230
1.0
 40
0.1285791795
 41
0.0
 42
6.283185307179586
  0
ARC
  5
12F
330
EC
100
AcDbEntity
  8
28002000_BRS_KOP
  6
Continuous
 62
     7
100
AcDbCircle
 10
199.9042469423
 20
267.570699599
 30
0.0
 40
3.080669990319665
100
AcDbArc
 50
26.3425276091
 51
52.0622859898
  0
ARC
  5
130
330
EC
100
AcDbEntity
  8
28002000_BRS_KOP
  6
Continuous
 62
     7
100
AcDbCircle
 10
207.6774608924
 20
270.2346775014
 30
0.0
 40
3.131243664410054
100
AcDbArc
 50
166.335995162
 51
191.4511692244
  0
ELLIPSE
  5
131
330
EC
100
AcDbEntity
  8
28002000_BRS_KOP
  6
Continuous
 62
     7
100
AcDbEllipse
 10
209.7607900118
 20
271.0361954067
 30
0.0
 11
-0.5111106394574683
 21
-0.2031401344721843
 31
0.0
210
0.0
220
0.0
230
0.9999999999999999
 40
0.0984102434
 41
0.0
 42
6.283185307179586
  0
ELLIPSE
  5
132
330
EC
100
AcDbEntity
  8
28002000_BRS_KOP
  6
Continuous
 62
     7
100
AcDbEllipse
 10
209.7607900118
 20
271.0361954067
 30
0.0
 11
-0.9525243735343664
 21
-0.3785793415163399
 31
0.0
210
0.0
220
0.0
230
1.0
 40
0.0984102434
 41
0.0
 42
6.283185307179586
  0
ARC
  5
133
330
EC
100
AcDbEntity
  8
28002000_BRS_KOP
  6
Continuous
 62
     7
100
AcDbCircle
 10
205.9879290824
 20
269.0527783354
 30
0.0
 40
3.244084708049027
100
AcDbArc
 50
29.5901369186
 51
53.5576780447
  0
ARC
  5
134
330
EC
100
AcDbEntity
  8
28002000_BRS_KOP
  6
Continuous
 62
     7
100
AcDbCircle
 10
213.823303688
 20
272.1833781939
 30
0.0
 40
3.201448044106157
100
AcDbArc
 50
169.1702773045
 51
193.9140260882
  0
ELLIPSE
  5
135
330
EC
100
AcDbEntity
  8
28002000_BRS_KOP
  6
Continuous
 62
     7
100
AcDbEllipse
 10
213.8531094345
 20
272.2096491182
 30
0.0
 11
-0.504772459693742
 21
-0.2184142026854761
 31
0.0
210
0.0
220
0.0
230
0.9999999999999998
 40
0.05325924
 41
0.0
 42
6.283185307179586
  0
ELLIPSE
  5
136
330
EC
100
AcDbEntity
  8
28002000_BRS_KOP
  6
Continuous
 62
     7
100
AcDbEllipse
 10
213.8531094345
 20
272.2096491182
 30
0.0
 11
-0.9407123112474132
 21
-0.4070446504592963
 31
0.0
210
0.0
220
0.0
230
1.0
 40
0.05325924
 41
0.0
 42
6.283185307179586
  0
ARC
  5
137
330
EC
100
AcDbEntity
  8
28002000_BRS_KOP
  6
Continuous
 62
     7
100
AcDbCircle
 10
210.2175944819
 20
270.2086789013
 30
0.0
 40
3.125127231698671
100
AcDbArc
 50
30.5601198263
 51
56.124824202
  0
ARC
  5
138
330
EC
100
AcDbEntity
  8
28002000_BRS_KOP
  6
Continuous
 62
     7
100
AcDbCircle
 10
217.8629953089
 20
273.4931901132
 30
0.0
 40
3.187561212315989
100
AcDbArc
 50
171.3468031455
 51
195.9448570412
  0
LINE
  5
139
330
EC
100
AcDbEntity
  8
28002000_BRS_KOP
  6
Continuous
 62
     7
100
AcDbLine
 10
214.3537568201
 20
272.204806205
 30
0.0
 11
216.2265250082
 21
273.0386163233
 31
0.0
  0
ARC
  5
13A
330
EC
100
AcDbEntity
  8
28002000_BRS_KOP
  6
Continuous
 62
     7
100
AcDbCircle
 10
211.5165198502
 20
270.4271078681
 30
0.0
 40
3.348152475620668
100
AcDbArc
 50
32.0695999696
 51
34.7409702372
  0
ARC
  5
13B
330
EC
100
AcDbEntity
  8
28002000_BRS_KOP
  6
Continuous
 62
     7
100
AcDbCircle
 10
219.4460944226
 20
273.95758193
 30
0.0
 40
3.348152475620671
100
AcDbArc
 50
177.4145680757
 51
195.9304000304
  0
LINE
  5
13C
330
EC
100
AcDbEntity
  8
28002000_BRS_KOP
  6
Continuous
 62
     7
100
AcDbLine
 10
176.51834646
 20
261.6524793477
 30
0.0
 11
178.5483960009
 21
261.9377842047
 31
0.0
  0
ARC
  5
13D
330
EC
100
AcDbEntity
  8
28002000_BRS_KOP
  6
Continuous
 62
     7
100
AcDbCircle
 10
173.3010191695
 20
260.7256945257
 30
0.0
 40
3.348152475620652
100
AcDbArc
 50
16.0695999696
 51
34.5854319243
  0
ARC
  5
13E
330
EC
100
AcDbEntity
  8
28002000_BRS_KOP
  6
Continuous
 62
     7
100
AcDbCircle
 10
181.8965460062
 20
261.9337170421
 30
0.0
 40
3.348152475620679
100
AcDbArc
 50
177.2590297626
 51
179.9304000304
  0
ELLIPSE
  5
13F
330
EC
100
AcDbEntity
  8
28002000_BRS_KOP
  6
Continuous
 62
     7
100
AcDbEllipse
 10
178.97040271
 20
262.2071939222
 30
0.0
 11
-0.5438132170206417
 21
-0.08226290168515325
 31
0.0
210
0.0
220
0.0
230
0.9999999999999998
 40
0.05325924
 41
0.0
 42
6.283185307179586
  0
ELLIPSE
  5
140
330
EC
100
AcDbEntity
  8
28002000_BRS_KOP
  6
Continuous
 62
     7
100
AcDbEllipse
 10
178.97040271
 20
262.2071939222
 30
0.0
 11
-1.01347008626574
 21
-0.1533081349586931
 31
0.0
210
0.0
220
0.0
230
1.0
 40
0.05325924
 41
0.0
 42
6.283185307179586
  0
ARC
  5
141
330
EC
100
AcDbEntity
  8
28002000_BRS_KOP
  6
Continuous
 62
     7
100
AcDbCircle
 10
174.944430782
 20
261.2010126191
 30
0.0
 40
3.125127231699181
100
AcDbArc
 50
15.7640102698
 51
41.3287146455
  0
ARC
  5
142
330
EC
100
AcDbEntity
  8
28002000_BRS_KOP
  6
Continuous
 62
     7
100
AcDbCircle
 10
183.1751145409
 20
262.4241285448
 30
0.0
 40
3.187561212314533
100
AcDbArc
 50
156.550693589
 51
181.1487474847
  0
ELLIPSE
  5
143
330
EC
100
AcDbEntity
  8
28002000_BRS_KOP
  6
Continuous
 62
     7
100
AcDbEllipse
 10
183.0627221328
 20
263.3806476337
 30
0.0
 11
-0.5410942753129311
 21
-0.09857476971097263
 31
0.0
210
0.0
220
0.0
230
0.9999999999999999
 40
0.0984102434
 41
0.0
 42
6.283185307179586
  0
ELLIPSE
  5
144
330
EC
100
AcDbEntity
  8
28002000_BRS_KOP
  6
Continuous
 62
     7
100
AcDbEllipse
 10
183.0627221328
 20
263.3806476337
 30
0.0
 11
-1.008402967628649
 21
-0.1837075253704503
 31
0.0
210
0.0
220
0.0
230
1.0
 40
0.0984102434
 41
0.0
 42
6.283185307179586
  0
ARC
  5
145
330
EC
100
AcDbEntity
  8
28002000_BRS_KOP
  6
Continuous
 62
     7
100
AcDbCircle
 10
179.1159362831
 20
262.2666393878
 30
0.0
 40
3.076746168874317
100
AcDbArc
 50
17.5117735932
 51
43.2714350813
  0
ARC
  5
146
330
EC
100
AcDbEntity
  8
28002000_BRS_KOP
  6
Continuous
 62
     7
100
AcDbCircle
 10
187.253322782
 20
263.7137859596
 30
0.0
 40
3.182236617173891
100
AcDbArc
 50
157.7568378529
 51
182.7100766414
  0
ENDBLK
  5
148
330
EC
100
AcDbEntity
  8
0
100
AcDbBlockEnd
  0
BLOCK
  5
152
330
149
100
AcDbEntity
  8
0
100
AcDbBlockBegin
  2
SE2
 70
     0
 10
0.0
 20
0.0
 30
0.0
  3
SE2
  1

  0
LINE
  5
14B
330
149
100
AcDbEntity
  8
28002000_BRS_KOP
  6
Continuous
 62
     7
100
AcDbLine
 10
41.35
 20
190.4879621302
 30
0.0
 11
6.35
 21
190.4879621302
 31
0.0
  0
LINE
  5
14C
330
149
100
AcDbEntity
  8
28002000_BRS_KOP
  6
Continuous
 62
     7
100
AcDbLine
 10
76.35
 20
190.4879621302
 30
0.0
 11
41.35
 21
190.4879621302
 31
0.0
  0
ELLIPSE
  5
14D
330
149
100
AcDbEntity
  8
28002000_BRS_KOP
  6
Continuous
 62
     7
100
AcDbEllipse
 10
41.35
 20
133.7735220698
 30
0.0
 11
28.50000000000004
 21
1.942890293094024E-13
 31
0.0
210
0.0
220
0.0
230
1.0
 40
0.9612616959
 41
3.244663667200437
 42
4.712388980384683
  0
ELLIPSE
  5
14E
330
149
100
AcDbEntity
  8
28002000_BRS_KOP
  6
Continuous
 62
     7
100
AcDbEllipse
 10
41.35
 20
133.7735220698
 30
0.0
 11
28.50000000000001
 21
8.326672684688674E-14
 31
0.0
210
0.0
220
0.0
230
1.0
 40
0.9612616959
 41
4.712388980384686
 42
6.178677545240578
  0
ELLIPSE
  5
14F
330
149
100
AcDbEntity
  8
28002000_BRS_KOP
  6
Continuous
 62
     7
100
AcDbEllipse
 10
41.35
 20
133.7459583342
 30
0.0
 11
28.5
 21
2.498001805406602E-13
 31
0.0
210
0.0
220
0.0
230
1.0
 40
0.9612616959
 41
3.232801080956661
 42
6.198995292230088
  0
ARC
  5
150
330
149
100
AcDbEntity
  8
28002000_BRS_KOP
  6
Continuous
 62
     7
100
AcDbCircle
 10
-9975.2034039971
 20
-954.8381824323
 30
0.0
 40
10047.04833940124
100
AcDbArc
 50
6.2038915718
 51
6.5457354641
  0
ARC
  5
151
330
149
100
AcDbEntity
  8
28002000_BRS_KOP
  6
Continuous
 62
     7
100
AcDbCircle
 10
10064.2538478643
 20
-955.5476722645
 30
0.0
 40
10053.43826506555
100
AcDbArc
 50
173.4543731737
 51
173.7959997905
  0
ENDBLK
  5
153
330
149
100
AcDbEntity
  8
0
100
AcDbBlockEnd
  0
ENDSEC
  0
SECTION
  2
ENTITIES
  0
INSERT
  5
5F
330
1F
100
AcDbEntity
  8
Default
100
AcDbBlockReference
  2
SEANNOT_GROUP
 10
0.0
 20
0.0
 30
0.0
  0
INSERT
  5
66
330
1F
100
AcDbEntity
  8
Default
100
AcDbBlockReference
  2
SEANNOT_GROUP1
 10
0.0
 20
0.0
 30
0.0
  0
INSERT
  5
6C
330
1F
100
AcDbEntity
  8
Default
100
AcDbBlockReference
  2
SEANNOT_GROUP2
 10
0.0
 20
0.0
 30
0.0
  0
INSERT
  5
76
330
1F
100
AcDbEntity
  8
Default
100
AcDbBlockReference
  2
SE
 10
0.0
 20
0.0
 30
0.0
  0
INSERT
  5
ED
330
1F
100
AcDbEntity
  8
Default
100
AcDbBlockReference
  2
SE1
 10
0.0
 20
0.0
 30
0.0
  0
INSERT
  5
14A
330
1F
100
AcDbEntity
  8
Default
100
AcDbBlockReference
  2
SE2
 10
0.0
 20
0.0
 30
0.0
  0
TEXT
  5
155
330
1F
100
AcDbEntity
  8
Default
  6
Continuous
 62
     7
100
AcDbText
 10
5.9362635081
 20
53.4225120485
 30
0.0
 40
10.0
  1
Grohe AG^J
  7
SEACAD_seiso_ttf
 11
5.9362635081
 21
63.4225120485
 31
0.0
100
AcDbText
 73
     3
  0
TEXT
  5
156
330
1F
100
AcDbEntity
  8
Default
  6
Continuous
 62
     7
100
AcDbText
 10
5.9362635081
 20
37.0588756849
 30
0.0
 40
10.0
  1
 
  7
SEACAD_seiso_ttf
 11
5.9362635081
 21
47.0588756849
 31
0.0
100
AcDbText
 73
     3
  0
TEXT
  5
157
330
1F
100
AcDbEntity
  8
Default
  6
Continuous
 62
     7
100
AcDbText
 10
5.9362635081
 20
20.6952393213
 30
0.0
 40
10.0
  1
ecn: 
  7
SEACAD_seiso_ttf
 11
5.9362635081
 21
30.6952393213
 31
0.0
100
AcDbText
 73
     3
  0
TEXT
  5
158
330
1F
100
AcDbEntity
  8
Default
  6
Continuous
 62
     7
100
AcDbText
 10
5.9362635081
 20
4.3316029576
 30
0.0
 40
10.0
  1
unit: mm
  7
SEACAD_seiso_ttf
 11
5.9362635081
 21
14.3316029576
 31
0.0
100
AcDbText
 73
     3
  0
LINE
  5
159
330
1F
100
AcDbEntity
  8
Default
  6
Continuous
 62
     7
100
AcDbLine
 10
0.0
 20
0.0
 30
0.0
 11
100.0
 21
0.0
 31
0.0
  0
LINE
  5
15A
330
1F
100
AcDbEntity
  8
Default
  6
Continuous
 62
     7
100
AcDbLine
 10
0.0
 20
0.0
 30
0.0
 11
0.0
 21
100.0
 31
0.0
  0
TEXT
  5
15B
330
1F
100
AcDbEntity
  8
Default
  6
Continuous
 62
     7
100
AcDbText
 10
24.3923665681
 20
-18.2375342018
 30
0.0
 40
10.0
  1
100 mm
  7
SEACAD_seiso_ttf
 11
24.3923665681
 21
-8.2375342018
 31
0.0
100
AcDbText
 73
     3
  0
TEXT
  5
15C
330
1F
100
AcDbEntity
  8
Default
  6
Continuous
 62
     7
100
AcDbText
 10
-7.6150308803
 20
24.6231930421
 30
0.0
 40
10.0
  1
100 mm
 50
90.0
  7
SEACAD_seiso_ttf
 11
-17.6150308803
 21
24.6231930421
 31
0.0
100
AcDbText
 73
     3
  0
TEXT
  5
15D
330
1F
100
AcDbEntity
  8
Default
  6
Continuous
 62
     7
100
AcDbText
 10
28.4878128572
 20
20.0907663715
 30
0.0
 40
10.0
  1
213375
  7
SEACAD_seiso_ttf
 11
28.4878128572
 21
30.0907663715
 31
0.0
100
AcDbText
 73
     3
  0
TEXT
  5
15E
330
1F
100
AcDbEntity
  8
Default
  6
Continuous
 62
     7
100
AcDbText
 10
5.9012241913
 20
36.7242780188
 30
0.0
 40
10.0
  1
28002000
  7
SEACAD_seiso_ttf
 11
5.9012241913
 21
46.7242780188
 31
0.0
100
AcDbText
 73
     3
  0
ENDSEC
  0
SECTION
  2
OBJECTS
  0
DICTIONARY
  5
C
330
0
100
AcDbDictionary
281
     1
  3
ACAD_GROUP
350
D
  3
ACAD_LAYOUT
350
1A
  3
ACAD_MLEADERSTYLE
350
162
  3
ACAD_MLINESTYLE
350
17
  3
ACAD_PLOTSETTINGS
350
19
  3
ACAD_PLOTSTYLENAME
350
E
  3
ACAD_SCALELIST
350
3B
  3
ACAD_TABLESTYLE
350
161
  3
ACAD_VISUALSTYLE
350
2A
  3
AcDbVariableDictionary
350
15F
  0
DICTIONARY
  5
D
102
{ACAD_REACTORS
330
C
102
}
330
C
100
AcDbDictionary
281
     1
  0
DICTIONARY
  5
1A
102
{ACAD_REACTORS
330
C
102
}
330
C
100
AcDbDictionary
281
     1
  3
Layout1
350
1E
  3
Model
350
22
  0
DICTIONARY
  5
162
102
{ACAD_REACTORS
330
C
102
}
330
C
100
AcDbDictionary
281
     1
  0
DICTIONARY
  5
17
102
{ACAD_REACTORS
330
C
102
}
330
C
100
AcDbDictionary
281
     1
  3
Standard
350
18
  0
DICTIONARY
  5
19
102
{ACAD_REACTORS
330
C
102
}
330
C
100
AcDbDictionary
281
     1
  0
ACDBDICTIONARYWDFLT
  5
E
102
{ACAD_REACTORS
330
C
102
}
330
C
100
AcDbDictionary
281
     1
  3
Normal
350
F
100
AcDbDictionaryWithDefault
340
F
  0
DICTIONARY
  5
3B
102
{ACAD_REACTORS
330
C
102
}
330
C
100
AcDbDictionary
281
     1
  3
A0
350
3C
  3
A1
350
3D
  3
A2
350
3E
  3
A3
350
3F
  3
A4
350
40
  3
A5
350
41
  3
A6
350
42
  3
A7
350
43
  3
A8
350
44
  3
A9
350
45
  3
B0
350
46
  3
B1
350
47
  3
B2
350
48
  3
B3
350
49
  3
B4
350
4A
  3
B5
350
4B
  3
B6
350
4C
  3
B7
350
4D
  3
B8
350
4E
  3
B9
350
4F
  3
C0
350
50
  3
C1
350
51
  3
C2
350
52
  3
C3
350
53
  3
C4
350
54
  3
C5
350
55
  3
C6
350
56
  3
C7
350
57
  3
C8
350
58
  3
C9
350
59
  3
D0
350
5A
  3
D1
350
5B
  3
D2
350
5C
  0
DICTIONARY
  5
161
102
{ACAD_REACTORS
330
C
102
}
330
C
100
AcDbDictionary
281
     1
  0
DICTIONARY
  5
2A
102
{ACAD_REACTORS
330
C
102
}
330
C
100
AcDbDictionary
281
     1
  3
2dWireframe
350
2F
  3
3D Hidden
350
31
  3
3dWireframe
350
30
  3
Basic
350
32
  3
Brighten
350
36
  3
ColorChange
350
3A
  3
Conceptual
350
34
  3
Dim
350
35
  3
Facepattern
350
39
  3
Flat
350
2B
  3
FlatWithEdges
350
2C
  3
Gouraud
350
2D
  3
GouraudWithEdges
350
2E
  3
Linepattern
350
38
  3
Realistic
350
33
  3
Thicken
350
37
  0
DICTIONARY
  5
15F
102
{ACAD_REACTORS
330
C
102
}
330
C
100
AcDbDictionary
281
     1
  3
CANNOSCALE
350
160
  3
PSOLHEIGHT
350
164
  3
PSOLWIDTH
350
163
  0
LAYOUT
  5
1E
102
{ACAD_REACTORS
330
1A
102
}
330
1A
100
AcDbPlotSettings
  1

  2
none_device
  4

  6

 40
0.0
 41
0.0
 42
0.0
 43
0.0
 44
0.0
 45
0.0
 46
0.0
 47
0.0
 48
0.0
 49
0.0
140
0.0
141
0.0
142
1.0
143
1.0
 70
   688
 72
     0
 73
     0
 74
     5
  7

 75
    16
147
1.0
148
0.0
149
0.0
100
AcDbLayout
  1
Layout1
 70
     1
 71
     1
 10
0.0
 20
0.0
 11
1682.0
 21
2378.0
 12
0.0
 22
0.0
 32
0.0
 14
0.0
 24
0.0
 34
0.0
 15
1682.0
 25
2378.0
 35
0.0
146
0.0
 13
0.0
 23
0.0
 33
0.0
 16
1.0
 26
0.0
 36
0.0
 17
0.0
 27
1.0
 37
0.0
 76
     0
330
1B
  0
LAYOUT
  5
22
102
{ACAD_REACTORS
330
1A
102
}
330
1A
100
AcDbPlotSettings
  1

  2
none_device
  4

  6

 40
0.0
 41
0.0
 42
0.0
 43
0.0
 44
0.0
 45
0.0
 46
0.0
 47
0.0
 48
0.0
 49
0.0
140
0.0
141
0.0
142
1.0
143
1.0
 70
  1712
 72
     0
 73
     0
 74
     0
  7

 75
     0
147
1.0
148
0.0
149
0.0
100
AcDbLayout
  1
Model
 70
     1
 71
     0
 10
0.0
 20
0.0
 11
1682.0
 21
2378.0
 12
0.0
 22
0.0
 32
0.0
 14
0.0
 24
0.0
 34
0.0
 15
1682.0
 25
2378.0
 35
0.0
146
0.0
 13
0.0
 23
0.0
 33
0.0
 16
1.0
 26
0.0
 36
0.0
 17
0.0
 27
1.0
 37
0.0
 76
     0
330
1F
331
29
  0
MLINESTYLE
  5
18
102
{ACAD_REACTORS
330
17
102
}
330
17
100
AcDbMlineStyle
  2
Standard
 70
     0
  3

 62
   256
 51
90.0
 52
90.0
 71
     2
 49
0.5
 62
   256
  6
BYLAYER
 49
-0.5
 62
   256
  6
BYLAYER
  0
ACDBPLACEHOLDER
  5
F
102
{ACAD_REACTORS
330
E
102
}
330
E
  0
SCALE
  5
3C
102
{ACAD_REACTORS
330
3B
102
}
330
3B
100
AcDbScale
 70
     0
300
1:1
140
1.0
141
1.0
290
     1
  0
SCALE
  5
3D
102
{ACAD_REACTORS
330
3B
102
}
330
3B
100
AcDbScale
 70
     0
300
1:2
140
1.0
141
2.0
290
     0
  0
SCALE
  5
3E
102
{ACAD_REACTORS
330
3B
102
}
330
3B
100
AcDbScale
 70
     0
300
1:4
140
1.0
141
4.0
290
     0
  0
SCALE
  5
3F
102
{ACAD_REACTORS
330
3B
102
}
330
3B
100
AcDbScale
 70
     0
300
1:5
140
1.0
141
5.0
290
     0
  0
SCALE
  5
40
102
{ACAD_REACTORS
330
3B
102
}
330
3B
100
AcDbScale
 70
     0
300
1:8
140
1.0
141
8.0
290
     0
  0
SCALE
  5
41
102
{ACAD_REACTORS
330
3B
102
}
330
3B
100
AcDbScale
 70
     0
300
1:10
140
1.0
141
10.0
290
     0
  0
SCALE
  5
42
102
{ACAD_REACTORS
330
3B
102
}
330
3B
100
AcDbScale
 70
     0
300
1:16
140
1.0
141
16.0
290
     0
  0
SCALE
  5
43
102
{ACAD_REACTORS
330
3B
102
}
330
3B
100
AcDbScale
 70
     0
300
1:20
140
1.0
141
20.0
290
     0
  0
SCALE
  5
44
102
{ACAD_REACTORS
330
3B
102
}
330
3B
100
AcDbScale
 70
     0
300
1:30
140
1.0
141
30.0
290
     0
  0
SCALE
  5
45
102
{ACAD_REACTORS
330
3B
102
}
330
3B
100
AcDbScale
 70
     0
300
1:40
140
1.0
141
40.0
290
     0
  0
SCALE
  5
46
102
{ACAD_REACTORS
330
3B
102
}
330
3B
100
AcDbScale
 70
     0
300
1:50
140
1.0
141
50.0
290
     0
  0
SCALE
  5
47
102
{ACAD_REACTORS
330
3B
102
}
330
3B
100
AcDbScale
 70
     0
300
1:100
140
1.0
141
100.0
290
     0
  0
SCALE
  5
48
102
{ACAD_REACTORS
330
3B
102
}
330
3B
100
AcDbScale
 70
     0
300
2:1
140
2.0
141
1.0
290
     0
  0
SCALE
  5
49
102
{ACAD_REACTORS
330
3B
102
}
330
3B
100
AcDbScale
 70
     0
300
4:1
140
4.0
141
1.0
290
     0
  0
SCALE
  5
4A
102
{ACAD_REACTORS
330
3B
102
}
330
3B
100
AcDbScale
 70
     0
300
8:1
140
8.0
141
1.0
290
     0
  0
SCALE
  5
4B
102
{ACAD_REACTORS
330
3B
102
}
330
3B
100
AcDbScale
 70
     0
300
10:1
140
10.0
141
1.0
290
     0
  0
SCALE
  5
4C
102
{ACAD_REACTORS
330
3B
102
}
330
3B
100
AcDbScale
 70
     0
300
100:1
140
100.0
141
1.0
290
     0
  0
SCALE
  5
4D
102
{ACAD_REACTORS
330
3B
102
}
330
3B
100
AcDbScale
 70
     0
300
1/128" = 1'-0"
140
0.0078125
141
12.0
290
     0
  0
SCALE
  5
4E
102
{ACAD_REACTORS
330
3B
102
}
330
3B
100
AcDbScale
 70
     0
300
1/64" = 1'-0"
140
0.015625
141
12.0
290
     0
  0
SCALE
  5
4F
102
{ACAD_REACTORS
330
3B
102
}
330
3B
100
AcDbScale
 70
     0
300
1/32" = 1'-0"
140
0.03125
141
12.0
290
     0
  0
SCALE
  5
50
102
{ACAD_REACTORS
330
3B
102
}
330
3B
100
AcDbScale
 70
     0
300
1/16" = 1'-0"
140
0.0625
141
12.0
290
     0
  0
SCALE
  5
51
102
{ACAD_REACTORS
330
3B
102
}
330
3B
100
AcDbScale
 70
     0
300
3/32" = 1'-0"
140
0.09375
141
12.0
290
     0
  0
SCALE
  5
52
102
{ACAD_REACTORS
330
3B
102
}
330
3B
100
AcDbScale
 70
     0
300
1/8" = 1'-0"
140
0.125
141
12.0
290
     0
  0
SCALE
  5
53
102
{ACAD_REACTORS
330
3B
102
}
330
3B
100
AcDbScale
 70
     0
300
3/16" = 1'-0"
140
0.1875
141
12.0
290
     0
  0
SCALE
  5
54
102
{ACAD_REACTORS
330
3B
102
}
330
3B
100
AcDbScale
 70
     0
300
1/4" = 1'-0"
140
0.25
141
12.0
290
     0
  0
SCALE
  5
55
102
{ACAD_REACTORS
330
3B
102
}
330
3B
100
AcDbScale
 70
     0
300
3/8" = 1'-0"
140
0.375
141
12.0
290
     0
  0
SCALE
  5
56
102
{ACAD_REACTORS
330
3B
102
}
330
3B
100
AcDbScale
 70
     0
300
1/2" = 1'-0"
140
0.5
141
12.0
290
     0
  0
SCALE
  5
57
102
{ACAD_REACTORS
330
3B
102
}
330
3B
100
AcDbScale
 70
     0
300
3/4" = 1'-0"
140
0.75
141
12.0
290
     0
  0
SCALE
  5
58
102
{ACAD_REACTORS
330
3B
102
}
330
3B
100
AcDbScale
 70
     0
300
1" = 1'-0"
140
1.0
141
12.0
290
     0
  0
SCALE
  5
59
102
{ACAD_REACTORS
330
3B
102
}
330
3B
100
AcDbScale
 70
     0
300
1-1/2" = 1'-0"
140
1.5
141
12.0
290
     0
  0
SCALE
  5
5A
102
{ACAD_REACTORS
330
3B
102
}
330
3B
100
AcDbScale
 70
     0
300
3" = 1'-0"
140
3.0
141
12.0
290
     0
  0
SCALE
  5
5B
102
{ACAD_REACTORS
330
3B
102
}
330
3B
100
AcDbScale
 70
     0
300
6" = 1'-0"
140
6.0
141
12.0
290
     0
  0
SCALE
  5
5C
102
{ACAD_REACTORS
330
3B
102
}
330
3B
100
AcDbScale
 70
     0
300
1'-0" = 1'-0"
140
12.0
141
12.0
290
     0
  0
VISUALSTYLE
  5
2F
102
{ACAD_REACTORS
330
2A
102
}
330
2A
100
AcDbVisualStyle
  2
2dWireframe
 70
     4
 71
     0
 72
     2
 73
     0
 90
        0
 40
-0.6
 41
-30.0
 62
     5
 63
     7
 74
     1
 91
        4
 64
     7
 65
   257
 75
     1
175
     1
 42
1.0
 92
        0
 66
   257
 43
1.0
 76
     1
 77
     6
 78
     2
 67
     7
 79
     5
170
     0
171
     0
290
     0
174
     0
 93
        1
 44
0.0
173
     0
291
     0
 45
0.0
1001
ACAD
1000
AcDbSavedByObjectVersion
1070
     0
  0
VISUALSTYLE
  5
31
102
{ACAD_REACTORS
330
2A
102
}
330
2A
100
AcDbVisualStyle
  2
3D Hidden
 70
     6
 71
     1
 72
     2
 73
     2
 90
        0
 40
-0.6
 41
-30.0
 62
     5
 63
     7
 74
     2
 91
        2
 64
     7
 65
   257
 75
     2
175
     1
 42
40.0
 92
        0
 66
   257
 43
1.0
 76
     1
 77
     6
 78
     2
 67
     7
 79
     3
170
     0
171
     0
290
     0
174
     0
 93
        1
 44
0.0
173
     0
291
     0
 45
0.0
1001
ACAD
1000
AcDbSavedByObjectVersion
1070
     0
  0
VISUALSTYLE
  5
30
102
{ACAD_REACTORS
330
2A
102
}
330
2A
100
AcDbVisualStyle
  2
3dWireframe
 70
     5
 71
     0
 72
     2
 73
     0
 90
        0
 40
-0.6
 41
-30.0
 62
     5
 63
     7
 74
     1
 91
        4
 64
     7
 65
   257
 75
     1
175
     1
 42
1.0
 92
        0
 66
   257
 43
1.0
 76
     1
 77
     6
 78
     2
 67
     7
 79
     5
170
     0
171
     0
290
     0
174
     0
 93
        1
 44
0.0
173
     0
291
     0
 45
0.0
1001
ACAD
1000
AcDbSavedByObjectVersion
1070
     0
  0
VISUALSTYLE
  5
32
102
{ACAD_REACTORS
330
2A
102
}
330
2A
100
AcDbVisualStyle
  2
Basic
 70
     7
 71
     1
 72
     0
 73
     1
 90
        0
 40
-0.6
 41
-30.0
 62
     5
 63
     7
 74
     0
 91
        4
 64
     7
 65
   257
 75
     1
175
     1
 42
1.0
 92
        8
 66
     7
 43
1.0
 76
     1
 77
     6
 78
     2
 67
     7
 79
     5
170
     0
171
     0
290
     0
174
     0
 93
        1
 44
0.0
173
     0
291
     1
 45
0.0
1001
ACAD
1000
AcDbSavedByObjectVersion
1070
     0
  0
VISUALSTYLE
  5
36
102
{ACAD_REACTORS
330
2A
102
}
330
2A
100
AcDbVisualStyle
  2
Brighten
 70
    12
 71
     2
 72
     2
 73
     0
 90
        0
 40
-0.6
 41
-30.0
 62
     5
 63
     7
 74
     1
 91
        4
 64
     7
 65
   257
 75
     1
175
     1
 42
1.0
 92
        8
 66
     7
 43
1.0
 76
     1
 77
     6
 78
     2
 67
     7
 79
     5
170
     0
171
     0
290
     0
174
     0
 93
        1
 44
50.0
173
     0
291
     1
 45
0.0
1001
ACAD
1000
AcDbSavedByObjectVersion
1070
     0
  0
VISUALSTYLE
  5
3A
102
{ACAD_REACTORS
330
2A
102
}
330
2A
100
AcDbVisualStyle
  2
ColorChange
 70
    16
 71
     2
 72
     2
 73
     3
 90
        0
 40
-0.6
 41
-30.0
 62
     5
 63
     8
 74
     1
 91
        4
 64
     7
 65
   257
 75
     1
175
     1
 42
1.0
 92
        8
 66
     8
 43
1.0
 76
     1
 77
     6
 78
     2
 67
     7
 79
     5
170
     0
171
     0
290
     0
174
     0
 93
        1
 44
0.0
173
     0
291
     1
 45
0.0
1001
ACAD
1000
AcDbSavedByObjectVersion
1070
     0
  0
VISUALSTYLE
  5
34
102
{ACAD_REACTORS
330
2A
102
}
330
2A
100
AcDbVisualStyle
  2
Conceptual
 70
     9
 71
     3
 72
     2
 73
     0
 90
        0
 40
-0.6
 41
-30.0
 62
     5
 63
     7
 74
     2
 91
        2
 64
     7
 65
   257
 75
     1
175
     1
 42
40.0
 92
        8
 66
     7
 43
1.0
 76
     1
 77
     6
 78
     2
 67
     7
 79
     3
170
     0
171
     0
290
     0
174
     0
 93
        1
 44
0.0
173
     0
291
     0
 45
0.0
1001
ACAD
1000
AcDbSavedByObjectVersion
1070
     0
  0
VISUALSTYLE
  5
35
102
{ACAD_REACTORS
330
2A
102
}
330
2A
100
AcDbVisualStyle
  2
Dim
 70
    11
 71
     2
 72
     2
 73
     0
 90
        0
 40
-0.6
 41
-30.0
 62
     5
 63
     7
 74
     1
 91
        4
 64
     7
 65
   257
 75
     1
175
     1
 42
1.0
 92
        8
 66
     7
 43
1.0
 76
     1
 77
     6
 78
     2
 67
     7
 79
     5
170
     0
171
     0
290
     0
174
     0
 93
        1
 44
-50.0
173
     0
291
     1
 45
0.0
1001
ACAD
1000
AcDbSavedByObjectVersion
1070
     0
  0
VISUALSTYLE
  5
39
102
{ACAD_REACTORS
330
2A
102
}
330
2A
100
AcDbVisualStyle
  2
Facepattern
 70
    15
 71
     2
 72
     2
 73
     0
 90
        0
 40
-0.6
 41
-30.0
 62
     5
 63
     7
 74
     1
 91
        4
 64
     7
 65
   257
 75
     1
175
     1
 42
1.0
 92
        8
 66
     7
 43
1.0
 76
     1
 77
     6
 78
     2
 67
     7
 79
     5
170
     0
171
     0
290
     0
174
     0
 93
        1
 44
0.0
173
     0
291
     1
 45
0.0
1001
ACAD
1000
AcDbSavedByObjectVersion
1070
     0
  0
VISUALSTYLE
  5
2B
102
{ACAD_REACTORS
330
2A
102
}
330
2A
100
AcDbVisualStyle
  2
Flat
 70
     0
 71
     2
 72
     1
 73
     1
 90
        2
 40
-0.6
 41
30.0
 62
     5
 63
     7
 74
     0
 91
        4
 64
     7
 65
   257
 75
     1
175
     1
 42
1.0
 92
        8
 66
     7
 43
1.0
 76
     1
 77
     6
 78
     2
 67
     7
 79
     5
170
     0
171
     0
290
     0
174
     0
 93
       13
 44
0.0
173
     0
291
     1
 45
0.0
1001
ACAD
1000
AcDbSavedByObjectVersion
1070
     0
  0
VISUALSTYLE
  5
2C
102
{ACAD_REACTORS
330
2A
102
}
330
2A
100
AcDbVisualStyle
  2
FlatWithEdges
 70
     1
 71
     2
 72
     1
 73
     1
 90
        2
 40
-0.6
 41
30.0
 62
     5
 63
     7
 74
     1
 91
        4
 64
     7
 65
   257
 75
     1
175
     1
 42
1.0
 92
        0
 66
   257
 43
1.0
 76
     1
 77
     6
 78
     2
 67
     7
 79
     5
170
     0
171
     0
290
     0
174
     0
 93
       13
 44
0.0
173
     0
291
     1
 45
0.0
1001
ACAD
1000
AcDbSavedByObjectVersion
1070
     0
  0
VISUALSTYLE
  5
2D
102
{ACAD_REACTORS
330
2A
102
}
330
2A
100
AcDbVisualStyle
  2
Gouraud
 70
     2
 71
     2
 72
     2
 73
     1
 90
        2
 40
-0.6
 41
30.0
 62
     5
 63
     7
 74
     0
 91
        4
 64
     7
 65
   257
 75
     1
175
     1
 42
1.0
 92
        0
 66
     7
 43
1.0
 76
     1
 77
     6
 78
     2
 67
     7
 79
     5
170
     0
171
     0
290
     0
174
     0
 93
       13
 44
0.0
173
     0
291
     1
 45
0.0
1001
ACAD
1000
AcDbSavedByObjectVersion
1070
     0
  0
VISUALSTYLE
  5
2E
102
{ACAD_REACTORS
330
2A
102
}
330
2A
100
AcDbVisualStyle
  2
GouraudWithEdges
 70
     3
 71
     2
 72
     2
 73
     1
 90
        2
 40
-0.6
 41
30.0
 62
     5
 63
     7
 74
     1
 91
        4
 64
     7
 65
   257
 75
     1
175
     1
 42
1.0
 92
        0
 66
   257
 43
1.0
 76
     1
 77
     6
 78
     2
 67
     7
 79
     5
170
     0
171
     0
290
     0
174
     0
 93
       13
 44
0.0
173
     0
291
     1
 45
0.0
1001
ACAD
1000
AcDbSavedByObjectVersion
1070
     0
  0
VISUALSTYLE
  5
38
102
{ACAD_REACTORS
330
2A
102
}
330
2A
100
AcDbVisualStyle
  2
Linepattern
 70
    14
 71
     2
 72
     2
 73
     0
 90
        0
 40
-0.6
 41
-30.0
 62
     5
 63
     7
 74
     1
 91
        4
 64
     7
 65
   257
 75
     7
175
     7
 42
1.0
 92
        8
 66
     7
 43
1.0
 76
     1
 77
     6
 78
     2
 67
     7
 79
     5
170
     0
171
     0
290
     0
174
     0
 93
        1
 44
0.0
173
     0
291
     1
 45
0.0
1001
ACAD
1000
AcDbSavedByObjectVersion
1070
     0
  0
VISUALSTYLE
  5
33
102
{ACAD_REACTORS
330
2A
102
}
330
2A
100
AcDbVisualStyle
  2
Realistic
 70
     8
 71
     2
 72
     2
 73
     0
 90
        0
 40
-0.6
 41
-30.0
 62
     5
 63
     7
 74
     1
 91
        0
 64
     7
 65
   257
 75
     1
175
     1
 42
1.0
 92
        8
 66
     8
 43
1.0
 76
     1
 77
     6
 78
     2
 67
     7
 79
     5
170
     0
171
     0
290
     0
174
     0
 93
       13
 44
0.0
173
     0
291
     0
 45
0.0
1001
ACAD
1000
AcDbSavedByObjectVersion
1070
     0
  0
VISUALSTYLE
  5
37
102
{ACAD_REACTORS
330
2A
102
}
330
2A
100
AcDbVisualStyle
  2
Thicken
 70
    13
 71
     2
 72
     2
 73
     0
 90
        0
 40
-0.6
 41
-30.0
 62
     5
 63
     7
 74
     1
 91
        4
 64
     7
 65
   257
 75
     1
175
     1
 42
1.0
 92
       12
 66
     7
 43
1.0
 76
     1
 77
     6
 78
     2
 67
     7
 79
     5
170
     0
171
     0
290
     0
174
     0
 93
        1
 44
0.0
173
     0
291
     1
 45
0.0
1001
ACAD
1000
AcDbSavedByObjectVersion
1070
     0
  0
DICTIONARYVAR
  5
160
102
{ACAD_REACTORS
330
15F
102
}
330
15F
100
DictionaryVariables
280
     0
  1
1:1
  0
DICTIONARYVAR
  5
164
102
{ACAD_REACTORS
330
15F
102
}
330
15F
100
DictionaryVariables
280
     0
  1
80.000000
  0
DICTIONARYVAR
  5
163
102
{ACAD_REACTORS
330
15F
102
}
330
15F
100
DictionaryVariables
280
     0
  1
5.000000
  0
ENDSEC
  0
EOF
