  0
SECTION
  2
HEADER
  9
$ACADVER
  1
AC1018
  9
$ACADMAINTVER
 70
     0
  9
$DWGCODEPAGE
  3
ANSI_1252
  9
$COMMENTS
  1
File was created by Deep Exporation
  9
$INSBASE
 10
0.0
 20
0.0
 30
0.0
  9
$EXTMIN
 10
1.000000000000000E+20
 20
1.000000000000000E+20
 30
1.000000000000000E+20
  9
$EXTMAX
 10
-1.000000000000000E+20
 20
-1.000000000000000E+20
 30
-1.000000000000000E+20
  9
$LIMMIN
 10
0.0
 20
0.0
  9
$LIMMAX
 10
12.0
 20
9.0
  9
$ORTHOMODE
 70
     0
  9
$REGENMODE
 70
     1
  9
$FILLMODE
 70
     1
  9
$QTEXTMODE
 70
     0
  9
$MIRRTEXT
 70
     1
  9
$LTSCALE
 40
1.0
  9
$ATTMODE
 70
     1
  9
$TEXTSIZE
 40
0.2
  9
$TRACEWID
 40
0.05
  9
$TEXTSTYLE
  7
Standard
  9
$CLAYER
  8
0
  9
$CELTYPE
  6
ByLayer
  9
$CECOLOR
 62
   256
  9
$CELTSCALE
 40
1.0
  9
$DISPSILH
 70
     0
  9
$DIMSCALE
 40
1.0
  9
$DIMASZ
 40
0.18
  9
$DIMEXO
 40
0.0625
  9
$DIMDLI
 40
0.38
  9
$DIMRND
 40
0.0
  9
$DIMDLE
 40
0.0
  9
$DIMEXE
 40
0.18
  9
$DIMTP
 40
0.0
  9
$DIMTM
 40
0.0
  9
$DIMTXT
 40
0.18
  9
$DIMCEN
 40
0.09
  9
$DIMTSZ
 40
0.0
  9
$DIMTOL
 70
     0
  9
$DIMLIM
 70
     0
  9
$DIMTIH
 70
     1
  9
$DIMTOH
 70
     1
  9
$DIMSE1
 70
     0
  9
$DIMSE2
 70
     0
  9
$DIMTAD
 70
     0
  9
$DIMZIN
 70
     0
  9
$DIMBLK
  1

  9
$DIMASO
 70
     1
  9
$DIMSHO
 70
     1
  9
$DIMPOST
  1

  9
$DIMAPOST
  1

  9
$DIMALT
 70
     0
  9
$DIMALTD
 70
     2
  9
$DIMALTF
 40
25.4
  9
$DIMLFAC
 40
1.0
  9
$DIMTOFL
 70
     0
  9
$DIMTVP
 40
0.0
  9
$DIMTIX
 70
     0
  9
$DIMSOXD
 70
     0
  9
$DIMSAH
 70
     0
  9
$DIMBLK1
  1

  9
$DIMBLK2
  1

  9
$DIMSTYLE
  2
Standard
  9
$DIMCLRD
 70
     0
  9
$DIMCLRE
 70
     0
  9
$DIMCLRT
 70
     0
  9
$DIMTFAC
 40
1.0
  9
$DIMGAP
 40
0.09
  9
$DIMJUST
 70
     0
  9
$DIMSD1
 70
     0
  9
$DIMSD2
 70
     0
  9
$DIMTOLJ
 70
     1
  9
$DIMTZIN
 70
     0
  9
$DIMALTZ
 70
     0
  9
$DIMALTTZ
 70
     0
  9
$DIMUPT
 70
     0
  9
$DIMDEC
 70
     4
  9
$DIMTDEC
 70
     4
  9
$DIMALTU
 70
     2
  9
$DIMALTTD
 70
     2
  9
$DIMTXSTY
  7
Standard
  9
$DIMAUNIT
 70
     0
  9
$DIMADEC
 70
     0
  9
$DIMALTRND
 40
0.0
  9
$DIMAZIN
 70
     0
  9
$DIMDSEP
 70
    46
  9
$DIMATFIT
 70
     3
  9
$DIMFRAC
 70
     0
  9
$DIMLDRBLK
  1

  9
$DIMLUNIT
 70
     2
  9
$DIMLWD
 70
    -2
  9
$DIMLWE
 70
    -2
  9
$DIMTMOVE
 70
     0
  9
$LUNITS
 70
     2
  9
$LUPREC
 70
     4
  9
$SKETCHINC
 40
0.1
  9
$FILLETRAD
 40
0.5
  9
$AUNITS
 70
     0
  9
$AUPREC
 70
     0
  9
$MENU
  1
.
  9
$ELEVATION
 40
0.0
  9
$PELEVATION
 40
0.0
  9
$THICKNESS
 40
0.0
  9
$LIMCHECK
 70
     0
  9
$CHAMFERA
 40
0.5
  9
$CHAMFERB
 40
0.5
  9
$CHAMFERC
 40
1.0
  9
$CHAMFERD
 40
0.0
  9
$SKPOLY
 70
     0
  9
$TDCREATE
 40
2455559.649992766
  9
$TDUCREATE
 40
2455559.420826099
  9
$TDUPDATE
 40
2455559.649992766
  9
$TDUUPDATE
 40
2455559.420826099
  9
$TDINDWG
 40
0.0000000116
  9
$TDUSRTIMER
 40
0.0000000116
  9
$USRTIMER
 70
     1
  9
$ANGBASE
 50
0.0
  9
$ANGDIR
 70
     0
  9
$PDMODE
 70
     0
  9
$PDSIZE
 40
0.0
  9
$PLINEWID
 40
0.0
  9
$SPLFRAME
 70
     0
  9
$SPLINETYPE
 70
     6
  9
$SPLINESEGS
 70
     8
  9
$HANDSEED
  5
594
  9
$SURFTAB1
 70
     6
  9
$SURFTAB2
 70
     6
  9
$SURFTYPE
 70
     6
  9
$SURFU
 70
     6
  9
$SURFV
 70
     6
  9
$UCSBASE
  2

  9
$UCSNAME
  2

  9
$UCSORG
 10
0.0
 20
0.0
 30
0.0
  9
$UCSXDIR
 10
1.0
 20
0.0
 30
0.0
  9
$UCSYDIR
 10
0.0
 20
1.0
 30
0.0
  9
$UCSORTHOREF
  2

  9
$UCSORTHOVIEW
 70
     0
  9
$UCSORGTOP
 10
0.0
 20
0.0
 30
0.0
  9
$UCSORGBOTTOM
 10
0.0
 20
0.0
 30
0.0
  9
$UCSORGLEFT
 10
0.0
 20
0.0
 30
0.0
  9
$UCSORGRIGHT
 10
0.0
 20
0.0
 30
0.0
  9
$UCSORGFRONT
 10
0.0
 20
0.0
 30
0.0
  9
$UCSORGBACK
 10
0.0
 20
0.0
 30
0.0
  9
$PUCSBASE
  2

  9
$PUCSNAME
  2

  9
$PUCSORG
 10
0.0
 20
0.0
 30
0.0
  9
$PUCSXDIR
 10
1.0
 20
0.0
 30
0.0
  9
$PUCSYDIR
 10
0.0
 20
1.0
 30
0.0
  9
$PUCSORTHOREF
  2

  9
$PUCSORTHOVIEW
 70
     0
  9
$PUCSORGTOP
 10
0.0
 20
0.0
 30
0.0
  9
$PUCSORGBOTTOM
 10
0.0
 20
0.0
 30
0.0
  9
$PUCSORGLEFT
 10
0.0
 20
0.0
 30
0.0
  9
$PUCSORGRIGHT
 10
0.0
 20
0.0
 30
0.0
  9
$PUCSORGFRONT
 10
0.0
 20
0.0
 30
0.0
  9
$PUCSORGBACK
 10
0.0
 20
0.0
 30
0.0
  9
$USERI1
 70
     0
  9
$USERI2
 70
     0
  9
$USERI3
 70
     0
  9
$USERI4
 70
     0
  9
$USERI5
 70
     0
  9
$USERR1
 40
0.0
  9
$USERR2
 40
0.0
  9
$USERR3
 40
0.0
  9
$USERR4
 40
0.0
  9
$USERR5
 40
0.0
  9
$WORLDVIEW
 70
     1
  9
$SHADEDGE
 70
     3
  9
$SHADEDIF
 70
    70
  9
$TILEMODE
 70
     1
  9
$MAXACTVP
 70
    64
  9
$PINSBASE
 10
0.0
 20
0.0
 30
0.0
  9
$PLIMCHECK
 70
     0
  9
$PEXTMIN
 10
1.000000000000000E+20
 20
1.000000000000000E+20
 30
1.000000000000000E+20
  9
$PEXTMAX
 10
-1.000000000000000E+20
 20
-1.000000000000000E+20
 30
-1.000000000000000E+20
  9
$PLIMMIN
 10
0.0
 20
0.0
  9
$PLIMMAX
 10
12.0
 20
9.0
  9
$UNITMODE
 70
     0
  9
$VISRETAIN
 70
     1
  9
$PLINEGEN
 70
     0
  9
$PSLTSCALE
 70
     1
  9
$TREEDEPTH
 70
  3020
  9
$CMLSTYLE
  2
Standard
  9
$CMLJUST
 70
     0
  9
$CMLSCALE
 40
1.0
  9
$PROXYGRAPHICS
 70
     1
  9
$MEASUREMENT
 70
     0
  9
$CELWEIGHT
370
    -1
  9
$ENDCAPS
280
     0
  9
$JOINSTYLE
280
     0
  9
$LWDISPLAY
290
     0
  9
$INSUNITS
 70
     1
  9
$HYPERLINKBASE
  1

  9
$STYLESHEET
  1

  9
$XEDIT
290
     1
  9
$CEPSNTYPE
380
     0
  9
$PSTYLEMODE
290
     1
  9
$FINGERPRINTGUID
  2
{F1C4F2E5-61FE-463A-A7B3-9E84F1F169BE}
  9
$VERSIONGUID
  2
{FAEB1C32-E019-11D5-929B-00C0DF256EC4}
  9
$EXTNAMES
290
     1
  9
$PSVPSCALE
 40
0.0
  9
$OLESTARTUP
290
     0
  9
$SORTENTS
280
   127
  9
$INDEXCTL
280
     0
  9
$HIDETEXT
280
     1
  9
$XCLIPFRAME
290
     0
  9
$HALOGAP
280
     0
  9
$OBSCOLOR
 70
   257
  9
$OBSLTYPE
280
     0
  9
$INTERSECTIONDISPLAY
280
     0
  9
$INTERSECTIONCOLOR
 70
   257
  9
$DIMASSOC
280
     2
  9
$PROJECTNAME
  1

  0
ENDSEC
  0
SECTION
  2
CLASSES
  0
CLASS
  1
ACDBDICTIONARYWDFLT
  2
AcDbDictionaryWithDefault
  3
ObjectDBX Classes
 90
        0
 91
        4
280
     0
281
     0
  0
CLASS
  1
VISUALSTYLE
  2
AcDbVisualStyle
  3
ObjectDBX Classes
 90
     4095
 91
        4
280
     0
281
     0
  0
ENDSEC
  0
SECTION
  2
TABLES
  0
TABLE
  2
VPORT
  5
8
330
0
100
AcDbSymbolTable
 70
     1
  0
VPORT
  5
29
330
8
100
AcDbSymbolTableRecord
100
AcDbViewportTableRecord
  2
*Active
 70
     0
 10
0.0
 20
0.0
 11
1.0
 21
1.0
 12
0.0
 22
0.0
 13
0.0
 23
0.0
 14
0.5
 24
0.5
 15
0.5
 25
0.5
 16
841.641845703125
 26
480.8967590332031
 36
841.641845703125
 17
35.02850341796875
 27
0.0
 37
0.0
 40
618.4094974431933
 41
1.972972972850329
 42
50.0
 43
0.0
 44
0.0
 50
0.0
 51
0.0
 71
     0
 72
   100
 73
     1
 74
     3
 75
     0
 76
     0
 77
     0
 78
     0
281
     0
 65
     1
110
0.0
120
0.0
130
0.0
111
1.0
121
0.0
131
0.0
112
0.0
122
1.0
132
0.0
 79
     0
146
0.0
  0
ENDTAB
  0
TABLE
  2
LTYPE
  5
5
330
0
100
AcDbSymbolTable
 70
     1
  0
LTYPE
  5
14
330
5
100
AcDbSymbolTableRecord
100
AcDbLinetypeTableRecord
  2
ByBlock
 70
     0
  3

 72
    65
 73
     0
 40
0.0
  0
LTYPE
  5
15
330
5
100
AcDbSymbolTableRecord
100
AcDbLinetypeTableRecord
  2
ByLayer
 70
     0
  3

 72
    65
 73
     0
 40
0.0
  0
LTYPE
  5
16
330
5
100
AcDbSymbolTableRecord
100
AcDbLinetypeTableRecord
  2
Continuous
 70
     0
  3
Solid line
 72
    65
 73
     0
 40
0.0
  0
ENDTAB
  0
TABLE
  2
LAYER
  5
2
330
0
100
AcDbSymbolTable
 70
     2
  0
LAYER
  5
10
330
2
100
AcDbSymbolTableRecord
100
AcDbLayerTableRecord
  2
0
 70
     0
 62
     7
  6
Continuous
370
    -3
390
F
  0
LAYER
  5
CB
330
2
100
AcDbSymbolTableRecord
100
AcDbLayerTableRecord
  2
Layer 1
 70
     0
 62
     7
  6
Continuous
370
    -3
390
F
  0
ENDTAB
  0
TABLE
  2
STYLE
  5
3
330
0
100
AcDbSymbolTable
 70
     1
  0
STYLE
  5
11
330
3
100
AcDbSymbolTableRecord
100
AcDbTextStyleTableRecord
  2
Standard
 70
     0
 40
0.0
 41
1.0
 50
0.0
 71
     0
 42
0.2
  3
txt
  4

  0
ENDTAB
  0
TABLE
  2
VIEW
  5
6
330
0
100
AcDbSymbolTable
 70
     0
  0
ENDTAB
  0
TABLE
  2
UCS
  5
7
330
0
100
AcDbSymbolTable
 70
     0
  0
ENDTAB
  0
TABLE
  2
APPID
  5
9
330
0
100
AcDbSymbolTable
 70
     1
  0
APPID
  5
12
330
9
100
AcDbSymbolTableRecord
100
AcDbRegAppTableRecord
  2
ACAD
 70
     0
  0
ENDTAB
  0
TABLE
  2
DIMSTYLE
  5
A
330
0
100
AcDbSymbolTable
 70
     1
100
AcDbDimStyleTable
  0
DIMSTYLE
105
27
330
A
100
AcDbSymbolTableRecord
100
AcDbDimStyleTableRecord
  2
Standard
 70
     0
340
11
  0
ENDTAB
  0
TABLE
  2
BLOCK_RECORD
  5
1
330
0
100
AcDbSymbolTable
 70
    40
  0
BLOCK_RECORD
  5
1F
330
1
100
AcDbSymbolTableRecord
100
AcDbBlockTableRecord
  2
*Model_Space
340
22
  0
BLOCK_RECORD
  5
1B
330
1
100
AcDbSymbolTableRecord
100
AcDbBlockTableRecord
  2
*Paper_Space
340
1E
  0
BLOCK_RECORD
  5
3B
330
1
100
AcDbSymbolTableRecord
100
AcDbBlockTableRecord
  2
e3_node
340
0
102
{BLKREFS
331
CA
102
}
  0
BLOCK_RECORD
  5
CE
330
1
100
AcDbSymbolTableRecord
100
AcDbBlockTableRecord
  2
e3_node(1)
340
0
102
{BLKREFS
331
EB
102
}
  0
BLOCK_RECORD
  5
EE
330
1
100
AcDbSymbolTableRecord
100
AcDbBlockTableRecord
  2
e3_node(2)
340
0
102
{BLKREFS
331
109
102
}
  0
BLOCK_RECORD
  5
10C
330
1
100
AcDbSymbolTableRecord
100
AcDbBlockTableRecord
  2
e3_node(3)
340
0
102
{BLKREFS
331
189
102
}
  0
BLOCK_RECORD
  5
18C
330
1
100
AcDbSymbolTableRecord
100
AcDbBlockTableRecord
  2
e3_node(4)
340
0
102
{BLKREFS
331
19B
102
}
  0
BLOCK_RECORD
  5
19E
330
1
100
AcDbSymbolTableRecord
100
AcDbBlockTableRecord
  2
e3_node(5)
340
0
102
{BLKREFS
331
1B7
102
}
  0
BLOCK_RECORD
  5
1BA
330
1
100
AcDbSymbolTableRecord
100
AcDbBlockTableRecord
  2
e3_node(6)
340
0
102
{BLKREFS
331
1C9
102
}
  0
BLOCK_RECORD
  5
1CC
330
1
100
AcDbSymbolTableRecord
100
AcDbBlockTableRecord
  2
e3_node(7)
340
0
102
{BLKREFS
331
1DB
102
}
  0
BLOCK_RECORD
  5
1DE
330
1
100
AcDbSymbolTableRecord
100
AcDbBlockTableRecord
  2
e3_node(8)
340
0
102
{BLKREFS
331
1ED
102
}
  0
BLOCK_RECORD
  5
1F0
330
1
100
AcDbSymbolTableRecord
100
AcDbBlockTableRecord
  2
e3_node(9)
340
0
102
{BLKREFS
331
1FF
102
}
  0
BLOCK_RECORD
  5
202
330
1
100
AcDbSymbolTableRecord
100
AcDbBlockTableRecord
  2
e3_node(10)
340
0
102
{BLKREFS
331
211
102
}
  0
BLOCK_RECORD
  5
214
330
1
100
AcDbSymbolTableRecord
100
AcDbBlockTableRecord
  2
e3_node(11)
340
0
102
{BLKREFS
331
223
102
}
  0
BLOCK_RECORD
  5
226
330
1
100
AcDbSymbolTableRecord
100
AcDbBlockTableRecord
  2
e3_node(12)
340
0
102
{BLKREFS
331
235
102
}
  0
BLOCK_RECORD
  5
238
330
1
100
AcDbSymbolTableRecord
100
AcDbBlockTableRecord
  2
e3_node(13)
340
0
102
{BLKREFS
331
247
102
}
  0
BLOCK_RECORD
  5
24A
330
1
100
AcDbSymbolTableRecord
100
AcDbBlockTableRecord
  2
e3_node(14)
340
0
102
{BLKREFS
331
259
102
}
  0
BLOCK_RECORD
  5
25C
330
1
100
AcDbSymbolTableRecord
100
AcDbBlockTableRecord
  2
e3_node(15)
340
0
102
{BLKREFS
331
26B
102
}
  0
BLOCK_RECORD
  5
26E
330
1
100
AcDbSymbolTableRecord
100
AcDbBlockTableRecord
  2
e3_node(16)
340
0
102
{BLKREFS
331
27D
102
}
  0
BLOCK_RECORD
  5
280
330
1
100
AcDbSymbolTableRecord
100
AcDbBlockTableRecord
  2
e3_node(17)
340
0
102
{BLKREFS
331
293
102
}
  0
BLOCK_RECORD
  5
296
330
1
100
AcDbSymbolTableRecord
100
AcDbBlockTableRecord
  2
e3_node(18)
340
0
102
{BLKREFS
331
2C9
102
}
  0
BLOCK_RECORD
  5
2CC
330
1
100
AcDbSymbolTableRecord
100
AcDbBlockTableRecord
  2
e3_node(19)
340
0
102
{BLKREFS
331
2F7
102
}
  0
BLOCK_RECORD
  5
2FA
330
1
100
AcDbSymbolTableRecord
100
AcDbBlockTableRecord
  2
e3_node(20)
340
0
102
{BLKREFS
331
32D
102
}
  0
BLOCK_RECORD
  5
330
330
1
100
AcDbSymbolTableRecord
100
AcDbBlockTableRecord
  2
e3_node(21)
340
0
102
{BLKREFS
331
35B
102
}
  0
BLOCK_RECORD
  5
35E
330
1
100
AcDbSymbolTableRecord
100
AcDbBlockTableRecord
  2
e3_node(22)
340
0
102
{BLKREFS
331
3C5
102
}
  0
BLOCK_RECORD
  5
3C8
330
1
100
AcDbSymbolTableRecord
100
AcDbBlockTableRecord
  2
e3_node(23)
340
0
102
{BLKREFS
331
3DD
102
}
  0
BLOCK_RECORD
  5
3E0
330
1
100
AcDbSymbolTableRecord
100
AcDbBlockTableRecord
  2
e3_node(24)
340
0
102
{BLKREFS
331
3FB
102
}
  0
BLOCK_RECORD
  5
3FE
330
1
100
AcDbSymbolTableRecord
100
AcDbBlockTableRecord
  2
e3_node(25)
340
0
102
{BLKREFS
331
47B
102
}
  0
BLOCK_RECORD
  5
47E
330
1
100
AcDbSymbolTableRecord
100
AcDbBlockTableRecord
  2
e3_node(26)
340
0
102
{BLKREFS
331
48D
102
}
  0
BLOCK_RECORD
  5
490
330
1
100
AcDbSymbolTableRecord
100
AcDbBlockTableRecord
  2
e3_node(27)
340
0
102
{BLKREFS
331
4A9
102
}
  0
BLOCK_RECORD
  5
4AC
330
1
100
AcDbSymbolTableRecord
100
AcDbBlockTableRecord
  2
e3_node(28)
340
0
102
{BLKREFS
331
4BB
102
}
  0
BLOCK_RECORD
  5
4BE
330
1
100
AcDbSymbolTableRecord
100
AcDbBlockTableRecord
  2
e3_node(29)
340
0
102
{BLKREFS
331
4CD
102
}
  0
BLOCK_RECORD
  5
4D0
330
1
100
AcDbSymbolTableRecord
100
AcDbBlockTableRecord
  2
e3_node(30)
340
0
102
{BLKREFS
331
4DF
102
}
  0
BLOCK_RECORD
  5
4E2
330
1
100
AcDbSymbolTableRecord
100
AcDbBlockTableRecord
  2
e3_node(31)
340
0
102
{BLKREFS
331
4F1
102
}
  0
BLOCK_RECORD
  5
4F4
330
1
100
AcDbSymbolTableRecord
100
AcDbBlockTableRecord
  2
e3_node(32)
340
0
102
{BLKREFS
331
503
102
}
  0
BLOCK_RECORD
  5
506
330
1
100
AcDbSymbolTableRecord
100
AcDbBlockTableRecord
  2
e3_node(33)
340
0
102
{BLKREFS
331
515
102
}
  0
BLOCK_RECORD
  5
518
330
1
100
AcDbSymbolTableRecord
100
AcDbBlockTableRecord
  2
e3_node(34)
340
0
102
{BLKREFS
331
527
102
}
  0
BLOCK_RECORD
  5
52A
330
1
100
AcDbSymbolTableRecord
100
AcDbBlockTableRecord
  2
e3_node(35)
340
0
102
{BLKREFS
331
539
102
}
  0
BLOCK_RECORD
  5
53C
330
1
100
AcDbSymbolTableRecord
100
AcDbBlockTableRecord
  2
e3_node(36)
340
0
102
{BLKREFS
331
54B
102
}
  0
BLOCK_RECORD
  5
54E
330
1
100
AcDbSymbolTableRecord
100
AcDbBlockTableRecord
  2
e3_node(37)
340
0
102
{BLKREFS
331
55D
102
}
  0
BLOCK_RECORD
  5
560
330
1
100
AcDbSymbolTableRecord
100
AcDbBlockTableRecord
  2
e3_node(38)
340
0
102
{BLKREFS
331
56F
102
}
  0
ENDTAB
  0
ENDSEC
  0
SECTION
  2
BLOCKS
  0
BLOCK
  5
20
330
1F
100
AcDbEntity
  8
0
100
AcDbBlockBegin
  2
*Model_Space
 70
     0
 10
0.0
 20
0.0
 30
0.0
  3
*Model_Space
  1

  0
ENDBLK
  5
21
330
1F
100
AcDbEntity
  8
0
100
AcDbBlockEnd
  0
BLOCK
  5
1C
330
1B
100
AcDbEntity
 67
     1
  8
0
100
AcDbBlockBegin
  2
*Paper_Space
 70
     0
 10
0.0
 20
0.0
 30
0.0
  3
*Paper_Space
  1

  0
ENDBLK
  5
1D
330
1B
100
AcDbEntity
 67
     1
  8
0
100
AcDbBlockEnd
  0
BLOCK
  5
CC
330
3B
100
AcDbEntity
  8
0
100
AcDbBlockBegin
  2
e3_node
 70
     0
 10
0.0
 20
0.0
 30
0.0
  3
e3_node
  1

  0
POLYLINE
  5
3C
330
3B
100
AcDbEntity
  8
0
 62
     9
420
 12632256
100
AcDbPolyFaceMesh
 66
     1
 10
0.0
 20
0.0
 30
0.0
 70
    64
 71
    56
 72
    84
  0
VERTEX
  5
3D
330
3C
100
AcDbEntity
  8
0
100
AcDbVertex
100
AcDbPolyFaceMeshVertex
 10
9.0
 20
-293.9819946289062
 30
8.074999809265137
 70
   192
  0
VERTEX
  5
3E
330
3C
100
AcDbEntity
  8
0
100
AcDbVertex
100
AcDbPolyFaceMeshVertex
 10
20.95100021362305
 20
-299.385009765625
 30
5.473000049591064
 70
   192
  0
VERTEX
  5
3F
330
3C
100
AcDbEntity
  8
0
100
AcDbVertex
100
AcDbPolyFaceMeshVertex
 10
20.95100021362305
 20
-298.135986328125
 30
0.0
 70
   192
  0
VERTEX
  5
40
330
3C
100
AcDbEntity
  8
0
100
AcDbVertex
100
AcDbPolyFaceMeshVertex
 10
9.0
 20
-299.14599609375
 30
14.55099964141846
 70
   192
  0
VERTEX
  5
41
330
3C
100
AcDbEntity
  8
0
100
AcDbVertex
100
AcDbPolyFaceMeshVertex
 10
20.95100021362305
 20
-302.885009765625
 30
9.862000465393066
 70
   192
  0
VERTEX
  5
42
330
3C
100
AcDbEntity
  8
0
100
AcDbVertex
100
AcDbPolyFaceMeshVertex
 10
9.0
 20
-306.6090087890625
 30
18.14500045776367
 70
   192
  0
VERTEX
  5
43
330
3C
100
AcDbEntity
  8
0
100
AcDbVertex
100
AcDbPolyFaceMeshVertex
 10
20.95100021362305
 20
-307.9429931640625
 30
12.29800033569336
 70
   192
  0
VERTEX
  5
44
330
3C
100
AcDbEntity
  8
0
100
AcDbVertex
100
AcDbPolyFaceMeshVertex
 10
9.0
 20
-314.8909912109375
 30
18.14500045776367
 70
   192
  0
VERTEX
  5
45
330
3C
100
AcDbEntity
  8
0
100
AcDbVertex
100
AcDbPolyFaceMeshVertex
 10
20.95100021362305
 20
-313.5570068359375
 30
12.29800033569336
 70
   192
  0
VERTEX
  5
46
330
3C
100
AcDbEntity
  8
0
100
AcDbVertex
100
AcDbPolyFaceMeshVertex
 10
9.0
 20
-322.35400390625
 30
14.55099964141846
 70
   192
  0
VERTEX
  5
47
330
3C
100
AcDbEntity
  8
0
100
AcDbVertex
100
AcDbPolyFaceMeshVertex
 10
20.95100021362305
 20
-318.614990234375
 30
9.862000465393066
 70
   192
  0
VERTEX
  5
48
330
3C
100
AcDbEntity
  8
0
100
AcDbVertex
100
AcDbPolyFaceMeshVertex
 10
9.0
 20
-327.5180053710938
 30
8.074999809265137
 70
   192
  0
VERTEX
  5
49
330
3C
100
AcDbEntity
  8
0
100
AcDbVertex
100
AcDbPolyFaceMeshVertex
 10
20.95100021362305
 20
-322.114990234375
 30
5.473000049591064
 70
   192
  0
VERTEX
  5
4A
330
3C
100
AcDbEntity
  8
0
100
AcDbVertex
100
AcDbPolyFaceMeshVertex
 10
9.0
 20
-329.3609924316406
 30
0.0
 70
   192
  0
VERTEX
  5
4B
330
3C
100
AcDbEntity
  8
0
100
AcDbVertex
100
AcDbPolyFaceMeshVertex
 10
20.95100021362305
 20
-323.364013671875
 30
0.0
 70
   192
  0
VERTEX
  5
4C
330
3C
100
AcDbEntity
  8
0
100
AcDbVertex
100
AcDbPolyFaceMeshVertex
 10
9.0
 20
-327.5180053710938
 30
-8.074999809265137
 70
   192
  0
VERTEX
  5
4D
330
3C
100
AcDbEntity
  8
0
100
AcDbVertex
100
AcDbPolyFaceMeshVertex
 10
20.95100021362305
 20
-322.114990234375
 30
-5.473000049591064
 70
   192
  0
VERTEX
  5
4E
330
3C
100
AcDbEntity
  8
0
100
AcDbVertex
100
AcDbPolyFaceMeshVertex
 10
9.0
 20
-322.35400390625
 30
-14.55099964141846
 70
   192
  0
VERTEX
  5
4F
330
3C
100
AcDbEntity
  8
0
100
AcDbVertex
100
AcDbPolyFaceMeshVertex
 10
20.95100021362305
 20
-318.614990234375
 30
-9.862000465393066
 70
   192
  0
VERTEX
  5
50
330
3C
100
AcDbEntity
  8
0
100
AcDbVertex
100
AcDbPolyFaceMeshVertex
 10
9.0
 20
-314.8909912109375
 30
-18.14500045776367
 70
   192
  0
VERTEX
  5
51
330
3C
100
AcDbEntity
  8
0
100
AcDbVertex
100
AcDbPolyFaceMeshVertex
 10
20.95100021362305
 20
-313.5570068359375
 30
-12.29800033569336
 70
   192
  0
VERTEX
  5
52
330
3C
100
AcDbEntity
  8
0
100
AcDbVertex
100
AcDbPolyFaceMeshVertex
 10
9.0
 20
-306.6090087890625
 30
-18.14500045776367
 70
   192
  0
VERTEX
  5
53
330
3C
100
AcDbEntity
  8
0
100
AcDbVertex
100
AcDbPolyFaceMeshVertex
 10
20.95100021362305
 20
-307.9429931640625
 30
-12.29800033569336
 70
   192
  0
VERTEX
  5
54
330
3C
100
AcDbEntity
  8
0
100
AcDbVertex
100
AcDbPolyFaceMeshVertex
 10
9.0
 20
-299.14599609375
 30
-14.55099964141846
 70
   192
  0
VERTEX
  5
55
330
3C
100
AcDbEntity
  8
0
100
AcDbVertex
100
AcDbPolyFaceMeshVertex
 10
20.95100021362305
 20
-302.885009765625
 30
-9.862000465393066
 70
   192
  0
VERTEX
  5
56
330
3C
100
AcDbEntity
  8
0
100
AcDbVertex
100
AcDbPolyFaceMeshVertex
 10
9.0
 20
-293.9819946289062
 30
-8.074999809265137
 70
   192
  0
VERTEX
  5
57
330
3C
100
AcDbEntity
  8
0
100
AcDbVertex
100
AcDbPolyFaceMeshVertex
 10
20.95100021362305
 20
-299.385009765625
 30
-5.473000049591064
 70
   192
  0
VERTEX
  5
58
330
3C
100
AcDbEntity
  8
0
100
AcDbVertex
100
AcDbPolyFaceMeshVertex
 10
9.0
 20
-292.1390075683594
 30
0.0
 70
   192
  0
VERTEX
  5
59
330
3C
100
AcDbEntity
  8
0
100
AcDbVertex
100
AcDbPolyFaceMeshVertex
 10
34.0629997253418
 20
-301.7420043945312
 30
4.337999820709229
 70
   192
  0
VERTEX
  5
5A
330
3C
100
AcDbEntity
  8
0
100
AcDbVertex
100
AcDbPolyFaceMeshVertex
 10
34.0629997253418
 20
-304.5159912109375
 30
7.816999912261963
 70
   192
  0
VERTEX
  5
5B
330
3C
100
AcDbEntity
  8
0
100
AcDbVertex
100
AcDbPolyFaceMeshVertex
 10
34.0629997253418
 20
-308.5249938964844
 30
9.748000144958496
 70
   192
  0
VERTEX
  5
5C
330
3C
100
AcDbEntity
  8
0
100
AcDbVertex
100
AcDbPolyFaceMeshVertex
 10
34.0629997253418
 20
-312.9750061035156
 30
9.748000144958496
 70
   192
  0
VERTEX
  5
5D
330
3C
100
AcDbEntity
  8
0
100
AcDbVertex
100
AcDbPolyFaceMeshVertex
 10
34.0629997253418
 20
-316.9840087890625
 30
7.816999912261963
 70
   192
  0
VERTEX
  5
5E
330
3C
100
AcDbEntity
  8
0
100
AcDbVertex
100
AcDbPolyFaceMeshVertex
 10
34.0629997253418
 20
-319.7579956054688
 30
4.337999820709229
 70
   192
  0
VERTEX
  5
5F
330
3C
100
AcDbEntity
  8
0
100
AcDbVertex
100
AcDbPolyFaceMeshVertex
 10
34.0629997253418
 20
-320.7479858398438
 30
0.0
 70
   192
  0
VERTEX
  5
60
330
3C
100
AcDbEntity
  8
0
100
AcDbVertex
100
AcDbPolyFaceMeshVertex
 10
34.0629997253418
 20
-319.7579956054688
 30
-4.337999820709229
 70
   192
  0
VERTEX
  5
61
330
3C
100
AcDbEntity
  8
0
100
AcDbVertex
100
AcDbPolyFaceMeshVertex
 10
34.0629997253418
 20
-316.9840087890625
 30
-7.816999912261963
 70
   192
  0
VERTEX
  5
62
330
3C
100
AcDbEntity
  8
0
100
AcDbVertex
100
AcDbPolyFaceMeshVertex
 10
34.0629997253418
 20
-312.9750061035156
 30
-9.748000144958496
 70
   192
  0
VERTEX
  5
63
330
3C
100
AcDbEntity
  8
0
100
AcDbVertex
100
AcDbPolyFaceMeshVertex
 10
34.0629997253418
 20
-308.5249938964844
 30
-9.748000144958496
 70
   192
  0
VERTEX
  5
64
330
3C
100
AcDbEntity
  8
0
100
AcDbVertex
100
AcDbPolyFaceMeshVertex
 10
34.0629997253418
 20
-304.5159912109375
 30
-7.816999912261963
 70
   192
  0
VERTEX
  5
65
330
3C
100
AcDbEntity
  8
0
100
AcDbVertex
100
AcDbPolyFaceMeshVertex
 10
34.0629997253418
 20
-301.7420043945312
 30
-4.337999820709229
 70
   192
  0
VERTEX
  5
66
330
3C
100
AcDbEntity
  8
0
100
AcDbVertex
100
AcDbPolyFaceMeshVertex
 10
34.0629997253418
 20
-300.7520141601562
 30
0.0
 70
   192
  0
VERTEX
  5
67
330
3C
100
AcDbEntity
  8
0
100
AcDbVertex
100
AcDbPolyFaceMeshVertex
 10
47.40000152587891
 20
-300.8829956054688
 30
4.751999855041504
 70
   192
  0
VERTEX
  5
68
330
3C
100
AcDbEntity
  8
0
100
AcDbVertex
100
AcDbPolyFaceMeshVertex
 10
47.40000152587891
 20
-299.7990112304688
 30
0.0
 70
   192
  0
VERTEX
  5
69
330
3C
100
AcDbEntity
  8
0
100
AcDbVertex
100
AcDbPolyFaceMeshVertex
 10
47.40000152587891
 20
-303.9219970703125
 30
8.562000274658203
 70
   192
  0
VERTEX
  5
6A
330
3C
100
AcDbEntity
  8
0
100
AcDbVertex
100
AcDbPolyFaceMeshVertex
 10
47.40000152587891
 20
-308.31298828125
 30
10.67700004577637
 70
   192
  0
VERTEX
  5
6B
330
3C
100
AcDbEntity
  8
0
100
AcDbVertex
100
AcDbPolyFaceMeshVertex
 10
47.40000152587891
 20
-313.18701171875
 30
10.67700004577637
 70
   192
  0
VERTEX
  5
6C
330
3C
100
AcDbEntity
  8
0
100
AcDbVertex
100
AcDbPolyFaceMeshVertex
 10
47.40000152587891
 20
-317.5780029296875
 30
8.562000274658203
 70
   192
  0
VERTEX
  5
6D
330
3C
100
AcDbEntity
  8
0
100
AcDbVertex
100
AcDbPolyFaceMeshVertex
 10
47.40000152587891
 20
-320.6170043945312
 30
4.751999855041504
 70
   192
  0
VERTEX
  5
6E
330
3C
100
AcDbEntity
  8
0
100
AcDbVertex
100
AcDbPolyFaceMeshVertex
 10
47.40000152587891
 20
-321.7009887695312
 30
0.0
 70
   192
  0
VERTEX
  5
6F
330
3C
100
AcDbEntity
  8
0
100
AcDbVertex
100
AcDbPolyFaceMeshVertex
 10
47.40000152587891
 20
-320.6170043945312
 30
-4.751999855041504
 70
   192
  0
VERTEX
  5
70
330
3C
100
AcDbEntity
  8
0
100
AcDbVertex
100
AcDbPolyFaceMeshVertex
 10
47.40000152587891
 20
-317.5780029296875
 30
-8.562000274658203
 70
   192
  0
VERTEX
  5
71
330
3C
100
AcDbEntity
  8
0
100
AcDbVertex
100
AcDbPolyFaceMeshVertex
 10
47.40000152587891
 20
-313.18701171875
 30
-10.67700004577637
 70
   192
  0
VERTEX
  5
72
330
3C
100
AcDbEntity
  8
0
100
AcDbVertex
100
AcDbPolyFaceMeshVertex
 10
47.40000152587891
 20
-308.31298828125
 30
-10.67700004577637
 70
   192
  0
VERTEX
  5
73
330
3C
100
AcDbEntity
  8
0
100
AcDbVertex
100
AcDbPolyFaceMeshVertex
 10
47.40000152587891
 20
-300.8829956054688
 30
-4.751999855041504
 70
   192
  0
VERTEX
  5
74
330
3C
100
AcDbEntity
  8
0
100
AcDbVertex
100
AcDbPolyFaceMeshVertex
 10
47.40000152587891
 20
-303.9219970703125
 30
-8.562000274658203
 70
   192
  0
VERTEX
  5
75
330
3C
100
AcDbEntity
  8
0
 62
     9
420
 12632256
100
AcDbFaceRecord
 10
0.0
 20
0.0
 30
0.0
 70
   128
 71
     3
 72
     2
 73
     1
  0
VERTEX
  5
76
330
3C
100
AcDbEntity
  8
0
 62
     9
420
 12632256
100
AcDbFaceRecord
 10
0.0
 20
0.0
 30
0.0
 70
   128
 71
     5
 72
     4
 73
     1
  0
VERTEX
  5
77
330
3C
100
AcDbEntity
  8
0
 62
     9
420
 12632256
100
AcDbFaceRecord
 10
0.0
 20
0.0
 30
0.0
 70
   128
 71
     7
 72
     6
 73
     4
  0
VERTEX
  5
78
330
3C
100
AcDbEntity
  8
0
 62
     9
420
 12632256
100
AcDbFaceRecord
 10
0.0
 20
0.0
 30
0.0
 70
   128
 71
     9
 72
     8
 73
     6
  0
VERTEX
  5
79
330
3C
100
AcDbEntity
  8
0
 62
     9
420
 12632256
100
AcDbFaceRecord
 10
0.0
 20
0.0
 30
0.0
 70
   128
 71
    11
 72
    10
 73
     8
  0
VERTEX
  5
7A
330
3C
100
AcDbEntity
  8
0
 62
     9
420
 12632256
100
AcDbFaceRecord
 10
0.0
 20
0.0
 30
0.0
 70
   128
 71
    11
 72
    13
 73
    12
  0
VERTEX
  5
7B
330
3C
100
AcDbEntity
  8
0
 62
     9
420
 12632256
100
AcDbFaceRecord
 10
0.0
 20
0.0
 30
0.0
 70
   128
 71
    15
 72
    14
 73
    12
  0
VERTEX
  5
7C
330
3C
100
AcDbEntity
  8
0
 62
     9
420
 12632256
100
AcDbFaceRecord
 10
0.0
 20
0.0
 30
0.0
 70
   128
 71
    15
 72
    17
 73
    16
  0
VERTEX
  5
7D
330
3C
100
AcDbEntity
  8
0
 62
     9
420
 12632256
100
AcDbFaceRecord
 10
0.0
 20
0.0
 30
0.0
 70
   128
 71
    19
 72
    18
 73
    16
  0
VERTEX
  5
7E
330
3C
100
AcDbEntity
  8
0
 62
     9
420
 12632256
100
AcDbFaceRecord
 10
0.0
 20
0.0
 30
0.0
 70
   128
 71
    19
 72
    21
 73
    20
  0
VERTEX
  5
7F
330
3C
100
AcDbEntity
  8
0
 62
     9
420
 12632256
100
AcDbFaceRecord
 10
0.0
 20
0.0
 30
0.0
 70
   128
 71
    21
 72
    23
 73
    22
  0
VERTEX
  5
80
330
3C
100
AcDbEntity
  8
0
 62
     9
420
 12632256
100
AcDbFaceRecord
 10
0.0
 20
0.0
 30
0.0
 70
   128
 71
    23
 72
    25
 73
    24
  0
VERTEX
  5
81
330
3C
100
AcDbEntity
  8
0
 62
     9
420
 12632256
100
AcDbFaceRecord
 10
0.0
 20
0.0
 30
0.0
 70
   128
 71
    25
 72
    27
 73
    26
  0
VERTEX
  5
82
330
3C
100
AcDbEntity
  8
0
 62
     9
420
 12632256
100
AcDbFaceRecord
 10
0.0
 20
0.0
 30
0.0
 70
   128
 71
     3
 72
    28
 73
    26
  0
VERTEX
  5
83
330
3C
100
AcDbEntity
  8
0
 62
     9
420
 12632256
100
AcDbFaceRecord
 10
0.0
 20
0.0
 30
0.0
 70
   128
 71
    29
 72
     2
 73
     3
  0
VERTEX
  5
84
330
3C
100
AcDbEntity
  8
0
 62
     9
420
 12632256
100
AcDbFaceRecord
 10
0.0
 20
0.0
 30
0.0
 70
   128
 71
    30
 72
     5
 73
     2
  0
VERTEX
  5
85
330
3C
100
AcDbEntity
  8
0
 62
     9
420
 12632256
100
AcDbFaceRecord
 10
0.0
 20
0.0
 30
0.0
 70
   128
 71
    31
 72
     7
 73
     5
  0
VERTEX
  5
86
330
3C
100
AcDbEntity
  8
0
 62
     9
420
 12632256
100
AcDbFaceRecord
 10
0.0
 20
0.0
 30
0.0
 70
   128
 71
    32
 72
     9
 73
     7
  0
VERTEX
  5
87
330
3C
100
AcDbEntity
  8
0
 62
     9
420
 12632256
100
AcDbFaceRecord
 10
0.0
 20
0.0
 30
0.0
 70
   128
 71
    33
 72
    11
 73
     9
  0
VERTEX
  5
88
330
3C
100
AcDbEntity
  8
0
 62
     9
420
 12632256
100
AcDbFaceRecord
 10
0.0
 20
0.0
 30
0.0
 70
   128
 71
    34
 72
    13
 73
    11
  0
VERTEX
  5
89
330
3C
100
AcDbEntity
  8
0
 62
     9
420
 12632256
100
AcDbFaceRecord
 10
0.0
 20
0.0
 30
0.0
 70
   128
 71
    35
 72
    15
 73
    13
  0
VERTEX
  5
8A
330
3C
100
AcDbEntity
  8
0
 62
     9
420
 12632256
100
AcDbFaceRecord
 10
0.0
 20
0.0
 30
0.0
 70
   128
 71
    36
 72
    17
 73
    15
  0
VERTEX
  5
8B
330
3C
100
AcDbEntity
  8
0
 62
     9
420
 12632256
100
AcDbFaceRecord
 10
0.0
 20
0.0
 30
0.0
 70
   128
 71
    37
 72
    19
 73
    17
  0
VERTEX
  5
8C
330
3C
100
AcDbEntity
  8
0
 62
     9
420
 12632256
100
AcDbFaceRecord
 10
0.0
 20
0.0
 30
0.0
 70
   128
 71
    38
 72
    21
 73
    19
  0
VERTEX
  5
8D
330
3C
100
AcDbEntity
  8
0
 62
     9
420
 12632256
100
AcDbFaceRecord
 10
0.0
 20
0.0
 30
0.0
 70
   128
 71
    39
 72
    23
 73
    21
  0
VERTEX
  5
8E
330
3C
100
AcDbEntity
  8
0
 62
     9
420
 12632256
100
AcDbFaceRecord
 10
0.0
 20
0.0
 30
0.0
 70
   128
 71
    40
 72
    25
 73
    23
  0
VERTEX
  5
8F
330
3C
100
AcDbEntity
  8
0
 62
     9
420
 12632256
100
AcDbFaceRecord
 10
0.0
 20
0.0
 30
0.0
 70
   128
 71
    41
 72
    27
 73
    25
  0
VERTEX
  5
90
330
3C
100
AcDbEntity
  8
0
 62
     9
420
 12632256
100
AcDbFaceRecord
 10
0.0
 20
0.0
 30
0.0
 70
   128
 71
    42
 72
     3
 73
    27
  0
VERTEX
  5
91
330
3C
100
AcDbEntity
  8
0
 62
     9
420
 12632256
100
AcDbFaceRecord
 10
0.0
 20
0.0
 30
0.0
 70
   128
 71
    42
 72
    44
 73
    43
  0
VERTEX
  5
92
330
3C
100
AcDbEntity
  8
0
 62
     9
420
 12632256
100
AcDbFaceRecord
 10
0.0
 20
0.0
 30
0.0
 70
   128
 71
    29
 72
    43
 73
    45
  0
VERTEX
  5
93
330
3C
100
AcDbEntity
  8
0
 62
     9
420
 12632256
100
AcDbFaceRecord
 10
0.0
 20
0.0
 30
0.0
 70
   128
 71
    30
 72
    45
 73
    46
  0
VERTEX
  5
94
330
3C
100
AcDbEntity
  8
0
 62
     9
420
 12632256
100
AcDbFaceRecord
 10
0.0
 20
0.0
 30
0.0
 70
   128
 71
    31
 72
    46
 73
    47
  0
VERTEX
  5
95
330
3C
100
AcDbEntity
  8
0
 62
     9
420
 12632256
100
AcDbFaceRecord
 10
0.0
 20
0.0
 30
0.0
 70
   128
 71
    32
 72
    47
 73
    48
  0
VERTEX
  5
96
330
3C
100
AcDbEntity
  8
0
 62
     9
420
 12632256
100
AcDbFaceRecord
 10
0.0
 20
0.0
 30
0.0
 70
   128
 71
    33
 72
    48
 73
    49
  0
VERTEX
  5
97
330
3C
100
AcDbEntity
  8
0
 62
     9
420
 12632256
100
AcDbFaceRecord
 10
0.0
 20
0.0
 30
0.0
 70
   128
 71
    34
 72
    49
 73
    50
  0
VERTEX
  5
98
330
3C
100
AcDbEntity
  8
0
 62
     9
420
 12632256
100
AcDbFaceRecord
 10
0.0
 20
0.0
 30
0.0
 70
   128
 71
    36
 72
    35
 73
    50
  0
VERTEX
  5
99
330
3C
100
AcDbEntity
  8
0
 62
     9
420
 12632256
100
AcDbFaceRecord
 10
0.0
 20
0.0
 30
0.0
 70
   128
 71
    37
 72
    36
 73
    51
  0
VERTEX
  5
9A
330
3C
100
AcDbEntity
  8
0
 62
     9
420
 12632256
100
AcDbFaceRecord
 10
0.0
 20
0.0
 30
0.0
 70
   128
 71
    38
 72
    37
 73
    52
  0
VERTEX
  5
9B
330
3C
100
AcDbEntity
  8
0
 62
     9
420
 12632256
100
AcDbFaceRecord
 10
0.0
 20
0.0
 30
0.0
 70
   128
 71
    39
 72
    38
 73
    53
  0
VERTEX
  5
9C
330
3C
100
AcDbEntity
  8
0
 62
     9
420
 12632256
100
AcDbFaceRecord
 10
0.0
 20
0.0
 30
0.0
 70
   128
 71
    40
 72
    39
 73
    54
  0
VERTEX
  5
9D
330
3C
100
AcDbEntity
  8
0
 62
     9
420
 12632256
100
AcDbFaceRecord
 10
0.0
 20
0.0
 30
0.0
 70
   128
 71
    40
 72
    56
 73
    55
  0
VERTEX
  5
9E
330
3C
100
AcDbEntity
  8
0
 62
     9
420
 12632256
100
AcDbFaceRecord
 10
0.0
 20
0.0
 30
0.0
 70
   128
 71
    42
 72
    41
 73
    55
  0
VERTEX
  5
9F
330
3C
100
AcDbEntity
  8
0
 62
     9
420
 12632256
100
AcDbFaceRecord
 10
0.0
 20
0.0
 30
0.0
 70
   128
 71
    55
 72
    44
 73
    42
  0
VERTEX
  5
A0
330
3C
100
AcDbEntity
  8
0
 62
     9
420
 12632256
100
AcDbFaceRecord
 10
0.0
 20
0.0
 30
0.0
 70
   128
 71
    55
 72
    41
 73
    40
  0
VERTEX
  5
A1
330
3C
100
AcDbEntity
  8
0
 62
     9
420
 12632256
100
AcDbFaceRecord
 10
0.0
 20
0.0
 30
0.0
 70
   128
 71
    54
 72
    56
 73
    40
  0
VERTEX
  5
A2
330
3C
100
AcDbEntity
  8
0
 62
     9
420
 12632256
100
AcDbFaceRecord
 10
0.0
 20
0.0
 30
0.0
 70
   128
 71
    53
 72
    54
 73
    39
  0
VERTEX
  5
A3
330
3C
100
AcDbEntity
  8
0
 62
     9
420
 12632256
100
AcDbFaceRecord
 10
0.0
 20
0.0
 30
0.0
 70
   128
 71
    52
 72
    53
 73
    38
  0
VERTEX
  5
A4
330
3C
100
AcDbEntity
  8
0
 62
     9
420
 12632256
100
AcDbFaceRecord
 10
0.0
 20
0.0
 30
0.0
 70
   128
 71
    51
 72
    52
 73
    37
  0
VERTEX
  5
A5
330
3C
100
AcDbEntity
  8
0
 62
     9
420
 12632256
100
AcDbFaceRecord
 10
0.0
 20
0.0
 30
0.0
 70
   128
 71
    50
 72
    51
 73
    36
  0
VERTEX
  5
A6
330
3C
100
AcDbEntity
  8
0
 62
     9
420
 12632256
100
AcDbFaceRecord
 10
0.0
 20
0.0
 30
0.0
 70
   128
 71
    50
 72
    35
 73
    34
  0
VERTEX
  5
A7
330
3C
100
AcDbEntity
  8
0
 62
     9
420
 12632256
100
AcDbFaceRecord
 10
0.0
 20
0.0
 30
0.0
 70
   128
 71
    49
 72
    34
 73
    33
  0
VERTEX
  5
A8
330
3C
100
AcDbEntity
  8
0
 62
     9
420
 12632256
100
AcDbFaceRecord
 10
0.0
 20
0.0
 30
0.0
 70
   128
 71
    48
 72
    33
 73
    32
  0
VERTEX
  5
A9
330
3C
100
AcDbEntity
  8
0
 62
     9
420
 12632256
100
AcDbFaceRecord
 10
0.0
 20
0.0
 30
0.0
 70
   128
 71
    47
 72
    32
 73
    31
  0
VERTEX
  5
AA
330
3C
100
AcDbEntity
  8
0
 62
     9
420
 12632256
100
AcDbFaceRecord
 10
0.0
 20
0.0
 30
0.0
 70
   128
 71
    46
 72
    31
 73
    30
  0
VERTEX
  5
AB
330
3C
100
AcDbEntity
  8
0
 62
     9
420
 12632256
100
AcDbFaceRecord
 10
0.0
 20
0.0
 30
0.0
 70
   128
 71
    45
 72
    30
 73
    29
  0
VERTEX
  5
AC
330
3C
100
AcDbEntity
  8
0
 62
     9
420
 12632256
100
AcDbFaceRecord
 10
0.0
 20
0.0
 30
0.0
 70
   128
 71
    43
 72
    29
 73
    42
  0
VERTEX
  5
AD
330
3C
100
AcDbEntity
  8
0
 62
     9
420
 12632256
100
AcDbFaceRecord
 10
0.0
 20
0.0
 30
0.0
 70
   128
 71
    27
 72
    41
 73
    42
  0
VERTEX
  5
AE
330
3C
100
AcDbEntity
  8
0
 62
     9
420
 12632256
100
AcDbFaceRecord
 10
0.0
 20
0.0
 30
0.0
 70
   128
 71
    25
 72
    40
 73
    41
  0
VERTEX
  5
AF
330
3C
100
AcDbEntity
  8
0
 62
     9
420
 12632256
100
AcDbFaceRecord
 10
0.0
 20
0.0
 30
0.0
 70
   128
 71
    23
 72
    39
 73
    40
  0
VERTEX
  5
B0
330
3C
100
AcDbEntity
  8
0
 62
     9
420
 12632256
100
AcDbFaceRecord
 10
0.0
 20
0.0
 30
0.0
 70
   128
 71
    21
 72
    38
 73
    39
  0
VERTEX
  5
B1
330
3C
100
AcDbEntity
  8
0
 62
     9
420
 12632256
100
AcDbFaceRecord
 10
0.0
 20
0.0
 30
0.0
 70
   128
 71
    19
 72
    37
 73
    38
  0
VERTEX
  5
B2
330
3C
100
AcDbEntity
  8
0
 62
     9
420
 12632256
100
AcDbFaceRecord
 10
0.0
 20
0.0
 30
0.0
 70
   128
 71
    17
 72
    36
 73
    37
  0
VERTEX
  5
B3
330
3C
100
AcDbEntity
  8
0
 62
     9
420
 12632256
100
AcDbFaceRecord
 10
0.0
 20
0.0
 30
0.0
 70
   128
 71
    15
 72
    35
 73
    36
  0
VERTEX
  5
B4
330
3C
100
AcDbEntity
  8
0
 62
     9
420
 12632256
100
AcDbFaceRecord
 10
0.0
 20
0.0
 30
0.0
 70
   128
 71
    13
 72
    34
 73
    35
  0
VERTEX
  5
B5
330
3C
100
AcDbEntity
  8
0
 62
     9
420
 12632256
100
AcDbFaceRecord
 10
0.0
 20
0.0
 30
0.0
 70
   128
 71
    11
 72
    33
 73
    34
  0
VERTEX
  5
B6
330
3C
100
AcDbEntity
  8
0
 62
     9
420
 12632256
100
AcDbFaceRecord
 10
0.0
 20
0.0
 30
0.0
 70
   128
 71
     9
 72
    32
 73
    33
  0
VERTEX
  5
B7
330
3C
100
AcDbEntity
  8
0
 62
     9
420
 12632256
100
AcDbFaceRecord
 10
0.0
 20
0.0
 30
0.0
 70
   128
 71
     7
 72
    31
 73
    32
  0
VERTEX
  5
B8
330
3C
100
AcDbEntity
  8
0
 62
     9
420
 12632256
100
AcDbFaceRecord
 10
0.0
 20
0.0
 30
0.0
 70
   128
 71
     5
 72
    30
 73
    31
  0
VERTEX
  5
B9
330
3C
100
AcDbEntity
  8
0
 62
     9
420
 12632256
100
AcDbFaceRecord
 10
0.0
 20
0.0
 30
0.0
 70
   128
 71
     2
 72
    29
 73
    30
  0
VERTEX
  5
BA
330
3C
100
AcDbEntity
  8
0
 62
     9
420
 12632256
100
AcDbFaceRecord
 10
0.0
 20
0.0
 30
0.0
 70
   128
 71
     3
 72
    42
 73
    29
  0
VERTEX
  5
BB
330
3C
100
AcDbEntity
  8
0
 62
     9
420
 12632256
100
AcDbFaceRecord
 10
0.0
 20
0.0
 30
0.0
 70
   128
 71
    26
 72
    27
 73
     3
  0
VERTEX
  5
BC
330
3C
100
AcDbEntity
  8
0
 62
     9
420
 12632256
100
AcDbFaceRecord
 10
0.0
 20
0.0
 30
0.0
 70
   128
 71
    26
 72
    24
 73
    25
  0
VERTEX
  5
BD
330
3C
100
AcDbEntity
  8
0
 62
     9
420
 12632256
100
AcDbFaceRecord
 10
0.0
 20
0.0
 30
0.0
 70
   128
 71
    24
 72
    22
 73
    23
  0
VERTEX
  5
BE
330
3C
100
AcDbEntity
  8
0
 62
     9
420
 12632256
100
AcDbFaceRecord
 10
0.0
 20
0.0
 30
0.0
 70
   128
 71
    22
 72
    20
 73
    21
  0
VERTEX
  5
BF
330
3C
100
AcDbEntity
  8
0
 62
     9
420
 12632256
100
AcDbFaceRecord
 10
0.0
 20
0.0
 30
0.0
 70
   128
 71
    20
 72
    18
 73
    19
  0
VERTEX
  5
C0
330
3C
100
AcDbEntity
  8
0
 62
     9
420
 12632256
100
AcDbFaceRecord
 10
0.0
 20
0.0
 30
0.0
 70
   128
 71
    16
 72
    17
 73
    19
  0
VERTEX
  5
C1
330
3C
100
AcDbEntity
  8
0
 62
     9
420
 12632256
100
AcDbFaceRecord
 10
0.0
 20
0.0
 30
0.0
 70
   128
 71
    16
 72
    14
 73
    15
  0
VERTEX
  5
C2
330
3C
100
AcDbEntity
  8
0
 62
     9
420
 12632256
100
AcDbFaceRecord
 10
0.0
 20
0.0
 30
0.0
 70
   128
 71
    12
 72
    13
 73
    15
  0
VERTEX
  5
C3
330
3C
100
AcDbEntity
  8
0
 62
     9
420
 12632256
100
AcDbFaceRecord
 10
0.0
 20
0.0
 30
0.0
 70
   128
 71
    12
 72
    10
 73
    11
  0
VERTEX
  5
C4
330
3C
100
AcDbEntity
  8
0
 62
     9
420
 12632256
100
AcDbFaceRecord
 10
0.0
 20
0.0
 30
0.0
 70
   128
 71
     8
 72
     9
 73
    11
  0
VERTEX
  5
C5
330
3C
100
AcDbEntity
  8
0
 62
     9
420
 12632256
100
AcDbFaceRecord
 10
0.0
 20
0.0
 30
0.0
 70
   128
 71
     6
 72
     7
 73
     9
  0
VERTEX
  5
C6
330
3C
100
AcDbEntity
  8
0
 62
     9
420
 12632256
100
AcDbFaceRecord
 10
0.0
 20
0.0
 30
0.0
 70
   128
 71
     4
 72
     5
 73
     7
  0
VERTEX
  5
C7
330
3C
100
AcDbEntity
  8
0
 62
     9
420
 12632256
100
AcDbFaceRecord
 10
0.0
 20
0.0
 30
0.0
 70
   128
 71
     1
 72
     2
 73
     5
  0
VERTEX
  5
C8
330
3C
100
AcDbEntity
  8
0
 62
     9
420
 12632256
100
AcDbFaceRecord
 10
0.0
 20
0.0
 30
0.0
 70
   128
 71
     1
 72
    28
 73
     3
  0
SEQEND
  5
C9
330
3C
100
AcDbEntity
  8
0
 62
     9
420
 12632256
  0
ENDBLK
  5
CD
330
3B
100
AcDbEntity
  8
0
100
AcDbBlockEnd
  0
BLOCK
  5
EC
330
CE
100
AcDbEntity
  8
0
100
AcDbBlockBegin
  2
e3_node(1)
 70
     0
 10
0.0
 20
0.0
 30
0.0
  3
e3_node(1)
  1

  0
POLYLINE
  5
CF
330
CE
100
AcDbEntity
  8
0
 62
     9
420
 12632256
100
AcDbPolyFaceMesh
 66
     1
 10
0.0
 20
0.0
 30
0.0
 70
    64
 71
    14
 72
    12
  0
VERTEX
  5
D0
330
CF
100
AcDbEntity
  8
0
100
AcDbVertex
100
AcDbPolyFaceMeshVertex
 10
47.40000152587891
 20
-313.18701171875
 30
10.67700004577637
 70
   192
  0
VERTEX
  5
D1
330
CF
100
AcDbEntity
  8
0
100
AcDbVertex
100
AcDbPolyFaceMeshVertex
 10
47.40000152587891
 20
-320.6170043945312
 30
4.751999855041504
 70
   192
  0
VERTEX
  5
D2
330
CF
100
AcDbEntity
  8
0
100
AcDbVertex
100
AcDbPolyFaceMeshVertex
 10
47.40000152587891
 20
-321.7009887695312
 30
0.0
 70
   192
  0
VERTEX
  5
D3
330
CF
100
AcDbEntity
  8
0
100
AcDbVertex
100
AcDbPolyFaceMeshVertex
 10
47.40000152587891
 20
-320.6170043945312
 30
-4.751999855041504
 70
   192
  0
VERTEX
  5
D4
330
CF
100
AcDbEntity
  8
0
100
AcDbVertex
100
AcDbPolyFaceMeshVertex
 10
47.40000152587891
 20
-300.8829956054688
 30
4.751999855041504
 70
   192
  0
VERTEX
  5
D5
330
CF
100
AcDbEntity
  8
0
100
AcDbVertex
100
AcDbPolyFaceMeshVertex
 10
47.40000152587891
 20
-303.9219970703125
 30
8.562000274658203
 70
   192
  0
VERTEX
  5
D6
330
CF
100
AcDbEntity
  8
0
100
AcDbVertex
100
AcDbPolyFaceMeshVertex
 10
47.40000152587891
 20
-308.31298828125
 30
-10.67700004577637
 70
   192
  0
VERTEX
  5
D7
330
CF
100
AcDbEntity
  8
0
100
AcDbVertex
100
AcDbPolyFaceMeshVertex
 10
47.40000152587891
 20
-300.8829956054688
 30
-4.751999855041504
 70
   192
  0
VERTEX
  5
D8
330
CF
100
AcDbEntity
  8
0
100
AcDbVertex
100
AcDbPolyFaceMeshVertex
 10
47.40000152587891
 20
-299.7990112304688
 30
0.0
 70
   192
  0
VERTEX
  5
D9
330
CF
100
AcDbEntity
  8
0
100
AcDbVertex
100
AcDbPolyFaceMeshVertex
 10
47.40000152587891
 20
-317.5780029296875
 30
-8.562000274658203
 70
   192
  0
VERTEX
  5
DA
330
CF
100
AcDbEntity
  8
0
100
AcDbVertex
100
AcDbPolyFaceMeshVertex
 10
47.40000152587891
 20
-317.5780029296875
 30
8.562000274658203
 70
   192
  0
VERTEX
  5
DB
330
CF
100
AcDbEntity
  8
0
100
AcDbVertex
100
AcDbPolyFaceMeshVertex
 10
47.40000152587891
 20
-308.31298828125
 30
10.67700004577637
 70
   192
  0
VERTEX
  5
DC
330
CF
100
AcDbEntity
  8
0
100
AcDbVertex
100
AcDbPolyFaceMeshVertex
 10
47.40000152587891
 20
-303.9219970703125
 30
-8.562000274658203
 70
   192
  0
VERTEX
  5
DD
330
CF
100
AcDbEntity
  8
0
100
AcDbVertex
100
AcDbPolyFaceMeshVertex
 10
47.40000152587891
 20
-313.18701171875
 30
-10.67700004577637
 70
   192
  0
VERTEX
  5
DE
330
CF
100
AcDbEntity
  8
0
 62
     9
420
 12632256
100
AcDbFaceRecord
 10
0.0
 20
0.0
 30
0.0
 70
   128
 71
     3
 72
     2
 73
     1
  0
VERTEX
  5
DF
330
CF
100
AcDbEntity
  8
0
 62
     9
420
 12632256
100
AcDbFaceRecord
 10
0.0
 20
0.0
 30
0.0
 70
   128
 71
     6
 72
     5
 73
     4
  0
VERTEX
  5
E0
330
CF
100
AcDbEntity
  8
0
 62
     9
420
 12632256
100
AcDbFaceRecord
 10
0.0
 20
0.0
 30
0.0
 70
   128
 71
     9
 72
     8
 73
     7
  0
VERTEX
  5
E1
330
CF
100
AcDbEntity
  8
0
 62
     9
420
 12632256
100
AcDbFaceRecord
 10
0.0
 20
0.0
 30
0.0
 70
   128
 71
    10
 72
     4
 73
     5
  0
VERTEX
  5
E2
330
CF
100
AcDbEntity
  8
0
 62
     9
420
 12632256
100
AcDbFaceRecord
 10
0.0
 20
0.0
 30
0.0
 70
   128
 71
     2
 72
    11
 73
     1
  0
VERTEX
  5
E3
330
CF
100
AcDbEntity
  8
0
 62
     9
420
 12632256
100
AcDbFaceRecord
 10
0.0
 20
0.0
 30
0.0
 70
   128
 71
     4
 72
    12
 73
     6
  0
VERTEX
  5
E4
330
CF
100
AcDbEntity
  8
0
 62
     9
420
 12632256
100
AcDbFaceRecord
 10
0.0
 20
0.0
 30
0.0
 70
   128
 71
     8
 72
    13
 73
     7
  0
VERTEX
  5
E5
330
CF
100
AcDbEntity
  8
0
 62
     9
420
 12632256
100
AcDbFaceRecord
 10
0.0
 20
0.0
 30
0.0
 70
   128
 71
     5
 72
    14
 73
    10
  0
VERTEX
  5
E6
330
CF
100
AcDbEntity
  8
0
 62
     9
420
 12632256
100
AcDbFaceRecord
 10
0.0
 20
0.0
 30
0.0
 70
   128
 71
     4
 72
     1
 73
    12
  0
VERTEX
  5
E7
330
CF
100
AcDbEntity
  8
0
 62
     9
420
 12632256
100
AcDbFaceRecord
 10
0.0
 20
0.0
 30
0.0
 70
   128
 71
     5
 72
     7
 73
    14
  0
VERTEX
  5
E8
330
CF
100
AcDbEntity
  8
0
 62
     9
420
 12632256
100
AcDbFaceRecord
 10
0.0
 20
0.0
 30
0.0
 70
   128
 71
     7
 72
     5
 73
     9
  0
VERTEX
  5
E9
330
CF
100
AcDbEntity
  8
0
 62
     9
420
 12632256
100
AcDbFaceRecord
 10
0.0
 20
0.0
 30
0.0
 70
   128
 71
     1
 72
     4
 73
     3
  0
SEQEND
  5
EA
330
CF
100
AcDbEntity
  8
0
 62
     9
420
 12632256
  0
ENDBLK
  5
ED
330
CE
100
AcDbEntity
  8
0
100
AcDbBlockEnd
  0
BLOCK
  5
10A
330
EE
100
AcDbEntity
  8
0
100
AcDbBlockBegin
  2
e3_node(2)
 70
     0
 10
0.0
 20
0.0
 30
0.0
  3
e3_node(2)
  1

  0
POLYLINE
  5
EF
330
EE
100
AcDbEntity
  8
0
 62
     9
420
 12632256
100
AcDbPolyFaceMesh
 66
     1
 10
0.0
 20
0.0
 30
0.0
 70
    64
 71
    13
 72
    11
  0
VERTEX
  5
F0
330
EF
100
AcDbEntity
  8
0
100
AcDbVertex
100
AcDbPolyFaceMeshVertex
 10
0.0
 20
-314.6780090332031
 30
-23.55999946594238
 70
   192
  0
VERTEX
  5
F1
330
EF
100
AcDbEntity
  8
0
100
AcDbVertex
100
AcDbPolyFaceMeshVertex
 10
0.0
 20
-333.1170043945312
 30
-8.378999710083008
 70
   192
  0
VERTEX
  5
F2
330
EF
100
AcDbEntity
  8
0
100
AcDbVertex
100
AcDbPolyFaceMeshVertex
 10
0.0
 20
-334.3099975585938
 30
3.927999973297119
 70
   192
  0
VERTEX
  5
F3
330
EF
100
AcDbEntity
  8
0
100
AcDbVertex
100
AcDbPolyFaceMeshVertex
 10
0.0
 20
-319.1289978027344
 30
22.36700057983398
 70
   192
  0
VERTEX
  5
F4
330
EF
100
AcDbEntity
  8
0
100
AcDbVertex
100
AcDbPolyFaceMeshVertex
 10
0.0
 20
-287.1900024414062
 30
-3.927999973297119
 70
   192
  0
VERTEX
  5
F5
330
EF
100
AcDbEntity
  8
0
100
AcDbVertex
100
AcDbPolyFaceMeshVertex
 10
0.0
 20
-292.3099975585938
 30
-15.18099975585938
 70
   192
  0
VERTEX
  5
F6
330
EF
100
AcDbEntity
  8
0
100
AcDbVertex
100
AcDbPolyFaceMeshVertex
 10
0.0
 20
-325.9309997558594
 30
-18.44000053405762
 70
   192
  0
VERTEX
  5
F7
330
EF
100
AcDbEntity
  8
0
100
AcDbVertex
100
AcDbPolyFaceMeshVertex
 10
0.0
 20
-288.3829956054688
 30
8.378999710083008
 70
   192
  0
VERTEX
  5
F8
330
EF
100
AcDbEntity
  8
0
100
AcDbVertex
100
AcDbPolyFaceMeshVertex
 10
0.0
 20
-306.8219909667969
 30
23.55999946594238
 70
   192
  0
VERTEX
  5
F9
330
EF
100
AcDbEntity
  8
0
100
AcDbVertex
100
AcDbPolyFaceMeshVertex
 10
0.0
 20
-329.1900024414062
 30
15.18099975585938
 70
   192
  0
VERTEX
  5
FA
330
EF
100
AcDbEntity
  8
0
100
AcDbVertex
100
AcDbPolyFaceMeshVertex
 10
0.0
 20
-295.5690002441406
 30
18.44000053405762
 70
   192
  0
VERTEX
  5
FB
330
EF
100
AcDbEntity
  8
0
100
AcDbVertex
100
AcDbPolyFaceMeshVertex
 10
0.0
 20
-310.75
 30
-23.88500022888184
 70
   192
  0
VERTEX
  5
FC
330
EF
100
AcDbEntity
  8
0
100
AcDbVertex
100
AcDbPolyFaceMeshVertex
 10
0.0
 20
-302.3710021972656
 30
-22.36700057983398
 70
   192
  0
VERTEX
  5
FD
330
EF
100
AcDbEntity
  8
0
 62
     9
420
 12632256
100
AcDbFaceRecord
 10
0.0
 20
0.0
 30
0.0
 70
   128
 71
     3
 72
     2
 73
     1
  0
VERTEX
  5
FE
330
EF
100
AcDbEntity
  8
0
 62
     9
420
 12632256
100
AcDbFaceRecord
 10
0.0
 20
0.0
 30
0.0
 70
   128
 71
     6
 72
     5
 73
     4
  0
VERTEX
  5
FF
330
EF
100
AcDbEntity
  8
0
 62
     9
420
 12632256
100
AcDbFaceRecord
 10
0.0
 20
0.0
 30
0.0
 70
   128
 71
     2
 72
     7
 73
     1
  0
VERTEX
  5
100
330
EF
100
AcDbEntity
  8
0
 62
     9
420
 12632256
100
AcDbFaceRecord
 10
0.0
 20
0.0
 30
0.0
 70
   128
 71
     5
 72
     8
 73
     4
  0
VERTEX
  5
101
330
EF
100
AcDbEntity
  8
0
 62
     9
420
 12632256
100
AcDbFaceRecord
 10
0.0
 20
0.0
 30
0.0
 70
   128
 71
     9
 72
     4
 73
     8
  0
VERTEX
  5
102
330
EF
100
AcDbEntity
  8
0
 62
     9
420
 12632256
100
AcDbFaceRecord
 10
0.0
 20
0.0
 30
0.0
 70
   128
 71
     1
 72
    10
 73
     3
  0
VERTEX
  5
103
330
EF
100
AcDbEntity
  8
0
 62
     9
420
 12632256
100
AcDbFaceRecord
 10
0.0
 20
0.0
 30
0.0
 70
   128
 71
     8
 72
    11
 73
     9
  0
VERTEX
  5
104
330
EF
100
AcDbEntity
  8
0
 62
     9
420
 12632256
100
AcDbFaceRecord
 10
0.0
 20
0.0
 30
0.0
 70
   128
 71
     1
 72
    12
 73
     4
  0
VERTEX
  5
105
330
EF
100
AcDbEntity
  8
0
 62
     9
420
 12632256
100
AcDbFaceRecord
 10
0.0
 20
0.0
 30
0.0
 70
   128
 71
     4
 72
    13
 73
     6
  0
VERTEX
  5
106
330
EF
100
AcDbEntity
  8
0
 62
     9
420
 12632256
100
AcDbFaceRecord
 10
0.0
 20
0.0
 30
0.0
 70
   128
 71
     4
 72
    12
 73
    13
  0
VERTEX
  5
107
330
EF
100
AcDbEntity
  8
0
 62
     9
420
 12632256
100
AcDbFaceRecord
 10
0.0
 20
0.0
 30
0.0
 70
   128
 71
     1
 72
     4
 73
    10
  0
SEQEND
  5
108
330
EF
100
AcDbEntity
  8
0
 62
     9
420
 12632256
  0
ENDBLK
  5
10B
330
EE
100
AcDbEntity
  8
0
100
AcDbBlockEnd
  0
BLOCK
  5
18A
330
10C
100
AcDbEntity
  8
0
100
AcDbBlockBegin
  2
e3_node(3)
 70
     0
 10
0.0
 20
0.0
 30
0.0
  3
e3_node(3)
  1

  0
POLYLINE
  5
10D
330
10C
100
AcDbEntity
  8
0
 62
     9
420
 12632256
100
AcDbPolyFaceMesh
 66
     1
 10
0.0
 20
0.0
 30
0.0
 70
    64
 71
    61
 72
    61
  0
VERTEX
  5
10E
330
10D
100
AcDbEntity
  8
0
100
AcDbVertex
100
AcDbPolyFaceMeshVertex
 10
0.0
 20
-287.1900024414062
 30
-3.927999973297119
 70
   192
  0
VERTEX
  5
10F
330
10D
100
AcDbEntity
  8
0
100
AcDbVertex
100
AcDbPolyFaceMeshVertex
 10
2.059999942779541
 20
-287.3689880371094
 30
-7.301000118255615
 70
   192
  0
VERTEX
  5
110
330
10D
100
AcDbEntity
  8
0
100
AcDbVertex
100
AcDbPolyFaceMeshVertex
 10
1.45799994468689
 20
-289.9440002441406
 30
-12.70199966430664
 70
   192
  0
VERTEX
  5
111
330
10D
100
AcDbEntity
  8
0
100
AcDbVertex
100
AcDbPolyFaceMeshVertex
 10
1.968999981880188
 20
-286.7799987792969
 30
-4.004000186920166
 70
   192
  0
VERTEX
  5
112
330
10D
100
AcDbEntity
  8
0
100
AcDbVertex
100
AcDbPolyFaceMeshVertex
 10
2.321000099182129
 20
-287.0549926757812
 30
-6.348999977111816
 70
   192
  0
VERTEX
  5
113
330
10D
100
AcDbEntity
  8
0
100
AcDbVertex
100
AcDbPolyFaceMeshVertex
 10
0.0
 20
-292.3099975585938
 30
-15.18099975585938
 70
   192
  0
VERTEX
  5
114
330
10D
100
AcDbEntity
  8
0
100
AcDbVertex
100
AcDbPolyFaceMeshVertex
 10
2.059999942779541
 20
-294.1520080566406
 30
-18.01300048828125
 70
   192
  0
VERTEX
  5
115
330
10D
100
AcDbEntity
  8
0
100
AcDbVertex
100
AcDbPolyFaceMeshVertex
 10
1.45799994468689
 20
-299.0830078125
 30
-21.40299987792969
 70
   192
  0
VERTEX
  5
116
330
10D
100
AcDbEntity
  8
0
100
AcDbVertex
100
AcDbPolyFaceMeshVertex
 10
1.968999981880188
 20
-291.9939880371094
 30
-15.45300006866455
 70
   192
  0
VERTEX
  5
117
330
10D
100
AcDbEntity
  8
0
100
AcDbVertex
100
AcDbPolyFaceMeshVertex
 10
2.321000099182129
 20
-293.4039916992188
 30
-17.34600067138672
 70
   192
  0
VERTEX
  5
118
330
10D
100
AcDbEntity
  8
0
100
AcDbVertex
100
AcDbPolyFaceMeshVertex
 10
0.0
 20
-302.3710021972656
 30
-22.36700057983398
 70
   192
  0
VERTEX
  5
119
330
10D
100
AcDbEntity
  8
0
100
AcDbVertex
100
AcDbPolyFaceMeshVertex
 10
0.0
 20
-314.6780090332031
 30
-23.55999946594238
 70
   192
  0
VERTEX
  5
11A
330
10D
100
AcDbEntity
  8
0
100
AcDbVertex
100
AcDbPolyFaceMeshVertex
 10
0.0
 20
-310.75
 30
-23.88500022888184
 70
   192
  0
VERTEX
  5
11B
330
10D
100
AcDbEntity
  8
0
100
AcDbVertex
100
AcDbPolyFaceMeshVertex
 10
1.45799994468689
 20
-311.3479919433594
 30
-24.3700008392334
 70
   192
  0
VERTEX
  5
11C
330
10D
100
AcDbEntity
  8
0
100
AcDbVertex
100
AcDbPolyFaceMeshVertex
 10
2.059999942779541
 20
-305.3819885253906
 30
-23.89900016784668
 70
   192
  0
VERTEX
  5
11D
330
10D
100
AcDbEntity
  8
0
100
AcDbVertex
100
AcDbPolyFaceMeshVertex
 10
1.968999981880188
 20
-302.2330017089844
 30
-22.76099967956543
 70
   192
  0
VERTEX
  5
11E
330
10D
100
AcDbEntity
  8
0
100
AcDbVertex
100
AcDbPolyFaceMeshVertex
 10
2.321000099182129
 20
-304.4010009765625
 30
-23.69499969482422
 70
   192
  0
VERTEX
  5
11F
330
10D
100
AcDbEntity
  8
0
100
AcDbVertex
100
AcDbPolyFaceMeshVertex
 10
2.059999942779541
 20
-318.0509948730469
 30
-23.38100051879883
 70
   192
  0
VERTEX
  5
120
330
10D
100
AcDbEntity
  8
0
100
AcDbVertex
100
AcDbPolyFaceMeshVertex
 10
1.45799994468689
 20
-323.4519958496094
 30
-20.80599975585938
 70
   192
  0
VERTEX
  5
121
330
10D
100
AcDbEntity
  8
0
100
AcDbVertex
100
AcDbPolyFaceMeshVertex
 10
1.968999981880188
 20
-314.7539978027344
 30
-23.96999931335449
 70
   192
  0
VERTEX
  5
122
330
10D
100
AcDbEntity
  8
0
100
AcDbVertex
100
AcDbPolyFaceMeshVertex
 10
2.321000099182129
 20
-317.0989990234375
 30
-23.69499969482422
 70
   192
  0
VERTEX
  5
123
330
10D
100
AcDbEntity
  8
0
100
AcDbVertex
100
AcDbPolyFaceMeshVertex
 10
0.0
 20
-325.9309997558594
 30
-18.44000053405762
 70
   192
  0
VERTEX
  5
124
330
10D
100
AcDbEntity
  8
0
100
AcDbVertex
100
AcDbPolyFaceMeshVertex
 10
2.059999942779541
 20
-328.7630004882812
 30
-16.59799957275391
 70
   192
  0
VERTEX
  5
125
330
10D
100
AcDbEntity
  8
0
100
AcDbVertex
100
AcDbPolyFaceMeshVertex
 10
1.45799994468689
 20
-332.1530151367188
 30
-11.66699981689453
 70
   192
  0
VERTEX
  5
126
330
10D
100
AcDbEntity
  8
0
100
AcDbVertex
100
AcDbPolyFaceMeshVertex
 10
1.968999981880188
 20
-326.2030029296875
 30
-18.75600051879883
 70
   192
  0
VERTEX
  5
127
330
10D
100
AcDbEntity
  8
0
100
AcDbVertex
100
AcDbPolyFaceMeshVertex
 10
2.321000099182129
 20
-328.0960083007812
 30
-17.34600067138672
 70
   192
  0
VERTEX
  5
128
330
10D
100
AcDbEntity
  8
0
100
AcDbVertex
100
AcDbPolyFaceMeshVertex
 10
0.0
 20
-333.1170043945312
 30
-8.378999710083008
 70
   192
  0
VERTEX
  5
129
330
10D
100
AcDbEntity
  8
0
100
AcDbVertex
100
AcDbPolyFaceMeshVertex
 10
2.059999942779541
 20
-334.6489868164062
 30
-5.368000030517578
 70
   192
  0
VERTEX
  5
12A
330
10D
100
AcDbEntity
  8
0
100
AcDbVertex
100
AcDbPolyFaceMeshVertex
 10
1.45799994468689
 20
-335.1199951171875
 30
0.5979999899864197
 70
   192
  0
VERTEX
  5
12B
330
10D
100
AcDbEntity
  8
0
100
AcDbVertex
100
AcDbPolyFaceMeshVertex
 10
1.968999981880188
 20
-333.510986328125
 30
-8.517000198364258
 70
   192
  0
VERTEX
  5
12C
330
10D
100
AcDbEntity
  8
0
100
AcDbVertex
100
AcDbPolyFaceMeshVertex
 10
2.321000099182129
 20
-334.4450073242188
 30
-6.348999977111816
 70
   192
  0
VERTEX
  5
12D
330
10D
100
AcDbEntity
  8
0
100
AcDbVertex
100
AcDbPolyFaceMeshVertex
 10
0.0
 20
-334.3099975585938
 30
3.927999973297119
 70
   192
  0
VERTEX
  5
12E
330
10D
100
AcDbEntity
  8
0
100
AcDbVertex
100
AcDbPolyFaceMeshVertex
 10
2.059999942779541
 20
-334.1310119628906
 30
7.301000118255615
 70
   192
  0
VERTEX
  5
12F
330
10D
100
AcDbEntity
  8
0
100
AcDbVertex
100
AcDbPolyFaceMeshVertex
 10
1.45799994468689
 20
-331.5559997558594
 30
12.70199966430664
 70
   192
  0
VERTEX
  5
130
330
10D
100
AcDbEntity
  8
0
100
AcDbVertex
100
AcDbPolyFaceMeshVertex
 10
1.968999981880188
 20
-334.7200012207031
 30
4.004000186920166
 70
   192
  0
VERTEX
  5
131
330
10D
100
AcDbEntity
  8
0
100
AcDbVertex
100
AcDbPolyFaceMeshVertex
 10
2.321000099182129
 20
-334.4450073242188
 30
6.348999977111816
 70
   192
  0
VERTEX
  5
132
330
10D
100
AcDbEntity
  8
0
100
AcDbVertex
100
AcDbPolyFaceMeshVertex
 10
0.0
 20
-329.1900024414062
 30
15.18099975585938
 70
   192
  0
VERTEX
  5
133
330
10D
100
AcDbEntity
  8
0
100
AcDbVertex
100
AcDbPolyFaceMeshVertex
 10
2.059999942779541
 20
-327.3479919433594
 30
18.01300048828125
 70
   192
  0
VERTEX
  5
134
330
10D
100
AcDbEntity
  8
0
100
AcDbVertex
100
AcDbPolyFaceMeshVertex
 10
1.45799994468689
 20
-322.4169921875
 30
21.40299987792969
 70
   192
  0
VERTEX
  5
135
330
10D
100
AcDbEntity
  8
0
100
AcDbVertex
100
AcDbPolyFaceMeshVertex
 10
1.968999981880188
 20
-329.5060119628906
 30
15.45300006866455
 70
   192
  0
VERTEX
  5
136
330
10D
100
AcDbEntity
  8
0
100
AcDbVertex
100
AcDbPolyFaceMeshVertex
 10
2.321000099182129
 20
-328.0960083007812
 30
17.34600067138672
 70
   192
  0
VERTEX
  5
137
330
10D
100
AcDbEntity
  8
0
100
AcDbVertex
100
AcDbPolyFaceMeshVertex
 10
0.0
 20
-319.1289978027344
 30
22.36700057983398
 70
   192
  0
VERTEX
  5
138
330
10D
100
AcDbEntity
  8
0
100
AcDbVertex
100
AcDbPolyFaceMeshVertex
 10
2.059999942779541
 20
-316.1180114746094
 30
23.89900016784668
 70
   192
  0
VERTEX
  5
139
330
10D
100
AcDbEntity
  8
0
100
AcDbVertex
100
AcDbPolyFaceMeshVertex
 10
1.45799994468689
 20
-310.1520080566406
 30
24.3700008392334
 70
   192
  0
VERTEX
  5
13A
330
10D
100
AcDbEntity
  8
0
100
AcDbVertex
100
AcDbPolyFaceMeshVertex
 10
1.968999981880188
 20
-319.2669982910156
 30
22.76099967956543
 70
   192
  0
VERTEX
  5
13B
330
10D
100
AcDbEntity
  8
0
100
AcDbVertex
100
AcDbPolyFaceMeshVertex
 10
2.321000099182129
 20
-317.0989990234375
 30
23.69499969482422
 70
   192
  0
VERTEX
  5
13C
330
10D
100
AcDbEntity
  8
0
100
AcDbVertex
100
AcDbPolyFaceMeshVertex
 10
0.0
 20
-306.8219909667969
 30
23.55999946594238
 70
   192
  0
VERTEX
  5
13D
330
10D
100
AcDbEntity
  8
0
100
AcDbVertex
100
AcDbPolyFaceMeshVertex
 10
2.059999942779541
 20
-303.4490051269531
 30
23.38100051879883
 70
   192
  0
VERTEX
  5
13E
330
10D
100
AcDbEntity
  8
0
100
AcDbVertex
100
AcDbPolyFaceMeshVertex
 10
1.45799994468689
 20
-298.0480041503906
 30
20.80599975585938
 70
   192
  0
VERTEX
  5
13F
330
10D
100
AcDbEntity
  8
0
100
AcDbVertex
100
AcDbPolyFaceMeshVertex
 10
1.968999981880188
 20
-306.7460021972656
 30
23.96999931335449
 70
   192
  0
VERTEX
  5
140
330
10D
100
AcDbEntity
  8
0
100
AcDbVertex
100
AcDbPolyFaceMeshVertex
 10
2.321000099182129
 20
-304.4010009765625
 30
23.69499969482422
 70
   192
  0
VERTEX
  5
141
330
10D
100
AcDbEntity
  8
0
100
AcDbVertex
100
AcDbPolyFaceMeshVertex
 10
0.0
 20
-295.5690002441406
 30
18.44000053405762
 70
   192
  0
VERTEX
  5
142
330
10D
100
AcDbEntity
  8
0
100
AcDbVertex
100
AcDbPolyFaceMeshVertex
 10
2.059999942779541
 20
-292.7369995117188
 30
16.59799957275391
 70
   192
  0
VERTEX
  5
143
330
10D
100
AcDbEntity
  8
0
100
AcDbVertex
100
AcDbPolyFaceMeshVertex
 10
1.45799994468689
 20
-289.3469848632812
 30
11.66699981689453
 70
   192
  0
VERTEX
  5
144
330
10D
100
AcDbEntity
  8
0
100
AcDbVertex
100
AcDbPolyFaceMeshVertex
 10
1.968999981880188
 20
-295.2969970703125
 30
18.75600051879883
 70
   192
  0
VERTEX
  5
145
330
10D
100
AcDbEntity
  8
0
100
AcDbVertex
100
AcDbPolyFaceMeshVertex
 10
2.321000099182129
 20
-293.4039916992188
 30
17.34600067138672
 70
   192
  0
VERTEX
  5
146
330
10D
100
AcDbEntity
  8
0
100
AcDbVertex
100
AcDbPolyFaceMeshVertex
 10
0.0
 20
-288.3829956054688
 30
8.378999710083008
 70
   192
  0
VERTEX
  5
147
330
10D
100
AcDbEntity
  8
0
100
AcDbVertex
100
AcDbPolyFaceMeshVertex
 10
2.059999942779541
 20
-286.8510131835938
 30
5.368000030517578
 70
   192
  0
VERTEX
  5
148
330
10D
100
AcDbEntity
  8
0
100
AcDbVertex
100
AcDbPolyFaceMeshVertex
 10
1.45799994468689
 20
-286.3800048828125
 30
-0.5979999899864197
 70
   192
  0
VERTEX
  5
149
330
10D
100
AcDbEntity
  8
0
100
AcDbVertex
100
AcDbPolyFaceMeshVertex
 10
1.968999981880188
 20
-287.989013671875
 30
8.517000198364258
 70
   192
  0
VERTEX
  5
14A
330
10D
100
AcDbEntity
  8
0
100
AcDbVertex
100
AcDbPolyFaceMeshVertex
 10
2.321000099182129
 20
-287.0549926757812
 30
6.348999977111816
 70
   192
  0
VERTEX
  5
14B
330
10D
100
AcDbEntity
  8
0
 62
     9
420
 12632256
100
AcDbFaceRecord
 10
0.0
 20
0.0
 30
0.0
 70
   128
 71
     3
 72
     2
 73
     1
  0
VERTEX
  5
14C
330
10D
100
AcDbEntity
  8
0
 62
     9
420
 12632256
100
AcDbFaceRecord
 10
0.0
 20
0.0
 30
0.0
 70
   128
 71
     5
 72
     4
 73
     1
  0
VERTEX
  5
14D
330
10D
100
AcDbEntity
  8
0
 62
     9
420
 12632256
100
AcDbFaceRecord
 10
0.0
 20
0.0
 30
0.0
 70
   128
 71
     1
 72
     2
 73
     5
  0
VERTEX
  5
14E
330
10D
100
AcDbEntity
  8
0
 62
     9
420
 12632256
100
AcDbFaceRecord
 10
0.0
 20
0.0
 30
0.0
 70
   128
 71
     1
 72
     6
 73
     3
  0
VERTEX
  5
14F
330
10D
100
AcDbEntity
  8
0
 62
     9
420
 12632256
100
AcDbFaceRecord
 10
0.0
 20
0.0
 30
0.0
 70
   128
 71
     8
 72
     7
 73
     6
  0
VERTEX
  5
150
330
10D
100
AcDbEntity
  8
0
 62
     9
420
 12632256
100
AcDbFaceRecord
 10
0.0
 20
0.0
 30
0.0
 70
   128
 71
    10
 72
     9
 73
     6
  0
VERTEX
  5
151
330
10D
100
AcDbEntity
  8
0
 62
     9
420
 12632256
100
AcDbFaceRecord
 10
0.0
 20
0.0
 30
0.0
 70
   128
 71
     6
 72
     7
 73
    10
  0
VERTEX
  5
152
330
10D
100
AcDbEntity
  8
0
 62
     9
420
 12632256
100
AcDbFaceRecord
 10
0.0
 20
0.0
 30
0.0
 70
   128
 71
     6
 72
    11
 73
     8
  0
VERTEX
  5
153
330
10D
100
AcDbEntity
  8
0
 62
     9
420
 12632256
100
AcDbFaceRecord
 10
0.0
 20
0.0
 30
0.0
 70
   128
 71
    14
 72
    13
 73
    12
  0
VERTEX
  5
154
330
10D
100
AcDbEntity
  8
0
 62
     9
420
 12632256
100
AcDbFaceRecord
 10
0.0
 20
0.0
 30
0.0
 70
   128
 71
    15
 72
    11
 73
    13
  0
VERTEX
  5
155
330
10D
100
AcDbEntity
  8
0
 62
     9
420
 12632256
100
AcDbFaceRecord
 10
0.0
 20
0.0
 30
0.0
 70
   128
 71
    17
 72
    16
 73
    11
  0
VERTEX
  5
156
330
10D
100
AcDbEntity
  8
0
 62
     9
420
 12632256
100
AcDbFaceRecord
 10
0.0
 20
0.0
 30
0.0
 70
   128
 71
    11
 72
    15
 73
    17
  0
VERTEX
  5
157
330
10D
100
AcDbEntity
  8
0
 62
     9
420
 12632256
100
AcDbFaceRecord
 10
0.0
 20
0.0
 30
0.0
 70
   128
 71
    13
 72
    14
 73
    15
  0
VERTEX
  5
158
330
10D
100
AcDbEntity
  8
0
 62
     9
420
 12632256
100
AcDbFaceRecord
 10
0.0
 20
0.0
 30
0.0
 70
   128
 71
    19
 72
    18
 73
    12
  0
VERTEX
  5
159
330
10D
100
AcDbEntity
  8
0
 62
     9
420
 12632256
100
AcDbFaceRecord
 10
0.0
 20
0.0
 30
0.0
 70
   128
 71
    21
 72
    20
 73
    12
  0
VERTEX
  5
15A
330
10D
100
AcDbEntity
  8
0
 62
     9
420
 12632256
100
AcDbFaceRecord
 10
0.0
 20
0.0
 30
0.0
 70
   128
 71
    12
 72
    18
 73
    21
  0
VERTEX
  5
15B
330
10D
100
AcDbEntity
  8
0
 62
     9
420
 12632256
100
AcDbFaceRecord
 10
0.0
 20
0.0
 30
0.0
 70
   128
 71
    12
 72
    22
 73
    19
  0
VERTEX
  5
15C
330
10D
100
AcDbEntity
  8
0
 62
     9
420
 12632256
100
AcDbFaceRecord
 10
0.0
 20
0.0
 30
0.0
 70
   128
 71
    24
 72
    23
 73
    22
  0
VERTEX
  5
15D
330
10D
100
AcDbEntity
  8
0
 62
     9
420
 12632256
100
AcDbFaceRecord
 10
0.0
 20
0.0
 30
0.0
 70
   128
 71
    26
 72
    25
 73
    22
  0
VERTEX
  5
15E
330
10D
100
AcDbEntity
  8
0
 62
     9
420
 12632256
100
AcDbFaceRecord
 10
0.0
 20
0.0
 30
0.0
 70
   128
 71
    22
 72
    23
 73
    26
  0
VERTEX
  5
15F
330
10D
100
AcDbEntity
  8
0
 62
     9
420
 12632256
100
AcDbFaceRecord
 10
0.0
 20
0.0
 30
0.0
 70
   128
 71
    22
 72
    27
 73
    24
  0
VERTEX
  5
160
330
10D
100
AcDbEntity
  8
0
 62
     9
420
 12632256
100
AcDbFaceRecord
 10
0.0
 20
0.0
 30
0.0
 70
   128
 71
    29
 72
    28
 73
    27
  0
VERTEX
  5
161
330
10D
100
AcDbEntity
  8
0
 62
     9
420
 12632256
100
AcDbFaceRecord
 10
0.0
 20
0.0
 30
0.0
 70
   128
 71
    31
 72
    30
 73
    27
  0
VERTEX
  5
162
330
10D
100
AcDbEntity
  8
0
 62
     9
420
 12632256
100
AcDbFaceRecord
 10
0.0
 20
0.0
 30
0.0
 70
   128
 71
    27
 72
    28
 73
    31
  0
VERTEX
  5
163
330
10D
100
AcDbEntity
  8
0
 62
     9
420
 12632256
100
AcDbFaceRecord
 10
0.0
 20
0.0
 30
0.0
 70
   128
 71
    27
 72
    32
 73
    29
  0
VERTEX
  5
164
330
10D
100
AcDbEntity
  8
0
 62
     9
420
 12632256
100
AcDbFaceRecord
 10
0.0
 20
0.0
 30
0.0
 70
   128
 71
    34
 72
    33
 73
    32
  0
VERTEX
  5
165
330
10D
100
AcDbEntity
  8
0
 62
     9
420
 12632256
100
AcDbFaceRecord
 10
0.0
 20
0.0
 30
0.0
 70
   128
 71
    36
 72
    35
 73
    32
  0
VERTEX
  5
166
330
10D
100
AcDbEntity
  8
0
 62
     9
420
 12632256
100
AcDbFaceRecord
 10
0.0
 20
0.0
 30
0.0
 70
   128
 71
    32
 72
    33
 73
    36
  0
VERTEX
  5
167
330
10D
100
AcDbEntity
  8
0
 62
     9
420
 12632256
100
AcDbFaceRecord
 10
0.0
 20
0.0
 30
0.0
 70
   128
 71
    32
 72
    37
 73
    34
  0
VERTEX
  5
168
330
10D
100
AcDbEntity
  8
0
 62
     9
420
 12632256
100
AcDbFaceRecord
 10
0.0
 20
0.0
 30
0.0
 70
   128
 71
    39
 72
    38
 73
    37
  0
VERTEX
  5
169
330
10D
100
AcDbEntity
  8
0
 62
     9
420
 12632256
100
AcDbFaceRecord
 10
0.0
 20
0.0
 30
0.0
 70
   128
 71
    41
 72
    40
 73
    37
  0
VERTEX
  5
16A
330
10D
100
AcDbEntity
  8
0
 62
     9
420
 12632256
100
AcDbFaceRecord
 10
0.0
 20
0.0
 30
0.0
 70
   128
 71
    37
 72
    38
 73
    41
  0
VERTEX
  5
16B
330
10D
100
AcDbEntity
  8
0
 62
     9
420
 12632256
100
AcDbFaceRecord
 10
0.0
 20
0.0
 30
0.0
 70
   128
 71
    37
 72
    42
 73
    39
  0
VERTEX
  5
16C
330
10D
100
AcDbEntity
  8
0
 62
     9
420
 12632256
100
AcDbFaceRecord
 10
0.0
 20
0.0
 30
0.0
 70
   128
 71
    44
 72
    43
 73
    42
  0
VERTEX
  5
16D
330
10D
100
AcDbEntity
  8
0
 62
     9
420
 12632256
100
AcDbFaceRecord
 10
0.0
 20
0.0
 30
0.0
 70
   128
 71
    46
 72
    45
 73
    42
  0
VERTEX
  5
16E
330
10D
100
AcDbEntity
  8
0
 62
     9
420
 12632256
100
AcDbFaceRecord
 10
0.0
 20
0.0
 30
0.0
 70
   128
 71
    42
 72
    43
 73
    46
  0
VERTEX
  5
16F
330
10D
100
AcDbEntity
  8
0
 62
     9
420
 12632256
100
AcDbFaceRecord
 10
0.0
 20
0.0
 30
0.0
 70
   128
 71
    42
 72
    47
 73
    44
  0
VERTEX
  5
170
330
10D
100
AcDbEntity
  8
0
 62
     9
420
 12632256
100
AcDbFaceRecord
 10
0.0
 20
0.0
 30
0.0
 70
   128
 71
    49
 72
    48
 73
    47
  0
VERTEX
  5
171
330
10D
100
AcDbEntity
  8
0
 62
     9
420
 12632256
100
AcDbFaceRecord
 10
0.0
 20
0.0
 30
0.0
 70
   128
 71
    51
 72
    50
 73
    47
  0
VERTEX
  5
172
330
10D
100
AcDbEntity
  8
0
 62
     9
420
 12632256
100
AcDbFaceRecord
 10
0.0
 20
0.0
 30
0.0
 70
   128
 71
    47
 72
    48
 73
    51
  0
VERTEX
  5
173
330
10D
100
AcDbEntity
  8
0
 62
     9
420
 12632256
100
AcDbFaceRecord
 10
0.0
 20
0.0
 30
0.0
 70
   128
 71
    47
 72
    52
 73
    49
  0
VERTEX
  5
174
330
10D
100
AcDbEntity
  8
0
 62
     9
420
 12632256
100
AcDbFaceRecord
 10
0.0
 20
0.0
 30
0.0
 70
   128
 71
    54
 72
    53
 73
    52
  0
VERTEX
  5
175
330
10D
100
AcDbEntity
  8
0
 62
     9
420
 12632256
100
AcDbFaceRecord
 10
0.0
 20
0.0
 30
0.0
 70
   128
 71
    56
 72
    55
 73
    52
  0
VERTEX
  5
176
330
10D
100
AcDbEntity
  8
0
 62
     9
420
 12632256
100
AcDbFaceRecord
 10
0.0
 20
0.0
 30
0.0
 70
   128
 71
    52
 72
    53
 73
    56
  0
VERTEX
  5
177
330
10D
100
AcDbEntity
  8
0
 62
     9
420
 12632256
100
AcDbFaceRecord
 10
0.0
 20
0.0
 30
0.0
 70
   128
 71
    52
 72
    57
 73
    54
  0
VERTEX
  5
178
330
10D
100
AcDbEntity
  8
0
 62
     9
420
 12632256
100
AcDbFaceRecord
 10
0.0
 20
0.0
 30
0.0
 70
   128
 71
    59
 72
    58
 73
    57
  0
VERTEX
  5
179
330
10D
100
AcDbEntity
  8
0
 62
     9
420
 12632256
100
AcDbFaceRecord
 10
0.0
 20
0.0
 30
0.0
 70
   128
 71
    61
 72
    60
 73
    57
  0
VERTEX
  5
17A
330
10D
100
AcDbEntity
  8
0
 62
     9
420
 12632256
100
AcDbFaceRecord
 10
0.0
 20
0.0
 30
0.0
 70
   128
 71
    57
 72
    58
 73
    61
  0
VERTEX
  5
17B
330
10D
100
AcDbEntity
  8
0
 62
     9
420
 12632256
100
AcDbFaceRecord
 10
0.0
 20
0.0
 30
0.0
 70
   128
 71
    57
 72
     1
 73
    59
  0
VERTEX
  5
17C
330
10D
100
AcDbEntity
  8
0
 62
     9
420
 12632256
100
AcDbFaceRecord
 10
0.0
 20
0.0
 30
0.0
 70
   128
 71
     1
 72
     4
 73
    59
  0
VERTEX
  5
17D
330
10D
100
AcDbEntity
  8
0
 62
     9
420
 12632256
100
AcDbFaceRecord
 10
0.0
 20
0.0
 30
0.0
 70
   128
 71
    57
 72
    60
 73
    54
  0
VERTEX
  5
17E
330
10D
100
AcDbEntity
  8
0
 62
     9
420
 12632256
100
AcDbFaceRecord
 10
0.0
 20
0.0
 30
0.0
 70
   128
 71
    52
 72
    55
 73
    49
  0
VERTEX
  5
17F
330
10D
100
AcDbEntity
  8
0
 62
     9
420
 12632256
100
AcDbFaceRecord
 10
0.0
 20
0.0
 30
0.0
 70
   128
 71
    47
 72
    50
 73
    44
  0
VERTEX
  5
180
330
10D
100
AcDbEntity
  8
0
 62
     9
420
 12632256
100
AcDbFaceRecord
 10
0.0
 20
0.0
 30
0.0
 70
   128
 71
    42
 72
    45
 73
    39
  0
VERTEX
  5
181
330
10D
100
AcDbEntity
  8
0
 62
     9
420
 12632256
100
AcDbFaceRecord
 10
0.0
 20
0.0
 30
0.0
 70
   128
 71
    37
 72
    40
 73
    34
  0
VERTEX
  5
182
330
10D
100
AcDbEntity
  8
0
 62
     9
420
 12632256
100
AcDbFaceRecord
 10
0.0
 20
0.0
 30
0.0
 70
   128
 71
    32
 72
    35
 73
    29
  0
VERTEX
  5
183
330
10D
100
AcDbEntity
  8
0
 62
     9
420
 12632256
100
AcDbFaceRecord
 10
0.0
 20
0.0
 30
0.0
 70
   128
 71
    27
 72
    30
 73
    24
  0
VERTEX
  5
184
330
10D
100
AcDbEntity
  8
0
 62
     9
420
 12632256
100
AcDbFaceRecord
 10
0.0
 20
0.0
 30
0.0
 70
   128
 71
    22
 72
    25
 73
    19
  0
VERTEX
  5
185
330
10D
100
AcDbEntity
  8
0
 62
     9
420
 12632256
100
AcDbFaceRecord
 10
0.0
 20
0.0
 30
0.0
 70
   128
 71
    12
 72
    20
 73
    14
  0
VERTEX
  5
186
330
10D
100
AcDbEntity
  8
0
 62
     9
420
 12632256
100
AcDbFaceRecord
 10
0.0
 20
0.0
 30
0.0
 70
   128
 71
    11
 72
    16
 73
     8
  0
VERTEX
  5
187
330
10D
100
AcDbEntity
  8
0
 62
     9
420
 12632256
100
AcDbFaceRecord
 10
0.0
 20
0.0
 30
0.0
 70
   128
 71
     6
 72
     9
 73
     3
  0
SEQEND
  5
188
330
10D
100
AcDbEntity
  8
0
 62
     9
420
 12632256
  0
ENDBLK
  5
18B
330
10C
100
AcDbEntity
  8
0
100
AcDbBlockEnd
  0
BLOCK
  5
19C
330
18C
100
AcDbEntity
  8
0
100
AcDbBlockBegin
  2
e3_node(4)
 70
     0
 10
0.0
 20
0.0
 30
0.0
  3
e3_node(4)
  1

  0
POLYLINE
  5
18D
330
18C
100
AcDbEntity
  8
0
 62
     9
420
 12632256
100
AcDbPolyFaceMesh
 66
     1
 10
0.0
 20
0.0
 30
0.0
 70
    64
 71
     7
 72
     5
  0
VERTEX
  5
18E
330
18D
100
AcDbEntity
  8
0
100
AcDbVertex
100
AcDbPolyFaceMeshVertex
 10
9.0
 20
-305.7990112304688
 30
18.47699928283691
 70
   192
  0
VERTEX
  5
18F
330
18D
100
AcDbEntity
  8
0
100
AcDbVertex
100
AcDbPolyFaceMeshVertex
 10
9.0
 20
-297.2239990234375
 30
13.52600002288818
 70
   192
  0
VERTEX
  5
190
330
18D
100
AcDbEntity
  8
0
100
AcDbVertex
100
AcDbPolyFaceMeshVertex
 10
1.45799994468689
 20
-298.0480041503906
 30
20.80599975585938
 70
   192
  0
VERTEX
  5
191
330
18D
100
AcDbEntity
  8
0
100
AcDbVertex
100
AcDbPolyFaceMeshVertex
 10
1.968999981880188
 20
-295.2969970703125
 30
18.75600051879883
 70
   192
  0
VERTEX
  5
192
330
18D
100
AcDbEntity
  8
0
100
AcDbVertex
100
AcDbPolyFaceMeshVertex
 10
2.059999942779541
 20
-303.4490051269531
 30
23.38100051879883
 70
   192
  0
VERTEX
  5
193
330
18D
100
AcDbEntity
  8
0
100
AcDbVertex
100
AcDbPolyFaceMeshVertex
 10
2.321000099182129
 20
-293.4039916992188
 30
17.34600067138672
 70
   192
  0
VERTEX
  5
194
330
18D
100
AcDbEntity
  8
0
100
AcDbVertex
100
AcDbPolyFaceMeshVertex
 10
2.321000099182129
 20
-304.4010009765625
 30
23.69499969482422
 70
   192
  0
VERTEX
  5
195
330
18D
100
AcDbEntity
  8
0
 62
     9
420
 12632256
100
AcDbFaceRecord
 10
0.0
 20
0.0
 30
0.0
 70
   128
 71
     3
 72
     2
 73
     1
  0
VERTEX
  5
196
330
18D
100
AcDbEntity
  8
0
 62
     9
420
 12632256
100
AcDbFaceRecord
 10
0.0
 20
0.0
 30
0.0
 70
   128
 71
     3
 72
     4
 73
     2
  0
VERTEX
  5
197
330
18D
100
AcDbEntity
  8
0
 62
     9
420
 12632256
100
AcDbFaceRecord
 10
0.0
 20
0.0
 30
0.0
 70
   128
 71
     1
 72
     5
 73
     3
  0
VERTEX
  5
198
330
18D
100
AcDbEntity
  8
0
 62
     9
420
 12632256
100
AcDbFaceRecord
 10
0.0
 20
0.0
 30
0.0
 70
   128
 71
     4
 72
     6
 73
     2
  0
VERTEX
  5
199
330
18D
100
AcDbEntity
  8
0
 62
     9
420
 12632256
100
AcDbFaceRecord
 10
0.0
 20
0.0
 30
0.0
 70
   128
 71
     1
 72
     7
 73
     5
  0
SEQEND
  5
19A
330
18D
100
AcDbEntity
  8
0
 62
     9
420
 12632256
  0
ENDBLK
  5
19D
330
18C
100
AcDbEntity
  8
0
100
AcDbBlockEnd
  0
BLOCK
  5
1B8
330
19E
100
AcDbEntity
  8
0
100
AcDbBlockBegin
  2
e3_node(5)
 70
     0
 10
0.0
 20
0.0
 30
0.0
  3
e3_node(5)
  1

  0
POLYLINE
  5
19F
330
19E
100
AcDbEntity
  8
0
 62
     9
420
 12632256
100
AcDbPolyFaceMesh
 66
     1
 10
0.0
 20
0.0
 30
0.0
 70
    64
 71
    12
 72
    10
  0
VERTEX
  5
1A0
330
19F
100
AcDbEntity
  8
0
100
AcDbVertex
100
AcDbPolyFaceMeshVertex
 10
9.0
 20
-297.2239990234375
 30
13.52600002288818
 70
   192
  0
VERTEX
  5
1A1
330
19F
100
AcDbEntity
  8
0
100
AcDbVertex
100
AcDbPolyFaceMeshVertex
 10
9.0
 20
-305.7990112304688
 30
18.47699928283691
 70
   192
  0
VERTEX
  5
1A2
330
19F
100
AcDbEntity
  8
0
100
AcDbVertex
100
AcDbPolyFaceMeshVertex
 10
9.0
 20
-315.7009887695312
 30
18.47699928283691
 70
   192
  0
VERTEX
  5
1A3
330
19F
100
AcDbEntity
  8
0
100
AcDbVertex
100
AcDbPolyFaceMeshVertex
 10
9.0
 20
-305.7990112304688
 30
-18.47699928283691
 70
   192
  0
VERTEX
  5
1A4
330
19F
100
AcDbEntity
  8
0
100
AcDbVertex
100
AcDbPolyFaceMeshVertex
 10
9.0
 20
-297.2239990234375
 30
-13.52600002288818
 70
   192
  0
VERTEX
  5
1A5
330
19F
100
AcDbEntity
  8
0
100
AcDbVertex
100
AcDbPolyFaceMeshVertex
 10
9.0
 20
-329.2269897460938
 30
4.951000213623047
 70
   192
  0
VERTEX
  5
1A6
330
19F
100
AcDbEntity
  8
0
100
AcDbVertex
100
AcDbPolyFaceMeshVertex
 10
9.0
 20
-329.2269897460938
 30
-4.951000213623047
 70
   192
  0
VERTEX
  5
1A7
330
19F
100
AcDbEntity
  8
0
100
AcDbVertex
100
AcDbPolyFaceMeshVertex
 10
9.0
 20
-324.2760009765625
 30
13.52600002288818
 70
   192
  0
VERTEX
  5
1A8
330
19F
100
AcDbEntity
  8
0
100
AcDbVertex
100
AcDbPolyFaceMeshVertex
 10
9.0
 20
-292.2730102539062
 30
-4.951000213623047
 70
   192
  0
VERTEX
  5
1A9
330
19F
100
AcDbEntity
  8
0
100
AcDbVertex
100
AcDbPolyFaceMeshVertex
 10
9.0
 20
-324.2760009765625
 30
-13.52600002288818
 70
   192
  0
VERTEX
  5
1AA
330
19F
100
AcDbEntity
  8
0
100
AcDbVertex
100
AcDbPolyFaceMeshVertex
 10
9.0
 20
-315.7009887695312
 30
-18.47699928283691
 70
   192
  0
VERTEX
  5
1AB
330
19F
100
AcDbEntity
  8
0
100
AcDbVertex
100
AcDbPolyFaceMeshVertex
 10
9.0
 20
-292.2730102539062
 30
4.951000213623047
 70
   192
  0
VERTEX
  5
1AC
330
19F
100
AcDbEntity
  8
0
 62
     9
420
 12632256
100
AcDbFaceRecord
 10
0.0
 20
0.0
 30
0.0
 70
   128
 71
     3
 72
     2
 73
     1
  0
VERTEX
  5
1AD
330
19F
100
AcDbEntity
  8
0
 62
     9
420
 12632256
100
AcDbFaceRecord
 10
0.0
 20
0.0
 30
0.0
 70
   128
 71
     5
 72
     4
 73
     1
  0
VERTEX
  5
1AE
330
19F
100
AcDbEntity
  8
0
 62
     9
420
 12632256
100
AcDbFaceRecord
 10
0.0
 20
0.0
 30
0.0
 70
   128
 71
     7
 72
     6
 73
     1
  0
VERTEX
  5
1AF
330
19F
100
AcDbEntity
  8
0
 62
     9
420
 12632256
100
AcDbFaceRecord
 10
0.0
 20
0.0
 30
0.0
 70
   128
 71
     1
 72
     8
 73
     3
  0
VERTEX
  5
1B0
330
19F
100
AcDbEntity
  8
0
 62
     9
420
 12632256
100
AcDbFaceRecord
 10
0.0
 20
0.0
 30
0.0
 70
   128
 71
     1
 72
     9
 73
     5
  0
VERTEX
  5
1B1
330
19F
100
AcDbEntity
  8
0
 62
     9
420
 12632256
100
AcDbFaceRecord
 10
0.0
 20
0.0
 30
0.0
 70
   128
 71
    11
 72
    10
 73
     1
  0
VERTEX
  5
1B2
330
19F
100
AcDbEntity
  8
0
 62
     9
420
 12632256
100
AcDbFaceRecord
 10
0.0
 20
0.0
 30
0.0
 70
   128
 71
     1
 72
     6
 73
     8
  0
VERTEX
  5
1B3
330
19F
100
AcDbEntity
  8
0
 62
     9
420
 12632256
100
AcDbFaceRecord
 10
0.0
 20
0.0
 30
0.0
 70
   128
 71
     1
 72
     4
 73
    11
  0
VERTEX
  5
1B4
330
19F
100
AcDbEntity
  8
0
 62
     9
420
 12632256
100
AcDbFaceRecord
 10
0.0
 20
0.0
 30
0.0
 70
   128
 71
     1
 72
    12
 73
     9
  0
VERTEX
  5
1B5
330
19F
100
AcDbEntity
  8
0
 62
     9
420
 12632256
100
AcDbFaceRecord
 10
0.0
 20
0.0
 30
0.0
 70
   128
 71
     1
 72
    10
 73
     7
  0
SEQEND
  5
1B6
330
19F
100
AcDbEntity
  8
0
 62
     9
420
 12632256
  0
ENDBLK
  5
1B9
330
19E
100
AcDbEntity
  8
0
100
AcDbBlockEnd
  0
BLOCK
  5
1CA
330
1BA
100
AcDbEntity
  8
0
100
AcDbBlockBegin
  2
e3_node(6)
 70
     0
 10
0.0
 20
0.0
 30
0.0
  3
e3_node(6)
  1

  0
POLYLINE
  5
1BB
330
1BA
100
AcDbEntity
  8
0
 62
     9
420
 12632256
100
AcDbPolyFaceMesh
 66
     1
 10
0.0
 20
0.0
 30
0.0
 70
    64
 71
     7
 72
     5
  0
VERTEX
  5
1BC
330
1BB
100
AcDbEntity
  8
0
100
AcDbVertex
100
AcDbPolyFaceMeshVertex
 10
9.0
 20
-292.2730102539062
 30
4.951000213623047
 70
   192
  0
VERTEX
  5
1BD
330
1BB
100
AcDbEntity
  8
0
100
AcDbVertex
100
AcDbPolyFaceMeshVertex
 10
9.0
 20
-292.2730102539062
 30
-4.951000213623047
 70
   192
  0
VERTEX
  5
1BE
330
1BB
100
AcDbEntity
  8
0
100
AcDbVertex
100
AcDbPolyFaceMeshVertex
 10
1.45799994468689
 20
-286.3800048828125
 30
-0.5979999899864197
 70
   192
  0
VERTEX
  5
1BF
330
1BB
100
AcDbEntity
  8
0
100
AcDbVertex
100
AcDbPolyFaceMeshVertex
 10
1.968999981880188
 20
-286.7799987792969
 30
-4.004000186920166
 70
   192
  0
VERTEX
  5
1C0
330
1BB
100
AcDbEntity
  8
0
100
AcDbVertex
100
AcDbPolyFaceMeshVertex
 10
2.059999942779541
 20
-286.8510131835938
 30
5.368000030517578
 70
   192
  0
VERTEX
  5
1C1
330
1BB
100
AcDbEntity
  8
0
100
AcDbVertex
100
AcDbPolyFaceMeshVertex
 10
2.321000099182129
 20
-287.0549926757812
 30
-6.348999977111816
 70
   192
  0
VERTEX
  5
1C2
330
1BB
100
AcDbEntity
  8
0
100
AcDbVertex
100
AcDbPolyFaceMeshVertex
 10
2.321000099182129
 20
-287.0549926757812
 30
6.348999977111816
 70
   192
  0
VERTEX
  5
1C3
330
1BB
100
AcDbEntity
  8
0
 62
     9
420
 12632256
100
AcDbFaceRecord
 10
0.0
 20
0.0
 30
0.0
 70
   128
 71
     3
 72
     2
 73
     1
  0
VERTEX
  5
1C4
330
1BB
100
AcDbEntity
  8
0
 62
     9
420
 12632256
100
AcDbFaceRecord
 10
0.0
 20
0.0
 30
0.0
 70
   128
 71
     3
 72
     4
 73
     2
  0
VERTEX
  5
1C5
330
1BB
100
AcDbEntity
  8
0
 62
     9
420
 12632256
100
AcDbFaceRecord
 10
0.0
 20
0.0
 30
0.0
 70
   128
 71
     1
 72
     5
 73
     3
  0
VERTEX
  5
1C6
330
1BB
100
AcDbEntity
  8
0
 62
     9
420
 12632256
100
AcDbFaceRecord
 10
0.0
 20
0.0
 30
0.0
 70
   128
 71
     4
 72
     6
 73
     2
  0
VERTEX
  5
1C7
330
1BB
100
AcDbEntity
  8
0
 62
     9
420
 12632256
100
AcDbFaceRecord
 10
0.0
 20
0.0
 30
0.0
 70
   128
 71
     1
 72
     7
 73
     5
  0
SEQEND
  5
1C8
330
1BB
100
AcDbEntity
  8
0
 62
     9
420
 12632256
  0
ENDBLK
  5
1CB
330
1BA
100
AcDbEntity
  8
0
100
AcDbBlockEnd
  0
BLOCK
  5
1DC
330
1CC
100
AcDbEntity
  8
0
100
AcDbBlockBegin
  2
e3_node(7)
 70
     0
 10
0.0
 20
0.0
 30
0.0
  3
e3_node(7)
  1

  0
POLYLINE
  5
1CD
330
1CC
100
AcDbEntity
  8
0
 62
     9
420
 12632256
100
AcDbPolyFaceMesh
 66
     1
 10
0.0
 20
0.0
 30
0.0
 70
    64
 71
     7
 72
     5
  0
VERTEX
  5
1CE
330
1CD
100
AcDbEntity
  8
0
100
AcDbVertex
100
AcDbPolyFaceMeshVertex
 10
9.0
 20
-292.2730102539062
 30
-4.951000213623047
 70
   192
  0
VERTEX
  5
1CF
330
1CD
100
AcDbEntity
  8
0
100
AcDbVertex
100
AcDbPolyFaceMeshVertex
 10
9.0
 20
-297.2239990234375
 30
-13.52600002288818
 70
   192
  0
VERTEX
  5
1D0
330
1CD
100
AcDbEntity
  8
0
100
AcDbVertex
100
AcDbPolyFaceMeshVertex
 10
1.45799994468689
 20
-289.9440002441406
 30
-12.70199966430664
 70
   192
  0
VERTEX
  5
1D1
330
1CD
100
AcDbEntity
  8
0
100
AcDbVertex
100
AcDbPolyFaceMeshVertex
 10
1.968999981880188
 20
-291.9939880371094
 30
-15.45300006866455
 70
   192
  0
VERTEX
  5
1D2
330
1CD
100
AcDbEntity
  8
0
100
AcDbVertex
100
AcDbPolyFaceMeshVertex
 10
2.059999942779541
 20
-287.3689880371094
 30
-7.301000118255615
 70
   192
  0
VERTEX
  5
1D3
330
1CD
100
AcDbEntity
  8
0
100
AcDbVertex
100
AcDbPolyFaceMeshVertex
 10
2.321000099182129
 20
-293.4039916992188
 30
-17.34600067138672
 70
   192
  0
VERTEX
  5
1D4
330
1CD
100
AcDbEntity
  8
0
100
AcDbVertex
100
AcDbPolyFaceMeshVertex
 10
2.321000099182129
 20
-287.0549926757812
 30
-6.348999977111816
 70
   192
  0
VERTEX
  5
1D5
330
1CD
100
AcDbEntity
  8
0
 62
     9
420
 12632256
100
AcDbFaceRecord
 10
0.0
 20
0.0
 30
0.0
 70
   128
 71
     3
 72
     2
 73
     1
  0
VERTEX
  5
1D6
330
1CD
100
AcDbEntity
  8
0
 62
     9
420
 12632256
100
AcDbFaceRecord
 10
0.0
 20
0.0
 30
0.0
 70
   128
 71
     3
 72
     4
 73
     2
  0
VERTEX
  5
1D7
330
1CD
100
AcDbEntity
  8
0
 62
     9
420
 12632256
100
AcDbFaceRecord
 10
0.0
 20
0.0
 30
0.0
 70
   128
 71
     1
 72
     5
 73
     3
  0
VERTEX
  5
1D8
330
1CD
100
AcDbEntity
  8
0
 62
     9
420
 12632256
100
AcDbFaceRecord
 10
0.0
 20
0.0
 30
0.0
 70
   128
 71
     4
 72
     6
 73
     2
  0
VERTEX
  5
1D9
330
1CD
100
AcDbEntity
  8
0
 62
     9
420
 12632256
100
AcDbFaceRecord
 10
0.0
 20
0.0
 30
0.0
 70
   128
 71
     1
 72
     7
 73
     5
  0
SEQEND
  5
1DA
330
1CD
100
AcDbEntity
  8
0
 62
     9
420
 12632256
  0
ENDBLK
  5
1DD
330
1CC
100
AcDbEntity
  8
0
100
AcDbBlockEnd
  0
BLOCK
  5
1EE
330
1DE
100
AcDbEntity
  8
0
100
AcDbBlockBegin
  2
e3_node(8)
 70
     0
 10
0.0
 20
0.0
 30
0.0
  3
e3_node(8)
  1

  0
POLYLINE
  5
1DF
330
1DE
100
AcDbEntity
  8
0
 62
     9
420
 12632256
100
AcDbPolyFaceMesh
 66
     1
 10
0.0
 20
0.0
 30
0.0
 70
    64
 71
     7
 72
     5
  0
VERTEX
  5
1E0
330
1DF
100
AcDbEntity
  8
0
100
AcDbVertex
100
AcDbPolyFaceMeshVertex
 10
9.0
 20
-297.2239990234375
 30
13.52600002288818
 70
   192
  0
VERTEX
  5
1E1
330
1DF
100
AcDbEntity
  8
0
100
AcDbVertex
100
AcDbPolyFaceMeshVertex
 10
9.0
 20
-292.2730102539062
 30
4.951000213623047
 70
   192
  0
VERTEX
  5
1E2
330
1DF
100
AcDbEntity
  8
0
100
AcDbVertex
100
AcDbPolyFaceMeshVertex
 10
1.45799994468689
 20
-289.3469848632812
 30
11.66699981689453
 70
   192
  0
VERTEX
  5
1E3
330
1DF
100
AcDbEntity
  8
0
100
AcDbVertex
100
AcDbPolyFaceMeshVertex
 10
1.968999981880188
 20
-287.989013671875
 30
8.517000198364258
 70
   192
  0
VERTEX
  5
1E4
330
1DF
100
AcDbEntity
  8
0
100
AcDbVertex
100
AcDbPolyFaceMeshVertex
 10
2.059999942779541
 20
-292.7369995117188
 30
16.59799957275391
 70
   192
  0
VERTEX
  5
1E5
330
1DF
100
AcDbEntity
  8
0
100
AcDbVertex
100
AcDbPolyFaceMeshVertex
 10
2.321000099182129
 20
-287.0549926757812
 30
6.348999977111816
 70
   192
  0
VERTEX
  5
1E6
330
1DF
100
AcDbEntity
  8
0
100
AcDbVertex
100
AcDbPolyFaceMeshVertex
 10
2.321000099182129
 20
-293.4039916992188
 30
17.34600067138672
 70
   192
  0
VERTEX
  5
1E7
330
1DF
100
AcDbEntity
  8
0
 62
     9
420
 12632256
100
AcDbFaceRecord
 10
0.0
 20
0.0
 30
0.0
 70
   128
 71
     3
 72
     2
 73
     1
  0
VERTEX
  5
1E8
330
1DF
100
AcDbEntity
  8
0
 62
     9
420
 12632256
100
AcDbFaceRecord
 10
0.0
 20
0.0
 30
0.0
 70
   128
 71
     3
 72
     4
 73
     2
  0
VERTEX
  5
1E9
330
1DF
100
AcDbEntity
  8
0
 62
     9
420
 12632256
100
AcDbFaceRecord
 10
0.0
 20
0.0
 30
0.0
 70
   128
 71
     1
 72
     5
 73
     3
  0
VERTEX
  5
1EA
330
1DF
100
AcDbEntity
  8
0
 62
     9
420
 12632256
100
AcDbFaceRecord
 10
0.0
 20
0.0
 30
0.0
 70
   128
 71
     4
 72
     6
 73
     2
  0
VERTEX
  5
1EB
330
1DF
100
AcDbEntity
  8
0
 62
     9
420
 12632256
100
AcDbFaceRecord
 10
0.0
 20
0.0
 30
0.0
 70
   128
 71
     1
 72
     7
 73
     5
  0
SEQEND
  5
1EC
330
1DF
100
AcDbEntity
  8
0
 62
     9
420
 12632256
  0
ENDBLK
  5
1EF
330
1DE
100
AcDbEntity
  8
0
100
AcDbBlockEnd
  0
BLOCK
  5
200
330
1F0
100
AcDbEntity
  8
0
100
AcDbBlockBegin
  2
e3_node(9)
 70
     0
 10
0.0
 20
0.0
 30
0.0
  3
e3_node(9)
  1

  0
POLYLINE
  5
1F1
330
1F0
100
AcDbEntity
  8
0
 62
     9
420
 12632256
100
AcDbPolyFaceMesh
 66
     1
 10
0.0
 20
0.0
 30
0.0
 70
    64
 71
     7
 72
     5
  0
VERTEX
  5
1F2
330
1F1
100
AcDbEntity
  8
0
100
AcDbVertex
100
AcDbPolyFaceMeshVertex
 10
9.0
 20
-297.2239990234375
 30
-13.52600002288818
 70
   192
  0
VERTEX
  5
1F3
330
1F1
100
AcDbEntity
  8
0
100
AcDbVertex
100
AcDbPolyFaceMeshVertex
 10
9.0
 20
-305.7990112304688
 30
-18.47699928283691
 70
   192
  0
VERTEX
  5
1F4
330
1F1
100
AcDbEntity
  8
0
100
AcDbVertex
100
AcDbPolyFaceMeshVertex
 10
1.45799994468689
 20
-299.0830078125
 30
-21.40299987792969
 70
   192
  0
VERTEX
  5
1F5
330
1F1
100
AcDbEntity
  8
0
100
AcDbVertex
100
AcDbPolyFaceMeshVertex
 10
1.968999981880188
 20
-302.2330017089844
 30
-22.76099967956543
 70
   192
  0
VERTEX
  5
1F6
330
1F1
100
AcDbEntity
  8
0
100
AcDbVertex
100
AcDbPolyFaceMeshVertex
 10
2.059999942779541
 20
-294.1520080566406
 30
-18.01300048828125
 70
   192
  0
VERTEX
  5
1F7
330
1F1
100
AcDbEntity
  8
0
100
AcDbVertex
100
AcDbPolyFaceMeshVertex
 10
2.321000099182129
 20
-304.4010009765625
 30
-23.69499969482422
 70
   192
  0
VERTEX
  5
1F8
330
1F1
100
AcDbEntity
  8
0
100
AcDbVertex
100
AcDbPolyFaceMeshVertex
 10
2.321000099182129
 20
-293.4039916992188
 30
-17.34600067138672
 70
   192
  0
VERTEX
  5
1F9
330
1F1
100
AcDbEntity
  8
0
 62
     9
420
 12632256
100
AcDbFaceRecord
 10
0.0
 20
0.0
 30
0.0
 70
   128
 71
     3
 72
     2
 73
     1
  0
VERTEX
  5
1FA
330
1F1
100
AcDbEntity
  8
0
 62
     9
420
 12632256
100
AcDbFaceRecord
 10
0.0
 20
0.0
 30
0.0
 70
   128
 71
     3
 72
     4
 73
     2
  0
VERTEX
  5
1FB
330
1F1
100
AcDbEntity
  8
0
 62
     9
420
 12632256
100
AcDbFaceRecord
 10
0.0
 20
0.0
 30
0.0
 70
   128
 71
     1
 72
     5
 73
     3
  0
VERTEX
  5
1FC
330
1F1
100
AcDbEntity
  8
0
 62
     9
420
 12632256
100
AcDbFaceRecord
 10
0.0
 20
0.0
 30
0.0
 70
   128
 71
     4
 72
     6
 73
     2
  0
VERTEX
  5
1FD
330
1F1
100
AcDbEntity
  8
0
 62
     9
420
 12632256
100
AcDbFaceRecord
 10
0.0
 20
0.0
 30
0.0
 70
   128
 71
     1
 72
     7
 73
     5
  0
SEQEND
  5
1FE
330
1F1
100
AcDbEntity
  8
0
 62
     9
420
 12632256
  0
ENDBLK
  5
201
330
1F0
100
AcDbEntity
  8
0
100
AcDbBlockEnd
  0
BLOCK
  5
212
330
202
100
AcDbEntity
  8
0
100
AcDbBlockBegin
  2
e3_node(10)
 70
     0
 10
0.0
 20
0.0
 30
0.0
  3
e3_node(10)
  1

  0
POLYLINE
  5
203
330
202
100
AcDbEntity
  8
0
 62
     9
420
 12632256
100
AcDbPolyFaceMesh
 66
     1
 10
0.0
 20
0.0
 30
0.0
 70
    64
 71
     7
 72
     5
  0
VERTEX
  5
204
330
203
100
AcDbEntity
  8
0
100
AcDbVertex
100
AcDbPolyFaceMeshVertex
 10
9.0
 20
-305.7990112304688
 30
-18.47699928283691
 70
   192
  0
VERTEX
  5
205
330
203
100
AcDbEntity
  8
0
100
AcDbVertex
100
AcDbPolyFaceMeshVertex
 10
9.0
 20
-315.7009887695312
 30
-18.47699928283691
 70
   192
  0
VERTEX
  5
206
330
203
100
AcDbEntity
  8
0
100
AcDbVertex
100
AcDbPolyFaceMeshVertex
 10
1.45799994468689
 20
-311.3479919433594
 30
-24.3700008392334
 70
   192
  0
VERTEX
  5
207
330
203
100
AcDbEntity
  8
0
100
AcDbVertex
100
AcDbPolyFaceMeshVertex
 10
1.968999981880188
 20
-314.7539978027344
 30
-23.96999931335449
 70
   192
  0
VERTEX
  5
208
330
203
100
AcDbEntity
  8
0
100
AcDbVertex
100
AcDbPolyFaceMeshVertex
 10
2.059999942779541
 20
-305.3819885253906
 30
-23.89900016784668
 70
   192
  0
VERTEX
  5
209
330
203
100
AcDbEntity
  8
0
100
AcDbVertex
100
AcDbPolyFaceMeshVertex
 10
2.321000099182129
 20
-317.0989990234375
 30
-23.69499969482422
 70
   192
  0
VERTEX
  5
20A
330
203
100
AcDbEntity
  8
0
100
AcDbVertex
100
AcDbPolyFaceMeshVertex
 10
2.321000099182129
 20
-304.4010009765625
 30
-23.69499969482422
 70
   192
  0
VERTEX
  5
20B
330
203
100
AcDbEntity
  8
0
 62
     9
420
 12632256
100
AcDbFaceRecord
 10
0.0
 20
0.0
 30
0.0
 70
   128
 71
     3
 72
     2
 73
     1
  0
VERTEX
  5
20C
330
203
100
AcDbEntity
  8
0
 62
     9
420
 12632256
100
AcDbFaceRecord
 10
0.0
 20
0.0
 30
0.0
 70
   128
 71
     3
 72
     4
 73
     2
  0
VERTEX
  5
20D
330
203
100
AcDbEntity
  8
0
 62
     9
420
 12632256
100
AcDbFaceRecord
 10
0.0
 20
0.0
 30
0.0
 70
   128
 71
     1
 72
     5
 73
     3
  0
VERTEX
  5
20E
330
203
100
AcDbEntity
  8
0
 62
     9
420
 12632256
100
AcDbFaceRecord
 10
0.0
 20
0.0
 30
0.0
 70
   128
 71
     4
 72
     6
 73
     2
  0
VERTEX
  5
20F
330
203
100
AcDbEntity
  8
0
 62
     9
420
 12632256
100
AcDbFaceRecord
 10
0.0
 20
0.0
 30
0.0
 70
   128
 71
     1
 72
     7
 73
     5
  0
SEQEND
  5
210
330
203
100
AcDbEntity
  8
0
 62
     9
420
 12632256
  0
ENDBLK
  5
213
330
202
100
AcDbEntity
  8
0
100
AcDbBlockEnd
  0
BLOCK
  5
224
330
214
100
AcDbEntity
  8
0
100
AcDbBlockBegin
  2
e3_node(11)
 70
     0
 10
0.0
 20
0.0
 30
0.0
  3
e3_node(11)
  1

  0
POLYLINE
  5
215
330
214
100
AcDbEntity
  8
0
 62
     9
420
 12632256
100
AcDbPolyFaceMesh
 66
     1
 10
0.0
 20
0.0
 30
0.0
 70
    64
 71
     7
 72
     5
  0
VERTEX
  5
216
330
215
100
AcDbEntity
  8
0
100
AcDbVertex
100
AcDbPolyFaceMeshVertex
 10
9.0
 20
-315.7009887695312
 30
18.47699928283691
 70
   192
  0
VERTEX
  5
217
330
215
100
AcDbEntity
  8
0
100
AcDbVertex
100
AcDbPolyFaceMeshVertex
 10
9.0
 20
-305.7990112304688
 30
18.47699928283691
 70
   192
  0
VERTEX
  5
218
330
215
100
AcDbEntity
  8
0
100
AcDbVertex
100
AcDbPolyFaceMeshVertex
 10
1.45799994468689
 20
-310.1520080566406
 30
24.3700008392334
 70
   192
  0
VERTEX
  5
219
330
215
100
AcDbEntity
  8
0
100
AcDbVertex
100
AcDbPolyFaceMeshVertex
 10
1.968999981880188
 20
-306.7460021972656
 30
23.96999931335449
 70
   192
  0
VERTEX
  5
21A
330
215
100
AcDbEntity
  8
0
100
AcDbVertex
100
AcDbPolyFaceMeshVertex
 10
2.059999942779541
 20
-316.1180114746094
 30
23.89900016784668
 70
   192
  0
VERTEX
  5
21B
330
215
100
AcDbEntity
  8
0
100
AcDbVertex
100
AcDbPolyFaceMeshVertex
 10
2.321000099182129
 20
-304.4010009765625
 30
23.69499969482422
 70
   192
  0
VERTEX
  5
21C
330
215
100
AcDbEntity
  8
0
100
AcDbVertex
100
AcDbPolyFaceMeshVertex
 10
2.321000099182129
 20
-317.0989990234375
 30
23.69499969482422
 70
   192
  0
VERTEX
  5
21D
330
215
100
AcDbEntity
  8
0
 62
     9
420
 12632256
100
AcDbFaceRecord
 10
0.0
 20
0.0
 30
0.0
 70
   128
 71
     3
 72
     2
 73
     1
  0
VERTEX
  5
21E
330
215
100
AcDbEntity
  8
0
 62
     9
420
 12632256
100
AcDbFaceRecord
 10
0.0
 20
0.0
 30
0.0
 70
   128
 71
     3
 72
     4
 73
     2
  0
VERTEX
  5
21F
330
215
100
AcDbEntity
  8
0
 62
     9
420
 12632256
100
AcDbFaceRecord
 10
0.0
 20
0.0
 30
0.0
 70
   128
 71
     1
 72
     5
 73
     3
  0
VERTEX
  5
220
330
215
100
AcDbEntity
  8
0
 62
     9
420
 12632256
100
AcDbFaceRecord
 10
0.0
 20
0.0
 30
0.0
 70
   128
 71
     4
 72
     6
 73
     2
  0
VERTEX
  5
221
330
215
100
AcDbEntity
  8
0
 62
     9
420
 12632256
100
AcDbFaceRecord
 10
0.0
 20
0.0
 30
0.0
 70
   128
 71
     1
 72
     7
 73
     5
  0
SEQEND
  5
222
330
215
100
AcDbEntity
  8
0
 62
     9
420
 12632256
  0
ENDBLK
  5
225
330
214
100
AcDbEntity
  8
0
100
AcDbBlockEnd
  0
BLOCK
  5
236
330
226
100
AcDbEntity
  8
0
100
AcDbBlockBegin
  2
e3_node(12)
 70
     0
 10
0.0
 20
0.0
 30
0.0
  3
e3_node(12)
  1

  0
POLYLINE
  5
227
330
226
100
AcDbEntity
  8
0
 62
     9
420
 12632256
100
AcDbPolyFaceMesh
 66
     1
 10
0.0
 20
0.0
 30
0.0
 70
    64
 71
     7
 72
     5
  0
VERTEX
  5
228
330
227
100
AcDbEntity
  8
0
100
AcDbVertex
100
AcDbPolyFaceMeshVertex
 10
9.0
 20
-315.7009887695312
 30
-18.47699928283691
 70
   192
  0
VERTEX
  5
229
330
227
100
AcDbEntity
  8
0
100
AcDbVertex
100
AcDbPolyFaceMeshVertex
 10
9.0
 20
-324.2760009765625
 30
-13.52600002288818
 70
   192
  0
VERTEX
  5
22A
330
227
100
AcDbEntity
  8
0
100
AcDbVertex
100
AcDbPolyFaceMeshVertex
 10
1.45799994468689
 20
-323.4519958496094
 30
-20.80599975585938
 70
   192
  0
VERTEX
  5
22B
330
227
100
AcDbEntity
  8
0
100
AcDbVertex
100
AcDbPolyFaceMeshVertex
 10
1.968999981880188
 20
-326.2030029296875
 30
-18.75600051879883
 70
   192
  0
VERTEX
  5
22C
330
227
100
AcDbEntity
  8
0
100
AcDbVertex
100
AcDbPolyFaceMeshVertex
 10
2.059999942779541
 20
-318.0509948730469
 30
-23.38100051879883
 70
   192
  0
VERTEX
  5
22D
330
227
100
AcDbEntity
  8
0
100
AcDbVertex
100
AcDbPolyFaceMeshVertex
 10
2.321000099182129
 20
-328.0960083007812
 30
-17.34600067138672
 70
   192
  0
VERTEX
  5
22E
330
227
100
AcDbEntity
  8
0
100
AcDbVertex
100
AcDbPolyFaceMeshVertex
 10
2.321000099182129
 20
-317.0989990234375
 30
-23.69499969482422
 70
   192
  0
VERTEX
  5
22F
330
227
100
AcDbEntity
  8
0
 62
     9
420
 12632256
100
AcDbFaceRecord
 10
0.0
 20
0.0
 30
0.0
 70
   128
 71
     3
 72
     2
 73
     1
  0
VERTEX
  5
230
330
227
100
AcDbEntity
  8
0
 62
     9
420
 12632256
100
AcDbFaceRecord
 10
0.0
 20
0.0
 30
0.0
 70
   128
 71
     3
 72
     4
 73
     2
  0
VERTEX
  5
231
330
227
100
AcDbEntity
  8
0
 62
     9
420
 12632256
100
AcDbFaceRecord
 10
0.0
 20
0.0
 30
0.0
 70
   128
 71
     1
 72
     5
 73
     3
  0
VERTEX
  5
232
330
227
100
AcDbEntity
  8
0
 62
     9
420
 12632256
100
AcDbFaceRecord
 10
0.0
 20
0.0
 30
0.0
 70
   128
 71
     4
 72
     6
 73
     2
  0
VERTEX
  5
233
330
227
100
AcDbEntity
  8
0
 62
     9
420
 12632256
100
AcDbFaceRecord
 10
0.0
 20
0.0
 30
0.0
 70
   128
 71
     1
 72
     7
 73
     5
  0
SEQEND
  5
234
330
227
100
AcDbEntity
  8
0
 62
     9
420
 12632256
  0
ENDBLK
  5
237
330
226
100
AcDbEntity
  8
0
100
AcDbBlockEnd
  0
BLOCK
  5
248
330
238
100
AcDbEntity
  8
0
100
AcDbBlockBegin
  2
e3_node(13)
 70
     0
 10
0.0
 20
0.0
 30
0.0
  3
e3_node(13)
  1

  0
POLYLINE
  5
239
330
238
100
AcDbEntity
  8
0
 62
     9
420
 12632256
100
AcDbPolyFaceMesh
 66
     1
 10
0.0
 20
0.0
 30
0.0
 70
    64
 71
     7
 72
     5
  0
VERTEX
  5
23A
330
239
100
AcDbEntity
  8
0
100
AcDbVertex
100
AcDbPolyFaceMeshVertex
 10
9.0
 20
-324.2760009765625
 30
13.52600002288818
 70
   192
  0
VERTEX
  5
23B
330
239
100
AcDbEntity
  8
0
100
AcDbVertex
100
AcDbPolyFaceMeshVertex
 10
9.0
 20
-315.7009887695312
 30
18.47699928283691
 70
   192
  0
VERTEX
  5
23C
330
239
100
AcDbEntity
  8
0
100
AcDbVertex
100
AcDbPolyFaceMeshVertex
 10
1.45799994468689
 20
-322.4169921875
 30
21.40299987792969
 70
   192
  0
VERTEX
  5
23D
330
239
100
AcDbEntity
  8
0
100
AcDbVertex
100
AcDbPolyFaceMeshVertex
 10
1.968999981880188
 20
-319.2669982910156
 30
22.76099967956543
 70
   192
  0
VERTEX
  5
23E
330
239
100
AcDbEntity
  8
0
100
AcDbVertex
100
AcDbPolyFaceMeshVertex
 10
2.059999942779541
 20
-327.3479919433594
 30
18.01300048828125
 70
   192
  0
VERTEX
  5
23F
330
239
100
AcDbEntity
  8
0
100
AcDbVertex
100
AcDbPolyFaceMeshVertex
 10
2.321000099182129
 20
-317.0989990234375
 30
23.69499969482422
 70
   192
  0
VERTEX
  5
240
330
239
100
AcDbEntity
  8
0
100
AcDbVertex
100
AcDbPolyFaceMeshVertex
 10
2.321000099182129
 20
-328.0960083007812
 30
17.34600067138672
 70
   192
  0
VERTEX
  5
241
330
239
100
AcDbEntity
  8
0
 62
     9
420
 12632256
100
AcDbFaceRecord
 10
0.0
 20
0.0
 30
0.0
 70
   128
 71
     3
 72
     2
 73
     1
  0
VERTEX
  5
242
330
239
100
AcDbEntity
  8
0
 62
     9
420
 12632256
100
AcDbFaceRecord
 10
0.0
 20
0.0
 30
0.0
 70
   128
 71
     3
 72
     4
 73
     2
  0
VERTEX
  5
243
330
239
100
AcDbEntity
  8
0
 62
     9
420
 12632256
100
AcDbFaceRecord
 10
0.0
 20
0.0
 30
0.0
 70
   128
 71
     1
 72
     5
 73
     3
  0
VERTEX
  5
244
330
239
100
AcDbEntity
  8
0
 62
     9
420
 12632256
100
AcDbFaceRecord
 10
0.0
 20
0.0
 30
0.0
 70
   128
 71
     4
 72
     6
 73
     2
  0
VERTEX
  5
245
330
239
100
AcDbEntity
  8
0
 62
     9
420
 12632256
100
AcDbFaceRecord
 10
0.0
 20
0.0
 30
0.0
 70
   128
 71
     1
 72
     7
 73
     5
  0
SEQEND
  5
246
330
239
100
AcDbEntity
  8
0
 62
     9
420
 12632256
  0
ENDBLK
  5
249
330
238
100
AcDbEntity
  8
0
100
AcDbBlockEnd
  0
BLOCK
  5
25A
330
24A
100
AcDbEntity
  8
0
100
AcDbBlockBegin
  2
e3_node(14)
 70
     0
 10
0.0
 20
0.0
 30
0.0
  3
e3_node(14)
  1

  0
POLYLINE
  5
24B
330
24A
100
AcDbEntity
  8
0
 62
     9
420
 12632256
100
AcDbPolyFaceMesh
 66
     1
 10
0.0
 20
0.0
 30
0.0
 70
    64
 71
     7
 72
     5
  0
VERTEX
  5
24C
330
24B
100
AcDbEntity
  8
0
100
AcDbVertex
100
AcDbPolyFaceMeshVertex
 10
9.0
 20
-324.2760009765625
 30
-13.52600002288818
 70
   192
  0
VERTEX
  5
24D
330
24B
100
AcDbEntity
  8
0
100
AcDbVertex
100
AcDbPolyFaceMeshVertex
 10
9.0
 20
-329.2269897460938
 30
-4.951000213623047
 70
   192
  0
VERTEX
  5
24E
330
24B
100
AcDbEntity
  8
0
100
AcDbVertex
100
AcDbPolyFaceMeshVertex
 10
1.45799994468689
 20
-332.1530151367188
 30
-11.66699981689453
 70
   192
  0
VERTEX
  5
24F
330
24B
100
AcDbEntity
  8
0
100
AcDbVertex
100
AcDbPolyFaceMeshVertex
 10
1.968999981880188
 20
-333.510986328125
 30
-8.517000198364258
 70
   192
  0
VERTEX
  5
250
330
24B
100
AcDbEntity
  8
0
100
AcDbVertex
100
AcDbPolyFaceMeshVertex
 10
2.059999942779541
 20
-328.7630004882812
 30
-16.59799957275391
 70
   192
  0
VERTEX
  5
251
330
24B
100
AcDbEntity
  8
0
100
AcDbVertex
100
AcDbPolyFaceMeshVertex
 10
2.321000099182129
 20
-334.4450073242188
 30
-6.348999977111816
 70
   192
  0
VERTEX
  5
252
330
24B
100
AcDbEntity
  8
0
100
AcDbVertex
100
AcDbPolyFaceMeshVertex
 10
2.321000099182129
 20
-328.0960083007812
 30
-17.34600067138672
 70
   192
  0
VERTEX
  5
253
330
24B
100
AcDbEntity
  8
0
 62
     9
420
 12632256
100
AcDbFaceRecord
 10
0.0
 20
0.0
 30
0.0
 70
   128
 71
     3
 72
     2
 73
     1
  0
VERTEX
  5
254
330
24B
100
AcDbEntity
  8
0
 62
     9
420
 12632256
100
AcDbFaceRecord
 10
0.0
 20
0.0
 30
0.0
 70
   128
 71
     3
 72
     4
 73
     2
  0
VERTEX
  5
255
330
24B
100
AcDbEntity
  8
0
 62
     9
420
 12632256
100
AcDbFaceRecord
 10
0.0
 20
0.0
 30
0.0
 70
   128
 71
     1
 72
     5
 73
     3
  0
VERTEX
  5
256
330
24B
100
AcDbEntity
  8
0
 62
     9
420
 12632256
100
AcDbFaceRecord
 10
0.0
 20
0.0
 30
0.0
 70
   128
 71
     4
 72
     6
 73
     2
  0
VERTEX
  5
257
330
24B
100
AcDbEntity
  8
0
 62
     9
420
 12632256
100
AcDbFaceRecord
 10
0.0
 20
0.0
 30
0.0
 70
   128
 71
     1
 72
     7
 73
     5
  0
SEQEND
  5
258
330
24B
100
AcDbEntity
  8
0
 62
     9
420
 12632256
  0
ENDBLK
  5
25B
330
24A
100
AcDbEntity
  8
0
100
AcDbBlockEnd
  0
BLOCK
  5
26C
330
25C
100
AcDbEntity
  8
0
100
AcDbBlockBegin
  2
e3_node(15)
 70
     0
 10
0.0
 20
0.0
 30
0.0
  3
e3_node(15)
  1

  0
POLYLINE
  5
25D
330
25C
100
AcDbEntity
  8
0
 62
     9
420
 12632256
100
AcDbPolyFaceMesh
 66
     1
 10
0.0
 20
0.0
 30
0.0
 70
    64
 71
     7
 72
     5
  0
VERTEX
  5
25E
330
25D
100
AcDbEntity
  8
0
100
AcDbVertex
100
AcDbPolyFaceMeshVertex
 10
9.0
 20
-329.2269897460938
 30
4.951000213623047
 70
   192
  0
VERTEX
  5
25F
330
25D
100
AcDbEntity
  8
0
100
AcDbVertex
100
AcDbPolyFaceMeshVertex
 10
9.0
 20
-324.2760009765625
 30
13.52600002288818
 70
   192
  0
VERTEX
  5
260
330
25D
100
AcDbEntity
  8
0
100
AcDbVertex
100
AcDbPolyFaceMeshVertex
 10
1.45799994468689
 20
-331.5559997558594
 30
12.70199966430664
 70
   192
  0
VERTEX
  5
261
330
25D
100
AcDbEntity
  8
0
100
AcDbVertex
100
AcDbPolyFaceMeshVertex
 10
1.968999981880188
 20
-329.5060119628906
 30
15.45300006866455
 70
   192
  0
VERTEX
  5
262
330
25D
100
AcDbEntity
  8
0
100
AcDbVertex
100
AcDbPolyFaceMeshVertex
 10
2.059999942779541
 20
-334.1310119628906
 30
7.301000118255615
 70
   192
  0
VERTEX
  5
263
330
25D
100
AcDbEntity
  8
0
100
AcDbVertex
100
AcDbPolyFaceMeshVertex
 10
2.321000099182129
 20
-328.0960083007812
 30
17.34600067138672
 70
   192
  0
VERTEX
  5
264
330
25D
100
AcDbEntity
  8
0
100
AcDbVertex
100
AcDbPolyFaceMeshVertex
 10
2.321000099182129
 20
-334.4450073242188
 30
6.348999977111816
 70
   192
  0
VERTEX
  5
265
330
25D
100
AcDbEntity
  8
0
 62
     9
420
 12632256
100
AcDbFaceRecord
 10
0.0
 20
0.0
 30
0.0
 70
   128
 71
     3
 72
     2
 73
     1
  0
VERTEX
  5
266
330
25D
100
AcDbEntity
  8
0
 62
     9
420
 12632256
100
AcDbFaceRecord
 10
0.0
 20
0.0
 30
0.0
 70
   128
 71
     3
 72
     4
 73
     2
  0
VERTEX
  5
267
330
25D
100
AcDbEntity
  8
0
 62
     9
420
 12632256
100
AcDbFaceRecord
 10
0.0
 20
0.0
 30
0.0
 70
   128
 71
     1
 72
     5
 73
     3
  0
VERTEX
  5
268
330
25D
100
AcDbEntity
  8
0
 62
     9
420
 12632256
100
AcDbFaceRecord
 10
0.0
 20
0.0
 30
0.0
 70
   128
 71
     4
 72
     6
 73
     2
  0
VERTEX
  5
269
330
25D
100
AcDbEntity
  8
0
 62
     9
420
 12632256
100
AcDbFaceRecord
 10
0.0
 20
0.0
 30
0.0
 70
   128
 71
     1
 72
     7
 73
     5
  0
SEQEND
  5
26A
330
25D
100
AcDbEntity
  8
0
 62
     9
420
 12632256
  0
ENDBLK
  5
26D
330
25C
100
AcDbEntity
  8
0
100
AcDbBlockEnd
  0
BLOCK
  5
27E
330
26E
100
AcDbEntity
  8
0
100
AcDbBlockBegin
  2
e3_node(16)
 70
     0
 10
0.0
 20
0.0
 30
0.0
  3
e3_node(16)
  1

  0
POLYLINE
  5
26F
330
26E
100
AcDbEntity
  8
0
 62
     9
420
 12632256
100
AcDbPolyFaceMesh
 66
     1
 10
0.0
 20
0.0
 30
0.0
 70
    64
 71
     7
 72
     5
  0
VERTEX
  5
270
330
26F
100
AcDbEntity
  8
0
100
AcDbVertex
100
AcDbPolyFaceMeshVertex
 10
9.0
 20
-329.2269897460938
 30
-4.951000213623047
 70
   192
  0
VERTEX
  5
271
330
26F
100
AcDbEntity
  8
0
100
AcDbVertex
100
AcDbPolyFaceMeshVertex
 10
9.0
 20
-329.2269897460938
 30
4.951000213623047
 70
   192
  0
VERTEX
  5
272
330
26F
100
AcDbEntity
  8
0
100
AcDbVertex
100
AcDbPolyFaceMeshVertex
 10
1.45799994468689
 20
-335.1199951171875
 30
0.5979999899864197
 70
   192
  0
VERTEX
  5
273
330
26F
100
AcDbEntity
  8
0
100
AcDbVertex
100
AcDbPolyFaceMeshVertex
 10
1.968999981880188
 20
-334.7200012207031
 30
4.004000186920166
 70
   192
  0
VERTEX
  5
274
330
26F
100
AcDbEntity
  8
0
100
AcDbVertex
100
AcDbPolyFaceMeshVertex
 10
2.059999942779541
 20
-334.6489868164062
 30
-5.368000030517578
 70
   192
  0
VERTEX
  5
275
330
26F
100
AcDbEntity
  8
0
100
AcDbVertex
100
AcDbPolyFaceMeshVertex
 10
2.321000099182129
 20
-334.4450073242188
 30
6.348999977111816
 70
   192
  0
VERTEX
  5
276
330
26F
100
AcDbEntity
  8
0
100
AcDbVertex
100
AcDbPolyFaceMeshVertex
 10
2.321000099182129
 20
-334.4450073242188
 30
-6.348999977111816
 70
   192
  0
VERTEX
  5
277
330
26F
100
AcDbEntity
  8
0
 62
     9
420
 12632256
100
AcDbFaceRecord
 10
0.0
 20
0.0
 30
0.0
 70
   128
 71
     3
 72
     2
 73
     1
  0
VERTEX
  5
278
330
26F
100
AcDbEntity
  8
0
 62
     9
420
 12632256
100
AcDbFaceRecord
 10
0.0
 20
0.0
 30
0.0
 70
   128
 71
     3
 72
     4
 73
     2
  0
VERTEX
  5
279
330
26F
100
AcDbEntity
  8
0
 62
     9
420
 12632256
100
AcDbFaceRecord
 10
0.0
 20
0.0
 30
0.0
 70
   128
 71
     1
 72
     5
 73
     3
  0
VERTEX
  5
27A
330
26F
100
AcDbEntity
  8
0
 62
     9
420
 12632256
100
AcDbFaceRecord
 10
0.0
 20
0.0
 30
0.0
 70
   128
 71
     4
 72
     6
 73
     2
  0
VERTEX
  5
27B
330
26F
100
AcDbEntity
  8
0
 62
     9
420
 12632256
100
AcDbFaceRecord
 10
0.0
 20
0.0
 30
0.0
 70
   128
 71
     1
 72
     7
 73
     5
  0
SEQEND
  5
27C
330
26F
100
AcDbEntity
  8
0
 62
     9
420
 12632256
  0
ENDBLK
  5
27F
330
26E
100
AcDbEntity
  8
0
100
AcDbBlockEnd
  0
BLOCK
  5
294
330
280
100
AcDbEntity
  8
0
100
AcDbBlockBegin
  2
e3_node(17)
 70
     0
 10
0.0
 20
0.0
 30
0.0
  3
e3_node(17)
  1

  0
POLYLINE
  5
281
330
280
100
AcDbEntity
  8
0
 62
     9
420
 12632256
100
AcDbPolyFaceMesh
 66
     1
 10
0.0
 20
0.0
 30
0.0
 70
    64
 71
     8
 72
     8
  0
VERTEX
  5
282
330
281
100
AcDbEntity
  8
0
100
AcDbVertex
100
AcDbPolyFaceMeshVertex
 10
49.02899932861328
 20
-316.9500122070312
 30
0.0
 70
   192
  0
VERTEX
  5
283
330
281
100
AcDbEntity
  8
0
100
AcDbVertex
100
AcDbPolyFaceMeshVertex
 10
55.37900161743164
 20
-316.9500122070312
 30
6.349999904632568
 70
   192
  0
VERTEX
  5
284
330
281
100
AcDbEntity
  8
0
100
AcDbVertex
100
AcDbPolyFaceMeshVertex
 10
55.37900161743164
 20
316.9500122070312
 30
6.349999904632568
 70
   192
  0
VERTEX
  5
285
330
281
100
AcDbEntity
  8
0
100
AcDbVertex
100
AcDbPolyFaceMeshVertex
 10
49.02899932861328
 20
316.9500122070312
 30
0.0
 70
   192
  0
VERTEX
  5
286
330
281
100
AcDbEntity
  8
0
100
AcDbVertex
100
AcDbPolyFaceMeshVertex
 10
61.72900009155273
 20
-316.9500122070312
 30
0.0
 70
   192
  0
VERTEX
  5
287
330
281
100
AcDbEntity
  8
0
100
AcDbVertex
100
AcDbPolyFaceMeshVertex
 10
61.72900009155273
 20
316.9500122070312
 30
0.0
 70
   192
  0
VERTEX
  5
288
330
281
100
AcDbEntity
  8
0
100
AcDbVertex
100
AcDbPolyFaceMeshVertex
 10
55.37900161743164
 20
-316.9500122070312
 30
-6.349999904632568
 70
   192
  0
VERTEX
  5
289
330
281
100
AcDbEntity
  8
0
100
AcDbVertex
100
AcDbPolyFaceMeshVertex
 10
55.37900161743164
 20
316.9500122070312
 30
-6.349999904632568
 70
   192
  0
VERTEX
  5
28A
330
281
100
AcDbEntity
  8
0
 62
     9
420
 12632256
100
AcDbFaceRecord
 10
0.0
 20
0.0
 30
0.0
 70
   128
 71
     3
 72
     2
 73
     1
  0
VERTEX
  5
28B
330
281
100
AcDbEntity
  8
0
 62
     9
420
 12632256
100
AcDbFaceRecord
 10
0.0
 20
0.0
 30
0.0
 70
   128
 71
     4
 72
     3
 73
     1
  0
VERTEX
  5
28C
330
281
100
AcDbEntity
  8
0
 62
     9
420
 12632256
100
AcDbFaceRecord
 10
0.0
 20
0.0
 30
0.0
 70
   128
 71
     6
 72
     5
 73
     2
  0
VERTEX
  5
28D
330
281
100
AcDbEntity
  8
0
 62
     9
420
 12632256
100
AcDbFaceRecord
 10
0.0
 20
0.0
 30
0.0
 70
   128
 71
     3
 72
     6
 73
     2
  0
VERTEX
  5
28E
330
281
100
AcDbEntity
  8
0
 62
     9
420
 12632256
100
AcDbFaceRecord
 10
0.0
 20
0.0
 30
0.0
 70
   128
 71
     8
 72
     7
 73
     5
  0
VERTEX
  5
28F
330
281
100
AcDbEntity
  8
0
 62
     9
420
 12632256
100
AcDbFaceRecord
 10
0.0
 20
0.0
 30
0.0
 70
   128
 71
     6
 72
     8
 73
     5
  0
VERTEX
  5
290
330
281
100
AcDbEntity
  8
0
 62
     9
420
 12632256
100
AcDbFaceRecord
 10
0.0
 20
0.0
 30
0.0
 70
   128
 71
     4
 72
     1
 73
     7
  0
VERTEX
  5
291
330
281
100
AcDbEntity
  8
0
 62
     9
420
 12632256
100
AcDbFaceRecord
 10
0.0
 20
0.0
 30
0.0
 70
   128
 71
     8
 72
     4
 73
     7
  0
SEQEND
  5
292
330
281
100
AcDbEntity
  8
0
 62
     9
420
 12632256
  0
ENDBLK
  5
295
330
280
100
AcDbEntity
  8
0
100
AcDbBlockEnd
  0
BLOCK
  5
2CA
330
296
100
AcDbEntity
  8
0
100
AcDbBlockBegin
  2
e3_node(18)
 70
     0
 10
0.0
 20
0.0
 30
0.0
  3
e3_node(18)
  1

  0
POLYLINE
  5
297
330
296
100
AcDbEntity
  8
0
 62
     9
420
 12632256
100
AcDbPolyFaceMesh
 66
     1
 10
0.0
 20
0.0
 30
0.0
 70
    64
 71
    20
 72
    28
  0
VERTEX
  5
298
330
297
100
AcDbEntity
  8
0
100
AcDbVertex
100
AcDbPolyFaceMeshVertex
 10
65.6500015258789
 20
-301.7130126953125
 30
-10.76900005340576
 70
   192
  0
VERTEX
  5
299
330
297
100
AcDbEntity
  8
0
100
AcDbVertex
100
AcDbPolyFaceMeshVertex
 10
68.89600372314453
 20
-306.0220031738281
 30
-5.635000228881836
 70
   192
  0
VERTEX
  5
29A
330
297
100
AcDbEntity
  8
0
100
AcDbVertex
100
AcDbPolyFaceMeshVertex
 10
68.89600372314453
 20
-310.75
 30
-7.355999946594238
 70
   192
  0
VERTEX
  5
29B
330
297
100
AcDbEntity
  8
0
100
AcDbVertex
100
AcDbPolyFaceMeshVertex
 10
65.6500015258789
 20
-296.9049987792969
 30
-2.440999984741211
 70
   192
  0
VERTEX
  5
29C
330
297
100
AcDbEntity
  8
0
100
AcDbVertex
100
AcDbPolyFaceMeshVertex
 10
68.89600372314453
 20
-303.5060119628906
 30
-1.276999950408936
 70
   192
  0
VERTEX
  5
29D
330
297
100
AcDbEntity
  8
0
100
AcDbVertex
100
AcDbPolyFaceMeshVertex
 10
65.6500015258789
 20
-296.6910095214844
 30
0.0
 70
   192
  0
VERTEX
  5
29E
330
297
100
AcDbEntity
  8
0
100
AcDbVertex
100
AcDbPolyFaceMeshVertex
 10
65.6500015258789
 20
-298.5750122070312
 30
7.028999805450439
 70
   192
  0
VERTEX
  5
29F
330
297
100
AcDbEntity
  8
0
100
AcDbVertex
100
AcDbPolyFaceMeshVertex
 10
68.89600372314453
 20
-304.3789978027344
 30
3.677999973297119
 70
   192
  0
VERTEX
  5
2A0
330
297
100
AcDbEntity
  8
0
100
AcDbVertex
100
AcDbPolyFaceMeshVertex
 10
65.6500015258789
 20
-305.9419860839844
 30
13.21100044250488
 70
   192
  0
VERTEX
  5
2A1
330
297
100
AcDbEntity
  8
0
100
AcDbVertex
100
AcDbPolyFaceMeshVertex
 10
68.89600372314453
 20
-308.2340087890625
 30
6.913000106811523
 70
   192
  0
VERTEX
  5
2A2
330
297
100
AcDbEntity
  8
0
100
AcDbVertex
100
AcDbPolyFaceMeshVertex
 10
65.6500015258789
 20
-315.5580139160156
 30
13.21100044250488
 70
   192
  0
VERTEX
  5
2A3
330
297
100
AcDbEntity
  8
0
100
AcDbVertex
100
AcDbPolyFaceMeshVertex
 10
68.89600372314453
 20
-313.2659912109375
 30
6.913000106811523
 70
   192
  0
VERTEX
  5
2A4
330
297
100
AcDbEntity
  8
0
100
AcDbVertex
100
AcDbPolyFaceMeshVertex
 10
65.6500015258789
 20
-322.9249877929688
 30
7.028999805450439
 70
   192
  0
VERTEX
  5
2A5
330
297
100
AcDbEntity
  8
0
100
AcDbVertex
100
AcDbPolyFaceMeshVertex
 10
68.89600372314453
 20
-317.1210021972656
 30
3.677999973297119
 70
   192
  0
VERTEX
  5
2A6
330
297
100
AcDbEntity
  8
0
100
AcDbVertex
100
AcDbPolyFaceMeshVertex
 10
65.6500015258789
 20
-324.5950012207031
 30
-2.440999984741211
 70
   192
  0
VERTEX
  5
2A7
330
297
100
AcDbEntity
  8
0
100
AcDbVertex
100
AcDbPolyFaceMeshVertex
 10
68.89600372314453
 20
-317.9939880371094
 30
-1.276999950408936
 70
   192
  0
VERTEX
  5
2A8
330
297
100
AcDbEntity
  8
0
100
AcDbVertex
100
AcDbPolyFaceMeshVertex
 10
65.6500015258789
 20
-319.7869873046875
 30
-10.76900005340576
 70
   192
  0
VERTEX
  5
2A9
330
297
100
AcDbEntity
  8
0
100
AcDbVertex
100
AcDbPolyFaceMeshVertex
 10
68.89600372314453
 20
-315.4779968261719
 30
-5.635000228881836
 70
   192
  0
VERTEX
  5
2AA
330
297
100
AcDbEntity
  8
0
100
AcDbVertex
100
AcDbPolyFaceMeshVertex
 10
65.6500015258789
 20
-310.75
 30
-14.05900001525879
 70
   192
  0
VERTEX
  5
2AB
330
297
100
AcDbEntity
  8
0
100
AcDbVertex
100
AcDbPolyFaceMeshVertex
 10
70.05699920654297
 20
-310.75
 30
0.0
 70
   192
  0
VERTEX
  5
2AC
330
297
100
AcDbEntity
  8
0
 62
     9
420
 12632256
100
AcDbFaceRecord
 10
0.0
 20
0.0
 30
0.0
 70
   128
 71
     3
 72
     2
 73
     1
  0
VERTEX
  5
2AD
330
297
100
AcDbEntity
  8
0
 62
     9
420
 12632256
100
AcDbFaceRecord
 10
0.0
 20
0.0
 30
0.0
 70
   128
 71
     2
 72
     5
 73
     4
  0
VERTEX
  5
2AE
330
297
100
AcDbEntity
  8
0
 62
     9
420
 12632256
100
AcDbFaceRecord
 10
0.0
 20
0.0
 30
0.0
 70
   128
 71
     8
 72
     7
 73
     6
  0
VERTEX
  5
2AF
330
297
100
AcDbEntity
  8
0
 62
     9
420
 12632256
100
AcDbFaceRecord
 10
0.0
 20
0.0
 30
0.0
 70
   128
 71
     6
 72
     4
 73
     5
  0
VERTEX
  5
2B0
330
297
100
AcDbEntity
  8
0
 62
     9
420
 12632256
100
AcDbFaceRecord
 10
0.0
 20
0.0
 30
0.0
 70
   128
 71
     8
 72
    10
 73
     9
  0
VERTEX
  5
2B1
330
297
100
AcDbEntity
  8
0
 62
     9
420
 12632256
100
AcDbFaceRecord
 10
0.0
 20
0.0
 30
0.0
 70
   128
 71
    10
 72
    12
 73
    11
  0
VERTEX
  5
2B2
330
297
100
AcDbEntity
  8
0
 62
     9
420
 12632256
100
AcDbFaceRecord
 10
0.0
 20
0.0
 30
0.0
 70
   128
 71
    12
 72
    14
 73
    13
  0
VERTEX
  5
2B3
330
297
100
AcDbEntity
  8
0
 62
     9
420
 12632256
100
AcDbFaceRecord
 10
0.0
 20
0.0
 30
0.0
 70
   128
 71
    16
 72
    15
 73
    13
  0
VERTEX
  5
2B4
330
297
100
AcDbEntity
  8
0
 62
     9
420
 12632256
100
AcDbFaceRecord
 10
0.0
 20
0.0
 30
0.0
 70
   128
 71
    16
 72
    18
 73
    17
  0
VERTEX
  5
2B5
330
297
100
AcDbEntity
  8
0
 62
     9
420
 12632256
100
AcDbFaceRecord
 10
0.0
 20
0.0
 30
0.0
 70
   128
 71
    18
 72
     3
 73
    19
  0
VERTEX
  5
2B6
330
297
100
AcDbEntity
  8
0
 62
     9
420
 12632256
100
AcDbFaceRecord
 10
0.0
 20
0.0
 30
0.0
 70
   128
 71
     3
 72
    18
 73
    20
  0
VERTEX
  5
2B7
330
297
100
AcDbEntity
  8
0
 62
     9
420
 12632256
100
AcDbFaceRecord
 10
0.0
 20
0.0
 30
0.0
 70
   128
 71
    18
 72
    16
 73
    20
  0
VERTEX
  5
2B8
330
297
100
AcDbEntity
  8
0
 62
     9
420
 12632256
100
AcDbFaceRecord
 10
0.0
 20
0.0
 30
0.0
 70
   128
 71
    16
 72
    14
 73
    20
  0
VERTEX
  5
2B9
330
297
100
AcDbEntity
  8
0
 62
     9
420
 12632256
100
AcDbFaceRecord
 10
0.0
 20
0.0
 30
0.0
 70
   128
 71
    14
 72
    12
 73
    20
  0
VERTEX
  5
2BA
330
297
100
AcDbEntity
  8
0
 62
     9
420
 12632256
100
AcDbFaceRecord
 10
0.0
 20
0.0
 30
0.0
 70
   128
 71
    12
 72
    10
 73
    20
  0
VERTEX
  5
2BB
330
297
100
AcDbEntity
  8
0
 62
     9
420
 12632256
100
AcDbFaceRecord
 10
0.0
 20
0.0
 30
0.0
 70
   128
 71
    10
 72
     8
 73
    20
  0
VERTEX
  5
2BC
330
297
100
AcDbEntity
  8
0
 62
     9
420
 12632256
100
AcDbFaceRecord
 10
0.0
 20
0.0
 30
0.0
 70
   128
 71
     8
 72
     5
 73
    20
  0
VERTEX
  5
2BD
330
297
100
AcDbEntity
  8
0
 62
     9
420
 12632256
100
AcDbFaceRecord
 10
0.0
 20
0.0
 30
0.0
 70
   128
 71
     5
 72
     2
 73
    20
  0
VERTEX
  5
2BE
330
297
100
AcDbEntity
  8
0
 62
     9
420
 12632256
100
AcDbFaceRecord
 10
0.0
 20
0.0
 30
0.0
 70
   128
 71
     2
 72
     3
 73
    20
  0
VERTEX
  5
2BF
330
297
100
AcDbEntity
  8
0
 62
     9
420
 12632256
100
AcDbFaceRecord
 10
0.0
 20
0.0
 30
0.0
 70
   128
 71
    19
 72
    17
 73
    18
  0
VERTEX
  5
2C0
330
297
100
AcDbEntity
  8
0
 62
     9
420
 12632256
100
AcDbFaceRecord
 10
0.0
 20
0.0
 30
0.0
 70
   128
 71
    17
 72
    15
 73
    16
  0
VERTEX
  5
2C1
330
297
100
AcDbEntity
  8
0
 62
     9
420
 12632256
100
AcDbFaceRecord
 10
0.0
 20
0.0
 30
0.0
 70
   128
 71
    13
 72
    14
 73
    16
  0
VERTEX
  5
2C2
330
297
100
AcDbEntity
  8
0
 62
     9
420
 12632256
100
AcDbFaceRecord
 10
0.0
 20
0.0
 30
0.0
 70
   128
 71
    13
 72
    11
 73
    12
  0
VERTEX
  5
2C3
330
297
100
AcDbEntity
  8
0
 62
     9
420
 12632256
100
AcDbFaceRecord
 10
0.0
 20
0.0
 30
0.0
 70
   128
 71
    11
 72
     9
 73
    10
  0
VERTEX
  5
2C4
330
297
100
AcDbEntity
  8
0
 62
     9
420
 12632256
100
AcDbFaceRecord
 10
0.0
 20
0.0
 30
0.0
 70
   128
 71
     9
 72
     7
 73
     8
  0
VERTEX
  5
2C5
330
297
100
AcDbEntity
  8
0
 62
     9
420
 12632256
100
AcDbFaceRecord
 10
0.0
 20
0.0
 30
0.0
 70
   128
 71
     6
 72
     5
 73
     8
  0
VERTEX
  5
2C6
330
297
100
AcDbEntity
  8
0
 62
     9
420
 12632256
100
AcDbFaceRecord
 10
0.0
 20
0.0
 30
0.0
 70
   128
 71
     4
 72
     1
 73
     2
  0
VERTEX
  5
2C7
330
297
100
AcDbEntity
  8
0
 62
     9
420
 12632256
100
AcDbFaceRecord
 10
0.0
 20
0.0
 30
0.0
 70
   128
 71
     1
 72
    19
 73
     3
  0
SEQEND
  5
2C8
330
297
100
AcDbEntity
  8
0
 62
     9
420
 12632256
  0
ENDBLK
  5
2CB
330
296
100
AcDbEntity
  8
0
100
AcDbBlockEnd
  0
BLOCK
  5
2F8
330
2CC
100
AcDbEntity
  8
0
100
AcDbBlockBegin
  2
e3_node(19)
 70
     0
 10
0.0
 20
0.0
 30
0.0
  3
e3_node(19)
  1

  0
POLYLINE
  5
2CD
330
2CC
100
AcDbEntity
  8
0
 62
     9
420
 12632256
100
AcDbPolyFaceMesh
 66
     1
 10
0.0
 20
0.0
 30
0.0
 70
    64
 71
    20
 72
    20
  0
VERTEX
  5
2CE
330
2CD
100
AcDbEntity
  8
0
100
AcDbVertex
100
AcDbPolyFaceMeshVertex
 10
65.6500015258789
 20
-301.7130126953125
 30
-10.76900005340576
 70
   192
  0
VERTEX
  5
2CF
330
2CD
100
AcDbEntity
  8
0
100
AcDbVertex
100
AcDbPolyFaceMeshVertex
 10
65.6500015258789
 20
-310.75
 30
-14.05900001525879
 70
   192
  0
VERTEX
  5
2D0
330
2CD
100
AcDbEntity
  8
0
100
AcDbVertex
100
AcDbPolyFaceMeshVertex
 10
47.40000152587891
 20
-310.75
 30
-9.803000450134277
 70
   192
  0
VERTEX
  5
2D1
330
2CD
100
AcDbEntity
  8
0
100
AcDbVertex
100
AcDbPolyFaceMeshVertex
 10
65.6500015258789
 20
-296.9049987792969
 30
-2.440999984741211
 70
   192
  0
VERTEX
  5
2D2
330
2CD
100
AcDbEntity
  8
0
100
AcDbVertex
100
AcDbPolyFaceMeshVertex
 10
47.40000152587891
 20
-304.4490051269531
 30
-7.508999824523926
 70
   192
  0
VERTEX
  5
2D3
330
2CD
100
AcDbEntity
  8
0
100
AcDbVertex
100
AcDbPolyFaceMeshVertex
 10
65.6500015258789
 20
-298.5750122070312
 30
7.028999805450439
 70
   192
  0
VERTEX
  5
2D4
330
2CD
100
AcDbEntity
  8
0
100
AcDbVertex
100
AcDbPolyFaceMeshVertex
 10
65.6500015258789
 20
-296.6910095214844
 30
0.0
 70
   192
  0
VERTEX
  5
2D5
330
2CD
100
AcDbEntity
  8
0
100
AcDbVertex
100
AcDbPolyFaceMeshVertex
 10
47.40000152587891
 20
-300.9469909667969
 30
0.0
 70
   192
  0
VERTEX
  5
2D6
330
2CD
100
AcDbEntity
  8
0
100
AcDbVertex
100
AcDbPolyFaceMeshVertex
 10
47.40000152587891
 20
-301.0960083007812
 30
-1.702000021934509
 70
   192
  0
VERTEX
  5
2D7
330
2CD
100
AcDbEntity
  8
0
100
AcDbVertex
100
AcDbPolyFaceMeshVertex
 10
65.6500015258789
 20
-305.9419860839844
 30
13.21100044250488
 70
   192
  0
VERTEX
  5
2D8
330
2CD
100
AcDbEntity
  8
0
100
AcDbVertex
100
AcDbPolyFaceMeshVertex
 10
47.40000152587891
 20
-302.260986328125
 30
4.901000022888184
 70
   192
  0
VERTEX
  5
2D9
330
2CD
100
AcDbEntity
  8
0
100
AcDbVertex
100
AcDbPolyFaceMeshVertex
 10
65.6500015258789
 20
-315.5580139160156
 30
13.21100044250488
 70
   192
  0
VERTEX
  5
2DA
330
2CD
100
AcDbEntity
  8
0
100
AcDbVertex
100
AcDbPolyFaceMeshVertex
 10
47.40000152587891
 20
-307.3970031738281
 30
9.211000442504883
 70
   192
  0
VERTEX
  5
2DB
330
2CD
100
AcDbEntity
  8
0
100
AcDbVertex
100
AcDbPolyFaceMeshVertex
 10
65.6500015258789
 20
-322.9249877929688
 30
7.028999805450439
 70
   192
  0
VERTEX
  5
2DC
330
2CD
100
AcDbEntity
  8
0
100
AcDbVertex
100
AcDbPolyFaceMeshVertex
 10
47.40000152587891
 20
-314.1029968261719
 30
9.211000442504883
 70
   192
  0
VERTEX
  5
2DD
330
2CD
100
AcDbEntity
  8
0
100
AcDbVertex
100
AcDbPolyFaceMeshVertex
 10
47.40000152587891
 20
-319.239013671875
 30
4.901000022888184
 70
   192
  0
VERTEX
  5
2DE
330
2CD
100
AcDbEntity
  8
0
100
AcDbVertex
100
AcDbPolyFaceMeshVertex
 10
47.40000152587891
 20
-320.4039916992188
 30
-1.702000021934509
 70
   192
  0
VERTEX
  5
2DF
330
2CD
100
AcDbEntity
  8
0
100
AcDbVertex
100
AcDbPolyFaceMeshVertex
 10
65.6500015258789
 20
-319.7869873046875
 30
-10.76900005340576
 70
   192
  0
VERTEX
  5
2E0
330
2CD
100
AcDbEntity
  8
0
100
AcDbVertex
100
AcDbPolyFaceMeshVertex
 10
65.6500015258789
 20
-324.5950012207031
 30
-2.440999984741211
 70
   192
  0
VERTEX
  5
2E1
330
2CD
100
AcDbEntity
  8
0
100
AcDbVertex
100
AcDbPolyFaceMeshVertex
 10
47.40000152587891
 20
-317.0509948730469
 30
-7.508999824523926
 70
   192
  0
VERTEX
  5
2E2
330
2CD
100
AcDbEntity
  8
0
 62
     9
420
 12632256
100
AcDbFaceRecord
 10
0.0
 20
0.0
 30
0.0
 70
   128
 71
     3
 72
     2
 73
     1
  0
VERTEX
  5
2E3
330
2CD
100
AcDbEntity
  8
0
 62
     9
420
 12632256
100
AcDbFaceRecord
 10
0.0
 20
0.0
 30
0.0
 70
   128
 71
     5
 72
     1
 73
     4
  0
VERTEX
  5
2E4
330
2CD
100
AcDbEntity
  8
0
 62
     9
420
 12632256
100
AcDbFaceRecord
 10
0.0
 20
0.0
 30
0.0
 70
   128
 71
     8
 72
     7
 73
     6
  0
VERTEX
  5
2E5
330
2CD
100
AcDbEntity
  8
0
 62
     9
420
 12632256
100
AcDbFaceRecord
 10
0.0
 20
0.0
 30
0.0
 70
   128
 71
     8
 72
     9
 73
     4
  0
VERTEX
  5
2E6
330
2CD
100
AcDbEntity
  8
0
 62
     9
420
 12632256
100
AcDbFaceRecord
 10
0.0
 20
0.0
 30
0.0
 70
   128
 71
     4
 72
     7
 73
     8
  0
VERTEX
  5
2E7
330
2CD
100
AcDbEntity
  8
0
 62
     9
420
 12632256
100
AcDbFaceRecord
 10
0.0
 20
0.0
 30
0.0
 70
   128
 71
    11
 72
     6
 73
    10
  0
VERTEX
  5
2E8
330
2CD
100
AcDbEntity
  8
0
 62
     9
420
 12632256
100
AcDbFaceRecord
 10
0.0
 20
0.0
 30
0.0
 70
   128
 71
    13
 72
    10
 73
    12
  0
VERTEX
  5
2E9
330
2CD
100
AcDbEntity
  8
0
 62
     9
420
 12632256
100
AcDbFaceRecord
 10
0.0
 20
0.0
 30
0.0
 70
   128
 71
    15
 72
    12
 73
    14
  0
VERTEX
  5
2EA
330
2CD
100
AcDbEntity
  8
0
 62
     9
420
 12632256
100
AcDbFaceRecord
 10
0.0
 20
0.0
 30
0.0
 70
   128
 71
    17
 72
    16
 73
    14
  0
VERTEX
  5
2EB
330
2CD
100
AcDbEntity
  8
0
 62
     9
420
 12632256
100
AcDbFaceRecord
 10
0.0
 20
0.0
 30
0.0
 70
   128
 71
    17
 72
    19
 73
    18
  0
VERTEX
  5
2EC
330
2CD
100
AcDbEntity
  8
0
 62
     9
420
 12632256
100
AcDbFaceRecord
 10
0.0
 20
0.0
 30
0.0
 70
   128
 71
    20
 72
    18
 73
     2
  0
VERTEX
  5
2ED
330
2CD
100
AcDbEntity
  8
0
 62
     9
420
 12632256
100
AcDbFaceRecord
 10
0.0
 20
0.0
 30
0.0
 70
   128
 71
     2
 72
     3
 73
    20
  0
VERTEX
  5
2EE
330
2CD
100
AcDbEntity
  8
0
 62
     9
420
 12632256
100
AcDbFaceRecord
 10
0.0
 20
0.0
 30
0.0
 70
   128
 71
    18
 72
    20
 73
    17
  0
VERTEX
  5
2EF
330
2CD
100
AcDbEntity
  8
0
 62
     9
420
 12632256
100
AcDbFaceRecord
 10
0.0
 20
0.0
 30
0.0
 70
   128
 71
    14
 72
    19
 73
    17
  0
VERTEX
  5
2F0
330
2CD
100
AcDbEntity
  8
0
 62
     9
420
 12632256
100
AcDbFaceRecord
 10
0.0
 20
0.0
 30
0.0
 70
   128
 71
    14
 72
    16
 73
    15
  0
VERTEX
  5
2F1
330
2CD
100
AcDbEntity
  8
0
 62
     9
420
 12632256
100
AcDbFaceRecord
 10
0.0
 20
0.0
 30
0.0
 70
   128
 71
    12
 72
    15
 73
    13
  0
VERTEX
  5
2F2
330
2CD
100
AcDbEntity
  8
0
 62
     9
420
 12632256
100
AcDbFaceRecord
 10
0.0
 20
0.0
 30
0.0
 70
   128
 71
    10
 72
    13
 73
    11
  0
VERTEX
  5
2F3
330
2CD
100
AcDbEntity
  8
0
 62
     9
420
 12632256
100
AcDbFaceRecord
 10
0.0
 20
0.0
 30
0.0
 70
   128
 71
     6
 72
    11
 73
     8
  0
VERTEX
  5
2F4
330
2CD
100
AcDbEntity
  8
0
 62
     9
420
 12632256
100
AcDbFaceRecord
 10
0.0
 20
0.0
 30
0.0
 70
   128
 71
     4
 72
     9
 73
     5
  0
VERTEX
  5
2F5
330
2CD
100
AcDbEntity
  8
0
 62
     9
420
 12632256
100
AcDbFaceRecord
 10
0.0
 20
0.0
 30
0.0
 70
   128
 71
     1
 72
     5
 73
     3
  0
SEQEND
  5
2F6
330
2CD
100
AcDbEntity
  8
0
 62
     9
420
 12632256
  0
ENDBLK
  5
2F9
330
2CC
100
AcDbEntity
  8
0
100
AcDbBlockEnd
  0
BLOCK
  5
32E
330
2FA
100
AcDbEntity
  8
0
100
AcDbBlockBegin
  2
e3_node(20)
 70
     0
 10
0.0
 20
0.0
 30
0.0
  3
e3_node(20)
  1

  0
POLYLINE
  5
2FB
330
2FA
100
AcDbEntity
  8
0
 62
     9
420
 12632256
100
AcDbPolyFaceMesh
 66
     1
 10
0.0
 20
0.0
 30
0.0
 70
    64
 71
    20
 72
    28
  0
VERTEX
  5
2FC
330
2FB
100
AcDbEntity
  8
0
100
AcDbVertex
100
AcDbPolyFaceMeshVertex
 10
65.6500015258789
 20
310.75
 30
-14.05900001525879
 70
   192
  0
VERTEX
  5
2FD
330
2FB
100
AcDbEntity
  8
0
100
AcDbVertex
100
AcDbPolyFaceMeshVertex
 10
65.6500015258789
 20
319.7869873046875
 30
-10.76900005340576
 70
   192
  0
VERTEX
  5
2FE
330
2FB
100
AcDbEntity
  8
0
100
AcDbVertex
100
AcDbPolyFaceMeshVertex
 10
68.89600372314453
 20
315.4779968261719
 30
-5.635000228881836
 70
   192
  0
VERTEX
  5
2FF
330
2FB
100
AcDbEntity
  8
0
100
AcDbVertex
100
AcDbPolyFaceMeshVertex
 10
65.6500015258789
 20
324.5950012207031
 30
-2.440999984741211
 70
   192
  0
VERTEX
  5
300
330
2FB
100
AcDbEntity
  8
0
100
AcDbVertex
100
AcDbPolyFaceMeshVertex
 10
68.89600372314453
 20
317.9939880371094
 30
-1.276999950408936
 70
   192
  0
VERTEX
  5
301
330
2FB
100
AcDbEntity
  8
0
100
AcDbVertex
100
AcDbPolyFaceMeshVertex
 10
65.6500015258789
 20
322.9249877929688
 30
7.028999805450439
 70
   192
  0
VERTEX
  5
302
330
2FB
100
AcDbEntity
  8
0
100
AcDbVertex
100
AcDbPolyFaceMeshVertex
 10
68.89600372314453
 20
317.1210021972656
 30
3.677999973297119
 70
   192
  0
VERTEX
  5
303
330
2FB
100
AcDbEntity
  8
0
100
AcDbVertex
100
AcDbPolyFaceMeshVertex
 10
65.6500015258789
 20
315.5580139160156
 30
13.21100044250488
 70
   192
  0
VERTEX
  5
304
330
2FB
100
AcDbEntity
  8
0
100
AcDbVertex
100
AcDbPolyFaceMeshVertex
 10
68.89600372314453
 20
313.2659912109375
 30
6.913000106811523
 70
   192
  0
VERTEX
  5
305
330
2FB
100
AcDbEntity
  8
0
100
AcDbVertex
100
AcDbPolyFaceMeshVertex
 10
65.6500015258789
 20
305.9419860839844
 30
13.21100044250488
 70
   192
  0
VERTEX
  5
306
330
2FB
100
AcDbEntity
  8
0
100
AcDbVertex
100
AcDbPolyFaceMeshVertex
 10
68.89600372314453
 20
308.2340087890625
 30
6.913000106811523
 70
   192
  0
VERTEX
  5
307
330
2FB
100
AcDbEntity
  8
0
100
AcDbVertex
100
AcDbPolyFaceMeshVertex
 10
65.6500015258789
 20
298.5750122070312
 30
7.028999805450439
 70
   192
  0
VERTEX
  5
308
330
2FB
100
AcDbEntity
  8
0
100
AcDbVertex
100
AcDbPolyFaceMeshVertex
 10
68.89600372314453
 20
304.3789978027344
 30
3.677999973297119
 70
   192
  0
VERTEX
  5
309
330
2FB
100
AcDbEntity
  8
0
100
AcDbVertex
100
AcDbPolyFaceMeshVertex
 10
65.6500015258789
 20
296.6910095214844
 30
0.0
 70
   192
  0
VERTEX
  5
30A
330
2FB
100
AcDbEntity
  8
0
100
AcDbVertex
100
AcDbPolyFaceMeshVertex
 10
68.89600372314453
 20
303.5060119628906
 30
-1.276999950408936
 70
   192
  0
VERTEX
  5
30B
330
2FB
100
AcDbEntity
  8
0
100
AcDbVertex
100
AcDbPolyFaceMeshVertex
 10
65.6500015258789
 20
296.9049987792969
 30
-2.440999984741211
 70
   192
  0
VERTEX
  5
30C
330
2FB
100
AcDbEntity
  8
0
100
AcDbVertex
100
AcDbPolyFaceMeshVertex
 10
65.6500015258789
 20
301.7130126953125
 30
-10.76900005340576
 70
   192
  0
VERTEX
  5
30D
330
2FB
100
AcDbEntity
  8
0
100
AcDbVertex
100
AcDbPolyFaceMeshVertex
 10
68.89600372314453
 20
306.0220031738281
 30
-5.635000228881836
 70
   192
  0
VERTEX
  5
30E
330
2FB
100
AcDbEntity
  8
0
100
AcDbVertex
100
AcDbPolyFaceMeshVertex
 10
68.89600372314453
 20
310.75
 30
-7.355999946594238
 70
   192
  0
VERTEX
  5
30F
330
2FB
100
AcDbEntity
  8
0
100
AcDbVertex
100
AcDbPolyFaceMeshVertex
 10
70.05699920654297
 20
310.75
 30
0.0
 70
   192
  0
VERTEX
  5
310
330
2FB
100
AcDbEntity
  8
0
 62
     9
420
 12632256
100
AcDbFaceRecord
 10
0.0
 20
0.0
 30
0.0
 70
   128
 71
     3
 72
     2
 73
     1
  0
VERTEX
  5
311
330
2FB
100
AcDbEntity
  8
0
 62
     9
420
 12632256
100
AcDbFaceRecord
 10
0.0
 20
0.0
 30
0.0
 70
   128
 71
     5
 72
     4
 73
     2
  0
VERTEX
  5
312
330
2FB
100
AcDbEntity
  8
0
 62
     9
420
 12632256
100
AcDbFaceRecord
 10
0.0
 20
0.0
 30
0.0
 70
   128
 71
     5
 72
     7
 73
     6
  0
VERTEX
  5
313
330
2FB
100
AcDbEntity
  8
0
 62
     9
420
 12632256
100
AcDbFaceRecord
 10
0.0
 20
0.0
 30
0.0
 70
   128
 71
     9
 72
     8
 73
     6
  0
VERTEX
  5
314
330
2FB
100
AcDbEntity
  8
0
 62
     9
420
 12632256
100
AcDbFaceRecord
 10
0.0
 20
0.0
 30
0.0
 70
   128
 71
    11
 72
    10
 73
     8
  0
VERTEX
  5
315
330
2FB
100
AcDbEntity
  8
0
 62
     9
420
 12632256
100
AcDbFaceRecord
 10
0.0
 20
0.0
 30
0.0
 70
   128
 71
    13
 72
    12
 73
    10
  0
VERTEX
  5
316
330
2FB
100
AcDbEntity
  8
0
 62
     9
420
 12632256
100
AcDbFaceRecord
 10
0.0
 20
0.0
 30
0.0
 70
   128
 71
    13
 72
    15
 73
    14
  0
VERTEX
  5
317
330
2FB
100
AcDbEntity
  8
0
 62
     9
420
 12632256
100
AcDbFaceRecord
 10
0.0
 20
0.0
 30
0.0
 70
   128
 71
    14
 72
    12
 73
    13
  0
VERTEX
  5
318
330
2FB
100
AcDbEntity
  8
0
 62
     9
420
 12632256
100
AcDbFaceRecord
 10
0.0
 20
0.0
 30
0.0
 70
   128
 71
    18
 72
    17
 73
    16
  0
VERTEX
  5
319
330
2FB
100
AcDbEntity
  8
0
 62
     9
420
 12632256
100
AcDbFaceRecord
 10
0.0
 20
0.0
 30
0.0
 70
   128
 71
    19
 72
     1
 73
    17
  0
VERTEX
  5
31A
330
2FB
100
AcDbEntity
  8
0
 62
     9
420
 12632256
100
AcDbFaceRecord
 10
0.0
 20
0.0
 30
0.0
 70
   128
 71
    19
 72
    18
 73
    20
  0
VERTEX
  5
31B
330
2FB
100
AcDbEntity
  8
0
 62
     9
420
 12632256
100
AcDbFaceRecord
 10
0.0
 20
0.0
 30
0.0
 70
   128
 71
    18
 72
    15
 73
    20
  0
VERTEX
  5
31C
330
2FB
100
AcDbEntity
  8
0
 62
     9
420
 12632256
100
AcDbFaceRecord
 10
0.0
 20
0.0
 30
0.0
 70
   128
 71
    15
 72
    13
 73
    20
  0
VERTEX
  5
31D
330
2FB
100
AcDbEntity
  8
0
 62
     9
420
 12632256
100
AcDbFaceRecord
 10
0.0
 20
0.0
 30
0.0
 70
   128
 71
    13
 72
    11
 73
    20
  0
VERTEX
  5
31E
330
2FB
100
AcDbEntity
  8
0
 62
     9
420
 12632256
100
AcDbFaceRecord
 10
0.0
 20
0.0
 30
0.0
 70
   128
 71
    11
 72
     9
 73
    20
  0
VERTEX
  5
31F
330
2FB
100
AcDbEntity
  8
0
 62
     9
420
 12632256
100
AcDbFaceRecord
 10
0.0
 20
0.0
 30
0.0
 70
   128
 71
     9
 72
     7
 73
    20
  0
VERTEX
  5
320
330
2FB
100
AcDbEntity
  8
0
 62
     9
420
 12632256
100
AcDbFaceRecord
 10
0.0
 20
0.0
 30
0.0
 70
   128
 71
     7
 72
     5
 73
    20
  0
VERTEX
  5
321
330
2FB
100
AcDbEntity
  8
0
 62
     9
420
 12632256
100
AcDbFaceRecord
 10
0.0
 20
0.0
 30
0.0
 70
   128
 71
     5
 72
     3
 73
    20
  0
VERTEX
  5
322
330
2FB
100
AcDbEntity
  8
0
 62
     9
420
 12632256
100
AcDbFaceRecord
 10
0.0
 20
0.0
 30
0.0
 70
   128
 71
     3
 72
    19
 73
    20
  0
VERTEX
  5
323
330
2FB
100
AcDbEntity
  8
0
 62
     9
420
 12632256
100
AcDbFaceRecord
 10
0.0
 20
0.0
 30
0.0
 70
   128
 71
    17
 72
    18
 73
    19
  0
VERTEX
  5
324
330
2FB
100
AcDbEntity
  8
0
 62
     9
420
 12632256
100
AcDbFaceRecord
 10
0.0
 20
0.0
 30
0.0
 70
   128
 71
    16
 72
    15
 73
    18
  0
VERTEX
  5
325
330
2FB
100
AcDbEntity
  8
0
 62
     9
420
 12632256
100
AcDbFaceRecord
 10
0.0
 20
0.0
 30
0.0
 70
   128
 71
    15
 72
    16
 73
    14
  0
VERTEX
  5
326
330
2FB
100
AcDbEntity
  8
0
 62
     9
420
 12632256
100
AcDbFaceRecord
 10
0.0
 20
0.0
 30
0.0
 70
   128
 71
    10
 72
    11
 73
    13
  0
VERTEX
  5
327
330
2FB
100
AcDbEntity
  8
0
 62
     9
420
 12632256
100
AcDbFaceRecord
 10
0.0
 20
0.0
 30
0.0
 70
   128
 71
     8
 72
     9
 73
    11
  0
VERTEX
  5
328
330
2FB
100
AcDbEntity
  8
0
 62
     9
420
 12632256
100
AcDbFaceRecord
 10
0.0
 20
0.0
 30
0.0
 70
   128
 71
     6
 72
     7
 73
     9
  0
VERTEX
  5
329
330
2FB
100
AcDbEntity
  8
0
 62
     9
420
 12632256
100
AcDbFaceRecord
 10
0.0
 20
0.0
 30
0.0
 70
   128
 71
     6
 72
     4
 73
     5
  0
VERTEX
  5
32A
330
2FB
100
AcDbEntity
  8
0
 62
     9
420
 12632256
100
AcDbFaceRecord
 10
0.0
 20
0.0
 30
0.0
 70
   128
 71
     2
 72
     3
 73
     5
  0
VERTEX
  5
32B
330
2FB
100
AcDbEntity
  8
0
 62
     9
420
 12632256
100
AcDbFaceRecord
 10
0.0
 20
0.0
 30
0.0
 70
   128
 71
     1
 72
    19
 73
     3
  0
SEQEND
  5
32C
330
2FB
100
AcDbEntity
  8
0
 62
     9
420
 12632256
  0
ENDBLK
  5
32F
330
2FA
100
AcDbEntity
  8
0
100
AcDbBlockEnd
  0
BLOCK
  5
35C
330
330
100
AcDbEntity
  8
0
100
AcDbBlockBegin
  2
e3_node(21)
 70
     0
 10
0.0
 20
0.0
 30
0.0
  3
e3_node(21)
  1

  0
POLYLINE
  5
331
330
330
100
AcDbEntity
  8
0
 62
     9
420
 12632256
100
AcDbPolyFaceMesh
 66
     1
 10
0.0
 20
0.0
 30
0.0
 70
    64
 71
    20
 72
    20
  0
VERTEX
  5
332
330
331
100
AcDbEntity
  8
0
100
AcDbVertex
100
AcDbPolyFaceMeshVertex
 10
65.6500015258789
 20
310.75
 30
-14.05900001525879
 70
   192
  0
VERTEX
  5
333
330
331
100
AcDbEntity
  8
0
100
AcDbVertex
100
AcDbPolyFaceMeshVertex
 10
47.40000152587891
 20
310.75
 30
-9.803000450134277
 70
   192
  0
VERTEX
  5
334
330
331
100
AcDbEntity
  8
0
100
AcDbVertex
100
AcDbPolyFaceMeshVertex
 10
47.40000152587891
 20
317.0509948730469
 30
-7.508999824523926
 70
   192
  0
VERTEX
  5
335
330
331
100
AcDbEntity
  8
0
100
AcDbVertex
100
AcDbPolyFaceMeshVertex
 10
65.6500015258789
 20
319.7869873046875
 30
-10.76900005340576
 70
   192
  0
VERTEX
  5
336
330
331
100
AcDbEntity
  8
0
100
AcDbVertex
100
AcDbPolyFaceMeshVertex
 10
47.40000152587891
 20
320.4039916992188
 30
-1.702000021934509
 70
   192
  0
VERTEX
  5
337
330
331
100
AcDbEntity
  8
0
100
AcDbVertex
100
AcDbPolyFaceMeshVertex
 10
65.6500015258789
 20
322.9249877929688
 30
7.028999805450439
 70
   192
  0
VERTEX
  5
338
330
331
100
AcDbEntity
  8
0
100
AcDbVertex
100
AcDbPolyFaceMeshVertex
 10
65.6500015258789
 20
324.5950012207031
 30
-2.440999984741211
 70
   192
  0
VERTEX
  5
339
330
331
100
AcDbEntity
  8
0
100
AcDbVertex
100
AcDbPolyFaceMeshVertex
 10
65.6500015258789
 20
315.5580139160156
 30
13.21100044250488
 70
   192
  0
VERTEX
  5
33A
330
331
100
AcDbEntity
  8
0
100
AcDbVertex
100
AcDbPolyFaceMeshVertex
 10
47.40000152587891
 20
319.239013671875
 30
4.901000022888184
 70
   192
  0
VERTEX
  5
33B
330
331
100
AcDbEntity
  8
0
100
AcDbVertex
100
AcDbPolyFaceMeshVertex
 10
65.6500015258789
 20
305.9419860839844
 30
13.21100044250488
 70
   192
  0
VERTEX
  5
33C
330
331
100
AcDbEntity
  8
0
100
AcDbVertex
100
AcDbPolyFaceMeshVertex
 10
47.40000152587891
 20
314.1029968261719
 30
9.211000442504883
 70
   192
  0
VERTEX
  5
33D
330
331
100
AcDbEntity
  8
0
100
AcDbVertex
100
AcDbPolyFaceMeshVertex
 10
47.40000152587891
 20
307.3970031738281
 30
9.211000442504883
 70
   192
  0
VERTEX
  5
33E
330
331
100
AcDbEntity
  8
0
100
AcDbVertex
100
AcDbPolyFaceMeshVertex
 10
47.40000152587891
 20
302.260986328125
 30
4.901000022888184
 70
   192
  0
VERTEX
  5
33F
330
331
100
AcDbEntity
  8
0
100
AcDbVertex
100
AcDbPolyFaceMeshVertex
 10
65.6500015258789
 20
296.9049987792969
 30
-2.440999984741211
 70
   192
  0
VERTEX
  5
340
330
331
100
AcDbEntity
  8
0
100
AcDbVertex
100
AcDbPolyFaceMeshVertex
 10
65.6500015258789
 20
296.6910095214844
 30
0.0
 70
   192
  0
VERTEX
  5
341
330
331
100
AcDbEntity
  8
0
100
AcDbVertex
100
AcDbPolyFaceMeshVertex
 10
47.40000152587891
 20
300.9469909667969
 30
0.0
 70
   192
  0
VERTEX
  5
342
330
331
100
AcDbEntity
  8
0
100
AcDbVertex
100
AcDbPolyFaceMeshVertex
 10
65.6500015258789
 20
298.5750122070312
 30
7.028999805450439
 70
   192
  0
VERTEX
  5
343
330
331
100
AcDbEntity
  8
0
100
AcDbVertex
100
AcDbPolyFaceMeshVertex
 10
47.40000152587891
 20
301.0960083007812
 30
-1.702000021934509
 70
   192
  0
VERTEX
  5
344
330
331
100
AcDbEntity
  8
0
100
AcDbVertex
100
AcDbPolyFaceMeshVertex
 10
47.40000152587891
 20
304.4490051269531
 30
-7.508999824523926
 70
   192
  0
VERTEX
  5
345
330
331
100
AcDbEntity
  8
0
100
AcDbVertex
100
AcDbPolyFaceMeshVertex
 10
65.6500015258789
 20
301.7130126953125
 30
-10.76900005340576
 70
   192
  0
VERTEX
  5
346
330
331
100
AcDbEntity
  8
0
 62
     9
420
 12632256
100
AcDbFaceRecord
 10
0.0
 20
0.0
 30
0.0
 70
   128
 71
     3
 72
     2
 73
     1
  0
VERTEX
  5
347
330
331
100
AcDbEntity
  8
0
 62
     9
420
 12632256
100
AcDbFaceRecord
 10
0.0
 20
0.0
 30
0.0
 70
   128
 71
     5
 72
     3
 73
     4
  0
VERTEX
  5
348
330
331
100
AcDbEntity
  8
0
 62
     9
420
 12632256
100
AcDbFaceRecord
 10
0.0
 20
0.0
 30
0.0
 70
   128
 71
     5
 72
     7
 73
     6
  0
VERTEX
  5
349
330
331
100
AcDbEntity
  8
0
 62
     9
420
 12632256
100
AcDbFaceRecord
 10
0.0
 20
0.0
 30
0.0
 70
   128
 71
     9
 72
     6
 73
     8
  0
VERTEX
  5
34A
330
331
100
AcDbEntity
  8
0
 62
     9
420
 12632256
100
AcDbFaceRecord
 10
0.0
 20
0.0
 30
0.0
 70
   128
 71
    11
 72
     8
 73
    10
  0
VERTEX
  5
34B
330
331
100
AcDbEntity
  8
0
 62
     9
420
 12632256
100
AcDbFaceRecord
 10
0.0
 20
0.0
 30
0.0
 70
   128
 71
    13
 72
    12
 73
    10
  0
VERTEX
  5
34C
330
331
100
AcDbEntity
  8
0
 62
     9
420
 12632256
100
AcDbFaceRecord
 10
0.0
 20
0.0
 30
0.0
 70
   128
 71
    16
 72
    15
 73
    14
  0
VERTEX
  5
34D
330
331
100
AcDbEntity
  8
0
 62
     9
420
 12632256
100
AcDbFaceRecord
 10
0.0
 20
0.0
 30
0.0
 70
   128
 71
    16
 72
    13
 73
    17
  0
VERTEX
  5
34E
330
331
100
AcDbEntity
  8
0
 62
     9
420
 12632256
100
AcDbFaceRecord
 10
0.0
 20
0.0
 30
0.0
 70
   128
 71
    17
 72
    15
 73
    16
  0
VERTEX
  5
34F
330
331
100
AcDbEntity
  8
0
 62
     9
420
 12632256
100
AcDbFaceRecord
 10
0.0
 20
0.0
 30
0.0
 70
   128
 71
    19
 72
    18
 73
    14
  0
VERTEX
  5
350
330
331
100
AcDbEntity
  8
0
 62
     9
420
 12632256
100
AcDbFaceRecord
 10
0.0
 20
0.0
 30
0.0
 70
   128
 71
     2
 72
    19
 73
    20
  0
VERTEX
  5
351
330
331
100
AcDbEntity
  8
0
 62
     9
420
 12632256
100
AcDbFaceRecord
 10
0.0
 20
0.0
 30
0.0
 70
   128
 71
    20
 72
     1
 73
     2
  0
VERTEX
  5
352
330
331
100
AcDbEntity
  8
0
 62
     9
420
 12632256
100
AcDbFaceRecord
 10
0.0
 20
0.0
 30
0.0
 70
   128
 71
    14
 72
    20
 73
    19
  0
VERTEX
  5
353
330
331
100
AcDbEntity
  8
0
 62
     9
420
 12632256
100
AcDbFaceRecord
 10
0.0
 20
0.0
 30
0.0
 70
   128
 71
    14
 72
    18
 73
    16
  0
VERTEX
  5
354
330
331
100
AcDbEntity
  8
0
 62
     9
420
 12632256
100
AcDbFaceRecord
 10
0.0
 20
0.0
 30
0.0
 70
   128
 71
    10
 72
    17
 73
    13
  0
VERTEX
  5
355
330
331
100
AcDbEntity
  8
0
 62
     9
420
 12632256
100
AcDbFaceRecord
 10
0.0
 20
0.0
 30
0.0
 70
   128
 71
    10
 72
    12
 73
    11
  0
VERTEX
  5
356
330
331
100
AcDbEntity
  8
0
 62
     9
420
 12632256
100
AcDbFaceRecord
 10
0.0
 20
0.0
 30
0.0
 70
   128
 71
     8
 72
    11
 73
     9
  0
VERTEX
  5
357
330
331
100
AcDbEntity
  8
0
 62
     9
420
 12632256
100
AcDbFaceRecord
 10
0.0
 20
0.0
 30
0.0
 70
   128
 71
     6
 72
     9
 73
     5
  0
VERTEX
  5
358
330
331
100
AcDbEntity
  8
0
 62
     9
420
 12632256
100
AcDbFaceRecord
 10
0.0
 20
0.0
 30
0.0
 70
   128
 71
     4
 72
     7
 73
     5
  0
VERTEX
  5
359
330
331
100
AcDbEntity
  8
0
 62
     9
420
 12632256
100
AcDbFaceRecord
 10
0.0
 20
0.0
 30
0.0
 70
   128
 71
     1
 72
     4
 73
     3
  0
SEQEND
  5
35A
330
331
100
AcDbEntity
  8
0
 62
     9
420
 12632256
  0
ENDBLK
  5
35D
330
330
100
AcDbEntity
  8
0
100
AcDbBlockEnd
  0
BLOCK
  5
3C6
330
35E
100
AcDbEntity
  8
0
100
AcDbBlockBegin
  2
e3_node(22)
 70
     0
 10
0.0
 20
0.0
 30
0.0
  3
e3_node(22)
  1

  0
POLYLINE
  5
35F
330
35E
100
AcDbEntity
  8
0
 62
     9
420
 12632256
100
AcDbPolyFaceMesh
 66
     1
 10
0.0
 20
0.0
 30
0.0
 70
    64
 71
    40
 72
    60
  0
VERTEX
  5
360
330
35F
100
AcDbEntity
  8
0
100
AcDbVertex
100
AcDbPolyFaceMeshVertex
 10
9.0
 20
329.3609924316406
 30
0.0
 70
   192
  0
VERTEX
  5
361
330
35F
100
AcDbEntity
  8
0
100
AcDbVertex
100
AcDbPolyFaceMeshVertex
 10
9.0
 20
325.8070068359375
 30
10.93900012969971
 70
   192
  0
VERTEX
  5
362
330
35F
100
AcDbEntity
  8
0
100
AcDbVertex
100
AcDbPolyFaceMeshVertex
 10
20.95100021362305
 20
320.9549865722656
 30
7.414000034332275
 70
   192
  0
VERTEX
  5
363
330
35F
100
AcDbEntity
  8
0
100
AcDbVertex
100
AcDbPolyFaceMeshVertex
 10
9.0
 20
316.5010070800781
 30
17.70000076293945
 70
   192
  0
VERTEX
  5
364
330
35F
100
AcDbEntity
  8
0
100
AcDbVertex
100
AcDbPolyFaceMeshVertex
 10
20.95100021362305
 20
314.6480102539062
 30
11.99699974060059
 70
   192
  0
VERTEX
  5
365
330
35F
100
AcDbEntity
  8
0
100
AcDbVertex
100
AcDbPolyFaceMeshVertex
 10
9.0
 20
304.9989929199219
 30
17.70000076293945
 70
   192
  0
VERTEX
  5
366
330
35F
100
AcDbEntity
  8
0
100
AcDbVertex
100
AcDbPolyFaceMeshVertex
 10
20.95100021362305
 20
306.8519897460938
 30
11.99699974060059
 70
   192
  0
VERTEX
  5
367
330
35F
100
AcDbEntity
  8
0
100
AcDbVertex
100
AcDbPolyFaceMeshVertex
 10
9.0
 20
295.6929931640625
 30
10.93900012969971
 70
   192
  0
VERTEX
  5
368
330
35F
100
AcDbEntity
  8
0
100
AcDbVertex
100
AcDbPolyFaceMeshVertex
 10
20.95100021362305
 20
300.5450134277344
 30
7.414000034332275
 70
   192
  0
VERTEX
  5
369
330
35F
100
AcDbEntity
  8
0
100
AcDbVertex
100
AcDbPolyFaceMeshVertex
 10
9.0
 20
292.1390075683594
 30
0.0
 70
   192
  0
VERTEX
  5
36A
330
35F
100
AcDbEntity
  8
0
100
AcDbVertex
100
AcDbPolyFaceMeshVertex
 10
20.95100021362305
 20
298.135986328125
 30
0.0
 70
   192
  0
VERTEX
  5
36B
330
35F
100
AcDbEntity
  8
0
100
AcDbVertex
100
AcDbPolyFaceMeshVertex
 10
9.0
 20
295.6929931640625
 30
-10.93900012969971
 70
   192
  0
VERTEX
  5
36C
330
35F
100
AcDbEntity
  8
0
100
AcDbVertex
100
AcDbPolyFaceMeshVertex
 10
20.95100021362305
 20
300.5450134277344
 30
-7.414000034332275
 70
   192
  0
VERTEX
  5
36D
330
35F
100
AcDbEntity
  8
0
100
AcDbVertex
100
AcDbPolyFaceMeshVertex
 10
9.0
 20
304.9989929199219
 30
-17.70000076293945
 70
   192
  0
VERTEX
  5
36E
330
35F
100
AcDbEntity
  8
0
100
AcDbVertex
100
AcDbPolyFaceMeshVertex
 10
20.95100021362305
 20
306.8519897460938
 30
-11.99699974060059
 70
   192
  0
VERTEX
  5
36F
330
35F
100
AcDbEntity
  8
0
100
AcDbVertex
100
AcDbPolyFaceMeshVertex
 10
9.0
 20
316.5010070800781
 30
-17.70000076293945
 70
   192
  0
VERTEX
  5
370
330
35F
100
AcDbEntity
  8
0
100
AcDbVertex
100
AcDbPolyFaceMeshVertex
 10
20.95100021362305
 20
314.6480102539062
 30
-11.99699974060059
 70
   192
  0
VERTEX
  5
371
330
35F
100
AcDbEntity
  8
0
100
AcDbVertex
100
AcDbPolyFaceMeshVertex
 10
9.0
 20
325.8070068359375
 30
-10.93900012969971
 70
   192
  0
VERTEX
  5
372
330
35F
100
AcDbEntity
  8
0
100
AcDbVertex
100
AcDbPolyFaceMeshVertex
 10
20.95100021362305
 20
320.9549865722656
 30
-7.414000034332275
 70
   192
  0
VERTEX
  5
373
330
35F
100
AcDbEntity
  8
0
100
AcDbVertex
100
AcDbPolyFaceMeshVertex
 10
20.95100021362305
 20
323.364013671875
 30
0.0
 70
   192
  0
VERTEX
  5
374
330
35F
100
AcDbEntity
  8
0
100
AcDbVertex
100
AcDbPolyFaceMeshVertex
 10
34.0629997253418
 20
318.8389892578125
 30
5.876999855041504
 70
   192
  0
VERTEX
  5
375
330
35F
100
AcDbEntity
  8
0
100
AcDbVertex
100
AcDbPolyFaceMeshVertex
 10
34.0629997253418
 20
313.8399963378906
 30
9.508999824523926
 70
   192
  0
VERTEX
  5
376
330
35F
100
AcDbEntity
  8
0
100
AcDbVertex
100
AcDbPolyFaceMeshVertex
 10
34.0629997253418
 20
307.6600036621094
 30
9.508999824523926
 70
   192
  0
VERTEX
  5
377
330
35F
100
AcDbEntity
  8
0
100
AcDbVertex
100
AcDbPolyFaceMeshVertex
 10
34.0629997253418
 20
302.6610107421875
 30
5.876999855041504
 70
   192
  0
VERTEX
  5
378
330
35F
100
AcDbEntity
  8
0
100
AcDbVertex
100
AcDbPolyFaceMeshVertex
 10
34.0629997253418
 20
300.7520141601562
 30
0.0
 70
   192
  0
VERTEX
  5
379
330
35F
100
AcDbEntity
  8
0
100
AcDbVertex
100
AcDbPolyFaceMeshVertex
 10
34.0629997253418
 20
302.6610107421875
 30
-5.876999855041504
 70
   192
  0
VERTEX
  5
37A
330
35F
100
AcDbEntity
  8
0
100
AcDbVertex
100
AcDbPolyFaceMeshVertex
 10
34.0629997253418
 20
307.6600036621094
 30
-9.508999824523926
 70
   192
  0
VERTEX
  5
37B
330
35F
100
AcDbEntity
  8
0
100
AcDbVertex
100
AcDbPolyFaceMeshVertex
 10
34.0629997253418
 20
313.8399963378906
 30
-9.508999824523926
 70
   192
  0
VERTEX
  5
37C
330
35F
100
AcDbEntity
  8
0
100
AcDbVertex
100
AcDbPolyFaceMeshVertex
 10
34.0629997253418
 20
318.8389892578125
 30
-5.876999855041504
 70
   192
  0
VERTEX
  5
37D
330
35F
100
AcDbEntity
  8
0
100
AcDbVertex
100
AcDbPolyFaceMeshVertex
 10
34.0629997253418
 20
320.7479858398438
 30
0.0
 70
   192
  0
VERTEX
  5
37E
330
35F
100
AcDbEntity
  8
0
100
AcDbVertex
100
AcDbPolyFaceMeshVertex
 10
47.40000152587891
 20
321.7009887695312
 30
0.0
 70
   192
  0
VERTEX
  5
37F
330
35F
100
AcDbEntity
  8
0
100
AcDbVertex
100
AcDbPolyFaceMeshVertex
 10
47.40000152587891
 20
314.1340026855469
 30
10.41499996185303
 70
   192
  0
VERTEX
  5
380
330
35F
100
AcDbEntity
  8
0
100
AcDbVertex
100
AcDbPolyFaceMeshVertex
 10
47.40000152587891
 20
319.6099853515625
 30
6.436999797821045
 70
   192
  0
VERTEX
  5
381
330
35F
100
AcDbEntity
  8
0
100
AcDbVertex
100
AcDbPolyFaceMeshVertex
 10
47.40000152587891
 20
307.3659973144531
 30
10.41499996185303
 70
   192
  0
VERTEX
  5
382
330
35F
100
AcDbEntity
  8
0
100
AcDbVertex
100
AcDbPolyFaceMeshVertex
 10
47.40000152587891
 20
301.8900146484375
 30
6.436999797821045
 70
   192
  0
VERTEX
  5
383
330
35F
100
AcDbEntity
  8
0
100
AcDbVertex
100
AcDbPolyFaceMeshVertex
 10
47.40000152587891
 20
299.7990112304688
 30
0.0
 70
   192
  0
VERTEX
  5
384
330
35F
100
AcDbEntity
  8
0
100
AcDbVertex
100
AcDbPolyFaceMeshVertex
 10
47.40000152587891
 20
301.8900146484375
 30
-6.436999797821045
 70
   192
  0
VERTEX
  5
385
330
35F
100
AcDbEntity
  8
0
100
AcDbVertex
100
AcDbPolyFaceMeshVertex
 10
47.40000152587891
 20
307.3659973144531
 30
-10.41499996185303
 70
   192
  0
VERTEX
  5
386
330
35F
100
AcDbEntity
  8
0
100
AcDbVertex
100
AcDbPolyFaceMeshVertex
 10
47.40000152587891
 20
319.6099853515625
 30
-6.436999797821045
 70
   192
  0
VERTEX
  5
387
330
35F
100
AcDbEntity
  8
0
100
AcDbVertex
100
AcDbPolyFaceMeshVertex
 10
47.40000152587891
 20
314.1340026855469
 30
-10.41499996185303
 70
   192
  0
VERTEX
  5
388
330
35F
100
AcDbEntity
  8
0
 62
     9
420
 12632256
100
AcDbFaceRecord
 10
0.0
 20
0.0
 30
0.0
 70
   128
 71
     3
 72
     2
 73
     1
  0
VERTEX
  5
389
330
35F
100
AcDbEntity
  8
0
 62
     9
420
 12632256
100
AcDbFaceRecord
 10
0.0
 20
0.0
 30
0.0
 70
   128
 71
     5
 72
     4
 73
     2
  0
VERTEX
  5
38A
330
35F
100
AcDbEntity
  8
0
 62
     9
420
 12632256
100
AcDbFaceRecord
 10
0.0
 20
0.0
 30
0.0
 70
   128
 71
     7
 72
     6
 73
     4
  0
VERTEX
  5
38B
330
35F
100
AcDbEntity
  8
0
 62
     9
420
 12632256
100
AcDbFaceRecord
 10
0.0
 20
0.0
 30
0.0
 70
   128
 71
     7
 72
     9
 73
     8
  0
VERTEX
  5
38C
330
35F
100
AcDbEntity
  8
0
 62
     9
420
 12632256
100
AcDbFaceRecord
 10
0.0
 20
0.0
 30
0.0
 70
   128
 71
     9
 72
    11
 73
    10
  0
VERTEX
  5
38D
330
35F
100
AcDbEntity
  8
0
 62
     9
420
 12632256
100
AcDbFaceRecord
 10
0.0
 20
0.0
 30
0.0
 70
   128
 71
    13
 72
    12
 73
    10
  0
VERTEX
  5
38E
330
35F
100
AcDbEntity
  8
0
 62
     9
420
 12632256
100
AcDbFaceRecord
 10
0.0
 20
0.0
 30
0.0
 70
   128
 71
    13
 72
    15
 73
    14
  0
VERTEX
  5
38F
330
35F
100
AcDbEntity
  8
0
 62
     9
420
 12632256
100
AcDbFaceRecord
 10
0.0
 20
0.0
 30
0.0
 70
   128
 71
    15
 72
    17
 73
    16
  0
VERTEX
  5
390
330
35F
100
AcDbEntity
  8
0
 62
     9
420
 12632256
100
AcDbFaceRecord
 10
0.0
 20
0.0
 30
0.0
 70
   128
 71
    17
 72
    19
 73
    18
  0
VERTEX
  5
391
330
35F
100
AcDbEntity
  8
0
 62
     9
420
 12632256
100
AcDbFaceRecord
 10
0.0
 20
0.0
 30
0.0
 70
   128
 71
    19
 72
    20
 73
     1
  0
VERTEX
  5
392
330
35F
100
AcDbEntity
  8
0
 62
     9
420
 12632256
100
AcDbFaceRecord
 10
0.0
 20
0.0
 30
0.0
 70
   128
 71
    21
 72
     3
 73
    20
  0
VERTEX
  5
393
330
35F
100
AcDbEntity
  8
0
 62
     9
420
 12632256
100
AcDbFaceRecord
 10
0.0
 20
0.0
 30
0.0
 70
   128
 71
    22
 72
     5
 73
     3
  0
VERTEX
  5
394
330
35F
100
AcDbEntity
  8
0
 62
     9
420
 12632256
100
AcDbFaceRecord
 10
0.0
 20
0.0
 30
0.0
 70
   128
 71
    23
 72
     7
 73
     5
  0
VERTEX
  5
395
330
35F
100
AcDbEntity
  8
0
 62
     9
420
 12632256
100
AcDbFaceRecord
 10
0.0
 20
0.0
 30
0.0
 70
   128
 71
    24
 72
     9
 73
     7
  0
VERTEX
  5
396
330
35F
100
AcDbEntity
  8
0
 62
     9
420
 12632256
100
AcDbFaceRecord
 10
0.0
 20
0.0
 30
0.0
 70
   128
 71
    25
 72
    11
 73
     9
  0
VERTEX
  5
397
330
35F
100
AcDbEntity
  8
0
 62
     9
420
 12632256
100
AcDbFaceRecord
 10
0.0
 20
0.0
 30
0.0
 70
   128
 71
    26
 72
    13
 73
    11
  0
VERTEX
  5
398
330
35F
100
AcDbEntity
  8
0
 62
     9
420
 12632256
100
AcDbFaceRecord
 10
0.0
 20
0.0
 30
0.0
 70
   128
 71
    27
 72
    15
 73
    13
  0
VERTEX
  5
399
330
35F
100
AcDbEntity
  8
0
 62
     9
420
 12632256
100
AcDbFaceRecord
 10
0.0
 20
0.0
 30
0.0
 70
   128
 71
    28
 72
    17
 73
    15
  0
VERTEX
  5
39A
330
35F
100
AcDbEntity
  8
0
 62
     9
420
 12632256
100
AcDbFaceRecord
 10
0.0
 20
0.0
 30
0.0
 70
   128
 71
    29
 72
    19
 73
    17
  0
VERTEX
  5
39B
330
35F
100
AcDbEntity
  8
0
 62
     9
420
 12632256
100
AcDbFaceRecord
 10
0.0
 20
0.0
 30
0.0
 70
   128
 71
    30
 72
    20
 73
    19
  0
VERTEX
  5
39C
330
35F
100
AcDbEntity
  8
0
 62
     9
420
 12632256
100
AcDbFaceRecord
 10
0.0
 20
0.0
 30
0.0
 70
   128
 71
    21
 72
    30
 73
    31
  0
VERTEX
  5
39D
330
35F
100
AcDbEntity
  8
0
 62
     9
420
 12632256
100
AcDbFaceRecord
 10
0.0
 20
0.0
 30
0.0
 70
   128
 71
    21
 72
    33
 73
    32
  0
VERTEX
  5
39E
330
35F
100
AcDbEntity
  8
0
 62
     9
420
 12632256
100
AcDbFaceRecord
 10
0.0
 20
0.0
 30
0.0
 70
   128
 71
    22
 72
    32
 73
    34
  0
VERTEX
  5
39F
330
35F
100
AcDbEntity
  8
0
 62
     9
420
 12632256
100
AcDbFaceRecord
 10
0.0
 20
0.0
 30
0.0
 70
   128
 71
    23
 72
    34
 73
    35
  0
VERTEX
  5
3A0
330
35F
100
AcDbEntity
  8
0
 62
     9
420
 12632256
100
AcDbFaceRecord
 10
0.0
 20
0.0
 30
0.0
 70
   128
 71
    24
 72
    35
 73
    36
  0
VERTEX
  5
3A1
330
35F
100
AcDbEntity
  8
0
 62
     9
420
 12632256
100
AcDbFaceRecord
 10
0.0
 20
0.0
 30
0.0
 70
   128
 71
    26
 72
    25
 73
    36
  0
VERTEX
  5
3A2
330
35F
100
AcDbEntity
  8
0
 62
     9
420
 12632256
100
AcDbFaceRecord
 10
0.0
 20
0.0
 30
0.0
 70
   128
 71
    27
 72
    26
 73
    37
  0
VERTEX
  5
3A3
330
35F
100
AcDbEntity
  8
0
 62
     9
420
 12632256
100
AcDbFaceRecord
 10
0.0
 20
0.0
 30
0.0
 70
   128
 71
    28
 72
    27
 73
    38
  0
VERTEX
  5
3A4
330
35F
100
AcDbEntity
  8
0
 62
     9
420
 12632256
100
AcDbFaceRecord
 10
0.0
 20
0.0
 30
0.0
 70
   128
 71
    28
 72
    40
 73
    39
  0
VERTEX
  5
3A5
330
35F
100
AcDbEntity
  8
0
 62
     9
420
 12632256
100
AcDbFaceRecord
 10
0.0
 20
0.0
 30
0.0
 70
   128
 71
    30
 72
    29
 73
    39
  0
VERTEX
  5
3A6
330
35F
100
AcDbEntity
  8
0
 62
     9
420
 12632256
100
AcDbFaceRecord
 10
0.0
 20
0.0
 30
0.0
 70
   128
 71
    39
 72
    31
 73
    30
  0
VERTEX
  5
3A7
330
35F
100
AcDbEntity
  8
0
 62
     9
420
 12632256
100
AcDbFaceRecord
 10
0.0
 20
0.0
 30
0.0
 70
   128
 71
    39
 72
    29
 73
    28
  0
VERTEX
  5
3A8
330
35F
100
AcDbEntity
  8
0
 62
     9
420
 12632256
100
AcDbFaceRecord
 10
0.0
 20
0.0
 30
0.0
 70
   128
 71
    38
 72
    40
 73
    28
  0
VERTEX
  5
3A9
330
35F
100
AcDbEntity
  8
0
 62
     9
420
 12632256
100
AcDbFaceRecord
 10
0.0
 20
0.0
 30
0.0
 70
   128
 71
    37
 72
    38
 73
    27
  0
VERTEX
  5
3AA
330
35F
100
AcDbEntity
  8
0
 62
     9
420
 12632256
100
AcDbFaceRecord
 10
0.0
 20
0.0
 30
0.0
 70
   128
 71
    36
 72
    37
 73
    26
  0
VERTEX
  5
3AB
330
35F
100
AcDbEntity
  8
0
 62
     9
420
 12632256
100
AcDbFaceRecord
 10
0.0
 20
0.0
 30
0.0
 70
   128
 71
    36
 72
    25
 73
    24
  0
VERTEX
  5
3AC
330
35F
100
AcDbEntity
  8
0
 62
     9
420
 12632256
100
AcDbFaceRecord
 10
0.0
 20
0.0
 30
0.0
 70
   128
 71
    35
 72
    24
 73
    23
  0
VERTEX
  5
3AD
330
35F
100
AcDbEntity
  8
0
 62
     9
420
 12632256
100
AcDbFaceRecord
 10
0.0
 20
0.0
 30
0.0
 70
   128
 71
    34
 72
    23
 73
    22
  0
VERTEX
  5
3AE
330
35F
100
AcDbEntity
  8
0
 62
     9
420
 12632256
100
AcDbFaceRecord
 10
0.0
 20
0.0
 30
0.0
 70
   128
 71
    32
 72
    22
 73
    21
  0
VERTEX
  5
3AF
330
35F
100
AcDbEntity
  8
0
 62
     9
420
 12632256
100
AcDbFaceRecord
 10
0.0
 20
0.0
 30
0.0
 70
   128
 71
    31
 72
    33
 73
    21
  0
VERTEX
  5
3B0
330
35F
100
AcDbEntity
  8
0
 62
     9
420
 12632256
100
AcDbFaceRecord
 10
0.0
 20
0.0
 30
0.0
 70
   128
 71
    19
 72
    29
 73
    30
  0
VERTEX
  5
3B1
330
35F
100
AcDbEntity
  8
0
 62
     9
420
 12632256
100
AcDbFaceRecord
 10
0.0
 20
0.0
 30
0.0
 70
   128
 71
    17
 72
    28
 73
    29
  0
VERTEX
  5
3B2
330
35F
100
AcDbEntity
  8
0
 62
     9
420
 12632256
100
AcDbFaceRecord
 10
0.0
 20
0.0
 30
0.0
 70
   128
 71
    15
 72
    27
 73
    28
  0
VERTEX
  5
3B3
330
35F
100
AcDbEntity
  8
0
 62
     9
420
 12632256
100
AcDbFaceRecord
 10
0.0
 20
0.0
 30
0.0
 70
   128
 71
    13
 72
    26
 73
    27
  0
VERTEX
  5
3B4
330
35F
100
AcDbEntity
  8
0
 62
     9
420
 12632256
100
AcDbFaceRecord
 10
0.0
 20
0.0
 30
0.0
 70
   128
 71
    11
 72
    25
 73
    26
  0
VERTEX
  5
3B5
330
35F
100
AcDbEntity
  8
0
 62
     9
420
 12632256
100
AcDbFaceRecord
 10
0.0
 20
0.0
 30
0.0
 70
   128
 71
     9
 72
    24
 73
    25
  0
VERTEX
  5
3B6
330
35F
100
AcDbEntity
  8
0
 62
     9
420
 12632256
100
AcDbFaceRecord
 10
0.0
 20
0.0
 30
0.0
 70
   128
 71
     7
 72
    23
 73
    24
  0
VERTEX
  5
3B7
330
35F
100
AcDbEntity
  8
0
 62
     9
420
 12632256
100
AcDbFaceRecord
 10
0.0
 20
0.0
 30
0.0
 70
   128
 71
     5
 72
    22
 73
    23
  0
VERTEX
  5
3B8
330
35F
100
AcDbEntity
  8
0
 62
     9
420
 12632256
100
AcDbFaceRecord
 10
0.0
 20
0.0
 30
0.0
 70
   128
 71
     3
 72
    21
 73
    22
  0
VERTEX
  5
3B9
330
35F
100
AcDbEntity
  8
0
 62
     9
420
 12632256
100
AcDbFaceRecord
 10
0.0
 20
0.0
 30
0.0
 70
   128
 71
    20
 72
    30
 73
    21
  0
VERTEX
  5
3BA
330
35F
100
AcDbEntity
  8
0
 62
     9
420
 12632256
100
AcDbFaceRecord
 10
0.0
 20
0.0
 30
0.0
 70
   128
 71
     1
 72
    18
 73
    19
  0
VERTEX
  5
3BB
330
35F
100
AcDbEntity
  8
0
 62
     9
420
 12632256
100
AcDbFaceRecord
 10
0.0
 20
0.0
 30
0.0
 70
   128
 71
    18
 72
    16
 73
    17
  0
VERTEX
  5
3BC
330
35F
100
AcDbEntity
  8
0
 62
     9
420
 12632256
100
AcDbFaceRecord
 10
0.0
 20
0.0
 30
0.0
 70
   128
 71
    16
 72
    14
 73
    15
  0
VERTEX
  5
3BD
330
35F
100
AcDbEntity
  8
0
 62
     9
420
 12632256
100
AcDbFaceRecord
 10
0.0
 20
0.0
 30
0.0
 70
   128
 71
    14
 72
    12
 73
    13
  0
VERTEX
  5
3BE
330
35F
100
AcDbEntity
  8
0
 62
     9
420
 12632256
100
AcDbFaceRecord
 10
0.0
 20
0.0
 30
0.0
 70
   128
 71
    10
 72
    11
 73
    13
  0
VERTEX
  5
3BF
330
35F
100
AcDbEntity
  8
0
 62
     9
420
 12632256
100
AcDbFaceRecord
 10
0.0
 20
0.0
 30
0.0
 70
   128
 71
    10
 72
     8
 73
     9
  0
VERTEX
  5
3C0
330
35F
100
AcDbEntity
  8
0
 62
     9
420
 12632256
100
AcDbFaceRecord
 10
0.0
 20
0.0
 30
0.0
 70
   128
 71
     8
 72
     6
 73
     7
  0
VERTEX
  5
3C1
330
35F
100
AcDbEntity
  8
0
 62
     9
420
 12632256
100
AcDbFaceRecord
 10
0.0
 20
0.0
 30
0.0
 70
   128
 71
     4
 72
     5
 73
     7
  0
VERTEX
  5
3C2
330
35F
100
AcDbEntity
  8
0
 62
     9
420
 12632256
100
AcDbFaceRecord
 10
0.0
 20
0.0
 30
0.0
 70
   128
 71
     2
 72
     3
 73
     5
  0
VERTEX
  5
3C3
330
35F
100
AcDbEntity
  8
0
 62
     9
420
 12632256
100
AcDbFaceRecord
 10
0.0
 20
0.0
 30
0.0
 70
   128
 71
     1
 72
    20
 73
     3
  0
SEQEND
  5
3C4
330
35F
100
AcDbEntity
  8
0
 62
     9
420
 12632256
  0
ENDBLK
  5
3C7
330
35E
100
AcDbEntity
  8
0
100
AcDbBlockEnd
  0
BLOCK
  5
3DE
330
3C8
100
AcDbEntity
  8
0
100
AcDbBlockBegin
  2
e3_node(23)
 70
     0
 10
0.0
 20
0.0
 30
0.0
  3
e3_node(23)
  1

  0
POLYLINE
  5
3C9
330
3C8
100
AcDbEntity
  8
0
 62
     9
420
 12632256
100
AcDbPolyFaceMesh
 66
     1
 10
0.0
 20
0.0
 30
0.0
 70
    64
 71
    10
 72
     8
  0
VERTEX
  5
3CA
330
3C9
100
AcDbEntity
  8
0
100
AcDbVertex
100
AcDbPolyFaceMeshVertex
 10
47.40000152587891
 20
314.1340026855469
 30
-10.41499996185303
 70
   192
  0
VERTEX
  5
3CB
330
3C9
100
AcDbEntity
  8
0
100
AcDbVertex
100
AcDbPolyFaceMeshVertex
 10
47.40000152587891
 20
319.6099853515625
 30
6.436999797821045
 70
   192
  0
VERTEX
  5
3CC
330
3C9
100
AcDbEntity
  8
0
100
AcDbVertex
100
AcDbPolyFaceMeshVertex
 10
47.40000152587891
 20
314.1340026855469
 30
10.41499996185303
 70
   192
  0
VERTEX
  5
3CD
330
3C9
100
AcDbEntity
  8
0
100
AcDbVertex
100
AcDbPolyFaceMeshVertex
 10
47.40000152587891
 20
319.6099853515625
 30
-6.436999797821045
 70
   192
  0
VERTEX
  5
3CE
330
3C9
100
AcDbEntity
  8
0
100
AcDbVertex
100
AcDbPolyFaceMeshVertex
 10
47.40000152587891
 20
321.7009887695312
 30
0.0
 70
   192
  0
VERTEX
  5
3CF
330
3C9
100
AcDbEntity
  8
0
100
AcDbVertex
100
AcDbPolyFaceMeshVertex
 10
47.40000152587891
 20
307.3659973144531
 30
10.41499996185303
 70
   192
  0
VERTEX
  5
3D0
330
3C9
100
AcDbEntity
  8
0
100
AcDbVertex
100
AcDbPolyFaceMeshVertex
 10
47.40000152587891
 20
301.8900146484375
 30
-6.436999797821045
 70
   192
  0
VERTEX
  5
3D1
330
3C9
100
AcDbEntity
  8
0
100
AcDbVertex
100
AcDbPolyFaceMeshVertex
 10
47.40000152587891
 20
307.3659973144531
 30
-10.41499996185303
 70
   192
  0
VERTEX
  5
3D2
330
3C9
100
AcDbEntity
  8
0
100
AcDbVertex
100
AcDbPolyFaceMeshVertex
 10
47.40000152587891
 20
301.8900146484375
 30
6.436999797821045
 70
   192
  0
VERTEX
  5
3D3
330
3C9
100
AcDbEntity
  8
0
100
AcDbVertex
100
AcDbPolyFaceMeshVertex
 10
47.40000152587891
 20
299.7990112304688
 30
0.0
 70
   192
  0
VERTEX
  5
3D4
330
3C9
100
AcDbEntity
  8
0
 62
     9
420
 12632256
100
AcDbFaceRecord
 10
0.0
 20
0.0
 30
0.0
 70
   128
 71
     3
 72
     2
 73
     1
  0
VERTEX
  5
3D5
330
3C9
100
AcDbEntity
  8
0
 62
     9
420
 12632256
100
AcDbFaceRecord
 10
0.0
 20
0.0
 30
0.0
 70
   128
 71
     5
 72
     4
 73
     1
  0
VERTEX
  5
3D6
330
3C9
100
AcDbEntity
  8
0
 62
     9
420
 12632256
100
AcDbFaceRecord
 10
0.0
 20
0.0
 30
0.0
 70
   128
 71
     8
 72
     7
 73
     6
  0
VERTEX
  5
3D7
330
3C9
100
AcDbEntity
  8
0
 62
     9
420
 12632256
100
AcDbFaceRecord
 10
0.0
 20
0.0
 30
0.0
 70
   128
 71
     9
 72
     6
 73
     7
  0
VERTEX
  5
3D8
330
3C9
100
AcDbEntity
  8
0
 62
     9
420
 12632256
100
AcDbFaceRecord
 10
0.0
 20
0.0
 30
0.0
 70
   128
 71
     1
 72
     2
 73
     5
  0
VERTEX
  5
3D9
330
3C9
100
AcDbEntity
  8
0
 62
     9
420
 12632256
100
AcDbFaceRecord
 10
0.0
 20
0.0
 30
0.0
 70
   128
 71
     7
 72
    10
 73
     9
  0
VERTEX
  5
3DA
330
3C9
100
AcDbEntity
  8
0
 62
     9
420
 12632256
100
AcDbFaceRecord
 10
0.0
 20
0.0
 30
0.0
 70
   128
 71
     6
 72
     1
 73
     8
  0
VERTEX
  5
3DB
330
3C9
100
AcDbEntity
  8
0
 62
     9
420
 12632256
100
AcDbFaceRecord
 10
0.0
 20
0.0
 30
0.0
 70
   128
 71
     1
 72
     6
 73
     3
  0
SEQEND
  5
3DC
330
3C9
100
AcDbEntity
  8
0
 62
     9
420
 12632256
  0
ENDBLK
  5
3DF
330
3C8
100
AcDbEntity
  8
0
100
AcDbBlockEnd
  0
BLOCK
  5
3FC
330
3E0
100
AcDbEntity
  8
0
100
AcDbBlockBegin
  2
e3_node(24)
 70
     0
 10
0.0
 20
0.0
 30
0.0
  3
e3_node(24)
  1

  0
POLYLINE
  5
3E1
330
3E0
100
AcDbEntity
  8
0
 62
     9
420
 12632256
100
AcDbPolyFaceMesh
 66
     1
 10
0.0
 20
0.0
 30
0.0
 70
    64
 71
    13
 72
    11
  0
VERTEX
  5
3E2
330
3E1
100
AcDbEntity
  8
0
100
AcDbVertex
100
AcDbPolyFaceMeshVertex
 10
0.0
 20
306.8219909667969
 30
-23.55999946594238
 70
   192
  0
VERTEX
  5
3E3
330
3E1
100
AcDbEntity
  8
0
100
AcDbVertex
100
AcDbPolyFaceMeshVertex
 10
0.0
 20
288.3829956054688
 30
-8.378999710083008
 70
   192
  0
VERTEX
  5
3E4
330
3E1
100
AcDbEntity
  8
0
100
AcDbVertex
100
AcDbPolyFaceMeshVertex
 10
0.0
 20
287.1900024414062
 30
3.927999973297119
 70
   192
  0
VERTEX
  5
3E5
330
3E1
100
AcDbEntity
  8
0
100
AcDbVertex
100
AcDbPolyFaceMeshVertex
 10
0.0
 20
302.3710021972656
 30
22.36700057983398
 70
   192
  0
VERTEX
  5
3E6
330
3E1
100
AcDbEntity
  8
0
100
AcDbVertex
100
AcDbPolyFaceMeshVertex
 10
0.0
 20
334.3099975585938
 30
-3.927999973297119
 70
   192
  0
VERTEX
  5
3E7
330
3E1
100
AcDbEntity
  8
0
100
AcDbVertex
100
AcDbPolyFaceMeshVertex
 10
0.0
 20
329.1900024414062
 30
-15.18099975585938
 70
   192
  0
VERTEX
  5
3E8
330
3E1
100
AcDbEntity
  8
0
100
AcDbVertex
100
AcDbPolyFaceMeshVertex
 10
0.0
 20
295.5690002441406
 30
-18.44000053405762
 70
   192
  0
VERTEX
  5
3E9
330
3E1
100
AcDbEntity
  8
0
100
AcDbVertex
100
AcDbPolyFaceMeshVertex
 10
0.0
 20
333.1170043945312
 30
8.378999710083008
 70
   192
  0
VERTEX
  5
3EA
330
3E1
100
AcDbEntity
  8
0
100
AcDbVertex
100
AcDbPolyFaceMeshVertex
 10
0.0
 20
314.6780090332031
 30
23.55999946594238
 70
   192
  0
VERTEX
  5
3EB
330
3E1
100
AcDbEntity
  8
0
100
AcDbVertex
100
AcDbPolyFaceMeshVertex
 10
0.0
 20
292.3099975585938
 30
15.18099975585938
 70
   192
  0
VERTEX
  5
3EC
330
3E1
100
AcDbEntity
  8
0
100
AcDbVertex
100
AcDbPolyFaceMeshVertex
 10
0.0
 20
325.9309997558594
 30
18.44000053405762
 70
   192
  0
VERTEX
  5
3ED
330
3E1
100
AcDbEntity
  8
0
100
AcDbVertex
100
AcDbPolyFaceMeshVertex
 10
0.0
 20
310.75
 30
-23.88500022888184
 70
   192
  0
VERTEX
  5
3EE
330
3E1
100
AcDbEntity
  8
0
100
AcDbVertex
100
AcDbPolyFaceMeshVertex
 10
0.0
 20
319.1289978027344
 30
-22.36700057983398
 70
   192
  0
VERTEX
  5
3EF
330
3E1
100
AcDbEntity
  8
0
 62
     9
420
 12632256
100
AcDbFaceRecord
 10
0.0
 20
0.0
 30
0.0
 70
   128
 71
     3
 72
     2
 73
     1
  0
VERTEX
  5
3F0
330
3E1
100
AcDbEntity
  8
0
 62
     9
420
 12632256
100
AcDbFaceRecord
 10
0.0
 20
0.0
 30
0.0
 70
   128
 71
     6
 72
     5
 73
     4
  0
VERTEX
  5
3F1
330
3E1
100
AcDbEntity
  8
0
 62
     9
420
 12632256
100
AcDbFaceRecord
 10
0.0
 20
0.0
 30
0.0
 70
   128
 71
     2
 72
     7
 73
     1
  0
VERTEX
  5
3F2
330
3E1
100
AcDbEntity
  8
0
 62
     9
420
 12632256
100
AcDbFaceRecord
 10
0.0
 20
0.0
 30
0.0
 70
   128
 71
     5
 72
     8
 73
     4
  0
VERTEX
  5
3F3
330
3E1
100
AcDbEntity
  8
0
 62
     9
420
 12632256
100
AcDbFaceRecord
 10
0.0
 20
0.0
 30
0.0
 70
   128
 71
     9
 72
     4
 73
     8
  0
VERTEX
  5
3F4
330
3E1
100
AcDbEntity
  8
0
 62
     9
420
 12632256
100
AcDbFaceRecord
 10
0.0
 20
0.0
 30
0.0
 70
   128
 71
     1
 72
    10
 73
     3
  0
VERTEX
  5
3F5
330
3E1
100
AcDbEntity
  8
0
 62
     9
420
 12632256
100
AcDbFaceRecord
 10
0.0
 20
0.0
 30
0.0
 70
   128
 71
     8
 72
    11
 73
     9
  0
VERTEX
  5
3F6
330
3E1
100
AcDbEntity
  8
0
 62
     9
420
 12632256
100
AcDbFaceRecord
 10
0.0
 20
0.0
 30
0.0
 70
   128
 71
     1
 72
    12
 73
     4
  0
VERTEX
  5
3F7
330
3E1
100
AcDbEntity
  8
0
 62
     9
420
 12632256
100
AcDbFaceRecord
 10
0.0
 20
0.0
 30
0.0
 70
   128
 71
     4
 72
    13
 73
     6
  0
VERTEX
  5
3F8
330
3E1
100
AcDbEntity
  8
0
 62
     9
420
 12632256
100
AcDbFaceRecord
 10
0.0
 20
0.0
 30
0.0
 70
   128
 71
     4
 72
    12
 73
    13
  0
VERTEX
  5
3F9
330
3E1
100
AcDbEntity
  8
0
 62
     9
420
 12632256
100
AcDbFaceRecord
 10
0.0
 20
0.0
 30
0.0
 70
   128
 71
     1
 72
     4
 73
    10
  0
SEQEND
  5
3FA
330
3E1
100
AcDbEntity
  8
0
 62
     9
420
 12632256
  0
ENDBLK
  5
3FD
330
3E0
100
AcDbEntity
  8
0
100
AcDbBlockEnd
  0
BLOCK
  5
47C
330
3FE
100
AcDbEntity
  8
0
100
AcDbBlockBegin
  2
e3_node(25)
 70
     0
 10
0.0
 20
0.0
 30
0.0
  3
e3_node(25)
  1

  0
POLYLINE
  5
3FF
330
3FE
100
AcDbEntity
  8
0
 62
     9
420
 12632256
100
AcDbPolyFaceMesh
 66
     1
 10
0.0
 20
0.0
 30
0.0
 70
    64
 71
    61
 72
    61
  0
VERTEX
  5
400
330
3FF
100
AcDbEntity
  8
0
100
AcDbVertex
100
AcDbPolyFaceMeshVertex
 10
0.0
 20
334.3099975585938
 30
-3.927999973297119
 70
   192
  0
VERTEX
  5
401
330
3FF
100
AcDbEntity
  8
0
100
AcDbVertex
100
AcDbPolyFaceMeshVertex
 10
2.059999942779541
 20
334.1310119628906
 30
-7.301000118255615
 70
   192
  0
VERTEX
  5
402
330
3FF
100
AcDbEntity
  8
0
100
AcDbVertex
100
AcDbPolyFaceMeshVertex
 10
1.45799994468689
 20
331.5559997558594
 30
-12.70199966430664
 70
   192
  0
VERTEX
  5
403
330
3FF
100
AcDbEntity
  8
0
100
AcDbVertex
100
AcDbPolyFaceMeshVertex
 10
1.968999981880188
 20
334.7200012207031
 30
-4.004000186920166
 70
   192
  0
VERTEX
  5
404
330
3FF
100
AcDbEntity
  8
0
100
AcDbVertex
100
AcDbPolyFaceMeshVertex
 10
2.321000099182129
 20
334.4450073242188
 30
-6.348999977111816
 70
   192
  0
VERTEX
  5
405
330
3FF
100
AcDbEntity
  8
0
100
AcDbVertex
100
AcDbPolyFaceMeshVertex
 10
0.0
 20
329.1900024414062
 30
-15.18099975585938
 70
   192
  0
VERTEX
  5
406
330
3FF
100
AcDbEntity
  8
0
100
AcDbVertex
100
AcDbPolyFaceMeshVertex
 10
2.059999942779541
 20
327.3479919433594
 30
-18.01300048828125
 70
   192
  0
VERTEX
  5
407
330
3FF
100
AcDbEntity
  8
0
100
AcDbVertex
100
AcDbPolyFaceMeshVertex
 10
1.45799994468689
 20
322.4169921875
 30
-21.40299987792969
 70
   192
  0
VERTEX
  5
408
330
3FF
100
AcDbEntity
  8
0
100
AcDbVertex
100
AcDbPolyFaceMeshVertex
 10
1.968999981880188
 20
329.5060119628906
 30
-15.45300006866455
 70
   192
  0
VERTEX
  5
409
330
3FF
100
AcDbEntity
  8
0
100
AcDbVertex
100
AcDbPolyFaceMeshVertex
 10
2.321000099182129
 20
328.0960083007812
 30
-17.34600067138672
 70
   192
  0
VERTEX
  5
40A
330
3FF
100
AcDbEntity
  8
0
100
AcDbVertex
100
AcDbPolyFaceMeshVertex
 10
0.0
 20
319.1289978027344
 30
-22.36700057983398
 70
   192
  0
VERTEX
  5
40B
330
3FF
100
AcDbEntity
  8
0
100
AcDbVertex
100
AcDbPolyFaceMeshVertex
 10
0.0
 20
306.8219909667969
 30
-23.55999946594238
 70
   192
  0
VERTEX
  5
40C
330
3FF
100
AcDbEntity
  8
0
100
AcDbVertex
100
AcDbPolyFaceMeshVertex
 10
0.0
 20
310.75
 30
-23.88500022888184
 70
   192
  0
VERTEX
  5
40D
330
3FF
100
AcDbEntity
  8
0
100
AcDbVertex
100
AcDbPolyFaceMeshVertex
 10
1.45799994468689
 20
310.1520080566406
 30
-24.3700008392334
 70
   192
  0
VERTEX
  5
40E
330
3FF
100
AcDbEntity
  8
0
100
AcDbVertex
100
AcDbPolyFaceMeshVertex
 10
2.059999942779541
 20
316.1180114746094
 30
-23.89900016784668
 70
   192
  0
VERTEX
  5
40F
330
3FF
100
AcDbEntity
  8
0
100
AcDbVertex
100
AcDbPolyFaceMeshVertex
 10
1.968999981880188
 20
319.2669982910156
 30
-22.76099967956543
 70
   192
  0
VERTEX
  5
410
330
3FF
100
AcDbEntity
  8
0
100
AcDbVertex
100
AcDbPolyFaceMeshVertex
 10
2.321000099182129
 20
317.0989990234375
 30
-23.69499969482422
 70
   192
  0
VERTEX
  5
411
330
3FF
100
AcDbEntity
  8
0
100
AcDbVertex
100
AcDbPolyFaceMeshVertex
 10
2.059999942779541
 20
303.4490051269531
 30
-23.38100051879883
 70
   192
  0
VERTEX
  5
412
330
3FF
100
AcDbEntity
  8
0
100
AcDbVertex
100
AcDbPolyFaceMeshVertex
 10
1.45799994468689
 20
298.0480041503906
 30
-20.80599975585938
 70
   192
  0
VERTEX
  5
413
330
3FF
100
AcDbEntity
  8
0
100
AcDbVertex
100
AcDbPolyFaceMeshVertex
 10
1.968999981880188
 20
306.7460021972656
 30
-23.96999931335449
 70
   192
  0
VERTEX
  5
414
330
3FF
100
AcDbEntity
  8
0
100
AcDbVertex
100
AcDbPolyFaceMeshVertex
 10
2.321000099182129
 20
304.4010009765625
 30
-23.69499969482422
 70
   192
  0
VERTEX
  5
415
330
3FF
100
AcDbEntity
  8
0
100
AcDbVertex
100
AcDbPolyFaceMeshVertex
 10
0.0
 20
295.5690002441406
 30
-18.44000053405762
 70
   192
  0
VERTEX
  5
416
330
3FF
100
AcDbEntity
  8
0
100
AcDbVertex
100
AcDbPolyFaceMeshVertex
 10
2.059999942779541
 20
292.7369995117188
 30
-16.59799957275391
 70
   192
  0
VERTEX
  5
417
330
3FF
100
AcDbEntity
  8
0
100
AcDbVertex
100
AcDbPolyFaceMeshVertex
 10
1.45799994468689
 20
289.3469848632812
 30
-11.66699981689453
 70
   192
  0
VERTEX
  5
418
330
3FF
100
AcDbEntity
  8
0
100
AcDbVertex
100
AcDbPolyFaceMeshVertex
 10
1.968999981880188
 20
295.2969970703125
 30
-18.75600051879883
 70
   192
  0
VERTEX
  5
419
330
3FF
100
AcDbEntity
  8
0
100
AcDbVertex
100
AcDbPolyFaceMeshVertex
 10
2.321000099182129
 20
293.4039916992188
 30
-17.34600067138672
 70
   192
  0
VERTEX
  5
41A
330
3FF
100
AcDbEntity
  8
0
100
AcDbVertex
100
AcDbPolyFaceMeshVertex
 10
0.0
 20
288.3829956054688
 30
-8.378999710083008
 70
   192
  0
VERTEX
  5
41B
330
3FF
100
AcDbEntity
  8
0
100
AcDbVertex
100
AcDbPolyFaceMeshVertex
 10
2.059999942779541
 20
286.8510131835938
 30
-5.368000030517578
 70
   192
  0
VERTEX
  5
41C
330
3FF
100
AcDbEntity
  8
0
100
AcDbVertex
100
AcDbPolyFaceMeshVertex
 10
1.45799994468689
 20
286.3800048828125
 30
0.5979999899864197
 70
   192
  0
VERTEX
  5
41D
330
3FF
100
AcDbEntity
  8
0
100
AcDbVertex
100
AcDbPolyFaceMeshVertex
 10
1.968999981880188
 20
287.989013671875
 30
-8.517000198364258
 70
   192
  0
VERTEX
  5
41E
330
3FF
100
AcDbEntity
  8
0
100
AcDbVertex
100
AcDbPolyFaceMeshVertex
 10
2.321000099182129
 20
287.0549926757812
 30
-6.348999977111816
 70
   192
  0
VERTEX
  5
41F
330
3FF
100
AcDbEntity
  8
0
100
AcDbVertex
100
AcDbPolyFaceMeshVertex
 10
0.0
 20
287.1900024414062
 30
3.927999973297119
 70
   192
  0
VERTEX
  5
420
330
3FF
100
AcDbEntity
  8
0
100
AcDbVertex
100
AcDbPolyFaceMeshVertex
 10
2.059999942779541
 20
287.3689880371094
 30
7.301000118255615
 70
   192
  0
VERTEX
  5
421
330
3FF
100
AcDbEntity
  8
0
100
AcDbVertex
100
AcDbPolyFaceMeshVertex
 10
1.45799994468689
 20
289.9440002441406
 30
12.70199966430664
 70
   192
  0
VERTEX
  5
422
330
3FF
100
AcDbEntity
  8
0
100
AcDbVertex
100
AcDbPolyFaceMeshVertex
 10
1.968999981880188
 20
286.7799987792969
 30
4.004000186920166
 70
   192
  0
VERTEX
  5
423
330
3FF
100
AcDbEntity
  8
0
100
AcDbVertex
100
AcDbPolyFaceMeshVertex
 10
2.321000099182129
 20
287.0549926757812
 30
6.348999977111816
 70
   192
  0
VERTEX
  5
424
330
3FF
100
AcDbEntity
  8
0
100
AcDbVertex
100
AcDbPolyFaceMeshVertex
 10
0.0
 20
292.3099975585938
 30
15.18099975585938
 70
   192
  0
VERTEX
  5
425
330
3FF
100
AcDbEntity
  8
0
100
AcDbVertex
100
AcDbPolyFaceMeshVertex
 10
2.059999942779541
 20
294.1520080566406
 30
18.01300048828125
 70
   192
  0
VERTEX
  5
426
330
3FF
100
AcDbEntity
  8
0
100
AcDbVertex
100
AcDbPolyFaceMeshVertex
 10
1.45799994468689
 20
299.0830078125
 30
21.40299987792969
 70
   192
  0
VERTEX
  5
427
330
3FF
100
AcDbEntity
  8
0
100
AcDbVertex
100
AcDbPolyFaceMeshVertex
 10
1.968999981880188
 20
291.9939880371094
 30
15.45300006866455
 70
   192
  0
VERTEX
  5
428
330
3FF
100
AcDbEntity
  8
0
100
AcDbVertex
100
AcDbPolyFaceMeshVertex
 10
2.321000099182129
 20
293.4039916992188
 30
17.34600067138672
 70
   192
  0
VERTEX
  5
429
330
3FF
100
AcDbEntity
  8
0
100
AcDbVertex
100
AcDbPolyFaceMeshVertex
 10
0.0
 20
302.3710021972656
 30
22.36700057983398
 70
   192
  0
VERTEX
  5
42A
330
3FF
100
AcDbEntity
  8
0
100
AcDbVertex
100
AcDbPolyFaceMeshVertex
 10
2.059999942779541
 20
305.3819885253906
 30
23.89900016784668
 70
   192
  0
VERTEX
  5
42B
330
3FF
100
AcDbEntity
  8
0
100
AcDbVertex
100
AcDbPolyFaceMeshVertex
 10
1.45799994468689
 20
311.3479919433594
 30
24.3700008392334
 70
   192
  0
VERTEX
  5
42C
330
3FF
100
AcDbEntity
  8
0
100
AcDbVertex
100
AcDbPolyFaceMeshVertex
 10
1.968999981880188
 20
302.2330017089844
 30
22.76099967956543
 70
   192
  0
VERTEX
  5
42D
330
3FF
100
AcDbEntity
  8
0
100
AcDbVertex
100
AcDbPolyFaceMeshVertex
 10
2.321000099182129
 20
304.4010009765625
 30
23.69499969482422
 70
   192
  0
VERTEX
  5
42E
330
3FF
100
AcDbEntity
  8
0
100
AcDbVertex
100
AcDbPolyFaceMeshVertex
 10
0.0
 20
314.6780090332031
 30
23.55999946594238
 70
   192
  0
VERTEX
  5
42F
330
3FF
100
AcDbEntity
  8
0
100
AcDbVertex
100
AcDbPolyFaceMeshVertex
 10
2.059999942779541
 20
318.0509948730469
 30
23.38100051879883
 70
   192
  0
VERTEX
  5
430
330
3FF
100
AcDbEntity
  8
0
100
AcDbVertex
100
AcDbPolyFaceMeshVertex
 10
1.45799994468689
 20
323.4519958496094
 30
20.80599975585938
 70
   192
  0
VERTEX
  5
431
330
3FF
100
AcDbEntity
  8
0
100
AcDbVertex
100
AcDbPolyFaceMeshVertex
 10
1.968999981880188
 20
314.7539978027344
 30
23.96999931335449
 70
   192
  0
VERTEX
  5
432
330
3FF
100
AcDbEntity
  8
0
100
AcDbVertex
100
AcDbPolyFaceMeshVertex
 10
2.321000099182129
 20
317.0989990234375
 30
23.69499969482422
 70
   192
  0
VERTEX
  5
433
330
3FF
100
AcDbEntity
  8
0
100
AcDbVertex
100
AcDbPolyFaceMeshVertex
 10
0.0
 20
325.9309997558594
 30
18.44000053405762
 70
   192
  0
VERTEX
  5
434
330
3FF
100
AcDbEntity
  8
0
100
AcDbVertex
100
AcDbPolyFaceMeshVertex
 10
2.059999942779541
 20
328.7630004882812
 30
16.59799957275391
 70
   192
  0
VERTEX
  5
435
330
3FF
100
AcDbEntity
  8
0
100
AcDbVertex
100
AcDbPolyFaceMeshVertex
 10
1.45799994468689
 20
332.1530151367188
 30
11.66699981689453
 70
   192
  0
VERTEX
  5
436
330
3FF
100
AcDbEntity
  8
0
100
AcDbVertex
100
AcDbPolyFaceMeshVertex
 10
1.968999981880188
 20
326.2030029296875
 30
18.75600051879883
 70
   192
  0
VERTEX
  5
437
330
3FF
100
AcDbEntity
  8
0
100
AcDbVertex
100
AcDbPolyFaceMeshVertex
 10
2.321000099182129
 20
328.0960083007812
 30
17.34600067138672
 70
   192
  0
VERTEX
  5
438
330
3FF
100
AcDbEntity
  8
0
100
AcDbVertex
100
AcDbPolyFaceMeshVertex
 10
0.0
 20
333.1170043945312
 30
8.378999710083008
 70
   192
  0
VERTEX
  5
439
330
3FF
100
AcDbEntity
  8
0
100
AcDbVertex
100
AcDbPolyFaceMeshVertex
 10
2.059999942779541
 20
334.6489868164062
 30
5.368000030517578
 70
   192
  0
VERTEX
  5
43A
330
3FF
100
AcDbEntity
  8
0
100
AcDbVertex
100
AcDbPolyFaceMeshVertex
 10
1.45799994468689
 20
335.1199951171875
 30
-0.5979999899864197
 70
   192
  0
VERTEX
  5
43B
330
3FF
100
AcDbEntity
  8
0
100
AcDbVertex
100
AcDbPolyFaceMeshVertex
 10
1.968999981880188
 20
333.510986328125
 30
8.517000198364258
 70
   192
  0
VERTEX
  5
43C
330
3FF
100
AcDbEntity
  8
0
100
AcDbVertex
100
AcDbPolyFaceMeshVertex
 10
2.321000099182129
 20
334.4450073242188
 30
6.348999977111816
 70
   192
  0
VERTEX
  5
43D
330
3FF
100
AcDbEntity
  8
0
 62
     9
420
 12632256
100
AcDbFaceRecord
 10
0.0
 20
0.0
 30
0.0
 70
   128
 71
     3
 72
     2
 73
     1
  0
VERTEX
  5
43E
330
3FF
100
AcDbEntity
  8
0
 62
     9
420
 12632256
100
AcDbFaceRecord
 10
0.0
 20
0.0
 30
0.0
 70
   128
 71
     5
 72
     4
 73
     1
  0
VERTEX
  5
43F
330
3FF
100
AcDbEntity
  8
0
 62
     9
420
 12632256
100
AcDbFaceRecord
 10
0.0
 20
0.0
 30
0.0
 70
   128
 71
     1
 72
     2
 73
     5
  0
VERTEX
  5
440
330
3FF
100
AcDbEntity
  8
0
 62
     9
420
 12632256
100
AcDbFaceRecord
 10
0.0
 20
0.0
 30
0.0
 70
   128
 71
     1
 72
     6
 73
     3
  0
VERTEX
  5
441
330
3FF
100
AcDbEntity
  8
0
 62
     9
420
 12632256
100
AcDbFaceRecord
 10
0.0
 20
0.0
 30
0.0
 70
   128
 71
     8
 72
     7
 73
     6
  0
VERTEX
  5
442
330
3FF
100
AcDbEntity
  8
0
 62
     9
420
 12632256
100
AcDbFaceRecord
 10
0.0
 20
0.0
 30
0.0
 70
   128
 71
    10
 72
     9
 73
     6
  0
VERTEX
  5
443
330
3FF
100
AcDbEntity
  8
0
 62
     9
420
 12632256
100
AcDbFaceRecord
 10
0.0
 20
0.0
 30
0.0
 70
   128
 71
     6
 72
     7
 73
    10
  0
VERTEX
  5
444
330
3FF
100
AcDbEntity
  8
0
 62
     9
420
 12632256
100
AcDbFaceRecord
 10
0.0
 20
0.0
 30
0.0
 70
   128
 71
     6
 72
    11
 73
     8
  0
VERTEX
  5
445
330
3FF
100
AcDbEntity
  8
0
 62
     9
420
 12632256
100
AcDbFaceRecord
 10
0.0
 20
0.0
 30
0.0
 70
   128
 71
    14
 72
    13
 73
    12
  0
VERTEX
  5
446
330
3FF
100
AcDbEntity
  8
0
 62
     9
420
 12632256
100
AcDbFaceRecord
 10
0.0
 20
0.0
 30
0.0
 70
   128
 71
    15
 72
    11
 73
    13
  0
VERTEX
  5
447
330
3FF
100
AcDbEntity
  8
0
 62
     9
420
 12632256
100
AcDbFaceRecord
 10
0.0
 20
0.0
 30
0.0
 70
   128
 71
    17
 72
    16
 73
    11
  0
VERTEX
  5
448
330
3FF
100
AcDbEntity
  8
0
 62
     9
420
 12632256
100
AcDbFaceRecord
 10
0.0
 20
0.0
 30
0.0
 70
   128
 71
    11
 72
    15
 73
    17
  0
VERTEX
  5
449
330
3FF
100
AcDbEntity
  8
0
 62
     9
420
 12632256
100
AcDbFaceRecord
 10
0.0
 20
0.0
 30
0.0
 70
   128
 71
    13
 72
    14
 73
    15
  0
VERTEX
  5
44A
330
3FF
100
AcDbEntity
  8
0
 62
     9
420
 12632256
100
AcDbFaceRecord
 10
0.0
 20
0.0
 30
0.0
 70
   128
 71
    19
 72
    18
 73
    12
  0
VERTEX
  5
44B
330
3FF
100
AcDbEntity
  8
0
 62
     9
420
 12632256
100
AcDbFaceRecord
 10
0.0
 20
0.0
 30
0.0
 70
   128
 71
    21
 72
    20
 73
    12
  0
VERTEX
  5
44C
330
3FF
100
AcDbEntity
  8
0
 62
     9
420
 12632256
100
AcDbFaceRecord
 10
0.0
 20
0.0
 30
0.0
 70
   128
 71
    12
 72
    18
 73
    21
  0
VERTEX
  5
44D
330
3FF
100
AcDbEntity
  8
0
 62
     9
420
 12632256
100
AcDbFaceRecord
 10
0.0
 20
0.0
 30
0.0
 70
   128
 71
    12
 72
    22
 73
    19
  0
VERTEX
  5
44E
330
3FF
100
AcDbEntity
  8
0
 62
     9
420
 12632256
100
AcDbFaceRecord
 10
0.0
 20
0.0
 30
0.0
 70
   128
 71
    24
 72
    23
 73
    22
  0
VERTEX
  5
44F
330
3FF
100
AcDbEntity
  8
0
 62
     9
420
 12632256
100
AcDbFaceRecord
 10
0.0
 20
0.0
 30
0.0
 70
   128
 71
    26
 72
    25
 73
    22
  0
VERTEX
  5
450
330
3FF
100
AcDbEntity
  8
0
 62
     9
420
 12632256
100
AcDbFaceRecord
 10
0.0
 20
0.0
 30
0.0
 70
   128
 71
    22
 72
    23
 73
    26
  0
VERTEX
  5
451
330
3FF
100
AcDbEntity
  8
0
 62
     9
420
 12632256
100
AcDbFaceRecord
 10
0.0
 20
0.0
 30
0.0
 70
   128
 71
    22
 72
    27
 73
    24
  0
VERTEX
  5
452
330
3FF
100
AcDbEntity
  8
0
 62
     9
420
 12632256
100
AcDbFaceRecord
 10
0.0
 20
0.0
 30
0.0
 70
   128
 71
    29
 72
    28
 73
    27
  0
VERTEX
  5
453
330
3FF
100
AcDbEntity
  8
0
 62
     9
420
 12632256
100
AcDbFaceRecord
 10
0.0
 20
0.0
 30
0.0
 70
   128
 71
    31
 72
    30
 73
    27
  0
VERTEX
  5
454
330
3FF
100
AcDbEntity
  8
0
 62
     9
420
 12632256
100
AcDbFaceRecord
 10
0.0
 20
0.0
 30
0.0
 70
   128
 71
    27
 72
    28
 73
    31
  0
VERTEX
  5
455
330
3FF
100
AcDbEntity
  8
0
 62
     9
420
 12632256
100
AcDbFaceRecord
 10
0.0
 20
0.0
 30
0.0
 70
   128
 71
    27
 72
    32
 73
    29
  0
VERTEX
  5
456
330
3FF
100
AcDbEntity
  8
0
 62
     9
420
 12632256
100
AcDbFaceRecord
 10
0.0
 20
0.0
 30
0.0
 70
   128
 71
    34
 72
    33
 73
    32
  0
VERTEX
  5
457
330
3FF
100
AcDbEntity
  8
0
 62
     9
420
 12632256
100
AcDbFaceRecord
 10
0.0
 20
0.0
 30
0.0
 70
   128
 71
    36
 72
    35
 73
    32
  0
VERTEX
  5
458
330
3FF
100
AcDbEntity
  8
0
 62
     9
420
 12632256
100
AcDbFaceRecord
 10
0.0
 20
0.0
 30
0.0
 70
   128
 71
    32
 72
    33
 73
    36
  0
VERTEX
  5
459
330
3FF
100
AcDbEntity
  8
0
 62
     9
420
 12632256
100
AcDbFaceRecord
 10
0.0
 20
0.0
 30
0.0
 70
   128
 71
    32
 72
    37
 73
    34
  0
VERTEX
  5
45A
330
3FF
100
AcDbEntity
  8
0
 62
     9
420
 12632256
100
AcDbFaceRecord
 10
0.0
 20
0.0
 30
0.0
 70
   128
 71
    39
 72
    38
 73
    37
  0
VERTEX
  5
45B
330
3FF
100
AcDbEntity
  8
0
 62
     9
420
 12632256
100
AcDbFaceRecord
 10
0.0
 20
0.0
 30
0.0
 70
   128
 71
    41
 72
    40
 73
    37
  0
VERTEX
  5
45C
330
3FF
100
AcDbEntity
  8
0
 62
     9
420
 12632256
100
AcDbFaceRecord
 10
0.0
 20
0.0
 30
0.0
 70
   128
 71
    37
 72
    38
 73
    41
  0
VERTEX
  5
45D
330
3FF
100
AcDbEntity
  8
0
 62
     9
420
 12632256
100
AcDbFaceRecord
 10
0.0
 20
0.0
 30
0.0
 70
   128
 71
    37
 72
    42
 73
    39
  0
VERTEX
  5
45E
330
3FF
100
AcDbEntity
  8
0
 62
     9
420
 12632256
100
AcDbFaceRecord
 10
0.0
 20
0.0
 30
0.0
 70
   128
 71
    44
 72
    43
 73
    42
  0
VERTEX
  5
45F
330
3FF
100
AcDbEntity
  8
0
 62
     9
420
 12632256
100
AcDbFaceRecord
 10
0.0
 20
0.0
 30
0.0
 70
   128
 71
    46
 72
    45
 73
    42
  0
VERTEX
  5
460
330
3FF
100
AcDbEntity
  8
0
 62
     9
420
 12632256
100
AcDbFaceRecord
 10
0.0
 20
0.0
 30
0.0
 70
   128
 71
    42
 72
    43
 73
    46
  0
VERTEX
  5
461
330
3FF
100
AcDbEntity
  8
0
 62
     9
420
 12632256
100
AcDbFaceRecord
 10
0.0
 20
0.0
 30
0.0
 70
   128
 71
    42
 72
    47
 73
    44
  0
VERTEX
  5
462
330
3FF
100
AcDbEntity
  8
0
 62
     9
420
 12632256
100
AcDbFaceRecord
 10
0.0
 20
0.0
 30
0.0
 70
   128
 71
    49
 72
    48
 73
    47
  0
VERTEX
  5
463
330
3FF
100
AcDbEntity
  8
0
 62
     9
420
 12632256
100
AcDbFaceRecord
 10
0.0
 20
0.0
 30
0.0
 70
   128
 71
    51
 72
    50
 73
    47
  0
VERTEX
  5
464
330
3FF
100
AcDbEntity
  8
0
 62
     9
420
 12632256
100
AcDbFaceRecord
 10
0.0
 20
0.0
 30
0.0
 70
   128
 71
    47
 72
    48
 73
    51
  0
VERTEX
  5
465
330
3FF
100
AcDbEntity
  8
0
 62
     9
420
 12632256
100
AcDbFaceRecord
 10
0.0
 20
0.0
 30
0.0
 70
   128
 71
    47
 72
    52
 73
    49
  0
VERTEX
  5
466
330
3FF
100
AcDbEntity
  8
0
 62
     9
420
 12632256
100
AcDbFaceRecord
 10
0.0
 20
0.0
 30
0.0
 70
   128
 71
    54
 72
    53
 73
    52
  0
VERTEX
  5
467
330
3FF
100
AcDbEntity
  8
0
 62
     9
420
 12632256
100
AcDbFaceRecord
 10
0.0
 20
0.0
 30
0.0
 70
   128
 71
    56
 72
    55
 73
    52
  0
VERTEX
  5
468
330
3FF
100
AcDbEntity
  8
0
 62
     9
420
 12632256
100
AcDbFaceRecord
 10
0.0
 20
0.0
 30
0.0
 70
   128
 71
    52
 72
    53
 73
    56
  0
VERTEX
  5
469
330
3FF
100
AcDbEntity
  8
0
 62
     9
420
 12632256
100
AcDbFaceRecord
 10
0.0
 20
0.0
 30
0.0
 70
   128
 71
    52
 72
    57
 73
    54
  0
VERTEX
  5
46A
330
3FF
100
AcDbEntity
  8
0
 62
     9
420
 12632256
100
AcDbFaceRecord
 10
0.0
 20
0.0
 30
0.0
 70
   128
 71
    59
 72
    58
 73
    57
  0
VERTEX
  5
46B
330
3FF
100
AcDbEntity
  8
0
 62
     9
420
 12632256
100
AcDbFaceRecord
 10
0.0
 20
0.0
 30
0.0
 70
   128
 71
    61
 72
    60
 73
    57
  0
VERTEX
  5
46C
330
3FF
100
AcDbEntity
  8
0
 62
     9
420
 12632256
100
AcDbFaceRecord
 10
0.0
 20
0.0
 30
0.0
 70
   128
 71
    57
 72
    58
 73
    61
  0
VERTEX
  5
46D
330
3FF
100
AcDbEntity
  8
0
 62
     9
420
 12632256
100
AcDbFaceRecord
 10
0.0
 20
0.0
 30
0.0
 70
   128
 71
    57
 72
     1
 73
    59
  0
VERTEX
  5
46E
330
3FF
100
AcDbEntity
  8
0
 62
     9
420
 12632256
100
AcDbFaceRecord
 10
0.0
 20
0.0
 30
0.0
 70
   128
 71
     1
 72
     4
 73
    59
  0
VERTEX
  5
46F
330
3FF
100
AcDbEntity
  8
0
 62
     9
420
 12632256
100
AcDbFaceRecord
 10
0.0
 20
0.0
 30
0.0
 70
   128
 71
    57
 72
    60
 73
    54
  0
VERTEX
  5
470
330
3FF
100
AcDbEntity
  8
0
 62
     9
420
 12632256
100
AcDbFaceRecord
 10
0.0
 20
0.0
 30
0.0
 70
   128
 71
    52
 72
    55
 73
    49
  0
VERTEX
  5
471
330
3FF
100
AcDbEntity
  8
0
 62
     9
420
 12632256
100
AcDbFaceRecord
 10
0.0
 20
0.0
 30
0.0
 70
   128
 71
    47
 72
    50
 73
    44
  0
VERTEX
  5
472
330
3FF
100
AcDbEntity
  8
0
 62
     9
420
 12632256
100
AcDbFaceRecord
 10
0.0
 20
0.0
 30
0.0
 70
   128
 71
    42
 72
    45
 73
    39
  0
VERTEX
  5
473
330
3FF
100
AcDbEntity
  8
0
 62
     9
420
 12632256
100
AcDbFaceRecord
 10
0.0
 20
0.0
 30
0.0
 70
   128
 71
    37
 72
    40
 73
    34
  0
VERTEX
  5
474
330
3FF
100
AcDbEntity
  8
0
 62
     9
420
 12632256
100
AcDbFaceRecord
 10
0.0
 20
0.0
 30
0.0
 70
   128
 71
    32
 72
    35
 73
    29
  0
VERTEX
  5
475
330
3FF
100
AcDbEntity
  8
0
 62
     9
420
 12632256
100
AcDbFaceRecord
 10
0.0
 20
0.0
 30
0.0
 70
   128
 71
    27
 72
    30
 73
    24
  0
VERTEX
  5
476
330
3FF
100
AcDbEntity
  8
0
 62
     9
420
 12632256
100
AcDbFaceRecord
 10
0.0
 20
0.0
 30
0.0
 70
   128
 71
    22
 72
    25
 73
    19
  0
VERTEX
  5
477
330
3FF
100
AcDbEntity
  8
0
 62
     9
420
 12632256
100
AcDbFaceRecord
 10
0.0
 20
0.0
 30
0.0
 70
   128
 71
    12
 72
    20
 73
    14
  0
VERTEX
  5
478
330
3FF
100
AcDbEntity
  8
0
 62
     9
420
 12632256
100
AcDbFaceRecord
 10
0.0
 20
0.0
 30
0.0
 70
   128
 71
    11
 72
    16
 73
     8
  0
VERTEX
  5
479
330
3FF
100
AcDbEntity
  8
0
 62
     9
420
 12632256
100
AcDbFaceRecord
 10
0.0
 20
0.0
 30
0.0
 70
   128
 71
     6
 72
     9
 73
     3
  0
SEQEND
  5
47A
330
3FF
100
AcDbEntity
  8
0
 62
     9
420
 12632256
  0
ENDBLK
  5
47D
330
3FE
100
AcDbEntity
  8
0
100
AcDbBlockEnd
  0
BLOCK
  5
48E
330
47E
100
AcDbEntity
  8
0
100
AcDbBlockBegin
  2
e3_node(26)
 70
     0
 10
0.0
 20
0.0
 30
0.0
  3
e3_node(26)
  1

  0
POLYLINE
  5
47F
330
47E
100
AcDbEntity
  8
0
 62
     9
420
 12632256
100
AcDbPolyFaceMesh
 66
     1
 10
0.0
 20
0.0
 30
0.0
 70
    64
 71
     7
 72
     5
  0
VERTEX
  5
480
330
47F
100
AcDbEntity
  8
0
100
AcDbVertex
100
AcDbPolyFaceMeshVertex
 10
9.0
 20
315.7009887695312
 30
18.47699928283691
 70
   192
  0
VERTEX
  5
481
330
47F
100
AcDbEntity
  8
0
100
AcDbVertex
100
AcDbPolyFaceMeshVertex
 10
9.0
 20
324.2760009765625
 30
13.52600002288818
 70
   192
  0
VERTEX
  5
482
330
47F
100
AcDbEntity
  8
0
100
AcDbVertex
100
AcDbPolyFaceMeshVertex
 10
1.45799994468689
 20
323.4519958496094
 30
20.80599975585938
 70
   192
  0
VERTEX
  5
483
330
47F
100
AcDbEntity
  8
0
100
AcDbVertex
100
AcDbPolyFaceMeshVertex
 10
1.968999981880188
 20
326.2030029296875
 30
18.75600051879883
 70
   192
  0
VERTEX
  5
484
330
47F
100
AcDbEntity
  8
0
100
AcDbVertex
100
AcDbPolyFaceMeshVertex
 10
2.059999942779541
 20
318.0509948730469
 30
23.38100051879883
 70
   192
  0
VERTEX
  5
485
330
47F
100
AcDbEntity
  8
0
100
AcDbVertex
100
AcDbPolyFaceMeshVertex
 10
2.321000099182129
 20
328.0960083007812
 30
17.34600067138672
 70
   192
  0
VERTEX
  5
486
330
47F
100
AcDbEntity
  8
0
100
AcDbVertex
100
AcDbPolyFaceMeshVertex
 10
2.321000099182129
 20
317.0989990234375
 30
23.69499969482422
 70
   192
  0
VERTEX
  5
487
330
47F
100
AcDbEntity
  8
0
 62
     9
420
 12632256
100
AcDbFaceRecord
 10
0.0
 20
0.0
 30
0.0
 70
   128
 71
     3
 72
     2
 73
     1
  0
VERTEX
  5
488
330
47F
100
AcDbEntity
  8
0
 62
     9
420
 12632256
100
AcDbFaceRecord
 10
0.0
 20
0.0
 30
0.0
 70
   128
 71
     3
 72
     4
 73
     2
  0
VERTEX
  5
489
330
47F
100
AcDbEntity
  8
0
 62
     9
420
 12632256
100
AcDbFaceRecord
 10
0.0
 20
0.0
 30
0.0
 70
   128
 71
     1
 72
     5
 73
     3
  0
VERTEX
  5
48A
330
47F
100
AcDbEntity
  8
0
 62
     9
420
 12632256
100
AcDbFaceRecord
 10
0.0
 20
0.0
 30
0.0
 70
   128
 71
     4
 72
     6
 73
     2
  0
VERTEX
  5
48B
330
47F
100
AcDbEntity
  8
0
 62
     9
420
 12632256
100
AcDbFaceRecord
 10
0.0
 20
0.0
 30
0.0
 70
   128
 71
     1
 72
     7
 73
     5
  0
SEQEND
  5
48C
330
47F
100
AcDbEntity
  8
0
 62
     9
420
 12632256
  0
ENDBLK
  5
48F
330
47E
100
AcDbEntity
  8
0
100
AcDbBlockEnd
  0
BLOCK
  5
4AA
330
490
100
AcDbEntity
  8
0
100
AcDbBlockBegin
  2
e3_node(27)
 70
     0
 10
0.0
 20
0.0
 30
0.0
  3
e3_node(27)
  1

  0
POLYLINE
  5
491
330
490
100
AcDbEntity
  8
0
 62
     9
420
 12632256
100
AcDbPolyFaceMesh
 66
     1
 10
0.0
 20
0.0
 30
0.0
 70
    64
 71
    12
 72
    10
  0
VERTEX
  5
492
330
491
100
AcDbEntity
  8
0
100
AcDbVertex
100
AcDbPolyFaceMeshVertex
 10
9.0
 20
297.2239990234375
 30
-13.52600002288818
 70
   192
  0
VERTEX
  5
493
330
491
100
AcDbEntity
  8
0
100
AcDbVertex
100
AcDbPolyFaceMeshVertex
 10
9.0
 20
315.7009887695312
 30
-18.47699928283691
 70
   192
  0
VERTEX
  5
494
330
491
100
AcDbEntity
  8
0
100
AcDbVertex
100
AcDbPolyFaceMeshVertex
 10
9.0
 20
324.2760009765625
 30
-13.52600002288818
 70
   192
  0
VERTEX
  5
495
330
491
100
AcDbEntity
  8
0
100
AcDbVertex
100
AcDbPolyFaceMeshVertex
 10
9.0
 20
324.2760009765625
 30
13.52600002288818
 70
   192
  0
VERTEX
  5
496
330
491
100
AcDbEntity
  8
0
100
AcDbVertex
100
AcDbPolyFaceMeshVertex
 10
9.0
 20
315.7009887695312
 30
18.47699928283691
 70
   192
  0
VERTEX
  5
497
330
491
100
AcDbEntity
  8
0
100
AcDbVertex
100
AcDbPolyFaceMeshVertex
 10
9.0
 20
305.7990112304688
 30
18.47699928283691
 70
   192
  0
VERTEX
  5
498
330
491
100
AcDbEntity
  8
0
100
AcDbVertex
100
AcDbPolyFaceMeshVertex
 10
9.0
 20
305.7990112304688
 30
-18.47699928283691
 70
   192
  0
VERTEX
  5
499
330
491
100
AcDbEntity
  8
0
100
AcDbVertex
100
AcDbPolyFaceMeshVertex
 10
9.0
 20
292.2730102539062
 30
4.951000213623047
 70
   192
  0
VERTEX
  5
49A
330
491
100
AcDbEntity
  8
0
100
AcDbVertex
100
AcDbPolyFaceMeshVertex
 10
9.0
 20
292.2730102539062
 30
-4.951000213623047
 70
   192
  0
VERTEX
  5
49B
330
491
100
AcDbEntity
  8
0
100
AcDbVertex
100
AcDbPolyFaceMeshVertex
 10
9.0
 20
297.2239990234375
 30
13.52600002288818
 70
   192
  0
VERTEX
  5
49C
330
491
100
AcDbEntity
  8
0
100
AcDbVertex
100
AcDbPolyFaceMeshVertex
 10
9.0
 20
329.2269897460938
 30
-4.951000213623047
 70
   192
  0
VERTEX
  5
49D
330
491
100
AcDbEntity
  8
0
100
AcDbVertex
100
AcDbPolyFaceMeshVertex
 10
9.0
 20
329.2269897460938
 30
4.951000213623047
 70
   192
  0
VERTEX
  5
49E
330
491
100
AcDbEntity
  8
0
 62
     9
420
 12632256
100
AcDbFaceRecord
 10
0.0
 20
0.0
 30
0.0
 70
   128
 71
     3
 72
     2
 73
     1
  0
VERTEX
  5
49F
330
491
100
AcDbEntity
  8
0
 62
     9
420
 12632256
100
AcDbFaceRecord
 10
0.0
 20
0.0
 30
0.0
 70
   128
 71
     6
 72
     5
 73
     4
  0
VERTEX
  5
4A0
330
491
100
AcDbEntity
  8
0
 62
     9
420
 12632256
100
AcDbFaceRecord
 10
0.0
 20
0.0
 30
0.0
 70
   128
 71
     2
 72
     7
 73
     1
  0
VERTEX
  5
4A1
330
491
100
AcDbEntity
  8
0
 62
     9
420
 12632256
100
AcDbFaceRecord
 10
0.0
 20
0.0
 30
0.0
 70
   128
 71
     9
 72
     8
 73
     4
  0
VERTEX
  5
4A2
330
491
100
AcDbEntity
  8
0
 62
     9
420
 12632256
100
AcDbFaceRecord
 10
0.0
 20
0.0
 30
0.0
 70
   128
 71
     4
 72
    10
 73
     6
  0
VERTEX
  5
4A3
330
491
100
AcDbEntity
  8
0
 62
     9
420
 12632256
100
AcDbFaceRecord
 10
0.0
 20
0.0
 30
0.0
 70
   128
 71
     1
 72
    11
 73
     3
  0
VERTEX
  5
4A4
330
491
100
AcDbEntity
  8
0
 62
     9
420
 12632256
100
AcDbFaceRecord
 10
0.0
 20
0.0
 30
0.0
 70
   128
 71
     4
 72
     8
 73
    10
  0
VERTEX
  5
4A5
330
491
100
AcDbEntity
  8
0
 62
     9
420
 12632256
100
AcDbFaceRecord
 10
0.0
 20
0.0
 30
0.0
 70
   128
 71
     1
 72
    12
 73
    11
  0
VERTEX
  5
4A6
330
491
100
AcDbEntity
  8
0
 62
     9
420
 12632256
100
AcDbFaceRecord
 10
0.0
 20
0.0
 30
0.0
 70
   128
 71
     1
 72
     4
 73
    12
  0
VERTEX
  5
4A7
330
491
100
AcDbEntity
  8
0
 62
     9
420
 12632256
100
AcDbFaceRecord
 10
0.0
 20
0.0
 30
0.0
 70
   128
 71
     4
 72
     1
 73
     9
  0
SEQEND
  5
4A8
330
491
100
AcDbEntity
  8
0
 62
     9
420
 12632256
  0
ENDBLK
  5
4AB
330
490
100
AcDbEntity
  8
0
100
AcDbBlockEnd
  0
BLOCK
  5
4BC
330
4AC
100
AcDbEntity
  8
0
100
AcDbBlockBegin
  2
e3_node(28)
 70
     0
 10
0.0
 20
0.0
 30
0.0
  3
e3_node(28)
  1

  0
POLYLINE
  5
4AD
330
4AC
100
AcDbEntity
  8
0
 62
     9
420
 12632256
100
AcDbPolyFaceMesh
 66
     1
 10
0.0
 20
0.0
 30
0.0
 70
    64
 71
     7
 72
     5
  0
VERTEX
  5
4AE
330
4AD
100
AcDbEntity
  8
0
100
AcDbVertex
100
AcDbPolyFaceMeshVertex
 10
9.0
 20
329.2269897460938
 30
4.951000213623047
 70
   192
  0
VERTEX
  5
4AF
330
4AD
100
AcDbEntity
  8
0
100
AcDbVertex
100
AcDbPolyFaceMeshVertex
 10
9.0
 20
329.2269897460938
 30
-4.951000213623047
 70
   192
  0
VERTEX
  5
4B0
330
4AD
100
AcDbEntity
  8
0
100
AcDbVertex
100
AcDbPolyFaceMeshVertex
 10
1.45799994468689
 20
335.1199951171875
 30
-0.5979999899864197
 70
   192
  0
VERTEX
  5
4B1
330
4AD
100
AcDbEntity
  8
0
100
AcDbVertex
100
AcDbPolyFaceMeshVertex
 10
1.968999981880188
 20
334.7200012207031
 30
-4.004000186920166
 70
   192
  0
VERTEX
  5
4B2
330
4AD
100
AcDbEntity
  8
0
100
AcDbVertex
100
AcDbPolyFaceMeshVertex
 10
2.059999942779541
 20
334.6489868164062
 30
5.368000030517578
 70
   192
  0
VERTEX
  5
4B3
330
4AD
100
AcDbEntity
  8
0
100
AcDbVertex
100
AcDbPolyFaceMeshVertex
 10
2.321000099182129
 20
334.4450073242188
 30
-6.348999977111816
 70
   192
  0
VERTEX
  5
4B4
330
4AD
100
AcDbEntity
  8
0
100
AcDbVertex
100
AcDbPolyFaceMeshVertex
 10
2.321000099182129
 20
334.4450073242188
 30
6.348999977111816
 70
   192
  0
VERTEX
  5
4B5
330
4AD
100
AcDbEntity
  8
0
 62
     9
420
 12632256
100
AcDbFaceRecord
 10
0.0
 20
0.0
 30
0.0
 70
   128
 71
     3
 72
     2
 73
     1
  0
VERTEX
  5
4B6
330
4AD
100
AcDbEntity
  8
0
 62
     9
420
 12632256
100
AcDbFaceRecord
 10
0.0
 20
0.0
 30
0.0
 70
   128
 71
     3
 72
     4
 73
     2
  0
VERTEX
  5
4B7
330
4AD
100
AcDbEntity
  8
0
 62
     9
420
 12632256
100
AcDbFaceRecord
 10
0.0
 20
0.0
 30
0.0
 70
   128
 71
     1
 72
     5
 73
     3
  0
VERTEX
  5
4B8
330
4AD
100
AcDbEntity
  8
0
 62
     9
420
 12632256
100
AcDbFaceRecord
 10
0.0
 20
0.0
 30
0.0
 70
   128
 71
     4
 72
     6
 73
     2
  0
VERTEX
  5
4B9
330
4AD
100
AcDbEntity
  8
0
 62
     9
420
 12632256
100
AcDbFaceRecord
 10
0.0
 20
0.0
 30
0.0
 70
   128
 71
     1
 72
     7
 73
     5
  0
SEQEND
  5
4BA
330
4AD
100
AcDbEntity
  8
0
 62
     9
420
 12632256
  0
ENDBLK
  5
4BD
330
4AC
100
AcDbEntity
  8
0
100
AcDbBlockEnd
  0
BLOCK
  5
4CE
330
4BE
100
AcDbEntity
  8
0
100
AcDbBlockBegin
  2
e3_node(29)
 70
     0
 10
0.0
 20
0.0
 30
0.0
  3
e3_node(29)
  1

  0
POLYLINE
  5
4BF
330
4BE
100
AcDbEntity
  8
0
 62
     9
420
 12632256
100
AcDbPolyFaceMesh
 66
     1
 10
0.0
 20
0.0
 30
0.0
 70
    64
 71
     7
 72
     5
  0
VERTEX
  5
4C0
330
4BF
100
AcDbEntity
  8
0
100
AcDbVertex
100
AcDbPolyFaceMeshVertex
 10
9.0
 20
329.2269897460938
 30
-4.951000213623047
 70
   192
  0
VERTEX
  5
4C1
330
4BF
100
AcDbEntity
  8
0
100
AcDbVertex
100
AcDbPolyFaceMeshVertex
 10
9.0
 20
324.2760009765625
 30
-13.52600002288818
 70
   192
  0
VERTEX
  5
4C2
330
4BF
100
AcDbEntity
  8
0
100
AcDbVertex
100
AcDbPolyFaceMeshVertex
 10
1.45799994468689
 20
331.5559997558594
 30
-12.70199966430664
 70
   192
  0
VERTEX
  5
4C3
330
4BF
100
AcDbEntity
  8
0
100
AcDbVertex
100
AcDbPolyFaceMeshVertex
 10
1.968999981880188
 20
329.5060119628906
 30
-15.45300006866455
 70
   192
  0
VERTEX
  5
4C4
330
4BF
100
AcDbEntity
  8
0
100
AcDbVertex
100
AcDbPolyFaceMeshVertex
 10
2.059999942779541
 20
334.1310119628906
 30
-7.301000118255615
 70
   192
  0
VERTEX
  5
4C5
330
4BF
100
AcDbEntity
  8
0
100
AcDbVertex
100
AcDbPolyFaceMeshVertex
 10
2.321000099182129
 20
328.0960083007812
 30
-17.34600067138672
 70
   192
  0
VERTEX
  5
4C6
330
4BF
100
AcDbEntity
  8
0
100
AcDbVertex
100
AcDbPolyFaceMeshVertex
 10
2.321000099182129
 20
334.4450073242188
 30
-6.348999977111816
 70
   192
  0
VERTEX
  5
4C7
330
4BF
100
AcDbEntity
  8
0
 62
     9
420
 12632256
100
AcDbFaceRecord
 10
0.0
 20
0.0
 30
0.0
 70
   128
 71
     3
 72
     2
 73
     1
  0
VERTEX
  5
4C8
330
4BF
100
AcDbEntity
  8
0
 62
     9
420
 12632256
100
AcDbFaceRecord
 10
0.0
 20
0.0
 30
0.0
 70
   128
 71
     3
 72
     4
 73
     2
  0
VERTEX
  5
4C9
330
4BF
100
AcDbEntity
  8
0
 62
     9
420
 12632256
100
AcDbFaceRecord
 10
0.0
 20
0.0
 30
0.0
 70
   128
 71
     1
 72
     5
 73
     3
  0
VERTEX
  5
4CA
330
4BF
100
AcDbEntity
  8
0
 62
     9
420
 12632256
100
AcDbFaceRecord
 10
0.0
 20
0.0
 30
0.0
 70
   128
 71
     4
 72
     6
 73
     2
  0
VERTEX
  5
4CB
330
4BF
100
AcDbEntity
  8
0
 62
     9
420
 12632256
100
AcDbFaceRecord
 10
0.0
 20
0.0
 30
0.0
 70
   128
 71
     1
 72
     7
 73
     5
  0
SEQEND
  5
4CC
330
4BF
100
AcDbEntity
  8
0
 62
     9
420
 12632256
  0
ENDBLK
  5
4CF
330
4BE
100
AcDbEntity
  8
0
100
AcDbBlockEnd
  0
BLOCK
  5
4E0
330
4D0
100
AcDbEntity
  8
0
100
AcDbBlockBegin
  2
e3_node(30)
 70
     0
 10
0.0
 20
0.0
 30
0.0
  3
e3_node(30)
  1

  0
POLYLINE
  5
4D1
330
4D0
100
AcDbEntity
  8
0
 62
     9
420
 12632256
100
AcDbPolyFaceMesh
 66
     1
 10
0.0
 20
0.0
 30
0.0
 70
    64
 71
     7
 72
     5
  0
VERTEX
  5
4D2
330
4D1
100
AcDbEntity
  8
0
100
AcDbVertex
100
AcDbPolyFaceMeshVertex
 10
9.0
 20
324.2760009765625
 30
13.52600002288818
 70
   192
  0
VERTEX
  5
4D3
330
4D1
100
AcDbEntity
  8
0
100
AcDbVertex
100
AcDbPolyFaceMeshVertex
 10
9.0
 20
329.2269897460938
 30
4.951000213623047
 70
   192
  0
VERTEX
  5
4D4
330
4D1
100
AcDbEntity
  8
0
100
AcDbVertex
100
AcDbPolyFaceMeshVertex
 10
1.45799994468689
 20
332.1530151367188
 30
11.66699981689453
 70
   192
  0
VERTEX
  5
4D5
330
4D1
100
AcDbEntity
  8
0
100
AcDbVertex
100
AcDbPolyFaceMeshVertex
 10
1.968999981880188
 20
333.510986328125
 30
8.517000198364258
 70
   192
  0
VERTEX
  5
4D6
330
4D1
100
AcDbEntity
  8
0
100
AcDbVertex
100
AcDbPolyFaceMeshVertex
 10
2.059999942779541
 20
328.7630004882812
 30
16.59799957275391
 70
   192
  0
VERTEX
  5
4D7
330
4D1
100
AcDbEntity
  8
0
100
AcDbVertex
100
AcDbPolyFaceMeshVertex
 10
2.321000099182129
 20
334.4450073242188
 30
6.348999977111816
 70
   192
  0
VERTEX
  5
4D8
330
4D1
100
AcDbEntity
  8
0
100
AcDbVertex
100
AcDbPolyFaceMeshVertex
 10
2.321000099182129
 20
328.0960083007812
 30
17.34600067138672
 70
   192
  0
VERTEX
  5
4D9
330
4D1
100
AcDbEntity
  8
0
 62
     9
420
 12632256
100
AcDbFaceRecord
 10
0.0
 20
0.0
 30
0.0
 70
   128
 71
     3
 72
     2
 73
     1
  0
VERTEX
  5
4DA
330
4D1
100
AcDbEntity
  8
0
 62
     9
420
 12632256
100
AcDbFaceRecord
 10
0.0
 20
0.0
 30
0.0
 70
   128
 71
     3
 72
     4
 73
     2
  0
VERTEX
  5
4DB
330
4D1
100
AcDbEntity
  8
0
 62
     9
420
 12632256
100
AcDbFaceRecord
 10
0.0
 20
0.0
 30
0.0
 70
   128
 71
     1
 72
     5
 73
     3
  0
VERTEX
  5
4DC
330
4D1
100
AcDbEntity
  8
0
 62
     9
420
 12632256
100
AcDbFaceRecord
 10
0.0
 20
0.0
 30
0.0
 70
   128
 71
     4
 72
     6
 73
     2
  0
VERTEX
  5
4DD
330
4D1
100
AcDbEntity
  8
0
 62
     9
420
 12632256
100
AcDbFaceRecord
 10
0.0
 20
0.0
 30
0.0
 70
   128
 71
     1
 72
     7
 73
     5
  0
SEQEND
  5
4DE
330
4D1
100
AcDbEntity
  8
0
 62
     9
420
 12632256
  0
ENDBLK
  5
4E1
330
4D0
100
AcDbEntity
  8
0
100
AcDbBlockEnd
  0
BLOCK
  5
4F2
330
4E2
100
AcDbEntity
  8
0
100
AcDbBlockBegin
  2
e3_node(31)
 70
     0
 10
0.0
 20
0.0
 30
0.0
  3
e3_node(31)
  1

  0
POLYLINE
  5
4E3
330
4E2
100
AcDbEntity
  8
0
 62
     9
420
 12632256
100
AcDbPolyFaceMesh
 66
     1
 10
0.0
 20
0.0
 30
0.0
 70
    64
 71
     7
 72
     5
  0
VERTEX
  5
4E4
330
4E3
100
AcDbEntity
  8
0
100
AcDbVertex
100
AcDbPolyFaceMeshVertex
 10
9.0
 20
324.2760009765625
 30
-13.52600002288818
 70
   192
  0
VERTEX
  5
4E5
330
4E3
100
AcDbEntity
  8
0
100
AcDbVertex
100
AcDbPolyFaceMeshVertex
 10
9.0
 20
315.7009887695312
 30
-18.47699928283691
 70
   192
  0
VERTEX
  5
4E6
330
4E3
100
AcDbEntity
  8
0
100
AcDbVertex
100
AcDbPolyFaceMeshVertex
 10
1.45799994468689
 20
322.4169921875
 30
-21.40299987792969
 70
   192
  0
VERTEX
  5
4E7
330
4E3
100
AcDbEntity
  8
0
100
AcDbVertex
100
AcDbPolyFaceMeshVertex
 10
1.968999981880188
 20
319.2669982910156
 30
-22.76099967956543
 70
   192
  0
VERTEX
  5
4E8
330
4E3
100
AcDbEntity
  8
0
100
AcDbVertex
100
AcDbPolyFaceMeshVertex
 10
2.059999942779541
 20
327.3479919433594
 30
-18.01300048828125
 70
   192
  0
VERTEX
  5
4E9
330
4E3
100
AcDbEntity
  8
0
100
AcDbVertex
100
AcDbPolyFaceMeshVertex
 10
2.321000099182129
 20
317.0989990234375
 30
-23.69499969482422
 70
   192
  0
VERTEX
  5
4EA
330
4E3
100
AcDbEntity
  8
0
100
AcDbVertex
100
AcDbPolyFaceMeshVertex
 10
2.321000099182129
 20
328.0960083007812
 30
-17.34600067138672
 70
   192
  0
VERTEX
  5
4EB
330
4E3
100
AcDbEntity
  8
0
 62
     9
420
 12632256
100
AcDbFaceRecord
 10
0.0
 20
0.0
 30
0.0
 70
   128
 71
     3
 72
     2
 73
     1
  0
VERTEX
  5
4EC
330
4E3
100
AcDbEntity
  8
0
 62
     9
420
 12632256
100
AcDbFaceRecord
 10
0.0
 20
0.0
 30
0.0
 70
   128
 71
     3
 72
     4
 73
     2
  0
VERTEX
  5
4ED
330
4E3
100
AcDbEntity
  8
0
 62
     9
420
 12632256
100
AcDbFaceRecord
 10
0.0
 20
0.0
 30
0.0
 70
   128
 71
     1
 72
     5
 73
     3
  0
VERTEX
  5
4EE
330
4E3
100
AcDbEntity
  8
0
 62
     9
420
 12632256
100
AcDbFaceRecord
 10
0.0
 20
0.0
 30
0.0
 70
   128
 71
     4
 72
     6
 73
     2
  0
VERTEX
  5
4EF
330
4E3
100
AcDbEntity
  8
0
 62
     9
420
 12632256
100
AcDbFaceRecord
 10
0.0
 20
0.0
 30
0.0
 70
   128
 71
     1
 72
     7
 73
     5
  0
SEQEND
  5
4F0
330
4E3
100
AcDbEntity
  8
0
 62
     9
420
 12632256
  0
ENDBLK
  5
4F3
330
4E2
100
AcDbEntity
  8
0
100
AcDbBlockEnd
  0
BLOCK
  5
504
330
4F4
100
AcDbEntity
  8
0
100
AcDbBlockBegin
  2
e3_node(32)
 70
     0
 10
0.0
 20
0.0
 30
0.0
  3
e3_node(32)
  1

  0
POLYLINE
  5
4F5
330
4F4
100
AcDbEntity
  8
0
 62
     9
420
 12632256
100
AcDbPolyFaceMesh
 66
     1
 10
0.0
 20
0.0
 30
0.0
 70
    64
 71
     7
 72
     5
  0
VERTEX
  5
4F6
330
4F5
100
AcDbEntity
  8
0
100
AcDbVertex
100
AcDbPolyFaceMeshVertex
 10
9.0
 20
315.7009887695312
 30
-18.47699928283691
 70
   192
  0
VERTEX
  5
4F7
330
4F5
100
AcDbEntity
  8
0
100
AcDbVertex
100
AcDbPolyFaceMeshVertex
 10
9.0
 20
305.7990112304688
 30
-18.47699928283691
 70
   192
  0
VERTEX
  5
4F8
330
4F5
100
AcDbEntity
  8
0
100
AcDbVertex
100
AcDbPolyFaceMeshVertex
 10
1.45799994468689
 20
310.1520080566406
 30
-24.3700008392334
 70
   192
  0
VERTEX
  5
4F9
330
4F5
100
AcDbEntity
  8
0
100
AcDbVertex
100
AcDbPolyFaceMeshVertex
 10
1.968999981880188
 20
306.7460021972656
 30
-23.96999931335449
 70
   192
  0
VERTEX
  5
4FA
330
4F5
100
AcDbEntity
  8
0
100
AcDbVertex
100
AcDbPolyFaceMeshVertex
 10
2.059999942779541
 20
316.1180114746094
 30
-23.89900016784668
 70
   192
  0
VERTEX
  5
4FB
330
4F5
100
AcDbEntity
  8
0
100
AcDbVertex
100
AcDbPolyFaceMeshVertex
 10
2.321000099182129
 20
304.4010009765625
 30
-23.69499969482422
 70
   192
  0
VERTEX
  5
4FC
330
4F5
100
AcDbEntity
  8
0
100
AcDbVertex
100
AcDbPolyFaceMeshVertex
 10
2.321000099182129
 20
317.0989990234375
 30
-23.69499969482422
 70
   192
  0
VERTEX
  5
4FD
330
4F5
100
AcDbEntity
  8
0
 62
     9
420
 12632256
100
AcDbFaceRecord
 10
0.0
 20
0.0
 30
0.0
 70
   128
 71
     3
 72
     2
 73
     1
  0
VERTEX
  5
4FE
330
4F5
100
AcDbEntity
  8
0
 62
     9
420
 12632256
100
AcDbFaceRecord
 10
0.0
 20
0.0
 30
0.0
 70
   128
 71
     3
 72
     4
 73
     2
  0
VERTEX
  5
4FF
330
4F5
100
AcDbEntity
  8
0
 62
     9
420
 12632256
100
AcDbFaceRecord
 10
0.0
 20
0.0
 30
0.0
 70
   128
 71
     1
 72
     5
 73
     3
  0
VERTEX
  5
500
330
4F5
100
AcDbEntity
  8
0
 62
     9
420
 12632256
100
AcDbFaceRecord
 10
0.0
 20
0.0
 30
0.0
 70
   128
 71
     4
 72
     6
 73
     2
  0
VERTEX
  5
501
330
4F5
100
AcDbEntity
  8
0
 62
     9
420
 12632256
100
AcDbFaceRecord
 10
0.0
 20
0.0
 30
0.0
 70
   128
 71
     1
 72
     7
 73
     5
  0
SEQEND
  5
502
330
4F5
100
AcDbEntity
  8
0
 62
     9
420
 12632256
  0
ENDBLK
  5
505
330
4F4
100
AcDbEntity
  8
0
100
AcDbBlockEnd
  0
BLOCK
  5
516
330
506
100
AcDbEntity
  8
0
100
AcDbBlockBegin
  2
e3_node(33)
 70
     0
 10
0.0
 20
0.0
 30
0.0
  3
e3_node(33)
  1

  0
POLYLINE
  5
507
330
506
100
AcDbEntity
  8
0
 62
     9
420
 12632256
100
AcDbPolyFaceMesh
 66
     1
 10
0.0
 20
0.0
 30
0.0
 70
    64
 71
     7
 72
     5
  0
VERTEX
  5
508
330
507
100
AcDbEntity
  8
0
100
AcDbVertex
100
AcDbPolyFaceMeshVertex
 10
9.0
 20
305.7990112304688
 30
18.47699928283691
 70
   192
  0
VERTEX
  5
509
330
507
100
AcDbEntity
  8
0
100
AcDbVertex
100
AcDbPolyFaceMeshVertex
 10
9.0
 20
315.7009887695312
 30
18.47699928283691
 70
   192
  0
VERTEX
  5
50A
330
507
100
AcDbEntity
  8
0
100
AcDbVertex
100
AcDbPolyFaceMeshVertex
 10
1.45799994468689
 20
311.3479919433594
 30
24.3700008392334
 70
   192
  0
VERTEX
  5
50B
330
507
100
AcDbEntity
  8
0
100
AcDbVertex
100
AcDbPolyFaceMeshVertex
 10
1.968999981880188
 20
314.7539978027344
 30
23.96999931335449
 70
   192
  0
VERTEX
  5
50C
330
507
100
AcDbEntity
  8
0
100
AcDbVertex
100
AcDbPolyFaceMeshVertex
 10
2.059999942779541
 20
305.3819885253906
 30
23.89900016784668
 70
   192
  0
VERTEX
  5
50D
330
507
100
AcDbEntity
  8
0
100
AcDbVertex
100
AcDbPolyFaceMeshVertex
 10
2.321000099182129
 20
317.0989990234375
 30
23.69499969482422
 70
   192
  0
VERTEX
  5
50E
330
507
100
AcDbEntity
  8
0
100
AcDbVertex
100
AcDbPolyFaceMeshVertex
 10
2.321000099182129
 20
304.4010009765625
 30
23.69499969482422
 70
   192
  0
VERTEX
  5
50F
330
507
100
AcDbEntity
  8
0
 62
     9
420
 12632256
100
AcDbFaceRecord
 10
0.0
 20
0.0
 30
0.0
 70
   128
 71
     3
 72
     2
 73
     1
  0
VERTEX
  5
510
330
507
100
AcDbEntity
  8
0
 62
     9
420
 12632256
100
AcDbFaceRecord
 10
0.0
 20
0.0
 30
0.0
 70
   128
 71
     3
 72
     4
 73
     2
  0
VERTEX
  5
511
330
507
100
AcDbEntity
  8
0
 62
     9
420
 12632256
100
AcDbFaceRecord
 10
0.0
 20
0.0
 30
0.0
 70
   128
 71
     1
 72
     5
 73
     3
  0
VERTEX
  5
512
330
507
100
AcDbEntity
  8
0
 62
     9
420
 12632256
100
AcDbFaceRecord
 10
0.0
 20
0.0
 30
0.0
 70
   128
 71
     4
 72
     6
 73
     2
  0
VERTEX
  5
513
330
507
100
AcDbEntity
  8
0
 62
     9
420
 12632256
100
AcDbFaceRecord
 10
0.0
 20
0.0
 30
0.0
 70
   128
 71
     1
 72
     7
 73
     5
  0
SEQEND
  5
514
330
507
100
AcDbEntity
  8
0
 62
     9
420
 12632256
  0
ENDBLK
  5
517
330
506
100
AcDbEntity
  8
0
100
AcDbBlockEnd
  0
BLOCK
  5
528
330
518
100
AcDbEntity
  8
0
100
AcDbBlockBegin
  2
e3_node(34)
 70
     0
 10
0.0
 20
0.0
 30
0.0
  3
e3_node(34)
  1

  0
POLYLINE
  5
519
330
518
100
AcDbEntity
  8
0
 62
     9
420
 12632256
100
AcDbPolyFaceMesh
 66
     1
 10
0.0
 20
0.0
 30
0.0
 70
    64
 71
     7
 72
     5
  0
VERTEX
  5
51A
330
519
100
AcDbEntity
  8
0
100
AcDbVertex
100
AcDbPolyFaceMeshVertex
 10
9.0
 20
305.7990112304688
 30
-18.47699928283691
 70
   192
  0
VERTEX
  5
51B
330
519
100
AcDbEntity
  8
0
100
AcDbVertex
100
AcDbPolyFaceMeshVertex
 10
9.0
 20
297.2239990234375
 30
-13.52600002288818
 70
   192
  0
VERTEX
  5
51C
330
519
100
AcDbEntity
  8
0
100
AcDbVertex
100
AcDbPolyFaceMeshVertex
 10
1.45799994468689
 20
298.0480041503906
 30
-20.80599975585938
 70
   192
  0
VERTEX
  5
51D
330
519
100
AcDbEntity
  8
0
100
AcDbVertex
100
AcDbPolyFaceMeshVertex
 10
1.968999981880188
 20
295.2969970703125
 30
-18.75600051879883
 70
   192
  0
VERTEX
  5
51E
330
519
100
AcDbEntity
  8
0
100
AcDbVertex
100
AcDbPolyFaceMeshVertex
 10
2.059999942779541
 20
303.4490051269531
 30
-23.38100051879883
 70
   192
  0
VERTEX
  5
51F
330
519
100
AcDbEntity
  8
0
100
AcDbVertex
100
AcDbPolyFaceMeshVertex
 10
2.321000099182129
 20
293.4039916992188
 30
-17.34600067138672
 70
   192
  0
VERTEX
  5
520
330
519
100
AcDbEntity
  8
0
100
AcDbVertex
100
AcDbPolyFaceMeshVertex
 10
2.321000099182129
 20
304.4010009765625
 30
-23.69499969482422
 70
   192
  0
VERTEX
  5
521
330
519
100
AcDbEntity
  8
0
 62
     9
420
 12632256
100
AcDbFaceRecord
 10
0.0
 20
0.0
 30
0.0
 70
   128
 71
     3
 72
     2
 73
     1
  0
VERTEX
  5
522
330
519
100
AcDbEntity
  8
0
 62
     9
420
 12632256
100
AcDbFaceRecord
 10
0.0
 20
0.0
 30
0.0
 70
   128
 71
     3
 72
     4
 73
     2
  0
VERTEX
  5
523
330
519
100
AcDbEntity
  8
0
 62
     9
420
 12632256
100
AcDbFaceRecord
 10
0.0
 20
0.0
 30
0.0
 70
   128
 71
     1
 72
     5
 73
     3
  0
VERTEX
  5
524
330
519
100
AcDbEntity
  8
0
 62
     9
420
 12632256
100
AcDbFaceRecord
 10
0.0
 20
0.0
 30
0.0
 70
   128
 71
     4
 72
     6
 73
     2
  0
VERTEX
  5
525
330
519
100
AcDbEntity
  8
0
 62
     9
420
 12632256
100
AcDbFaceRecord
 10
0.0
 20
0.0
 30
0.0
 70
   128
 71
     1
 72
     7
 73
     5
  0
SEQEND
  5
526
330
519
100
AcDbEntity
  8
0
 62
     9
420
 12632256
  0
ENDBLK
  5
529
330
518
100
AcDbEntity
  8
0
100
AcDbBlockEnd
  0
BLOCK
  5
53A
330
52A
100
AcDbEntity
  8
0
100
AcDbBlockBegin
  2
e3_node(35)
 70
     0
 10
0.0
 20
0.0
 30
0.0
  3
e3_node(35)
  1

  0
POLYLINE
  5
52B
330
52A
100
AcDbEntity
  8
0
 62
     9
420
 12632256
100
AcDbPolyFaceMesh
 66
     1
 10
0.0
 20
0.0
 30
0.0
 70
    64
 71
     7
 72
     5
  0
VERTEX
  5
52C
330
52B
100
AcDbEntity
  8
0
100
AcDbVertex
100
AcDbPolyFaceMeshVertex
 10
9.0
 20
297.2239990234375
 30
13.52600002288818
 70
   192
  0
VERTEX
  5
52D
330
52B
100
AcDbEntity
  8
0
100
AcDbVertex
100
AcDbPolyFaceMeshVertex
 10
9.0
 20
305.7990112304688
 30
18.47699928283691
 70
   192
  0
VERTEX
  5
52E
330
52B
100
AcDbEntity
  8
0
100
AcDbVertex
100
AcDbPolyFaceMeshVertex
 10
1.45799994468689
 20
299.0830078125
 30
21.40299987792969
 70
   192
  0
VERTEX
  5
52F
330
52B
100
AcDbEntity
  8
0
100
AcDbVertex
100
AcDbPolyFaceMeshVertex
 10
1.968999981880188
 20
302.2330017089844
 30
22.76099967956543
 70
   192
  0
VERTEX
  5
530
330
52B
100
AcDbEntity
  8
0
100
AcDbVertex
100
AcDbPolyFaceMeshVertex
 10
2.059999942779541
 20
294.1520080566406
 30
18.01300048828125
 70
   192
  0
VERTEX
  5
531
330
52B
100
AcDbEntity
  8
0
100
AcDbVertex
100
AcDbPolyFaceMeshVertex
 10
2.321000099182129
 20
304.4010009765625
 30
23.69499969482422
 70
   192
  0
VERTEX
  5
532
330
52B
100
AcDbEntity
  8
0
100
AcDbVertex
100
AcDbPolyFaceMeshVertex
 10
2.321000099182129
 20
293.4039916992188
 30
17.34600067138672
 70
   192
  0
VERTEX
  5
533
330
52B
100
AcDbEntity
  8
0
 62
     9
420
 12632256
100
AcDbFaceRecord
 10
0.0
 20
0.0
 30
0.0
 70
   128
 71
     3
 72
     2
 73
     1
  0
VERTEX
  5
534
330
52B
100
AcDbEntity
  8
0
 62
     9
420
 12632256
100
AcDbFaceRecord
 10
0.0
 20
0.0
 30
0.0
 70
   128
 71
     3
 72
     4
 73
     2
  0
VERTEX
  5
535
330
52B
100
AcDbEntity
  8
0
 62
     9
420
 12632256
100
AcDbFaceRecord
 10
0.0
 20
0.0
 30
0.0
 70
   128
 71
     1
 72
     5
 73
     3
  0
VERTEX
  5
536
330
52B
100
AcDbEntity
  8
0
 62
     9
420
 12632256
100
AcDbFaceRecord
 10
0.0
 20
0.0
 30
0.0
 70
   128
 71
     4
 72
     6
 73
     2
  0
VERTEX
  5
537
330
52B
100
AcDbEntity
  8
0
 62
     9
420
 12632256
100
AcDbFaceRecord
 10
0.0
 20
0.0
 30
0.0
 70
   128
 71
     1
 72
     7
 73
     5
  0
SEQEND
  5
538
330
52B
100
AcDbEntity
  8
0
 62
     9
420
 12632256
  0
ENDBLK
  5
53B
330
52A
100
AcDbEntity
  8
0
100
AcDbBlockEnd
  0
BLOCK
  5
54C
330
53C
100
AcDbEntity
  8
0
100
AcDbBlockBegin
  2
e3_node(36)
 70
     0
 10
0.0
 20
0.0
 30
0.0
  3
e3_node(36)
  1

  0
POLYLINE
  5
53D
330
53C
100
AcDbEntity
  8
0
 62
     9
420
 12632256
100
AcDbPolyFaceMesh
 66
     1
 10
0.0
 20
0.0
 30
0.0
 70
    64
 71
     7
 72
     5
  0
VERTEX
  5
53E
330
53D
100
AcDbEntity
  8
0
100
AcDbVertex
100
AcDbPolyFaceMeshVertex
 10
9.0
 20
297.2239990234375
 30
-13.52600002288818
 70
   192
  0
VERTEX
  5
53F
330
53D
100
AcDbEntity
  8
0
100
AcDbVertex
100
AcDbPolyFaceMeshVertex
 10
9.0
 20
292.2730102539062
 30
-4.951000213623047
 70
   192
  0
VERTEX
  5
540
330
53D
100
AcDbEntity
  8
0
100
AcDbVertex
100
AcDbPolyFaceMeshVertex
 10
1.45799994468689
 20
289.3469848632812
 30
-11.66699981689453
 70
   192
  0
VERTEX
  5
541
330
53D
100
AcDbEntity
  8
0
100
AcDbVertex
100
AcDbPolyFaceMeshVertex
 10
1.968999981880188
 20
287.989013671875
 30
-8.517000198364258
 70
   192
  0
VERTEX
  5
542
330
53D
100
AcDbEntity
  8
0
100
AcDbVertex
100
AcDbPolyFaceMeshVertex
 10
2.059999942779541
 20
292.7369995117188
 30
-16.59799957275391
 70
   192
  0
VERTEX
  5
543
330
53D
100
AcDbEntity
  8
0
100
AcDbVertex
100
AcDbPolyFaceMeshVertex
 10
2.321000099182129
 20
287.0549926757812
 30
-6.348999977111816
 70
   192
  0
VERTEX
  5
544
330
53D
100
AcDbEntity
  8
0
100
AcDbVertex
100
AcDbPolyFaceMeshVertex
 10
2.321000099182129
 20
293.4039916992188
 30
-17.34600067138672
 70
   192
  0
VERTEX
  5
545
330
53D
100
AcDbEntity
  8
0
 62
     9
420
 12632256
100
AcDbFaceRecord
 10
0.0
 20
0.0
 30
0.0
 70
   128
 71
     3
 72
     2
 73
     1
  0
VERTEX
  5
546
330
53D
100
AcDbEntity
  8
0
 62
     9
420
 12632256
100
AcDbFaceRecord
 10
0.0
 20
0.0
 30
0.0
 70
   128
 71
     3
 72
     4
 73
     2
  0
VERTEX
  5
547
330
53D
100
AcDbEntity
  8
0
 62
     9
420
 12632256
100
AcDbFaceRecord
 10
0.0
 20
0.0
 30
0.0
 70
   128
 71
     1
 72
     5
 73
     3
  0
VERTEX
  5
548
330
53D
100
AcDbEntity
  8
0
 62
     9
420
 12632256
100
AcDbFaceRecord
 10
0.0
 20
0.0
 30
0.0
 70
   128
 71
     4
 72
     6
 73
     2
  0
VERTEX
  5
549
330
53D
100
AcDbEntity
  8
0
 62
     9
420
 12632256
100
AcDbFaceRecord
 10
0.0
 20
0.0
 30
0.0
 70
   128
 71
     1
 72
     7
 73
     5
  0
SEQEND
  5
54A
330
53D
100
AcDbEntity
  8
0
 62
     9
420
 12632256
  0
ENDBLK
  5
54D
330
53C
100
AcDbEntity
  8
0
100
AcDbBlockEnd
  0
BLOCK
  5
55E
330
54E
100
AcDbEntity
  8
0
100
AcDbBlockBegin
  2
e3_node(37)
 70
     0
 10
0.0
 20
0.0
 30
0.0
  3
e3_node(37)
  1

  0
POLYLINE
  5
54F
330
54E
100
AcDbEntity
  8
0
 62
     9
420
 12632256
100
AcDbPolyFaceMesh
 66
     1
 10
0.0
 20
0.0
 30
0.0
 70
    64
 71
     7
 72
     5
  0
VERTEX
  5
550
330
54F
100
AcDbEntity
  8
0
100
AcDbVertex
100
AcDbPolyFaceMeshVertex
 10
9.0
 20
292.2730102539062
 30
4.951000213623047
 70
   192
  0
VERTEX
  5
551
330
54F
100
AcDbEntity
  8
0
100
AcDbVertex
100
AcDbPolyFaceMeshVertex
 10
9.0
 20
297.2239990234375
 30
13.52600002288818
 70
   192
  0
VERTEX
  5
552
330
54F
100
AcDbEntity
  8
0
100
AcDbVertex
100
AcDbPolyFaceMeshVertex
 10
1.45799994468689
 20
289.9440002441406
 30
12.70199966430664
 70
   192
  0
VERTEX
  5
553
330
54F
100
AcDbEntity
  8
0
100
AcDbVertex
100
AcDbPolyFaceMeshVertex
 10
1.968999981880188
 20
291.9939880371094
 30
15.45300006866455
 70
   192
  0
VERTEX
  5
554
330
54F
100
AcDbEntity
  8
0
100
AcDbVertex
100
AcDbPolyFaceMeshVertex
 10
2.059999942779541
 20
287.3689880371094
 30
7.301000118255615
 70
   192
  0
VERTEX
  5
555
330
54F
100
AcDbEntity
  8
0
100
AcDbVertex
100
AcDbPolyFaceMeshVertex
 10
2.321000099182129
 20
293.4039916992188
 30
17.34600067138672
 70
   192
  0
VERTEX
  5
556
330
54F
100
AcDbEntity
  8
0
100
AcDbVertex
100
AcDbPolyFaceMeshVertex
 10
2.321000099182129
 20
287.0549926757812
 30
6.348999977111816
 70
   192
  0
VERTEX
  5
557
330
54F
100
AcDbEntity
  8
0
 62
     9
420
 12632256
100
AcDbFaceRecord
 10
0.0
 20
0.0
 30
0.0
 70
   128
 71
     3
 72
     2
 73
     1
  0
VERTEX
  5
558
330
54F
100
AcDbEntity
  8
0
 62
     9
420
 12632256
100
AcDbFaceRecord
 10
0.0
 20
0.0
 30
0.0
 70
   128
 71
     3
 72
     4
 73
     2
  0
VERTEX
  5
559
330
54F
100
AcDbEntity
  8
0
 62
     9
420
 12632256
100
AcDbFaceRecord
 10
0.0
 20
0.0
 30
0.0
 70
   128
 71
     1
 72
     5
 73
     3
  0
VERTEX
  5
55A
330
54F
100
AcDbEntity
  8
0
 62
     9
420
 12632256
100
AcDbFaceRecord
 10
0.0
 20
0.0
 30
0.0
 70
   128
 71
     4
 72
     6
 73
     2
  0
VERTEX
  5
55B
330
54F
100
AcDbEntity
  8
0
 62
     9
420
 12632256
100
AcDbFaceRecord
 10
0.0
 20
0.0
 30
0.0
 70
   128
 71
     1
 72
     7
 73
     5
  0
SEQEND
  5
55C
330
54F
100
AcDbEntity
  8
0
 62
     9
420
 12632256
  0
ENDBLK
  5
55F
330
54E
100
AcDbEntity
  8
0
100
AcDbBlockEnd
  0
BLOCK
  5
570
330
560
100
AcDbEntity
  8
0
100
AcDbBlockBegin
  2
e3_node(38)
 70
     0
 10
0.0
 20
0.0
 30
0.0
  3
e3_node(38)
  1

  0
POLYLINE
  5
561
330
560
100
AcDbEntity
  8
0
 62
     9
420
 12632256
100
AcDbPolyFaceMesh
 66
     1
 10
0.0
 20
0.0
 30
0.0
 70
    64
 71
     7
 72
     5
  0
VERTEX
  5
562
330
561
100
AcDbEntity
  8
0
100
AcDbVertex
100
AcDbPolyFaceMeshVertex
 10
9.0
 20
292.2730102539062
 30
-4.951000213623047
 70
   192
  0
VERTEX
  5
563
330
561
100
AcDbEntity
  8
0
100
AcDbVertex
100
AcDbPolyFaceMeshVertex
 10
9.0
 20
292.2730102539062
 30
4.951000213623047
 70
   192
  0
VERTEX
  5
564
330
561
100
AcDbEntity
  8
0
100
AcDbVertex
100
AcDbPolyFaceMeshVertex
 10
1.45799994468689
 20
286.3800048828125
 30
0.5979999899864197
 70
   192
  0
VERTEX
  5
565
330
561
100
AcDbEntity
  8
0
100
AcDbVertex
100
AcDbPolyFaceMeshVertex
 10
1.968999981880188
 20
286.7799987792969
 30
4.004000186920166
 70
   192
  0
VERTEX
  5
566
330
561
100
AcDbEntity
  8
0
100
AcDbVertex
100
AcDbPolyFaceMeshVertex
 10
2.059999942779541
 20
286.8510131835938
 30
-5.368000030517578
 70
   192
  0
VERTEX
  5
567
330
561
100
AcDbEntity
  8
0
100
AcDbVertex
100
AcDbPolyFaceMeshVertex
 10
2.321000099182129
 20
287.0549926757812
 30
6.348999977111816
 70
   192
  0
VERTEX
  5
568
330
561
100
AcDbEntity
  8
0
100
AcDbVertex
100
AcDbPolyFaceMeshVertex
 10
2.321000099182129
 20
287.0549926757812
 30
-6.348999977111816
 70
   192
  0
VERTEX
  5
569
330
561
100
AcDbEntity
  8
0
 62
     9
420
 12632256
100
AcDbFaceRecord
 10
0.0
 20
0.0
 30
0.0
 70
   128
 71
     3
 72
     2
 73
     1
  0
VERTEX
  5
56A
330
561
100
AcDbEntity
  8
0
 62
     9
420
 12632256
100
AcDbFaceRecord
 10
0.0
 20
0.0
 30
0.0
 70
   128
 71
     3
 72
     4
 73
     2
  0
VERTEX
  5
56B
330
561
100
AcDbEntity
  8
0
 62
     9
420
 12632256
100
AcDbFaceRecord
 10
0.0
 20
0.0
 30
0.0
 70
   128
 71
     1
 72
     5
 73
     3
  0
VERTEX
  5
56C
330
561
100
AcDbEntity
  8
0
 62
     9
420
 12632256
100
AcDbFaceRecord
 10
0.0
 20
0.0
 30
0.0
 70
   128
 71
     4
 72
     6
 73
     2
  0
VERTEX
  5
56D
330
561
100
AcDbEntity
  8
0
 62
     9
420
 12632256
100
AcDbFaceRecord
 10
0.0
 20
0.0
 30
0.0
 70
   128
 71
     1
 72
     7
 73
     5
  0
SEQEND
  5
56E
330
561
100
AcDbEntity
  8
0
 62
     9
420
 12632256
  0
ENDBLK
  5
571
330
560
100
AcDbEntity
  8
0
100
AcDbBlockEnd
  0
ENDSEC
  0
SECTION
  2
ENTITIES
  0
INSERT
  5
CA
330
1F
100
AcDbEntity
  8
Layer 1
100
AcDbBlockReference
  2
e3_node
 10
0.0
 20
0.0
 30
0.0
  0
INSERT
  5
EB
330
1F
100
AcDbEntity
  8
Layer 1
100
AcDbBlockReference
  2
e3_node(1)
 10
0.0
 20
0.0
 30
0.0
  0
INSERT
  5
109
330
1F
100
AcDbEntity
  8
Layer 1
100
AcDbBlockReference
  2
e3_node(2)
 10
0.0
 20
0.0
 30
0.0
  0
INSERT
  5
189
330
1F
100
AcDbEntity
  8
Layer 1
100
AcDbBlockReference
  2
e3_node(3)
 10
0.0
 20
0.0
 30
0.0
  0
INSERT
  5
19B
330
1F
100
AcDbEntity
  8
Layer 1
100
AcDbBlockReference
  2
e3_node(4)
 10
0.0
 20
0.0
 30
0.0
  0
INSERT
  5
1B7
330
1F
100
AcDbEntity
  8
Layer 1
100
AcDbBlockReference
  2
e3_node(5)
 10
0.0
 20
0.0
 30
0.0
  0
INSERT
  5
1C9
330
1F
100
AcDbEntity
  8
Layer 1
100
AcDbBlockReference
  2
e3_node(6)
 10
0.0
 20
0.0
 30
0.0
  0
INSERT
  5
1DB
330
1F
100
AcDbEntity
  8
Layer 1
100
AcDbBlockReference
  2
e3_node(7)
 10
0.0
 20
0.0
 30
0.0
  0
INSERT
  5
1ED
330
1F
100
AcDbEntity
  8
Layer 1
100
AcDbBlockReference
  2
e3_node(8)
 10
0.0
 20
0.0
 30
0.0
  0
INSERT
  5
1FF
330
1F
100
AcDbEntity
  8
Layer 1
100
AcDbBlockReference
  2
e3_node(9)
 10
0.0
 20
0.0
 30
0.0
  0
INSERT
  5
211
330
1F
100
AcDbEntity
  8
Layer 1
100
AcDbBlockReference
  2
e3_node(10)
 10
0.0
 20
0.0
 30
0.0
  0
INSERT
  5
223
330
1F
100
AcDbEntity
  8
Layer 1
100
AcDbBlockReference
  2
e3_node(11)
 10
0.0
 20
0.0
 30
0.0
  0
INSERT
  5
235
330
1F
100
AcDbEntity
  8
Layer 1
100
AcDbBlockReference
  2
e3_node(12)
 10
0.0
 20
0.0
 30
0.0
  0
INSERT
  5
247
330
1F
100
AcDbEntity
  8
Layer 1
100
AcDbBlockReference
  2
e3_node(13)
 10
0.0
 20
0.0
 30
0.0
  0
INSERT
  5
259
330
1F
100
AcDbEntity
  8
Layer 1
100
AcDbBlockReference
  2
e3_node(14)
 10
0.0
 20
0.0
 30
0.0
  0
INSERT
  5
26B
330
1F
100
AcDbEntity
  8
Layer 1
100
AcDbBlockReference
  2
e3_node(15)
 10
0.0
 20
0.0
 30
0.0
  0
INSERT
  5
27D
330
1F
100
AcDbEntity
  8
Layer 1
100
AcDbBlockReference
  2
e3_node(16)
 10
0.0
 20
0.0
 30
0.0
  0
INSERT
  5
293
330
1F
100
AcDbEntity
  8
Layer 1
100
AcDbBlockReference
  2
e3_node(17)
 10
0.0
 20
0.0
 30
0.0
  0
INSERT
  5
2C9
330
1F
100
AcDbEntity
  8
Layer 1
100
AcDbBlockReference
  2
e3_node(18)
 10
0.0
 20
0.0
 30
0.0
  0
INSERT
  5
2F7
330
1F
100
AcDbEntity
  8
Layer 1
100
AcDbBlockReference
  2
e3_node(19)
 10
0.0
 20
0.0
 30
0.0
  0
INSERT
  5
32D
330
1F
100
AcDbEntity
  8
Layer 1
100
AcDbBlockReference
  2
e3_node(20)
 10
0.0
 20
0.0
 30
0.0
  0
INSERT
  5
35B
330
1F
100
AcDbEntity
  8
Layer 1
100
AcDbBlockReference
  2
e3_node(21)
 10
0.0
 20
0.0
 30
0.0
  0
INSERT
  5
3C5
330
1F
100
AcDbEntity
  8
Layer 1
100
AcDbBlockReference
  2
e3_node(22)
 10
0.0
 20
0.0
 30
0.0
  0
INSERT
  5
3DD
330
1F
100
AcDbEntity
  8
Layer 1
100
AcDbBlockReference
  2
e3_node(23)
 10
0.0
 20
0.0
 30
0.0
  0
INSERT
  5
3FB
330
1F
100
AcDbEntity
  8
Layer 1
100
AcDbBlockReference
  2
e3_node(24)
 10
0.0
 20
0.0
 30
0.0
  0
INSERT
  5
47B
330
1F
100
AcDbEntity
  8
Layer 1
100
AcDbBlockReference
  2
e3_node(25)
 10
0.0
 20
0.0
 30
0.0
  0
INSERT
  5
48D
330
1F
100
AcDbEntity
  8
Layer 1
100
AcDbBlockReference
  2
e3_node(26)
 10
0.0
 20
0.0
 30
0.0
  0
INSERT
  5
4A9
330
1F
100
AcDbEntity
  8
Layer 1
100
AcDbBlockReference
  2
e3_node(27)
 10
0.0
 20
0.0
 30
0.0
  0
INSERT
  5
4BB
330
1F
100
AcDbEntity
  8
Layer 1
100
AcDbBlockReference
  2
e3_node(28)
 10
0.0
 20
0.0
 30
0.0
  0
INSERT
  5
4CD
330
1F
100
AcDbEntity
  8
Layer 1
100
AcDbBlockReference
  2
e3_node(29)
 10
0.0
 20
0.0
 30
0.0
  0
INSERT
  5
4DF
330
1F
100
AcDbEntity
  8
Layer 1
100
AcDbBlockReference
  2
e3_node(30)
 10
0.0
 20
0.0
 30
0.0
  0
INSERT
  5
4F1
330
1F
100
AcDbEntity
  8
Layer 1
100
AcDbBlockReference
  2
e3_node(31)
 10
0.0
 20
0.0
 30
0.0
  0
INSERT
  5
503
330
1F
100
AcDbEntity
  8
Layer 1
100
AcDbBlockReference
  2
e3_node(32)
 10
0.0
 20
0.0
 30
0.0
  0
INSERT
  5
515
330
1F
100
AcDbEntity
  8
Layer 1
100
AcDbBlockReference
  2
e3_node(33)
 10
0.0
 20
0.0
 30
0.0
  0
INSERT
  5
527
330
1F
100
AcDbEntity
  8
Layer 1
100
AcDbBlockReference
  2
e3_node(34)
 10
0.0
 20
0.0
 30
0.0
  0
INSERT
  5
539
330
1F
100
AcDbEntity
  8
Layer 1
100
AcDbBlockReference
  2
e3_node(35)
 10
0.0
 20
0.0
 30
0.0
  0
INSERT
  5
54B
330
1F
100
AcDbEntity
  8
Layer 1
100
AcDbBlockReference
  2
e3_node(36)
 10
0.0
 20
0.0
 30
0.0
  0
INSERT
  5
55D
330
1F
100
AcDbEntity
  8
Layer 1
100
AcDbBlockReference
  2
e3_node(37)
 10
0.0
 20
0.0
 30
0.0
  0
INSERT
  5
56F
330
1F
100
AcDbEntity
  8
Layer 1
100
AcDbBlockReference
  2
e3_node(38)
 10
0.0
 20
0.0
 30
0.0
  0
ENDSEC
  0
SECTION
  2
OBJECTS
  0
DICTIONARY
  5
C
330
0
100
AcDbDictionary
281
     1
  3
ACAD_GROUP
350
D
  3
ACAD_LAYOUT
350
1A
  3
ACAD_MLEADERSTYLE
350
593
  3
ACAD_MLINESTYLE
350
17
  3
ACAD_PLOTSETTINGS
350
19
  3
ACAD_PLOTSTYLENAME
350
E
  3
ACAD_TABLESTYLE
350
592
  3
ACAD_VISUALSTYLE
350
2A
  0
DICTIONARY
  5
D
102
{ACAD_REACTORS
330
C
102
}
330
C
100
AcDbDictionary
281
     1
  0
DICTIONARY
  5
1A
102
{ACAD_REACTORS
330
C
102
}
330
C
100
AcDbDictionary
281
     1
  3
Layout1
350
1E
  3
Model
350
22
  0
DICTIONARY
  5
593
102
{ACAD_REACTORS
330
C
102
}
330
C
100
AcDbDictionary
281
     1
  0
DICTIONARY
  5
17
102
{ACAD_REACTORS
330
C
102
}
330
C
100
AcDbDictionary
281
     1
  3
Standard
350
18
  0
DICTIONARY
  5
19
102
{ACAD_REACTORS
330
C
102
}
330
C
100
AcDbDictionary
281
     1
  0
ACDBDICTIONARYWDFLT
  5
E
102
{ACAD_REACTORS
330
C
102
}
330
C
100
AcDbDictionary
281
     1
  3
Normal
350
F
100
AcDbDictionaryWithDefault
340
F
  0
DICTIONARY
  5
592
102
{ACAD_REACTORS
330
C
102
}
330
C
100
AcDbDictionary
281
     1
  0
DICTIONARY
  5
2A
102
{ACAD_REACTORS
330
C
102
}
330
C
100
AcDbDictionary
281
     1
  3
2dWireframe
350
2F
  3
3D Hidden
350
31
  3
3dWireframe
350
30
  3
Basic
350
32
  3
Brighten
350
36
  3
ColorChange
350
3A
  3
Conceptual
350
34
  3
Dim
350
35
  3
Facepattern
350
39
  3
Flat
350
2B
  3
FlatWithEdges
350
2C
  3
Gouraud
350
2D
  3
GouraudWithEdges
350
2E
  3
Linepattern
350
38
  3
Realistic
350
33
  3
Thicken
350
37
  0
LAYOUT
  5
1E
102
{ACAD_REACTORS
330
1A
102
}
330
1A
100
AcDbPlotSettings
  1

  2
none_device
  4

  6

 40
0.0
 41
0.0
 42
0.0
 43
0.0
 44
0.0
 45
0.0
 46
0.0
 47
0.0
 48
0.0
 49
0.0
140
0.0
141
0.0
142
1.0
143
1.0
 70
   688
 72
     0
 73
     0
 74
     5
  7

 75
    16
 76
     0
 77
     2
 78
   300
147
1.0
148
0.0
149
0.0
100
AcDbLayout
  1
Layout1
 70
     1
 71
     1
 10
0.0
 20
0.0
 11
12.0
 21
9.0
 12
0.0
 22
0.0
 32
0.0
 14
1.000000000000000E+20
 24
1.000000000000000E+20
 34
1.000000000000000E+20
 15
-1.000000000000000E+20
 25
-1.000000000000000E+20
 35
-1.000000000000000E+20
146
0.0
 13
0.0
 23
0.0
 33
0.0
 16
1.0
 26
0.0
 36
0.0
 17
0.0
 27
1.0
 37
0.0
 76
     0
330
1B
  0
LAYOUT
  5
22
102
{ACAD_REACTORS
330
1A
102
}
330
1A
100
AcDbPlotSettings
  1

  2
none_device
  4

  6

 40
0.0
 41
0.0
 42
0.0
 43
0.0
 44
0.0
 45
0.0
 46
0.0
 47
0.0
 48
0.0
 49
0.0
140
0.0
141
0.0
142
1.0
143
1.0
 70
  1712
 72
     0
 73
     0
 74
     0
  7

 75
     0
 76
     0
 77
     2
 78
   300
147
1.0
148
0.0
149
0.0
100
AcDbLayout
  1
Model
 70
     1
 71
     0
 10
0.0
 20
0.0
 11
12.0
 21
9.0
 12
0.0
 22
0.0
 32
0.0
 14
1.000000000000000E+20
 24
1.000000000000000E+20
 34
1.000000000000000E+20
 15
-1.000000000000000E+20
 25
-1.000000000000000E+20
 35
-1.000000000000000E+20
146
0.0
 13
0.0
 23
0.0
 33
0.0
 16
1.0
 26
0.0
 36
0.0
 17
0.0
 27
1.0
 37
0.0
 76
     0
330
1F
331
29
  0
MLINESTYLE
  5
18
102
{ACAD_REACTORS
330
17
102
}
330
17
100
AcDbMlineStyle
  2
Standard
 70
     0
  3

 62
   256
 51
90.0
 52
90.0
 71
     2
 49
0.5
 62
   256
  6
BYLAYER
 49
-0.5
 62
   256
  6
BYLAYER
  0
ACDBPLACEHOLDER
  5
F
102
{ACAD_REACTORS
330
E
102
}
330
E
  0
VISUALSTYLE
  5
2F
102
{ACAD_REACTORS
330
2A
102
}
102
{ACAD_XDICTIONARY
360
57A
102
}
330
2A
100
AcDbVisualStyle
  2
2dWireframe
 70
     4
 71
     0
 72
     2
 73
     0
 90
        0
 40
-0.6
 41
-30.0
 62
     5
 63
     7
421
 16777215
 74
     1
 91
        4
 64
     7
 65
   257
 75
     1
175
     1
 42
1.0
 92
        0
 66
   257
 43
1.0
 76
     1
 77
     6
 78
     2
 67
     7
 79
     5
170
     0
171
     0
290
     0
174
     0
 93
        1
 44
0.0
173
     0
291
     0
 45
0.0
1001
ACAD
1000
AcDbSavedByObjectVersion
1070
     0
  0
VISUALSTYLE
  5
31
102
{ACAD_REACTORS
330
2A
102
}
102
{ACAD_XDICTIONARY
360
57E
102
}
330
2A
100
AcDbVisualStyle
  2
3D Hidden
 70
     6
 71
     1
 72
     2
 73
     2
 90
        0
 40
-0.6
 41
-30.0
 62
     5
 63
     7
421
 16777215
 74
     2
 91
        2
 64
     7
 65
   257
 75
     2
175
     1
 42
40.0
 92
        0
 66
   257
 43
1.0
 76
     1
 77
     6
 78
     2
 67
     7
 79
     3
170
     0
171
     0
290
     0
174
     0
 93
        1
 44
0.0
173
     0
291
     0
 45
0.0
1001
ACAD
1000
AcDbSavedByObjectVersion
1070
     0
  0
VISUALSTYLE
  5
30
102
{ACAD_REACTORS
330
2A
102
}
102
{ACAD_XDICTIONARY
360
57C
102
}
330
2A
100
AcDbVisualStyle
  2
3dWireframe
 70
     5
 71
     0
 72
     2
 73
     0
 90
        0
 40
-0.6
 41
-30.0
 62
     5
 63
     7
421
 16777215
 74
     1
 91
        4
 64
     7
 65
   257
 75
     1
175
     1
 42
1.0
 92
        0
 66
   257
 43
1.0
 76
     1
 77
     6
 78
     2
 67
     7
 79
     5
170
     0
171
     0
290
     0
174
     0
 93
        1
 44
0.0
173
     0
291
     0
 45
0.0
1001
ACAD
1000
AcDbSavedByObjectVersion
1070
     0
  0
VISUALSTYLE
  5
32
102
{ACAD_REACTORS
330
2A
102
}
102
{ACAD_XDICTIONARY
360
580
102
}
330
2A
100
AcDbVisualStyle
  2
Basic
 70
     7
 71
     1
 72
     0
 73
     1
 90
        0
 40
-0.6
 41
-30.0
 62
     5
 63
     7
421
 16777215
 74
     0
 91
        4
 64
     7
 65
   257
 75
     1
175
     1
 42
1.0
 92
        8
 66
     7
 43
1.0
 76
     1
 77
     6
 78
     2
 67
     7
 79
     5
170
     0
171
     0
290
     0
174
     0
 93
        1
 44
0.0
173
     0
291
     1
 45
0.0
1001
ACAD
1000
AcDbSavedByObjectVersion
1070
     0
  0
VISUALSTYLE
  5
36
102
{ACAD_REACTORS
330
2A
102
}
102
{ACAD_XDICTIONARY
360
588
102
}
330
2A
100
AcDbVisualStyle
  2
Brighten
 70
    12
 71
     2
 72
     2
 73
     0
 90
        0
 40
-0.6
 41
-30.0
 62
     5
 63
     7
421
 16777215
 74
     1
 91
        4
 64
     7
 65
   257
 75
     1
175
     1
 42
1.0
 92
        8
 66
     7
 43
1.0
 76
     1
 77
     6
 78
     2
 67
     7
 79
     5
170
     0
171
     0
290
     0
174
     0
 93
        1
 44
50.0
173
     0
291
     1
 45
0.0
1001
ACAD
1000
AcDbSavedByObjectVersion
1070
     0
  0
VISUALSTYLE
  5
3A
102
{ACAD_REACTORS
330
2A
102
}
102
{ACAD_XDICTIONARY
360
590
102
}
330
2A
100
AcDbVisualStyle
  2
ColorChange
 70
    16
 71
     2
 72
     2
 73
     3
 90
        0
 40
-0.6
 41
-30.0
 62
     5
 63
     8
421
  8421504
 74
     1
 91
        4
 64
     7
 65
   257
 75
     1
175
     1
 42
1.0
 92
        8
 66
     8
424
  8421504
 43
1.0
 76
     1
 77
     6
 78
     2
 67
     7
 79
     5
170
     0
171
     0
290
     0
174
     0
 93
        1
 44
0.0
173
     0
291
     1
 45
0.0
1001
ACAD
1000
AcDbSavedByObjectVersion
1070
     0
  0
VISUALSTYLE
  5
34
102
{ACAD_REACTORS
330
2A
102
}
102
{ACAD_XDICTIONARY
360
584
102
}
330
2A
100
AcDbVisualStyle
  2
Conceptual
 70
     9
 71
     3
 72
     2
 73
     0
 90
        0
 40
-0.6
 41
-30.0
 62
     5
 63
     7
421
 16777215
 74
     2
 91
        2
 64
     7
 65
   257
 75
     1
175
     1
 42
40.0
 92
        8
 66
     7
 43
1.0
 76
     1
 77
     6
 78
     2
 67
     7
 79
     3
170
     0
171
     0
290
     0
174
     0
 93
        1
 44
0.0
173
     0
291
     0
 45
0.0
1001
ACAD
1000
AcDbSavedByObjectVersion
1070
     0
  0
VISUALSTYLE
  5
35
102
{ACAD_REACTORS
330
2A
102
}
102
{ACAD_XDICTIONARY
360
586
102
}
330
2A
100
AcDbVisualStyle
  2
Dim
 70
    11
 71
     2
 72
     2
 73
     0
 90
        0
 40
-0.6
 41
-30.0
 62
     5
 63
     7
421
 16777215
 74
     1
 91
        4
 64
     7
 65
   257
 75
     1
175
     1
 42
1.0
 92
        8
 66
     7
 43
1.0
 76
     1
 77
     6
 78
     2
 67
     7
 79
     5
170
     0
171
     0
290
     0
174
     0
 93
        1
 44
-50.0
173
     0
291
     1
 45
0.0
1001
ACAD
1000
AcDbSavedByObjectVersion
1070
     0
  0
VISUALSTYLE
  5
39
102
{ACAD_REACTORS
330
2A
102
}
102
{ACAD_XDICTIONARY
360
58E
102
}
330
2A
100
AcDbVisualStyle
  2
Facepattern
 70
    15
 71
     2
 72
     2
 73
     0
 90
        0
 40
-0.6
 41
-30.0
 62
     5
 63
     7
421
 16777215
 74
     1
 91
        4
 64
     7
 65
   257
 75
     1
175
     1
 42
1.0
 92
        8
 66
     7
 43
1.0
 76
     1
 77
     6
 78
     2
 67
     7
 79
     5
170
     0
171
     0
290
     0
174
     0
 93
        1
 44
0.0
173
     0
291
     1
 45
0.0
1001
ACAD
1000
AcDbSavedByObjectVersion
1070
     0
  0
VISUALSTYLE
  5
2B
102
{ACAD_REACTORS
330
2A
102
}
102
{ACAD_XDICTIONARY
360
572
102
}
330
2A
100
AcDbVisualStyle
  2
Flat
 70
     0
 71
     2
 72
     1
 73
     1
 90
        2
 40
-0.6
 41
30.0
 62
     5
 63
     7
421
 16777215
 74
     0
 91
        4
 64
     7
 65
   257
 75
     1
175
     1
 42
1.0
 92
        8
 66
     7
 43
1.0
 76
     1
 77
     6
 78
     2
 67
     7
 79
     5
170
     0
171
     0
290
     0
174
     0
 93
       13
 44
0.0
173
     0
291
     1
 45
0.0
1001
ACAD
1000
AcDbSavedByObjectVersion
1070
     0
  0
VISUALSTYLE
  5
2C
102
{ACAD_REACTORS
330
2A
102
}
102
{ACAD_XDICTIONARY
360
574
102
}
330
2A
100
AcDbVisualStyle
  2
FlatWithEdges
 70
     1
 71
     2
 72
     1
 73
     1
 90
        2
 40
-0.6
 41
30.0
 62
     5
 63
     7
421
 16777215
 74
     1
 91
        4
 64
     7
 65
   257
 75
     1
175
     1
 42
1.0
 92
        0
 66
   257
 43
1.0
 76
     1
 77
     6
 78
     2
 67
     7
 79
     5
170
     0
171
     0
290
     0
174
     0
 93
       13
 44
0.0
173
     0
291
     1
 45
0.0
1001
ACAD
1000
AcDbSavedByObjectVersion
1070
     0
  0
VISUALSTYLE
  5
2D
102
{ACAD_REACTORS
330
2A
102
}
102
{ACAD_XDICTIONARY
360
576
102
}
330
2A
100
AcDbVisualStyle
  2
Gouraud
 70
     2
 71
     2
 72
     2
 73
     1
 90
        2
 40
-0.6
 41
30.0
 62
     5
 63
     7
421
 16777215
 74
     0
 91
        4
 64
     7
 65
   257
 75
     1
175
     1
 42
1.0
 92
        0
 66
     7
 43
1.0
 76
     1
 77
     6
 78
     2
 67
     7
 79
     5
170
     0
171
     0
290
     0
174
     0
 93
       13
 44
0.0
173
     0
291
     1
 45
0.0
1001
ACAD
1000
AcDbSavedByObjectVersion
1070
     0
  0
VISUALSTYLE
  5
2E
102
{ACAD_REACTORS
330
2A
102
}
102
{ACAD_XDICTIONARY
360
578
102
}
330
2A
100
AcDbVisualStyle
  2
GouraudWithEdges
 70
     3
 71
     2
 72
     2
 73
     1
 90
        2
 40
-0.6
 41
30.0
 62
     5
 63
     7
421
 16777215
 74
     1
 91
        4
 64
     7
 65
   257
 75
     1
175
     1
 42
1.0
 92
        0
 66
   257
 43
1.0
 76
     1
 77
     6
 78
     2
 67
     7
 79
     5
170
     0
171
     0
290
     0
174
     0
 93
       13
 44
0.0
173
     0
291
     1
 45
0.0
1001
ACAD
1000
AcDbSavedByObjectVersion
1070
     0
  0
VISUALSTYLE
  5
38
102
{ACAD_REACTORS
330
2A
102
}
102
{ACAD_XDICTIONARY
360
58C
102
}
330
2A
100
AcDbVisualStyle
  2
Linepattern
 70
    14
 71
     2
 72
     2
 73
     0
 90
        0
 40
-0.6
 41
-30.0
 62
     5
 63
     7
421
 16777215
 74
     1
 91
        4
 64
     7
 65
   257
 75
     7
175
     7
 42
1.0
 92
        8
 66
     7
 43
1.0
 76
     1
 77
     6
 78
     2
 67
     7
 79
     5
170
     0
171
     0
290
     0
174
     0
 93
        1
 44
0.0
173
     0
291
     1
 45
0.0
1001
ACAD
1000
AcDbSavedByObjectVersion
1070
     0
  0
VISUALSTYLE
  5
33
102
{ACAD_REACTORS
330
2A
102
}
102
{ACAD_XDICTIONARY
360
582
102
}
330
2A
100
AcDbVisualStyle
  2
Realistic
 70
     8
 71
     2
 72
     2
 73
     0
 90
        0
 40
-0.6
 41
-30.0
 62
     5
 63
     7
421
 16777215
 74
     1
 91
        0
 64
     7
 65
   257
 75
     1
175
     1
 42
1.0
 92
        8
 66
     8
424
  7895160
 43
1.0
 76
     1
 77
     6
 78
     2
 67
     7
 79
     5
170
     0
171
     0
290
     0
174
     0
 93
       13
 44
0.0
173
     0
291
     0
 45
0.0
1001
ACAD
1000
AcDbSavedByObjectVersion
1070
     0
  0
VISUALSTYLE
  5
37
102
{ACAD_REACTORS
330
2A
102
}
102
{ACAD_XDICTIONARY
360
58A
102
}
330
2A
100
AcDbVisualStyle
  2
Thicken
 70
    13
 71
     2
 72
     2
 73
     0
 90
        0
 40
-0.6
 41
-30.0
 62
     5
 63
     7
421
 16777215
 74
     1
 91
        4
 64
     7
 65
   257
 75
     1
175
     1
 42
1.0
 92
       12
 66
     7
 43
1.0
 76
     1
 77
     6
 78
     2
 67
     7
 79
     5
170
     0
171
     0
290
     0
174
     0
 93
        1
 44
0.0
173
     0
291
     1
 45
0.0
1001
ACAD
1000
AcDbSavedByObjectVersion
1070
     0
  0
DICTIONARY
  5
57A
330
2F
100
AcDbDictionary
280
     1
281
     1
  3
ACAD_XREC_ROUNDTRIP
360
57B
  0
DICTIONARY
  5
57E
330
31
100
AcDbDictionary
280
     1
281
     1
  3
ACAD_XREC_ROUNDTRIP
360
57F
  0
DICTIONARY
  5
57C
330
30
100
AcDbDictionary
280
     1
281
     1
  3
ACAD_XREC_ROUNDTRIP
360
57D
  0
DICTIONARY
  5
580
330
32
100
AcDbDictionary
280
     1
281
     1
  3
ACAD_XREC_ROUNDTRIP
360
581
  0
DICTIONARY
  5
588
330
36
100
AcDbDictionary
280
     1
281
     1
  3
ACAD_XREC_ROUNDTRIP
360
589
  0
DICTIONARY
  5
590
330
3A
100
AcDbDictionary
280
     1
281
     1
  3
ACAD_XREC_ROUNDTRIP
360
591
  0
DICTIONARY
  5
584
330
34
100
AcDbDictionary
280
     1
281
     1
  3
ACAD_XREC_ROUNDTRIP
360
585
  0
DICTIONARY
  5
586
330
35
100
AcDbDictionary
280
     1
281
     1
  3
ACAD_XREC_ROUNDTRIP
360
587
  0
DICTIONARY
  5
58E
330
39
100
AcDbDictionary
280
     1
281
     1
  3
ACAD_XREC_ROUNDTRIP
360
58F
  0
DICTIONARY
  5
572
330
2B
100
AcDbDictionary
280
     1
281
     1
  3
ACAD_XREC_ROUNDTRIP
360
573
  0
DICTIONARY
  5
574
330
2C
100
AcDbDictionary
280
     1
281
     1
  3
ACAD_XREC_ROUNDTRIP
360
575
  0
DICTIONARY
  5
576
330
2D
100
AcDbDictionary
280
     1
281
     1
  3
ACAD_XREC_ROUNDTRIP
360
577
  0
DICTIONARY
  5
578
330
2E
100
AcDbDictionary
280
     1
281
     1
  3
ACAD_XREC_ROUNDTRIP
360
579
  0
DICTIONARY
  5
58C
330
38
100
AcDbDictionary
280
     1
281
     1
  3
ACAD_XREC_ROUNDTRIP
360
58D
  0
DICTIONARY
  5
582
330
33
100
AcDbDictionary
280
     1
281
     1
  3
ACAD_XREC_ROUNDTRIP
360
583
  0
DICTIONARY
  5
58A
330
37
100
AcDbDictionary
280
     1
281
     1
  3
ACAD_XREC_ROUNDTRIP
360
58B
  0
XRECORD
  5
57B
102
{ACAD_REACTORS
330
57A
102
}
330
57A
100
AcDbXrecord
280
     1
102
RTVSPropertyOp0
 70
     1
102
RTVSPropertyOp1
 70
     1
102
RTVSPropertyOp2
 70
     1
102
RTVSPropertyOp3
 70
     1
102
RTVSPropertyOp4
 70
     1
102
RTVSPropertyOp5
 70
     1
102
RTVSPropertyOp6
 70
     1
102
RTVSPropertyOp7
 70
     1
102
RTVSPropertyOp8
 70
     1
102
RTVSPropertyOp9
 70
     1
102
RTVSPropertyOp10
 70
     1
102
RTVSPropertyOp11
 70
     1
102
RTVSPropertyOp12
 70
     1
102
RTVSPropertyOp13
 70
     1
102
RTVSPropertyOp14
 70
     1
102
RTVSPropertyOp15
 70
     1
102
RTVSPropertyOp16
 70
     1
102
RTVSPropertyOp17
 70
     1
102
RTVSPropertyOp18
 70
     1
102
RTVSPropertyOp19
 70
     1
102
RTVSPropertyOp20
 70
     1
102
RTVSPropertyOp21
 70
     1
102
RTVSPropertyOp22
 70
     1
102
RTVSPropertyOp23
 70
     1
102
RTVSPropertyOp24
 70
     1
102
RTVSPropertyOp25
 70
     1
102
RTVSPropertyOp26
 70
     1
102
RTVSPropertyOp27
 70
     1
  0
XRECORD
  5
57F
102
{ACAD_REACTORS
330
57E
102
}
330
57E
100
AcDbXrecord
280
     1
102
RTVSPropertyOp0
 70
     1
102
RTVSPropertyOp1
 70
     1
102
RTVSPropertyOp2
 70
     1
102
RTVSPropertyOp3
 70
     1
102
RTVSPropertyOp4
 70
     1
102
RTVSPropertyOp5
 70
     1
102
RTVSPropertyOp6
 70
     1
102
RTVSPropertyOp7
 70
     1
102
RTVSPropertyOp8
 70
     1
102
RTVSPropertyOp9
 70
     1
102
RTVSPropertyOp10
 70
     1
102
RTVSPropertyOp11
 70
     1
102
RTVSPropertyOp12
 70
     1
102
RTVSPropertyOp13
 70
     1
102
RTVSPropertyOp14
 70
     1
102
RTVSPropertyOp15
 70
     1
102
RTVSPropertyOp16
 70
     1
102
RTVSPropertyOp17
 70
     1
102
RTVSPropertyOp18
 70
     1
102
RTVSPropertyOp19
 70
     1
102
RTVSPropertyOp20
 70
     1
102
RTVSPropertyOp21
 70
     1
102
RTVSPropertyOp22
 70
     1
102
RTVSPropertyOp23
 70
     1
102
RTVSPropertyOp24
 70
     1
102
RTVSPropertyOp25
 70
     1
102
RTVSPropertyOp26
 70
     1
102
RTVSPropertyOp27
 70
     1
  0
XRECORD
  5
57D
102
{ACAD_REACTORS
330
57C
102
}
330
57C
100
AcDbXrecord
280
     1
102
RTVSPropertyOp0
 70
     1
102
RTVSPropertyOp1
 70
     1
102
RTVSPropertyOp2
 70
     1
102
RTVSPropertyOp3
 70
     1
102
RTVSPropertyOp4
 70
     1
102
RTVSPropertyOp5
 70
     1
102
RTVSPropertyOp6
 70
     1
102
RTVSPropertyOp7
 70
     1
102
RTVSPropertyOp8
 70
     1
102
RTVSPropertyOp9
 70
     1
102
RTVSPropertyOp10
 70
     1
102
RTVSPropertyOp11
 70
     1
102
RTVSPropertyOp12
 70
     1
102
RTVSPropertyOp13
 70
     1
102
RTVSPropertyOp14
 70
     1
102
RTVSPropertyOp15
 70
     1
102
RTVSPropertyOp16
 70
     1
102
RTVSPropertyOp17
 70
     1
102
RTVSPropertyOp18
 70
     1
102
RTVSPropertyOp19
 70
     1
102
RTVSPropertyOp20
 70
     1
102
RTVSPropertyOp21
 70
     1
102
RTVSPropertyOp22
 70
     1
102
RTVSPropertyOp23
 70
     1
102
RTVSPropertyOp24
 70
     1
102
RTVSPropertyOp25
 70
     1
102
RTVSPropertyOp26
 70
     1
102
RTVSPropertyOp27
 70
     1
  0
XRECORD
  5
581
102
{ACAD_REACTORS
330
580
102
}
330
580
100
AcDbXrecord
280
     1
102
RTVSPropertyOp0
 70
     1
102
RTVSPropertyOp1
 70
     1
102
RTVSPropertyOp2
 70
     1
102
RTVSPropertyOp3
 70
     1
102
RTVSPropertyOp4
 70
     1
102
RTVSPropertyOp5
 70
     1
102
RTVSPropertyOp6
 70
     1
102
RTVSPropertyOp7
 70
     1
102
RTVSPropertyOp8
 70
     1
102
RTVSPropertyOp9
 70
     1
102
RTVSPropertyOp10
 70
     1
102
RTVSPropertyOp11
 70
     1
102
RTVSPropertyOp12
 70
     1
102
RTVSPropertyOp13
 70
     1
102
RTVSPropertyOp14
 70
     1
102
RTVSPropertyOp15
 70
     1
102
RTVSPropertyOp16
 70
     1
102
RTVSPropertyOp17
 70
     1
102
RTVSPropertyOp18
 70
     1
102
RTVSPropertyOp19
 70
     1
102
RTVSPropertyOp20
 70
     1
102
RTVSPropertyOp21
 70
     1
102
RTVSPropertyOp22
 70
     1
102
RTVSPropertyOp23
 70
     1
102
RTVSPropertyOp24
 70
     1
102
RTVSPropertyOp25
 70
     1
102
RTVSPropertyOp26
 70
     1
102
RTVSPropertyOp27
 70
     1
  0
XRECORD
  5
589
102
{ACAD_REACTORS
330
588
102
}
330
588
100
AcDbXrecord
280
     1
102
RTVSPropertyOp0
 70
     1
102
RTVSPropertyOp1
 70
     1
102
RTVSPropertyOp2
 70
     1
102
RTVSPropertyOp3
 70
     1
102
RTVSPropertyOp4
 70
     1
102
RTVSPropertyOp5
 70
     1
102
RTVSPropertyOp6
 70
     1
102
RTVSPropertyOp7
 70
     1
102
RTVSPropertyOp8
 70
     1
102
RTVSPropertyOp9
 70
     1
102
RTVSPropertyOp10
 70
     1
102
RTVSPropertyOp11
 70
     1
102
RTVSPropertyOp12
 70
     1
102
RTVSPropertyOp13
 70
     1
102
RTVSPropertyOp14
 70
     1
102
RTVSPropertyOp15
 70
     1
102
RTVSPropertyOp16
 70
     1
102
RTVSPropertyOp17
 70
     1
102
RTVSPropertyOp18
 70
     1
102
RTVSPropertyOp19
 70
     1
102
RTVSPropertyOp20
 70
     1
102
RTVSPropertyOp21
 70
     1
102
RTVSPropertyOp22
 70
     1
102
RTVSPropertyOp23
 70
     1
102
RTVSPropertyOp24
 70
     1
102
RTVSPropertyOp25
 70
     1
102
RTVSPropertyOp26
 70
     1
102
RTVSPropertyOp27
 70
     1
  0
XRECORD
  5
591
102
{ACAD_REACTORS
330
590
102
}
330
590
100
AcDbXrecord
280
     1
102
RTVSPropertyOp0
 70
     1
102
RTVSPropertyOp1
 70
     1
102
RTVSPropertyOp2
 70
     1
102
RTVSPropertyOp3
 70
     1
102
RTVSPropertyOp4
 70
     1
102
RTVSPropertyOp5
 70
     1
102
RTVSPropertyOp6
 70
     1
102
RTVSPropertyOp7
 70
     1
102
RTVSPropertyOp8
 70
     1
102
RTVSPropertyOp9
 70
     1
102
RTVSPropertyOp10
 70
     1
102
RTVSPropertyOp11
 70
     1
102
RTVSPropertyOp12
 70
     1
102
RTVSPropertyOp13
 70
     1
102
RTVSPropertyOp14
 70
     1
102
RTVSPropertyOp15
 70
     1
102
RTVSPropertyOp16
 70
     1
102
RTVSPropertyOp17
 70
     1
102
RTVSPropertyOp18
 70
     1
102
RTVSPropertyOp19
 70
     1
102
RTVSPropertyOp20
 70
     1
102
RTVSPropertyOp21
 70
     1
102
RTVSPropertyOp22
 70
     1
102
RTVSPropertyOp23
 70
     1
102
RTVSPropertyOp24
 70
     1
102
RTVSPropertyOp25
 70
     1
102
RTVSPropertyOp26
 70
     1
102
RTVSPropertyOp27
 70
     1
  0
XRECORD
  5
585
102
{ACAD_REACTORS
330
584
102
}
330
584
100
AcDbXrecord
280
     1
102
RTVSPropertyOp0
 70
     1
102
RTVSPropertyOp1
 70
     1
102
RTVSPropertyOp2
 70
     1
102
RTVSPropertyOp3
 70
     1
102
RTVSPropertyOp4
 70
     1
102
RTVSPropertyOp5
 70
     1
102
RTVSPropertyOp6
 70
     1
102
RTVSPropertyOp7
 70
     1
102
RTVSPropertyOp8
 70
     1
102
RTVSPropertyOp9
 70
     1
102
RTVSPropertyOp10
 70
     1
102
RTVSPropertyOp11
 70
     1
102
RTVSPropertyOp12
 70
     1
102
RTVSPropertyOp13
 70
     1
102
RTVSPropertyOp14
 70
     1
102
RTVSPropertyOp15
 70
     1
102
RTVSPropertyOp16
 70
     1
102
RTVSPropertyOp17
 70
     1
102
RTVSPropertyOp18
 70
     1
102
RTVSPropertyOp19
 70
     1
102
RTVSPropertyOp20
 70
     1
102
RTVSPropertyOp21
 70
     1
102
RTVSPropertyOp22
 70
     1
102
RTVSPropertyOp23
 70
     1
102
RTVSPropertyOp24
 70
     1
102
RTVSPropertyOp25
 70
     1
102
RTVSPropertyOp26
 70
     1
102
RTVSPropertyOp27
 70
     1
  0
XRECORD
  5
587
102
{ACAD_REACTORS
330
586
102
}
330
586
100
AcDbXrecord
280
     1
102
RTVSPropertyOp0
 70
     1
102
RTVSPropertyOp1
 70
     1
102
RTVSPropertyOp2
 70
     1
102
RTVSPropertyOp3
 70
     1
102
RTVSPropertyOp4
 70
     1
102
RTVSPropertyOp5
 70
     1
102
RTVSPropertyOp6
 70
     1
102
RTVSPropertyOp7
 70
     1
102
RTVSPropertyOp8
 70
     1
102
RTVSPropertyOp9
 70
     1
102
RTVSPropertyOp10
 70
     1
102
RTVSPropertyOp11
 70
     1
102
RTVSPropertyOp12
 70
     1
102
RTVSPropertyOp13
 70
     1
102
RTVSPropertyOp14
 70
     1
102
RTVSPropertyOp15
 70
     1
102
RTVSPropertyOp16
 70
     1
102
RTVSPropertyOp17
 70
     1
102
RTVSPropertyOp18
 70
     1
102
RTVSPropertyOp19
 70
     1
102
RTVSPropertyOp20
 70
     1
102
RTVSPropertyOp21
 70
     1
102
RTVSPropertyOp22
 70
     1
102
RTVSPropertyOp23
 70
     1
102
RTVSPropertyOp24
 70
     1
102
RTVSPropertyOp25
 70
     1
102
RTVSPropertyOp26
 70
     1
102
RTVSPropertyOp27
 70
     1
  0
XRECORD
  5
58F
102
{ACAD_REACTORS
330
58E
102
}
330
58E
100
AcDbXrecord
280
     1
102
RTVSPropertyOp0
 70
     1
102
RTVSPropertyOp1
 70
     1
102
RTVSPropertyOp2
 70
     1
102
RTVSPropertyOp3
 70
     1
102
RTVSPropertyOp4
 70
     1
102
RTVSPropertyOp5
 70
     1
102
RTVSPropertyOp6
 70
     1
102
RTVSPropertyOp7
 70
     1
102
RTVSPropertyOp8
 70
     1
102
RTVSPropertyOp9
 70
     1
102
RTVSPropertyOp10
 70
     1
102
RTVSPropertyOp11
 70
     1
102
RTVSPropertyOp12
 70
     1
102
RTVSPropertyOp13
 70
     1
102
RTVSPropertyOp14
 70
     1
102
RTVSPropertyOp15
 70
     1
102
RTVSPropertyOp16
 70
     1
102
RTVSPropertyOp17
 70
     1
102
RTVSPropertyOp18
 70
     1
102
RTVSPropertyOp19
 70
     1
102
RTVSPropertyOp20
 70
     1
102
RTVSPropertyOp21
 70
     1
102
RTVSPropertyOp22
 70
     1
102
RTVSPropertyOp23
 70
     1
102
RTVSPropertyOp24
 70
     1
102
RTVSPropertyOp25
 70
     1
102
RTVSPropertyOp26
 70
     1
102
RTVSPropertyOp27
 70
     1
  0
XRECORD
  5
573
102
{ACAD_REACTORS
330
572
102
}
330
572
100
AcDbXrecord
280
     1
102
RTVSPropertyOp0
 70
     1
102
RTVSPropertyOp1
 70
     1
102
RTVSPropertyOp2
 70
     1
102
RTVSPropertyOp3
 70
     1
102
RTVSPropertyOp4
 70
     1
102
RTVSPropertyOp5
 70
     1
102
RTVSPropertyOp6
 70
     1
102
RTVSPropertyOp7
 70
     1
102
RTVSPropertyOp8
 70
     1
102
RTVSPropertyOp9
 70
     1
102
RTVSPropertyOp10
 70
     1
102
RTVSPropertyOp11
 70
     1
102
RTVSPropertyOp12
 70
     1
102
RTVSPropertyOp13
 70
     1
102
RTVSPropertyOp14
 70
     1
102
RTVSPropertyOp15
 70
     1
102
RTVSPropertyOp16
 70
     1
102
RTVSPropertyOp17
 70
     1
102
RTVSPropertyOp18
 70
     1
102
RTVSPropertyOp19
 70
     1
102
RTVSPropertyOp20
 70
     1
102
RTVSPropertyOp21
 70
     1
102
RTVSPropertyOp22
 70
     1
102
RTVSPropertyOp23
 70
     1
102
RTVSPropertyOp24
 70
     1
102
RTVSPropertyOp25
 70
     1
102
RTVSPropertyOp26
 70
     1
102
RTVSPropertyOp27
 70
     1
  0
XRECORD
  5
575
102
{ACAD_REACTORS
330
574
102
}
330
574
100
AcDbXrecord
280
     1
102
RTVSPropertyOp0
 70
     1
102
RTVSPropertyOp1
 70
     1
102
RTVSPropertyOp2
 70
     1
102
RTVSPropertyOp3
 70
     1
102
RTVSPropertyOp4
 70
     1
102
RTVSPropertyOp5
 70
     1
102
RTVSPropertyOp6
 70
     1
102
RTVSPropertyOp7
 70
     1
102
RTVSPropertyOp8
 70
     1
102
RTVSPropertyOp9
 70
     1
102
RTVSPropertyOp10
 70
     1
102
RTVSPropertyOp11
 70
     1
102
RTVSPropertyOp12
 70
     1
102
RTVSPropertyOp13
 70
     1
102
RTVSPropertyOp14
 70
     1
102
RTVSPropertyOp15
 70
     1
102
RTVSPropertyOp16
 70
     1
102
RTVSPropertyOp17
 70
     1
102
RTVSPropertyOp18
 70
     1
102
RTVSPropertyOp19
 70
     1
102
RTVSPropertyOp20
 70
     1
102
RTVSPropertyOp21
 70
     1
102
RTVSPropertyOp22
 70
     1
102
RTVSPropertyOp23
 70
     1
102
RTVSPropertyOp24
 70
     1
102
RTVSPropertyOp25
 70
     1
102
RTVSPropertyOp26
 70
     1
102
RTVSPropertyOp27
 70
     1
  0
XRECORD
  5
577
102
{ACAD_REACTORS
330
576
102
}
330
576
100
AcDbXrecord
280
     1
102
RTVSPropertyOp0
 70
     1
102
RTVSPropertyOp1
 70
     1
102
RTVSPropertyOp2
 70
     1
102
RTVSPropertyOp3
 70
     1
102
RTVSPropertyOp4
 70
     1
102
RTVSPropertyOp5
 70
     1
102
RTVSPropertyOp6
 70
     1
102
RTVSPropertyOp7
 70
     1
102
RTVSPropertyOp8
 70
     1
102
RTVSPropertyOp9
 70
     1
102
RTVSPropertyOp10
 70
     1
102
RTVSPropertyOp11
 70
     1
102
RTVSPropertyOp12
 70
     1
102
RTVSPropertyOp13
 70
     1
102
RTVSPropertyOp14
 70
     1
102
RTVSPropertyOp15
 70
     1
102
RTVSPropertyOp16
 70
     1
102
RTVSPropertyOp17
 70
     1
102
RTVSPropertyOp18
 70
     1
102
RTVSPropertyOp19
 70
     1
102
RTVSPropertyOp20
 70
     1
102
RTVSPropertyOp21
 70
     1
102
RTVSPropertyOp22
 70
     1
102
RTVSPropertyOp23
 70
     1
102
RTVSPropertyOp24
 70
     1
102
RTVSPropertyOp25
 70
     1
102
RTVSPropertyOp26
 70
     1
102
RTVSPropertyOp27
 70
     1
  0
XRECORD
  5
579
102
{ACAD_REACTORS
330
578
102
}
330
578
100
AcDbXrecord
280
     1
102
RTVSPropertyOp0
 70
     1
102
RTVSPropertyOp1
 70
     1
102
RTVSPropertyOp2
 70
     1
102
RTVSPropertyOp3
 70
     1
102
RTVSPropertyOp4
 70
     1
102
RTVSPropertyOp5
 70
     1
102
RTVSPropertyOp6
 70
     1
102
RTVSPropertyOp7
 70
     1
102
RTVSPropertyOp8
 70
     1
102
RTVSPropertyOp9
 70
     1
102
RTVSPropertyOp10
 70
     1
102
RTVSPropertyOp11
 70
     1
102
RTVSPropertyOp12
 70
     1
102
RTVSPropertyOp13
 70
     1
102
RTVSPropertyOp14
 70
     1
102
RTVSPropertyOp15
 70
     1
102
RTVSPropertyOp16
 70
     1
102
RTVSPropertyOp17
 70
     1
102
RTVSPropertyOp18
 70
     1
102
RTVSPropertyOp19
 70
     1
102
RTVSPropertyOp20
 70
     1
102
RTVSPropertyOp21
 70
     1
102
RTVSPropertyOp22
 70
     1
102
RTVSPropertyOp23
 70
     1
102
RTVSPropertyOp24
 70
     1
102
RTVSPropertyOp25
 70
     1
102
RTVSPropertyOp26
 70
     1
102
RTVSPropertyOp27
 70
     1
  0
XRECORD
  5
58D
102
{ACAD_REACTORS
330
58C
102
}
330
58C
100
AcDbXrecord
280
     1
102
RTVSPropertyOp0
 70
     1
102
RTVSPropertyOp1
 70
     1
102
RTVSPropertyOp2
 70
     1
102
RTVSPropertyOp3
 70
     1
102
RTVSPropertyOp4
 70
     1
102
RTVSPropertyOp5
 70
     1
102
RTVSPropertyOp6
 70
     1
102
RTVSPropertyOp7
 70
     1
102
RTVSPropertyOp8
 70
     1
102
RTVSPropertyOp9
 70
     1
102
RTVSPropertyOp10
 70
     1
102
RTVSPropertyOp11
 70
     1
102
RTVSPropertyOp12
 70
     1
102
RTVSPropertyOp13
 70
     1
102
RTVSPropertyOp14
 70
     1
102
RTVSPropertyOp15
 70
     1
102
RTVSPropertyOp16
 70
     1
102
RTVSPropertyOp17
 70
     1
102
RTVSPropertyOp18
 70
     1
102
RTVSPropertyOp19
 70
     1
102
RTVSPropertyOp20
 70
     1
102
RTVSPropertyOp21
 70
     1
102
RTVSPropertyOp22
 70
     1
102
RTVSPropertyOp23
 70
     1
102
RTVSPropertyOp24
 70
     1
102
RTVSPropertyOp25
 70
     1
102
RTVSPropertyOp26
 70
     1
102
RTVSPropertyOp27
 70
     1
  0
XRECORD
  5
583
102
{ACAD_REACTORS
330
582
102
}
330
582
100
AcDbXrecord
280
     1
102
RTVSPropertyOp0
 70
     1
102
RTVSPropertyOp1
 70
     1
102
RTVSPropertyOp2
 70
     1
102
RTVSPropertyOp3
 70
     1
102
RTVSPropertyOp4
 70
     1
102
RTVSPropertyOp5
 70
     1
102
RTVSPropertyOp6
 70
     1
102
RTVSPropertyOp7
 70
     1
102
RTVSPropertyOp8
 70
     1
102
RTVSPropertyOp9
 70
     1
102
RTVSPropertyOp10
 70
     1
102
RTVSPropertyOp11
 70
     1
102
RTVSPropertyOp12
 70
     1
102
RTVSPropertyOp13
 70
     1
102
RTVSPropertyOp14
 70
     1
102
RTVSPropertyOp15
 70
     1
102
RTVSPropertyOp16
 70
     1
102
RTVSPropertyOp17
 70
     1
102
RTVSPropertyOp18
 70
     1
102
RTVSPropertyOp19
 70
     1
102
RTVSPropertyOp20
 70
     1
102
RTVSPropertyOp21
 70
     1
102
RTVSPropertyOp22
 70
     1
102
RTVSPropertyOp23
 70
     1
102
RTVSPropertyOp24
 70
     1
102
RTVSPropertyOp25
 70
     1
102
RTVSPropertyOp26
 70
     1
102
RTVSPropertyOp27
 70
     1
  0
XRECORD
  5
58B
102
{ACAD_REACTORS
330
58A
102
}
330
58A
100
AcDbXrecord
280
     1
102
RTVSPropertyOp0
 70
     1
102
RTVSPropertyOp1
 70
     1
102
RTVSPropertyOp2
 70
     1
102
RTVSPropertyOp3
 70
     1
102
RTVSPropertyOp4
 70
     1
102
RTVSPropertyOp5
 70
     1
102
RTVSPropertyOp6
 70
     1
102
RTVSPropertyOp7
 70
     1
102
RTVSPropertyOp8
 70
     1
102
RTVSPropertyOp9
 70
     1
102
RTVSPropertyOp10
 70
     1
102
RTVSPropertyOp11
 70
     1
102
RTVSPropertyOp12
 70
     1
102
RTVSPropertyOp13
 70
     1
102
RTVSPropertyOp14
 70
     1
102
RTVSPropertyOp15
 70
     1
102
RTVSPropertyOp16
 70
     1
102
RTVSPropertyOp17
 70
     1
102
RTVSPropertyOp18
 70
     1
102
RTVSPropertyOp19
 70
     1
102
RTVSPropertyOp20
 70
     1
102
RTVSPropertyOp21
 70
     1
102
RTVSPropertyOp22
 70
     1
102
RTVSPropertyOp23
 70
     1
102
RTVSPropertyOp24
 70
     1
102
RTVSPropertyOp25
 70
     1
102
RTVSPropertyOp26
 70
     1
102
RTVSPropertyOp27
 70
     1
  0
ENDSEC
  0
EOF
