  0
SECTION
  2
HEADER
  9
$ACADVER
  1
AC1015
  9
$ACADMAINTVER
 70
     6
  9
$DWGCODEPAGE
  3
ANSI_1252
  9
$INSBASE
 10
0.0
 20
0.0
 30
0.0
  9
$EXTMIN
 10
0.0
 20
0.0
 30
0.0
  9
$EXTMAX
 10
1682.0
 20
2378.0
 30
0.0
  9
$LIMMIN
 10
0.0
 20
0.0
  9
$LIMMAX
 10
1682.0
 20
2378.0
  9
$ORTHOMODE
 70
     0
  9
$REGENMODE
 70
     1
  9
$FILLMODE
 70
     1
  9
$QTEXTMODE
 70
     0
  9
$MIRRTEXT
 70
     1
  9
$LTSCALE
 40
1.0
  9
$ATTMODE
 70
     1
  9
$TEXTSIZE
 40
2.5
  9
$TRACEWID
 40
1.0
  9
$TEXTSTYLE
  7
Standard
  9
$CLAYER
  8
0
  9
$CELTYPE
  6
ByLayer
  9
$CECOLOR
 62
   256
  9
$CELTSCALE
 40
1.0
  9
$DISPSILH
 70
     0
  9
$DIMSCALE
 40
1.0
  9
$DIMASZ
 40
2.5
  9
$DIMEXO
 40
0.625
  9
$DIMDLI
 40
3.75
  9
$DIMRND
 40
0.0
  9
$DIMDLE
 40
0.0
  9
$DIMEXE
 40
1.25
  9
$DIMTP
 40
0.0
  9
$DIMTM
 40
0.0
  9
$DIMTXT
 40
2.5
  9
$DIMCEN
 40
2.5
  9
$DIMTSZ
 40
0.0
  9
$DIMTOL
 70
     0
  9
$DIMLIM
 70
     0
  9
$DIMTIH
 70
     0
  9
$DIMTOH
 70
     0
  9
$DIMSE1
 70
     0
  9
$DIMSE2
 70
     0
  9
$DIMTAD
 70
     1
  9
$DIMZIN
 70
     8
  9
$DIMBLK
  1

  9
$DIMASO
 70
     1
  9
$DIMSHO
 70
     1
  9
$DIMPOST
  1

  9
$DIMAPOST
  1

  9
$DIMALT
 70
     0
  9
$DIMALTD
 70
     3
  9
$DIMALTF
 40
0.0393700787
  9
$DIMLFAC
 40
1.0
  9
$DIMTOFL
 70
     1
  9
$DIMTVP
 40
0.0
  9
$DIMTIX
 70
     0
  9
$DIMSOXD
 70
     0
  9
$DIMSAH
 70
     0
  9
$DIMBLK1
  1

  9
$DIMBLK2
  1

  9
$DIMSTYLE
  2
ISO-25
  9
$DIMCLRD
 70
     0
  9
$DIMCLRE
 70
     0
  9
$DIMCLRT
 70
     0
  9
$DIMTFAC
 40
1.0
  9
$DIMGAP
 40
0.625
  9
$DIMJUST
 70
     0
  9
$DIMSD1
 70
     0
  9
$DIMSD2
 70
     0
  9
$DIMTOLJ
 70
     0
  9
$DIMTZIN
 70
     8
  9
$DIMALTZ
 70
     0
  9
$DIMALTTZ
 70
     0
  9
$DIMUPT
 70
     0
  9
$DIMDEC
 70
     2
  9
$DIMTDEC
 70
     2
  9
$DIMALTU
 70
     2
  9
$DIMALTTD
 70
     3
  9
$DIMTXSTY
  7
Standard
  9
$DIMAUNIT
 70
     0
  9
$DIMADEC
 70
     0
  9
$DIMALTRND
 40
0.0
  9
$DIMAZIN
 70
     0
  9
$DIMDSEP
 70
    44
  9
$DIMATFIT
 70
     3
  9
$DIMFRAC
 70
     0
  9
$DIMLDRBLK
  1

  9
$DIMLUNIT
 70
     2
  9
$DIMLWD
 70
    -2
  9
$DIMLWE
 70
    -2
  9
$DIMTMOVE
 70
     0
  9
$LUNITS
 70
     2
  9
$LUPREC
 70
     4
  9
$SKETCHINC
 40
1.0
  9
$FILLETRAD
 40
10.0
  9
$AUNITS
 70
     0
  9
$AUPREC
 70
     0
  9
$MENU
  1
.
  9
$ELEVATION
 40
0.0
  9
$PELEVATION
 40
0.0
  9
$THICKNESS
 40
0.0
  9
$LIMCHECK
 70
     0
  9
$CHAMFERA
 40
10.0
  9
$CHAMFERB
 40
10.0
  9
$CHAMFERC
 40
20.0
  9
$CHAMFERD
 40
0.0
  9
$SKPOLY
 70
     0
  9
$TDCREATE
 40
2455552.588524248
  9
$TDUCREATE
 40
2455552.546857581
  9
$TDUPDATE
 40
2455552.588524259
  9
$TDUUPDATE
 40
2455552.546857593
  9
$TDINDWG
 40
0.0000000116
  9
$TDUSRTIMER
 40
0.0000000116
  9
$USRTIMER
 70
     1
  9
$ANGBASE
 50
0.0
  9
$ANGDIR
 70
     0
  9
$PDMODE
 70
     0
  9
$PDSIZE
 40
0.0
  9
$PLINEWID
 40
0.0
  9
$SPLFRAME
 70
     0
  9
$SPLINETYPE
 70
     6
  9
$SPLINESEGS
 70
     8
  9
$HANDSEED
  5
1BE
  9
$SURFTAB1
 70
     6
  9
$SURFTAB2
 70
     6
  9
$SURFTYPE
 70
     6
  9
$SURFU
 70
     6
  9
$SURFV
 70
     6
  9
$UCSBASE
  2

  9
$UCSNAME
  2

  9
$UCSORG
 10
0.0
 20
0.0
 30
0.0
  9
$UCSXDIR
 10
1.0
 20
0.0
 30
0.0
  9
$UCSYDIR
 10
0.0
 20
1.0
 30
0.0
  9
$UCSORTHOREF
  2

  9
$UCSORTHOVIEW
 70
     0
  9
$UCSORGTOP
 10
0.0
 20
0.0
 30
0.0
  9
$UCSORGBOTTOM
 10
0.0
 20
0.0
 30
0.0
  9
$UCSORGLEFT
 10
0.0
 20
0.0
 30
0.0
  9
$UCSORGRIGHT
 10
0.0
 20
0.0
 30
0.0
  9
$UCSORGFRONT
 10
0.0
 20
0.0
 30
0.0
  9
$UCSORGBACK
 10
0.0
 20
0.0
 30
0.0
  9
$PUCSBASE
  2

  9
$PUCSNAME
  2

  9
$PUCSORG
 10
0.0
 20
0.0
 30
0.0
  9
$PUCSXDIR
 10
1.0
 20
0.0
 30
0.0
  9
$PUCSYDIR
 10
0.0
 20
1.0
 30
0.0
  9
$PUCSORTHOREF
  2

  9
$PUCSORTHOVIEW
 70
     0
  9
$PUCSORGTOP
 10
0.0
 20
0.0
 30
0.0
  9
$PUCSORGBOTTOM
 10
0.0
 20
0.0
 30
0.0
  9
$PUCSORGLEFT
 10
0.0
 20
0.0
 30
0.0
  9
$PUCSORGRIGHT
 10
0.0
 20
0.0
 30
0.0
  9
$PUCSORGFRONT
 10
0.0
 20
0.0
 30
0.0
  9
$PUCSORGBACK
 10
0.0
 20
0.0
 30
0.0
  9
$USERI1
 70
     0
  9
$USERI2
 70
     0
  9
$USERI3
 70
     0
  9
$USERI4
 70
     0
  9
$USERI5
 70
     0
  9
$USERR1
 40
0.0
  9
$USERR2
 40
0.0
  9
$USERR3
 40
0.0
  9
$USERR4
 40
0.0
  9
$USERR5
 40
0.0
  9
$WORLDVIEW
 70
     1
  9
$SHADEDGE
 70
     3
  9
$SHADEDIF
 70
    70
  9
$TILEMODE
 70
     1
  9
$MAXACTVP
 70
    64
  9
$PINSBASE
 10
0.0
 20
0.0
 30
0.0
  9
$PLIMCHECK
 70
     0
  9
$PEXTMIN
 10
0.0
 20
0.0
 30
0.0
  9
$PEXTMAX
 10
1682.0
 20
2378.0
 30
0.0
  9
$PLIMMIN
 10
0.0
 20
0.0
  9
$PLIMMAX
 10
1682.0
 20
2378.0
  9
$UNITMODE
 70
     0
  9
$VISRETAIN
 70
     1
  9
$PLINEGEN
 70
     0
  9
$PSLTSCALE
 70
     1
  9
$TREEDEPTH
 70
  3020
  9
$CMLSTYLE
  2
Standard
  9
$CMLJUST
 70
     0
  9
$CMLSCALE
 40
20.0
  9
$PROXYGRAPHICS
 70
     1
  9
$MEASUREMENT
 70
     1
  9
$CELWEIGHT
370
    -1
  9
$ENDCAPS
280
     0
  9
$JOINSTYLE
280
     0
  9
$LWDISPLAY
290
     0
  9
$INSUNITS
 70
     4
  9
$HYPERLINKBASE
  1

  9
$STYLESHEET
  1

  9
$XEDIT
290
     1
  9
$CEPSNTYPE
380
     0
  9
$PSTYLEMODE
290
     1
  9
$FINGERPRINTGUID
  2
{0B0BED65-DFDD-4CF6-B892-FF6C9F07D1B3}
  9
$VERSIONGUID
  2
{FAEB1C32-E019-11D5-929B-00C0DF256EC4}
  9
$EXTNAMES
290
     1
  9
$PSVPSCALE
 40
0.0
  9
$OLESTARTUP
290
     0
  0
ENDSEC
  0
SECTION
  2
CLASSES
  0
CLASS
  1
ACDBDICTIONARYWDFLT
  2
AcDbDictionaryWithDefault
  3
ObjectDBX Classes
 90
        0
280
     0
281
     0
  0
CLASS
  1
VISUALSTYLE
  2
AcDbVisualStyle
  3
ObjectDBX Classes
 90
     4095
280
     0
281
     0
  0
CLASS
  1
SCALE
  2
AcDbScale
  3
ObjectDBX Classes
 90
     1153
280
     0
281
     0
  0
CLASS
  1
DICTIONARYVAR
  2
AcDbDictionaryVar
  3
ObjectDBX Classes
 90
        0
280
     0
281
     0
  0
CLASS
  1
ACDBPLACEHOLDER
  2
AcDbPlaceHolder
  3
ObjectDBX Classes
 90
        0
280
     0
281
     0
  0
CLASS
  1
LAYOUT
  2
AcDbLayout
  3
ObjectDBX Classes
 90
        0
280
     0
281
     0
  0
ENDSEC
  0
SECTION
  2
TABLES
  0
TABLE
  2
VPORT
  5
8
330
0
100
AcDbSymbolTable
 70
     1
  0
VPORT
  5
29
330
8
100
AcDbSymbolTableRecord
100
AcDbViewportTableRecord
  2
*Active
 70
     0
 10
0.0
 20
0.0
 11
1.0
 21
1.0
 12
344.1869158879
 22
148.5
 13
0.0
 23
0.0
 14
10.0
 24
10.0
 15
10.0
 25
10.0
 16
0.0
 26
0.0
 36
1.0
 17
0.0
 27
0.0
 37
0.0
 40
297.0
 41
1.9729729729
 42
50.0
 43
0.0
 44
0.0
 50
0.0
 51
0.0
 71
     0
 72
   100
 73
     1
 74
     3
 75
     0
 76
     0
 77
     0
 78
     0
281
     0
 65
     1
110
0.0
120
0.0
130
0.0
111
1.0
121
0.0
131
0.0
112
0.0
122
1.0
132
0.0
 79
     0
146
0.0
  0
ENDTAB
  0
TABLE
  2
LTYPE
  5
5
330
0
100
AcDbSymbolTable
 70
     2
  0
LTYPE
  5
14
330
5
100
AcDbSymbolTableRecord
100
AcDbLinetypeTableRecord
  2
ByBlock
 70
     0
  3

 72
    65
 73
     0
 40
0.0
  0
LTYPE
  5
15
330
5
100
AcDbSymbolTableRecord
100
AcDbLinetypeTableRecord
  2
ByLayer
 70
     0
  3

 72
    65
 73
     0
 40
0.0
  0
LTYPE
  5
16
330
5
100
AcDbSymbolTableRecord
100
AcDbLinetypeTableRecord
  2
Continuous
 70
     0
  3
Solid line
 72
    65
 73
     0
 40
0.0
  0
LTYPE
  5
60
330
5
100
AcDbSymbolTableRecord
100
AcDbLinetypeTableRecord
  2
CENTER2
 70
     0
  3
Center (.5x) ___ _ ___ _ ___ _ ___ _ ___ _ ___
 72
    65
 73
     4
 40
28.575
 49
19.05
 74
     4
 75
     0
340
0
 46
0.0
 50
0.0
 44
0.0
 45
0.0
 49
-3.175
 74
     4
 75
     0
340
0
 46
0.0
 50
0.0
 44
0.0
 45
0.0
 49
3.175
 74
     4
 75
     0
340
0
 46
0.0
 50
0.0
 44
0.0
 45
0.0
 49
-3.175
 74
     4
 75
     0
340
0
 46
0.0
 50
0.0
 44
0.0
 45
0.0
  0
ENDTAB
  0
TABLE
  2
LAYER
  5
2
330
0
100
AcDbSymbolTable
 70
    12
  0
LAYER
  5
10
330
2
100
AcDbSymbolTableRecord
100
AcDbLayerTableRecord
  2
0
 70
     0
 62
     7
  6
Continuous
370
    -3
390
F
  0
LAYER
  5
5D
330
2
100
AcDbSymbolTableRecord
100
AcDbLayerTableRecord
  2
Default
 70
     0
 62
     7
  6
Continuous
370
    -3
390
F
  0
LAYER
  5
6B
330
2
100
AcDbSymbolTableRecord
100
AcDbLayerTableRecord
  2
$DDT_AUDIT_GENERATED_(6B)
 70
     0
 62
     7
  6
Continuous
370
    -3
390
F
  0
LAYER
  5
98
330
2
100
AcDbSymbolTableRecord
100
AcDbLayerTableRecord
  2
02636038_GEHÄUSE
 70
     0
 62
     7
  6
Continuous
370
    -3
390
F
  0
LAYER
  5
AE
330
2
100
AcDbSymbolTableRecord
100
AcDbLayerTableRecord
  2
$DDT_AUDIT_GENERATED_(AE)
 70
     0
 62
     7
  6
Continuous
370
    -3
390
F
  0
LAYER
  5
147
330
2
100
AcDbSymbolTableRecord
100
AcDbLayerTableRecord
  2
$DDT_AUDIT_GENERATED_(147)
 70
     0
 62
     7
  6
Continuous
370
    -3
390
F
  0
LAYER
  5
14D
330
2
100
AcDbSymbolTableRecord
100
AcDbLayerTableRecord
  2
DV1_Standard
 70
     0
 62
     7
  6
Continuous
370
    -3
390
F
  0
LAYER
  5
170
330
2
100
AcDbSymbolTableRecord
100
AcDbLayerTableRecord
  2
$DDT_AUDIT_GENERATED_(170)
 70
     0
 62
     7
  6
Continuous
370
    -3
390
F
  0
LAYER
  5
184
330
2
100
AcDbSymbolTableRecord
100
AcDbLayerTableRecord
  2
$DDT_AUDIT_GENERATED_(184)
 70
     0
 62
     7
  6
Continuous
370
    -3
390
F
  0
LAYER
  5
193
330
2
100
AcDbSymbolTableRecord
100
AcDbLayerTableRecord
  2
DV2_Standard
 70
     0
 62
     7
  6
Continuous
370
    -3
390
F
  0
LAYER
  5
1A2
330
2
100
AcDbSymbolTableRecord
100
AcDbLayerTableRecord
  2
$DDT_AUDIT_GENERATED_(1A2)
 70
     0
 62
     7
  6
Continuous
370
    -3
390
F
  0
LAYER
  5
1A4
330
2
100
AcDbSymbolTableRecord
100
AcDbLayerTableRecord
  2
$DDT_AUDIT_GENERATED_(1A4)
 70
     0
 62
     7
  6
Continuous
370
    -3
390
F
  0
ENDTAB
  0
TABLE
  2
STYLE
  5
3
330
0
100
AcDbSymbolTable
 70
     2
  0
STYLE
  5
11
330
3
100
AcDbSymbolTableRecord
100
AcDbTextStyleTableRecord
  2
Standard
 70
     0
 40
0.0
 41
1.0
 50
0.0
 71
     0
 42
2.5
  3
txt
  4

  0
STYLE
  5
1AD
330
3
100
AcDbSymbolTableRecord
100
AcDbTextStyleTableRecord
  2
SEACAD_seiso_ttf
 70
     0
 40
0.0
 41
1.0
 50
0.0
 71
     0
 42
0.2
  3
seiso.ttf
  4

  0
ENDTAB
  0
TABLE
  2
VIEW
  5
6
330
0
100
AcDbSymbolTable
 70
     0
  0
ENDTAB
  0
TABLE
  2
UCS
  5
7
330
0
100
AcDbSymbolTable
 70
     0
  0
ENDTAB
  0
TABLE
  2
APPID
  5
9
330
0
100
AcDbSymbolTable
 70
     1
  0
APPID
  5
12
330
9
100
AcDbSymbolTableRecord
100
AcDbRegAppTableRecord
  2
ACAD
 70
     0
  0
ENDTAB
  0
TABLE
  2
DIMSTYLE
  5
A
330
0
100
AcDbSymbolTable
 70
     1
100
AcDbDimStyleTable
  0
DIMSTYLE
105
27
330
A
100
AcDbSymbolTableRecord
100
AcDbDimStyleTableRecord
  2
ISO-25
 70
     0
 41
2.5
 42
0.625
 43
3.75
 44
1.25
 73
     0
 74
     0
 77
     1
 78
     8
140
2.5
141
2.5
143
0.0393700787
147
0.625
171
     3
172
     1
271
     2
272
     2
274
     3
278
    44
283
     0
284
     8
340
11
  0
ENDTAB
  0
TABLE
  2
BLOCK_RECORD
  5
1
330
0
100
AcDbSymbolTable
 70
     6
  0
BLOCK_RECORD
  5
1F
330
1
100
AcDbSymbolTableRecord
100
AcDbBlockTableRecord
  2
*Model_Space
340
22
  0
BLOCK_RECORD
  5
1B
330
1
100
AcDbSymbolTableRecord
100
AcDbBlockTableRecord
  2
*Paper_Space
340
1E
  0
BLOCK_RECORD
  5
5E
330
1
100
AcDbSymbolTableRecord
100
AcDbBlockTableRecord
  2
SEANNOT_GROUP
340
0
102
{BLKREFS
331
5F
102
}
  0
BLOCK_RECORD
  5
64
330
1
100
AcDbSymbolTableRecord
100
AcDbBlockTableRecord
  2
SEANNOT_GROUP1
340
0
102
{BLKREFS
331
65
102
}
  0
BLOCK_RECORD
  5
69
330
1
100
AcDbSymbolTableRecord
100
AcDbBlockTableRecord
  2
SE
340
0
102
{BLKREFS
331
6A
102
}
  0
BLOCK_RECORD
  5
151
330
1
100
AcDbSymbolTableRecord
100
AcDbBlockTableRecord
  2
SE1
340
0
102
{BLKREFS
331
152
102
}
  0
BLOCK_RECORD
  5
197
330
1
100
AcDbSymbolTableRecord
100
AcDbBlockTableRecord
  2
SE2
340
0
102
{BLKREFS
331
198
102
}
  0
ENDTAB
  0
ENDSEC
  0
SECTION
  2
BLOCKS
  0
BLOCK
  5
20
330
1F
100
AcDbEntity
  8
0
100
AcDbBlockBegin
  2
*Model_Space
 70
     0
 10
0.0
 20
0.0
 30
0.0
  3
*Model_Space
  1

  0
ENDBLK
  5
21
330
1F
100
AcDbEntity
  8
0
100
AcDbBlockEnd
  0
BLOCK
  5
1C
330
1B
100
AcDbEntity
 67
     1
  8
0
100
AcDbBlockBegin
  2
*Paper_Space
 70
     0
 10
0.0
 20
0.0
 30
0.0
  3
*Paper_Space
  1

  0
ENDBLK
  5
1D
330
1B
100
AcDbEntity
 67
     1
  8
0
100
AcDbBlockEnd
  0
BLOCK
  5
62
330
5E
100
AcDbEntity
  8
0
100
AcDbBlockBegin
  2
SEANNOT_GROUP
 70
     0
 10
0.0
 20
0.0
 30
0.0
  3
SEANNOT_GROUP
  1

  0
LINE
  5
61
330
5E
100
AcDbEntity
  8
Default
  6
CENTER2
 62
     7
100
AcDbLine
 10
33.8186232734
 20
102.85
 30
0.0
 11
33.8186695224
 21
256.850004721
 31
0.0
  0
ENDBLK
  5
63
330
5E
100
AcDbEntity
  8
0
100
AcDbBlockEnd
  0
BLOCK
  5
67
330
64
100
AcDbEntity
  8
0
100
AcDbBlockBegin
  2
SEANNOT_GROUP1
 70
     0
 10
0.0
 20
0.0
 30
0.0
  3
SEANNOT_GROUP1
  1

  0
LINE
  5
66
330
64
100
AcDbEntity
  8
Default
  6
CENTER2
 62
     7
100
AcDbLine
 10
33.8186697075
 20
315.4436261537
 30
0.0
 11
33.8186230882
 21
447.4436261537
 31
0.0
  0
ENDBLK
  5
68
330
64
100
AcDbEntity
  8
0
100
AcDbBlockEnd
  0
BLOCK
  5
14F
330
69
100
AcDbEntity
  8
0
100
AcDbBlockBegin
  2
SE
 70
     0
 10
0.0
 20
0.0
 30
0.0
  3
SE
  1

  0
LINE
  5
6C
330
69
100
AcDbEntity
  8
$DDT_AUDIT_GENERATED_(6B)
  6
Continuous
 62
     7
100
AcDbLine
 10
9.8426867873
 20
318.9436263921
 30
0.0
 11
33.8186684713
 21
318.9436261537
 31
0.0
  0
LINE
  5
6D
330
69
100
AcDbEntity
  8
$DDT_AUDIT_GENERATED_(6B)
  6
Continuous
 62
     7
100
AcDbLine
 10
51.8187315588
 20
434.3334531857
 30
0.0
 11
51.8187315588
 21
443.4436261537
 31
0.0
  0
LINE
  5
6E
330
69
100
AcDbEntity
  8
$DDT_AUDIT_GENERATED_(6B)
  6
Continuous
 62
     7
100
AcDbLine
 10
51.5499017937
 20
433.651191518
 30
0.0
 11
51.5499929831
 21
433.6518019804
 31
0.0
  0
ARC
  5
6F
330
69
100
AcDbEntity
  8
$DDT_AUDIT_GENERATED_(6B)
  6
Continuous
 62
     7
100
AcDbCircle
 10
33.7956094874
 20
450.1647836668
 30
0.0
 40
24.21311318890923
100
AcDbArc
 50
233.5304998242
 51
235.0648000236
  0
ARC
  5
70
330
69
100
AcDbEntity
  8
$DDT_AUDIT_GENERATED_(6B)
  6
Continuous
 62
     7
100
AcDbCircle
 10
50.8073034796
 20
434.3379432334
 30
0.0
 40
1.011406502099355
100
AcDbArc
 50
317.2466100715
 51
359.7456397284
  0
LINE
  5
71
330
69
100
AcDbEntity
  8
$DDT_AUDIT_GENERATED_(6B)
  6
Continuous
 62
     7
100
AcDbLine
 10
9.8224037814
 20
443.4436261537
 30
0.0
 11
9.8427138483
 21
443.4436261537
 31
0.0
  0
LINE
  5
72
330
69
100
AcDbEntity
  8
$DDT_AUDIT_GENERATED_(6B)
  6
Continuous
 62
     7
100
AcDbLine
 10
16.3185170898
 20
443.9436261537
 30
0.0
 11
51.3187315588
 21
443.9436261537
 31
0.0
  0
LINE
  5
73
330
69
100
AcDbEntity
  8
$DDT_AUDIT_GENERATED_(6B)
  6
Continuous
 62
     7
100
AcDbLine
 10
51.3675277145
 20
443.9436261537
 30
0.0
 11
54.4392306585
 21
443.9436261537
 31
0.0
  0
LINE
  5
74
330
69
100
AcDbEntity
  8
$DDT_AUDIT_GENERATED_(6B)
  6
Continuous
 62
     7
100
AcDbLine
 10
13.198188017
 20
443.9436261537
 30
0.0
 11
16.2794974693
 21
443.9436261537
 31
0.0
  0
LINE
  5
75
330
69
100
AcDbEntity
  8
$DDT_AUDIT_GENERATED_(6B)
  6
Continuous
 62
     7
100
AcDbLine
 10
54.4392205608
 20
443.9436261537
 30
0.0
 11
57.2953079595
 21
443.9436261537
 31
0.0
  0
LINE
  5
76
330
69
100
AcDbEntity
  8
$DDT_AUDIT_GENERATED_(6B)
  6
Continuous
 62
     7
100
AcDbLine
 10
10.3422735059
 20
443.9436261537
 30
0.0
 11
13.198302178
 21
443.9436261537
 31
0.0
  0
LINE
  5
77
330
69
100
AcDbEntity
  8
$DDT_AUDIT_GENERATED_(6B)
  6
Continuous
 62
     7
100
AcDbLine
 10
57.7947453573
 20
443.4436261537
 30
0.0
 11
57.8151133426
 21
443.4436261537
 31
0.0
  0
LINE
  5
78
330
69
100
AcDbEntity
  8
$DDT_AUDIT_GENERATED_(6B)
  6
Continuous
 62
     7
100
AcDbLine
 10
15.8177649991
 20
443.4436261537
 30
0.0
 11
15.8140243051
 21
443.4436261537
 31
0.0
  0
LINE
  5
79
330
69
100
AcDbEntity
  8
$DDT_AUDIT_GENERATED_(6B)
  6
Continuous
 62
     7
100
AcDbLine
 10
15.8185170898
 20
443.4436261537
 30
0.0
 11
15.8185170898
 21
434.3335005042
 31
0.0
  0
SPLINE
  5
7A
330
69
100
AcDbEntity
  8
$DDT_AUDIT_GENERATED_(6B)
  6
Continuous
 62
     7
100
AcDbSpline
210
0.0
220
0.0
230
1.0
 70
     8
 71
     3
 72
    10
 73
     6
 74
     0
 42
0.0000000124193995
 43
0.0000000001
 40
0.0
 40
0.0
 40
0.0
 40
0.0
 40
0.5
 40
0.5
 40
1.0
 40
1.0
 40
1.0
 40
1.0
 10
51.31870001501758
 20
443.9436261537313
 30
0.0
 10
51.4495681651441
 20
443.9436261537313
 30
0.0
 10
51.57966180062616
 20
443.8897396055362
 30
0.0
 10
51.76478192304943
 20
443.7046194831129
 30
0.0
 10
51.81866847124453
 20
443.5745258476309
 30
0.0
 10
51.81870001502175
 20
443.4436261537313
 30
0.0
  0
SPLINE
  5
7B
330
69
100
AcDbEntity
  8
$DDT_AUDIT_GENERATED_(6B)
  6
Continuous
 62
     7
100
AcDbSpline
210
0.0
220
0.0
230
1.0
 70
     8
 71
     3
 72
    10
 73
     6
 74
     0
 42
0.0000000124200802
 43
0.0000000001
 40
0.0
 40
0.0
 40
0.0
 40
0.0
 40
0.5
 40
0.5
 40
1.0
 40
1.0
 40
1.0
 40
1.0
 10
15.8185927805086
 20
443.4436261537313
 30
0.0
 10
15.81866847124453
 20
443.5745258476309
 30
0.0
 10
15.87255501943962
 20
443.7046194831129
 30
0.0
 10
16.05767514186289
 20
443.8897396055362
 30
0.0
 10
16.18776877734495
 20
443.9436261537313
 30
0.0
 10
16.31859278051277
 20
443.9436261537313
 30
0.0
  0
ARC
  5
7C
330
69
100
AcDbEntity
  8
$DDT_AUDIT_GENERATED_(6B)
  6
Continuous
 62
     7
100
AcDbCircle
 10
57.2947326377
 20
443.4436136296
 30
0.0
 40
0.5000127197054853
100
AcDbArc
 50
0.0014351217
 51
89.9493221792
  0
ARC
  5
7D
330
69
100
AcDbEntity
  8
$DDT_AUDIT_GENERATED_(6B)
  6
Continuous
 62
     7
100
AcDbCircle
 10
33.7977596322
 20
450.2185248063
 30
0.0
 40
24.28199093168492
100
AcDbArc
 50
306.4793079704
 51
316.9772329655
  0
ARC
  5
7E
330
69
100
AcDbEntity
  8
$DDT_AUDIT_GENERATED_(6B)
  6
Continuous
 62
     7
100
AcDbCircle
 10
33.7986826569
 20
450.1671446112
 30
0.0
 40
24.21703934984189
100
AcDbArc
 50
222.9999093265
 51
233.5262178599
  0
LINE
  5
7F
330
69
100
AcDbEntity
  8
$DDT_AUDIT_GENERATED_(6B)
  6
Continuous
 62
     7
100
AcDbLine
 10
33.8186684713
 20
318.9436261537
 30
0.0
 11
57.794646837
 21
318.9436263921
 31
0.0
  0
LINE
  5
80
330
69
100
AcDbEntity
  8
$DDT_AUDIT_GENERATED_(6B)
  6
Continuous
 62
     7
100
AcDbLine
 10
29.0186684712
 20
342.6936083829
 30
0.0
 11
29.0186684712
 21
334.1936261536
 31
0.0
  0
ARC
  5
81
330
69
100
AcDbEntity
  8
$DDT_AUDIT_GENERATED_(6B)
  6
Continuous
 62
     7
100
AcDbCircle
 10
33.8186715374
 20
342.6936098497
 30
0.0
 40
4.800002018140728
100
AcDbArc
 50
0.0001225049
 51
90.0000435047
  0
ARC
  5
82
330
69
100
AcDbEntity
  8
$DDT_AUDIT_GENERATED_(6B)
  6
Continuous
 62
     7
100
AcDbCircle
 10
33.8186721668
 20
342.6936078965
 30
0.0
 40
4.800003971342178
100
AcDbArc
 50
90.0000510174
 51
179.9997769272
  0
LINE
  5
83
330
69
100
AcDbEntity
  8
$DDT_AUDIT_GENERATED_(6B)
  6
Continuous
 62
     7
100
AcDbLine
 10
38.6186687512
 20
334.1936259913
 30
0.0
 11
38.6186735555
 21
342.6936201126
 31
0.0
  0
ARC
  5
84
330
69
100
AcDbEntity
  8
$DDT_AUDIT_GENERATED_(6B)
  6
Continuous
 62
     7
100
AcDbCircle
 10
33.818668597
 20
334.1936137519
 30
0.0
 40
4.800002073849752
100
AcDbArc
 50
179.9999062027
 51
270.0000054039
  0
ARC
  5
85
330
69
100
AcDbEntity
  8
$DDT_AUDIT_GENERATED_(6B)
  6
Continuous
 62
     7
100
AcDbCircle
 10
33.8186682699
 20
334.1936121594
 30
0.0
 40
4.800000481356565
100
AcDbArc
 50
270.000009308
 51
0.0001651066
  0
ARC
  5
86
330
69
100
AcDbEntity
  8
$DDT_AUDIT_GENERATED_(6B)
  6
Continuous
 62
     7
100
AcDbCircle
 10
140.5051192637
 20
338.9436282322
 30
0.0
 40
82.89925663919114
100
AcDbArc
 50
176.1313225557
 51
183.8686803239
  0
SPLINE
  5
87
330
69
100
AcDbEntity
  8
$DDT_AUDIT_GENERATED_(6B)
  6
Continuous
 62
     7
100
AcDbSpline
210
0.0
220
0.0
230
1.0
 70
     8
 71
     3
 72
     8
 73
     4
 74
     0
 42
0.0000000003679395
 43
0.0000000001
 40
0.0
 40
0.0
 40
0.0
 40
0.0
 40
0.0331392875725286
 40
0.0331392875725286
 40
0.0331392875725286
 40
0.0331392875725286
 10
57.79476440831222
 20
333.3504224408541
 30
0.0
 10
57.80741567862076
 20
333.0222076823118
 30
0.0
 10
57.81462775399665
 20
332.7213822737336
 30
0.0
 10
57.81415209608999
 20
332.4500808979562
 30
0.0
  0
SPLINE
  5
88
330
69
100
AcDbEntity
  8
$DDT_AUDIT_GENERATED_(6B)
  6
Continuous
 62
     7
100
AcDbSpline
210
0.0
220
0.0
230
1.0
 70
     8
 71
     3
 72
     8
 73
     4
 74
     0
 42
0.0000000003668738
 43
0.0000000001
 40
0.9671863452324345
 40
0.9671863452324345
 40
0.9671863452324345
 40
0.9671863452324345
 40
1.0
 40
1.0
 40
1.0
 40
1.0
 10
57.81401568757378
 20
345.4309150575396
 30
0.0
 10
57.81444950038497
 20
345.1610156273524
 30
0.0
 10
57.80730676732873
 20
344.862224491014
 30
0.0
 10
57.79476412720623
 20
344.5368298666085
 30
0.0
  0
ARC
  5
89
330
69
100
AcDbEntity
  8
$DDT_AUDIT_GENERATED_(6B)
  6
Continuous
 62
     7
100
AcDbCircle
 10
33.8139049872
 20
450.2010232566
 30
0.0
 40
24.2587364136825
100
AcDbArc
 50
300.2713296803
 51
304.940087613
  0
ARC
  5
8A
330
69
100
AcDbEntity
  8
$DDT_AUDIT_GENERATED_(6B)
  6
Continuous
 62
     7
100
AcDbCircle
 10
33.3459208742
 20
448.4246425334
 30
0.0
 40
22.48908350474981
100
AcDbArc
 50
238.497948306
 51
239.7521319545
  0
ARC
  5
8B
330
69
100
AcDbEntity
  8
$DDT_AUDIT_GENERATED_(6B)
  6
Continuous
 62
     7
100
AcDbCircle
 10
33.8416518455
 20
450.2290694304
 30
0.0
 40
24.29218082931387
100
AcDbArc
 50
235.0626010523
 51
239.7249784813
  0
SPLINE
  5
8C
330
69
100
AcDbEntity
  8
$DDT_AUDIT_GENERATED_(6B)
  6
Continuous
 62
     7
100
AcDbSpline
210
0.0
220
0.0
230
1.0
 70
     8
 71
     3
 72
    30
 73
    26
 74
     0
 42
0.0000000003341631
 43
0.0000000001
 40
0.0
 40
0.0
 40
0.0
 40
0.0
 40
0.0624999999999994
 40
0.0624999999999994
 40
0.1249999999999988
 40
0.1249999999999988
 40
0.2499999999999986
 40
0.2499999999999986
 40
0.3749999999999983
 40
0.3749999999999983
 40
0.4374999999999983
 40
0.4374999999999983
 40
0.4999999999999983
 40
0.4999999999999983
 40
0.5624999999999983
 40
0.5624999999999983
 40
0.6249999999999982
 40
0.6249999999999982
 40
0.7499999999999982
 40
0.7499999999999982
 40
0.8124999999999987
 40
0.8124999999999987
 40
0.874999999999999
 40
0.874999999999999
 40
0.9622695430877263
 40
0.9622695430877263
 40
0.9622695430877263
 40
0.9622695430877263
 10
19.92997917266026
 20
430.3148681436752
 30
0.0
 10
19.80654426223485
 20
430.4010629698468
 30
0.0
 10
19.78614108860677
 20
430.4930169042898
 30
0.0
 10
19.94600020434837
 20
430.684054470979
 30
0.0
 10
20.13037413704706
 20
430.7843091812831
 30
0.0
 10
20.97342979082303
 20
431.0862979875323
 30
0.0
 10
21.94308114167152
 20
431.29161336715
 30
0.0
 10
24.5217216737563
 20
431.6532141405529
 30
0.0
 10
26.15549830436865
 20
431.8099771888652
 30
0.0
 10
28.87946641928363
 20
431.9722019691552
 30
0.0
 10
29.84920371142631
 20
432.0153214012023
 30
0.0
 10
31.80575490593221
 20
432.0714175207578
 30
0.0
 10
32.80284555007582
 20
432.0852291760856
 30
0.0
 10
34.8351181558813
 20
432.0852235190629
 30
0.0
 10
35.83218994563013
 20
432.0714117696098
 30
0.0
 10
37.78985509057308
 20
432.0152603411991
 30
0.0
 10
38.75949871729251
 20
431.9721235232942
 30
0.0
 10
41.48397972925697
 20
431.8098125838446
 30
0.0
 10
43.11767746754771
 20
431.653070224872
 30
0.0
 10
45.05485753755579
 20
431.381202707823
 30
0.0
 10
45.62726581718329
 20
431.2840330436323
 30
0.0
 10
46.5716557791803
 20
431.0859824000724
 30
0.0
 10
46.94852179950985
 20
430.9846928404445
 30
0.0
 10
47.62365242571805
 20
430.7420206724624
 30
0.0
 10
47.82062832364283
 20
430.6049851294567
 30
0.0
 10
47.81968625623228
 20
430.4764684961625
 30
0.0
  0
SPLINE
  5
8D
330
69
100
AcDbEntity
  8
$DDT_AUDIT_GENERATED_(6B)
  6
Continuous
 62
     7
100
AcDbSpline
210
0.0
220
0.0
230
1.0
 70
     8
 71
     3
 72
     8
 73
     4
 74
     0
 42
0.0000000017194533
 43
0.0000000001
 40
0.9713766261174129
 40
0.9713766261174129
 40
0.9713766261174129
 40
0.9713766261174129
 40
1.0
 40
1.0
 40
1.0
 40
1.0
 10
47.8129235614151
 20
430.436517161614
 30
0.0
 10
47.79906075503853
 20
430.3949632209274
 30
0.0
 10
47.76388983877982
 20
430.3543723153243
 30
0.0
 10
47.70735786871184
 20
430.3148909172513
 30
0.0
  0
ELLIPSE
  5
8E
330
69
100
AcDbEntity
  8
$DDT_AUDIT_GENERATED_(6B)
  6
Continuous
 62
     7
100
AcDbEllipse
 10
33.8186684712
 20
432.9936261537
 30
0.0
 11
13.99999999999808
 21
0.0
 31
0.0
210
0.0
220
0.0
230
1.0
 40
0.3420201433
 41
3.556896890075401
 42
3.709818308500525
  0
ELLIPSE
  5
8F
330
69
100
AcDbEntity
  8
$DDT_AUDIT_GENERATED_(6B)
  6
Continuous
 62
     7
100
AcDbEllipse
 10
33.8186684712
 20
432.9936261537
 30
0.0
 11
13.99999999999808
 21
0.0
 31
0.0
210
0.0
220
0.0
230
1.0
 40
0.3420201433
 41
-0.5682256549107292
 42
-0.4148226842627096
  0
ARC
  5
90
330
69
100
AcDbEntity
  8
$DDT_AUDIT_GENERATED_(6B)
  6
Continuous
 62
     7
100
AcDbCircle
 10
34.2914926188
 20
448.4241078345
 30
0.0
 40
22.48855053335413
100
AcDbArc
 50
300.2484102603
 51
301.5026817338
  0
LINE
  5
91
330
69
100
AcDbEntity
  8
$DDT_AUDIT_GENERATED_(6B)
  6
Continuous
 62
     7
100
AcDbLine
 10
48.2338913333
 20
430.6934179464
 30
0.0
 11
48.2345304596
 21
430.6938904856
 31
0.0
  0
LINE
  5
92
330
69
100
AcDbEntity
  8
$DDT_AUDIT_GENERATED_(6B)
  6
Continuous
 62
     7
100
AcDbLine
 10
19.4028064829
 20
430.6938904856
 30
0.0
 11
19.4034455662
 21
430.6934179782
 31
0.0
  0
LINE
  5
93
330
69
100
AcDbEntity
  8
$DDT_AUDIT_GENERATED_(6B)
  6
Continuous
 62
     7
100
AcDbLine
 10
9.8221197948
 20
443.4436261537
 30
0.0
 11
9.8221197948
 21
318.9436261537
 31
0.0
  0
LINE
  5
94
330
69
100
AcDbEntity
  8
$DDT_AUDIT_GENERATED_(6B)
  6
Continuous
 62
     7
100
AcDbLine
 10
57.8152171477
 20
345.4216680592
 30
0.0
 11
57.8152171477
 21
443.4436261537
 31
0.0
  0
LINE
  5
95
330
69
100
AcDbEntity
  8
$DDT_AUDIT_GENERATED_(6B)
  6
Continuous
 62
     7
100
AcDbLine
 10
57.8152171477
 20
318.9436261537
 30
0.0
 11
57.8152171477
 21
332.4499740883
 31
0.0
  0
ARC
  5
96
330
69
100
AcDbEntity
  8
$DDT_AUDIT_GENERATED_(6B)
  6
Continuous
 62
     7
100
AcDbCircle
 10
57.3148360172
 20
443.4436261967
 30
0.0
 40
0.4999999590594162
100
AcDbArc
 50
0.1492508852
 51
90.087434753
  0
ARC
  5
97
330
69
100
AcDbEntity
  8
$DDT_AUDIT_GENERATED_(6B)
  6
Continuous
 62
     7
100
AcDbCircle
 10
10.3225258965
 20
443.4436261403
 30
0.0
 40
0.4999910888705269
100
AcDbArc
 50
89.1419679648
 51
180.0436817031
  0
ELLIPSE
  5
99
330
69
100
AcDbEntity
  8
02636038_GEHÄUSE
  6
Continuous
 62
     7
100
AcDbEllipse
 10
33.8186684712
 20
425.0062388771
 30
0.0
 11
10.05000000000001
 21
0.0
 31
0.0
210
0.0
220
0.0
230
1.0
 40
0.3420201433
 41
4.995511118756747
 42
6.283185307179586
  0
ELLIPSE
  5
9A
330
69
100
AcDbEntity
  8
02636038_GEHÄUSE
  6
Continuous
 62
     7
100
AcDbEllipse
 10
33.8186684712
 20
425.0062388771
 30
0.0
 11
10.05000000000001
 21
0.0
 31
0.0
210
0.0
220
0.0
230
1.0
 40
0.3420201433
 41
0.0
 42
4.429266842012631
  0
ELLIPSE
  5
9B
330
69
100
AcDbEntity
  8
02636038_GEHÄUSE
  6
Continuous
 62
     7
100
AcDbEllipse
 10
33.8186684712
 20
425.0062388771
 30
0.0
 11
10.75000000000001
 21
0.0
 31
0.0
210
0.0
220
0.0
230
1.0
 40
0.3420201433
 41
0.0
 42
6.283185307179586
  0
ELLIPSE
  5
9C
330
69
100
AcDbEntity
  8
02636038_GEHÄUSE
  6
Continuous
 62
     7
100
AcDbEllipse
 10
33.8186684712
 20
425.3046313602
 30
0.0
 11
11.3
 21
2.775557561562891E-14
 31
0.0
210
0.0
220
0.0
230
1.0
 40
0.3420201433
 41
-0.6820876318288578
 42
-0.604249393639531
  0
ELLIPSE
  5
9D
330
69
100
AcDbEntity
  8
02636038_GEHÄUSE
  6
Continuous
 62
     7
100
AcDbEllipse
 10
33.8186684712
 20
425.3046313602
 30
0.0
 11
11.3
 21
2.775557561562891E-14
 31
0.0
210
0.0
220
0.0
230
1.0
 40
0.3420201433
 41
3.763927717685982
 42
3.823680285418645
  0
LINE
  5
9E
330
69
100
AcDbEntity
  8
02636038_GEHÄUSE
  6
Continuous
 62
     7
100
AcDbLine
 10
44.8186684712
 20
424.4199950859
 30
0.0
 11
44.8186684712
 21
426.1892676345
 31
0.0
  0
ELLIPSE
  5
9F
330
69
100
AcDbEntity
  8
02636038_GEHÄUSE
  6
Continuous
 62
     7
100
AcDbEllipse
 10
33.8186684712
 20
427.8253167394
 30
0.0
 11
-11.80000000000038
 21
0.0
 31
0.0
210
0.0
220
0.0
230
1.0
 40
0.3420201433
 41
2.771250021498082
 42
3.511935285681504
  0
LINE
  5
A0
330
69
100
AcDbEntity
  8
02636038_GEHÄUSE
  6
Continuous
 62
     7
100
AcDbLine
 10
44.8186684712
 20
424.4199950859
 30
0.0
 11
44.8186684712
 21
424.2920327061
 31
0.0
  0
LINE
  5
A1
330
69
100
AcDbEntity
  8
02636038_GEHÄUSE
  6
Continuous
 62
     7
100
AcDbLine
 10
44.8186684712
 20
426.1892676345
 30
0.0
 11
44.8186684712
 21
427.5791393752
 31
0.0
  0
LINE
  5
A2
330
69
100
AcDbEntity
  8
02636038_GEHÄUSE
  6
Continuous
 62
     7
100
AcDbLine
 10
44.8186684712
 20
427.5791393752
 30
0.0
 11
44.8186684712
 21
429.286027073
 31
0.0
  0
LINE
  5
A3
330
69
100
AcDbEntity
  8
02636038_GEHÄUSE
  6
Continuous
 62
     7
100
AcDbLine
 10
22.8186684712
 20
426.1892676345
 30
0.0
 11
22.8186684712
 21
424.4199950859
 31
0.0
  0
ELLIPSE
  5
A4
330
69
100
AcDbEntity
  8
02636038_GEHÄUSE
  6
Continuous
 62
     7
100
AcDbEllipse
 10
33.8186684712
 20
427.8253167394
 30
0.0
 11
11.80000000000053
 21
0.0
 31
0.0
210
0.0
220
0.0
230
1.0
 40
0.3420201433
 41
2.771250021498085
 42
3.511935285681501
  0
LINE
  5
A5
330
69
100
AcDbEntity
  8
02636038_GEHÄUSE
  6
Continuous
 62
     7
100
AcDbLine
 10
22.8186684712
 20
429.286027073
 30
0.0
 11
22.8186684712
 21
427.5791393752
 31
0.0
  0
LINE
  5
A6
330
69
100
AcDbEntity
  8
02636038_GEHÄUSE
  6
Continuous
 62
     7
100
AcDbLine
 10
22.8186684712
 20
427.5791393752
 30
0.0
 11
22.8186684712
 21
426.1892676345
 31
0.0
  0
LINE
  5
A7
330
69
100
AcDbEntity
  8
02636038_GEHÄUSE
  6
Continuous
 62
     7
100
AcDbLine
 10
22.8186684712
 20
424.292028982
 30
0.0
 11
22.8186684712
 21
424.4199950859
 31
0.0
  0
LINE
  5
A8
330
69
100
AcDbEntity
  8
02636038_GEHÄUSE
  6
Continuous
 62
     7
100
AcDbLine
 10
25.0469492636
 20
422.8681862953
 30
0.0
 11
25.4738913489
 21
422.6883818463
 31
0.0
  0
LINE
  5
A9
330
69
100
AcDbEntity
  8
02636038_GEHÄUSE
  6
Continuous
 62
     7
100
AcDbLine
 10
42.1634455936
 20
422.6883818463
 30
0.0
 11
42.5903876789
 21
422.8681862953
 31
0.0
  0
ARC
  5
AA
330
69
100
AcDbEntity
  8
02636038_GEHÄUSE
  6
Continuous
 62
     7
100
AcDbCircle
 10
40.7635117119
 20
428.3100151044
 30
0.0
 40
5.705938073737444
100
AcDbArc
 50
294.698577899
 51
315.3307116558
  0
ARC
  5
AB
330
69
100
AcDbEntity
  8
02636038_GEHÄUSE
  6
Continuous
 62
     7
100
AcDbCircle
 10
26.9591315151
 20
428.4091035738
 30
0.0
 40
5.836061511822826
100
AcDbArc
 50
224.7793077228
 51
246.3273772182
  0
LINE
  5
AC
330
69
100
AcDbEntity
  8
02636038_GEHÄUSE
  6
Continuous
 62
     7
100
AcDbLine
 10
22.0186684712
 20
431.2772222137
 30
0.0
 11
22.0186684712
 21
427.8253167394
 31
0.0
  0
LINE
  5
AD
330
69
100
AcDbEntity
  8
02636038_GEHÄUSE
  6
Continuous
 62
     7
100
AcDbLine
 10
45.6186684712
 20
427.8253167394
 30
0.0
 11
45.6186684712
 21
431.2774666808
 31
0.0
  0
ELLIPSE
  5
AF
330
69
100
AcDbEntity
  8
$DDT_AUDIT_GENERATED_(AE)
  6
Continuous
 62
     7
100
AcDbEllipse
 10
33.8186684712
 20
424.6303618287
 30
0.0
 11
9.000000000000005
 21
0.0
 31
0.0
210
0.0
220
0.0
230
1.0
 40
0.3420201433
 41
0.0
 42
6.283185307179586
  0
ELLIPSE
  5
B0
330
69
100
AcDbEntity
  8
$DDT_AUDIT_GENERATED_(AE)
  6
Continuous
 62
     7
100
AcDbEllipse
 10
33.8186684712
 20
424.6303618287
 30
0.0
 11
5.250000000000002
 21
0.0
 31
0.0
210
0.0
220
0.0
230
1.0
 40
0.3420201433
 41
0.0
 42
6.283185307179586
  0
ELLIPSE
  5
B1
330
69
100
AcDbEntity
  8
$DDT_AUDIT_GENERATED_(AE)
  6
Continuous
 62
     7
100
AcDbEllipse
 10
33.8186684712
 20
424.6303618287
 30
0.0
 11
6.250000000000003
 21
0.0
 31
0.0
210
0.0
220
0.0
230
1.0
 40
0.3420201433
 41
0.0
 42
6.283185307179586
  0
ELLIPSE
  5
B2
330
69
100
AcDbEntity
  8
$DDT_AUDIT_GENERATED_(AE)
  6
Continuous
 62
     7
100
AcDbEllipse
 10
33.8186684712
 20
424.6303618287
 30
0.0
 11
-2.750000000000003
 21
0.0
 31
0.0
210
0.0
220
0.0
230
1.0
 40
0.3420201433
 41
0.0
 42
6.283185307179586
  0
ELLIPSE
  5
B3
330
69
100
AcDbEntity
  8
$DDT_AUDIT_GENERATED_(AE)
  6
Continuous
 62
     7
100
AcDbEllipse
 10
33.8186684712
 20
424.6303618287
 30
0.0
 11
-2.15
 21
0.0
 31
0.0
210
0.0
220
0.0
230
1.0
 40
0.3420201433
 41
0.0
 42
6.283185307179586
  0
ELLIPSE
  5
B4
330
69
100
AcDbEntity
  8
$DDT_AUDIT_GENERATED_(AE)
  6
Continuous
 62
     7
100
AcDbEllipse
 10
33.8186684712
 20
424.8183003529
 30
0.0
 11
0.5196299438963563
 21
0.0
 31
0.0
210
0.0
220
0.0
230
1.0
 40
0.3420201433
 41
0.0
 42
6.283185307179586
  0
ELLIPSE
  5
B5
330
69
100
AcDbEntity
  8
$DDT_AUDIT_GENERATED_(AE)
  6
Continuous
 62
     7
100
AcDbEllipse
 10
33.8186684712
 20
424.6303618287
 30
0.0
 11
8.700000000000003
 21
0.0
 31
0.0
210
0.0
220
0.0
230
1.0
 40
0.3420201433
 41
0.0
 42
6.283185307179586
  0
ARC
  5
B6
330
69
100
AcDbEntity
  8
$DDT_AUDIT_GENERATED_(AE)
  6
Continuous
 62
     7
100
AcDbCircle
 10
26.3134990308
 20
424.8183003529
 30
0.0
 40
0.9948304059779797
100
AcDbArc
 50
178.0297975391
 51
181.9702024609
  0
ARC
  5
B7
330
69
100
AcDbEntity
  8
$DDT_AUDIT_GENERATED_(AE)
  6
Continuous
 62
     7
100
AcDbCircle
 10
28.3004860495
 20
424.8183003529
 30
0.0
 40
0.7318171920803673
100
AcDbArc
 50
177.3212638677
 51
180.0
  0
ELLIPSE
  5
B8
330
69
100
AcDbEntity
  8
$DDT_AUDIT_GENERATED_(AE)
  6
Continuous
 62
     7
100
AcDbEllipse
 10
33.8186684713
 20
424.8183003529
 30
0.0
 11
-8.500000000030292
 21
-9.853229343548264E-13
 31
0.0
210
0.0
220
0.0
230
1.0
 40
0.3420201433
 41
0.0117649772880648
 42
0.2500344105105713
  0
LINE
  5
B9
330
69
100
AcDbEntity
  8
$DDT_AUDIT_GENERATED_(AE)
  6
Continuous
 62
     7
100
AcDbLine
 10
27.5694685225
 20
424.8525023672
 30
0.0
 11
27.5694685225
 21
425.3555936347
 31
0.0
  0
LINE
  5
BA
330
69
100
AcDbEntity
  8
$DDT_AUDIT_GENERATED_(AE)
  6
Continuous
 62
     7
100
AcDbLine
 10
27.5686684712
 20
424.7840983386
 30
0.0
 11
25.3192567269
 21
424.7840983386
 31
0.0
  0
LINE
  5
BB
330
69
100
AcDbEntity
  8
$DDT_AUDIT_GENERATED_(AE)
  6
Continuous
 62
     7
100
AcDbLine
 10
33.3631300222
 20
425.1361895257
 30
0.0
 11
33.3631300222
 21
425.3490099377
 31
0.0
  0
ELLIPSE
  5
BC
330
69
100
AcDbEntity
  8
$DDT_AUDIT_GENERATED_(AE)
  6
Continuous
 62
     7
100
AcDbEllipse
 10
33.8186684712
 20
425.0506844898
 30
0.0
 11
0.5196299438963613
 21
0.0
 31
0.0
210
0.0
220
0.0
230
1.0
 40
0.3420201433
 41
2.639670372565589
 42
3.141592653589793
  0
LINE
  5
BD
330
69
100
AcDbEntity
  8
$DDT_AUDIT_GENERATED_(AE)
  6
Continuous
 62
     7
100
AcDbLine
 10
31.9044652331
 20
424.965179454
 30
0.0
 11
33.2990385273
 21
424.965179454
 31
0.0
  0
ELLIPSE
  5
BE
330
69
100
AcDbEntity
  8
$DDT_AUDIT_GENERATED_(AE)
  6
Continuous
 62
     7
100
AcDbEllipse
 10
33.8186684712
 20
425.0506844898
 30
0.0
 11
0.5196299438963451
 21
0.0
 31
0.0
210
0.0
220
0.0
230
1.0
 40
0.3420201433
 41
0.5452752701722622
 42
1.549119832220883
  0
LINE
  5
BF
330
69
100
AcDbEntity
  8
$DDT_AUDIT_GENERATED_(AE)
  6
Continuous
 62
     7
100
AcDbLine
 10
33.8299313448
 20
425.2283666458
 30
0.0
 11
33.8299313448
 21
425.365695047
 31
0.0
  0
LINE
  5
C0
330
69
100
AcDbEntity
  8
$DDT_AUDIT_GENERATED_(AE)
  6
Continuous
 62
     7
100
AcDbLine
 10
34.5624686805
 20
425.3202988844
 30
0.0
 11
34.2629440467
 21
425.1428616099
 31
0.0
  0
LINE
  5
C1
330
69
100
AcDbEntity
  8
$DDT_AUDIT_GENERATED_(AE)
  6
Continuous
 62
     7
100
AcDbLine
 10
35.1028826474
 20
425.2201154391
 30
0.0
 11
35.1028826474
 21
424.4609308795
 31
0.0
  0
LINE
  5
C2
330
69
100
AcDbEntity
  8
$DDT_AUDIT_GENERATED_(AE)
  6
Continuous
 62
     7
100
AcDbLine
 10
34.6698699455
 20
424.3754258437
 30
0.0
 11
34.1522833889
 21
424.6820421868
 31
0.0
  0
ELLIPSE
  5
C3
330
69
100
AcDbEntity
  8
$DDT_AUDIT_GENERATED_(AE)
  6
Continuous
 62
     7
100
AcDbEllipse
 10
33.8186684712
 20
425.0506844898
 30
0.0
 11
2.150000000001334
 21
-4.857225732735060E-13
 31
0.0
210
0.0
220
0.0
230
1.0
 40
0.3420201433
 41
-1.163740259645575
 42
-0.9306548427470291
  0
ELLIPSE
  5
C4
330
69
100
AcDbEntity
  8
$DDT_AUDIT_GENERATED_(AE)
  6
Continuous
 62
     7
100
AcDbEllipse
 10
33.8186680155
 20
424.8183003947
 30
0.0
 11
-8.499999544026137
 21
-4.573265377505464E-8
 31
0.0
210
0.0
220
0.0
230
1.0
 40
0.3420201515
 41
-0.2735643741923424
 42
-0.2500344189631996
  0
ELLIPSE
  5
C5
330
69
100
AcDbEntity
  8
$DDT_AUDIT_GENERATED_(AE)
  6
Continuous
 62
     7
100
AcDbEllipse
 10
33.8186684713
 20
424.8183003529
 30
0.0
 11
-8.500000000026359
 21
1.360023205165817E-12
 31
0.0
210
0.0
220
0.0
230
1.0
 40
0.3420201433
 41
6.033150896668971
 42
6.27142032989155
  0
ELLIPSE
  5
C6
330
69
100
AcDbEntity
  8
$DDT_AUDIT_GENERATED_(AE)
  6
Continuous
 62
     7
100
AcDbEllipse
 10
33.8186685013
 20
424.8183003502
 30
0.0
 11
-6.250000030111982
 21
2.977298962925091E-9
 31
0.0
210
0.0
220
0.0
230
1.0
 40
0.3420201426
 41
-0.2778000697184666
 42
-0.2457987043075702
  0
LINE
  5
C7
330
69
100
AcDbEntity
  8
$DDT_AUDIT_GENERATED_(AE)
  6
Continuous
 62
     7
100
AcDbLine
 10
27.8082867516
 20
425.4045244334
 30
0.0
 11
27.8082867516
 21
425.9656498301
 31
0.0
  0
LINE
  5
C8
330
69
100
AcDbEntity
  8
$DDT_AUDIT_GENERATED_(AE)
  6
Continuous
 62
     7
100
AcDbLine
 10
27.7565229426
 20
425.3384512155
 30
0.0
 11
25.5829852546
 21
425.5376429494
 31
0.0
  0
ELLIPSE
  5
C9
330
69
100
AcDbEntity
  8
$DDT_AUDIT_GENERATED_(AE)
  6
Continuous
 62
     7
100
AcDbEllipse
 10
33.8186684712
 20
424.8183003529
 30
0.0
 11
-8.499999999987743
 21
-1.554312234475219E-12
 31
0.0
210
0.0
220
0.0
230
1.0
 40
0.3420201433
 41
-0.34259134602783
 42
-0.2735643650874877
  0
ELLIPSE
  5
CA
330
69
100
AcDbEntity
  8
$DDT_AUDIT_GENERATED_(AE)
  6
Continuous
 62
     7
100
AcDbEllipse
 10
33.8186685212
 20
424.818300343
 30
0.0
 11
-6.250000050439112
 21
9.679701484799352E-9
 31
0.0
210
0.0
220
0.0
230
1.0
 40
0.3420201425
 41
-0.5395994557428478
 42
-0.5075980903997594
  0
LINE
  5
CB
330
69
100
AcDbEntity
  8
$DDT_AUDIT_GENERATED_(AE)
  6
Continuous
 62
     7
100
AcDbLine
 10
28.4567025623
 20
425.9165962972
 30
0.0
 11
28.4567025623
 21
426.6038317491
 31
0.0
  0
LINE
  5
CC
330
69
100
AcDbEntity
  8
$DDT_AUDIT_GENERATED_(AE)
  6
Continuous
 62
     7
100
AcDbLine
 10
28.3567025623
 20
425.8573566707
 30
0.0
 11
26.4792211721
 21
426.2280943254
 31
0.0
  0
ELLIPSE
  5
CD
330
69
100
AcDbEntity
  8
$DDT_AUDIT_GENERATED_(AE)
  6
Continuous
 62
     7
100
AcDbEllipse
 10
33.8186684277
 20
424.8183003678
 30
0.0
 11
-6.24999995378997
 21
-1.195890608762795E-8
 31
0.0
210
0.0
220
0.0
230
1.0
 40
0.3420201433
 41
-0.8013988493434914
 42
-0.7693974836952
  0
LINE
  5
CE
330
69
100
AcDbEntity
  8
$DDT_AUDIT_GENERATED_(AE)
  6
Continuous
 62
     7
100
AcDbLine
 10
29.4705274886
 20
426.3538211075
 30
0.0
 11
29.4705274886
 21
427.2076525705
 31
0.0
  0
LINE
  5
CF
330
69
100
AcDbEntity
  8
$DDT_AUDIT_GENERATED_(AE)
  6
Continuous
 62
     7
100
AcDbLine
 10
29.3291061323
 20
426.305452155
 30
0.0
 11
27.8742611077
 21
426.8030384588
 31
0.0
  0
ELLIPSE
  5
D0
330
69
100
AcDbEntity
  8
$DDT_AUDIT_GENERATED_(AE)
  6
Continuous
 62
     7
100
AcDbEllipse
 10
33.8186685069
 20
424.8183003318
 30
0.0
 11
-6.250000044492716
 21
1.194515319991041E-8
 31
0.0
210
0.0
220
0.0
230
1.0
 40
0.3420201443
 41
-1.063198230725217
 42
-1.031196865416717
  0
LINE
  5
D1
330
69
100
AcDbEntity
  8
$DDT_AUDIT_GENERATED_(AE)
  6
Continuous
 62
     7
100
AcDbLine
 10
30.7806710372
 20
426.6864027159
 30
0.0
 11
30.7806710372
 21
427.4186247322
 31
0.0
  0
LINE
  5
D2
330
69
100
AcDbEntity
  8
$DDT_AUDIT_GENERATED_(AE)
  6
Continuous
 62
     7
100
AcDbLine
 10
30.6074659565
 20
426.6522007016
 30
0.0
 11
29.620882037
 21
427.236649331
 31
0.0
  0
ELLIPSE
  5
D3
330
69
100
AcDbEntity
  8
$DDT_AUDIT_GENERATED_(AE)
  6
Continuous
 62
     7
100
AcDbEllipse
 10
33.8186684862
 20
424.8183003339
 30
0.0
 11
-6.250000030760882
 21
5.573819183979367E-9
 31
0.0
210
0.0
220
0.0
230
1.0
 40
0.3420201447
 41
-1.324997620208002
 42
-1.292996254865
  0
LINE
  5
D4
330
69
100
AcDbEntity
  8
$DDT_AUDIT_GENERATED_(AE)
  6
Continuous
 62
     7
100
AcDbLine
 10
32.2978490905
 20
426.8916762355
 30
0.0
 11
32.2978490905
 21
427.5601213974
 31
0.0
  0
LINE
  5
D5
330
69
100
AcDbEntity
  8
$DDT_AUDIT_GENERATED_(AE)
  6
Continuous
 62
     7
100
AcDbLine
 10
32.1046639252
 20
426.8739719701
 30
0.0
 11
31.6077505817
 21
427.508250325
 31
0.0
  0
ARC
  5
D6
330
69
100
AcDbEntity
  8
$DDT_AUDIT_GENERATED_(AE)
  6
Continuous
 62
     7
100
AcDbCircle
 10
33.8186684712
 20
408.6842143074
 30
0.0
 40
18.27171195670157
100
AcDbArc
 50
89.6864220185
 51
90.3135779815
  0
LINE
  5
D7
330
69
100
AcDbEntity
  8
$DDT_AUDIT_GENERATED_(AE)
  6
Continuous
 62
     7
100
AcDbLine
 10
33.9186684712
 20
426.9556526151
 30
0.0
 11
33.9186684712
 21
427.6057405059
 31
0.0
  0
LINE
  5
D8
330
69
100
AcDbEntity
  8
$DDT_AUDIT_GENERATED_(AE)
  6
Continuous
 62
     7
100
AcDbLine
 10
33.7186684712
 20
426.9556526151
 30
0.0
 11
33.7186684712
 21
427.6057405059
 31
0.0
  0
ELLIPSE
  5
D9
330
69
100
AcDbEntity
  8
$DDT_AUDIT_GENERATED_(AE)
  6
Continuous
 62
     7
100
AcDbEllipse
 10
33.8186684563
 20
424.8183003338
 30
0.0
 11
6.25000003080489
 21
5.596273444652411E-9
 31
0.0
210
0.0
220
0.0
230
1.0
 40
0.3420201447
 41
1.292996254863664
 42
1.324997620206484
  0
LINE
  5
DA
330
69
100
AcDbEntity
  8
$DDT_AUDIT_GENERATED_(AE)
  6
Continuous
 62
     7
100
AcDbLine
 10
35.5326730173
 20
426.8739719701
 30
0.0
 11
36.0295863608
 21
427.508250325
 31
0.0
  0
LINE
  5
DB
330
69
100
AcDbEntity
  8
$DDT_AUDIT_GENERATED_(AE)
  6
Continuous
 62
     7
100
AcDbLine
 10
35.339487852
 20
426.8916762355
 30
0.0
 11
35.339487852
 21
427.5601213974
 31
0.0
  0
ELLIPSE
  5
DC
330
69
100
AcDbEntity
  8
$DDT_AUDIT_GENERATED_(AE)
  6
Continuous
 62
     7
100
AcDbEllipse
 10
33.8186684424
 20
424.8183003358
 30
0.0
 11
6.250000036014279
 21
9.671471956629318E-9
 31
0.0
210
0.0
220
0.0
230
1.0
 40
0.3420201441
 41
1.031196866000241
 42
1.063198231343329
  0
LINE
  5
DD
330
69
100
AcDbEntity
  8
$DDT_AUDIT_GENERATED_(AE)
  6
Continuous
 62
     7
100
AcDbLine
 10
37.029870986
 20
426.6522007016
 30
0.0
 11
38.0164549055
 21
427.236649331
 31
0.0
  0
LINE
  5
DE
330
69
100
AcDbEntity
  8
$DDT_AUDIT_GENERATED_(AE)
  6
Continuous
 62
     7
100
AcDbLine
 10
36.8566659053
 20
426.6864027159
 30
0.0
 11
36.8566659053
 21
427.4186247322
 31
0.0
  0
ELLIPSE
  5
DF
330
69
100
AcDbEntity
  8
$DDT_AUDIT_GENERATED_(AE)
  6
Continuous
 62
     7
100
AcDbEllipse
 10
33.8186684302
 20
424.8183003388
 30
0.0
 11
6.250000043546458
 21
1.124676740626995E-8
 31
0.0
210
0.0
220
0.0
230
1.0
 40
0.3420201433
 41
0.7693974777889002
 42
0.8013988431308949
  0
LINE
  5
E0
330
69
100
AcDbEntity
  8
$DDT_AUDIT_GENERATED_(AE)
  6
Continuous
 62
     7
100
AcDbLine
 10
38.3082308101
 20
426.305452155
 30
0.0
 11
39.7630758348
 21
426.8030384588
 31
0.0
  0
LINE
  5
E1
330
69
100
AcDbEntity
  8
$DDT_AUDIT_GENERATED_(AE)
  6
Continuous
 62
     7
100
AcDbLine
 10
38.1668094539
 20
426.3538211075
 30
0.0
 11
38.1668094539
 21
427.2076525705
 31
0.0
  0
ELLIPSE
  5
E2
330
69
100
AcDbEntity
  8
$DDT_AUDIT_GENERATED_(AE)
  6
Continuous
 62
     7
100
AcDbEllipse
 10
33.8186684212
 20
424.818300343
 30
0.0
 11
6.250000050520658
 21
9.695022562539179E-9
 31
0.0
210
0.0
220
0.0
230
1.0
 40
0.3420201425
 41
0.5075980903959402
 42
0.5395994557387602
  0
LINE
  5
E3
330
69
100
AcDbEntity
  8
$DDT_AUDIT_GENERATED_(AE)
  6
Continuous
 62
     7
100
AcDbLine
 10
39.2806343802
 20
425.8573566707
 30
0.0
 11
41.1581157704
 21
426.2280943254
 31
0.0
  0
LINE
  5
E4
330
69
100
AcDbEntity
  8
$DDT_AUDIT_GENERATED_(AE)
  6
Continuous
 62
     7
100
AcDbLine
 10
39.1806343802
 20
425.9165962972
 30
0.0
 11
39.1806343802
 21
426.6038317491
 31
0.0
  0
ELLIPSE
  5
E5
330
69
100
AcDbEntity
  8
$DDT_AUDIT_GENERATED_(AE)
  6
Continuous
 62
     7
100
AcDbEllipse
 10
33.8186689927
 20
424.8183004006
 30
0.0
 11
8.499999478238113
 21
-5.216023446497076E-8
 31
0.0
210
0.0
220
0.0
230
1.0
 40
0.3420201527
 41
0.2500344201764477
 42
0.2735643754997588
  0
ELLIPSE
  5
E6
330
69
100
AcDbEntity
  8
$DDT_AUDIT_GENERATED_(AE)
  6
Continuous
 62
     7
100
AcDbEllipse
 10
33.8186684712
 20
424.8183003529
 30
0.0
 11
8.500000000033108
 21
4.635181127810029E-12
 31
0.0
210
0.0
220
0.0
230
1.0
 40
0.3420201433
 41
0.2735643650865462
 42
0.3425913460266906
  0
ELLIPSE
  5
E7
330
69
100
AcDbEntity
  8
$DDT_AUDIT_GENERATED_(AE)
  6
Continuous
 62
     7
100
AcDbEllipse
 10
33.8186684156
 20
424.8183003478
 30
0.0
 11
6.250000055674119
 21
5.597897145825925E-9
 31
0.0
210
0.0
220
0.0
230
1.0
 40
0.342020142
 41
0.2457987036690248
 42
0.2778000690122155
  0
LINE
  5
E8
330
69
100
AcDbEntity
  8
$DDT_AUDIT_GENERATED_(AE)
  6
Continuous
 62
     7
100
AcDbLine
 10
39.8808139999
 20
425.3384512155
 30
0.0
 11
42.0543516879
 21
425.5376429494
 31
0.0
  0
LINE
  5
E9
330
69
100
AcDbEntity
  8
$DDT_AUDIT_GENERATED_(AE)
  6
Continuous
 62
     7
100
AcDbLine
 10
39.8290501909
 20
425.4045244334
 30
0.0
 11
39.8290501909
 21
425.9656498301
 31
0.0
  0
ARC
  5
EA
330
69
100
AcDbEntity
  8
$DDT_AUDIT_GENERATED_(AE)
  6
Continuous
 62
     7
100
AcDbCircle
 10
41.3238379117
 20
424.8183003529
 30
0.0
 40
0.9948304059787124
100
AcDbArc
 50
358.0297975391
 51
1.9702024609
  0
ELLIPSE
  5
EB
330
69
100
AcDbEntity
  8
$DDT_AUDIT_GENERATED_(AE)
  6
Continuous
 62
     7
100
AcDbEllipse
 10
33.8186684712
 20
424.8183003529
 30
0.0
 11
8.50000000003114
 21
1.040834085586084E-12
 31
0.0
210
0.0
220
0.0
230
1.0
 40
0.3420201433
 41
0.0117649772880459
 42
0.2500344105105503
  0
ARC
  5
EC
330
69
100
AcDbEntity
  8
$DDT_AUDIT_GENERATED_(AE)
  6
Continuous
 62
     7
100
AcDbCircle
 10
39.336850893
 20
424.8183003529
 30
0.0
 40
0.7318171920807631
100
AcDbArc
 50
0.0
 51
2.6787361323
  0
LINE
  5
ED
330
69
100
AcDbEntity
  8
$DDT_AUDIT_GENERATED_(AE)
  6
Continuous
 62
     7
100
AcDbLine
 10
40.0686684712
 20
424.7840983386
 30
0.0
 11
42.3180802156
 21
424.7840983386
 31
0.0
  0
LINE
  5
EE
330
69
100
AcDbEntity
  8
$DDT_AUDIT_GENERATED_(AE)
  6
Continuous
 62
     7
100
AcDbLine
 10
40.06786842
 20
424.8525023672
 30
0.0
 11
40.06786842
 21
425.3555936347
 31
0.0
  0
ELLIPSE
  5
EF
330
69
100
AcDbEntity
  8
$DDT_AUDIT_GENERATED_(AE)
  6
Continuous
 62
     7
100
AcDbEllipse
 10
33.8186689272
 20
424.8183003111
 30
0.0
 11
8.499999543756307
 21
4.575959056118961E-8
 31
0.0
210
0.0
220
0.0
230
1.0
 40
0.3420201515
 41
-0.2735643741976448
 42
-0.2500344189680916
  0
ELLIPSE
  5
F0
330
69
100
AcDbEntity
  8
$DDT_AUDIT_GENERATED_(AE)
  6
Continuous
 62
     7
100
AcDbEllipse
 10
33.8186684712
 20
424.8183003529
 30
0.0
 11
8.500000000026413
 21
-1.360023205165817E-12
 31
0.0
210
0.0
220
0.0
230
1.0
 40
0.3420201433
 41
6.033150896668972
 42
6.271420329891465
  0
LINE
  5
F1
330
69
100
AcDbEntity
  8
$DDT_AUDIT_GENERATED_(AE)
  6
Continuous
 62
     7
100
AcDbLine
 10
42.0543516879
 20
424.0989577564
 30
0.0
 11
42.0543516879
 21
424.7840983386
 31
0.0
  0
LINE
  5
F2
330
69
100
AcDbEntity
  8
$DDT_AUDIT_GENERATED_(AE)
  6
Continuous
 62
     7
100
AcDbLine
 10
39.9528404653
 20
424.2207316339
 30
0.0
 11
42.0025878789
 21
424.0328845384
 31
0.0
  0
ELLIPSE
  5
F3
330
69
100
AcDbEntity
  8
$DDT_AUDIT_GENERATED_(AE)
  6
Continuous
 62
     7
100
AcDbEllipse
 10
33.8186689095
 20
424.8183002663
 30
0.0
 11
8.499999557182718
 21
8.493501735262754E-8
 31
0.0
210
0.0
220
0.0
230
1.0
 40
0.3420201484
 41
-0.5353637695437437
 42
-0.5118338142670273
  0
ELLIPSE
  5
F4
330
69
100
AcDbEntity
  8
$DDT_AUDIT_GENERATED_(AE)
  6
Continuous
 62
     7
100
AcDbEllipse
 10
33.8186684712
 20
424.8183003529
 30
0.0
 11
8.50000000002855
 21
-4.524158825347513E-12
 31
0.0
210
0.0
220
0.0
230
1.0
 40
0.3420201433
 41
-0.5118337983091701
 42
-0.2735643650866315
  0
LINE
  5
F5
330
69
100
AcDbEntity
  8
$DDT_AUDIT_GENERATED_(AE)
  6
Continuous
 62
     7
100
AcDbLine
 10
41.2293749591
 20
423.3944351547
 30
0.0
 11
41.2293749591
 21
424.1037448797
 31
0.0
  0
LINE
  5
F6
330
69
100
AcDbEntity
  8
$DDT_AUDIT_GENERATED_(AE)
  6
Continuous
 62
     7
100
AcDbLine
 10
39.4094684903
 20
423.6748175845
 30
0.0
 11
41.1293749591
 21
423.3351955281
 31
0.0
  0
ELLIPSE
  5
F7
330
69
100
AcDbEntity
  8
$DDT_AUDIT_GENERATED_(AE)
  6
Continuous
 62
     7
100
AcDbEllipse
 10
33.8186688285
 20
424.8183002306
 30
0.0
 11
8.499999621023134
 21
9.789505317492342E-8
 31
0.0
210
0.0
220
0.0
230
1.0
 40
0.3420201433
 41
-0.7971631598332563
 42
-0.773633204557564
  0
ELLIPSE
  5
F8
330
69
100
AcDbEntity
  8
$DDT_AUDIT_GENERATED_(AE)
  6
Continuous
 62
     7
100
AcDbEllipse
 10
33.8186684712
 20
424.8183003529
 30
0.0
 11
8.499999999996803
 21
9.575673587391975E-13
 31
0.0
210
0.0
220
0.0
230
1.0
 40
0.3420201433
 41
-0.7736331861095387
 42
-0.5353637528865063
  0
LINE
  5
F9
330
69
100
AcDbEntity
  8
$DDT_AUDIT_GENERATED_(AE)
  6
Continuous
 62
     7
100
AcDbLine
 10
39.8993708299
 20
422.7869466132
 30
0.0
 11
39.8993708299
 21
423.5780788123
 31
0.0
  0
LINE
  5
FA
330
69
100
AcDbEntity
  8
$DDT_AUDIT_GENERATED_(AE)
  6
Continuous
 62
     7
100
AcDbLine
 10
38.437410381
 20
423.1902286304
 30
0.0
 11
39.7579494737
 21
422.7385776607
 31
0.0
  0
ELLIPSE
  5
FB
330
69
100
AcDbEntity
  8
$DDT_AUDIT_GENERATED_(AE)
  6
Continuous
 62
     7
100
AcDbEllipse
 10
33.8186687072
 20
424.8183002131
 30
0.0
 11
8.499999705082462
 21
7.914933985997408E-8
 31
0.0
210
0.0
220
0.0
230
1.0
 40
0.3420201386
 41
-1.058962544014987
 42
-1.035432588785664
  0
ELLIPSE
  5
FC
330
69
100
AcDbEntity
  8
$DDT_AUDIT_GENERATED_(AE)
  6
Continuous
 62
     7
100
AcDbEllipse
 10
33.8186684712
 20
424.8183003529
 30
0.0
 11
8.49999999999855
 21
8.743006318923107E-13
 31
0.0
210
0.0
220
0.0
230
1.0
 40
0.3420201433
 41
-1.035432573908629
 42
-0.7971631406856288
  0
LINE
  5
FD
330
69
100
AcDbEntity
  8
$DDT_AUDIT_GENERATED_(AE)
  6
Continuous
 62
     7
100
AcDbLine
 10
38.1549768838
 20
422.3178914721
 30
0.0
 11
38.1549768838
 21
423.0909318858
 31
0.0
  0
LINE
  5
FE
330
69
100
AcDbEntity
  8
$DDT_AUDIT_GENERATED_(AE)
  6
Continuous
 62
     7
100
AcDbLine
 10
37.0937827453
 20
422.8097308594
 30
0.0
 11
37.981771803
 21
422.2836894578
 31
0.0
  0
ELLIPSE
  5
FF
330
69
100
AcDbEntity
  8
$DDT_AUDIT_GENERATED_(AE)
  6
Continuous
 62
     7
100
AcDbEllipse
 10
33.8186685886
 20
424.8183002032
 30
0.0
 11
8.49999975810541
 21
4.390991736880068E-8
 31
0.0
210
0.0
220
0.0
230
1.0
 40
0.3420201354
 41
-1.32076192503789
 42
-1.297231969834177
  0
ELLIPSE
  5
100
330
69
100
AcDbEntity
  8
$DDT_AUDIT_GENERATED_(AE)
  6
Continuous
 62
     7
100
AcDbEllipse
 10
33.8186684712
 20
424.8183003529
 30
0.0
 11
8.500000000018737
 21
-4.385380947269368E-12
 31
0.0
210
0.0
220
0.0
230
1.0
 40
0.3420201433
 41
-1.297231961706577
 42
-1.058962528484067
  0
LINE
  5
101
330
69
100
AcDbEntity
  8
$DDT_AUDIT_GENERATED_(AE)
  6
Continuous
 62
     7
100
AcDbLine
 10
36.1150706855
 20
422.0192350641
 30
0.0
 11
36.1150706855
 21
422.6422555769
 31
0.0
  0
LINE
  5
102
330
69
100
AcDbEntity
  8
$DDT_AUDIT_GENERATED_(AE)
  6
Continuous
 62
     7
100
AcDbLine
 10
35.6690386973
 20
422.5885665973
 30
0.0
 11
36.1150706855
 21
422.0192350641
 31
0.0
  0
ARC
  5
103
330
69
100
AcDbEntity
  8
$DDT_AUDIT_GENERATED_(AE)
  6
Continuous
 62
     7
100
AcDbCircle
 10
33.8186684712
 20
446.7619477869
 30
0.0
 40
24.85081865839987
100
AcDbArc
 50
269.7694404561
 51
270.2305595439
  0
ELLIPSE
  5
104
330
69
100
AcDbEntity
  8
$DDT_AUDIT_GENERATED_(AE)
  6
Continuous
 62
     7
100
AcDbEllipse
 10
33.8186684712
 20
424.8183003529
 30
0.0
 11
8.500000000006057
 21
-6.522560269672795E-13
 31
0.0
210
0.0
220
0.0
230
1.0
 40
0.3420201433
 41
4.724153957672971
 42
4.962423390895774
  0
LINE
  5
105
330
69
100
AcDbEntity
  8
$DDT_AUDIT_GENERATED_(AE)
  6
Continuous
 62
     7
100
AcDbLine
 10
33.7186684712
 20
422.4930095666
 30
0.0
 11
33.7186684712
 21
421.9113303299
 31
0.0
  0
LINE
  5
106
330
69
100
AcDbEntity
  8
$DDT_AUDIT_GENERATED_(AE)
  6
Continuous
 62
     7
100
AcDbLine
 10
33.9186684712
 20
422.4930095666
 30
0.0
 11
33.9186684712
 21
421.9113303299
 31
0.0
  0
ELLIPSE
  5
107
330
69
100
AcDbEntity
  8
$DDT_AUDIT_GENERATED_(AE)
  6
Continuous
 62
     7
100
AcDbEllipse
 10
33.8186683533
 20
424.8183002023
 30
0.0
 11
-8.499999756879211
 21
4.414271725927676E-8
 31
0.0
210
0.0
220
0.0
230
1.0
 40
0.3420201354
 41
1.297231969867524
 42
1.320761925074466
  0
ELLIPSE
  5
108
330
69
100
AcDbEntity
  8
$DDT_AUDIT_GENERATED_(AE)
  6
Continuous
 62
     7
100
AcDbEllipse
 10
33.8186684712
 20
424.8183003529
 30
0.0
 11
-8.499999999997693
 21
1.387778780781446E-14
 31
0.0
210
0.0
220
0.0
230
1.0
 40
0.3420201433
 41
1.320761916283831
 42
1.559031349506867
  0
LINE
  5
109
330
69
100
AcDbEntity
  8
$DDT_AUDIT_GENERATED_(AE)
  6
Continuous
 62
     7
100
AcDbLine
 10
31.522266257
 20
422.0192350641
 30
0.0
 11
31.522266257
 21
422.6422555769
 31
0.0
  0
LINE
  5
10A
330
69
100
AcDbEntity
  8
$DDT_AUDIT_GENERATED_(AE)
  6
Continuous
 62
     7
100
AcDbLine
 10
32.1603050594
 20
422.5693582416
 30
0.0
 11
31.7154514223
 21
422.0015307988
 31
0.0
  0
ELLIPSE
  5
10B
330
69
100
AcDbEntity
  8
$DDT_AUDIT_GENERATED_(AE)
  6
Continuous
 62
     7
100
AcDbEllipse
 10
33.818668218
 20
424.818300203
 30
0.0
 11
-8.499999683573723
 21
8.494496772648573E-8
 31
0.0
210
0.0
220
0.0
230
1.0
 40
0.3420201382
 41
1.035432589880238
 42
1.058962545157075
  0
ELLIPSE
  5
10C
330
69
100
AcDbEntity
  8
$DDT_AUDIT_GENERATED_(AE)
  6
Continuous
 62
     7
100
AcDbEllipse
 10
33.8186684712
 20
424.8183003529
 30
0.0
 11
-8.49999999999657
 21
6.106226635438361E-13
 31
0.0
210
0.0
220
0.0
230
1.0
 40
0.3420201433
 41
1.058962528484809
 42
1.297231961707859
  0
LINE
  5
10D
330
69
100
AcDbEntity
  8
$DDT_AUDIT_GENERATED_(AE)
  6
Continuous
 62
     7
100
AcDbLine
 10
29.4823600587
 20
422.3178914721
 30
0.0
 11
29.4823600587
 21
423.0909318858
 31
0.0
  0
LINE
  5
10E
330
69
100
AcDbEntity
  8
$DDT_AUDIT_GENERATED_(AE)
  6
Continuous
 62
     7
100
AcDbLine
 10
30.5435541972
 20
422.8097308594
 30
0.0
 11
29.6555651394
 21
422.2836894578
 31
0.0
  0
ELLIPSE
  5
10F
330
69
100
AcDbEntity
  8
$DDT_AUDIT_GENERATED_(AE)
  6
Continuous
 62
     7
100
AcDbEllipse
 10
33.8186681374
 20
424.8183002387
 30
0.0
 11
-8.499999645961848
 21
9.142243906357095E-8
 31
0.0
210
0.0
220
0.0
230
1.0
 40
0.3420201433
 41
0.7736332033468186
 42
0.7971631585763707
  0
ELLIPSE
  5
110
330
69
100
AcDbEntity
  8
$DDT_AUDIT_GENERATED_(AE)
  6
Continuous
 62
     7
100
AcDbEllipse
 10
33.8186684712
 20
424.8183003529
 30
0.0
 11
-8.499999999981279
 21
4.954370247389761E-12
 31
0.0
210
0.0
220
0.0
230
1.0
 40
0.3420201433
 41
0.7971631406863438
 42
1.035432573909691
  0
LINE
  5
111
330
69
100
AcDbEntity
  8
$DDT_AUDIT_GENERATED_(AE)
  6
Continuous
 62
     7
100
AcDbLine
 10
27.7379661126
 20
422.7869466132
 30
0.0
 11
27.7379661126
 21
423.5780788123
 31
0.0
  0
LINE
  5
112
330
69
100
AcDbEntity
  8
$DDT_AUDIT_GENERATED_(AE)
  6
Continuous
 62
     7
100
AcDbLine
 10
29.1999265615
 20
423.1902286304
 30
0.0
 11
27.8793874688
 21
422.7385776607
 31
0.0
  0
ELLIPSE
  5
113
330
69
100
AcDbEntity
  8
$DDT_AUDIT_GENERATED_(AE)
  6
Continuous
 62
     7
100
AcDbEllipse
 10
33.8186680328
 20
424.8183002664
 30
0.0
 11
-8.499999557009088
 21
8.487335834139742E-8
 31
0.0
210
0.0
220
0.0
230
1.0
 40
0.3420201484
 41
0.5118338142734844
 42
0.535363769550323
  0
ELLIPSE
  5
114
330
69
100
AcDbEntity
  8
$DDT_AUDIT_GENERATED_(AE)
  6
Continuous
 62
     7
100
AcDbEllipse
 10
33.8186684712
 20
424.8183003529
 30
0.0
 11
-8.499999999996396
 21
1.054711873393899E-12
 31
0.0
210
0.0
220
0.0
230
1.0
 40
0.3420201433
 41
0.535363752886522
 42
0.7736331861095614
  0
LINE
  5
115
330
69
100
AcDbEntity
  8
$DDT_AUDIT_GENERATED_(AE)
  6
Continuous
 62
     7
100
AcDbLine
 10
26.4079619834
 20
423.3944351547
 30
0.0
 11
26.4079619834
 21
424.1037448797
 31
0.0
  0
LINE
  5
116
330
69
100
AcDbEntity
  8
$DDT_AUDIT_GENERATED_(AE)
  6
Continuous
 62
     7
100
AcDbLine
 10
28.2278684522
 20
423.6748175845
 30
0.0
 11
26.5079619834
 21
423.3351955281
 31
0.0
  0
ELLIPSE
  5
117
330
69
100
AcDbEntity
  8
$DDT_AUDIT_GENERATED_(AE)
  6
Continuous
 62
     7
100
AcDbEllipse
 10
33.818668016
 20
424.8183003112
 30
0.0
 11
-8.499999544521998
 21
4.557321187093066E-8
 31
0.0
210
0.0
220
0.0
230
1.0
 40
0.3420201515
 41
0.2500344189496954
 42
0.2735643741781365
  0
ELLIPSE
  5
118
330
69
100
AcDbEntity
  8
$DDT_AUDIT_GENERATED_(AE)
  6
Continuous
 62
     7
100
AcDbEllipse
 10
33.8186684713
 20
424.8183003529
 30
0.0
 11
-8.500000000030521
 21
-4.801714581503803E-12
 31
0.0
210
0.0
220
0.0
230
1.0
 40
0.3420201433
 41
0.2735643650865849
 42
0.5118337983090979
  0
LINE
  5
119
330
69
100
AcDbEntity
  8
$DDT_AUDIT_GENERATED_(AE)
  6
Continuous
 62
     7
100
AcDbLine
 10
25.5829852546
 20
424.0989577564
 30
0.0
 11
25.5829852546
 21
424.7840983386
 31
0.0
  0
LINE
  5
11A
330
69
100
AcDbEntity
  8
$DDT_AUDIT_GENERATED_(AE)
  6
Continuous
 62
     7
100
AcDbLine
 10
27.6844964772
 20
424.2207316339
 30
0.0
 11
25.6347490636
 21
424.0328845384
 31
0.0
  0
LINE
  5
11B
330
69
100
AcDbEntity
  8
$DDT_AUDIT_GENERATED_(AE)
  6
Continuous
 62
     7
100
AcDbLine
 10
31.0742423017
 20
425.2911167265
 30
0.0
 11
31.0742423017
 21
424.878153878
 31
0.0
  0
ELLIPSE
  5
11C
330
69
100
AcDbEntity
  8
$DDT_AUDIT_GENERATED_(AE)
  6
Continuous
 62
     7
100
AcDbEllipse
 10
33.8186684712
 20
424.8183003529
 30
0.0
 11
2.749999999995836
 21
0.0
 31
0.0
210
0.0
220
0.0
230
1.0
 40
0.3420201433
 41
3.07791326133271
 42
3.141592653589793
  0
LINE
  5
11D
330
69
100
AcDbEntity
  8
$DDT_AUDIT_GENERATED_(AE)
  6
Continuous
 62
     7
100
AcDbLine
 10
31.0686684712
 20
424.7584468278
 30
0.0
 11
28.5820423501
 21
424.7584468278
 31
0.0
  0
LINE
  5
11E
330
69
100
AcDbEntity
  8
$DDT_AUDIT_GENERATED_(AE)
  6
Continuous
 62
     7
100
AcDbLine
 10
31.5294256896
 20
426.0547321773
 30
0.0
 11
31.5294256896
 21
425.339459542
 31
0.0
  0
ELLIPSE
  5
11F
330
69
100
AcDbEntity
  8
$DDT_AUDIT_GENERATED_(AE)
  6
Continuous
 62
     7
100
AcDbEllipse
 10
33.8186684712
 20
424.8183003529
 30
0.0
 11
-2.749999999991614
 21
-2.692290834716005E-12
 31
0.0
210
0.0
220
0.0
230
1.0
 40
0.3420201433
 41
-0.5872781678565158
 42
-0.4599193833422532
  0
LINE
  5
120
330
69
100
AcDbEntity
  8
$DDT_AUDIT_GENERATED_(AE)
  6
Continuous
 62
     7
100
AcDbLine
 10
31.3544256896
 20
425.2357901956
 30
0.0
 11
29.4299463074
 21
425.6158083286
 31
0.0
  0
LINE
  5
121
330
69
100
AcDbEntity
  8
$DDT_AUDIT_GENERATED_(AE)
  6
Continuous
 62
     7
100
AcDbLine
 10
32.5980098321
 20
426.3767587623
 30
0.0
 11
32.5980098321
 21
425.6611210223
 31
0.0
  0
ELLIPSE
  5
122
330
69
100
AcDbEntity
  8
$DDT_AUDIT_GENERATED_(AE)
  6
Continuous
 62
     7
100
AcDbEllipse
 10
33.8186684713
 20
424.8183003529
 30
0.0
 11
-2.750000000029169
 21
7.327471962526033E-12
 31
0.0
210
0.0
220
0.0
230
1.0
 40
0.3420201433
 41
-1.110876943448435
 42
-0.9835181589354924
  0
LINE
  5
123
330
69
100
AcDbEntity
  8
$DDT_AUDIT_GENERATED_(AE)
  6
Continuous
 62
     7
100
AcDbLine
 10
32.2949009408
 20
425.6012674972
 30
0.0
 11
31.2805263836
 21
426.2021791967
 31
0.0
  0
ARC
  5
124
330
69
100
AcDbEntity
  8
$DDT_AUDIT_GENERATED_(AE)
  6
Continuous
 62
     7
100
AcDbCircle
 10
33.8186684712
 20
417.7327840744
 30
0.0
 40
8.026073381695344
100
AcDbArc
 50
88.7506274138
 51
91.2493725862
  0
LINE
  5
125
330
69
100
AcDbEntity
  8
$DDT_AUDIT_GENERATED_(AE)
  6
Continuous
 62
     7
100
AcDbLine
 10
33.9936684712
 20
425.7569493847
 30
0.0
 11
33.9936684712
 21
426.4249697452
 31
0.0
  0
LINE
  5
126
330
69
100
AcDbEntity
  8
$DDT_AUDIT_GENERATED_(AE)
  6
Continuous
 62
     7
100
AcDbLine
 10
33.6436684712
 20
425.7569493847
 30
0.0
 11
33.6436684712
 21
426.4249697452
 31
0.0
  0
ELLIPSE
  5
127
330
69
100
AcDbEntity
  8
$DDT_AUDIT_GENERATED_(AE)
  6
Continuous
 62
     7
100
AcDbEllipse
 10
33.8186684712
 20
424.8183003529
 30
0.0
 11
2.74999999999593
 21
-1.651456749129920E-12
 31
0.0
210
0.0
220
0.0
230
1.0
 40
0.3420201433
 41
0.9835181589402625
 42
1.110876943454441
  0
LINE
  5
128
330
69
100
AcDbEntity
  8
$DDT_AUDIT_GENERATED_(AE)
  6
Continuous
 62
     7
100
AcDbLine
 10
35.0393271103
 20
426.3767587623
 30
0.0
 11
35.0393271103
 21
425.6611210223
 31
0.0
  0
LINE
  5
129
330
69
100
AcDbEntity
  8
$DDT_AUDIT_GENERATED_(AE)
  6
Continuous
 62
     7
100
AcDbLine
 10
35.3424360017
 20
425.6012674972
 30
0.0
 11
36.3568105589
 21
426.2021791967
 31
0.0
  0
ELLIPSE
  5
12A
330
69
100
AcDbEntity
  8
$DDT_AUDIT_GENERATED_(AE)
  6
Continuous
 62
     7
100
AcDbEllipse
 10
33.8186684712
 20
424.8183003529
 30
0.0
 11
2.750000000004316
 21
1.484923295436147E-12
 31
0.0
210
0.0
220
0.0
230
1.0
 40
0.3420201433
 41
0.4599193833407636
 42
0.5872781678547048
  0
LINE
  5
12B
330
69
100
AcDbEntity
  8
$DDT_AUDIT_GENERATED_(AE)
  6
Continuous
 62
     7
100
AcDbLine
 10
36.1079112529
 20
426.0547321773
 30
0.0
 11
36.1079112529
 21
425.339459542
 31
0.0
  0
LINE
  5
12C
330
69
100
AcDbEntity
  8
$DDT_AUDIT_GENERATED_(AE)
  6
Continuous
 62
     7
100
AcDbLine
 10
36.2829112529
 20
425.2357901956
 30
0.0
 11
38.2073906351
 21
425.6158083286
 31
0.0
  0
ELLIPSE
  5
12D
330
69
100
AcDbEntity
  8
$DDT_AUDIT_GENERATED_(AE)
  6
Continuous
 62
     7
100
AcDbEllipse
 10
33.8186684711
 20
424.8183003529
 30
0.0
 11
-2.750000000097744
 21
1.387778780781446E-14
 31
0.0
210
0.0
220
0.0
230
1.0
 40
0.3420201433
 41
3.141592653589793
 42
3.205272045845709
  0
LINE
  5
12E
330
69
100
AcDbEntity
  8
$DDT_AUDIT_GENERATED_(AE)
  6
Continuous
 62
     7
100
AcDbLine
 10
36.5630946408
 20
425.2911167265
 30
0.0
 11
36.5630946408
 21
424.878153878
 31
0.0
  0
LINE
  5
12F
330
69
100
AcDbEntity
  8
$DDT_AUDIT_GENERATED_(AE)
  6
Continuous
 62
     7
100
AcDbLine
 10
36.5686684712
 20
424.7584468278
 30
0.0
 11
39.0552945924
 21
424.7584468278
 31
0.0
  0
ELLIPSE
  5
130
330
69
100
AcDbEntity
  8
$DDT_AUDIT_GENERATED_(AE)
  6
Continuous
 62
     7
100
AcDbEllipse
 10
33.8186684745
 20
424.8183003523
 30
0.0
 11
5.24999999674331
 21
6.304540223212030E-10
 31
0.0
210
0.0
220
0.0
230
1.0
 40
0.3420201434
 41
-0.5569382850660265
 42
-0.4902592665197751
  0
LINE
  5
131
330
69
100
AcDbEntity
  8
$DDT_AUDIT_GENERATED_(AE)
  6
Continuous
 62
     7
100
AcDbLine
 10
36.3363796352
 20
424.2520265582
 30
0.0
 11
38.2752752317
 21
423.8691617214
 31
0.0
  0
LINE
  5
132
330
69
100
AcDbEntity
  8
$DDT_AUDIT_GENERATED_(AE)
  6
Continuous
 62
     7
100
AcDbLine
 10
38.4502752317
 20
424.7584468278
 30
0.0
 11
38.4502752317
 21
423.9728310679
 31
0.0
  0
ELLIPSE
  5
133
330
69
100
AcDbEntity
  8
$DDT_AUDIT_GENERATED_(AE)
  6
Continuous
 62
     7
100
AcDbEllipse
 10
33.8186684723
 20
424.8183003522
 30
0.0
 11
5.249999998627927
 21
3.709116347394570E-10
 31
0.0
210
0.0
220
0.0
230
1.0
 40
0.3420201433
 41
-1.080537060579408
 42
-1.013858042042842
  0
LINE
  5
134
330
69
100
AcDbEntity
  8
$DDT_AUDIT_GENERATED_(AE)
  6
Continuous
 62
     7
100
AcDbLine
 10
35.2791477419
 20
423.8334108371
 30
0.0
 11
36.2906552869
 21
423.2341975449
 31
0.0
  0
LINE
  5
135
330
69
100
AcDbEntity
  8
$DDT_AUDIT_GENERATED_(AE)
  6
Continuous
 62
     7
100
AcDbLine
 10
36.5937641783
 20
424.2012020109
 30
0.0
 11
36.5937641783
 21
423.29405107
 31
0.0
  0
ARC
  5
136
330
69
100
AcDbEntity
  8
$DDT_AUDIT_GENERATED_(AE)
  6
Continuous
 62
     7
100
AcDbCircle
 10
33.8186684712
 20
438.3651354043
 30
0.0
 40
15.3424410488254
100
AcDbArc
 50
269.3464547907
 51
270.6535452093
  0
LINE
  5
137
330
69
100
AcDbEntity
  8
$DDT_AUDIT_GENERATED_(AE)
  6
Continuous
 62
     7
100
AcDbLine
 10
33.6436684712
 20
423.6917127969
 30
0.0
 11
33.6436684712
 21
423.0236924364
 31
0.0
  0
LINE
  5
138
330
69
100
AcDbEntity
  8
$DDT_AUDIT_GENERATED_(AE)
  6
Continuous
 62
     7
100
AcDbLine
 10
33.9936684712
 20
423.6917127969
 30
0.0
 11
33.9936684712
 21
423.0236924364
 31
0.0
  0
ELLIPSE
  5
139
330
69
100
AcDbEntity
  8
$DDT_AUDIT_GENERATED_(AE)
  6
Continuous
 62
     7
100
AcDbEllipse
 10
33.8186684729
 20
424.8183003539
 30
0.0
 11
-5.250000002031206
 21
-5.436484595833235E-10
 31
0.0
210
0.0
220
0.0
230
1.0
 40
0.3420201434
 41
1.013858041775107
 42
1.080537060277101
  0
LINE
  5
13A
330
69
100
AcDbEntity
  8
$DDT_AUDIT_GENERATED_(AE)
  6
Continuous
 62
     7
100
AcDbLine
 10
32.3581892006
 20
423.8334108371
 30
0.0
 11
31.3466816556
 21
423.2341975449
 31
0.0
  0
LINE
  5
13B
330
69
100
AcDbEntity
  8
$DDT_AUDIT_GENERATED_(AE)
  6
Continuous
 62
     7
100
AcDbLine
 10
31.0435727642
 20
424.2012020109
 30
0.0
 11
31.0435727642
 21
423.29405107
 31
0.0
  0
ELLIPSE
  5
13C
330
69
100
AcDbEntity
  8
$DDT_AUDIT_GENERATED_(AE)
  6
Continuous
 62
     7
100
AcDbEllipse
 10
33.8186684728
 20
424.8183003532
 30
0.0
 11
-5.25000000159272
 21
-2.995798054072907E-10
 31
0.0
210
0.0
220
0.0
230
1.0
 40
0.3420201433
 41
0.4902592662482845
 42
0.5569382847593105
  0
LINE
  5
13D
330
69
100
AcDbEntity
  8
$DDT_AUDIT_GENERATED_(AE)
  6
Continuous
 62
     7
100
AcDbLine
 10
31.3009573072
 20
424.2520265582
 30
0.0
 11
29.3620617108
 21
423.8691617214
 31
0.0
  0
LINE
  5
13E
330
69
100
AcDbEntity
  8
$DDT_AUDIT_GENERATED_(AE)
  6
Continuous
 62
     7
100
AcDbLine
 10
29.1870617108
 20
424.7584468278
 30
0.0
 11
29.1870617108
 21
423.9728310679
 31
0.0
  0
LINE
  5
13F
330
69
100
AcDbEntity
  8
$DDT_AUDIT_GENERATED_(AE)
  6
Continuous
 62
     7
100
AcDbLine
 10
24.8186684712
 20
426.5358950519
 30
0.0
 11
24.8186684712
 21
424.6303618287
 31
0.0
  0
LINE
  5
140
330
69
100
AcDbEntity
  8
$DDT_AUDIT_GENERATED_(AE)
  6
Continuous
 62
     7
100
AcDbLine
 10
42.8186684712
 20
424.6303618287
 30
0.0
 11
42.8186684712
 21
426.5358950519
 31
0.0
  0
LINE
  5
141
330
69
100
AcDbEntity
  8
$DDT_AUDIT_GENERATED_(AE)
  6
Continuous
 62
     7
100
AcDbLine
 10
27.5686684712
 20
424.8183003529
 30
0.0
 11
27.5686684712
 21
424.6303618287
 31
0.0
  0
LINE
  5
142
330
69
100
AcDbEntity
  8
$DDT_AUDIT_GENERATED_(AE)
  6
Continuous
 62
     7
100
AcDbLine
 10
40.0686684712
 20
424.6303618287
 30
0.0
 11
40.0686684712
 21
424.8183003529
 31
0.0
  0
LINE
  5
143
330
69
100
AcDbEntity
  8
$DDT_AUDIT_GENERATED_(AE)
  6
Continuous
 62
     7
100
AcDbLine
 10
31.0686684712
 20
424.8183003529
 30
0.0
 11
31.0686684712
 21
424.6303618287
 31
0.0
  0
LINE
  5
144
330
69
100
AcDbEntity
  8
$DDT_AUDIT_GENERATED_(AE)
  6
Continuous
 62
     7
100
AcDbLine
 10
36.5686684712
 20
424.6303618287
 30
0.0
 11
36.5686684712
 21
424.8183003529
 31
0.0
  0
LINE
  5
145
330
69
100
AcDbEntity
  8
$DDT_AUDIT_GENERATED_(AE)
  6
Continuous
 62
     7
100
AcDbLine
 10
33.2990385273
 20
425.0506844898
 30
0.0
 11
33.2990385273
 21
424.8183003529
 31
0.0
  0
LINE
  5
146
330
69
100
AcDbEntity
  8
$DDT_AUDIT_GENERATED_(AE)
  6
Continuous
 62
     7
100
AcDbLine
 10
34.3382984151
 20
424.8183003529
 30
0.0
 11
34.3382984151
 21
425.1875012564
 31
0.0
  0
LINE
  5
148
330
69
100
AcDbEntity
  8
$DDT_AUDIT_GENERATED_(147)
  6
Continuous
 62
     7
100
AcDbLine
 10
58.3186684712
 20
346.4436261537
 30
0.0
 11
58.3186684712
 21
331.4436261537
 31
0.0
  0
LINE
  5
149
330
69
100
AcDbEntity
  8
$DDT_AUDIT_GENERATED_(147)
  6
Continuous
 62
     7
100
AcDbLine
 10
57.8186684712
 20
346.9436261537
 30
0.0
 11
57.8152171477
 21
346.9436261537
 31
0.0
  0
LINE
  5
14A
330
69
100
AcDbEntity
  8
$DDT_AUDIT_GENERATED_(147)
  6
Continuous
 62
     7
100
AcDbLine
 10
57.8152171477
 20
330.9436261537
 30
0.0
 11
57.8186684712
 21
330.9436261537
 31
0.0
  0
ARC
  5
14B
330
69
100
AcDbEntity
  8
$DDT_AUDIT_GENERATED_(147)
  6
Continuous
 62
     7
100
AcDbCircle
 10
57.8186684712
 20
346.4436261537
 30
0.0
 40
0.5000000000000004
100
AcDbArc
 50
0.0
 51
90.0
  0
ARC
  5
14C
330
69
100
AcDbEntity
  8
$DDT_AUDIT_GENERATED_(147)
  6
Continuous
 62
     7
100
AcDbCircle
 10
57.8186684712
 20
331.4436261537
 30
0.0
 40
0.5000000000000004
100
AcDbArc
 50
270.0
 51
0.0
  0
ARC
  5
14E
330
69
100
AcDbEntity
  8
DV1_Standard
  6
Continuous
 62
     7
100
AcDbCircle
 10
16.6891951947
 20
434.2825116234
 30
0.0
 40
0.8721698391752223
100
AcDbArc
 50
176.6484573687
 51
226.3732621718
  0
ENDBLK
  5
150
330
69
100
AcDbEntity
  8
0
100
AcDbBlockEnd
  0
BLOCK
  5
195
330
151
100
AcDbEntity
  8
0
100
AcDbBlockBegin
  2
SE1
 70
     0
 10
0.0
 20
0.0
 30
0.0
  3
SE1
  1

  0
LINE
  5
153
330
151
100
AcDbEntity
  8
$DDT_AUDIT_GENERATED_(6B)
  6
Continuous
 62
     7
100
AcDbLine
 10
157.9277669801
 20
433.9436261537
 30
0.0
 11
163.1926930052
 21
433.9436261537
 31
0.0
  0
SPLINE
  5
154
330
151
100
AcDbEntity
  8
$DDT_AUDIT_GENERATED_(6B)
  6
Continuous
 62
     7
100
AcDbSpline
210
0.0
220
0.0
230
1.0
 70
     8
 71
     3
 72
    10
 73
     6
 74
     0
 42
0.0000000001299514
 43
0.0000000001
 40
0.0
 40
0.0
 40
0.0
 40
0.0
 40
0.3473124397194434
 40
0.6946248794388881
 40
1.0
 40
1.0
 40
1.0
 40
1.0
 10
170.4267228889538
 20
407.693626206108
 30
0.0
 10
170.4267228889538
 20
413.6405622878971
 30
0.0
 10
174.2556242108676
 20
421.6607421358514
 30
0.0
 10
195.1222107212414
 20
425.6839719261982
 30
0.0
 10
220.8136822039348
 20
425.9227921687731
 30
0.0
 10
235.987806217479
 20
425.9405284394056
 30
0.0
  0
LINE
  5
155
330
151
100
AcDbEntity
  8
$DDT_AUDIT_GENERATED_(6B)
  6
Continuous
 62
     7
100
AcDbLine
 10
147.419184652
 20
318.9436263921
 30
0.0
 11
170.426722889
 21
318.9436261537
 31
0.0
  0
LINE
  5
156
330
151
100
AcDbEntity
  8
$DDT_AUDIT_GENERATED_(6B)
  6
Continuous
 62
     7
100
AcDbLine
 10
147.419184652
 20
318.9436263921
 30
0.0
 11
122.4191774048
 21
318.9436264716
 31
0.0
  0
LINE
  5
157
330
151
100
AcDbEntity
  8
$DDT_AUDIT_GENERATED_(6B)
  6
Continuous
 62
     7
100
AcDbLine
 10
122.4191774048
 20
433.9436261537
 30
0.0
 11
122.4191774048
 21
318.9436264716
 31
0.0
  0
LINE
  5
158
330
151
100
AcDbEntity
  8
$DDT_AUDIT_GENERATED_(6B)
  6
Continuous
 62
     7
100
AcDbLine
 10
122.4191774048
 20
443.4436261537
 30
0.0
 11
122.4191774048
 21
433.9436261537
 31
0.0
  0
LINE
  5
159
330
151
100
AcDbEntity
  8
$DDT_AUDIT_GENERATED_(6B)
  6
Continuous
 62
     7
100
AcDbLine
 10
264.9191821258
 20
443.9436261537
 30
0.0
 11
247.4191774051
 21
443.9436261537
 31
0.0
  0
LINE
  5
15A
330
151
100
AcDbEntity
  8
$DDT_AUDIT_GENERATED_(6B)
  6
Continuous
 62
     7
100
AcDbLine
 10
242.4191311333
 20
443.9436261537
 30
0.0
 11
247.4191774048
 21
443.9436261537
 31
0.0
  0
LINE
  5
15B
330
151
100
AcDbEntity
  8
$DDT_AUDIT_GENERATED_(6B)
  6
Continuous
 62
     7
100
AcDbLine
 10
157.6879790742
 20
443.9436261537
 30
0.0
 11
242.4191311333
 21
443.9436261537
 31
0.0
  0
LINE
  5
15C
330
151
100
AcDbEntity
  8
$DDT_AUDIT_GENERATED_(6B)
  6
Continuous
 62
     7
100
AcDbLine
 10
147.3984630581
 20
443.9436261537
 30
0.0
 11
157.6879167233
 21
443.9436261537
 31
0.0
  0
LINE
  5
15D
330
151
100
AcDbEntity
  8
$DDT_AUDIT_GENERATED_(6B)
  6
Continuous
 62
     7
100
AcDbLine
 10
122.9191774048
 20
443.9436261537
 30
0.0
 11
147.3984626098
 21
443.9436261537
 31
0.0
  0
SPLINE
  5
15E
330
151
100
AcDbEntity
  8
$DDT_AUDIT_GENERATED_(6B)
  6
Continuous
 62
     7
100
AcDbSpline
210
0.0
220
0.0
230
1.0
 70
     8
 71
     3
 72
    10
 73
     6
 74
     0
 42
0.0000000124189131
 43
0.0000000001
 40
0.0
 40
0.0
 40
0.0
 40
0.0
 40
0.5
 40
0.5
 40
1.0
 40
1.0
 40
1.0
 40
1.0
 10
122.9191774047542
 20
443.9436261537313
 30
0.0
 10
122.7882777108546
 20
443.9436261537313
 30
0.0
 10
122.6581840753726
 20
443.8897396055362
 30
0.0
 10
122.4730639529493
 20
443.7046194831129
 30
0.0
 10
122.4191774047542
 20
443.5745258476309
 30
0.0
 10
122.4191774047542
 20
443.4436261537313
 30
0.0
  0
LINE
  5
15F
330
151
100
AcDbEntity
  8
$DDT_AUDIT_GENERATED_(6B)
  6
Continuous
 62
     7
100
AcDbLine
 10
170.426722889
 20
318.9436261537
 30
0.0
 11
170.426722889
 21
329.1436249079
 31
0.0
  0
LINE
  5
160
330
151
100
AcDbEntity
  8
$DDT_AUDIT_GENERATED_(6B)
  6
Continuous
 62
     7
100
AcDbLine
 10
170.426722889
 20
347.7436273996
 30
0.0
 11
170.426722889
 21
407.6936261537
 31
0.0
  0
ARC
  5
161
330
151
100
AcDbEntity
  8
$DDT_AUDIT_GENERATED_(6B)
  6
Continuous
 62
     7
100
AcDbCircle
 10
195.552840485
 20
334.1805242517
 30
0.0
 40
25.62600515983936
100
AcDbArc
 50
179.9707068115
 51
191.3355308628
  0
ARC
  5
162
330
151
100
AcDbEntity
  8
$DDT_AUDIT_GENERATED_(6B)
  6
Continuous
 62
     7
100
AcDbCircle
 10
195.5531652065
 20
342.7066835596
 30
0.0
 40
25.62633229282786
100
AcDbArc
 50
168.8886796505
 51
180.0291931693
  0
LINE
  5
163
330
151
100
AcDbEntity
  8
$DDT_AUDIT_GENERATED_(6B)
  6
Continuous
 62
     7
100
AcDbLine
 10
169.9289238702
 20
334.1936256297
 30
0.0
 11
169.9155223638
 21
334.1936216099
 31
0.0
  0
LINE
  5
164
330
151
100
AcDbEntity
  8
$DDT_AUDIT_GENERATED_(6B)
  6
Continuous
 62
     7
100
AcDbLine
 10
169.9289201024
 20
342.6936265409
 30
0.0
 11
169.915512224
 21
342.6936265846
 31
0.0
  0
SPLINE
  5
165
330
151
100
AcDbEntity
  8
$DDT_AUDIT_GENERATED_(6B)
  6
Continuous
 62
     7
100
AcDbSpline
210
0.0
220
0.0
230
1.0
 70
    12
 71
     2
 72
     6
 73
     3
 74
     0
 42
0.000000035176259
 43
0.0000000001
 40
0.5974212873283792
 40
0.5974212873283792
 40
0.5974212873283792
 40
1.0
 40
1.0
 40
1.0
 10
170.4056593792726
 20
347.6331989866839
 30
0.0
 41
0.8901650429449602
 10
170.4267228889539
 20
347.6864043286032
 30
0.0
 41
0.9267766952966418
 10
170.4267228889539
 20
347.7436273995522
 30
0.0
 41
1.0
  0
SPLINE
  5
166
330
151
100
AcDbEntity
  8
$DDT_AUDIT_GENERATED_(6B)
  6
Continuous
 62
     7
100
AcDbSpline
210
0.0
220
0.0
230
1.0
 70
    11
 71
     3
 72
    22
 73
    18
 74
     0
 42
0.0000000004914766
 43
0.0000000001
 40
0.0
 40
0.0
 40
0.0
 40
0.0
 40
0.125
 40
0.125
 40
0.25
 40
0.25
 40
0.375
 40
0.375
 40
0.5
 40
0.5
 40
0.625
 40
0.625
 40
0.75
 40
0.75
 40
0.875
 40
0.875
 40
1.0
 40
1.0
 40
1.0
 40
1.0
 10
125.2385319302693
 20
329.4436261537314
 30
0.0
 10
125.2385319302693
 20
330.5972228183775
 30
0.0
 10
125.0359640512646
 20
331.7269710045391
 30
0.0
 10
124.3862854099788
 20
333.4437006249487
 30
0.0
 10
123.9521361970612
 20
333.9877318959114
 30
0.0
 10
123.2458427794888
 20
333.9944632804866
 30
0.0
 10
122.9881707041923
 20
333.4544819251386
 30
0.0
 10
122.7005075601181
 20
331.7346452711487
 30
0.0
 10
122.651348205388
 20
330.5897932125778
 30
0.0
 10
122.6509517824696
 20
328.3095937952797
 30
0.0
 10
122.7011836114164
 20
327.1576647615821
 30
0.0
 10
122.9830427700919
 20
325.4544710873514
 30
0.0
 10
123.2374034460573
 20
324.900727322752
 30
0.0
 10
123.9441609725837
 20
324.8916094641656
 30
0.0
 10
124.3832682853392
 20
325.439812888329
 30
0.0
 10
125.0318480760031
 20
327.1452177570855
 30
0.0
 10
125.2385319302693
 20
328.2900294890852
 30
0.0
 10
125.2385319302693
 20
329.4436261537314
 30
0.0
  0
ARC
  5
167
330
151
100
AcDbEntity
  8
$DDT_AUDIT_GENERATED_(6B)
  6
Continuous
 62
     7
100
AcDbCircle
 10
254.2648446235
 20
398.3258975265
 30
0.0
 40
33.11522268304506
100
AcDbArc
 50
110.9596676043
 51
123.4990087016
  0
ARC
  5
168
330
151
100
AcDbEntity
  8
$DDT_AUDIT_GENERATED_(6B)
  6
Continuous
 62
     7
100
AcDbCircle
 10
249.1903629784
 20
409.7280091703
 30
0.0
 40
20.66290958573714
100
AcDbArc
 50
94.9172981682
 51
109.1290926911
  0
ARC
  5
169
330
151
100
AcDbEntity
  8
$DDT_AUDIT_GENERATED_(6B)
  6
Continuous
 62
     7
100
AcDbCircle
 10
214.5174932966
 20
804.4340828364
 30
0.0
 40
375.5631646095015
100
AcDbArc
 50
275.0259119049
 51
277.5015347002
  0
LINE
  5
16A
330
151
100
AcDbEntity
  8
$DDT_AUDIT_GENERATED_(6B)
  6
Continuous
 62
     7
100
AcDbLine
 10
263.5377349119
 20
432.0952980804
 30
0.0
 11
265.1731913414
 21
433.6752234996
 31
0.0
  0
LINE
  5
16B
330
151
100
AcDbEntity
  8
$DDT_AUDIT_GENERATED_(6B)
  6
Continuous
 62
     7
100
AcDbLine
 10
265.4191821258
 20
434.333508577
 30
0.0
 11
265.4191821258
 21
443.4436261537
 31
0.0
  0
ARC
  5
16C
330
151
100
AcDbEntity
  8
$DDT_AUDIT_GENERATED_(6B)
  6
Continuous
 62
     7
100
AcDbCircle
 10
264.4191821252
 20
434.3329051448
 30
0.0
 40
0.999999999987978
100
AcDbArc
 50
316.4574020983
 51
0.0643889652
  0
ARC
  5
16D
330
151
100
AcDbEntity
  8
$DDT_AUDIT_GENERATED_(6B)
  6
Continuous
 62
     7
100
AcDbCircle
 10
264.9191821258
 20
443.4436261537
 30
0.0
 40
0.5000000000000004
100
AcDbArc
 50
0.0
 51
90.0
  0
LINE
  5
16E
330
151
100
AcDbEntity
  8
$DDT_AUDIT_GENERATED_(6B)
  6
Continuous
 62
     7
100
AcDbLine
 10
169.9286998102
 20
334.25268867
 30
0.0
 11
169.9286998102
 21
342.6936267617
 31
0.0
  0
LINE
  5
16F
330
151
100
AcDbEntity
  8
$DDT_AUDIT_GENERATED_(6B)
  6
Continuous
 62
     7
100
AcDbLine
 10
169.9286998102
 20
334.1936261536
 30
0.0
 11
169.9286998102
 21
334.25268867
 31
0.0
  0
LINE
  5
171
330
151
100
AcDbEntity
  8
$DDT_AUDIT_GENERATED_(170)
  6
Continuous
 62
     7
100
AcDbLine
 10
170.3691774048
 20
329.7571708323
 30
0.0
 11
170.3691774048
 21
347.1300912681
 31
0.0
  0
ARC
  5
172
330
151
100
AcDbEntity
  8
$DDT_AUDIT_GENERATED_(170)
  6
Continuous
 62
     7
100
AcDbCircle
 10
170.1688902226
 20
347.1272898246
 30
0.0
 40
0.2002871164964373
100
AcDbArc
 50
0.0818060381
 51
33.8199132715
  0
ARC
  5
173
330
151
100
AcDbEntity
  8
$DDT_AUDIT_GENERATED_(170)
  6
Continuous
 62
     7
100
AcDbCircle
 10
170.1688902214
 20
329.7599624919
 30
0.0
 40
0.2002871163368121
100
AcDbArc
 50
326.1800878919
 51
359.9181939313
  0
LINE
  5
174
330
151
100
AcDbEntity
  8
02636038_GEHÄUSE
  6
Continuous
 62
     7
100
AcDbLine
 10
261.3280442965
 20
428.6829554178
 30
0.0
 11
241.1246529496
 21
421.3295223363
 31
0.0
  0
SPLINE
  5
175
330
151
100
AcDbEntity
  8
02636038_GEHÄUSE
  6
Continuous
 62
     7
100
AcDbSpline
210
0.0
220
0.0
230
1.0
 70
     8
 71
     3
 72
    10
 73
     6
 74
     0
 42
0.0000000019260148
 43
0.0000000001
 40
0.0
 40
0.0
 40
0.0
 40
0.0
 40
0.5
 40
0.5
 40
1.0
 40
1.0
 40
1.0
 40
1.0
 10
253.5482608290299
 20
426.1892676344898
 30
0.0
 10
252.7769254143272
 20
425.7872543189464
 30
0.0
 10
251.9869484339358
 20
425.4366646383564
 30
0.0
 10
250.3665960819147
 20
424.8469261378009
 30
0.0
 10
249.5362212544535
 20
424.6077758167208
 30
0.0
 10
248.6872244530158
 20
424.4199950859353
 30
0.0
  0
LINE
  5
176
330
151
100
AcDbEntity
  8
02636038_GEHÄUSE
  6
Continuous
 62
     7
100
AcDbLine
 10
254.213556851
 20
429.286027073
 30
0.0
 11
246.1870195351
 21
426.3646064058
 31
0.0
  0
LINE
  5
177
330
151
100
AcDbEntity
  8
02636038_GEHÄUSE
  6
Continuous
 62
     7
100
AcDbLine
 10
254.213556851
 20
429.286027073
 30
0.0
 11
254.8348131663
 21
427.5791393752
 31
0.0
  0
SPLINE
  5
178
330
151
100
AcDbEntity
  8
02636038_GEHÄUSE
  6
Continuous
 62
     7
100
AcDbSpline
210
0.0
220
0.0
230
1.0
 70
     8
 71
     3
 72
    14
 73
    10
 74
     0
 42
0.0000000049320844
 43
0.0000000001
 40
0.0
 40
0.0
 40
0.0
 40
0.0
 40
0.1249999999999997
 40
0.1249999999999997
 40
0.2499999999999994
 40
0.2499999999999994
 40
0.4999999999999996
 40
0.4999999999999996
 40
1.0
 40
1.0
 40
1.0
 40
1.0
 10
254.8348131662919
 20
427.5791393751856
 30
0.0
 10
254.8636882822061
 20
427.4998056462271
 30
0.0
 10
254.8621977075593
 20
427.409827362739
 30
0.0
 10
254.819758576854
 20
427.2462690515916
 30
0.0
 10
254.7806066587639
 20
427.169210587622
 30
0.0
 10
254.642147623957
 20
426.9580052624278
 30
0.0
 10
254.5199838204597
 20
426.8375694637002
 30
0.0
 10
254.136189870443
 20
426.5155275440783
 30
0.0
 10
253.8445006926613
 20
426.3436652772073
 30
0.0
 10
253.5482608290299
 20
426.1892676344898
 30
0.0
  0
SPLINE
  5
179
330
151
100
AcDbEntity
  8
02636038_GEHÄUSE
  6
Continuous
 62
     7
100
AcDbSpline
210
0.0
220
0.0
230
1.0
 70
     8
 71
     3
 72
    14
 73
    10
 74
     0
 42
0.0000000049319876
 43
0.0000000001
 40
0.0
 40
0.0
 40
0.0
 40
0.0
 40
0.4999999999999996
 40
0.4999999999999996
 40
0.7499999999999993
 40
0.7499999999999993
 40
0.8749999999999997
 40
0.8749999999999997
 40
1.0
 40
1.0
 40
1.0
 40
1.0
 10
248.6872244530158
 20
424.4199950859353
 30
0.0
 10
248.3596470528445
 20
424.3475416638627
 30
0.0
 10
248.0283830870173
 20
424.2919570708413
 30
0.0
 10
247.5248381771722
 20
424.2920387054827
 30
0.0
 10
247.3552708999327
 20
424.3058931112595
 30
0.0
 10
247.1149424301783
 20
424.3779481792819
 30
0.0
 10
247.0349573092324
 20
424.4117325466569
 30
0.0
 10
246.8964740385196
 20
424.50999893241
 30
0.0
 10
246.8372878776954
 20
424.5780088177752
 30
0.0
 10
246.8082758503018
 20
424.6577187079383
 30
0.0
  0
LINE
  5
17A
330
151
100
AcDbEntity
  8
02636038_GEHÄUSE
  6
Continuous
 62
     7
100
AcDbLine
 10
246.8082758503
 20
424.6577187079
 30
0.0
 11
246.1870195351
 21
426.3646064058
 31
0.0
  0
LINE
  5
17B
330
151
100
AcDbEntity
  8
02636038_GEHÄUSE
  6
Continuous
 62
     7
100
AcDbLine
 10
240.4992160261
 20
421.4398037406
 30
0.0
 11
241.1246529496
 21
421.3295223363
 31
0.0
  0
LINE
  5
17C
330
151
100
AcDbEntity
  8
02636038_GEHÄUSE
  6
Continuous
 62
     7
100
AcDbLine
 10
261.3280442965
 20
428.6829554178
 30
0.0
 11
261.7362692559
 21
429.1694589798
 31
0.0
  0
ARC
  5
17D
330
151
100
AcDbEntity
  8
02636038_GEHÄUSE
  6
Continuous
 62
     7
100
AcDbCircle
 10
260.9702248128
 20
429.8122465895
 30
0.0
 40
1.000000000000004
100
AcDbArc
 50
320.0
 51
20.0
  0
ARC
  5
17E
330
151
100
AcDbEntity
  8
02636038_GEHÄUSE
  6
Continuous
 62
     7
100
AcDbCircle
 10
240.6728642038
 20
422.4246114936
 30
0.0
 40
0.9999999999999931
100
AcDbArc
 50
200.0
 51
260.0
  0
LINE
  5
17F
330
151
100
AcDbEntity
  8
02636038_GEHÄUSE
  6
Continuous
 62
     7
100
AcDbLine
 10
237.9207629667
 20
427.0621430986
 30
0.0
 11
239.733171583
 21
422.0825913503
 31
0.0
  0
LINE
  5
180
330
151
100
AcDbEntity
  8
02636038_GEHÄUSE
  6
Continuous
 62
     7
100
AcDbLine
 10
261.9099174336
 20
430.1542667328
 30
0.0
 11
261.3106240665
 21
431.8008117263
 31
0.0
  0
LINE
  5
181
330
151
100
AcDbEntity
  8
$DDT_AUDIT_GENERATED_(AE)
  6
Continuous
 62
     7
100
AcDbLine
 10
259.8203902674
 20
427.7085431187
 30
0.0
 11
242.9059230933
 21
421.5521805388
 31
0.0
  0
LINE
  5
182
330
151
100
AcDbEntity
  8
$DDT_AUDIT_GENERATED_(AE)
  6
Continuous
 62
     7
100
AcDbLine
 10
242.7691150359
 20
421.9280575871
 30
0.0
 11
242.9059230933
 21
421.5521805388
 31
0.0
  0
LINE
  5
183
330
151
100
AcDbEntity
  8
$DDT_AUDIT_GENERATED_(AE)
  6
Continuous
 62
     7
100
AcDbLine
 10
259.8203902674
 20
427.7085431187
 30
0.0
 11
259.6835822101
 21
428.084420167
 31
0.0
  0
ELLIPSE
  5
185
330
151
100
AcDbEntity
  8
$DDT_AUDIT_GENERATED_(184)
  6
Continuous
 62
     7
100
AcDbEllipse
 10
124.0693492718
 20
329.4436261537
 30
0.0
 11
0.0
 21
-3.999999999999999
 31
0.0
210
0.0
220
0.0
230
1.0
 40
0.3090169944
 41
0.0
 42
0.2387783133352724
  0
ELLIPSE
  5
186
330
151
100
AcDbEntity
  8
$DDT_AUDIT_GENERATED_(184)
  6
Continuous
 62
     7
100
AcDbEllipse
 10
124.0693492718
 20
329.4436261537
 30
0.0
 11
0.0
 21
-3.999999999999999
 31
0.0
210
0.0
220
0.0
230
1.0
 40
0.3090169944
 41
3.141592653589793
 42
6.283185307179586
  0
SPLINE
  5
187
330
151
100
AcDbEntity
  8
$DDT_AUDIT_GENERATED_(184)
  6
Continuous
 62
     7
100
AcDbSpline
210
0.0
220
0.0
230
1.0
 70
     8
 71
     3
 72
    10
 73
     6
 74
     0
 42
0.000000009988253
 43
0.0000000001
 40
0.0
 40
0.0
 40
0.0
 40
0.0
 40
0.2500000000000006
 40
0.2500000000000006
 40
0.3516551833421064
 40
0.3516551833421064
 40
0.3516551833421064
 40
0.3516551833421064
 10
124.0693492718181
 20
330.8870018267054
 30
0.0
 10
124.1033261311782
 20
330.8244723881448
 30
0.0
 10
124.1616380177655
 20
330.7641369901238
 30
0.0
 10
124.2527675302216
 20
330.6802265938505
 30
0.0
 10
124.2803948424507
 20
330.6561963157782
 30
0.0
 10
124.3078449742015
 20
330.6321348182969
 30
0.0
  0
SPLINE
  5
188
330
151
100
AcDbEntity
  8
$DDT_AUDIT_GENERATED_(184)
  6
Continuous
 62
     7
100
AcDbSpline
210
0.0
220
0.0
230
1.0
 70
     8
 71
     3
 72
    18
 73
    14
 74
     0
 42
0.0000000114222134
 43
0.0000000001
 40
0.0
 40
0.0
 40
0.0
 40
0.0
 40
0.2499999999999992
 40
0.2499999999999992
 40
0.3749999999999991
 40
0.3749999999999991
 40
0.499999999999999
 40
0.499999999999999
 40
0.6249999999999989
 40
0.6249999999999989
 40
0.7499999999999989
 40
0.7499999999999989
 40
1.0
 40
1.0
 40
1.0
 40
1.0
 10
123.6830780288495
 20
330.1653139902184
 30
0.0
 10
123.7170549225228
 20
330.2278434919401
 30
0.0
 10
123.7753668916962
 20
330.2881789497755
 30
0.0
 10
123.872546204509
 20
330.3776598690898
 30
0.0
 10
123.9068806527359
 20
330.4071447751019
 30
0.0
 10
123.973999020681
 20
330.4663877920763
 30
0.0
 10
124.0088869630017
 20
330.4961637273235
 30
0.0
 10
124.0412799726972
 20
330.558622862267
 30
0.0
 10
124.0379023632898
 20
330.5880220389798
 30
0.0
 10
124.0341253677431
 20
330.646757995971
 30
0.0
 10
124.0314382801169
 20
330.6760385751074
 30
0.0
 10
124.0302078264134
 20
330.7646058680717
 30
0.0
 10
124.0363445304092
 20
330.8243853302523
 30
0.0
 10
124.0693492718181
 20
330.8870018267054
 30
0.0
  0
SPLINE
  5
189
330
151
100
AcDbEntity
  8
$DDT_AUDIT_GENERATED_(184)
  6
Continuous
 62
     7
100
AcDbSpline
210
0.0
220
0.0
230
1.0
 70
     8
 71
     3
 72
    20
 73
    16
 74
     0
 42
0.0000000067444267
 43
0.0000000001
 40
0.0
 40
0.0
 40
0.0
 40
0.0
 40
0.2500000000000001
 40
0.2500000000000001
 40
0.3750000000000006
 40
0.3750000000000006
 40
0.4375000000000007
 40
0.4375000000000007
 40
0.5000000000000009
 40
0.5000000000000009
 40
0.625000000000001
 40
0.625000000000001
 40
0.7500000000000011
 40
0.7500000000000011
 40
1.0
 40
1.0
 40
1.0
 40
1.0
 10
123.6830780288495
 20
328.7219383172443
 30
0.0
 10
123.6835933131148
 20
328.8485216123956
 30
0.0
 10
123.7109614135598
 20
328.9740557259214
 30
0.0
 10
123.7620027034239
 20
329.1571085730336
 30
0.0
 10
123.7812411032799
 20
329.2175292443828
 30
0.0
 10
123.8080977601454
 20
329.3086917835996
 30
0.0
 10
123.8167675453609
 20
329.33915344646
 30
0.0
 10
123.8294333467014
 20
329.4013038174668
 30
0.0
 10
123.8326324776311
 20
329.4345510726524
 30
0.0
 10
123.8264536708819
 20
329.524326505201
 30
0.0
 10
123.8075710171198
 20
329.5813904088103
 30
0.0
 10
123.7729385662307
 20
329.6959864936978
 30
0.0
 10
123.7552096097991
 20
329.7531917346607
 30
0.0
 10
123.7082860993457
 20
329.9262157573726
 30
0.0
 10
123.6835758164375
 20
330.0430428157313
 30
0.0
 10
123.6830780288495
 20
330.1653139902184
 30
0.0
  0
SPLINE
  5
18A
330
151
100
AcDbEntity
  8
$DDT_AUDIT_GENERATED_(184)
  6
Continuous
 62
     7
100
AcDbSpline
210
0.0
220
0.0
230
1.0
 70
     8
 71
     3
 72
    18
 73
    14
 74
     0
 42
0.0000000114220431
 43
0.0000000001
 40
0.0
 40
0.0
 40
0.0
 40
0.0
 40
0.2500000000000003
 40
0.2500000000000003
 40
0.3750000000000004
 40
0.3750000000000004
 40
0.5000000000000004
 40
0.5000000000000004
 40
0.6250000000000004
 40
0.6250000000000004
 40
0.7500000000000006
 40
0.7500000000000006
 40
1.0
 40
1.0
 40
1.0
 40
1.0
 10
124.0693492718181
 20
328.0002504807572
 30
0.0
 10
124.036390443061
 20
328.062779982479
 30
0.0
 10
124.0301153397776
 20
328.1231154403144
 30
0.0
 10
124.0315083467168
 20
328.2125963596287
 30
0.0
 10
124.0342801976038
 20
328.2420812656408
 30
0.0
 10
124.0379809141851
 20
328.3013242826152
 30
0.0
 10
124.0409947221861
 20
328.3311002178624
 30
0.0
 10
124.0065273347138
 20
328.3935593528059
 30
0.0
 10
123.9716788982896
 20
328.4229585295187
 30
0.0
 10
123.9050270419877
 20
328.4816944865099
 30
0.0
 10
123.8709960820497
 20
328.5109750656463
 30
0.0
 10
123.7749573286631
 20
328.5995423586106
 30
0.0
 10
123.7171021347965
 20
328.6593218207911
 30
0.0
 10
123.6830780288495
 20
328.7219383172443
 30
0.0
  0
SPLINE
  5
18B
330
151
100
AcDbEntity
  8
$DDT_AUDIT_GENERATED_(184)
  6
Continuous
 62
     7
100
AcDbSpline
210
0.0
220
0.0
230
1.0
 70
     8
 71
     3
 72
    10
 73
     6
 74
     0
 42
0.000000010266217
 43
0.0000000001
 40
0.7244507789429623
 40
0.7244507789429623
 40
0.7244507789429623
 40
0.7244507789429623
 40
0.7499999999999996
 40
0.7499999999999996
 40
1.0
 40
1.0
 40
1.0
 40
1.0
 10
124.2451137999396
 20
328.1997664041895
 30
0.0
 10
124.2384251964063
 20
328.193749599415
 30
0.0
 10
124.2317976481304
 20
328.1877255022908
 30
0.0
 10
124.1612285716318
 20
328.122646439391
 30
0.0
 10
124.1033733777652
 20
328.0628669772104
 30
0.0
 10
124.0693492718181
 20
328.0002504807572
 30
0.0
  0
SPLINE
  5
18C
330
151
100
AcDbEntity
  8
$DDT_AUDIT_GENERATED_(184)
  6
Continuous
 62
     7
100
AcDbSpline
210
0.0
220
0.0
230
1.0
 70
     8
 71
     3
 72
     8
 73
     4
 74
     0
 42
0.0000000065781024
 43
0.0000000001
 40
0.0
 40
0.0
 40
0.0
 40
0.0
 40
0.1043304929683252
 40
0.1043304929683252
 40
0.1043304929683252
 40
0.1043304929683252
 10
124.4556273026881
 20
330.1653139902141
 30
0.0
 10
124.4558395299264
 20
330.1124878783063
 30
0.0
 10
124.4607295557829
 20
330.059844545585
 30
0.0
 10
124.4688292371482
 20
330.007562012126
 30
0.0
  0
SPLINE
  5
18D
330
151
100
AcDbEntity
  8
$DDT_AUDIT_GENERATED_(184)
  6
Continuous
 62
     7
100
AcDbSpline
210
0.0
220
0.0
230
1.0
 70
     8
 71
     3
 72
     8
 73
     4
 74
     0
 42
0.0000000068971201
 43
0.0000000001
 40
0.8959889962572379
 40
0.8959889962572379
 40
0.8959889962572379
 40
0.8959889962572379
 40
1.0
 40
1.0
 40
1.0
 40
1.0
 10
124.467544466732
 20
328.8720074854548
 30
0.0
 10
124.460225720416
 20
328.8227363405329
 30
0.0
 10
124.4558276162905
 20
328.7728084968675
 30
0.0
 10
124.4556205147868
 20
328.7219383172443
 30
0.0
  0
LINE
  5
18E
330
151
100
AcDbEntity
  8
$DDT_AUDIT_GENERATED_(184)
  6
Continuous
 62
     7
100
AcDbLine
 10
124.4400675761
 20
328.7219383172
 30
0.0
 11
123.6830780288
 21
328.7219383172
 31
0.0
  0
LINE
  5
18F
330
151
100
AcDbEntity
  8
$DDT_AUDIT_GENERATED_(184)
  6
Continuous
 62
     7
100
AcDbLine
 10
124.4556273027
 20
330.1653139902
 30
0.0
 11
123.6830780288
 21
330.1653139902
 31
0.0
  0
SPLINE
  5
190
330
151
100
AcDbEntity
  8
$DDT_AUDIT_GENERATED_(184)
  6
Continuous
 62
     7
100
AcDbSpline
210
0.0
220
0.0
230
1.0
 70
     8
 71
     3
 72
    11
 73
     7
 74
     0
 42
0.0000000140037458
 43
0.0000000001
 40
0.0
 40
0.0
 40
0.0
 40
0.0
 40
0.2118242486297548
 40
0.5227670562106534
 40
0.7904250151471136
 40
1.0
 40
1.0
 40
1.0
 40
1.0
 10
124.4642584692677
 20
328.8735096359148
 30
0.0
 10
124.4526945490302
 20
328.79063376623
 30
0.0
 10
124.4274434047028
 20
328.6167580739798
 30
0.0
 10
124.3619276898213
 20
328.3954248910052
 30
0.0
 10
124.2846592516893
 20
328.2412100329999
 30
0.0
 10
124.2604842499739
 20
328.2163219853421
 30
0.0
 10
124.248083999444
 20
328.2051299518132
 30
0.0
  0
ARC
  5
191
330
151
100
AcDbEntity
  8
$DDT_AUDIT_GENERATED_(184)
  6
Continuous
 62
     7
100
AcDbCircle
 10
121.6643603416
 20
329.3568932161
 30
0.0
 40
2.841318217124677
100
AcDbArc
 50
350.20482473
 51
2.953662451
  0
ARC
  5
192
330
151
100
AcDbEntity
  8
$DDT_AUDIT_GENERATED_(184)
  6
Continuous
 62
     7
100
AcDbCircle
 10
121.5607696926
 20
329.5502246747
 30
0.0
 40
2.941508557373337
100
AcDbArc
 50
359.0859750031
 51
8.941976537
  0
LINE
  5
194
330
151
100
AcDbEntity
  8
DV2_Standard
  6
Continuous
 62
     7
100
AcDbLine
 10
163.1926930052
 20
433.9436261537
 30
0.0
 11
263.1687388921
 21
433.9436261537
 31
0.0
  0
ENDBLK
  5
196
330
151
100
AcDbEntity
  8
0
100
AcDbBlockEnd
  0
BLOCK
  5
1AB
330
197
100
AcDbEntity
  8
0
100
AcDbBlockBegin
  2
SE2
 70
     0
 10
0.0
 20
0.0
 30
0.0
  3
SE2
  1

  0
SPLINE
  5
199
330
197
100
AcDbEntity
  8
$DDT_AUDIT_GENERATED_(6B)
  6
Continuous
 62
     7
100
AcDbSpline
210
0.0
220
0.0
230
1.0
 70
     8
 71
     3
 72
    18
 73
    14
 74
     0
 42
0.0000000002573618
 43
0.0000000001
 40
0.0
 40
0.0
 40
0.0
 40
0.0
 40
0.2500000000000001
 40
0.2500000000000001
 40
0.3750000000000001
 40
0.3750000000000001
 40
0.5000000000000001
 40
0.5000000000000001
 40
0.6250000000000001
 40
0.6250000000000001
 40
0.7500000000000002
 40
0.7500000000000002
 40
1.0
 40
1.0
 40
1.0
 40
1.0
 10
9.842713848341408
 20
224.3499986015103
 30
0.0
 10
9.708028511047882
 20
227.5975509248287
 30
0.0
 10
10.24563734145052
 20
230.8584719156768
 30
0.0
 10
11.95207996180707
 20
235.3545658163924
 30
0.0
 10
12.68165852864269
 20
236.81598037292
 30
0.0
 10
14.4061494829797
 20
239.5402283834912
 30
0.0
 10
15.39471518872868
 20
240.8015414188163
 30
0.0
 10
17.62294931165033
 20
243.1237727610627
 30
0.0
 10
18.86983016450699
 20
244.1847481639292
 30
0.0
 10
21.50916099958307
 20
246.0082724997612
 30
0.0
 10
22.91335448273128
 20
246.785249871511
 30
0.0
 10
27.38863147493626
 20
248.6972974457038
 30
0.0
 10
30.5675604232101
 20
249.3500047210489
 30
0.0
 10
33.81866847124453
 20
249.3500047210489
 30
0.0
  0
SPLINE
  5
19A
330
197
100
AcDbEntity
  8
$DDT_AUDIT_GENERATED_(6B)
  6
Continuous
 62
     7
100
AcDbSpline
210
0.0
220
0.0
230
1.0
 70
     8
 71
     3
 72
    18
 73
    14
 74
     0
 42
0.0000000002573618
 43
0.0000000001
 40
0.0
 40
0.0
 40
0.0
 40
0.0
 40
0.2499999999999999
 40
0.2499999999999999
 40
0.3749999999999999
 40
0.3749999999999999
 40
0.4999999999999999
 40
0.4999999999999999
 40
0.6249999999999999
 40
0.6249999999999999
 40
0.7499999999999999
 40
0.7499999999999999
 40
1.0
 40
1.0
 40
1.0
 40
1.0
 10
33.81866847124453
 20
249.3500047210489
 30
0.0
 10
37.06902346968459
 20
249.3500006517673
 30
0.0
 10
40.30469230348545
 20
248.6764639428591
 30
0.0
 10
44.72538624943351
 20
246.7830913182588
 30
0.0
 10
46.15497870029113
 20
245.9928825612686
 30
0.0
 10
48.80456776956184
 20
244.1559381039008
 30
0.0
 10
50.02345632430532
 20
243.1155061935881
 30
0.0
 10
52.2505784194231
 20
240.7920553300761
 30
0.0
 10
53.25843945655635
 20
239.5019574237398
 30
0.0
 10
54.96983391144602
 20
236.7887213202588
 30
0.0
 10
55.68729774483974
 20
235.3532106263723
 30
0.0
 10
57.41021380016602
 20
230.8015680718489
 30
0.0
 10
57.92934054891697
 20
227.598227165499
 30
0.0
 10
57.7947453572675
 20
224.3499935150664
 30
0.0
  0
ARC
  5
19B
330
197
100
AcDbEntity
  8
$DDT_AUDIT_GENERATED_(6B)
  6
Continuous
 62
     7
100
AcDbCircle
 10
33.8146803484
 20
225.3448221658
 30
0.0
 40
23.99261074948731
100
AcDbArc
 50
182.3763800912
 51
208.6495550077
  0
ARC
  5
19C
330
197
100
AcDbEntity
  8
$DDT_AUDIT_GENERATED_(6B)
  6
Continuous
 62
     7
100
AcDbCircle
 10
33.8131175462
 20
225.3474872359
 30
0.0
 40
24.00249694254001
100
AcDbArc
 50
331.3557794442
 51
357.6182077434
  0
SPLINE
  5
19D
330
197
100
AcDbEntity
  8
$DDT_AUDIT_GENERATED_(6B)
  6
Continuous
 62
     7
100
AcDbSpline
210
0.0
220
0.0
230
1.0
 70
     8
 71
     3
 72
    18
 73
    14
 74
     0
 42
0.0000000001175944
 43
0.0000000001
 40
0.0
 40
0.0
 40
0.0
 40
0.0
 40
0.4999999999999998
 40
0.4999999999999998
 40
0.7499999999999997
 40
0.7499999999999997
 40
0.8749999999999996
 40
0.8749999999999996
 40
0.9062499999999997
 40
0.9062499999999997
 40
0.9374999999999998
 40
0.9374999999999998
 40
1.0
 40
1.0
 40
1.0
 40
1.0
 10
15.81866847124453
 20
129.3500047210489
 30
0.0
 10
15.8173577614786
 20
143.5132805372683
 30
0.0
 10
15.81905278474735
 20
157.6765576428959
 30
0.0
 10
15.80709657964348
 20
178.9214675456675
 30
0.0
 10
15.8092358445136
 20
186.0033567364204
 30
0.0
 10
15.73937612086051
 20
196.6246179166429
 30
0.0
 10
15.73152875989784
 20
200.1653586746604
 30
0.0
 10
15.51963277535055
 20
204.5870913092804
 30
0.0
 10
15.46486670398636
 20
205.471180807815
 30
0.0
 10
15.27876840551115
 20
207.2377710525498
 30
0.0
 10
15.1440028156256
 20
208.1279472475529
 30
0.0
 10
14.45477082275679
 20
210.7071751069606
 30
0.0
 10
13.61153262070942
 20
212.2810065071975
 30
0.0
 10
12.75940370135434
 20
213.8414775282293
 30
0.0
  0
SPLINE
  5
19E
330
197
100
AcDbEntity
  8
$DDT_AUDIT_GENERATED_(6B)
  6
Continuous
 62
     7
100
AcDbSpline
210
0.0
220
0.0
230
1.0
 70
     8
 71
     3
 72
    16
 73
    12
 74
     0
 42
0.0000000001175774
 43
0.0000000001
 40
0.0
 40
0.0
 40
0.0
 40
0.0
 40
0.0625000000000001
 40
0.0625000000000001
 40
0.1250000000000002
 40
0.1250000000000002
 40
0.2500000000000002
 40
0.2500000000000002
 40
0.5
 40
0.5
 40
1.0
 40
1.0
 40
1.0
 40
1.0
 10
54.87803728987881
 20
213.8414206617037
 30
0.0
 10
54.03178160352754
 20
212.2919505705183
 30
0.0
 10
53.19253182736776
 20
210.7276532051848
 30
0.0
 10
52.26923001293223
 20
207.3058424413239
 30
0.0
 10
52.1635764722731
 20
205.5211465489159
 30
0.0
 10
51.90590723475906
 20
200.2128462968824
 30
0.0
 10
51.89838221069991
 20
196.6677871131928
 30
0.0
 10
51.82806360141558
 20
186.0390933772956
 30
0.0
 10
51.83026853200568
 20
178.9527962694668
 30
0.0
 10
51.81827321684379
 20
157.6944604212065
 30
0.0
 10
51.81998000938974
 20
143.5222318434384
 30
0.0
 10
51.81866847124453
 20
129.3500047210489
 30
0.0
  0
LINE
  5
19F
330
197
100
AcDbEntity
  8
$DDT_AUDIT_GENERATED_(6B)
  6
Continuous
 62
     7
100
AcDbLine
 10
15.8186684712
 20
124.350004721
 30
0.0
 11
15.8186684712
 21
129.350004721
 31
0.0
  0
LINE
  5
1A0
330
197
100
AcDbEntity
  8
$DDT_AUDIT_GENERATED_(6B)
  6
Continuous
 62
     7
100
AcDbLine
 10
51.8186684712
 20
129.350004721
 30
0.0
 11
51.8186684712
 21
124.350004721
 31
0.0
  0
ARC
  5
1A1
330
197
100
AcDbEntity
  8
$DDT_AUDIT_GENERATED_(6B)
  6
Continuous
 62
     7
100
AcDbCircle
 10
33.8186243243
 20
124.3501072348
 30
0.0
 40
18.00010723480507
100
AcDbArc
 50
180.0003263122
 51
359.9996736894
  0
ARC
  5
1A3
330
197
100
AcDbEntity
  8
$DDT_AUDIT_GENERATED_(1A2)
  6
Continuous
 62
     7
100
AcDbCircle
 10
21.8186684712
 20
225.350004721
 30
0.0
 40
12.0
100
AcDbArc
 50
180.0
 51
182.0513137094
  0
ARC
  5
1A5
330
197
100
AcDbEntity
  8
$DDT_AUDIT_GENERATED_(1A4)
  6
Continuous
 62
     7
100
AcDbCircle
 10
33.8186684712
 20
229.350004721
 30
0.0
 40
24.0
100
AcDbArc
 50
22.024312837
 51
184.5726398575
  0
LINE
  5
1A6
330
197
100
AcDbEntity
  8
$DDT_AUDIT_GENERATED_(147)
  6
Continuous
 62
     7
100
AcDbLine
 10
58.3186684712
 20
222.850004721
 30
0.0
 11
58.3186684712
 21
237.850004721
 31
0.0
  0
LINE
  5
1A7
330
197
100
AcDbEntity
  8
$DDT_AUDIT_GENERATED_(147)
  6
Continuous
 62
     7
100
AcDbLine
 10
57.8186684712
 20
238.350004721
 30
0.0
 11
53.9604013492
 21
238.350004721
 31
0.0
  0
LINE
  5
1A8
330
197
100
AcDbEntity
  8
$DDT_AUDIT_GENERATED_(147)
  6
Continuous
 62
     7
100
AcDbLine
 10
57.6277130299
 20
222.350004721
 30
0.0
 11
57.8186684712
 21
222.350004721
 31
0.0
  0
ARC
  5
1A9
330
197
100
AcDbEntity
  8
$DDT_AUDIT_GENERATED_(147)
  6
Continuous
 62
     7
100
AcDbCircle
 10
57.8186684712
 20
237.850004721
 30
0.0
 40
0.5000000000000004
100
AcDbArc
 50
0.0
 51
90.0
  0
ARC
  5
1AA
330
197
100
AcDbEntity
  8
$DDT_AUDIT_GENERATED_(147)
  6
Continuous
 62
     7
100
AcDbCircle
 10
57.8186684712
 20
222.850004721
 30
0.0
 40
0.5000000000000004
100
AcDbArc
 50
270.0
 51
0.0
  0
ENDBLK
  5
1AC
330
197
100
AcDbEntity
  8
0
100
AcDbBlockEnd
  0
ENDSEC
  0
SECTION
  2
ENTITIES
  0
INSERT
  5
5F
330
1F
100
AcDbEntity
  8
Default
100
AcDbBlockReference
  2
SEANNOT_GROUP
 10
0.0
 20
0.0
 30
0.0
  0
INSERT
  5
65
330
1F
100
AcDbEntity
  8
Default
100
AcDbBlockReference
  2
SEANNOT_GROUP1
 10
0.0
 20
0.0
 30
0.0
  0
INSERT
  5
6A
330
1F
100
AcDbEntity
  8
Default
100
AcDbBlockReference
  2
SE
 10
0.0
 20
0.0
 30
0.0
  0
INSERT
  5
152
330
1F
100
AcDbEntity
  8
Default
100
AcDbBlockReference
  2
SE1
 10
0.0
 20
0.0
 30
0.0
  0
INSERT
  5
198
330
1F
100
AcDbEntity
  8
Default
100
AcDbBlockReference
  2
SE2
 10
0.0
 20
0.0
 30
0.0
  0
TEXT
  5
1AE
330
1F
100
AcDbEntity
  8
Default
  6
Continuous
 62
     7
100
AcDbText
 10
5.9362635081
 20
53.4225120485
 30
0.0
 40
10.0
  1
Grohe AG^J
  7
SEACAD_seiso_ttf
 11
5.9362635081
 21
63.4225120485
 31
0.0
100
AcDbText
 73
     3
  0
TEXT
  5
1AF
330
1F
100
AcDbEntity
  8
Default
  6
Continuous
 62
     7
100
AcDbText
 10
5.9362635081
 20
37.0588756849
 30
0.0
 40
10.0
  1
 
  7
SEACAD_seiso_ttf
 11
5.9362635081
 21
47.0588756849
 31
0.0
100
AcDbText
 73
     3
  0
TEXT
  5
1B0
330
1F
100
AcDbEntity
  8
Default
  6
Continuous
 62
     7
100
AcDbText
 10
5.9362635081
 20
20.6952393213
 30
0.0
 40
10.0
  1
ecn: 
  7
SEACAD_seiso_ttf
 11
5.9362635081
 21
30.6952393213
 31
0.0
100
AcDbText
 73
     3
  0
TEXT
  5
1B1
330
1F
100
AcDbEntity
  8
Default
  6
Continuous
 62
     7
100
AcDbText
 10
5.9362635081
 20
4.3316029576
 30
0.0
 40
10.0
  1
unit: mm
  7
SEACAD_seiso_ttf
 11
5.9362635081
 21
14.3316029576
 31
0.0
100
AcDbText
 73
     3
  0
LINE
  5
1B2
330
1F
100
AcDbEntity
  8
Default
  6
Continuous
 62
     7
100
AcDbLine
 10
0.0
 20
0.0
 30
0.0
 11
100.0
 21
0.0
 31
0.0
  0
LINE
  5
1B3
330
1F
100
AcDbEntity
  8
Default
  6
Continuous
 62
     7
100
AcDbLine
 10
0.0
 20
0.0
 30
0.0
 11
0.0
 21
100.0
 31
0.0
  0
TEXT
  5
1B4
330
1F
100
AcDbEntity
  8
Default
  6
Continuous
 62
     7
100
AcDbText
 10
24.3923665681
 20
-18.2375342018
 30
0.0
 40
10.0
  1
100 mm
  7
SEACAD_seiso_ttf
 11
24.3923665681
 21
-8.2375342018
 31
0.0
100
AcDbText
 73
     3
  0
TEXT
  5
1B5
330
1F
100
AcDbEntity
  8
Default
  6
Continuous
 62
     7
100
AcDbText
 10
-7.6150308803
 20
24.6231930421
 30
0.0
 40
10.0
  1
100 mm
 50
90.0
  7
SEACAD_seiso_ttf
 11
-17.6150308803
 21
24.6231930421
 31
0.0
100
AcDbText
 73
     3
  0
TEXT
  5
1B6
330
1F
100
AcDbEntity
  8
Default
  6
Continuous
 62
     7
100
AcDbText
 10
28.4878128572
 20
20.0907663715
 30
0.0
 40
10.0
  1
220192
  7
SEACAD_seiso_ttf
 11
28.4878128572
 21
30.0907663715
 31
0.0
100
AcDbText
 73
     3
  0
TEXT
  5
1B7
330
1F
100
AcDbEntity
  8
Default
  6
Continuous
 62
     7
100
AcDbText
 10
5.9012241913
 20
36.7242780188
 30
0.0
 40
10.0
  1
36330000
  7
SEACAD_seiso_ttf
 11
5.9012241913
 21
46.7242780188
 31
0.0
100
AcDbText
 73
     3
  0
ENDSEC
  0
SECTION
  2
OBJECTS
  0
DICTIONARY
  5
C
330
0
100
AcDbDictionary
281
     1
  3
ACAD_GROUP
350
D
  3
ACAD_LAYOUT
350
1A
  3
ACAD_MLEADERSTYLE
350
1BB
  3
ACAD_MLINESTYLE
350
17
  3
ACAD_PLOTSETTINGS
350
19
  3
ACAD_PLOTSTYLENAME
350
E
  3
ACAD_SCALELIST
350
3B
  3
ACAD_TABLESTYLE
350
1BA
  3
ACAD_VISUALSTYLE
350
2A
  3
AcDbVariableDictionary
350
1B8
  0
DICTIONARY
  5
D
102
{ACAD_REACTORS
330
C
102
}
330
C
100
AcDbDictionary
281
     1
  0
DICTIONARY
  5
1A
102
{ACAD_REACTORS
330
C
102
}
330
C
100
AcDbDictionary
281
     1
  3
Layout1
350
1E
  3
Model
350
22
  0
DICTIONARY
  5
1BB
102
{ACAD_REACTORS
330
C
102
}
330
C
100
AcDbDictionary
281
     1
  0
DICTIONARY
  5
17
102
{ACAD_REACTORS
330
C
102
}
330
C
100
AcDbDictionary
281
     1
  3
Standard
350
18
  0
DICTIONARY
  5
19
102
{ACAD_REACTORS
330
C
102
}
330
C
100
AcDbDictionary
281
     1
  0
ACDBDICTIONARYWDFLT
  5
E
102
{ACAD_REACTORS
330
C
102
}
330
C
100
AcDbDictionary
281
     1
  3
Normal
350
F
100
AcDbDictionaryWithDefault
340
F
  0
DICTIONARY
  5
3B
102
{ACAD_REACTORS
330
C
102
}
330
C
100
AcDbDictionary
281
     1
  3
A0
350
3C
  3
A1
350
3D
  3
A2
350
3E
  3
A3
350
3F
  3
A4
350
40
  3
A5
350
41
  3
A6
350
42
  3
A7
350
43
  3
A8
350
44
  3
A9
350
45
  3
B0
350
46
  3
B1
350
47
  3
B2
350
48
  3
B3
350
49
  3
B4
350
4A
  3
B5
350
4B
  3
B6
350
4C
  3
B7
350
4D
  3
B8
350
4E
  3
B9
350
4F
  3
C0
350
50
  3
C1
350
51
  3
C2
350
52
  3
C3
350
53
  3
C4
350
54
  3
C5
350
55
  3
C6
350
56
  3
C7
350
57
  3
C8
350
58
  3
C9
350
59
  3
D0
350
5A
  3
D1
350
5B
  3
D2
350
5C
  0
DICTIONARY
  5
1BA
102
{ACAD_REACTORS
330
C
102
}
330
C
100
AcDbDictionary
281
     1
  0
DICTIONARY
  5
2A
102
{ACAD_REACTORS
330
C
102
}
330
C
100
AcDbDictionary
281
     1
  3
2dWireframe
350
2F
  3
3D Hidden
350
31
  3
3dWireframe
350
30
  3
Basic
350
32
  3
Brighten
350
36
  3
ColorChange
350
3A
  3
Conceptual
350
34
  3
Dim
350
35
  3
Facepattern
350
39
  3
Flat
350
2B
  3
FlatWithEdges
350
2C
  3
Gouraud
350
2D
  3
GouraudWithEdges
350
2E
  3
Linepattern
350
38
  3
Realistic
350
33
  3
Thicken
350
37
  0
DICTIONARY
  5
1B8
102
{ACAD_REACTORS
330
C
102
}
330
C
100
AcDbDictionary
281
     1
  3
CANNOSCALE
350
1B9
  3
PSOLHEIGHT
350
1BD
  3
PSOLWIDTH
350
1BC
  0
LAYOUT
  5
1E
102
{ACAD_REACTORS
330
1A
102
}
330
1A
100
AcDbPlotSettings
  1

  2
none_device
  4

  6

 40
0.0
 41
0.0
 42
0.0
 43
0.0
 44
0.0
 45
0.0
 46
0.0
 47
0.0
 48
0.0
 49
0.0
140
0.0
141
0.0
142
1.0
143
1.0
 70
   688
 72
     0
 73
     0
 74
     5
  7

 75
    16
147
1.0
148
0.0
149
0.0
100
AcDbLayout
  1
Layout1
 70
     1
 71
     1
 10
0.0
 20
0.0
 11
1682.0
 21
2378.0
 12
0.0
 22
0.0
 32
0.0
 14
0.0
 24
0.0
 34
0.0
 15
1682.0
 25
2378.0
 35
0.0
146
0.0
 13
0.0
 23
0.0
 33
0.0
 16
1.0
 26
0.0
 36
0.0
 17
0.0
 27
1.0
 37
0.0
 76
     0
330
1B
  0
LAYOUT
  5
22
102
{ACAD_REACTORS
330
1A
102
}
330
1A
100
AcDbPlotSettings
  1

  2
none_device
  4

  6

 40
0.0
 41
0.0
 42
0.0
 43
0.0
 44
0.0
 45
0.0
 46
0.0
 47
0.0
 48
0.0
 49
0.0
140
0.0
141
0.0
142
1.0
143
1.0
 70
  1712
 72
     0
 73
     0
 74
     0
  7

 75
     0
147
1.0
148
0.0
149
0.0
100
AcDbLayout
  1
Model
 70
     1
 71
     0
 10
0.0
 20
0.0
 11
1682.0
 21
2378.0
 12
0.0
 22
0.0
 32
0.0
 14
0.0
 24
0.0
 34
0.0
 15
1682.0
 25
2378.0
 35
0.0
146
0.0
 13
0.0
 23
0.0
 33
0.0
 16
1.0
 26
0.0
 36
0.0
 17
0.0
 27
1.0
 37
0.0
 76
     0
330
1F
331
29
  0
MLINESTYLE
  5
18
102
{ACAD_REACTORS
330
17
102
}
330
17
100
AcDbMlineStyle
  2
Standard
 70
     0
  3

 62
   256
 51
90.0
 52
90.0
 71
     2
 49
0.5
 62
   256
  6
BYLAYER
 49
-0.5
 62
   256
  6
BYLAYER
  0
ACDBPLACEHOLDER
  5
F
102
{ACAD_REACTORS
330
E
102
}
330
E
  0
SCALE
  5
3C
102
{ACAD_REACTORS
330
3B
102
}
330
3B
100
AcDbScale
 70
     0
300
1:1
140
1.0
141
1.0
290
     1
  0
SCALE
  5
3D
102
{ACAD_REACTORS
330
3B
102
}
330
3B
100
AcDbScale
 70
     0
300
1:2
140
1.0
141
2.0
290
     0
  0
SCALE
  5
3E
102
{ACAD_REACTORS
330
3B
102
}
330
3B
100
AcDbScale
 70
     0
300
1:4
140
1.0
141
4.0
290
     0
  0
SCALE
  5
3F
102
{ACAD_REACTORS
330
3B
102
}
330
3B
100
AcDbScale
 70
     0
300
1:5
140
1.0
141
5.0
290
     0
  0
SCALE
  5
40
102
{ACAD_REACTORS
330
3B
102
}
330
3B
100
AcDbScale
 70
     0
300
1:8
140
1.0
141
8.0
290
     0
  0
SCALE
  5
41
102
{ACAD_REACTORS
330
3B
102
}
330
3B
100
AcDbScale
 70
     0
300
1:10
140
1.0
141
10.0
290
     0
  0
SCALE
  5
42
102
{ACAD_REACTORS
330
3B
102
}
330
3B
100
AcDbScale
 70
     0
300
1:16
140
1.0
141
16.0
290
     0
  0
SCALE
  5
43
102
{ACAD_REACTORS
330
3B
102
}
330
3B
100
AcDbScale
 70
     0
300
1:20
140
1.0
141
20.0
290
     0
  0
SCALE
  5
44
102
{ACAD_REACTORS
330
3B
102
}
330
3B
100
AcDbScale
 70
     0
300
1:30
140
1.0
141
30.0
290
     0
  0
SCALE
  5
45
102
{ACAD_REACTORS
330
3B
102
}
330
3B
100
AcDbScale
 70
     0
300
1:40
140
1.0
141
40.0
290
     0
  0
SCALE
  5
46
102
{ACAD_REACTORS
330
3B
102
}
330
3B
100
AcDbScale
 70
     0
300
1:50
140
1.0
141
50.0
290
     0
  0
SCALE
  5
47
102
{ACAD_REACTORS
330
3B
102
}
330
3B
100
AcDbScale
 70
     0
300
1:100
140
1.0
141
100.0
290
     0
  0
SCALE
  5
48
102
{ACAD_REACTORS
330
3B
102
}
330
3B
100
AcDbScale
 70
     0
300
2:1
140
2.0
141
1.0
290
     0
  0
SCALE
  5
49
102
{ACAD_REACTORS
330
3B
102
}
330
3B
100
AcDbScale
 70
     0
300
4:1
140
4.0
141
1.0
290
     0
  0
SCALE
  5
4A
102
{ACAD_REACTORS
330
3B
102
}
330
3B
100
AcDbScale
 70
     0
300
8:1
140
8.0
141
1.0
290
     0
  0
SCALE
  5
4B
102
{ACAD_REACTORS
330
3B
102
}
330
3B
100
AcDbScale
 70
     0
300
10:1
140
10.0
141
1.0
290
     0
  0
SCALE
  5
4C
102
{ACAD_REACTORS
330
3B
102
}
330
3B
100
AcDbScale
 70
     0
300
100:1
140
100.0
141
1.0
290
     0
  0
SCALE
  5
4D
102
{ACAD_REACTORS
330
3B
102
}
330
3B
100
AcDbScale
 70
     0
300
1/128" = 1'-0"
140
0.0078125
141
12.0
290
     0
  0
SCALE
  5
4E
102
{ACAD_REACTORS
330
3B
102
}
330
3B
100
AcDbScale
 70
     0
300
1/64" = 1'-0"
140
0.015625
141
12.0
290
     0
  0
SCALE
  5
4F
102
{ACAD_REACTORS
330
3B
102
}
330
3B
100
AcDbScale
 70
     0
300
1/32" = 1'-0"
140
0.03125
141
12.0
290
     0
  0
SCALE
  5
50
102
{ACAD_REACTORS
330
3B
102
}
330
3B
100
AcDbScale
 70
     0
300
1/16" = 1'-0"
140
0.0625
141
12.0
290
     0
  0
SCALE
  5
51
102
{ACAD_REACTORS
330
3B
102
}
330
3B
100
AcDbScale
 70
     0
300
3/32" = 1'-0"
140
0.09375
141
12.0
290
     0
  0
SCALE
  5
52
102
{ACAD_REACTORS
330
3B
102
}
330
3B
100
AcDbScale
 70
     0
300
1/8" = 1'-0"
140
0.125
141
12.0
290
     0
  0
SCALE
  5
53
102
{ACAD_REACTORS
330
3B
102
}
330
3B
100
AcDbScale
 70
     0
300
3/16" = 1'-0"
140
0.1875
141
12.0
290
     0
  0
SCALE
  5
54
102
{ACAD_REACTORS
330
3B
102
}
330
3B
100
AcDbScale
 70
     0
300
1/4" = 1'-0"
140
0.25
141
12.0
290
     0
  0
SCALE
  5
55
102
{ACAD_REACTORS
330
3B
102
}
330
3B
100
AcDbScale
 70
     0
300
3/8" = 1'-0"
140
0.375
141
12.0
290
     0
  0
SCALE
  5
56
102
{ACAD_REACTORS
330
3B
102
}
330
3B
100
AcDbScale
 70
     0
300
1/2" = 1'-0"
140
0.5
141
12.0
290
     0
  0
SCALE
  5
57
102
{ACAD_REACTORS
330
3B
102
}
330
3B
100
AcDbScale
 70
     0
300
3/4" = 1'-0"
140
0.75
141
12.0
290
     0
  0
SCALE
  5
58
102
{ACAD_REACTORS
330
3B
102
}
330
3B
100
AcDbScale
 70
     0
300
1" = 1'-0"
140
1.0
141
12.0
290
     0
  0
SCALE
  5
59
102
{ACAD_REACTORS
330
3B
102
}
330
3B
100
AcDbScale
 70
     0
300
1-1/2" = 1'-0"
140
1.5
141
12.0
290
     0
  0
SCALE
  5
5A
102
{ACAD_REACTORS
330
3B
102
}
330
3B
100
AcDbScale
 70
     0
300
3" = 1'-0"
140
3.0
141
12.0
290
     0
  0
SCALE
  5
5B
102
{ACAD_REACTORS
330
3B
102
}
330
3B
100
AcDbScale
 70
     0
300
6" = 1'-0"
140
6.0
141
12.0
290
     0
  0
SCALE
  5
5C
102
{ACAD_REACTORS
330
3B
102
}
330
3B
100
AcDbScale
 70
     0
300
1'-0" = 1'-0"
140
12.0
141
12.0
290
     0
  0
VISUALSTYLE
  5
2F
102
{ACAD_REACTORS
330
2A
102
}
330
2A
100
AcDbVisualStyle
  2
2dWireframe
 70
     4
 71
     0
 72
     2
 73
     0
 90
        0
 40
-0.6
 41
-30.0
 62
     5
 63
     7
 74
     1
 91
        4
 64
     7
 65
   257
 75
     1
175
     1
 42
1.0
 92
        0
 66
   257
 43
1.0
 76
     1
 77
     6
 78
     2
 67
     7
 79
     5
170
     0
171
     0
290
     0
174
     0
 93
        1
 44
0.0
173
     0
291
     0
 45
0.0
1001
ACAD
1000
AcDbSavedByObjectVersion
1070
     0
  0
VISUALSTYLE
  5
31
102
{ACAD_REACTORS
330
2A
102
}
330
2A
100
AcDbVisualStyle
  2
3D Hidden
 70
     6
 71
     1
 72
     2
 73
     2
 90
        0
 40
-0.6
 41
-30.0
 62
     5
 63
     7
 74
     2
 91
        2
 64
     7
 65
   257
 75
     2
175
     1
 42
40.0
 92
        0
 66
   257
 43
1.0
 76
     1
 77
     6
 78
     2
 67
     7
 79
     3
170
     0
171
     0
290
     0
174
     0
 93
        1
 44
0.0
173
     0
291
     0
 45
0.0
1001
ACAD
1000
AcDbSavedByObjectVersion
1070
     0
  0
VISUALSTYLE
  5
30
102
{ACAD_REACTORS
330
2A
102
}
330
2A
100
AcDbVisualStyle
  2
3dWireframe
 70
     5
 71
     0
 72
     2
 73
     0
 90
        0
 40
-0.6
 41
-30.0
 62
     5
 63
     7
 74
     1
 91
        4
 64
     7
 65
   257
 75
     1
175
     1
 42
1.0
 92
        0
 66
   257
 43
1.0
 76
     1
 77
     6
 78
     2
 67
     7
 79
     5
170
     0
171
     0
290
     0
174
     0
 93
        1
 44
0.0
173
     0
291
     0
 45
0.0
1001
ACAD
1000
AcDbSavedByObjectVersion
1070
     0
  0
VISUALSTYLE
  5
32
102
{ACAD_REACTORS
330
2A
102
}
330
2A
100
AcDbVisualStyle
  2
Basic
 70
     7
 71
     1
 72
     0
 73
     1
 90
        0
 40
-0.6
 41
-30.0
 62
     5
 63
     7
 74
     0
 91
        4
 64
     7
 65
   257
 75
     1
175
     1
 42
1.0
 92
        8
 66
     7
 43
1.0
 76
     1
 77
     6
 78
     2
 67
     7
 79
     5
170
     0
171
     0
290
     0
174
     0
 93
        1
 44
0.0
173
     0
291
     1
 45
0.0
1001
ACAD
1000
AcDbSavedByObjectVersion
1070
     0
  0
VISUALSTYLE
  5
36
102
{ACAD_REACTORS
330
2A
102
}
330
2A
100
AcDbVisualStyle
  2
Brighten
 70
    12
 71
     2
 72
     2
 73
     0
 90
        0
 40
-0.6
 41
-30.0
 62
     5
 63
     7
 74
     1
 91
        4
 64
     7
 65
   257
 75
     1
175
     1
 42
1.0
 92
        8
 66
     7
 43
1.0
 76
     1
 77
     6
 78
     2
 67
     7
 79
     5
170
     0
171
     0
290
     0
174
     0
 93
        1
 44
50.0
173
     0
291
     1
 45
0.0
1001
ACAD
1000
AcDbSavedByObjectVersion
1070
     0
  0
VISUALSTYLE
  5
3A
102
{ACAD_REACTORS
330
2A
102
}
330
2A
100
AcDbVisualStyle
  2
ColorChange
 70
    16
 71
     2
 72
     2
 73
     3
 90
        0
 40
-0.6
 41
-30.0
 62
     5
 63
     8
 74
     1
 91
        4
 64
     7
 65
   257
 75
     1
175
     1
 42
1.0
 92
        8
 66
     8
 43
1.0
 76
     1
 77
     6
 78
     2
 67
     7
 79
     5
170
     0
171
     0
290
     0
174
     0
 93
        1
 44
0.0
173
     0
291
     1
 45
0.0
1001
ACAD
1000
AcDbSavedByObjectVersion
1070
     0
  0
VISUALSTYLE
  5
34
102
{ACAD_REACTORS
330
2A
102
}
330
2A
100
AcDbVisualStyle
  2
Conceptual
 70
     9
 71
     3
 72
     2
 73
     0
 90
        0
 40
-0.6
 41
-30.0
 62
     5
 63
     7
 74
     2
 91
        2
 64
     7
 65
   257
 75
     1
175
     1
 42
40.0
 92
        8
 66
     7
 43
1.0
 76
     1
 77
     6
 78
     2
 67
     7
 79
     3
170
     0
171
     0
290
     0
174
     0
 93
        1
 44
0.0
173
     0
291
     0
 45
0.0
1001
ACAD
1000
AcDbSavedByObjectVersion
1070
     0
  0
VISUALSTYLE
  5
35
102
{ACAD_REACTORS
330
2A
102
}
330
2A
100
AcDbVisualStyle
  2
Dim
 70
    11
 71
     2
 72
     2
 73
     0
 90
        0
 40
-0.6
 41
-30.0
 62
     5
 63
     7
 74
     1
 91
        4
 64
     7
 65
   257
 75
     1
175
     1
 42
1.0
 92
        8
 66
     7
 43
1.0
 76
     1
 77
     6
 78
     2
 67
     7
 79
     5
170
     0
171
     0
290
     0
174
     0
 93
        1
 44
-50.0
173
     0
291
     1
 45
0.0
1001
ACAD
1000
AcDbSavedByObjectVersion
1070
     0
  0
VISUALSTYLE
  5
39
102
{ACAD_REACTORS
330
2A
102
}
330
2A
100
AcDbVisualStyle
  2
Facepattern
 70
    15
 71
     2
 72
     2
 73
     0
 90
        0
 40
-0.6
 41
-30.0
 62
     5
 63
     7
 74
     1
 91
        4
 64
     7
 65
   257
 75
     1
175
     1
 42
1.0
 92
        8
 66
     7
 43
1.0
 76
     1
 77
     6
 78
     2
 67
     7
 79
     5
170
     0
171
     0
290
     0
174
     0
 93
        1
 44
0.0
173
     0
291
     1
 45
0.0
1001
ACAD
1000
AcDbSavedByObjectVersion
1070
     0
  0
VISUALSTYLE
  5
2B
102
{ACAD_REACTORS
330
2A
102
}
330
2A
100
AcDbVisualStyle
  2
Flat
 70
     0
 71
     2
 72
     1
 73
     1
 90
        2
 40
-0.6
 41
30.0
 62
     5
 63
     7
 74
     0
 91
        4
 64
     7
 65
   257
 75
     1
175
     1
 42
1.0
 92
        8
 66
     7
 43
1.0
 76
     1
 77
     6
 78
     2
 67
     7
 79
     5
170
     0
171
     0
290
     0
174
     0
 93
       13
 44
0.0
173
     0
291
     1
 45
0.0
1001
ACAD
1000
AcDbSavedByObjectVersion
1070
     0
  0
VISUALSTYLE
  5
2C
102
{ACAD_REACTORS
330
2A
102
}
330
2A
100
AcDbVisualStyle
  2
FlatWithEdges
 70
     1
 71
     2
 72
     1
 73
     1
 90
        2
 40
-0.6
 41
30.0
 62
     5
 63
     7
 74
     1
 91
        4
 64
     7
 65
   257
 75
     1
175
     1
 42
1.0
 92
        0
 66
   257
 43
1.0
 76
     1
 77
     6
 78
     2
 67
     7
 79
     5
170
     0
171
     0
290
     0
174
     0
 93
       13
 44
0.0
173
     0
291
     1
 45
0.0
1001
ACAD
1000
AcDbSavedByObjectVersion
1070
     0
  0
VISUALSTYLE
  5
2D
102
{ACAD_REACTORS
330
2A
102
}
330
2A
100
AcDbVisualStyle
  2
Gouraud
 70
     2
 71
     2
 72
     2
 73
     1
 90
        2
 40
-0.6
 41
30.0
 62
     5
 63
     7
 74
     0
 91
        4
 64
     7
 65
   257
 75
     1
175
     1
 42
1.0
 92
        0
 66
     7
 43
1.0
 76
     1
 77
     6
 78
     2
 67
     7
 79
     5
170
     0
171
     0
290
     0
174
     0
 93
       13
 44
0.0
173
     0
291
     1
 45
0.0
1001
ACAD
1000
AcDbSavedByObjectVersion
1070
     0
  0
VISUALSTYLE
  5
2E
102
{ACAD_REACTORS
330
2A
102
}
330
2A
100
AcDbVisualStyle
  2
GouraudWithEdges
 70
     3
 71
     2
 72
     2
 73
     1
 90
        2
 40
-0.6
 41
30.0
 62
     5
 63
     7
 74
     1
 91
        4
 64
     7
 65
   257
 75
     1
175
     1
 42
1.0
 92
        0
 66
   257
 43
1.0
 76
     1
 77
     6
 78
     2
 67
     7
 79
     5
170
     0
171
     0
290
     0
174
     0
 93
       13
 44
0.0
173
     0
291
     1
 45
0.0
1001
ACAD
1000
AcDbSavedByObjectVersion
1070
     0
  0
VISUALSTYLE
  5
38
102
{ACAD_REACTORS
330
2A
102
}
330
2A
100
AcDbVisualStyle
  2
Linepattern
 70
    14
 71
     2
 72
     2
 73
     0
 90
        0
 40
-0.6
 41
-30.0
 62
     5
 63
     7
 74
     1
 91
        4
 64
     7
 65
   257
 75
     7
175
     7
 42
1.0
 92
        8
 66
     7
 43
1.0
 76
     1
 77
     6
 78
     2
 67
     7
 79
     5
170
     0
171
     0
290
     0
174
     0
 93
        1
 44
0.0
173
     0
291
     1
 45
0.0
1001
ACAD
1000
AcDbSavedByObjectVersion
1070
     0
  0
VISUALSTYLE
  5
33
102
{ACAD_REACTORS
330
2A
102
}
330
2A
100
AcDbVisualStyle
  2
Realistic
 70
     8
 71
     2
 72
     2
 73
     0
 90
        0
 40
-0.6
 41
-30.0
 62
     5
 63
     7
 74
     1
 91
        0
 64
     7
 65
   257
 75
     1
175
     1
 42
1.0
 92
        8
 66
     8
 43
1.0
 76
     1
 77
     6
 78
     2
 67
     7
 79
     5
170
     0
171
     0
290
     0
174
     0
 93
       13
 44
0.0
173
     0
291
     0
 45
0.0
1001
ACAD
1000
AcDbSavedByObjectVersion
1070
     0
  0
VISUALSTYLE
  5
37
102
{ACAD_REACTORS
330
2A
102
}
330
2A
100
AcDbVisualStyle
  2
Thicken
 70
    13
 71
     2
 72
     2
 73
     0
 90
        0
 40
-0.6
 41
-30.0
 62
     5
 63
     7
 74
     1
 91
        4
 64
     7
 65
   257
 75
     1
175
     1
 42
1.0
 92
       12
 66
     7
 43
1.0
 76
     1
 77
     6
 78
     2
 67
     7
 79
     5
170
     0
171
     0
290
     0
174
     0
 93
        1
 44
0.0
173
     0
291
     1
 45
0.0
1001
ACAD
1000
AcDbSavedByObjectVersion
1070
     0
  0
DICTIONARYVAR
  5
1B9
102
{ACAD_REACTORS
330
1B8
102
}
330
1B8
100
DictionaryVariables
280
     0
  1
1:1
  0
DICTIONARYVAR
  5
1BD
102
{ACAD_REACTORS
330
1B8
102
}
330
1B8
100
DictionaryVariables
280
     0
  1
80.000000
  0
DICTIONARYVAR
  5
1BC
102
{ACAD_REACTORS
330
1B8
102
}
330
1B8
100
DictionaryVariables
280
     0
  1
5.000000
  0
ENDSEC
  0
EOF
