  0
SECTION
  2
HEADER
  9
$ACADVER
  1
AC1009
  9
$DWGCODEPAGE
  3
ansi_1252
  9
$INSBASE
 10
0.0
 20
0.0
 30
0.0
  9
$EXTMIN
 10
1.000000000000000E+20
 20
1.000000000000000E+20
 30
1.000000000000000E+20
  9
$EXTMAX
 10
-1.000000000000000E+20
 20
-1.000000000000000E+20
 30
-1.000000000000000E+20
  9
$LIMMIN
 10
0.0
 20
0.0
  9
$LIMMAX
 10
12.0
 20
9.0
  9
$ORTHOMODE
 70
     0
  9
$REGENMODE
 70
     1
  9
$FILLMODE
 70
     1
  9
$QTEXTMODE
 70
     0
  9
$MIRRTEXT
 70
     1
  9
$DRAGMODE
 70
     2
  9
$LTSCALE
 40
1.0
  9
$OSMODE
 70
    37
  9
$ATTMODE
 70
     1
  9
$TEXTSIZE
 40
0.2
  9
$TRACEWID
 40
0.05
  9
$TEXTSTYLE
  7
STANDARD
  9
$CLAYER
  8
0
  9
$CELTYPE
  6
BYLAYER
  9
$CECOLOR
 62
   256
  9
$DIMSCALE
 40
1.0
  9
$DIMASZ
 40
0.18
  9
$DIMEXO
 40
0.0625
  9
$DIMDLI
 40
0.38
  9
$DIMRND
 40
0.0
  9
$DIMDLE
 40
0.0
  9
$DIMEXE
 40
0.18
  9
$DIMTP
 40
0.0
  9
$DIMTM
 40
0.0
  9
$DIMTXT
 40
0.18
  9
$DIMCEN
 40
0.09
  9
$DIMTSZ
 40
0.0
  9
$DIMTOL
 70
     0
  9
$DIMLIM
 70
     0
  9
$DIMTIH
 70
     1
  9
$DIMTOH
 70
     1
  9
$DIMSE1
 70
     0
  9
$DIMSE2
 70
     0
  9
$DIMTAD
 70
     0
  9
$DIMZIN
 70
     0
  9
$DIMBLK
  1

  9
$DIMASO
 70
     1
  9
$DIMSHO
 70
     1
  9
$DIMPOST
  1

  9
$DIMAPOST
  1

  9
$DIMALT
 70
     0
  9
$DIMALTD
 70
     2
  9
$DIMALTF
 40
25.4
  9
$DIMLFAC
 40
1.0
  9
$DIMTOFL
 70
     0
  9
$DIMTVP
 40
0.0
  9
$DIMTIX
 70
     0
  9
$DIMSOXD
 70
     0
  9
$DIMSAH
 70
     0
  9
$DIMBLK1
  1

  9
$DIMBLK2
  1

  9
$DIMSTYLE
  2
STANDARD
  9
$DIMCLRD
 70
     0
  9
$DIMCLRE
 70
     0
  9
$DIMCLRT
 70
     0
  9
$DIMTFAC
 40
1.0
  9
$DIMGAP
 40
0.09
  9
$LUNITS
 70
     2
  9
$LUPREC
 70
     4
  9
$SKETCHINC
 40
0.1
  9
$FILLETRAD
 40
0.5
  9
$AUNITS
 70
     0
  9
$AUPREC
 70
     0
  9
$MENU
  1
.
  9
$ELEVATION
 40
0.0
  9
$PELEVATION
 40
0.0
  9
$THICKNESS
 40
0.0
  9
$LIMCHECK
 70
     0
  9
$CHAMFERA
 40
0.5
  9
$CHAMFERB
 40
0.5
  9
$SKPOLY
 70
     0
  9
$TDCREATE
 40
2455360.955896806
  9
$TDUPDATE
 40
2455360.955896806
  9
$TDINDWG
 40
0.0000000116
  9
$TDUSRTIMER
 40
0.0000000116
  9
$USRTIMER
 70
     1
  9
$ANGBASE
 50
0.0
  9
$ANGDIR
 70
     0
  9
$PDMODE
 70
     0
  9
$PDSIZE
 40
0.0
  9
$PLINEWID
 40
0.0
  9
$COORDS
 70
     1
  9
$SPLFRAME
 70
     0
  9
$SPLINETYPE
 70
     6
  9
$SPLINESEGS
 70
     8
  9
$ATTDIA
 70
     0
  9
$ATTREQ
 70
     1
  9
$HANDLING
 70
     1
  9
$HANDSEED
  5
680
  9
$SURFTAB1
 70
     6
  9
$SURFTAB2
 70
     6
  9
$SURFTYPE
 70
     6
  9
$SURFU
 70
     6
  9
$SURFV
 70
     6
  9
$UCSNAME
  2

  9
$UCSORG
 10
0.0
 20
0.0
 30
0.0
  9
$UCSXDIR
 10
1.0
 20
0.0
 30
0.0
  9
$UCSYDIR
 10
0.0
 20
1.0
 30
0.0
  9
$PUCSNAME
  2

  9
$PUCSORG
 10
0.0
 20
0.0
 30
0.0
  9
$PUCSXDIR
 10
1.0
 20
0.0
 30
0.0
  9
$PUCSYDIR
 10
0.0
 20
1.0
 30
0.0
  9
$USERI1
 70
     0
  9
$USERI2
 70
     0
  9
$USERI3
 70
     0
  9
$USERI4
 70
     0
  9
$USERI5
 70
     0
  9
$USERR1
 40
0.0
  9
$USERR2
 40
0.0
  9
$USERR3
 40
0.0
  9
$USERR4
 40
0.0
  9
$USERR5
 40
0.0
  9
$WORLDVIEW
 70
     1
  9
$SHADEDGE
 70
     3
  9
$SHADEDIF
 70
    70
  9
$TILEMODE
 70
     1
  9
$MAXACTVP
 70
    64
  9
$PLIMCHECK
 70
     0
  9
$PEXTMIN
 10
1.000000000000000E+20
 20
1.000000000000000E+20
 30
1.000000000000000E+20
  9
$PEXTMAX
 10
-1.000000000000000E+20
 20
-1.000000000000000E+20
 30
-1.000000000000000E+20
  9
$PLIMMIN
 10
0.0
 20
0.0
  9
$PLIMMAX
 10
12.0
 20
9.0
  9
$UNITMODE
 70
     0
  9
$VISRETAIN
 70
     1
  9
$PLINEGEN
 70
     0
  9
$PSLTSCALE
 70
     1
  0
ENDSEC
  0
SECTION
  2
TABLES
  0
TABLE
  2
VPORT
 70
     1
  0
VPORT
  2
*ACTIVE
 70
     0
 10
0.0
 20
0.0
 11
1.0
 21
1.0
 12
0.0
 22
0.0
 13
0.0
 23
0.0
 14
0.5
 24
0.5
 15
0.5
 25
0.5
 16
459.99365234375
 26
262.8308715820312
 36
459.9936218261719
 17
108.75
 27
0.26251220703125
 37
106.6654968261719
 40
264.1376342937631
 41
1.972972972850329
 42
50.0
 43
0.0
 44
0.0
 50
0.0
 51
0.0
 71
     0
 72
   100
 73
     1
 74
     3
 75
     0
 76
     0
 77
     0
 78
     0
  0
ENDTAB
  0
TABLE
  2
LTYPE
 70
     1
  0
LTYPE
  2
CONTINUOUS
 70
     0
  3
Solid line
 72
    65
 73
     0
 40
0.0
  0
ENDTAB
  0
TABLE
  2
LAYER
 70
     2
  0
LAYER
  2
0
 70
     0
 62
     7
  6
CONTINUOUS
  0
LAYER
  2
LAYER_1
 70
     0
 62
     7
  6
CONTINUOUS
  0
ENDTAB
  0
TABLE
  2
STYLE
 70
     1
  0
STYLE
  2
STANDARD
 70
     0
 40
0.0
 41
1.0
 50
0.0
 71
     0
 42
0.2
  3
txt
  4

  0
ENDTAB
  0
TABLE
  2
VIEW
 70
     0
  0
ENDTAB
  0
TABLE
  2
UCS
 70
     0
  0
ENDTAB
  0
TABLE
  2
APPID
 70
     1
  0
APPID
  2
ACAD
 70
     0
  0
ENDTAB
  0
TABLE
  2
DIMSTYLE
 70
     1
  0
DIMSTYLE
  2
STANDARD
 70
     0
  3

  4

  5

  6

  7

 40
1.0
 41
0.18
 42
0.0625
 43
0.38
 44
0.18
 45
0.0
 46
0.0
 47
0.0
 48
0.0
140
0.18
141
0.09
142
0.0
143
25.4
144
1.0
145
0.0
146
1.0
147
0.09
 71
     0
 72
     0
 73
     1
 74
     1
 75
     0
 76
     0
 77
     0
 78
     0
170
     0
171
     2
172
     0
173
     0
174
     0
175
     0
176
     0
177
     0
178
     0
  0
ENDTAB
  0
ENDSEC
  0
SECTION
  2
BLOCKS
  0
BLOCK
  8
0
  2
$MODEL_SPACE
 70
     0
 10
0.0
 20
0.0
 30
0.0
  3
$MODEL_SPACE
  1

  0
ENDBLK
  5
21
  8
0
  0
BLOCK
 67
     1
  8
0
  2
$PAPER_SPACE
 70
     0
 10
0.0
 20
0.0
 30
0.0
  3
$PAPER_SPACE
  1

  0
ENDBLK
  5
1D
 67
     1
  8
0
  0
BLOCK
  8
0
  2
E3_NODE
 70
     0
 10
0.0
 20
0.0
 30
0.0
  3
E3_NODE
  1

  0
POLYLINE
  5
3C
  8
0
 62
     9
 66
     1
 10
0.0
 20
0.0
 30
0.0
 70
    64
 71
    32
 72
    32
  0
VERTEX
  5
3D
  8
0
 10
-32.5
 20
0.0
 30
12.5
 70
   192
  0
VERTEX
  5
3E
  8
0
 10
-32.5
 20
8.83899974822998
 30
16.1609992980957
 70
   192
  0
VERTEX
  5
3F
  8
0
 10
-16.0
 20
4.419000148773193
 30
14.33100032806396
 70
   192
  0
VERTEX
  5
40
  8
0
 10
-16.0
 20
8.83899974822998
 30
16.1609992980957
 70
   192
  0
VERTEX
  5
41
  8
0
 10
-32.5
 20
12.5
 30
25.0
 70
   192
  0
VERTEX
  5
42
  8
0
 10
-16.0
 20
10.66899967193604
 30
20.58099937438965
 70
   192
  0
VERTEX
  5
43
  8
0
 10
-16.0
 20
11.60299968719482
 30
22.83399963378906
 70
   192
  0
VERTEX
  5
44
  8
0
 10
-16.0
 20
12.05799961090088
 30
23.9330005645752
 70
   192
  0
VERTEX
  5
45
  8
0
 10
-16.0
 20
12.5
 30
25.0
 70
   192
  0
VERTEX
  5
46
  8
0
 10
-16.0
 20
11.60299968719482
 30
27.16600036621094
 70
   192
  0
VERTEX
  5
47
  8
0
 10
-16.0
 20
12.05799961090088
 30
26.0669994354248
 70
   192
  0
VERTEX
  5
48
  8
0
 10
-32.5
 20
8.83899974822998
 30
33.8390007019043
 70
   192
  0
VERTEX
  5
49
  8
0
 10
-16.0
 20
10.66899967193604
 30
29.41900062561035
 70
   192
  0
VERTEX
  5
4A
  8
0
 10
-16.0
 20
8.83899974822998
 30
33.8390007019043
 70
   192
  0
VERTEX
  5
4B
  8
0
 10
-32.5
 20
0.0
 30
37.5
 70
   192
  0
VERTEX
  5
4C
  8
0
 10
-16.0
 20
4.419000148773193
 30
35.66899871826172
 70
   192
  0
VERTEX
  5
4D
  8
0
 10
-16.0
 20
0.0
 30
37.5
 70
   192
  0
VERTEX
  5
4E
  8
0
 10
-32.5
 20
-8.83899974822998
 30
33.8390007019043
 70
   192
  0
VERTEX
  5
4F
  8
0
 10
-16.0
 20
-4.419000148773193
 30
35.66899871826172
 70
   192
  0
VERTEX
  5
50
  8
0
 10
-16.0
 20
-8.83899974822998
 30
33.8390007019043
 70
   192
  0
VERTEX
  5
51
  8
0
 10
-32.5
 20
-12.5
 30
25.0
 70
   192
  0
VERTEX
  5
52
  8
0
 10
-16.0
 20
-10.66899967193604
 30
29.41900062561035
 70
   192
  0
VERTEX
  5
53
  8
0
 10
-16.0
 20
-11.60299968719482
 30
27.16600036621094
 70
   192
  0
VERTEX
  5
54
  8
0
 10
-16.0
 20
-12.05799961090088
 30
26.0669994354248
 70
   192
  0
VERTEX
  5
55
  8
0
 10
-16.0
 20
-12.5
 30
25.0
 70
   192
  0
VERTEX
  5
56
  8
0
 10
-16.0
 20
-11.60299968719482
 30
22.83399963378906
 70
   192
  0
VERTEX
  5
57
  8
0
 10
-16.0
 20
-12.05799961090088
 30
23.9330005645752
 70
   192
  0
VERTEX
  5
58
  8
0
 10
-32.5
 20
-8.83899974822998
 30
16.1609992980957
 70
   192
  0
VERTEX
  5
59
  8
0
 10
-16.0
 20
-10.66899967193604
 30
20.58099937438965
 70
   192
  0
VERTEX
  5
5A
  8
0
 10
-16.0
 20
-8.83899974822998
 30
16.1609992980957
 70
   192
  0
VERTEX
  5
5B
  8
0
 10
-16.0
 20
-4.419000148773193
 30
14.33100032806396
 70
   192
  0
VERTEX
  5
5C
  8
0
 10
-16.0
 20
0.0
 30
12.5
 70
   192
  0
VERTEX
  5
5D
  8
0
 62
     9
 10
0.0
 20
0.0
 30
0.0
 70
   128
 71
     3
 72
     2
 73
     1
  0
VERTEX
  5
5E
  8
0
 62
     9
 10
0.0
 20
0.0
 30
0.0
 70
   128
 71
     3
 72
     4
 73
     2
  0
VERTEX
  5
5F
  8
0
 62
     9
 10
0.0
 20
0.0
 30
0.0
 70
   128
 71
     6
 72
     5
 73
     2
  0
VERTEX
  5
60
  8
0
 62
     9
 10
0.0
 20
0.0
 30
0.0
 70
   128
 71
     6
 72
     7
 73
     5
  0
VERTEX
  5
61
  8
0
 62
     9
 10
0.0
 20
0.0
 30
0.0
 70
   128
 71
     7
 72
     8
 73
     5
  0
VERTEX
  5
62
  8
0
 62
     9
 10
0.0
 20
0.0
 30
0.0
 70
   128
 71
     8
 72
     9
 73
     5
  0
VERTEX
  5
63
  8
0
 62
     9
 10
0.0
 20
0.0
 30
0.0
 70
   128
 71
    11
 72
    10
 73
     5
  0
VERTEX
  5
64
  8
0
 62
     9
 10
0.0
 20
0.0
 30
0.0
 70
   128
 71
    13
 72
    12
 73
     5
  0
VERTEX
  5
65
  8
0
 62
     9
 10
0.0
 20
0.0
 30
0.0
 70
   128
 71
     5
 72
    10
 73
    13
  0
VERTEX
  5
66
  8
0
 62
     9
 10
0.0
 20
0.0
 30
0.0
 70
   128
 71
    13
 72
    14
 73
    12
  0
VERTEX
  5
67
  8
0
 62
     9
 10
0.0
 20
0.0
 30
0.0
 70
   128
 71
    16
 72
    15
 73
    12
  0
VERTEX
  5
68
  8
0
 62
     9
 10
0.0
 20
0.0
 30
0.0
 70
   128
 71
    16
 72
    17
 73
    15
  0
VERTEX
  5
69
  8
0
 62
     9
 10
0.0
 20
0.0
 30
0.0
 70
   128
 71
    19
 72
    18
 73
    15
  0
VERTEX
  5
6A
  8
0
 62
     9
 10
0.0
 20
0.0
 30
0.0
 70
   128
 71
    19
 72
    20
 73
    18
  0
VERTEX
  5
6B
  8
0
 62
     9
 10
0.0
 20
0.0
 30
0.0
 70
   128
 71
    22
 72
    21
 73
    18
  0
VERTEX
  5
6C
  8
0
 62
     9
 10
0.0
 20
0.0
 30
0.0
 70
   128
 71
    22
 72
    23
 73
    21
  0
VERTEX
  5
6D
  8
0
 62
     9
 10
0.0
 20
0.0
 30
0.0
 70
   128
 71
    23
 72
    24
 73
    21
  0
VERTEX
  5
6E
  8
0
 62
     9
 10
0.0
 20
0.0
 30
0.0
 70
   128
 71
    24
 72
    25
 73
    21
  0
VERTEX
  5
6F
  8
0
 62
     9
 10
0.0
 20
0.0
 30
0.0
 70
   128
 71
    27
 72
    26
 73
    21
  0
VERTEX
  5
70
  8
0
 62
     9
 10
0.0
 20
0.0
 30
0.0
 70
   128
 71
    29
 72
    28
 73
    21
  0
VERTEX
  5
71
  8
0
 62
     9
 10
0.0
 20
0.0
 30
0.0
 70
   128
 71
    21
 72
    26
 73
    29
  0
VERTEX
  5
72
  8
0
 62
     9
 10
0.0
 20
0.0
 30
0.0
 70
   128
 71
    29
 72
    30
 73
    28
  0
VERTEX
  5
73
  8
0
 62
     9
 10
0.0
 20
0.0
 30
0.0
 70
   128
 71
    31
 72
     1
 73
    28
  0
VERTEX
  5
74
  8
0
 62
     9
 10
0.0
 20
0.0
 30
0.0
 70
   128
 71
    31
 72
    32
 73
     1
  0
VERTEX
  5
75
  8
0
 62
     9
 10
0.0
 20
0.0
 30
0.0
 70
   128
 71
    28
 72
    30
 73
    31
  0
VERTEX
  5
76
  8
0
 62
     9
 10
0.0
 20
0.0
 30
0.0
 70
   128
 71
    21
 72
    25
 73
    27
  0
VERTEX
  5
77
  8
0
 62
     9
 10
0.0
 20
0.0
 30
0.0
 70
   128
 71
    18
 72
    20
 73
    22
  0
VERTEX
  5
78
  8
0
 62
     9
 10
0.0
 20
0.0
 30
0.0
 70
   128
 71
    15
 72
    17
 73
    19
  0
VERTEX
  5
79
  8
0
 62
     9
 10
0.0
 20
0.0
 30
0.0
 70
   128
 71
    12
 72
    14
 73
    16
  0
VERTEX
  5
7A
  8
0
 62
     9
 10
0.0
 20
0.0
 30
0.0
 70
   128
 71
     5
 72
     9
 73
    11
  0
VERTEX
  5
7B
  8
0
 62
     9
 10
0.0
 20
0.0
 30
0.0
 70
   128
 71
     2
 72
     4
 73
     6
  0
VERTEX
  5
7C
  8
0
 62
     9
 10
0.0
 20
0.0
 30
0.0
 70
   128
 71
     1
 72
    32
 73
     3
  0
SEQEND
  5
7D
  8
0
 62
     9
  0
ENDBLK
  5
81
  8
0
  0
BLOCK
  8
0
  2
E3_NODE_1_
 70
     0
 10
0.0
 20
0.0
 30
0.0
  3
E3_NODE_1_
  1

  0
POLYLINE
  5
83
  8
0
 62
     9
 66
     1
 10
0.0
 20
0.0
 30
0.0
 70
    64
 71
   110
 72
   138
  0
VERTEX
  5
84
  8
0
 10
-8.402000427246094
 20
-12.61900043487549
 30
25.0
 70
   192
  0
VERTEX
  5
85
  8
0
 10
-16.0
 20
-12.5
 30
25.0
 70
   192
  0
VERTEX
  5
86
  8
0
 10
-16.0
 20
-12.05799961090088
 30
23.9330005645752
 70
   192
  0
VERTEX
  5
87
  8
0
 10
-8.843999862670898
 20
-12.29599952697754
 30
18.5629997253418
 70
   192
  0
VERTEX
  5
88
  8
0
 10
-8.569999694824219
 20
-12.50100040435791
 30
20.3120002746582
 70
   192
  0
VERTEX
  5
89
  8
0
 10
-0.8360000252723694
 20
-12.97299957275391
 30
22.18400001525879
 70
   192
  0
VERTEX
  5
8A
  8
0
 10
-1.26199996471405
 20
-12.9370002746582
 30
16.23500061035156
 70
   192
  0
VERTEX
  5
8B
  8
0
 10
-8.402000427246094
 20
12.61900043487549
 30
25.0
 70
   192
  0
VERTEX
  5
8C
  8
0
 10
-16.0
 20
12.5
 30
25.0
 70
   192
  0
VERTEX
  5
8D
  8
0
 10
-16.0
 20
12.05799961090088
 30
26.0669994354248
 70
   192
  0
VERTEX
  5
8E
  8
0
 10
-8.843999862670898
 20
12.29599952697754
 30
31.4370002746582
 70
   192
  0
VERTEX
  5
8F
  8
0
 10
-8.569999694824219
 20
12.50100040435791
 30
29.6879997253418
 70
   192
  0
VERTEX
  5
90
  8
0
 10
-0.8119999766349792
 20
12.97500038146973
 30
25.0
 70
   192
  0
VERTEX
  5
91
  8
0
 10
-13.39700031280518
 20
4.300000190734863
 30
12.13000011444092
 70
   192
  0
VERTEX
  5
92
  8
0
 10
-13.87899971008301
 20
0.0
 30
11.62100028991699
 70
   192
  0
VERTEX
  5
93
  8
0
 10
-16.0
 20
0.0
 30
12.5
 70
   192
  0
VERTEX
  5
94
  8
0
 10
-12.17000007629395
 20
-7.900000095367432
 30
13.44600009918213
 70
   192
  0
VERTEX
  5
95
  8
0
 10
-16.0
 20
-8.83899974822998
 30
16.1609992980957
 70
   192
  0
VERTEX
  5
96
  8
0
 10
-16.0
 20
-4.419000148773193
 30
14.33100032806396
 70
   192
  0
VERTEX
  5
97
  8
0
 10
-10.44200038909912
 20
-10.70400047302246
 30
15.44699954986572
 70
   192
  0
VERTEX
  5
98
  8
0
 10
-16.0
 20
-10.66899967193604
 30
20.58099937438965
 70
   192
  0
VERTEX
  5
99
  8
0
 10
-9.402999877929688
 20
-11.81999969482422
 30
17.02799987792969
 70
   192
  0
VERTEX
  5
9A
  8
0
 10
-16.0
 20
-11.60299968719482
 30
22.83399963378906
 70
   192
  0
VERTEX
  5
9B
  8
0
 10
-13.39700031280518
 20
-4.300000190734863
 30
12.13000011444092
 70
   192
  0
VERTEX
  5
9C
  8
0
 10
-10.44200038909912
 20
10.70400047302246
 30
15.44699954986572
 70
   192
  0
VERTEX
  5
9D
  8
0
 10
-12.17000007629395
 20
7.900000095367432
 30
13.44600009918213
 70
   192
  0
VERTEX
  5
9E
  8
0
 10
-16.0
 20
8.83899974822998
 30
16.1609992980957
 70
   192
  0
VERTEX
  5
9F
  8
0
 10
-16.0
 20
4.419000148773193
 30
14.33100032806396
 70
   192
  0
VERTEX
  5
A0
  8
0
 10
-9.402999877929688
 20
11.81999969482422
 30
17.02799987792969
 70
   192
  0
VERTEX
  5
A1
  8
0
 10
-16.0
 20
10.66899967193604
 30
20.58099937438965
 70
   192
  0
VERTEX
  5
A2
  8
0
 10
-8.843999862670898
 20
12.29599952697754
 30
18.5629997253418
 70
   192
  0
VERTEX
  5
A3
  8
0
 10
-16.0
 20
11.60299968719482
 30
22.83399963378906
 70
   192
  0
VERTEX
  5
A4
  8
0
 10
-8.569999694824219
 20
12.50100040435791
 30
20.3120002746582
 70
   192
  0
VERTEX
  5
A5
  8
0
 10
-16.0
 20
12.05799961090088
 30
23.9330005645752
 70
   192
  0
VERTEX
  5
A6
  8
0
 10
-12.86699962615967
 20
1.855999946594238
 30
9.505000114440918
 70
   192
  0
VERTEX
  5
A7
  8
0
 10
-11.97599983215332
 20
4.802000045776367
 30
9.543999671936035
 70
   192
  0
VERTEX
  5
A8
  8
0
 10
-11.92300033569336
 20
-4.78000020980835
 30
9.54699993133545
 70
   192
  0
VERTEX
  5
A9
  8
0
 10
-11.45600032806396
 20
-6.145999908447266
 30
9.567999839782715
 70
   192
  0
VERTEX
  5
AA
  8
0
 10
-9.006999969482422
 20
-9.37399959564209
 30
9.730999946594238
 70
   192
  0
VERTEX
  5
AB
  8
0
 10
-6.065999984741211
 20
-11.4980001449585
 30
10.10299968719482
 70
   192
  0
VERTEX
  5
AC
  8
0
 10
-9.161999702453613
 20
-9.168999671936035
 30
9.720000267028809
 70
   192
  0
VERTEX
  5
AD
  8
0
 10
-9.336000442504883
 20
-8.9399995803833
 30
9.708999633789062
 70
   192
  0
VERTEX
  5
AE
  8
0
 10
-5.330999851226807
 20
-11.79899978637695
 30
10.33600044250488
 70
   192
  0
VERTEX
  5
AF
  8
0
 10
-3.739000082015991
 20
-12.45100021362305
 30
10.84000015258789
 70
   192
  0
VERTEX
  5
B0
  8
0
 10
-2.286999940872192
 20
-12.79699993133545
 30
12.14999961853027
 70
   192
  0
VERTEX
  5
B1
  8
0
 10
-1.868000030517578
 20
-12.85700035095215
 30
13.36200046539307
 70
   192
  0
VERTEX
  5
B2
  8
0
 10
-3.039000034332275
 20
-12.61800003051758
 30
11.4709997177124
 70
   192
  0
VERTEX
  5
B3
  8
0
 10
-1.36300003528595
 20
-12.92800045013428
 30
14.82499980926514
 70
   192
  0
VERTEX
  5
B4
  8
0
 10
-12.8439998626709
 20
0.0020000000949949
 30
9.505999565124512
 70
   192
  0
VERTEX
  5
B5
  8
0
 10
-12.81700038909912
 20
-2.171999931335449
 30
9.506999969482422
 70
   192
  0
VERTEX
  5
B6
  8
0
 10
-9.157999992370605
 20
9.151000022888184
 30
9.727999687194824
 70
   192
  0
VERTEX
  5
B7
  8
0
 10
-9.532999992370605
 20
8.83899974822998
 30
9.689000129699707
 70
   192
  0
VERTEX
  5
B8
  8
0
 10
-5.313000202178955
 20
11.7519998550415
 30
10.38000011444092
 70
   192
  0
VERTEX
  5
B9
  8
0
 10
-6.953000068664551
 20
10.98400020599365
 30
9.958000183105469
 70
   192
  0
VERTEX
  5
BA
  8
0
 10
-11.74100017547607
 20
5.580999851226807
 30
9.553999900817871
 70
   192
  0
VERTEX
  5
BB
  8
0
 10
-3.974999904632568
 20
12.3769998550415
 30
10.72399997711182
 70
   192
  0
VERTEX
  5
BC
  8
0
 10
-3.062000036239624
 20
12.60299968719482
 30
11.50699996948242
 70
   192
  0
VERTEX
  5
BD
  8
0
 10
-1.855000019073486
 20
12.85900020599365
 30
13.35700035095215
 70
   192
  0
VERTEX
  5
BE
  8
0
 10
-2.256999969482422
 20
12.80300045013428
 30
12.19699954986572
 70
   192
  0
VERTEX
  5
BF
  8
0
 10
-1.273000001907349
 20
12.93599987030029
 30
16.23500061035156
 70
   192
  0
VERTEX
  5
C0
  8
0
 10
-1.38100004196167
 20
12.92599964141846
 30
14.72900009155273
 70
   192
  0
VERTEX
  5
C1
  8
0
 10
-0.8320000171661377
 20
12.97299957275391
 30
22.39500045776367
 70
   192
  0
VERTEX
  5
C2
  8
0
 10
-13.87899971008301
 20
0.0
 30
38.37900161743164
 70
   192
  0
VERTEX
  5
C3
  8
0
 10
-13.39700031280518
 20
-4.300000190734863
 30
37.86999893188477
 70
   192
  0
VERTEX
  5
C4
  8
0
 10
-12.4399995803833
 20
-3.773000001907349
 30
40.47800064086914
 70
   192
  0
VERTEX
  5
C5
  8
0
 10
-12.97799968719482
 20
0.003000000026077
 30
40.49900054931641
 70
   192
  0
VERTEX
  5
C6
  8
0
 10
-11.95899963378906
 20
-4.776999950408936
 30
40.45399856567383
 70
   192
  0
VERTEX
  5
C7
  8
0
 10
-12.17000007629395
 20
7.900000095367432
 30
36.55400085449219
 70
   192
  0
VERTEX
  5
C8
  8
0
 10
-13.39700031280518
 20
4.300000190734863
 30
37.86999893188477
 70
   192
  0
VERTEX
  5
C9
  8
0
 10
-12.00300025939941
 20
4.796999931335449
 30
40.45700073242188
 70
   192
  0
VERTEX
  5
CA
  8
0
 10
-10.67500019073486
 20
7.419000148773193
 30
40.38800048828125
 70
   192
  0
VERTEX
  5
CB
  8
0
 10
-10.44200038909912
 20
10.70400047302246
 30
34.55300140380859
 70
   192
  0
VERTEX
  5
CC
  8
0
 10
-9.11299991607666
 20
9.119999885559082
 30
40.26699829101562
 70
   192
  0
VERTEX
  5
CD
  8
0
 10
-8.298999786376953
 20
10.00599956512451
 30
40.20399856567383
 70
   192
  0
VERTEX
  5
CE
  8
0
 10
-9.3100004196167
 20
8.904999732971191
 30
40.28200149536133
 70
   192
  0
VERTEX
  5
CF
  8
0
 10
-9.402999877929688
 20
11.81999969482422
 30
32.97200012207031
 70
   192
  0
VERTEX
  5
D0
  8
0
 10
-5.313000202178955
 20
11.81700038909912
 30
39.70700073242188
 70
   192
  0
VERTEX
  5
D1
  8
0
 10
-5.035999774932861
 20
11.98499965667725
 30
39.6609992980957
 70
   192
  0
VERTEX
  5
D2
  8
0
 10
-1.921000003814697
 20
12.85700035095215
 30
37.1619987487793
 70
   192
  0
VERTEX
  5
D3
  8
0
 10
-1.809999942779541
 20
12.86999988555908
 30
36.66799926757812
 70
   192
  0
VERTEX
  5
D4
  8
0
 10
-3.130000114440918
 20
12.61800003051758
 30
38.7760009765625
 70
   192
  0
VERTEX
  5
D5
  8
0
 10
-1.159999966621399
 20
12.94799995422363
 30
33.77299880981445
 70
   192
  0
VERTEX
  5
D6
  8
0
 10
-12.99899959564209
 20
0.153999999165535
 30
40.5
 70
   192
  0
VERTEX
  5
D7
  8
0
 10
-12.29899978637695
 20
4.211999893188477
 30
40.47200012207031
 70
   192
  0
VERTEX
  5
D8
  8
0
 10
-10.44200038909912
 20
-10.70400047302246
 30
34.55300140380859
 70
   192
  0
VERTEX
  5
D9
  8
0
 10
-9.104999542236328
 20
-9.11299991607666
 30
40.26499938964844
 70
   192
  0
VERTEX
  5
DA
  8
0
 10
-9.302000045776367
 20
-8.89799976348877
 30
40.27999877929688
 70
   192
  0
VERTEX
  5
DB
  8
0
 10
-5.164999961853027
 20
-11.93000030517578
 30
39.69599914550781
 70
   192
  0
VERTEX
  5
DC
  8
0
 10
-8.24899959564209
 20
-10.04800033569336
 30
40.19900131225586
 70
   192
  0
VERTEX
  5
DD
  8
0
 10
-12.17000007629395
 20
-7.900000095367432
 30
36.55400085449219
 70
   192
  0
VERTEX
  5
DE
  8
0
 10
-10.73099994659424
 20
-7.337999820709229
 30
40.39099884033203
 70
   192
  0
VERTEX
  5
DF
  8
0
 10
-9.402999877929688
 20
-11.81999969482422
 30
32.97200012207031
 70
   192
  0
VERTEX
  5
E0
  8
0
 10
-3.051000118255615
 20
-12.63700008392334
 30
38.7140007019043
 70
   192
  0
VERTEX
  5
E1
  8
0
 10
-2.983999967575073
 20
-12.64999961853027
 30
38.61299896240234
 70
   192
  0
VERTEX
  5
E2
  8
0
 10
-1.78600001335144
 20
-12.8769998550415
 30
36.82199859619141
 70
   192
  0
VERTEX
  5
E3
  8
0
 10
-1.217000007629395
 20
-12.9399995803833
 30
33.76200103759766
 70
   192
  0
VERTEX
  5
E4
  8
0
 10
-8.843999862670898
 20
-12.29599952697754
 30
31.4370002746582
 70
   192
  0
VERTEX
  5
E5
  8
0
 10
-0.9010000228881836
 20
-12.9680004119873
 30
24.99799919128418
 70
   192
  0
VERTEX
  5
E6
  8
0
 10
-1.088000059127808
 20
-12.95400047302246
 30
33.06499862670898
 70
   192
  0
VERTEX
  5
E7
  8
0
 10
-8.569999694824219
 20
-12.50100040435791
 30
29.6879997253418
 70
   192
  0
VERTEX
  5
E8
  8
0
 10
-16.0
 20
0.0
 30
37.5
 70
   192
  0
VERTEX
  5
E9
  8
0
 10
-16.0
 20
8.83899974822998
 30
33.8390007019043
 70
   192
  0
VERTEX
  5
EA
  8
0
 10
-16.0
 20
4.419000148773193
 30
35.66899871826172
 70
   192
  0
VERTEX
  5
EB
  8
0
 10
-16.0
 20
10.66899967193604
 30
29.41900062561035
 70
   192
  0
VERTEX
  5
EC
  8
0
 10
-16.0
 20
11.60299968719482
 30
27.16600036621094
 70
   192
  0
VERTEX
  5
ED
  8
0
 10
-16.0
 20
-8.83899974822998
 30
33.8390007019043
 70
   192
  0
VERTEX
  5
EE
  8
0
 10
-16.0
 20
-4.419000148773193
 30
35.66899871826172
 70
   192
  0
VERTEX
  5
EF
  8
0
 10
-16.0
 20
-10.66899967193604
 30
29.41900062561035
 70
   192
  0
VERTEX
  5
F0
  8
0
 10
-16.0
 20
-11.60299968719482
 30
27.16600036621094
 70
   192
  0
VERTEX
  5
F1
  8
0
 10
-16.0
 20
-12.05799961090088
 30
26.0669994354248
 70
   192
  0
VERTEX
  5
F2
  8
0
 62
     9
 10
0.0
 20
0.0
 30
0.0
 70
   128
 71
     3
 72
     2
 73
     1
  0
VERTEX
  5
F3
  8
0
 62
     9
 10
0.0
 20
0.0
 30
0.0
 70
   128
 71
     5
 72
     4
 73
     3
  0
VERTEX
  5
F4
  8
0
 62
     9
 10
0.0
 20
0.0
 30
0.0
 70
   128
 71
     6
 72
     5
 73
     1
  0
VERTEX
  5
F5
  8
0
 62
     9
 10
0.0
 20
0.0
 30
0.0
 70
   128
 71
     6
 72
     7
 73
     5
  0
VERTEX
  5
F6
  8
0
 62
     9
 10
0.0
 20
0.0
 30
0.0
 70
   128
 71
    10
 72
     9
 73
     8
  0
VERTEX
  5
F7
  8
0
 62
     9
 10
0.0
 20
0.0
 30
0.0
 70
   128
 71
    12
 72
    11
 73
    10
  0
VERTEX
  5
F8
  8
0
 62
     9
 10
0.0
 20
0.0
 30
0.0
 70
   128
 71
    12
 72
     8
 73
    13
  0
VERTEX
  5
F9
  8
0
 62
     9
 10
0.0
 20
0.0
 30
0.0
 70
   128
 71
    16
 72
    15
 73
    14
  0
VERTEX
  5
FA
  8
0
 62
     9
 10
0.0
 20
0.0
 30
0.0
 70
   128
 71
    19
 72
    18
 73
    17
  0
VERTEX
  5
FB
  8
0
 62
     9
 10
0.0
 20
0.0
 30
0.0
 70
   128
 71
    18
 72
    21
 73
    20
  0
VERTEX
  5
FC
  8
0
 62
     9
 10
0.0
 20
0.0
 30
0.0
 70
   128
 71
    21
 72
    23
 73
    22
  0
VERTEX
  5
FD
  8
0
 62
     9
 10
0.0
 20
0.0
 30
0.0
 70
   128
 71
    23
 72
     3
 73
     4
  0
VERTEX
  5
FE
  8
0
 62
     9
 10
0.0
 20
0.0
 30
0.0
 70
   128
 71
    16
 72
    19
 73
    24
  0
VERTEX
  5
FF
  8
0
 62
     9
 10
0.0
 20
0.0
 30
0.0
 70
   128
 71
    27
 72
    26
 73
    25
  0
VERTEX
  5
100
  8
0
 62
     9
 10
0.0
 20
0.0
 30
0.0
 70
   128
 71
    28
 72
    14
 73
    26
  0
VERTEX
  5
101
  8
0
 62
     9
 10
0.0
 20
0.0
 30
0.0
 70
   128
 71
    30
 72
    25
 73
    29
  0
VERTEX
  5
102
  8
0
 62
     9
 10
0.0
 20
0.0
 30
0.0
 70
   128
 71
    32
 72
    29
 73
    31
  0
VERTEX
  5
103
  8
0
 62
     9
 10
0.0
 20
0.0
 30
0.0
 70
   128
 71
    34
 72
    33
 73
     8
  0
VERTEX
  5
104
  8
0
 62
     9
 10
0.0
 20
0.0
 30
0.0
 70
   128
 71
     8
 72
     9
 73
    34
  0
VERTEX
  5
105
  8
0
 62
     9
 10
0.0
 20
0.0
 30
0.0
 70
   128
 71
    35
 72
    14
 73
    15
  0
VERTEX
  5
106
  8
0
 62
     9
 10
0.0
 20
0.0
 30
0.0
 70
   128
 71
    35
 72
    36
 73
    14
  0
VERTEX
  5
107
  8
0
 62
     9
 10
0.0
 20
0.0
 30
0.0
 70
   128
 71
    38
 72
    37
 73
    24
  0
VERTEX
  5
108
  8
0
 62
     9
 10
0.0
 20
0.0
 30
0.0
 70
   128
 71
    24
 72
    17
 73
    38
  0
VERTEX
  5
109
  8
0
 62
     9
 10
0.0
 20
0.0
 30
0.0
 70
   128
 71
    40
 72
    39
 73
    20
  0
VERTEX
  5
10A
  8
0
 62
     9
 10
0.0
 20
0.0
 30
0.0
 70
   128
 71
    39
 72
    41
 73
    20
  0
VERTEX
  5
10B
  8
0
 62
     9
 10
0.0
 20
0.0
 30
0.0
 70
   128
 71
    42
 72
    17
 73
    20
  0
VERTEX
  5
10C
  8
0
 62
     9
 10
0.0
 20
0.0
 30
0.0
 70
   128
 71
    20
 72
    41
 73
    42
  0
VERTEX
  5
10D
  8
0
 62
     9
 10
0.0
 20
0.0
 30
0.0
 70
   128
 71
    43
 72
    20
 73
    22
  0
VERTEX
  5
10E
  8
0
 62
     9
 10
0.0
 20
0.0
 30
0.0
 70
   128
 71
    22
 72
    44
 73
    43
  0
VERTEX
  5
10F
  8
0
 62
     9
 10
0.0
 20
0.0
 30
0.0
 70
   128
 71
    46
 72
    45
 73
    22
  0
VERTEX
  5
110
  8
0
 62
     9
 10
0.0
 20
0.0
 30
0.0
 70
   128
 71
    45
 72
    47
 73
    22
  0
VERTEX
  5
111
  8
0
 62
     9
 10
0.0
 20
0.0
 30
0.0
 70
   128
 71
     7
 72
    48
 73
     4
  0
VERTEX
  5
112
  8
0
 62
     9
 10
0.0
 20
0.0
 30
0.0
 70
   128
 71
    48
 72
    46
 73
     4
  0
VERTEX
  5
113
  8
0
 62
     9
 10
0.0
 20
0.0
 30
0.0
 70
   128
 71
    50
 72
    49
 73
    15
  0
VERTEX
  5
114
  8
0
 62
     9
 10
0.0
 20
0.0
 30
0.0
 70
   128
 71
    15
 72
    24
 73
    50
  0
VERTEX
  5
115
  8
0
 62
     9
 10
0.0
 20
0.0
 30
0.0
 70
   128
 71
    52
 72
    51
 73
    25
  0
VERTEX
  5
116
  8
0
 62
     9
 10
0.0
 20
0.0
 30
0.0
 70
   128
 71
    54
 72
    53
 73
    25
  0
VERTEX
  5
117
  8
0
 62
     9
 10
0.0
 20
0.0
 30
0.0
 70
   128
 71
    25
 72
    51
 73
    54
  0
VERTEX
  5
118
  8
0
 62
     9
 10
0.0
 20
0.0
 30
0.0
 70
   128
 71
    55
 72
    26
 73
    14
  0
VERTEX
  5
119
  8
0
 62
     9
 10
0.0
 20
0.0
 30
0.0
 70
   128
 71
    55
 72
    52
 73
    26
  0
VERTEX
  5
11A
  8
0
 62
     9
 10
0.0
 20
0.0
 30
0.0
 70
   128
 71
    53
 72
    56
 73
    29
  0
VERTEX
  5
11B
  8
0
 62
     9
 10
0.0
 20
0.0
 30
0.0
 70
   128
 71
    56
 72
    57
 73
    29
  0
VERTEX
  5
11C
  8
0
 62
     9
 10
0.0
 20
0.0
 30
0.0
 70
   128
 71
    58
 72
    31
 73
    29
  0
VERTEX
  5
11D
  8
0
 62
     9
 10
0.0
 20
0.0
 30
0.0
 70
   128
 71
    29
 72
    59
 73
    58
  0
VERTEX
  5
11E
  8
0
 62
     9
 10
0.0
 20
0.0
 30
0.0
 70
   128
 71
    60
 72
    33
 73
    31
  0
VERTEX
  5
11F
  8
0
 62
     9
 10
0.0
 20
0.0
 30
0.0
 70
   128
 71
    31
 72
    61
 73
    60
  0
VERTEX
  5
120
  8
0
 62
     9
 10
0.0
 20
0.0
 30
0.0
 70
   128
 71
    33
 72
    60
 73
    62
  0
VERTEX
  5
121
  8
0
 62
     9
 10
0.0
 20
0.0
 30
0.0
 70
   128
 71
    62
 72
    13
 73
     8
  0
VERTEX
  5
122
  8
0
 62
     9
 10
0.0
 20
0.0
 30
0.0
 70
   128
 71
    65
 72
    64
 73
    63
  0
VERTEX
  5
123
  8
0
 62
     9
 10
0.0
 20
0.0
 30
0.0
 70
   128
 71
    63
 72
    66
 73
    65
  0
VERTEX
  5
124
  8
0
 62
     9
 10
0.0
 20
0.0
 30
0.0
 70
   128
 71
    65
 72
    67
 73
    64
  0
VERTEX
  5
125
  8
0
 62
     9
 10
0.0
 20
0.0
 30
0.0
 70
   128
 71
    70
 72
    69
 73
    68
  0
VERTEX
  5
126
  8
0
 62
     9
 10
0.0
 20
0.0
 30
0.0
 70
   128
 71
    68
 72
    71
 73
    70
  0
VERTEX
  5
127
  8
0
 62
     9
 10
0.0
 20
0.0
 30
0.0
 70
   128
 71
    74
 72
    73
 73
    72
  0
VERTEX
  5
128
  8
0
 62
     9
 10
0.0
 20
0.0
 30
0.0
 70
   128
 71
    75
 72
    68
 73
    72
  0
VERTEX
  5
129
  8
0
 62
     9
 10
0.0
 20
0.0
 30
0.0
 70
   128
 71
    72
 72
    73
 73
    75
  0
VERTEX
  5
12A
  8
0
 62
     9
 10
0.0
 20
0.0
 30
0.0
 70
   128
 71
    77
 72
    72
 73
    76
  0
VERTEX
  5
12B
  8
0
 62
     9
 10
0.0
 20
0.0
 30
0.0
 70
   128
 71
    76
 72
    78
 73
    77
  0
VERTEX
  5
12C
  8
0
 62
     9
 10
0.0
 20
0.0
 30
0.0
 70
   128
 71
    80
 72
    79
 73
    76
  0
VERTEX
  5
12D
  8
0
 62
     9
 10
0.0
 20
0.0
 30
0.0
 70
   128
 71
    79
 72
    81
 73
    76
  0
VERTEX
  5
12E
  8
0
 62
     9
 10
0.0
 20
0.0
 30
0.0
 70
   128
 71
    11
 72
    12
 73
    82
  0
VERTEX
  5
12F
  8
0
 62
     9
 10
0.0
 20
0.0
 30
0.0
 70
   128
 71
    83
 72
    63
 73
    69
  0
VERTEX
  5
130
  8
0
 62
     9
 10
0.0
 20
0.0
 30
0.0
 70
   128
 71
    69
 72
    84
 73
    83
  0
VERTEX
  5
131
  8
0
 62
     9
 10
0.0
 20
0.0
 30
0.0
 70
   128
 71
    87
 72
    86
 73
    85
  0
VERTEX
  5
132
  8
0
 62
     9
 10
0.0
 20
0.0
 30
0.0
 70
   128
 71
    89
 72
    88
 73
    85
  0
VERTEX
  5
133
  8
0
 62
     9
 10
0.0
 20
0.0
 30
0.0
 70
   128
 71
    85
 72
    86
 73
    89
  0
VERTEX
  5
134
  8
0
 62
     9
 10
0.0
 20
0.0
 30
0.0
 70
   128
 71
    67
 72
    91
 73
    90
  0
VERTEX
  5
135
  8
0
 62
     9
 10
0.0
 20
0.0
 30
0.0
 70
   128
 71
    91
 72
    87
 73
    90
  0
VERTEX
  5
136
  8
0
 62
     9
 10
0.0
 20
0.0
 30
0.0
 70
   128
 71
    88
 72
    93
 73
    92
  0
VERTEX
  5
137
  8
0
 62
     9
 10
0.0
 20
0.0
 30
0.0
 70
   128
 71
    93
 72
    94
 73
    92
  0
VERTEX
  5
138
  8
0
 62
     9
 10
0.0
 20
0.0
 30
0.0
 70
   128
 71
    92
 72
    94
 73
    95
  0
VERTEX
  5
139
  8
0
 62
     9
 10
0.0
 20
0.0
 30
0.0
 70
   128
 71
    97
 72
    95
 73
    96
  0
VERTEX
  5
13A
  8
0
 62
     9
 10
0.0
 20
0.0
 30
0.0
 70
   128
 71
   100
 72
    99
 73
    98
  0
VERTEX
  5
13B
  8
0
 62
     9
 10
0.0
 20
0.0
 30
0.0
 70
   128
 71
    98
 72
     1
 73
   100
  0
VERTEX
  5
13C
  8
0
 62
     9
 10
0.0
 20
0.0
 30
0.0
 70
   128
 71
   101
 72
    63
 73
    64
  0
VERTEX
  5
13D
  8
0
 62
     9
 10
0.0
 20
0.0
 30
0.0
 70
   128
 71
   103
 72
   102
 73
    68
  0
VERTEX
  5
13E
  8
0
 62
     9
 10
0.0
 20
0.0
 30
0.0
 70
   128
 71
   102
 72
   104
 73
    72
  0
VERTEX
  5
13F
  8
0
 62
     9
 10
0.0
 20
0.0
 30
0.0
 70
   128
 71
   104
 72
   105
 73
    76
  0
VERTEX
  5
140
  8
0
 62
     9
 10
0.0
 20
0.0
 30
0.0
 70
   128
 71
   105
 72
    10
 73
    11
  0
VERTEX
  5
141
  8
0
 62
     9
 10
0.0
 20
0.0
 30
0.0
 70
   128
 71
   101
 72
   103
 73
    69
  0
VERTEX
  5
142
  8
0
 62
     9
 10
0.0
 20
0.0
 30
0.0
 70
   128
 71
   106
 72
    90
 73
    85
  0
VERTEX
  5
143
  8
0
 62
     9
 10
0.0
 20
0.0
 30
0.0
 70
   128
 71
   107
 72
    64
 73
    90
  0
VERTEX
  5
144
  8
0
 62
     9
 10
0.0
 20
0.0
 30
0.0
 70
   128
 71
   108
 72
    85
 73
    92
  0
VERTEX
  5
145
  8
0
 62
     9
 10
0.0
 20
0.0
 30
0.0
 70
   128
 71
   109
 72
    92
 73
    97
  0
VERTEX
  5
146
  8
0
 62
     9
 10
0.0
 20
0.0
 30
0.0
 70
   128
 71
   110
 72
   100
 73
     1
  0
VERTEX
  5
147
  8
0
 62
     9
 10
0.0
 20
0.0
 30
0.0
 70
   128
 71
     1
 72
     2
 73
   110
  0
VERTEX
  5
148
  8
0
 62
     9
 10
0.0
 20
0.0
 30
0.0
 70
   128
 71
   110
 72
    97
 73
   100
  0
VERTEX
  5
149
  8
0
 62
     9
 10
0.0
 20
0.0
 30
0.0
 70
   128
 71
    97
 72
   110
 73
   109
  0
VERTEX
  5
14A
  8
0
 62
     9
 10
0.0
 20
0.0
 30
0.0
 70
   128
 71
    92
 72
   109
 73
   108
  0
VERTEX
  5
14B
  8
0
 62
     9
 10
0.0
 20
0.0
 30
0.0
 70
   128
 71
    90
 72
   106
 73
   107
  0
VERTEX
  5
14C
  8
0
 62
     9
 10
0.0
 20
0.0
 30
0.0
 70
   128
 71
    85
 72
   108
 73
   106
  0
VERTEX
  5
14D
  8
0
 62
     9
 10
0.0
 20
0.0
 30
0.0
 70
   128
 71
    69
 72
    63
 73
   101
  0
VERTEX
  5
14E
  8
0
 62
     9
 10
0.0
 20
0.0
 30
0.0
 70
   128
 71
    11
 72
    76
 73
   105
  0
VERTEX
  5
14F
  8
0
 62
     9
 10
0.0
 20
0.0
 30
0.0
 70
   128
 71
    76
 72
    72
 73
   104
  0
VERTEX
  5
150
  8
0
 62
     9
 10
0.0
 20
0.0
 30
0.0
 70
   128
 71
    72
 72
    68
 73
   102
  0
VERTEX
  5
151
  8
0
 62
     9
 10
0.0
 20
0.0
 30
0.0
 70
   128
 71
    68
 72
    69
 73
   103
  0
VERTEX
  5
152
  8
0
 62
     9
 10
0.0
 20
0.0
 30
0.0
 70
   128
 71
    64
 72
   107
 73
   101
  0
VERTEX
  5
153
  8
0
 62
     9
 10
0.0
 20
0.0
 30
0.0
 70
   128
 71
   100
 72
    96
 73
    99
  0
VERTEX
  5
154
  8
0
 62
     9
 10
0.0
 20
0.0
 30
0.0
 70
   128
 71
    96
 72
   100
 73
    97
  0
VERTEX
  5
155
  8
0
 62
     9
 10
0.0
 20
0.0
 30
0.0
 70
   128
 71
    95
 72
    97
 73
    92
  0
VERTEX
  5
156
  8
0
 62
     9
 10
0.0
 20
0.0
 30
0.0
 70
   128
 71
    92
 72
    85
 73
    88
  0
VERTEX
  5
157
  8
0
 62
     9
 10
0.0
 20
0.0
 30
0.0
 70
   128
 71
    90
 72
    64
 73
    67
  0
VERTEX
  5
158
  8
0
 62
     9
 10
0.0
 20
0.0
 30
0.0
 70
   128
 71
    85
 72
    90
 73
    87
  0
VERTEX
  5
159
  8
0
 62
     9
 10
0.0
 20
0.0
 30
0.0
 70
   128
 71
    69
 72
    70
 73
    84
  0
VERTEX
  5
15A
  8
0
 62
     9
 10
0.0
 20
0.0
 30
0.0
 70
   128
 71
    82
 72
    80
 73
    11
  0
VERTEX
  5
15B
  8
0
 62
     9
 10
0.0
 20
0.0
 30
0.0
 70
   128
 71
    76
 72
    11
 73
    80
  0
VERTEX
  5
15C
  8
0
 62
     9
 10
0.0
 20
0.0
 30
0.0
 70
   128
 71
    76
 72
    81
 73
    78
  0
VERTEX
  5
15D
  8
0
 62
     9
 10
0.0
 20
0.0
 30
0.0
 70
   128
 71
    72
 72
    77
 73
    74
  0
VERTEX
  5
15E
  8
0
 62
     9
 10
0.0
 20
0.0
 30
0.0
 70
   128
 71
    68
 72
    75
 73
    71
  0
VERTEX
  5
15F
  8
0
 62
     9
 10
0.0
 20
0.0
 30
0.0
 70
   128
 71
    63
 72
    83
 73
    66
  0
VERTEX
  5
160
  8
0
 62
     9
 10
0.0
 20
0.0
 30
0.0
 70
   128
 71
    62
 72
     8
 73
    33
  0
VERTEX
  5
161
  8
0
 62
     9
 10
0.0
 20
0.0
 30
0.0
 70
   128
 71
    31
 72
    58
 73
    61
  0
VERTEX
  5
162
  8
0
 62
     9
 10
0.0
 20
0.0
 30
0.0
 70
   128
 71
    29
 72
    57
 73
    59
  0
VERTEX
  5
163
  8
0
 62
     9
 10
0.0
 20
0.0
 30
0.0
 70
   128
 71
    29
 72
    25
 73
    53
  0
VERTEX
  5
164
  8
0
 62
     9
 10
0.0
 20
0.0
 30
0.0
 70
   128
 71
    14
 72
    36
 73
    55
  0
VERTEX
  5
165
  8
0
 62
     9
 10
0.0
 20
0.0
 30
0.0
 70
   128
 71
    25
 72
    26
 73
    52
  0
VERTEX
  5
166
  8
0
 62
     9
 10
0.0
 20
0.0
 30
0.0
 70
   128
 71
    24
 72
    37
 73
    50
  0
VERTEX
  5
167
  8
0
 62
     9
 10
0.0
 20
0.0
 30
0.0
 70
   128
 71
     4
 72
     5
 73
     7
  0
VERTEX
  5
168
  8
0
 62
     9
 10
0.0
 20
0.0
 30
0.0
 70
   128
 71
    22
 72
     4
 73
    46
  0
VERTEX
  5
169
  8
0
 62
     9
 10
0.0
 20
0.0
 30
0.0
 70
   128
 71
    22
 72
    47
 73
    44
  0
VERTEX
  5
16A
  8
0
 62
     9
 10
0.0
 20
0.0
 30
0.0
 70
   128
 71
    20
 72
    43
 73
    40
  0
VERTEX
  5
16B
  8
0
 62
     9
 10
0.0
 20
0.0
 30
0.0
 70
   128
 71
    17
 72
    42
 73
    38
  0
VERTEX
  5
16C
  8
0
 62
     9
 10
0.0
 20
0.0
 30
0.0
 70
   128
 71
    15
 72
    49
 73
    35
  0
VERTEX
  5
16D
  8
0
 62
     9
 10
0.0
 20
0.0
 30
0.0
 70
   128
 71
    34
 72
    31
 73
    33
  0
VERTEX
  5
16E
  8
0
 62
     9
 10
0.0
 20
0.0
 30
0.0
 70
   128
 71
    31
 72
    34
 73
    32
  0
VERTEX
  5
16F
  8
0
 62
     9
 10
0.0
 20
0.0
 30
0.0
 70
   128
 71
    29
 72
    32
 73
    30
  0
VERTEX
  5
170
  8
0
 62
     9
 10
0.0
 20
0.0
 30
0.0
 70
   128
 71
    26
 72
    27
 73
    28
  0
VERTEX
  5
171
  8
0
 62
     9
 10
0.0
 20
0.0
 30
0.0
 70
   128
 71
    25
 72
    30
 73
    27
  0
VERTEX
  5
172
  8
0
 62
     9
 10
0.0
 20
0.0
 30
0.0
 70
   128
 71
    24
 72
    15
 73
    16
  0
VERTEX
  5
173
  8
0
 62
     9
 10
0.0
 20
0.0
 30
0.0
 70
   128
 71
     4
 72
    22
 73
    23
  0
VERTEX
  5
174
  8
0
 62
     9
 10
0.0
 20
0.0
 30
0.0
 70
   128
 71
    22
 72
    20
 73
    21
  0
VERTEX
  5
175
  8
0
 62
     9
 10
0.0
 20
0.0
 30
0.0
 70
   128
 71
    20
 72
    17
 73
    18
  0
VERTEX
  5
176
  8
0
 62
     9
 10
0.0
 20
0.0
 30
0.0
 70
   128
 71
    17
 72
    24
 73
    19
  0
VERTEX
  5
177
  8
0
 62
     9
 10
0.0
 20
0.0
 30
0.0
 70
   128
 71
    14
 72
    28
 73
    16
  0
VERTEX
  5
178
  8
0
 62
     9
 10
0.0
 20
0.0
 30
0.0
 70
   128
 71
    13
 72
    82
 73
    12
  0
VERTEX
  5
179
  8
0
 62
     9
 10
0.0
 20
0.0
 30
0.0
 70
   128
 71
     8
 72
    12
 73
    10
  0
VERTEX
  5
17A
  8
0
 62
     9
 10
0.0
 20
0.0
 30
0.0
 70
   128
 71
     1
 72
    98
 73
     6
  0
VERTEX
  5
17B
  8
0
 62
     9
 10
0.0
 20
0.0
 30
0.0
 70
   128
 71
     1
 72
     5
 73
     3
  0
SEQEND
  5
17C
  8
0
 62
     9
  0
ENDBLK
  5
17F
  8
0
  0
BLOCK
  8
0
  2
E3_NODE_2_
 70
     0
 10
0.0
 20
0.0
 30
0.0
  3
E3_NODE_2_
  1

  0
POLYLINE
  5
181
  8
0
 62
     9
 66
     1
 10
0.0
 20
0.0
 30
0.0
 70
    64
 71
    74
 72
    76
  0
VERTEX
  5
182
  8
0
 10
9.192000389099121
 20
9.192000389099121
 30
54.5
 70
   192
  0
VERTEX
  5
183
  8
0
 10
9.192000389099121
 20
9.192000389099121
 30
6.5
 70
   192
  0
VERTEX
  5
184
  8
0
 10
0.0
 20
13.0
 30
6.5
 70
   192
  0
VERTEX
  5
185
  8
0
 10
13.0
 20
0.0
 30
54.5
 70
   192
  0
VERTEX
  5
186
  8
0
 10
13.0
 20
0.0
 30
6.5
 70
   192
  0
VERTEX
  5
187
  8
0
 10
9.192000389099121
 20
-9.192000389099121
 30
54.5
 70
   192
  0
VERTEX
  5
188
  8
0
 10
9.192000389099121
 20
-9.192000389099121
 30
6.5
 70
   192
  0
VERTEX
  5
189
  8
0
 10
0.0
 20
-13.0
 30
54.5
 70
   192
  0
VERTEX
  5
18A
  8
0
 10
0.0
 20
-13.0
 30
6.5
 70
   192
  0
VERTEX
  5
18B
  8
0
 10
-13.0
 20
0.0
 30
54.5
 70
   192
  0
VERTEX
  5
18C
  8
0
 10
-12.29899978637695
 20
4.211999893188477
 30
40.47200012207031
 70
   192
  0
VERTEX
  5
18D
  8
0
 10
-12.99899959564209
 20
0.153999999165535
 30
40.5
 70
   192
  0
VERTEX
  5
18E
  8
0
 10
-9.192000389099121
 20
9.192000389099121
 30
54.5
 70
   192
  0
VERTEX
  5
18F
  8
0
 10
-12.00300025939941
 20
4.796999931335449
 30
40.45700073242188
 70
   192
  0
VERTEX
  5
190
  8
0
 10
-10.67500019073486
 20
7.419000148773193
 30
40.38800048828125
 70
   192
  0
VERTEX
  5
191
  8
0
 10
-9.11299991607666
 20
9.119999885559082
 30
40.26699829101562
 70
   192
  0
VERTEX
  5
192
  8
0
 10
-9.3100004196167
 20
8.904999732971191
 30
40.28200149536133
 70
   192
  0
VERTEX
  5
193
  8
0
 10
-9.192000389099121
 20
-9.192000389099121
 30
54.5
 70
   192
  0
VERTEX
  5
194
  8
0
 10
-10.73099994659424
 20
-7.337999820709229
 30
40.39099884033203
 70
   192
  0
VERTEX
  5
195
  8
0
 10
-9.302000045776367
 20
-8.89799976348877
 30
40.27999877929688
 70
   192
  0
VERTEX
  5
196
  8
0
 10
-12.4399995803833
 20
-3.773000001907349
 30
40.47800064086914
 70
   192
  0
VERTEX
  5
197
  8
0
 10
-11.95899963378906
 20
-4.776999950408936
 30
40.45399856567383
 70
   192
  0
VERTEX
  5
198
  8
0
 10
-12.97799968719482
 20
0.003000000026077
 30
40.49900054931641
 70
   192
  0
VERTEX
  5
199
  8
0
 10
-9.192000389099121
 20
-9.192000389099121
 30
6.5
 70
   192
  0
VERTEX
  5
19A
  8
0
 10
-6.065999984741211
 20
-11.4980001449585
 30
10.10299968719482
 70
   192
  0
VERTEX
  5
19B
  8
0
 10
-9.006999969482422
 20
-9.37399959564209
 30
9.730999946594238
 70
   192
  0
VERTEX
  5
19C
  8
0
 10
-3.739000082015991
 20
-12.45100021362305
 30
10.84000015258789
 70
   192
  0
VERTEX
  5
19D
  8
0
 10
-5.330999851226807
 20
-11.79899978637695
 30
10.33600044250488
 70
   192
  0
VERTEX
  5
19E
  8
0
 10
-2.286999940872192
 20
-12.79699993133545
 30
12.14999961853027
 70
   192
  0
VERTEX
  5
19F
  8
0
 10
-3.039000034332275
 20
-12.61800003051758
 30
11.4709997177124
 70
   192
  0
VERTEX
  5
1A0
  8
0
 10
-1.36300003528595
 20
-12.92800045013428
 30
14.82499980926514
 70
   192
  0
VERTEX
  5
1A1
  8
0
 10
-1.868000030517578
 20
-12.85700035095215
 30
13.36200046539307
 70
   192
  0
VERTEX
  5
1A2
  8
0
 10
-0.8360000252723694
 20
-12.97299957275391
 30
22.18400001525879
 70
   192
  0
VERTEX
  5
1A3
  8
0
 10
-1.26199996471405
 20
-12.9370002746582
 30
16.23500061035156
 70
   192
  0
VERTEX
  5
1A4
  8
0
 10
-0.9010000228881836
 20
-12.9680004119873
 30
24.99799919128418
 70
   192
  0
VERTEX
  5
1A5
  8
0
 10
-1.088000059127808
 20
-12.95400047302246
 30
33.06499862670898
 70
   192
  0
VERTEX
  5
1A6
  8
0
 10
-1.78600001335144
 20
-12.8769998550415
 30
36.82199859619141
 70
   192
  0
VERTEX
  5
1A7
  8
0
 10
-1.217000007629395
 20
-12.9399995803833
 30
33.76200103759766
 70
   192
  0
VERTEX
  5
1A8
  8
0
 10
-3.051000118255615
 20
-12.63700008392334
 30
38.7140007019043
 70
   192
  0
VERTEX
  5
1A9
  8
0
 10
-2.983999967575073
 20
-12.64999961853027
 30
38.61299896240234
 70
   192
  0
VERTEX
  5
1AA
  8
0
 10
-8.24899959564209
 20
-10.04800033569336
 30
40.19900131225586
 70
   192
  0
VERTEX
  5
1AB
  8
0
 10
-9.104999542236328
 20
-9.11299991607666
 30
40.26499938964844
 70
   192
  0
VERTEX
  5
1AC
  8
0
 10
-5.164999961853027
 20
-11.93000030517578
 30
39.69599914550781
 70
   192
  0
VERTEX
  5
1AD
  8
0
 10
-13.0
 20
0.0
 30
6.5
 70
   192
  0
VERTEX
  5
1AE
  8
0
 10
-11.92300033569336
 20
-4.78000020980835
 30
9.54699993133545
 70
   192
  0
VERTEX
  5
1AF
  8
0
 10
-11.45600032806396
 20
-6.145999908447266
 30
9.567999839782715
 70
   192
  0
VERTEX
  5
1B0
  8
0
 10
-12.81700038909912
 20
-2.171999931335449
 30
9.506999969482422
 70
   192
  0
VERTEX
  5
1B1
  8
0
 10
-9.161999702453613
 20
-9.168999671936035
 30
9.720000267028809
 70
   192
  0
VERTEX
  5
1B2
  8
0
 10
-9.336000442504883
 20
-8.9399995803833
 30
9.708999633789062
 70
   192
  0
VERTEX
  5
1B3
  8
0
 10
-12.86699962615967
 20
1.855999946594238
 30
9.505000114440918
 70
   192
  0
VERTEX
  5
1B4
  8
0
 10
-11.97599983215332
 20
4.802000045776367
 30
9.543999671936035
 70
   192
  0
VERTEX
  5
1B5
  8
0
 10
-9.192000389099121
 20
9.192000389099121
 30
6.5
 70
   192
  0
VERTEX
  5
1B6
  8
0
 10
-12.8439998626709
 20
0.0020000000949949
 30
9.505999565124512
 70
   192
  0
VERTEX
  5
1B7
  8
0
 10
-11.74100017547607
 20
5.580999851226807
 30
9.553999900817871
 70
   192
  0
VERTEX
  5
1B8
  8
0
 10
-9.532999992370605
 20
8.83899974822998
 30
9.689000129699707
 70
   192
  0
VERTEX
  5
1B9
  8
0
 10
0.0
 20
13.0
 30
54.5
 70
   192
  0
VERTEX
  5
1BA
  8
0
 10
-5.313000202178955
 20
11.81700038909912
 30
39.70700073242188
 70
   192
  0
VERTEX
  5
1BB
  8
0
 10
-8.298999786376953
 20
10.00599956512451
 30
40.20399856567383
 70
   192
  0
VERTEX
  5
1BC
  8
0
 10
-5.035999774932861
 20
11.98499965667725
 30
39.6609992980957
 70
   192
  0
VERTEX
  5
1BD
  8
0
 10
-3.130000114440918
 20
12.61800003051758
 30
38.7760009765625
 70
   192
  0
VERTEX
  5
1BE
  8
0
 10
-1.159999966621399
 20
12.94799995422363
 30
33.77299880981445
 70
   192
  0
VERTEX
  5
1BF
  8
0
 10
-1.809999942779541
 20
12.86999988555908
 30
36.66799926757812
 70
   192
  0
VERTEX
  5
1C0
  8
0
 10
-0.8320000171661377
 20
12.97299957275391
 30
22.39500045776367
 70
   192
  0
VERTEX
  5
1C1
  8
0
 10
-0.8119999766349792
 20
12.97500038146973
 30
25.0
 70
   192
  0
VERTEX
  5
1C2
  8
0
 10
-1.38100004196167
 20
12.92599964141846
 30
14.72900009155273
 70
   192
  0
VERTEX
  5
1C3
  8
0
 10
-1.273000001907349
 20
12.93599987030029
 30
16.23500061035156
 70
   192
  0
VERTEX
  5
1C4
  8
0
 10
-2.256999969482422
 20
12.80300045013428
 30
12.19699954986572
 70
   192
  0
VERTEX
  5
1C5
  8
0
 10
-1.855000019073486
 20
12.85900020599365
 30
13.35700035095215
 70
   192
  0
VERTEX
  5
1C6
  8
0
 10
-1.921000003814697
 20
12.85700035095215
 30
37.1619987487793
 70
   192
  0
VERTEX
  5
1C7
  8
0
 10
-3.974999904632568
 20
12.3769998550415
 30
10.72399997711182
 70
   192
  0
VERTEX
  5
1C8
  8
0
 10
-3.062000036239624
 20
12.60299968719482
 30
11.50699996948242
 70
   192
  0
VERTEX
  5
1C9
  8
0
 10
-6.953000068664551
 20
10.98400020599365
 30
9.958000183105469
 70
   192
  0
VERTEX
  5
1CA
  8
0
 10
-5.313000202178955
 20
11.7519998550415
 30
10.38000011444092
 70
   192
  0
VERTEX
  5
1CB
  8
0
 10
-9.157999992370605
 20
9.151000022888184
 30
9.727999687194824
 70
   192
  0
VERTEX
  5
1CC
  8
0
 62
     9
 10
0.0
 20
0.0
 30
0.0
 70
   128
 71
     3
 72
     2
 73
     1
  0
VERTEX
  5
1CD
  8
0
 62
     9
 10
0.0
 20
0.0
 30
0.0
 70
   128
 71
     2
 72
     5
 73
     4
  0
VERTEX
  5
1CE
  8
0
 62
     9
 10
0.0
 20
0.0
 30
0.0
 70
   128
 71
     5
 72
     7
 73
     6
  0
VERTEX
  5
1CF
  8
0
 62
     9
 10
0.0
 20
0.0
 30
0.0
 70
   128
 71
     7
 72
     9
 73
     8
  0
VERTEX
  5
1D0
  8
0
 62
     9
 10
0.0
 20
0.0
 30
0.0
 70
   128
 71
    12
 72
    11
 73
    10
  0
VERTEX
  5
1D1
  8
0
 62
     9
 10
0.0
 20
0.0
 30
0.0
 70
   128
 71
    14
 72
    13
 73
    10
  0
VERTEX
  5
1D2
  8
0
 62
     9
 10
0.0
 20
0.0
 30
0.0
 70
   128
 71
    14
 72
    15
 73
    13
  0
VERTEX
  5
1D3
  8
0
 62
     9
 10
0.0
 20
0.0
 30
0.0
 70
   128
 71
    10
 72
    11
 73
    14
  0
VERTEX
  5
1D4
  8
0
 62
     9
 10
0.0
 20
0.0
 30
0.0
 70
   128
 71
    17
 72
    16
 73
    13
  0
VERTEX
  5
1D5
  8
0
 62
     9
 10
0.0
 20
0.0
 30
0.0
 70
   128
 71
    13
 72
    15
 73
    17
  0
VERTEX
  5
1D6
  8
0
 62
     9
 10
0.0
 20
0.0
 30
0.0
 70
   128
 71
    20
 72
    19
 73
    18
  0
VERTEX
  5
1D7
  8
0
 62
     9
 10
0.0
 20
0.0
 30
0.0
 70
   128
 71
    22
 72
    21
 73
    10
  0
VERTEX
  5
1D8
  8
0
 62
     9
 10
0.0
 20
0.0
 30
0.0
 70
   128
 71
    10
 72
    18
 73
    22
  0
VERTEX
  5
1D9
  8
0
 62
     9
 10
0.0
 20
0.0
 30
0.0
 70
   128
 71
    21
 72
    23
 73
    10
  0
VERTEX
  5
1DA
  8
0
 62
     9
 10
0.0
 20
0.0
 30
0.0
 70
   128
 71
    18
 72
    19
 73
    22
  0
VERTEX
  5
1DB
  8
0
 62
     9
 10
0.0
 20
0.0
 30
0.0
 70
   128
 71
    25
 72
     9
 73
    24
  0
VERTEX
  5
1DC
  8
0
 62
     9
 10
0.0
 20
0.0
 30
0.0
 70
   128
 71
    24
 72
    26
 73
    25
  0
VERTEX
  5
1DD
  8
0
 62
     9
 10
0.0
 20
0.0
 30
0.0
 70
   128
 71
    28
 72
    27
 73
     9
  0
VERTEX
  5
1DE
  8
0
 62
     9
 10
0.0
 20
0.0
 30
0.0
 70
   128
 71
     9
 72
    25
 73
    28
  0
VERTEX
  5
1DF
  8
0
 62
     9
 10
0.0
 20
0.0
 30
0.0
 70
   128
 71
    30
 72
    29
 73
     9
  0
VERTEX
  5
1E0
  8
0
 62
     9
 10
0.0
 20
0.0
 30
0.0
 70
   128
 71
     9
 72
    27
 73
    30
  0
VERTEX
  5
1E1
  8
0
 62
     9
 10
0.0
 20
0.0
 30
0.0
 70
   128
 71
    32
 72
    31
 73
     9
  0
VERTEX
  5
1E2
  8
0
 62
     9
 10
0.0
 20
0.0
 30
0.0
 70
   128
 71
    34
 72
    33
 73
     9
  0
VERTEX
  5
1E3
  8
0
 62
     9
 10
0.0
 20
0.0
 30
0.0
 70
   128
 71
    33
 72
    35
 73
     8
  0
VERTEX
  5
1E4
  8
0
 62
     9
 10
0.0
 20
0.0
 30
0.0
 70
   128
 71
    35
 72
    36
 73
     8
  0
VERTEX
  5
1E5
  8
0
 62
     9
 10
0.0
 20
0.0
 30
0.0
 70
   128
 71
     8
 72
     9
 73
    33
  0
VERTEX
  5
1E6
  8
0
 62
     9
 10
0.0
 20
0.0
 30
0.0
 70
   128
 71
    38
 72
    37
 73
     8
  0
VERTEX
  5
1E7
  8
0
 62
     9
 10
0.0
 20
0.0
 30
0.0
 70
   128
 71
     8
 72
    36
 73
    38
  0
VERTEX
  5
1E8
  8
0
 62
     9
 10
0.0
 20
0.0
 30
0.0
 70
   128
 71
     9
 72
    31
 73
    34
  0
VERTEX
  5
1E9
  8
0
 62
     9
 10
0.0
 20
0.0
 30
0.0
 70
   128
 71
    40
 72
    39
 73
     8
  0
VERTEX
  5
1EA
  8
0
 62
     9
 10
0.0
 20
0.0
 30
0.0
 70
   128
 71
     8
 72
    37
 73
    40
  0
VERTEX
  5
1EB
  8
0
 62
     9
 10
0.0
 20
0.0
 30
0.0
 70
   128
 71
     9
 72
    29
 73
    32
  0
VERTEX
  5
1EC
  8
0
 62
     9
 10
0.0
 20
0.0
 30
0.0
 70
   128
 71
    41
 72
    18
 73
     8
  0
VERTEX
  5
1ED
  8
0
 62
     9
 10
0.0
 20
0.0
 30
0.0
 70
   128
 71
    41
 72
    42
 73
    18
  0
VERTEX
  5
1EE
  8
0
 62
     9
 10
0.0
 20
0.0
 30
0.0
 70
   128
 71
     8
 72
    43
 73
    41
  0
VERTEX
  5
1EF
  8
0
 62
     9
 10
0.0
 20
0.0
 30
0.0
 70
   128
 71
     8
 72
    39
 73
    43
  0
VERTEX
  5
1F0
  8
0
 62
     9
 10
0.0
 20
0.0
 30
0.0
 70
   128
 71
    45
 72
    24
 73
    44
  0
VERTEX
  5
1F1
  8
0
 62
     9
 10
0.0
 20
0.0
 30
0.0
 70
   128
 71
    45
 72
    46
 73
    24
  0
VERTEX
  5
1F2
  8
0
 62
     9
 10
0.0
 20
0.0
 30
0.0
 70
   128
 71
    44
 72
    47
 73
    45
  0
VERTEX
  5
1F3
  8
0
 62
     9
 10
0.0
 20
0.0
 30
0.0
 70
   128
 71
    49
 72
    48
 73
    24
  0
VERTEX
  5
1F4
  8
0
 62
     9
 10
0.0
 20
0.0
 30
0.0
 70
   128
 71
    24
 72
    46
 73
    49
  0
VERTEX
  5
1F5
  8
0
 62
     9
 10
0.0
 20
0.0
 30
0.0
 70
   128
 71
    51
 72
    50
 73
    44
  0
VERTEX
  5
1F6
  8
0
 62
     9
 10
0.0
 20
0.0
 30
0.0
 70
   128
 71
    44
 72
    52
 73
    51
  0
VERTEX
  5
1F7
  8
0
 62
     9
 10
0.0
 20
0.0
 30
0.0
 70
   128
 71
    50
 72
    53
 73
    44
  0
VERTEX
  5
1F8
  8
0
 62
     9
 10
0.0
 20
0.0
 30
0.0
 70
   128
 71
    52
 72
    54
 73
    51
  0
VERTEX
  5
1F9
  8
0
 62
     9
 10
0.0
 20
0.0
 30
0.0
 70
   128
 71
    52
 72
    55
 73
    54
  0
VERTEX
  5
1FA
  8
0
 62
     9
 10
0.0
 20
0.0
 30
0.0
 70
   128
 71
    58
 72
    57
 73
    56
  0
VERTEX
  5
1FB
  8
0
 62
     9
 10
0.0
 20
0.0
 30
0.0
 70
   128
 71
    57
 72
    59
 73
    56
  0
VERTEX
  5
1FC
  8
0
 62
     9
 10
0.0
 20
0.0
 30
0.0
 70
   128
 71
    56
 72
    13
 73
    58
  0
VERTEX
  5
1FD
  8
0
 62
     9
 10
0.0
 20
0.0
 30
0.0
 70
   128
 71
    59
 72
    60
 73
    56
  0
VERTEX
  5
1FE
  8
0
 62
     9
 10
0.0
 20
0.0
 30
0.0
 70
   128
 71
    62
 72
    61
 73
    56
  0
VERTEX
  5
1FF
  8
0
 62
     9
 10
0.0
 20
0.0
 30
0.0
 70
   128
 71
    64
 72
    63
 73
     3
  0
VERTEX
  5
200
  8
0
 62
     9
 10
0.0
 20
0.0
 30
0.0
 70
   128
 71
     3
 72
    56
 73
    64
  0
VERTEX
  5
201
  8
0
 62
     9
 10
0.0
 20
0.0
 30
0.0
 70
   128
 71
    66
 72
    65
 73
     3
  0
VERTEX
  5
202
  8
0
 62
     9
 10
0.0
 20
0.0
 30
0.0
 70
   128
 71
     3
 72
    63
 73
    66
  0
VERTEX
  5
203
  8
0
 62
     9
 10
0.0
 20
0.0
 30
0.0
 70
   128
 71
    56
 72
    61
 73
    64
  0
VERTEX
  5
204
  8
0
 62
     9
 10
0.0
 20
0.0
 30
0.0
 70
   128
 71
    68
 72
    67
 73
     3
  0
VERTEX
  5
205
  8
0
 62
     9
 10
0.0
 20
0.0
 30
0.0
 70
   128
 71
     3
 72
    65
 73
    68
  0
VERTEX
  5
206
  8
0
 62
     9
 10
0.0
 20
0.0
 30
0.0
 70
   128
 71
    56
 72
    69
 73
    62
  0
VERTEX
  5
207
  8
0
 62
     9
 10
0.0
 20
0.0
 30
0.0
 70
   128
 71
    56
 72
    60
 73
    69
  0
VERTEX
  5
208
  8
0
 62
     9
 10
0.0
 20
0.0
 30
0.0
 70
   128
 71
    71
 72
    70
 73
     3
  0
VERTEX
  5
209
  8
0
 62
     9
 10
0.0
 20
0.0
 30
0.0
 70
   128
 71
    72
 72
    52
 73
     3
  0
VERTEX
  5
20A
  8
0
 62
     9
 10
0.0
 20
0.0
 30
0.0
 70
   128
 71
     3
 72
    73
 73
    72
  0
VERTEX
  5
20B
  8
0
 62
     9
 10
0.0
 20
0.0
 30
0.0
 70
   128
 71
    72
 72
    74
 73
    52
  0
VERTEX
  5
20C
  8
0
 62
     9
 10
0.0
 20
0.0
 30
0.0
 70
   128
 71
     3
 72
    70
 73
    73
  0
VERTEX
  5
20D
  8
0
 62
     9
 10
0.0
 20
0.0
 30
0.0
 70
   128
 71
     3
 72
    67
 73
    71
  0
VERTEX
  5
20E
  8
0
 62
     9
 10
0.0
 20
0.0
 30
0.0
 70
   128
 71
    13
 72
    16
 73
    58
  0
VERTEX
  5
20F
  8
0
 62
     9
 10
0.0
 20
0.0
 30
0.0
 70
   128
 71
    52
 72
    74
 73
    55
  0
VERTEX
  5
210
  8
0
 62
     9
 10
0.0
 20
0.0
 30
0.0
 70
   128
 71
    44
 72
    53
 73
    47
  0
VERTEX
  5
211
  8
0
 62
     9
 10
0.0
 20
0.0
 30
0.0
 70
   128
 71
    24
 72
    48
 73
    26
  0
VERTEX
  5
212
  8
0
 62
     9
 10
0.0
 20
0.0
 30
0.0
 70
   128
 71
    18
 72
    42
 73
    20
  0
VERTEX
  5
213
  8
0
 62
     9
 10
0.0
 20
0.0
 30
0.0
 70
   128
 71
    10
 72
    23
 73
    12
  0
VERTEX
  5
214
  8
0
 62
     9
 10
0.0
 20
0.0
 30
0.0
 70
   128
 71
     8
 72
     6
 73
     7
  0
VERTEX
  5
215
  8
0
 62
     9
 10
0.0
 20
0.0
 30
0.0
 70
   128
 71
     6
 72
     4
 73
     5
  0
VERTEX
  5
216
  8
0
 62
     9
 10
0.0
 20
0.0
 30
0.0
 70
   128
 71
     4
 72
     1
 73
     2
  0
VERTEX
  5
217
  8
0
 62
     9
 10
0.0
 20
0.0
 30
0.0
 70
   128
 71
     1
 72
    56
 73
     3
  0
SEQEND
  5
218
  8
0
 62
     9
  0
ENDBLK
  5
21B
  8
0
  0
BLOCK
  8
0
  2
E3_NODE_3_
 70
     0
 10
0.0
 20
0.0
 30
0.0
  3
E3_NODE_3_
  1

  0
POLYLINE
  5
21D
  8
0
 62
     9
 66
     1
 10
0.0
 20
0.0
 30
0.0
 70
    64
 71
     8
 72
     6
  0
VERTEX
  5
21E
  8
0
 10
0.0
 20
13.0
 30
54.5
 70
   192
  0
VERTEX
  5
21F
  8
0
 10
9.192000389099121
 20
-9.192000389099121
 30
54.5
 70
   192
  0
VERTEX
  5
220
  8
0
 10
13.0
 20
0.0
 30
54.5
 70
   192
  0
VERTEX
  5
221
  8
0
 10
0.0
 20
-13.0
 30
54.5
 70
   192
  0
VERTEX
  5
222
  8
0
 10
-9.192000389099121
 20
9.192000389099121
 30
54.5
 70
   192
  0
VERTEX
  5
223
  8
0
 10
-13.0
 20
0.0
 30
54.5
 70
   192
  0
VERTEX
  5
224
  8
0
 10
-9.192000389099121
 20
-9.192000389099121
 30
54.5
 70
   192
  0
VERTEX
  5
225
  8
0
 10
9.192000389099121
 20
9.192000389099121
 30
54.5
 70
   192
  0
VERTEX
  5
226
  8
0
 62
     9
 10
0.0
 20
0.0
 30
0.0
 70
   128
 71
     3
 72
     2
 73
     1
  0
VERTEX
  5
227
  8
0
 62
     9
 10
0.0
 20
0.0
 30
0.0
 70
   128
 71
     6
 72
     5
 73
     4
  0
VERTEX
  5
228
  8
0
 62
     9
 10
0.0
 20
0.0
 30
0.0
 70
   128
 71
     2
 72
     4
 73
     1
  0
VERTEX
  5
229
  8
0
 62
     9
 10
0.0
 20
0.0
 30
0.0
 70
   128
 71
     5
 72
     1
 73
     4
  0
VERTEX
  5
22A
  8
0
 62
     9
 10
0.0
 20
0.0
 30
0.0
 70
   128
 71
     4
 72
     7
 73
     6
  0
VERTEX
  5
22B
  8
0
 62
     9
 10
0.0
 20
0.0
 30
0.0
 70
   128
 71
     1
 72
     8
 73
     3
  0
SEQEND
  5
22C
  8
0
 62
     9
  0
ENDBLK
  5
22F
  8
0
  0
BLOCK
  8
0
  2
E3_NODE_4_
 70
     0
 10
0.0
 20
0.0
 30
0.0
  3
E3_NODE_4_
  1

  0
POLYLINE
  5
231
  8
0
 62
     9
 66
     1
 10
0.0
 20
0.0
 30
0.0
 70
    64
 71
     7
 72
     5
  0
VERTEX
  5
232
  8
0
 10
244.7839965820312
 20
-7.252999782562256
 30
77.5
 70
   192
  0
VERTEX
  5
233
  8
0
 10
230.6410064697266
 20
4.025000095367432
 30
77.5
 70
   192
  0
VERTEX
  5
234
  8
0
 10
236.9360046386719
 20
9.045000076293945
 30
77.5
 70
   192
  0
VERTEX
  5
235
  8
0
 10
236.9360046386719
 20
-9.045000076293945
 30
77.5
 70
   192
  0
VERTEX
  5
236
  8
0
 10
230.6410064697266
 20
-4.025000095367432
 30
77.5
 70
   192
  0
VERTEX
  5
237
  8
0
 10
244.7839965820312
 20
7.252999782562256
 30
77.5
 70
   192
  0
VERTEX
  5
238
  8
0
 10
248.2769927978516
 20
0.0
 30
77.5
 70
   192
  0
VERTEX
  5
239
  8
0
 62
     9
 10
0.0
 20
0.0
 30
0.0
 70
   128
 71
     3
 72
     2
 73
     1
  0
VERTEX
  5
23A
  8
0
 62
     9
 10
0.0
 20
0.0
 30
0.0
 70
   128
 71
     5
 72
     4
 73
     1
  0
VERTEX
  5
23B
  8
0
 62
     9
 10
0.0
 20
0.0
 30
0.0
 70
   128
 71
     1
 72
     6
 73
     3
  0
VERTEX
  5
23C
  8
0
 62
     9
 10
0.0
 20
0.0
 30
0.0
 70
   128
 71
     1
 72
     7
 73
     6
  0
VERTEX
  5
23D
  8
0
 62
     9
 10
0.0
 20
0.0
 30
0.0
 70
   128
 71
     1
 72
     2
 73
     5
  0
SEQEND
  5
23E
  8
0
 62
     9
  0
ENDBLK
  5
241
  8
0
  0
BLOCK
  8
0
  2
E3_NODE_5_
 70
     0
 10
0.0
 20
0.0
 30
0.0
  3
E3_NODE_5_
  1

  0
POLYLINE
  5
243
  8
0
 62
     9
 66
     1
 10
0.0
 20
0.0
 30
0.0
 70
    64
 71
    21
 72
    21
  0
VERTEX
  5
244
  8
0
 10
244.7839965820312
 20
7.252999782562256
 30
77.5
 70
   192
  0
VERTEX
  5
245
  8
0
 10
245.5330047607422
 20
8.192000389099121
 30
78.69999694824219
 70
   192
  0
VERTEX
  5
246
  8
0
 10
247.5050048828125
 20
4.096000194549561
 30
78.69999694824219
 70
   192
  0
VERTEX
  5
247
  8
0
 10
248.2769927978516
 20
0.0
 30
77.5
 70
   192
  0
VERTEX
  5
248
  8
0
 10
236.9360046386719
 20
9.045000076293945
 30
77.5
 70
   192
  0
VERTEX
  5
249
  8
0
 10
236.6690063476562
 20
10.21500015258789
 30
78.69999694824219
 70
   192
  0
VERTEX
  5
24A
  8
0
 10
241.1009979248047
 20
9.20300006866455
 30
78.69999694824219
 70
   192
  0
VERTEX
  5
24B
  8
0
 10
230.6410064697266
 20
4.025000095367432
 30
77.5
 70
   192
  0
VERTEX
  5
24C
  8
0
 10
229.5599975585938
 20
4.546000003814697
 30
78.69999694824219
 70
   192
  0
VERTEX
  5
24D
  8
0
 10
233.1139984130859
 20
7.380000114440918
 30
78.69999694824219
 70
   192
  0
VERTEX
  5
24E
  8
0
 10
230.6410064697266
 20
-4.025000095367432
 30
77.5
 70
   192
  0
VERTEX
  5
24F
  8
0
 10
229.5599975585938
 20
0.0
 30
78.69999694824219
 70
   192
  0
VERTEX
  5
250
  8
0
 10
229.5599975585938
 20
-4.546000003814697
 30
78.69999694824219
 70
   192
  0
VERTEX
  5
251
  8
0
 10
236.9360046386719
 20
-9.045000076293945
 30
77.5
 70
   192
  0
VERTEX
  5
252
  8
0
 10
233.1139984130859
 20
-7.380000114440918
 30
78.69999694824219
 70
   192
  0
VERTEX
  5
253
  8
0
 10
236.6690063476562
 20
-10.21500015258789
 30
78.69999694824219
 70
   192
  0
VERTEX
  5
254
  8
0
 10
244.7839965820312
 20
-7.252999782562256
 30
77.5
 70
   192
  0
VERTEX
  5
255
  8
0
 10
241.1009979248047
 20
-9.20300006866455
 30
78.69999694824219
 70
   192
  0
VERTEX
  5
256
  8
0
 10
245.5330047607422
 20
-8.192000389099121
 30
78.69999694824219
 70
   192
  0
VERTEX
  5
257
  8
0
 10
247.5050048828125
 20
-4.096000194549561
 30
78.69999694824219
 70
   192
  0
VERTEX
  5
258
  8
0
 10
249.4770050048828
 20
0.0
 30
78.69999694824219
 70
   192
  0
VERTEX
  5
259
  8
0
 62
     9
 10
0.0
 20
0.0
 30
0.0
 70
   128
 71
     3
 72
     2
 73
     1
  0
VERTEX
  5
25A
  8
0
 62
     9
 10
0.0
 20
0.0
 30
0.0
 70
   128
 71
     1
 72
     4
 73
     3
  0
VERTEX
  5
25B
  8
0
 62
     9
 10
0.0
 20
0.0
 30
0.0
 70
   128
 71
     7
 72
     6
 73
     5
  0
VERTEX
  5
25C
  8
0
 62
     9
 10
0.0
 20
0.0
 30
0.0
 70
   128
 71
     5
 72
     1
 73
     7
  0
VERTEX
  5
25D
  8
0
 62
     9
 10
0.0
 20
0.0
 30
0.0
 70
   128
 71
    10
 72
     9
 73
     8
  0
VERTEX
  5
25E
  8
0
 62
     9
 10
0.0
 20
0.0
 30
0.0
 70
   128
 71
     8
 72
     5
 73
    10
  0
VERTEX
  5
25F
  8
0
 62
     9
 10
0.0
 20
0.0
 30
0.0
 70
   128
 71
    12
 72
    11
 73
     8
  0
VERTEX
  5
260
  8
0
 62
     9
 10
0.0
 20
0.0
 30
0.0
 70
   128
 71
    12
 72
    13
 73
    11
  0
VERTEX
  5
261
  8
0
 62
     9
 10
0.0
 20
0.0
 30
0.0
 70
   128
 71
    15
 72
    14
 73
    11
  0
VERTEX
  5
262
  8
0
 62
     9
 10
0.0
 20
0.0
 30
0.0
 70
   128
 71
    15
 72
    16
 73
    14
  0
VERTEX
  5
263
  8
0
 62
     9
 10
0.0
 20
0.0
 30
0.0
 70
   128
 71
    18
 72
    17
 73
    14
  0
VERTEX
  5
264
  8
0
 62
     9
 10
0.0
 20
0.0
 30
0.0
 70
   128
 71
    18
 72
    19
 73
    17
  0
VERTEX
  5
265
  8
0
 62
     9
 10
0.0
 20
0.0
 30
0.0
 70
   128
 71
    20
 72
     4
 73
    17
  0
VERTEX
  5
266
  8
0
 62
     9
 10
0.0
 20
0.0
 30
0.0
 70
   128
 71
    20
 72
    21
 73
     4
  0
VERTEX
  5
267
  8
0
 62
     9
 10
0.0
 20
0.0
 30
0.0
 70
   128
 71
    17
 72
    19
 73
    20
  0
VERTEX
  5
268
  8
0
 62
     9
 10
0.0
 20
0.0
 30
0.0
 70
   128
 71
    14
 72
    16
 73
    18
  0
VERTEX
  5
269
  8
0
 62
     9
 10
0.0
 20
0.0
 30
0.0
 70
   128
 71
    11
 72
    13
 73
    15
  0
VERTEX
  5
26A
  8
0
 62
     9
 10
0.0
 20
0.0
 30
0.0
 70
   128
 71
     8
 72
     9
 73
    12
  0
VERTEX
  5
26B
  8
0
 62
     9
 10
0.0
 20
0.0
 30
0.0
 70
   128
 71
     5
 72
     6
 73
    10
  0
VERTEX
  5
26C
  8
0
 62
     9
 10
0.0
 20
0.0
 30
0.0
 70
   128
 71
     1
 72
     2
 73
     7
  0
VERTEX
  5
26D
  8
0
 62
     9
 10
0.0
 20
0.0
 30
0.0
 70
   128
 71
     4
 72
    21
 73
     3
  0
SEQEND
  5
26E
  8
0
 62
     9
  0
ENDBLK
  5
271
  8
0
  0
BLOCK
  8
0
  2
E3_NODE_6_
 70
     0
 10
0.0
 20
0.0
 30
0.0
  3
E3_NODE_6_
  1

  0
POLYLINE
  5
273
  8
0
 62
     9
 66
     1
 10
0.0
 20
0.0
 30
0.0
 70
    64
 71
    21
 72
    21
  0
VERTEX
  5
274
  8
0
 10
232.4669952392578
 20
8.192000389099121
 30
89.5
 70
   192
  0
VERTEX
  5
275
  8
0
 10
233.1139984130859
 20
7.380000114440918
 30
78.69999694824219
 70
   192
  0
VERTEX
  5
276
  8
0
 10
229.5599975585938
 20
4.546000003814697
 30
78.69999694824219
 70
   192
  0
VERTEX
  5
277
  8
0
 10
228.5220031738281
 20
0.0
 30
89.5
 70
   192
  0
VERTEX
  5
278
  8
0
 10
241.3309936523438
 20
10.21500015258789
 30
89.5
 70
   192
  0
VERTEX
  5
279
  8
0
 10
241.1009979248047
 20
9.20300006866455
 30
78.69999694824219
 70
   192
  0
VERTEX
  5
27A
  8
0
 10
236.6690063476562
 20
10.21500015258789
 30
78.69999694824219
 70
   192
  0
VERTEX
  5
27B
  8
0
 10
248.4400024414062
 20
4.546000003814697
 30
89.5
 70
   192
  0
VERTEX
  5
27C
  8
0
 10
247.5050048828125
 20
4.096000194549561
 30
78.69999694824219
 70
   192
  0
VERTEX
  5
27D
  8
0
 10
245.5330047607422
 20
8.192000389099121
 30
78.69999694824219
 70
   192
  0
VERTEX
  5
27E
  8
0
 10
248.4400024414062
 20
-4.546000003814697
 30
89.5
 70
   192
  0
VERTEX
  5
27F
  8
0
 10
249.4770050048828
 20
0.0
 30
78.69999694824219
 70
   192
  0
VERTEX
  5
280
  8
0
 10
247.5050048828125
 20
-4.096000194549561
 30
78.69999694824219
 70
   192
  0
VERTEX
  5
281
  8
0
 10
241.3309936523438
 20
-10.21500015258789
 30
89.5
 70
   192
  0
VERTEX
  5
282
  8
0
 10
245.5330047607422
 20
-8.192000389099121
 30
78.69999694824219
 70
   192
  0
VERTEX
  5
283
  8
0
 10
241.1009979248047
 20
-9.20300006866455
 30
78.69999694824219
 70
   192
  0
VERTEX
  5
284
  8
0
 10
232.4669952392578
 20
-8.192000389099121
 30
89.5
 70
   192
  0
VERTEX
  5
285
  8
0
 10
236.6690063476562
 20
-10.21500015258789
 30
78.69999694824219
 70
   192
  0
VERTEX
  5
286
  8
0
 10
233.1139984130859
 20
-7.380000114440918
 30
78.69999694824219
 70
   192
  0
VERTEX
  5
287
  8
0
 10
229.5599975585938
 20
-4.546000003814697
 30
78.69999694824219
 70
   192
  0
VERTEX
  5
288
  8
0
 10
229.5599975585938
 20
0.0
 30
78.69999694824219
 70
   192
  0
VERTEX
  5
289
  8
0
 62
     9
 10
0.0
 20
0.0
 30
0.0
 70
   128
 71
     3
 72
     2
 73
     1
  0
VERTEX
  5
28A
  8
0
 62
     9
 10
0.0
 20
0.0
 30
0.0
 70
   128
 71
     1
 72
     4
 73
     3
  0
VERTEX
  5
28B
  8
0
 62
     9
 10
0.0
 20
0.0
 30
0.0
 70
   128
 71
     7
 72
     6
 73
     5
  0
VERTEX
  5
28C
  8
0
 62
     9
 10
0.0
 20
0.0
 30
0.0
 70
   128
 71
     5
 72
     1
 73
     7
  0
VERTEX
  5
28D
  8
0
 62
     9
 10
0.0
 20
0.0
 30
0.0
 70
   128
 71
    10
 72
     9
 73
     8
  0
VERTEX
  5
28E
  8
0
 62
     9
 10
0.0
 20
0.0
 30
0.0
 70
   128
 71
     8
 72
     5
 73
    10
  0
VERTEX
  5
28F
  8
0
 62
     9
 10
0.0
 20
0.0
 30
0.0
 70
   128
 71
    12
 72
    11
 73
     8
  0
VERTEX
  5
290
  8
0
 62
     9
 10
0.0
 20
0.0
 30
0.0
 70
   128
 71
    12
 72
    13
 73
    11
  0
VERTEX
  5
291
  8
0
 62
     9
 10
0.0
 20
0.0
 30
0.0
 70
   128
 71
    15
 72
    14
 73
    11
  0
VERTEX
  5
292
  8
0
 62
     9
 10
0.0
 20
0.0
 30
0.0
 70
   128
 71
    15
 72
    16
 73
    14
  0
VERTEX
  5
293
  8
0
 62
     9
 10
0.0
 20
0.0
 30
0.0
 70
   128
 71
    18
 72
    17
 73
    14
  0
VERTEX
  5
294
  8
0
 62
     9
 10
0.0
 20
0.0
 30
0.0
 70
   128
 71
    18
 72
    19
 73
    17
  0
VERTEX
  5
295
  8
0
 62
     9
 10
0.0
 20
0.0
 30
0.0
 70
   128
 71
    20
 72
     4
 73
    17
  0
VERTEX
  5
296
  8
0
 62
     9
 10
0.0
 20
0.0
 30
0.0
 70
   128
 71
    20
 72
    21
 73
     4
  0
VERTEX
  5
297
  8
0
 62
     9
 10
0.0
 20
0.0
 30
0.0
 70
   128
 71
    17
 72
    19
 73
    20
  0
VERTEX
  5
298
  8
0
 62
     9
 10
0.0
 20
0.0
 30
0.0
 70
   128
 71
    14
 72
    16
 73
    18
  0
VERTEX
  5
299
  8
0
 62
     9
 10
0.0
 20
0.0
 30
0.0
 70
   128
 71
    11
 72
    13
 73
    15
  0
VERTEX
  5
29A
  8
0
 62
     9
 10
0.0
 20
0.0
 30
0.0
 70
   128
 71
     8
 72
     9
 73
    12
  0
VERTEX
  5
29B
  8
0
 62
     9
 10
0.0
 20
0.0
 30
0.0
 70
   128
 71
     5
 72
     6
 73
    10
  0
VERTEX
  5
29C
  8
0
 62
     9
 10
0.0
 20
0.0
 30
0.0
 70
   128
 71
     1
 72
     2
 73
     7
  0
VERTEX
  5
29D
  8
0
 62
     9
 10
0.0
 20
0.0
 30
0.0
 70
   128
 71
     4
 72
    21
 73
     3
  0
SEQEND
  5
29E
  8
0
 62
     9
  0
ENDBLK
  5
2A1
  8
0
  0
BLOCK
  8
0
  2
E3_NODE_7_
 70
     0
 10
0.0
 20
0.0
 30
0.0
  3
E3_NODE_7_
  1

  0
POLYLINE
  5
2A3
  8
0
 62
     9
 66
     1
 10
0.0
 20
0.0
 30
0.0
 70
    64
 71
    17
 72
    17
  0
VERTEX
  5
2A4
  8
0
 10
235.4459991455078
 20
10.9370002746582
 30
89.5
 70
   192
  0
VERTEX
  5
2A5
  8
0
 10
242.5540008544922
 20
10.9370002746582
 30
89.5
 70
   192
  0
VERTEX
  5
2A6
  8
0
 10
241.3309936523438
 20
10.21500015258789
 30
89.5
 70
   192
  0
VERTEX
  5
2A7
  8
0
 10
232.4669952392578
 20
8.192000389099121
 30
89.5
 70
   192
  0
VERTEX
  5
2A8
  8
0
 10
248.3040008544922
 20
6.760000228881836
 30
89.5
 70
   192
  0
VERTEX
  5
2A9
  8
0
 10
248.4400024414062
 20
4.546000003814697
 30
89.5
 70
   192
  0
VERTEX
  5
2AA
  8
0
 10
250.5
 20
0.0
 30
89.5
 70
   192
  0
VERTEX
  5
2AB
  8
0
 10
248.3040008544922
 20
-6.760000228881836
 30
89.5
 70
   192
  0
VERTEX
  5
2AC
  8
0
 10
248.4400024414062
 20
-4.546000003814697
 30
89.5
 70
   192
  0
VERTEX
  5
2AD
  8
0
 10
235.4459991455078
 20
-10.9370002746582
 30
89.5
 70
   192
  0
VERTEX
  5
2AE
  8
0
 10
232.4669952392578
 20
-8.192000389099121
 30
89.5
 70
   192
  0
VERTEX
  5
2AF
  8
0
 10
241.3309936523438
 20
-10.21500015258789
 30
89.5
 70
   192
  0
VERTEX
  5
2B0
  8
0
 10
229.6959991455078
 20
6.760000228881836
 30
89.5
 70
   192
  0
VERTEX
  5
2B1
  8
0
 10
229.6959991455078
 20
-6.760000228881836
 30
89.5
 70
   192
  0
VERTEX
  5
2B2
  8
0
 10
242.5540008544922
 20
-10.9370002746582
 30
89.5
 70
   192
  0
VERTEX
  5
2B3
  8
0
 10
228.5220031738281
 20
0.0
 30
89.5
 70
   192
  0
VERTEX
  5
2B4
  8
0
 10
227.5
 20
0.0
 30
89.5
 70
   192
  0
VERTEX
  5
2B5
  8
0
 62
     9
 10
0.0
 20
0.0
 30
0.0
 70
   128
 71
     3
 72
     2
 73
     1
  0
VERTEX
  5
2B6
  8
0
 62
     9
 10
0.0
 20
0.0
 30
0.0
 70
   128
 71
     1
 72
     4
 73
     3
  0
VERTEX
  5
2B7
  8
0
 62
     9
 10
0.0
 20
0.0
 30
0.0
 70
   128
 71
     5
 72
     2
 73
     3
  0
VERTEX
  5
2B8
  8
0
 62
     9
 10
0.0
 20
0.0
 30
0.0
 70
   128
 71
     3
 72
     6
 73
     5
  0
VERTEX
  5
2B9
  8
0
 62
     9
 10
0.0
 20
0.0
 30
0.0
 70
   128
 71
     9
 72
     8
 73
     7
  0
VERTEX
  5
2BA
  8
0
 62
     9
 10
0.0
 20
0.0
 30
0.0
 70
   128
 71
    12
 72
    11
 73
    10
  0
VERTEX
  5
2BB
  8
0
 62
     9
 10
0.0
 20
0.0
 30
0.0
 70
   128
 71
     1
 72
    13
 73
     4
  0
VERTEX
  5
2BC
  8
0
 62
     9
 10
0.0
 20
0.0
 30
0.0
 70
   128
 71
     7
 72
     6
 73
     9
  0
VERTEX
  5
2BD
  8
0
 62
     9
 10
0.0
 20
0.0
 30
0.0
 70
   128
 71
     8
 72
     9
 73
    12
  0
VERTEX
  5
2BE
  8
0
 62
     9
 10
0.0
 20
0.0
 30
0.0
 70
   128
 71
    11
 72
    14
 73
    10
  0
VERTEX
  5
2BF
  8
0
 62
     9
 10
0.0
 20
0.0
 30
0.0
 70
   128
 71
     7
 72
     5
 73
     6
  0
VERTEX
  5
2C0
  8
0
 62
     9
 10
0.0
 20
0.0
 30
0.0
 70
   128
 71
    10
 72
    15
 73
    12
  0
VERTEX
  5
2C1
  8
0
 62
     9
 10
0.0
 20
0.0
 30
0.0
 70
   128
 71
    12
 72
    15
 73
     8
  0
VERTEX
  5
2C2
  8
0
 62
     9
 10
0.0
 20
0.0
 30
0.0
 70
   128
 71
    14
 72
    11
 73
    16
  0
VERTEX
  5
2C3
  8
0
 62
     9
 10
0.0
 20
0.0
 30
0.0
 70
   128
 71
    16
 72
    17
 73
    14
  0
VERTEX
  5
2C4
  8
0
 62
     9
 10
0.0
 20
0.0
 30
0.0
 70
   128
 71
    13
 72
    16
 73
     4
  0
VERTEX
  5
2C5
  8
0
 62
     9
 10
0.0
 20
0.0
 30
0.0
 70
   128
 71
    13
 72
    17
 73
    16
  0
SEQEND
  5
2C6
  8
0
 62
     9
  0
ENDBLK
  5
2C9
  8
0
  0
BLOCK
  8
0
  2
E3_NODE_8_
 70
     0
 10
0.0
 20
0.0
 30
0.0
  3
E3_NODE_8_
  1

  0
POLYLINE
  5
2CB
  8
0
 62
     9
 66
     1
 10
0.0
 20
0.0
 30
0.0
 70
    64
 71
   176
 72
   326
  0
VERTEX
  5
2CC
  8
0
 10
9.303999900817871
 20
-6.760000228881836
 30
89.5
 70
   192
  0
VERTEX
  5
2CD
  8
0
 10
11.5
 20
0.0
 30
89.5
 70
   192
  0
VERTEX
  5
2CE
  8
0
 10
13.57499980926514
 20
0.0
 30
110.5699996948242
 70
   192
  0
VERTEX
  5
2CF
  8
0
 10
19.72100067138672
 20
0.0
 30
130.8300018310547
 70
   192
  0
VERTEX
  5
2D0
  8
0
 10
17.6919994354248
 20
-6.760000228881836
 30
131.6699981689453
 70
   192
  0
VERTEX
  5
2D1
  8
0
 10
29.70100021362305
 20
0.0
 30
149.5019989013672
 70
   192
  0
VERTEX
  5
2D2
  8
0
 10
27.875
 20
-6.760000228881836
 30
150.7220001220703
 70
   192
  0
VERTEX
  5
2D3
  8
0
 10
43.13199996948242
 20
0.0
 30
165.8679962158203
 70
   192
  0
VERTEX
  5
2D4
  8
0
 10
41.57899856567383
 20
-6.760000228881836
 30
167.4210052490234
 70
   192
  0
VERTEX
  5
2D5
  8
0
 10
59.49800109863281
 20
0.0
 30
179.2989959716797
 70
   192
  0
VERTEX
  5
2D6
  8
0
 10
58.27799987792969
 20
-6.760000228881836
 30
181.125
 70
   192
  0
VERTEX
  5
2D7
  8
0
 10
78.16999816894531
 20
0.0
 30
189.2790069580078
 70
   192
  0
VERTEX
  5
2D8
  8
0
 10
77.33000183105469
 20
-6.760000228881836
 30
191.3079986572266
 70
   192
  0
VERTEX
  5
2D9
  8
0
 10
98.43000030517578
 20
0.0
 30
195.4250030517578
 70
   192
  0
VERTEX
  5
2DA
  8
0
 10
98.00199890136719
 20
-6.760000228881836
 30
197.5789947509766
 70
   192
  0
VERTEX
  5
2DB
  8
0
 10
119.5
 20
0.0
 30
197.5
 70
   192
  0
VERTEX
  5
2DC
  8
0
 10
119.5
 20
-6.760000228881836
 30
199.6959991455078
 70
   192
  0
VERTEX
  5
2DD
  8
0
 10
140.5700073242188
 20
0.0
 30
195.4250030517578
 70
   192
  0
VERTEX
  5
2DE
  8
0
 10
140.9980010986328
 20
-6.760000228881836
 30
197.5789947509766
 70
   192
  0
VERTEX
  5
2DF
  8
0
 10
160.8300018310547
 20
0.0
 30
189.2790069580078
 70
   192
  0
VERTEX
  5
2E0
  8
0
 10
161.6699981689453
 20
-6.760000228881836
 30
191.3079986572266
 70
   192
  0
VERTEX
  5
2E1
  8
0
 10
179.5019989013672
 20
0.0
 30
179.2989959716797
 70
   192
  0
VERTEX
  5
2E2
  8
0
 10
180.7220001220703
 20
-6.760000228881836
 30
181.125
 70
   192
  0
VERTEX
  5
2E3
  8
0
 10
195.8679962158203
 20
0.0
 30
165.8679962158203
 70
   192
  0
VERTEX
  5
2E4
  8
0
 10
197.4210052490234
 20
-6.760000228881836
 30
167.4210052490234
 70
   192
  0
VERTEX
  5
2E5
  8
0
 10
209.2989959716797
 20
0.0
 30
149.5019989013672
 70
   192
  0
VERTEX
  5
2E6
  8
0
 10
211.125
 20
-6.760000228881836
 30
150.7220001220703
 70
   192
  0
VERTEX
  5
2E7
  8
0
 10
219.2790069580078
 20
0.0
 30
130.8300018310547
 70
   192
  0
VERTEX
  5
2E8
  8
0
 10
221.3079986572266
 20
-6.760000228881836
 30
131.6699981689453
 70
   192
  0
VERTEX
  5
2E9
  8
0
 10
225.4250030517578
 20
0.0
 30
110.5699996948242
 70
   192
  0
VERTEX
  5
2EA
  8
0
 10
227.5789947509766
 20
-6.760000228881836
 30
110.9980010986328
 70
   192
  0
VERTEX
  5
2EB
  8
0
 10
227.5
 20
0.0
 30
89.5
 70
   192
  0
VERTEX
  5
2EC
  8
0
 10
11.42099952697754
 20
-6.760000228881836
 30
110.9980010986328
 70
   192
  0
VERTEX
  5
2ED
  8
0
 10
5.782000064849854
 20
-10.9370002746582
 30
112.120002746582
 70
   192
  0
VERTEX
  5
2EE
  8
0
 10
6.846000194549561
 20
-8.545000076293945
 30
89.5
 70
   192
  0
VERTEX
  5
2EF
  8
0
 10
3.553999900817871
 20
-10.9370002746582
 30
89.5
 70
   192
  0
VERTEX
  5
2F0
  8
0
 10
12.38000011444092
 20
-10.9370002746582
 30
133.8710021972656
 70
   192
  0
VERTEX
  5
2F1
  8
0
 10
23.0939998626709
 20
-10.9370002746582
 30
153.9160003662109
 70
   192
  0
VERTEX
  5
2F2
  8
0
 10
37.51399993896484
 20
-10.9370002746582
 30
171.4859924316406
 70
   192
  0
VERTEX
  5
2F3
  8
0
 10
55.08399963378906
 20
-10.9370002746582
 30
185.906005859375
 70
   192
  0
VERTEX
  5
2F4
  8
0
 10
75.12899780273438
 20
-10.9370002746582
 30
196.6199951171875
 70
   192
  0
VERTEX
  5
2F5
  8
0
 10
96.87999725341797
 20
-10.9370002746582
 30
203.2180023193359
 70
   192
  0
VERTEX
  5
2F6
  8
0
 10
119.5
 20
-10.9370002746582
 30
205.4459991455078
 70
   192
  0
VERTEX
  5
2F7
  8
0
 10
142.1199951171875
 20
-10.9370002746582
 30
203.2180023193359
 70
   192
  0
VERTEX
  5
2F8
  8
0
 10
163.8710021972656
 20
-10.9370002746582
 30
196.6199951171875
 70
   192
  0
VERTEX
  5
2F9
  8
0
 10
183.9160003662109
 20
-10.9370002746582
 30
185.906005859375
 70
   192
  0
VERTEX
  5
2FA
  8
0
 10
201.4859924316406
 20
-10.9370002746582
 30
171.4859924316406
 70
   192
  0
VERTEX
  5
2FB
  8
0
 10
215.906005859375
 20
-10.9370002746582
 30
153.9160003662109
 70
   192
  0
VERTEX
  5
2FC
  8
0
 10
226.6199951171875
 20
-10.9370002746582
 30
133.8710021972656
 70
   192
  0
VERTEX
  5
2FD
  8
0
 10
233.2180023193359
 20
-10.9370002746582
 30
112.120002746582
 70
   192
  0
VERTEX
  5
2FE
  8
0
 10
235.4459991455078
 20
-10.9370002746582
 30
89.5
 70
   192
  0
VERTEX
  5
2FF
  8
0
 10
-2.559000015258789
 20
-10.9370002746582
 30
89.5
 70
   192
  0
VERTEX
  5
300
  8
0
 10
-1.189000010490417
 20
-10.9370002746582
 30
113.5070037841797
 70
   192
  0
VERTEX
  5
301
  8
0
 10
-3.553999900817871
 20
-10.9370002746582
 30
89.5
 70
   192
  0
VERTEX
  5
302
  8
0
 10
5.813000202178955
 20
-10.9370002746582
 30
136.5910034179688
 70
   192
  0
VERTEX
  5
303
  8
0
 10
17.18499946594238
 20
-10.9370002746582
 30
157.8650054931641
 70
   192
  0
VERTEX
  5
304
  8
0
 10
32.48799896240234
 20
-10.9370002746582
 30
176.5119934082031
 70
   192
  0
VERTEX
  5
305
  8
0
 10
51.1349983215332
 20
-10.9370002746582
 30
191.8150024414062
 70
   192
  0
VERTEX
  5
306
  8
0
 10
72.40899658203125
 20
-10.9370002746582
 30
203.1869964599609
 70
   192
  0
VERTEX
  5
307
  8
0
 10
95.49299621582031
 20
-10.9370002746582
 30
210.1889953613281
 70
   192
  0
VERTEX
  5
308
  8
0
 10
119.5
 20
-10.9370002746582
 30
212.5540008544922
 70
   192
  0
VERTEX
  5
309
  8
0
 10
143.5070037841797
 20
-10.9370002746582
 30
210.1889953613281
 70
   192
  0
VERTEX
  5
30A
  8
0
 10
166.5910034179688
 20
-10.9370002746582
 30
203.1869964599609
 70
   192
  0
VERTEX
  5
30B
  8
0
 10
187.8650054931641
 20
-10.9370002746582
 30
191.8150024414062
 70
   192
  0
VERTEX
  5
30C
  8
0
 10
206.5119934082031
 20
-10.9370002746582
 30
176.5119934082031
 70
   192
  0
VERTEX
  5
30D
  8
0
 10
221.8150024414062
 20
-10.9370002746582
 30
157.8650054931641
 70
   192
  0
VERTEX
  5
30E
  8
0
 10
233.1869964599609
 20
-10.9370002746582
 30
136.5910034179688
 70
   192
  0
VERTEX
  5
30F
  8
0
 10
240.1889953613281
 20
-10.9370002746582
 30
113.5070037841797
 70
   192
  0
VERTEX
  5
310
  8
0
 10
242.5540008544922
 20
-10.9370002746582
 30
89.5
 70
   192
  0
VERTEX
  5
311
  8
0
 10
-6.828999996185303
 20
-6.760000228881836
 30
114.6279983520508
 70
   192
  0
VERTEX
  5
312
  8
0
 10
-9.303999900817871
 20
-6.760000228881836
 30
89.5
 70
   192
  0
VERTEX
  5
313
  8
0
 10
0.5009999871253967
 20
-6.760000228881836
 30
138.7910003662109
 70
   192
  0
VERTEX
  5
314
  8
0
 10
12.4040002822876
 20
-6.760000228881836
 30
161.0590057373047
 70
   192
  0
VERTEX
  5
315
  8
0
 10
28.42200088500977
 20
-6.760000228881836
 30
180.5780029296875
 70
   192
  0
VERTEX
  5
316
  8
0
 10
47.94100189208984
 20
-6.760000228881836
 30
196.5959930419922
 70
   192
  0
VERTEX
  5
317
  8
0
 10
70.20899963378906
 20
-6.760000228881836
 30
208.4989929199219
 70
   192
  0
VERTEX
  5
318
  8
0
 10
94.37200164794922
 20
-6.760000228881836
 30
215.8289947509766
 70
   192
  0
VERTEX
  5
319
  8
0
 10
119.5
 20
-6.760000228881836
 30
218.3040008544922
 70
   192
  0
VERTEX
  5
31A
  8
0
 10
144.6280059814453
 20
-6.760000228881836
 30
215.8289947509766
 70
   192
  0
VERTEX
  5
31B
  8
0
 10
168.7910003662109
 20
-6.760000228881836
 30
208.4989929199219
 70
   192
  0
VERTEX
  5
31C
  8
0
 10
191.0590057373047
 20
-6.760000228881836
 30
196.5959930419922
 70
   192
  0
VERTEX
  5
31D
  8
0
 10
210.5780029296875
 20
-6.760000228881836
 30
180.5780029296875
 70
   192
  0
VERTEX
  5
31E
  8
0
 10
226.5959930419922
 20
-6.760000228881836
 30
161.0590057373047
 70
   192
  0
VERTEX
  5
31F
  8
0
 10
238.4989929199219
 20
-6.760000228881836
 30
138.7910003662109
 70
   192
  0
VERTEX
  5
320
  8
0
 10
245.8289947509766
 20
-6.760000228881836
 30
114.6279983520508
 70
   192
  0
VERTEX
  5
321
  8
0
 10
248.3040008544922
 20
-6.760000228881836
 30
89.5
 70
   192
  0
VERTEX
  5
322
  8
0
 10
-8.982999801635742
 20
0.0
 30
115.056999206543
 70
   192
  0
VERTEX
  5
323
  8
0
 10
-11.5
 20
0.0
 30
89.5
 70
   192
  0
VERTEX
  5
324
  8
0
 10
-9.925000190734863
 20
-4.848000049591064
 30
89.5
 70
   192
  0
VERTEX
  5
325
  8
0
 10
-1.527999997138977
 20
0.0
 30
139.6320037841797
 70
   192
  0
VERTEX
  5
326
  8
0
 10
10.57699966430664
 20
0.0
 30
162.2799987792969
 70
   192
  0
VERTEX
  5
327
  8
0
 10
26.86899948120117
 20
0.0
 30
182.1309967041016
 70
   192
  0
VERTEX
  5
328
  8
0
 10
46.72000122070312
 20
0.0
 30
198.4230041503906
 70
   192
  0
VERTEX
  5
329
  8
0
 10
69.36799621582031
 20
0.0
 30
210.5279998779297
 70
   192
  0
VERTEX
  5
32A
  8
0
 10
93.94300079345703
 20
0.0
 30
217.9830017089844
 70
   192
  0
VERTEX
  5
32B
  8
0
 10
119.5
 20
0.0
 30
220.5
 70
   192
  0
VERTEX
  5
32C
  8
0
 10
145.0570068359375
 20
0.0
 30
217.9830017089844
 70
   192
  0
VERTEX
  5
32D
  8
0
 10
169.6320037841797
 20
0.0
 30
210.5279998779297
 70
   192
  0
VERTEX
  5
32E
  8
0
 10
192.2799987792969
 20
0.0
 30
198.4230041503906
 70
   192
  0
VERTEX
  5
32F
  8
0
 10
212.1309967041016
 20
0.0
 30
182.1309967041016
 70
   192
  0
VERTEX
  5
330
  8
0
 10
228.4230041503906
 20
0.0
 30
162.2799987792969
 70
   192
  0
VERTEX
  5
331
  8
0
 10
240.5279998779297
 20
0.0
 30
139.6320037841797
 70
   192
  0
VERTEX
  5
332
  8
0
 10
247.9830017089844
 20
0.0
 30
115.056999206543
 70
   192
  0
VERTEX
  5
333
  8
0
 10
-6.828999996185303
 20
6.760000228881836
 30
114.6279983520508
 70
   192
  0
VERTEX
  5
334
  8
0
 10
-9.925000190734863
 20
4.848000049591064
 30
89.5
 70
   192
  0
VERTEX
  5
335
  8
0
 10
-9.303999900817871
 20
6.760000228881836
 30
89.5
 70
   192
  0
VERTEX
  5
336
  8
0
 10
0.5009999871253967
 20
6.760000228881836
 30
138.7910003662109
 70
   192
  0
VERTEX
  5
337
  8
0
 10
12.4040002822876
 20
6.760000228881836
 30
161.0590057373047
 70
   192
  0
VERTEX
  5
338
  8
0
 10
28.42200088500977
 20
6.760000228881836
 30
180.5780029296875
 70
   192
  0
VERTEX
  5
339
  8
0
 10
47.94100189208984
 20
6.760000228881836
 30
196.5959930419922
 70
   192
  0
VERTEX
  5
33A
  8
0
 10
70.20899963378906
 20
6.760000228881836
 30
208.4989929199219
 70
   192
  0
VERTEX
  5
33B
  8
0
 10
94.37200164794922
 20
6.760000228881836
 30
215.8289947509766
 70
   192
  0
VERTEX
  5
33C
  8
0
 10
119.5
 20
6.760000228881836
 30
218.3040008544922
 70
   192
  0
VERTEX
  5
33D
  8
0
 10
144.6280059814453
 20
6.760000228881836
 30
215.8289947509766
 70
   192
  0
VERTEX
  5
33E
  8
0
 10
168.7910003662109
 20
6.760000228881836
 30
208.4989929199219
 70
   192
  0
VERTEX
  5
33F
  8
0
 10
191.0590057373047
 20
6.760000228881836
 30
196.5959930419922
 70
   192
  0
VERTEX
  5
340
  8
0
 10
210.5780029296875
 20
6.760000228881836
 30
180.5780029296875
 70
   192
  0
VERTEX
  5
341
  8
0
 10
226.5959930419922
 20
6.760000228881836
 30
161.0590057373047
 70
   192
  0
VERTEX
  5
342
  8
0
 10
238.4989929199219
 20
6.760000228881836
 30
138.7910003662109
 70
   192
  0
VERTEX
  5
343
  8
0
 10
245.8289947509766
 20
6.760000228881836
 30
114.6279983520508
 70
   192
  0
VERTEX
  5
344
  8
0
 10
250.5
 20
0.0
 30
89.5
 70
   192
  0
VERTEX
  5
345
  8
0
 10
248.3040008544922
 20
6.760000228881836
 30
89.5
 70
   192
  0
VERTEX
  5
346
  8
0
 10
-1.189000010490417
 20
10.9370002746582
 30
113.5070037841797
 70
   192
  0
VERTEX
  5
347
  8
0
 10
-3.553999900817871
 20
10.9370002746582
 30
89.5
 70
   192
  0
VERTEX
  5
348
  8
0
 10
5.813000202178955
 20
10.9370002746582
 30
136.5910034179688
 70
   192
  0
VERTEX
  5
349
  8
0
 10
17.18499946594238
 20
10.9370002746582
 30
157.8650054931641
 70
   192
  0
VERTEX
  5
34A
  8
0
 10
32.48799896240234
 20
10.9370002746582
 30
176.5119934082031
 70
   192
  0
VERTEX
  5
34B
  8
0
 10
51.1349983215332
 20
10.9370002746582
 30
191.8150024414062
 70
   192
  0
VERTEX
  5
34C
  8
0
 10
72.40899658203125
 20
10.9370002746582
 30
203.1869964599609
 70
   192
  0
VERTEX
  5
34D
  8
0
 10
95.49299621582031
 20
10.9370002746582
 30
210.1889953613281
 70
   192
  0
VERTEX
  5
34E
  8
0
 10
119.5
 20
10.9370002746582
 30
212.5540008544922
 70
   192
  0
VERTEX
  5
34F
  8
0
 10
143.5070037841797
 20
10.9370002746582
 30
210.1889953613281
 70
   192
  0
VERTEX
  5
350
  8
0
 10
166.5910034179688
 20
10.9370002746582
 30
203.1869964599609
 70
   192
  0
VERTEX
  5
351
  8
0
 10
187.8650054931641
 20
10.9370002746582
 30
191.8150024414062
 70
   192
  0
VERTEX
  5
352
  8
0
 10
206.5119934082031
 20
10.9370002746582
 30
176.5119934082031
 70
   192
  0
VERTEX
  5
353
  8
0
 10
221.8150024414062
 20
10.9370002746582
 30
157.8650054931641
 70
   192
  0
VERTEX
  5
354
  8
0
 10
233.1869964599609
 20
10.9370002746582
 30
136.5910034179688
 70
   192
  0
VERTEX
  5
355
  8
0
 10
240.1889953613281
 20
10.9370002746582
 30
113.5070037841797
 70
   192
  0
VERTEX
  5
356
  8
0
 10
242.5540008544922
 20
10.9370002746582
 30
89.5
 70
   192
  0
VERTEX
  5
357
  8
0
 10
-2.559000015258789
 20
10.9370002746582
 30
89.5
 70
   192
  0
VERTEX
  5
358
  8
0
 10
5.782000064849854
 20
10.9370002746582
 30
112.120002746582
 70
   192
  0
VERTEX
  5
359
  8
0
 10
3.553999900817871
 20
10.9370002746582
 30
89.5
 70
   192
  0
VERTEX
  5
35A
  8
0
 10
12.38000011444092
 20
10.9370002746582
 30
133.8710021972656
 70
   192
  0
VERTEX
  5
35B
  8
0
 10
23.0939998626709
 20
10.9370002746582
 30
153.9160003662109
 70
   192
  0
VERTEX
  5
35C
  8
0
 10
37.51399993896484
 20
10.9370002746582
 30
171.4859924316406
 70
   192
  0
VERTEX
  5
35D
  8
0
 10
55.08399963378906
 20
10.9370002746582
 30
185.906005859375
 70
   192
  0
VERTEX
  5
35E
  8
0
 10
75.12899780273438
 20
10.9370002746582
 30
196.6199951171875
 70
   192
  0
VERTEX
  5
35F
  8
0
 10
96.87999725341797
 20
10.9370002746582
 30
203.2180023193359
 70
   192
  0
VERTEX
  5
360
  8
0
 10
119.5
 20
10.9370002746582
 30
205.4459991455078
 70
   192
  0
VERTEX
  5
361
  8
0
 10
142.1199951171875
 20
10.9370002746582
 30
203.2180023193359
 70
   192
  0
VERTEX
  5
362
  8
0
 10
163.8710021972656
 20
10.9370002746582
 30
196.6199951171875
 70
   192
  0
VERTEX
  5
363
  8
0
 10
183.9160003662109
 20
10.9370002746582
 30
185.906005859375
 70
   192
  0
VERTEX
  5
364
  8
0
 10
201.4859924316406
 20
10.9370002746582
 30
171.4859924316406
 70
   192
  0
VERTEX
  5
365
  8
0
 10
215.906005859375
 20
10.9370002746582
 30
153.9160003662109
 70
   192
  0
VERTEX
  5
366
  8
0
 10
226.6199951171875
 20
10.9370002746582
 30
133.8710021972656
 70
   192
  0
VERTEX
  5
367
  8
0
 10
233.2180023193359
 20
10.9370002746582
 30
112.120002746582
 70
   192
  0
VERTEX
  5
368
  8
0
 10
235.4459991455078
 20
10.9370002746582
 30
89.5
 70
   192
  0
VERTEX
  5
369
  8
0
 10
11.42099952697754
 20
6.760000228881836
 30
110.9980010986328
 70
   192
  0
VERTEX
  5
36A
  8
0
 10
9.303999900817871
 20
6.760000228881836
 30
89.5
 70
   192
  0
VERTEX
  5
36B
  8
0
 10
6.846000194549561
 20
8.545000076293945
 30
89.5
 70
   192
  0
VERTEX
  5
36C
  8
0
 10
17.6919994354248
 20
6.760000228881836
 30
131.6699981689453
 70
   192
  0
VERTEX
  5
36D
  8
0
 10
27.875
 20
6.760000228881836
 30
150.7220001220703
 70
   192
  0
VERTEX
  5
36E
  8
0
 10
41.57899856567383
 20
6.760000228881836
 30
167.4210052490234
 70
   192
  0
VERTEX
  5
36F
  8
0
 10
58.27799987792969
 20
6.760000228881836
 30
181.125
 70
   192
  0
VERTEX
  5
370
  8
0
 10
77.33000183105469
 20
6.760000228881836
 30
191.3079986572266
 70
   192
  0
VERTEX
  5
371
  8
0
 10
98.00199890136719
 20
6.760000228881836
 30
197.5789947509766
 70
   192
  0
VERTEX
  5
372
  8
0
 10
119.5
 20
6.760000228881836
 30
199.6959991455078
 70
   192
  0
VERTEX
  5
373
  8
0
 10
140.9980010986328
 20
6.760000228881836
 30
197.5789947509766
 70
   192
  0
VERTEX
  5
374
  8
0
 10
161.6699981689453
 20
6.760000228881836
 30
191.3079986572266
 70
   192
  0
VERTEX
  5
375
  8
0
 10
180.7220001220703
 20
6.760000228881836
 30
181.125
 70
   192
  0
VERTEX
  5
376
  8
0
 10
197.4210052490234
 20
6.760000228881836
 30
167.4210052490234
 70
   192
  0
VERTEX
  5
377
  8
0
 10
211.125
 20
6.760000228881836
 30
150.7220001220703
 70
   192
  0
VERTEX
  5
378
  8
0
 10
221.3079986572266
 20
6.760000228881836
 30
131.6699981689453
 70
   192
  0
VERTEX
  5
379
  8
0
 10
227.5789947509766
 20
6.760000228881836
 30
110.9980010986328
 70
   192
  0
VERTEX
  5
37A
  8
0
 10
229.6959991455078
 20
6.760000228881836
 30
89.5
 70
   192
  0
VERTEX
  5
37B
  8
0
 10
229.6959991455078
 20
-6.760000228881836
 30
89.5
 70
   192
  0
VERTEX
  5
37C
  8
0
 62
     9
 10
0.0
 20
0.0
 30
0.0
 70
   128
 71
     3
 72
     2
 73
     1
  0
VERTEX
  5
37D
  8
0
 62
     9
 10
0.0
 20
0.0
 30
0.0
 70
   128
 71
     5
 72
     4
 73
     3
  0
VERTEX
  5
37E
  8
0
 62
     9
 10
0.0
 20
0.0
 30
0.0
 70
   128
 71
     7
 72
     6
 73
     4
  0
VERTEX
  5
37F
  8
0
 62
     9
 10
0.0
 20
0.0
 30
0.0
 70
   128
 71
     9
 72
     8
 73
     6
  0
VERTEX
  5
380
  8
0
 62
     9
 10
0.0
 20
0.0
 30
0.0
 70
   128
 71
    11
 72
    10
 73
     8
  0
VERTEX
  5
381
  8
0
 62
     9
 10
0.0
 20
0.0
 30
0.0
 70
   128
 71
    13
 72
    12
 73
    10
  0
VERTEX
  5
382
  8
0
 62
     9
 10
0.0
 20
0.0
 30
0.0
 70
   128
 71
    15
 72
    14
 73
    12
  0
VERTEX
  5
383
  8
0
 62
     9
 10
0.0
 20
0.0
 30
0.0
 70
   128
 71
    17
 72
    16
 73
    14
  0
VERTEX
  5
384
  8
0
 62
     9
 10
0.0
 20
0.0
 30
0.0
 70
   128
 71
    19
 72
    18
 73
    16
  0
VERTEX
  5
385
  8
0
 62
     9
 10
0.0
 20
0.0
 30
0.0
 70
   128
 71
    21
 72
    20
 73
    18
  0
VERTEX
  5
386
  8
0
 62
     9
 10
0.0
 20
0.0
 30
0.0
 70
   128
 71
    23
 72
    22
 73
    20
  0
VERTEX
  5
387
  8
0
 62
     9
 10
0.0
 20
0.0
 30
0.0
 70
   128
 71
    25
 72
    24
 73
    22
  0
VERTEX
  5
388
  8
0
 62
     9
 10
0.0
 20
0.0
 30
0.0
 70
   128
 71
    27
 72
    26
 73
    24
  0
VERTEX
  5
389
  8
0
 62
     9
 10
0.0
 20
0.0
 30
0.0
 70
   128
 71
    29
 72
    28
 73
    26
  0
VERTEX
  5
38A
  8
0
 62
     9
 10
0.0
 20
0.0
 30
0.0
 70
   128
 71
    31
 72
    30
 73
    28
  0
VERTEX
  5
38B
  8
0
 62
     9
 10
0.0
 20
0.0
 30
0.0
 70
   128
 71
    32
 72
    30
 73
    31
  0
VERTEX
  5
38C
  8
0
 62
     9
 10
0.0
 20
0.0
 30
0.0
 70
   128
 71
    35
 72
    34
 73
    33
  0
VERTEX
  5
38D
  8
0
 62
     9
 10
0.0
 20
0.0
 30
0.0
 70
   128
 71
    35
 72
    36
 73
    34
  0
VERTEX
  5
38E
  8
0
 62
     9
 10
0.0
 20
0.0
 30
0.0
 70
   128
 71
    37
 72
     5
 73
    33
  0
VERTEX
  5
38F
  8
0
 62
     9
 10
0.0
 20
0.0
 30
0.0
 70
   128
 71
    38
 72
     7
 73
     5
  0
VERTEX
  5
390
  8
0
 62
     9
 10
0.0
 20
0.0
 30
0.0
 70
   128
 71
    39
 72
     9
 73
     7
  0
VERTEX
  5
391
  8
0
 62
     9
 10
0.0
 20
0.0
 30
0.0
 70
   128
 71
    40
 72
    11
 73
     9
  0
VERTEX
  5
392
  8
0
 62
     9
 10
0.0
 20
0.0
 30
0.0
 70
   128
 71
    41
 72
    13
 73
    11
  0
VERTEX
  5
393
  8
0
 62
     9
 10
0.0
 20
0.0
 30
0.0
 70
   128
 71
    42
 72
    15
 73
    13
  0
VERTEX
  5
394
  8
0
 62
     9
 10
0.0
 20
0.0
 30
0.0
 70
   128
 71
    43
 72
    17
 73
    15
  0
VERTEX
  5
395
  8
0
 62
     9
 10
0.0
 20
0.0
 30
0.0
 70
   128
 71
    44
 72
    19
 73
    17
  0
VERTEX
  5
396
  8
0
 62
     9
 10
0.0
 20
0.0
 30
0.0
 70
   128
 71
    45
 72
    21
 73
    19
  0
VERTEX
  5
397
  8
0
 62
     9
 10
0.0
 20
0.0
 30
0.0
 70
   128
 71
    46
 72
    23
 73
    21
  0
VERTEX
  5
398
  8
0
 62
     9
 10
0.0
 20
0.0
 30
0.0
 70
   128
 71
    47
 72
    25
 73
    23
  0
VERTEX
  5
399
  8
0
 62
     9
 10
0.0
 20
0.0
 30
0.0
 70
   128
 71
    48
 72
    27
 73
    25
  0
VERTEX
  5
39A
  8
0
 62
     9
 10
0.0
 20
0.0
 30
0.0
 70
   128
 71
    49
 72
    29
 73
    27
  0
VERTEX
  5
39B
  8
0
 62
     9
 10
0.0
 20
0.0
 30
0.0
 70
   128
 71
    50
 72
    31
 73
    29
  0
VERTEX
  5
39C
  8
0
 62
     9
 10
0.0
 20
0.0
 30
0.0
 70
   128
 71
    31
 72
    50
 73
    51
  0
VERTEX
  5
39D
  8
0
 62
     9
 10
0.0
 20
0.0
 30
0.0
 70
   128
 71
    34
 72
    36
 73
    52
  0
VERTEX
  5
39E
  8
0
 62
     9
 10
0.0
 20
0.0
 30
0.0
 70
   128
 71
    52
 72
    54
 73
    53
  0
VERTEX
  5
39F
  8
0
 62
     9
 10
0.0
 20
0.0
 30
0.0
 70
   128
 71
    55
 72
    37
 73
    34
  0
VERTEX
  5
3A0
  8
0
 62
     9
 10
0.0
 20
0.0
 30
0.0
 70
   128
 71
    56
 72
    38
 73
    37
  0
VERTEX
  5
3A1
  8
0
 62
     9
 10
0.0
 20
0.0
 30
0.0
 70
   128
 71
    57
 72
    39
 73
    38
  0
VERTEX
  5
3A2
  8
0
 62
     9
 10
0.0
 20
0.0
 30
0.0
 70
   128
 71
    58
 72
    40
 73
    39
  0
VERTEX
  5
3A3
  8
0
 62
     9
 10
0.0
 20
0.0
 30
0.0
 70
   128
 71
    59
 72
    41
 73
    40
  0
VERTEX
  5
3A4
  8
0
 62
     9
 10
0.0
 20
0.0
 30
0.0
 70
   128
 71
    60
 72
    42
 73
    41
  0
VERTEX
  5
3A5
  8
0
 62
     9
 10
0.0
 20
0.0
 30
0.0
 70
   128
 71
    61
 72
    43
 73
    42
  0
VERTEX
  5
3A6
  8
0
 62
     9
 10
0.0
 20
0.0
 30
0.0
 70
   128
 71
    62
 72
    44
 73
    43
  0
VERTEX
  5
3A7
  8
0
 62
     9
 10
0.0
 20
0.0
 30
0.0
 70
   128
 71
    63
 72
    45
 73
    44
  0
VERTEX
  5
3A8
  8
0
 62
     9
 10
0.0
 20
0.0
 30
0.0
 70
   128
 71
    64
 72
    46
 73
    45
  0
VERTEX
  5
3A9
  8
0
 62
     9
 10
0.0
 20
0.0
 30
0.0
 70
   128
 71
    65
 72
    47
 73
    46
  0
VERTEX
  5
3AA
  8
0
 62
     9
 10
0.0
 20
0.0
 30
0.0
 70
   128
 71
    66
 72
    48
 73
    47
  0
VERTEX
  5
3AB
  8
0
 62
     9
 10
0.0
 20
0.0
 30
0.0
 70
   128
 71
    67
 72
    49
 73
    48
  0
VERTEX
  5
3AC
  8
0
 62
     9
 10
0.0
 20
0.0
 30
0.0
 70
   128
 71
    68
 72
    50
 73
    49
  0
VERTEX
  5
3AD
  8
0
 62
     9
 10
0.0
 20
0.0
 30
0.0
 70
   128
 71
    50
 72
    68
 73
    69
  0
VERTEX
  5
3AE
  8
0
 62
     9
 10
0.0
 20
0.0
 30
0.0
 70
   128
 71
    54
 72
    71
 73
    70
  0
VERTEX
  5
3AF
  8
0
 62
     9
 10
0.0
 20
0.0
 30
0.0
 70
   128
 71
    72
 72
    55
 73
    53
  0
VERTEX
  5
3B0
  8
0
 62
     9
 10
0.0
 20
0.0
 30
0.0
 70
   128
 71
    73
 72
    56
 73
    55
  0
VERTEX
  5
3B1
  8
0
 62
     9
 10
0.0
 20
0.0
 30
0.0
 70
   128
 71
    74
 72
    57
 73
    56
  0
VERTEX
  5
3B2
  8
0
 62
     9
 10
0.0
 20
0.0
 30
0.0
 70
   128
 71
    75
 72
    58
 73
    57
  0
VERTEX
  5
3B3
  8
0
 62
     9
 10
0.0
 20
0.0
 30
0.0
 70
   128
 71
    76
 72
    59
 73
    58
  0
VERTEX
  5
3B4
  8
0
 62
     9
 10
0.0
 20
0.0
 30
0.0
 70
   128
 71
    77
 72
    60
 73
    59
  0
VERTEX
  5
3B5
  8
0
 62
     9
 10
0.0
 20
0.0
 30
0.0
 70
   128
 71
    78
 72
    61
 73
    60
  0
VERTEX
  5
3B6
  8
0
 62
     9
 10
0.0
 20
0.0
 30
0.0
 70
   128
 71
    79
 72
    62
 73
    61
  0
VERTEX
  5
3B7
  8
0
 62
     9
 10
0.0
 20
0.0
 30
0.0
 70
   128
 71
    80
 72
    63
 73
    62
  0
VERTEX
  5
3B8
  8
0
 62
     9
 10
0.0
 20
0.0
 30
0.0
 70
   128
 71
    81
 72
    64
 73
    63
  0
VERTEX
  5
3B9
  8
0
 62
     9
 10
0.0
 20
0.0
 30
0.0
 70
   128
 71
    82
 72
    65
 73
    64
  0
VERTEX
  5
3BA
  8
0
 62
     9
 10
0.0
 20
0.0
 30
0.0
 70
   128
 71
    83
 72
    66
 73
    65
  0
VERTEX
  5
3BB
  8
0
 62
     9
 10
0.0
 20
0.0
 30
0.0
 70
   128
 71
    84
 72
    67
 73
    66
  0
VERTEX
  5
3BC
  8
0
 62
     9
 10
0.0
 20
0.0
 30
0.0
 70
   128
 71
    85
 72
    68
 73
    67
  0
VERTEX
  5
3BD
  8
0
 62
     9
 10
0.0
 20
0.0
 30
0.0
 70
   128
 71
    68
 72
    85
 73
    86
  0
VERTEX
  5
3BE
  8
0
 62
     9
 10
0.0
 20
0.0
 30
0.0
 70
   128
 71
    89
 72
    88
 73
    87
  0
VERTEX
  5
3BF
  8
0
 62
     9
 10
0.0
 20
0.0
 30
0.0
 70
   128
 71
    87
 72
    70
 73
    89
  0
VERTEX
  5
3C0
  8
0
 62
     9
 10
0.0
 20
0.0
 30
0.0
 70
   128
 71
    90
 72
    72
 73
    70
  0
VERTEX
  5
3C1
  8
0
 62
     9
 10
0.0
 20
0.0
 30
0.0
 70
   128
 71
    91
 72
    73
 73
    72
  0
VERTEX
  5
3C2
  8
0
 62
     9
 10
0.0
 20
0.0
 30
0.0
 70
   128
 71
    92
 72
    74
 73
    73
  0
VERTEX
  5
3C3
  8
0
 62
     9
 10
0.0
 20
0.0
 30
0.0
 70
   128
 71
    93
 72
    75
 73
    74
  0
VERTEX
  5
3C4
  8
0
 62
     9
 10
0.0
 20
0.0
 30
0.0
 70
   128
 71
    94
 72
    76
 73
    75
  0
VERTEX
  5
3C5
  8
0
 62
     9
 10
0.0
 20
0.0
 30
0.0
 70
   128
 71
    95
 72
    77
 73
    76
  0
VERTEX
  5
3C6
  8
0
 62
     9
 10
0.0
 20
0.0
 30
0.0
 70
   128
 71
    96
 72
    78
 73
    77
  0
VERTEX
  5
3C7
  8
0
 62
     9
 10
0.0
 20
0.0
 30
0.0
 70
   128
 71
    97
 72
    79
 73
    78
  0
VERTEX
  5
3C8
  8
0
 62
     9
 10
0.0
 20
0.0
 30
0.0
 70
   128
 71
    98
 72
    80
 73
    79
  0
VERTEX
  5
3C9
  8
0
 62
     9
 10
0.0
 20
0.0
 30
0.0
 70
   128
 71
    99
 72
    81
 73
    80
  0
VERTEX
  5
3CA
  8
0
 62
     9
 10
0.0
 20
0.0
 30
0.0
 70
   128
 71
   100
 72
    82
 73
    81
  0
VERTEX
  5
3CB
  8
0
 62
     9
 10
0.0
 20
0.0
 30
0.0
 70
   128
 71
   101
 72
    83
 73
    82
  0
VERTEX
  5
3CC
  8
0
 62
     9
 10
0.0
 20
0.0
 30
0.0
 70
   128
 71
   102
 72
    84
 73
    83
  0
VERTEX
  5
3CD
  8
0
 62
     9
 10
0.0
 20
0.0
 30
0.0
 70
   128
 71
   103
 72
    85
 73
    84
  0
VERTEX
  5
3CE
  8
0
 62
     9
 10
0.0
 20
0.0
 30
0.0
 70
   128
 71
    86
 72
    85
 73
   103
  0
VERTEX
  5
3CF
  8
0
 62
     9
 10
0.0
 20
0.0
 30
0.0
 70
   128
 71
   105
 72
   104
 73
    87
  0
VERTEX
  5
3D0
  8
0
 62
     9
 10
0.0
 20
0.0
 30
0.0
 70
   128
 71
   105
 72
   106
 73
   104
  0
VERTEX
  5
3D1
  8
0
 62
     9
 10
0.0
 20
0.0
 30
0.0
 70
   128
 71
   107
 72
    90
 73
    87
  0
VERTEX
  5
3D2
  8
0
 62
     9
 10
0.0
 20
0.0
 30
0.0
 70
   128
 71
   108
 72
    91
 73
    90
  0
VERTEX
  5
3D3
  8
0
 62
     9
 10
0.0
 20
0.0
 30
0.0
 70
   128
 71
   109
 72
    92
 73
    91
  0
VERTEX
  5
3D4
  8
0
 62
     9
 10
0.0
 20
0.0
 30
0.0
 70
   128
 71
   110
 72
    93
 73
    92
  0
VERTEX
  5
3D5
  8
0
 62
     9
 10
0.0
 20
0.0
 30
0.0
 70
   128
 71
   111
 72
    94
 73
    93
  0
VERTEX
  5
3D6
  8
0
 62
     9
 10
0.0
 20
0.0
 30
0.0
 70
   128
 71
   112
 72
    95
 73
    94
  0
VERTEX
  5
3D7
  8
0
 62
     9
 10
0.0
 20
0.0
 30
0.0
 70
   128
 71
   113
 72
    96
 73
    95
  0
VERTEX
  5
3D8
  8
0
 62
     9
 10
0.0
 20
0.0
 30
0.0
 70
   128
 71
   114
 72
    97
 73
    96
  0
VERTEX
  5
3D9
  8
0
 62
     9
 10
0.0
 20
0.0
 30
0.0
 70
   128
 71
   115
 72
    98
 73
    97
  0
VERTEX
  5
3DA
  8
0
 62
     9
 10
0.0
 20
0.0
 30
0.0
 70
   128
 71
   116
 72
    99
 73
    98
  0
VERTEX
  5
3DB
  8
0
 62
     9
 10
0.0
 20
0.0
 30
0.0
 70
   128
 71
   117
 72
   100
 73
    99
  0
VERTEX
  5
3DC
  8
0
 62
     9
 10
0.0
 20
0.0
 30
0.0
 70
   128
 71
   118
 72
   101
 73
   100
  0
VERTEX
  5
3DD
  8
0
 62
     9
 10
0.0
 20
0.0
 30
0.0
 70
   128
 71
   119
 72
   102
 73
   101
  0
VERTEX
  5
3DE
  8
0
 62
     9
 10
0.0
 20
0.0
 30
0.0
 70
   128
 71
   120
 72
   103
 73
   102
  0
VERTEX
  5
3DF
  8
0
 62
     9
 10
0.0
 20
0.0
 30
0.0
 70
   128
 71
   122
 72
   121
 73
   103
  0
VERTEX
  5
3E0
  8
0
 62
     9
 10
0.0
 20
0.0
 30
0.0
 70
   128
 71
   124
 72
   123
 73
   104
  0
VERTEX
  5
3E1
  8
0
 62
     9
 10
0.0
 20
0.0
 30
0.0
 70
   128
 71
   125
 72
   107
 73
   104
  0
VERTEX
  5
3E2
  8
0
 62
     9
 10
0.0
 20
0.0
 30
0.0
 70
   128
 71
   126
 72
   108
 73
   107
  0
VERTEX
  5
3E3
  8
0
 62
     9
 10
0.0
 20
0.0
 30
0.0
 70
   128
 71
   127
 72
   109
 73
   108
  0
VERTEX
  5
3E4
  8
0
 62
     9
 10
0.0
 20
0.0
 30
0.0
 70
   128
 71
   128
 72
   110
 73
   109
  0
VERTEX
  5
3E5
  8
0
 62
     9
 10
0.0
 20
0.0
 30
0.0
 70
   128
 71
   129
 72
   111
 73
   110
  0
VERTEX
  5
3E6
  8
0
 62
     9
 10
0.0
 20
0.0
 30
0.0
 70
   128
 71
   130
 72
   112
 73
   111
  0
VERTEX
  5
3E7
  8
0
 62
     9
 10
0.0
 20
0.0
 30
0.0
 70
   128
 71
   131
 72
   113
 73
   112
  0
VERTEX
  5
3E8
  8
0
 62
     9
 10
0.0
 20
0.0
 30
0.0
 70
   128
 71
   132
 72
   114
 73
   113
  0
VERTEX
  5
3E9
  8
0
 62
     9
 10
0.0
 20
0.0
 30
0.0
 70
   128
 71
   133
 72
   115
 73
   114
  0
VERTEX
  5
3EA
  8
0
 62
     9
 10
0.0
 20
0.0
 30
0.0
 70
   128
 71
   134
 72
   116
 73
   115
  0
VERTEX
  5
3EB
  8
0
 62
     9
 10
0.0
 20
0.0
 30
0.0
 70
   128
 71
   135
 72
   117
 73
   116
  0
VERTEX
  5
3EC
  8
0
 62
     9
 10
0.0
 20
0.0
 30
0.0
 70
   128
 71
   136
 72
   118
 73
   117
  0
VERTEX
  5
3ED
  8
0
 62
     9
 10
0.0
 20
0.0
 30
0.0
 70
   128
 71
   137
 72
   119
 73
   118
  0
VERTEX
  5
3EE
  8
0
 62
     9
 10
0.0
 20
0.0
 30
0.0
 70
   128
 71
   138
 72
   120
 73
   119
  0
VERTEX
  5
3EF
  8
0
 62
     9
 10
0.0
 20
0.0
 30
0.0
 70
   128
 71
   138
 72
   139
 73
   122
  0
VERTEX
  5
3F0
  8
0
 62
     9
 10
0.0
 20
0.0
 30
0.0
 70
   128
 71
   141
 72
   123
 73
   140
  0
VERTEX
  5
3F1
  8
0
 62
     9
 10
0.0
 20
0.0
 30
0.0
 70
   128
 71
   140
 72
   142
 73
   141
  0
VERTEX
  5
3F2
  8
0
 62
     9
 10
0.0
 20
0.0
 30
0.0
 70
   128
 71
   143
 72
   125
 73
   123
  0
VERTEX
  5
3F3
  8
0
 62
     9
 10
0.0
 20
0.0
 30
0.0
 70
   128
 71
   144
 72
   126
 73
   125
  0
VERTEX
  5
3F4
  8
0
 62
     9
 10
0.0
 20
0.0
 30
0.0
 70
   128
 71
   145
 72
   127
 73
   126
  0
VERTEX
  5
3F5
  8
0
 62
     9
 10
0.0
 20
0.0
 30
0.0
 70
   128
 71
   146
 72
   128
 73
   127
  0
VERTEX
  5
3F6
  8
0
 62
     9
 10
0.0
 20
0.0
 30
0.0
 70
   128
 71
   147
 72
   129
 73
   128
  0
VERTEX
  5
3F7
  8
0
 62
     9
 10
0.0
 20
0.0
 30
0.0
 70
   128
 71
   148
 72
   130
 73
   129
  0
VERTEX
  5
3F8
  8
0
 62
     9
 10
0.0
 20
0.0
 30
0.0
 70
   128
 71
   149
 72
   131
 73
   130
  0
VERTEX
  5
3F9
  8
0
 62
     9
 10
0.0
 20
0.0
 30
0.0
 70
   128
 71
   150
 72
   132
 73
   131
  0
VERTEX
  5
3FA
  8
0
 62
     9
 10
0.0
 20
0.0
 30
0.0
 70
   128
 71
   151
 72
   133
 73
   132
  0
VERTEX
  5
3FB
  8
0
 62
     9
 10
0.0
 20
0.0
 30
0.0
 70
   128
 71
   152
 72
   134
 73
   133
  0
VERTEX
  5
3FC
  8
0
 62
     9
 10
0.0
 20
0.0
 30
0.0
 70
   128
 71
   153
 72
   135
 73
   134
  0
VERTEX
  5
3FD
  8
0
 62
     9
 10
0.0
 20
0.0
 30
0.0
 70
   128
 71
   154
 72
   136
 73
   135
  0
VERTEX
  5
3FE
  8
0
 62
     9
 10
0.0
 20
0.0
 30
0.0
 70
   128
 71
   155
 72
   137
 73
   136
  0
VERTEX
  5
3FF
  8
0
 62
     9
 10
0.0
 20
0.0
 30
0.0
 70
   128
 71
   156
 72
   138
 73
   137
  0
VERTEX
  5
400
  8
0
 62
     9
 10
0.0
 20
0.0
 30
0.0
 70
   128
 71
   156
 72
   157
 73
   139
  0
VERTEX
  5
401
  8
0
 62
     9
 10
0.0
 20
0.0
 30
0.0
 70
   128
 71
   160
 72
   159
 73
   158
  0
VERTEX
  5
402
  8
0
 62
     9
 10
0.0
 20
0.0
 30
0.0
 70
   128
 71
   158
 72
   141
 73
   160
  0
VERTEX
  5
403
  8
0
 62
     9
 10
0.0
 20
0.0
 30
0.0
 70
   128
 71
   161
 72
   143
 73
   141
  0
VERTEX
  5
404
  8
0
 62
     9
 10
0.0
 20
0.0
 30
0.0
 70
   128
 71
   162
 72
   144
 73
   143
  0
VERTEX
  5
405
  8
0
 62
     9
 10
0.0
 20
0.0
 30
0.0
 70
   128
 71
   163
 72
   145
 73
   144
  0
VERTEX
  5
406
  8
0
 62
     9
 10
0.0
 20
0.0
 30
0.0
 70
   128
 71
   164
 72
   146
 73
   145
  0
VERTEX
  5
407
  8
0
 62
     9
 10
0.0
 20
0.0
 30
0.0
 70
   128
 71
   165
 72
   147
 73
   146
  0
VERTEX
  5
408
  8
0
 62
     9
 10
0.0
 20
0.0
 30
0.0
 70
   128
 71
   166
 72
   148
 73
   147
  0
VERTEX
  5
409
  8
0
 62
     9
 10
0.0
 20
0.0
 30
0.0
 70
   128
 71
   167
 72
   149
 73
   148
  0
VERTEX
  5
40A
  8
0
 62
     9
 10
0.0
 20
0.0
 30
0.0
 70
   128
 71
   168
 72
   150
 73
   149
  0
VERTEX
  5
40B
  8
0
 62
     9
 10
0.0
 20
0.0
 30
0.0
 70
   128
 71
   169
 72
   151
 73
   150
  0
VERTEX
  5
40C
  8
0
 62
     9
 10
0.0
 20
0.0
 30
0.0
 70
   128
 71
   170
 72
   152
 73
   151
  0
VERTEX
  5
40D
  8
0
 62
     9
 10
0.0
 20
0.0
 30
0.0
 70
   128
 71
   171
 72
   153
 73
   152
  0
VERTEX
  5
40E
  8
0
 62
     9
 10
0.0
 20
0.0
 30
0.0
 70
   128
 71
   172
 72
   154
 73
   153
  0
VERTEX
  5
40F
  8
0
 62
     9
 10
0.0
 20
0.0
 30
0.0
 70
   128
 71
   173
 72
   155
 73
   154
  0
VERTEX
  5
410
  8
0
 62
     9
 10
0.0
 20
0.0
 30
0.0
 70
   128
 71
   174
 72
   156
 73
   155
  0
VERTEX
  5
411
  8
0
 62
     9
 10
0.0
 20
0.0
 30
0.0
 70
   128
 71
   174
 72
   175
 73
   157
  0
VERTEX
  5
412
  8
0
 62
     9
 10
0.0
 20
0.0
 30
0.0
 70
   128
 71
     3
 72
   158
 73
   159
  0
VERTEX
  5
413
  8
0
 62
     9
 10
0.0
 20
0.0
 30
0.0
 70
   128
 71
     4
 72
   161
 73
   158
  0
VERTEX
  5
414
  8
0
 62
     9
 10
0.0
 20
0.0
 30
0.0
 70
   128
 71
     6
 72
   162
 73
   161
  0
VERTEX
  5
415
  8
0
 62
     9
 10
0.0
 20
0.0
 30
0.0
 70
   128
 71
     8
 72
   163
 73
   162
  0
VERTEX
  5
416
  8
0
 62
     9
 10
0.0
 20
0.0
 30
0.0
 70
   128
 71
    10
 72
   164
 73
   163
  0
VERTEX
  5
417
  8
0
 62
     9
 10
0.0
 20
0.0
 30
0.0
 70
   128
 71
    12
 72
   165
 73
   164
  0
VERTEX
  5
418
  8
0
 62
     9
 10
0.0
 20
0.0
 30
0.0
 70
   128
 71
    14
 72
   166
 73
   165
  0
VERTEX
  5
419
  8
0
 62
     9
 10
0.0
 20
0.0
 30
0.0
 70
   128
 71
    16
 72
   167
 73
   166
  0
VERTEX
  5
41A
  8
0
 62
     9
 10
0.0
 20
0.0
 30
0.0
 70
   128
 71
    18
 72
   168
 73
   167
  0
VERTEX
  5
41B
  8
0
 62
     9
 10
0.0
 20
0.0
 30
0.0
 70
   128
 71
    20
 72
   169
 73
   168
  0
VERTEX
  5
41C
  8
0
 62
     9
 10
0.0
 20
0.0
 30
0.0
 70
   128
 71
    22
 72
   170
 73
   169
  0
VERTEX
  5
41D
  8
0
 62
     9
 10
0.0
 20
0.0
 30
0.0
 70
   128
 71
    24
 72
   171
 73
   170
  0
VERTEX
  5
41E
  8
0
 62
     9
 10
0.0
 20
0.0
 30
0.0
 70
   128
 71
    26
 72
   172
 73
   171
  0
VERTEX
  5
41F
  8
0
 62
     9
 10
0.0
 20
0.0
 30
0.0
 70
   128
 71
    28
 72
   173
 73
   172
  0
VERTEX
  5
420
  8
0
 62
     9
 10
0.0
 20
0.0
 30
0.0
 70
   128
 71
    30
 72
   174
 73
   173
  0
VERTEX
  5
421
  8
0
 62
     9
 10
0.0
 20
0.0
 30
0.0
 70
   128
 71
    32
 72
   175
 73
   174
  0
VERTEX
  5
422
  8
0
 62
     9
 10
0.0
 20
0.0
 30
0.0
 70
   128
 71
   174
 72
    30
 73
    32
  0
VERTEX
  5
423
  8
0
 62
     9
 10
0.0
 20
0.0
 30
0.0
 70
   128
 71
   173
 72
    28
 73
    30
  0
VERTEX
  5
424
  8
0
 62
     9
 10
0.0
 20
0.0
 30
0.0
 70
   128
 71
   172
 72
    26
 73
    28
  0
VERTEX
  5
425
  8
0
 62
     9
 10
0.0
 20
0.0
 30
0.0
 70
   128
 71
   171
 72
    24
 73
    26
  0
VERTEX
  5
426
  8
0
 62
     9
 10
0.0
 20
0.0
 30
0.0
 70
   128
 71
   170
 72
    22
 73
    24
  0
VERTEX
  5
427
  8
0
 62
     9
 10
0.0
 20
0.0
 30
0.0
 70
   128
 71
   169
 72
    20
 73
    22
  0
VERTEX
  5
428
  8
0
 62
     9
 10
0.0
 20
0.0
 30
0.0
 70
   128
 71
   168
 72
    18
 73
    20
  0
VERTEX
  5
429
  8
0
 62
     9
 10
0.0
 20
0.0
 30
0.0
 70
   128
 71
   167
 72
    16
 73
    18
  0
VERTEX
  5
42A
  8
0
 62
     9
 10
0.0
 20
0.0
 30
0.0
 70
   128
 71
   166
 72
    14
 73
    16
  0
VERTEX
  5
42B
  8
0
 62
     9
 10
0.0
 20
0.0
 30
0.0
 70
   128
 71
   165
 72
    12
 73
    14
  0
VERTEX
  5
42C
  8
0
 62
     9
 10
0.0
 20
0.0
 30
0.0
 70
   128
 71
   164
 72
    10
 73
    12
  0
VERTEX
  5
42D
  8
0
 62
     9
 10
0.0
 20
0.0
 30
0.0
 70
   128
 71
   163
 72
     8
 73
    10
  0
VERTEX
  5
42E
  8
0
 62
     9
 10
0.0
 20
0.0
 30
0.0
 70
   128
 71
   162
 72
     6
 73
     8
  0
VERTEX
  5
42F
  8
0
 62
     9
 10
0.0
 20
0.0
 30
0.0
 70
   128
 71
   161
 72
     4
 73
     6
  0
VERTEX
  5
430
  8
0
 62
     9
 10
0.0
 20
0.0
 30
0.0
 70
   128
 71
   158
 72
     3
 73
     4
  0
VERTEX
  5
431
  8
0
 62
     9
 10
0.0
 20
0.0
 30
0.0
 70
   128
 71
   159
 72
     2
 73
     3
  0
VERTEX
  5
432
  8
0
 62
     9
 10
0.0
 20
0.0
 30
0.0
 70
   128
 71
   157
 72
   156
 73
   174
  0
VERTEX
  5
433
  8
0
 62
     9
 10
0.0
 20
0.0
 30
0.0
 70
   128
 71
   155
 72
   173
 73
   174
  0
VERTEX
  5
434
  8
0
 62
     9
 10
0.0
 20
0.0
 30
0.0
 70
   128
 71
   154
 72
   172
 73
   173
  0
VERTEX
  5
435
  8
0
 62
     9
 10
0.0
 20
0.0
 30
0.0
 70
   128
 71
   153
 72
   171
 73
   172
  0
VERTEX
  5
436
  8
0
 62
     9
 10
0.0
 20
0.0
 30
0.0
 70
   128
 71
   152
 72
   170
 73
   171
  0
VERTEX
  5
437
  8
0
 62
     9
 10
0.0
 20
0.0
 30
0.0
 70
   128
 71
   151
 72
   169
 73
   170
  0
VERTEX
  5
438
  8
0
 62
     9
 10
0.0
 20
0.0
 30
0.0
 70
   128
 71
   150
 72
   168
 73
   169
  0
VERTEX
  5
439
  8
0
 62
     9
 10
0.0
 20
0.0
 30
0.0
 70
   128
 71
   149
 72
   167
 73
   168
  0
VERTEX
  5
43A
  8
0
 62
     9
 10
0.0
 20
0.0
 30
0.0
 70
   128
 71
   148
 72
   166
 73
   167
  0
VERTEX
  5
43B
  8
0
 62
     9
 10
0.0
 20
0.0
 30
0.0
 70
   128
 71
   147
 72
   165
 73
   166
  0
VERTEX
  5
43C
  8
0
 62
     9
 10
0.0
 20
0.0
 30
0.0
 70
   128
 71
   146
 72
   164
 73
   165
  0
VERTEX
  5
43D
  8
0
 62
     9
 10
0.0
 20
0.0
 30
0.0
 70
   128
 71
   145
 72
   163
 73
   164
  0
VERTEX
  5
43E
  8
0
 62
     9
 10
0.0
 20
0.0
 30
0.0
 70
   128
 71
   144
 72
   162
 73
   163
  0
VERTEX
  5
43F
  8
0
 62
     9
 10
0.0
 20
0.0
 30
0.0
 70
   128
 71
   143
 72
   161
 73
   162
  0
VERTEX
  5
440
  8
0
 62
     9
 10
0.0
 20
0.0
 30
0.0
 70
   128
 71
   141
 72
   158
 73
   161
  0
VERTEX
  5
441
  8
0
 62
     9
 10
0.0
 20
0.0
 30
0.0
 70
   128
 71
   141
 72
   142
 73
   160
  0
VERTEX
  5
442
  8
0
 62
     9
 10
0.0
 20
0.0
 30
0.0
 70
   128
 71
   139
 72
   138
 73
   156
  0
VERTEX
  5
443
  8
0
 62
     9
 10
0.0
 20
0.0
 30
0.0
 70
   128
 71
   137
 72
   155
 73
   156
  0
VERTEX
  5
444
  8
0
 62
     9
 10
0.0
 20
0.0
 30
0.0
 70
   128
 71
   136
 72
   154
 73
   155
  0
VERTEX
  5
445
  8
0
 62
     9
 10
0.0
 20
0.0
 30
0.0
 70
   128
 71
   135
 72
   153
 73
   154
  0
VERTEX
  5
446
  8
0
 62
     9
 10
0.0
 20
0.0
 30
0.0
 70
   128
 71
   134
 72
   152
 73
   153
  0
VERTEX
  5
447
  8
0
 62
     9
 10
0.0
 20
0.0
 30
0.0
 70
   128
 71
   133
 72
   151
 73
   152
  0
VERTEX
  5
448
  8
0
 62
     9
 10
0.0
 20
0.0
 30
0.0
 70
   128
 71
   132
 72
   150
 73
   151
  0
VERTEX
  5
449
  8
0
 62
     9
 10
0.0
 20
0.0
 30
0.0
 70
   128
 71
   131
 72
   149
 73
   150
  0
VERTEX
  5
44A
  8
0
 62
     9
 10
0.0
 20
0.0
 30
0.0
 70
   128
 71
   130
 72
   148
 73
   149
  0
VERTEX
  5
44B
  8
0
 62
     9
 10
0.0
 20
0.0
 30
0.0
 70
   128
 71
   129
 72
   147
 73
   148
  0
VERTEX
  5
44C
  8
0
 62
     9
 10
0.0
 20
0.0
 30
0.0
 70
   128
 71
   128
 72
   146
 73
   147
  0
VERTEX
  5
44D
  8
0
 62
     9
 10
0.0
 20
0.0
 30
0.0
 70
   128
 71
   127
 72
   145
 73
   146
  0
VERTEX
  5
44E
  8
0
 62
     9
 10
0.0
 20
0.0
 30
0.0
 70
   128
 71
   126
 72
   144
 73
   145
  0
VERTEX
  5
44F
  8
0
 62
     9
 10
0.0
 20
0.0
 30
0.0
 70
   128
 71
   125
 72
   143
 73
   144
  0
VERTEX
  5
450
  8
0
 62
     9
 10
0.0
 20
0.0
 30
0.0
 70
   128
 71
   123
 72
   141
 73
   143
  0
VERTEX
  5
451
  8
0
 62
     9
 10
0.0
 20
0.0
 30
0.0
 70
   128
 71
   123
 72
   124
 73
   140
  0
VERTEX
  5
452
  8
0
 62
     9
 10
0.0
 20
0.0
 30
0.0
 70
   128
 71
   122
 72
   120
 73
   138
  0
VERTEX
  5
453
  8
0
 62
     9
 10
0.0
 20
0.0
 30
0.0
 70
   128
 71
   119
 72
   137
 73
   138
  0
VERTEX
  5
454
  8
0
 62
     9
 10
0.0
 20
0.0
 30
0.0
 70
   128
 71
   118
 72
   136
 73
   137
  0
VERTEX
  5
455
  8
0
 62
     9
 10
0.0
 20
0.0
 30
0.0
 70
   128
 71
   117
 72
   135
 73
   136
  0
VERTEX
  5
456
  8
0
 62
     9
 10
0.0
 20
0.0
 30
0.0
 70
   128
 71
   116
 72
   134
 73
   135
  0
VERTEX
  5
457
  8
0
 62
     9
 10
0.0
 20
0.0
 30
0.0
 70
   128
 71
   115
 72
   133
 73
   134
  0
VERTEX
  5
458
  8
0
 62
     9
 10
0.0
 20
0.0
 30
0.0
 70
   128
 71
   114
 72
   132
 73
   133
  0
VERTEX
  5
459
  8
0
 62
     9
 10
0.0
 20
0.0
 30
0.0
 70
   128
 71
   113
 72
   131
 73
   132
  0
VERTEX
  5
45A
  8
0
 62
     9
 10
0.0
 20
0.0
 30
0.0
 70
   128
 71
   112
 72
   130
 73
   131
  0
VERTEX
  5
45B
  8
0
 62
     9
 10
0.0
 20
0.0
 30
0.0
 70
   128
 71
   111
 72
   129
 73
   130
  0
VERTEX
  5
45C
  8
0
 62
     9
 10
0.0
 20
0.0
 30
0.0
 70
   128
 71
   110
 72
   128
 73
   129
  0
VERTEX
  5
45D
  8
0
 62
     9
 10
0.0
 20
0.0
 30
0.0
 70
   128
 71
   109
 72
   127
 73
   128
  0
VERTEX
  5
45E
  8
0
 62
     9
 10
0.0
 20
0.0
 30
0.0
 70
   128
 71
   108
 72
   126
 73
   127
  0
VERTEX
  5
45F
  8
0
 62
     9
 10
0.0
 20
0.0
 30
0.0
 70
   128
 71
   107
 72
   125
 73
   126
  0
VERTEX
  5
460
  8
0
 62
     9
 10
0.0
 20
0.0
 30
0.0
 70
   128
 71
   104
 72
   123
 73
   125
  0
VERTEX
  5
461
  8
0
 62
     9
 10
0.0
 20
0.0
 30
0.0
 70
   128
 71
   104
 72
   106
 73
   124
  0
VERTEX
  5
462
  8
0
 62
     9
 10
0.0
 20
0.0
 30
0.0
 70
   128
 71
   103
 72
   120
 73
   122
  0
VERTEX
  5
463
  8
0
 62
     9
 10
0.0
 20
0.0
 30
0.0
 70
   128
 71
   102
 72
   119
 73
   120
  0
VERTEX
  5
464
  8
0
 62
     9
 10
0.0
 20
0.0
 30
0.0
 70
   128
 71
   101
 72
   118
 73
   119
  0
VERTEX
  5
465
  8
0
 62
     9
 10
0.0
 20
0.0
 30
0.0
 70
   128
 71
   100
 72
   117
 73
   118
  0
VERTEX
  5
466
  8
0
 62
     9
 10
0.0
 20
0.0
 30
0.0
 70
   128
 71
    99
 72
   116
 73
   117
  0
VERTEX
  5
467
  8
0
 62
     9
 10
0.0
 20
0.0
 30
0.0
 70
   128
 71
    98
 72
   115
 73
   116
  0
VERTEX
  5
468
  8
0
 62
     9
 10
0.0
 20
0.0
 30
0.0
 70
   128
 71
    97
 72
   114
 73
   115
  0
VERTEX
  5
469
  8
0
 62
     9
 10
0.0
 20
0.0
 30
0.0
 70
   128
 71
    96
 72
   113
 73
   114
  0
VERTEX
  5
46A
  8
0
 62
     9
 10
0.0
 20
0.0
 30
0.0
 70
   128
 71
    95
 72
   112
 73
   113
  0
VERTEX
  5
46B
  8
0
 62
     9
 10
0.0
 20
0.0
 30
0.0
 70
   128
 71
    94
 72
   111
 73
   112
  0
VERTEX
  5
46C
  8
0
 62
     9
 10
0.0
 20
0.0
 30
0.0
 70
   128
 71
    93
 72
   110
 73
   111
  0
VERTEX
  5
46D
  8
0
 62
     9
 10
0.0
 20
0.0
 30
0.0
 70
   128
 71
    92
 72
   109
 73
   110
  0
VERTEX
  5
46E
  8
0
 62
     9
 10
0.0
 20
0.0
 30
0.0
 70
   128
 71
    91
 72
   108
 73
   109
  0
VERTEX
  5
46F
  8
0
 62
     9
 10
0.0
 20
0.0
 30
0.0
 70
   128
 71
    90
 72
   107
 73
   108
  0
VERTEX
  5
470
  8
0
 62
     9
 10
0.0
 20
0.0
 30
0.0
 70
   128
 71
    87
 72
   104
 73
   107
  0
VERTEX
  5
471
  8
0
 62
     9
 10
0.0
 20
0.0
 30
0.0
 70
   128
 71
    87
 72
    88
 73
   105
  0
VERTEX
  5
472
  8
0
 62
     9
 10
0.0
 20
0.0
 30
0.0
 70
   128
 71
   103
 72
   121
 73
    86
  0
VERTEX
  5
473
  8
0
 62
     9
 10
0.0
 20
0.0
 30
0.0
 70
   128
 71
    84
 72
   102
 73
   103
  0
VERTEX
  5
474
  8
0
 62
     9
 10
0.0
 20
0.0
 30
0.0
 70
   128
 71
    83
 72
   101
 73
   102
  0
VERTEX
  5
475
  8
0
 62
     9
 10
0.0
 20
0.0
 30
0.0
 70
   128
 71
    82
 72
   100
 73
   101
  0
VERTEX
  5
476
  8
0
 62
     9
 10
0.0
 20
0.0
 30
0.0
 70
   128
 71
    81
 72
    99
 73
   100
  0
VERTEX
  5
477
  8
0
 62
     9
 10
0.0
 20
0.0
 30
0.0
 70
   128
 71
    80
 72
    98
 73
    99
  0
VERTEX
  5
478
  8
0
 62
     9
 10
0.0
 20
0.0
 30
0.0
 70
   128
 71
    79
 72
    97
 73
    98
  0
VERTEX
  5
479
  8
0
 62
     9
 10
0.0
 20
0.0
 30
0.0
 70
   128
 71
    78
 72
    96
 73
    97
  0
VERTEX
  5
47A
  8
0
 62
     9
 10
0.0
 20
0.0
 30
0.0
 70
   128
 71
    77
 72
    95
 73
    96
  0
VERTEX
  5
47B
  8
0
 62
     9
 10
0.0
 20
0.0
 30
0.0
 70
   128
 71
    76
 72
    94
 73
    95
  0
VERTEX
  5
47C
  8
0
 62
     9
 10
0.0
 20
0.0
 30
0.0
 70
   128
 71
    75
 72
    93
 73
    94
  0
VERTEX
  5
47D
  8
0
 62
     9
 10
0.0
 20
0.0
 30
0.0
 70
   128
 71
    74
 72
    92
 73
    93
  0
VERTEX
  5
47E
  8
0
 62
     9
 10
0.0
 20
0.0
 30
0.0
 70
   128
 71
    73
 72
    91
 73
    92
  0
VERTEX
  5
47F
  8
0
 62
     9
 10
0.0
 20
0.0
 30
0.0
 70
   128
 71
    72
 72
    90
 73
    91
  0
VERTEX
  5
480
  8
0
 62
     9
 10
0.0
 20
0.0
 30
0.0
 70
   128
 71
    70
 72
    87
 73
    90
  0
VERTEX
  5
481
  8
0
 62
     9
 10
0.0
 20
0.0
 30
0.0
 70
   128
 71
    70
 72
    71
 73
    89
  0
VERTEX
  5
482
  8
0
 62
     9
 10
0.0
 20
0.0
 30
0.0
 70
   128
 71
    86
 72
    69
 73
    68
  0
VERTEX
  5
483
  8
0
 62
     9
 10
0.0
 20
0.0
 30
0.0
 70
   128
 71
    67
 72
    84
 73
    85
  0
VERTEX
  5
484
  8
0
 62
     9
 10
0.0
 20
0.0
 30
0.0
 70
   128
 71
    66
 72
    83
 73
    84
  0
VERTEX
  5
485
  8
0
 62
     9
 10
0.0
 20
0.0
 30
0.0
 70
   128
 71
    65
 72
    82
 73
    83
  0
VERTEX
  5
486
  8
0
 62
     9
 10
0.0
 20
0.0
 30
0.0
 70
   128
 71
    64
 72
    81
 73
    82
  0
VERTEX
  5
487
  8
0
 62
     9
 10
0.0
 20
0.0
 30
0.0
 70
   128
 71
    63
 72
    80
 73
    81
  0
VERTEX
  5
488
  8
0
 62
     9
 10
0.0
 20
0.0
 30
0.0
 70
   128
 71
    62
 72
    79
 73
    80
  0
VERTEX
  5
489
  8
0
 62
     9
 10
0.0
 20
0.0
 30
0.0
 70
   128
 71
    61
 72
    78
 73
    79
  0
VERTEX
  5
48A
  8
0
 62
     9
 10
0.0
 20
0.0
 30
0.0
 70
   128
 71
    60
 72
    77
 73
    78
  0
VERTEX
  5
48B
  8
0
 62
     9
 10
0.0
 20
0.0
 30
0.0
 70
   128
 71
    59
 72
    76
 73
    77
  0
VERTEX
  5
48C
  8
0
 62
     9
 10
0.0
 20
0.0
 30
0.0
 70
   128
 71
    58
 72
    75
 73
    76
  0
VERTEX
  5
48D
  8
0
 62
     9
 10
0.0
 20
0.0
 30
0.0
 70
   128
 71
    57
 72
    74
 73
    75
  0
VERTEX
  5
48E
  8
0
 62
     9
 10
0.0
 20
0.0
 30
0.0
 70
   128
 71
    56
 72
    73
 73
    74
  0
VERTEX
  5
48F
  8
0
 62
     9
 10
0.0
 20
0.0
 30
0.0
 70
   128
 71
    55
 72
    72
 73
    73
  0
VERTEX
  5
490
  8
0
 62
     9
 10
0.0
 20
0.0
 30
0.0
 70
   128
 71
    53
 72
    70
 73
    72
  0
VERTEX
  5
491
  8
0
 62
     9
 10
0.0
 20
0.0
 30
0.0
 70
   128
 71
    70
 72
    53
 73
    54
  0
VERTEX
  5
492
  8
0
 62
     9
 10
0.0
 20
0.0
 30
0.0
 70
   128
 71
    69
 72
    51
 73
    50
  0
VERTEX
  5
493
  8
0
 62
     9
 10
0.0
 20
0.0
 30
0.0
 70
   128
 71
    49
 72
    67
 73
    68
  0
VERTEX
  5
494
  8
0
 62
     9
 10
0.0
 20
0.0
 30
0.0
 70
   128
 71
    48
 72
    66
 73
    67
  0
VERTEX
  5
495
  8
0
 62
     9
 10
0.0
 20
0.0
 30
0.0
 70
   128
 71
    47
 72
    65
 73
    66
  0
VERTEX
  5
496
  8
0
 62
     9
 10
0.0
 20
0.0
 30
0.0
 70
   128
 71
    46
 72
    64
 73
    65
  0
VERTEX
  5
497
  8
0
 62
     9
 10
0.0
 20
0.0
 30
0.0
 70
   128
 71
    45
 72
    63
 73
    64
  0
VERTEX
  5
498
  8
0
 62
     9
 10
0.0
 20
0.0
 30
0.0
 70
   128
 71
    44
 72
    62
 73
    63
  0
VERTEX
  5
499
  8
0
 62
     9
 10
0.0
 20
0.0
 30
0.0
 70
   128
 71
    43
 72
    61
 73
    62
  0
VERTEX
  5
49A
  8
0
 62
     9
 10
0.0
 20
0.0
 30
0.0
 70
   128
 71
    42
 72
    60
 73
    61
  0
VERTEX
  5
49B
  8
0
 62
     9
 10
0.0
 20
0.0
 30
0.0
 70
   128
 71
    41
 72
    59
 73
    60
  0
VERTEX
  5
49C
  8
0
 62
     9
 10
0.0
 20
0.0
 30
0.0
 70
   128
 71
    40
 72
    58
 73
    59
  0
VERTEX
  5
49D
  8
0
 62
     9
 10
0.0
 20
0.0
 30
0.0
 70
   128
 71
    39
 72
    57
 73
    58
  0
VERTEX
  5
49E
  8
0
 62
     9
 10
0.0
 20
0.0
 30
0.0
 70
   128
 71
    38
 72
    56
 73
    57
  0
VERTEX
  5
49F
  8
0
 62
     9
 10
0.0
 20
0.0
 30
0.0
 70
   128
 71
    37
 72
    55
 73
    56
  0
VERTEX
  5
4A0
  8
0
 62
     9
 10
0.0
 20
0.0
 30
0.0
 70
   128
 71
    34
 72
    53
 73
    55
  0
VERTEX
  5
4A1
  8
0
 62
     9
 10
0.0
 20
0.0
 30
0.0
 70
   128
 71
    52
 72
    53
 73
    34
  0
VERTEX
  5
4A2
  8
0
 62
     9
 10
0.0
 20
0.0
 30
0.0
 70
   128
 71
    51
 72
   176
 73
    31
  0
VERTEX
  5
4A3
  8
0
 62
     9
 10
0.0
 20
0.0
 30
0.0
 70
   128
 71
    29
 72
    49
 73
    50
  0
VERTEX
  5
4A4
  8
0
 62
     9
 10
0.0
 20
0.0
 30
0.0
 70
   128
 71
    27
 72
    48
 73
    49
  0
VERTEX
  5
4A5
  8
0
 62
     9
 10
0.0
 20
0.0
 30
0.0
 70
   128
 71
    25
 72
    47
 73
    48
  0
VERTEX
  5
4A6
  8
0
 62
     9
 10
0.0
 20
0.0
 30
0.0
 70
   128
 71
    23
 72
    46
 73
    47
  0
VERTEX
  5
4A7
  8
0
 62
     9
 10
0.0
 20
0.0
 30
0.0
 70
   128
 71
    21
 72
    45
 73
    46
  0
VERTEX
  5
4A8
  8
0
 62
     9
 10
0.0
 20
0.0
 30
0.0
 70
   128
 71
    19
 72
    44
 73
    45
  0
VERTEX
  5
4A9
  8
0
 62
     9
 10
0.0
 20
0.0
 30
0.0
 70
   128
 71
    17
 72
    43
 73
    44
  0
VERTEX
  5
4AA
  8
0
 62
     9
 10
0.0
 20
0.0
 30
0.0
 70
   128
 71
    15
 72
    42
 73
    43
  0
VERTEX
  5
4AB
  8
0
 62
     9
 10
0.0
 20
0.0
 30
0.0
 70
   128
 71
    13
 72
    41
 73
    42
  0
VERTEX
  5
4AC
  8
0
 62
     9
 10
0.0
 20
0.0
 30
0.0
 70
   128
 71
    11
 72
    40
 73
    41
  0
VERTEX
  5
4AD
  8
0
 62
     9
 10
0.0
 20
0.0
 30
0.0
 70
   128
 71
     9
 72
    39
 73
    40
  0
VERTEX
  5
4AE
  8
0
 62
     9
 10
0.0
 20
0.0
 30
0.0
 70
   128
 71
     7
 72
    38
 73
    39
  0
VERTEX
  5
4AF
  8
0
 62
     9
 10
0.0
 20
0.0
 30
0.0
 70
   128
 71
     5
 72
    37
 73
    38
  0
VERTEX
  5
4B0
  8
0
 62
     9
 10
0.0
 20
0.0
 30
0.0
 70
   128
 71
    33
 72
    34
 73
    37
  0
VERTEX
  5
4B1
  8
0
 62
     9
 10
0.0
 20
0.0
 30
0.0
 70
   128
 71
    33
 72
     1
 73
    35
  0
VERTEX
  5
4B2
  8
0
 62
     9
 10
0.0
 20
0.0
 30
0.0
 70
   128
 71
    31
 72
   176
 73
    32
  0
VERTEX
  5
4B3
  8
0
 62
     9
 10
0.0
 20
0.0
 30
0.0
 70
   128
 71
    28
 72
    29
 73
    31
  0
VERTEX
  5
4B4
  8
0
 62
     9
 10
0.0
 20
0.0
 30
0.0
 70
   128
 71
    26
 72
    27
 73
    29
  0
VERTEX
  5
4B5
  8
0
 62
     9
 10
0.0
 20
0.0
 30
0.0
 70
   128
 71
    24
 72
    25
 73
    27
  0
VERTEX
  5
4B6
  8
0
 62
     9
 10
0.0
 20
0.0
 30
0.0
 70
   128
 71
    22
 72
    23
 73
    25
  0
VERTEX
  5
4B7
  8
0
 62
     9
 10
0.0
 20
0.0
 30
0.0
 70
   128
 71
    20
 72
    21
 73
    23
  0
VERTEX
  5
4B8
  8
0
 62
     9
 10
0.0
 20
0.0
 30
0.0
 70
   128
 71
    18
 72
    19
 73
    21
  0
VERTEX
  5
4B9
  8
0
 62
     9
 10
0.0
 20
0.0
 30
0.0
 70
   128
 71
    16
 72
    17
 73
    19
  0
VERTEX
  5
4BA
  8
0
 62
     9
 10
0.0
 20
0.0
 30
0.0
 70
   128
 71
    14
 72
    15
 73
    17
  0
VERTEX
  5
4BB
  8
0
 62
     9
 10
0.0
 20
0.0
 30
0.0
 70
   128
 71
    12
 72
    13
 73
    15
  0
VERTEX
  5
4BC
  8
0
 62
     9
 10
0.0
 20
0.0
 30
0.0
 70
   128
 71
    10
 72
    11
 73
    13
  0
VERTEX
  5
4BD
  8
0
 62
     9
 10
0.0
 20
0.0
 30
0.0
 70
   128
 71
     8
 72
     9
 73
    11
  0
VERTEX
  5
4BE
  8
0
 62
     9
 10
0.0
 20
0.0
 30
0.0
 70
   128
 71
     6
 72
     7
 73
     9
  0
VERTEX
  5
4BF
  8
0
 62
     9
 10
0.0
 20
0.0
 30
0.0
 70
   128
 71
     4
 72
     5
 73
     7
  0
VERTEX
  5
4C0
  8
0
 62
     9
 10
0.0
 20
0.0
 30
0.0
 70
   128
 71
     3
 72
    33
 73
     5
  0
VERTEX
  5
4C1
  8
0
 62
     9
 10
0.0
 20
0.0
 30
0.0
 70
   128
 71
     1
 72
    33
 73
     3
  0
SEQEND
  5
4C2
  8
0
 62
     9
  0
ENDBLK
  5
4C5
  8
0
  0
BLOCK
  8
0
  2
E3_NODE_9_
 70
     0
 10
0.0
 20
0.0
 30
0.0
  3
E3_NODE_9_
  1

  0
POLYLINE
  5
4C7
  8
0
 62
     9
 66
     1
 10
0.0
 20
0.0
 30
0.0
 70
    64
 71
    23
 72
    23
  0
VERTEX
  5
4C8
  8
0
 10
11.5
 20
0.0
 30
54.5
 70
   192
  0
VERTEX
  5
4C9
  8
0
 10
7.170000076293945
 20
8.991000175476074
 30
54.5
 70
   192
  0
VERTEX
  5
4CA
  8
0
 10
9.303999900817871
 20
6.760000228881836
 30
89.5
 70
   192
  0
VERTEX
  5
4CB
  8
0
 10
6.846000194549561
 20
8.545000076293945
 30
89.5
 70
   192
  0
VERTEX
  5
4CC
  8
0
 10
-2.559000015258789
 20
11.21199989318848
 30
54.5
 70
   192
  0
VERTEX
  5
4CD
  8
0
 10
-2.559000015258789
 20
10.9370002746582
 30
89.5
 70
   192
  0
VERTEX
  5
4CE
  8
0
 10
3.553999900817871
 20
10.9370002746582
 30
89.5
 70
   192
  0
VERTEX
  5
4CF
  8
0
 10
-10.36100006103516
 20
4.989999771118164
 30
54.5
 70
   192
  0
VERTEX
  5
4D0
  8
0
 10
-9.303999900817871
 20
6.760000228881836
 30
89.5
 70
   192
  0
VERTEX
  5
4D1
  8
0
 10
-3.553999900817871
 20
10.9370002746582
 30
89.5
 70
   192
  0
VERTEX
  5
4D2
  8
0
 10
-9.925000190734863
 20
4.848000049591064
 30
89.5
 70
   192
  0
VERTEX
  5
4D3
  8
0
 10
-10.36100006103516
 20
-4.989999771118164
 30
54.5
 70
   192
  0
VERTEX
  5
4D4
  8
0
 10
-11.5
 20
0.0
 30
89.5
 70
   192
  0
VERTEX
  5
4D5
  8
0
 10
-9.925000190734863
 20
-4.848000049591064
 30
89.5
 70
   192
  0
VERTEX
  5
4D6
  8
0
 10
-2.559000015258789
 20
-11.21199989318848
 30
54.5
 70
   192
  0
VERTEX
  5
4D7
  8
0
 10
-3.553999900817871
 20
-10.9370002746582
 30
89.5
 70
   192
  0
VERTEX
  5
4D8
  8
0
 10
-9.303999900817871
 20
-6.760000228881836
 30
89.5
 70
   192
  0
VERTEX
  5
4D9
  8
0
 10
-2.559000015258789
 20
-10.9370002746582
 30
89.5
 70
   192
  0
VERTEX
  5
4DA
  8
0
 10
7.170000076293945
 20
-8.991000175476074
 30
54.5
 70
   192
  0
VERTEX
  5
4DB
  8
0
 10
3.553999900817871
 20
-10.9370002746582
 30
89.5
 70
   192
  0
VERTEX
  5
4DC
  8
0
 10
6.846000194549561
 20
-8.545000076293945
 30
89.5
 70
   192
  0
VERTEX
  5
4DD
  8
0
 10
11.5
 20
0.0
 30
89.5
 70
   192
  0
VERTEX
  5
4DE
  8
0
 10
9.303999900817871
 20
-6.760000228881836
 30
89.5
 70
   192
  0
VERTEX
  5
4DF
  8
0
 62
     9
 10
0.0
 20
0.0
 30
0.0
 70
   128
 71
     3
 72
     2
 73
     1
  0
VERTEX
  5
4E0
  8
0
 62
     9
 10
0.0
 20
0.0
 30
0.0
 70
   128
 71
     3
 72
     4
 73
     2
  0
VERTEX
  5
4E1
  8
0
 62
     9
 10
0.0
 20
0.0
 30
0.0
 70
   128
 71
     7
 72
     6
 73
     5
  0
VERTEX
  5
4E2
  8
0
 62
     9
 10
0.0
 20
0.0
 30
0.0
 70
   128
 71
     5
 72
     2
 73
     7
  0
VERTEX
  5
4E3
  8
0
 62
     9
 10
0.0
 20
0.0
 30
0.0
 70
   128
 71
     9
 72
     8
 73
     5
  0
VERTEX
  5
4E4
  8
0
 62
     9
 10
0.0
 20
0.0
 30
0.0
 70
   128
 71
     5
 72
    10
 73
     9
  0
VERTEX
  5
4E5
  8
0
 62
     9
 10
0.0
 20
0.0
 30
0.0
 70
   128
 71
     9
 72
    11
 73
     8
  0
VERTEX
  5
4E6
  8
0
 62
     9
 10
0.0
 20
0.0
 30
0.0
 70
   128
 71
    13
 72
    12
 73
     8
  0
VERTEX
  5
4E7
  8
0
 62
     9
 10
0.0
 20
0.0
 30
0.0
 70
   128
 71
    13
 72
    14
 73
    12
  0
VERTEX
  5
4E8
  8
0
 62
     9
 10
0.0
 20
0.0
 30
0.0
 70
   128
 71
    17
 72
    16
 73
    15
  0
VERTEX
  5
4E9
  8
0
 62
     9
 10
0.0
 20
0.0
 30
0.0
 70
   128
 71
    15
 72
    12
 73
    17
  0
VERTEX
  5
4EA
  8
0
 62
     9
 10
0.0
 20
0.0
 30
0.0
 70
   128
 71
    16
 72
    18
 73
    15
  0
VERTEX
  5
4EB
  8
0
 62
     9
 10
0.0
 20
0.0
 30
0.0
 70
   128
 71
    20
 72
    19
 73
    15
  0
VERTEX
  5
4EC
  8
0
 62
     9
 10
0.0
 20
0.0
 30
0.0
 70
   128
 71
    20
 72
    21
 73
    19
  0
VERTEX
  5
4ED
  8
0
 62
     9
 10
0.0
 20
0.0
 30
0.0
 70
   128
 71
    23
 72
    22
 73
     1
  0
VERTEX
  5
4EE
  8
0
 62
     9
 10
0.0
 20
0.0
 30
0.0
 70
   128
 71
     1
 72
    19
 73
    23
  0
VERTEX
  5
4EF
  8
0
 62
     9
 10
0.0
 20
0.0
 30
0.0
 70
   128
 71
    19
 72
    21
 73
    23
  0
VERTEX
  5
4F0
  8
0
 62
     9
 10
0.0
 20
0.0
 30
0.0
 70
   128
 71
    15
 72
    18
 73
    20
  0
VERTEX
  5
4F1
  8
0
 62
     9
 10
0.0
 20
0.0
 30
0.0
 70
   128
 71
    12
 72
    14
 73
    17
  0
VERTEX
  5
4F2
  8
0
 62
     9
 10
0.0
 20
0.0
 30
0.0
 70
   128
 71
     8
 72
    11
 73
    13
  0
VERTEX
  5
4F3
  8
0
 62
     9
 10
0.0
 20
0.0
 30
0.0
 70
   128
 71
     5
 72
     6
 73
    10
  0
VERTEX
  5
4F4
  8
0
 62
     9
 10
0.0
 20
0.0
 30
0.0
 70
   128
 71
     2
 72
     4
 73
     7
  0
VERTEX
  5
4F5
  8
0
 62
     9
 10
0.0
 20
0.0
 30
0.0
 70
   128
 71
     1
 72
    22
 73
     3
  0
SEQEND
  5
4F6
  8
0
 62
     9
  0
ENDBLK
  5
4F9
  8
0
  0
BLOCK
  8
0
  2
E3_NODE_10_
 70
     0
 10
0.0
 20
0.0
 30
0.0
  3
E3_NODE_10_
  1

  0
POLYLINE
  5
4FB
  8
0
 62
     9
 66
     1
 10
0.0
 20
0.0
 30
0.0
 70
    64
 71
    11
 72
     9
  0
VERTEX
  5
4FC
  8
0
 10
-33.0
 20
-31.18400001525879
 30
15.8439998626709
 70
   192
  0
VERTEX
  5
4FD
  8
0
 10
-33.0
 20
13.50100040435791
 30
54.5629997253418
 70
   192
  0
VERTEX
  5
4FE
  8
0
 10
-33.0
 20
27.34099960327148
 30
42.57099914550781
 70
   192
  0
VERTEX
  5
4FF
  8
0
 10
-33.0
 20
-21.28300094604492
 30
0.4379999935626984
 70
   192
  0
VERTEX
  5
500
  8
0
 10
-33.0
 20
27.34099960327148
 30
7.428999900817871
 70
   192
  0
VERTEX
  5
501
  8
0
 10
-33.0
 20
13.50100040435791
 30
-4.563000202178955
 70
   192
  0
VERTEX
  5
502
  8
0
 10
-33.0
 20
-4.625
 30
57.16899871826172
 70
   192
  0
VERTEX
  5
503
  8
0
 10
-33.0
 20
-31.18400001525879
 30
34.15599822998047
 70
   192
  0
VERTEX
  5
504
  8
0
 10
-33.0
 20
-21.28300094604492
 30
49.5620002746582
 70
   192
  0
VERTEX
  5
505
  8
0
 10
-33.0
 20
32.5
 30
25.0
 70
   192
  0
VERTEX
  5
506
  8
0
 10
-33.0
 20
-4.625
 30
-7.169000148773193
 70
   192
  0
VERTEX
  5
507
  8
0
 62
     9
 10
0.0
 20
0.0
 30
0.0
 70
   128
 71
     3
 72
     2
 73
     1
  0
VERTEX
  5
508
  8
0
 62
     9
 10
0.0
 20
0.0
 30
0.0
 70
   128
 71
     6
 72
     5
 73
     4
  0
VERTEX
  5
509
  8
0
 62
     9
 10
0.0
 20
0.0
 30
0.0
 70
   128
 71
     2
 72
     7
 73
     1
  0
VERTEX
  5
50A
  8
0
 62
     9
 10
0.0
 20
0.0
 30
0.0
 70
   128
 71
     9
 72
     8
 73
     1
  0
VERTEX
  5
50B
  8
0
 62
     9
 10
0.0
 20
0.0
 30
0.0
 70
   128
 71
     5
 72
    10
 73
     4
  0
VERTEX
  5
50C
  8
0
 62
     9
 10
0.0
 20
0.0
 30
0.0
 70
   128
 71
     1
 72
     7
 73
     9
  0
VERTEX
  5
50D
  8
0
 62
     9
 10
0.0
 20
0.0
 30
0.0
 70
   128
 71
     4
 72
    11
 73
     6
  0
VERTEX
  5
50E
  8
0
 62
     9
 10
0.0
 20
0.0
 30
0.0
 70
   128
 71
    10
 72
     1
 73
     4
  0
VERTEX
  5
50F
  8
0
 62
     9
 10
0.0
 20
0.0
 30
0.0
 70
   128
 71
     1
 72
    10
 73
     3
  0
SEQEND
  5
510
  8
0
 62
     9
  0
ENDBLK
  5
513
  8
0
  0
BLOCK
  8
0
  2
E3_NODE_11_
 70
     0
 10
0.0
 20
0.0
 30
0.0
  3
E3_NODE_11_
  1

  0
POLYLINE
  5
515
  8
0
 62
     9
 66
     1
 10
0.0
 20
0.0
 30
0.0
 70
    64
 71
    23
 72
    23
  0
VERTEX
  5
516
  8
0
 10
-33.0
 20
27.34099960327148
 30
7.428999900817871
 70
   192
  0
VERTEX
  5
517
  8
0
 10
-33.0
 20
32.5
 30
25.0
 70
   192
  0
VERTEX
  5
518
  8
0
 10
-27.0
 20
31.97500038146973
 30
25.0
 70
   192
  0
VERTEX
  5
519
  8
0
 10
-33.0
 20
13.50100040435791
 30
-4.563000202178955
 70
   192
  0
VERTEX
  5
51A
  8
0
 10
-27.0
 20
26.89900016784668
 30
7.712999820709229
 70
   192
  0
VERTEX
  5
51B
  8
0
 10
-33.0
 20
-4.625
 30
-7.169000148773193
 70
   192
  0
VERTEX
  5
51C
  8
0
 10
-27.0
 20
13.28299999237061
 30
-4.085999965667725
 70
   192
  0
VERTEX
  5
51D
  8
0
 10
-27.0
 20
-4.551000118255615
 30
-6.650000095367432
 70
   192
  0
VERTEX
  5
51E
  8
0
 10
-27.0
 20
-20.93899917602539
 30
0.8349999785423279
 70
   192
  0
VERTEX
  5
51F
  8
0
 10
-33.0
 20
-31.18400001525879
 30
15.8439998626709
 70
   192
  0
VERTEX
  5
520
  8
0
 10
-33.0
 20
-21.28300094604492
 30
0.4379999935626984
 70
   192
  0
VERTEX
  5
521
  8
0
 10
-33.0
 20
-31.18400001525879
 30
34.15599822998047
 70
   192
  0
VERTEX
  5
522
  8
0
 10
-27.0
 20
-31.97500038146973
 30
25.0
 70
   192
  0
VERTEX
  5
523
  8
0
 10
-27.0
 20
-30.68000030517578
 30
15.99199962615967
 70
   192
  0
VERTEX
  5
524
  8
0
 10
-27.0
 20
-30.68000030517578
 30
34.00799942016602
 70
   192
  0
VERTEX
  5
525
  8
0
 10
-27.0
 20
-20.93899917602539
 30
49.16500091552734
 70
   192
  0
VERTEX
  5
526
  8
0
 10
-33.0
 20
-21.28300094604492
 30
49.5620002746582
 70
   192
  0
VERTEX
  5
527
  8
0
 10
-27.0
 20
-4.551000118255615
 30
56.65000152587891
 70
   192
  0
VERTEX
  5
528
  8
0
 10
-33.0
 20
13.50100040435791
 30
54.5629997253418
 70
   192
  0
VERTEX
  5
529
  8
0
 10
-33.0
 20
-4.625
 30
57.16899871826172
 70
   192
  0
VERTEX
  5
52A
  8
0
 10
-27.0
 20
13.28299999237061
 30
54.08599853515625
 70
   192
  0
VERTEX
  5
52B
  8
0
 10
-27.0
 20
26.89900016784668
 30
42.2869987487793
 70
   192
  0
VERTEX
  5
52C
  8
0
 10
-33.0
 20
27.34099960327148
 30
42.57099914550781
 70
   192
  0
VERTEX
  5
52D
  8
0
 62
     9
 10
0.0
 20
0.0
 30
0.0
 70
   128
 71
     3
 72
     2
 73
     1
  0
VERTEX
  5
52E
  8
0
 62
     9
 10
0.0
 20
0.0
 30
0.0
 70
   128
 71
     5
 72
     1
 73
     4
  0
VERTEX
  5
52F
  8
0
 62
     9
 10
0.0
 20
0.0
 30
0.0
 70
   128
 71
     7
 72
     4
 73
     6
  0
VERTEX
  5
530
  8
0
 62
     9
 10
0.0
 20
0.0
 30
0.0
 70
   128
 71
     9
 72
     8
 73
     6
  0
VERTEX
  5
531
  8
0
 62
     9
 10
0.0
 20
0.0
 30
0.0
 70
   128
 71
     9
 72
    11
 73
    10
  0
VERTEX
  5
532
  8
0
 62
     9
 10
0.0
 20
0.0
 30
0.0
 70
   128
 71
    13
 72
    10
 73
    12
  0
VERTEX
  5
533
  8
0
 62
     9
 10
0.0
 20
0.0
 30
0.0
 70
   128
 71
    13
 72
    14
 73
    10
  0
VERTEX
  5
534
  8
0
 62
     9
 10
0.0
 20
0.0
 30
0.0
 70
   128
 71
    16
 72
    15
 73
    12
  0
VERTEX
  5
535
  8
0
 62
     9
 10
0.0
 20
0.0
 30
0.0
 70
   128
 71
    18
 72
    16
 73
    17
  0
VERTEX
  5
536
  8
0
 62
     9
 10
0.0
 20
0.0
 30
0.0
 70
   128
 71
    18
 72
    20
 73
    19
  0
VERTEX
  5
537
  8
0
 62
     9
 10
0.0
 20
0.0
 30
0.0
 70
   128
 71
    22
 72
    21
 73
    19
  0
VERTEX
  5
538
  8
0
 62
     9
 10
0.0
 20
0.0
 30
0.0
 70
   128
 71
     3
 72
    22
 73
    23
  0
VERTEX
  5
539
  8
0
 62
     9
 10
0.0
 20
0.0
 30
0.0
 70
   128
 71
    23
 72
     2
 73
     3
  0
VERTEX
  5
53A
  8
0
 62
     9
 10
0.0
 20
0.0
 30
0.0
 70
   128
 71
    19
 72
    23
 73
    22
  0
VERTEX
  5
53B
  8
0
 62
     9
 10
0.0
 20
0.0
 30
0.0
 70
   128
 71
    19
 72
    21
 73
    18
  0
VERTEX
  5
53C
  8
0
 62
     9
 10
0.0
 20
0.0
 30
0.0
 70
   128
 71
    17
 72
    20
 73
    18
  0
VERTEX
  5
53D
  8
0
 62
     9
 10
0.0
 20
0.0
 30
0.0
 70
   128
 71
    12
 72
    17
 73
    16
  0
VERTEX
  5
53E
  8
0
 62
     9
 10
0.0
 20
0.0
 30
0.0
 70
   128
 71
    12
 72
    15
 73
    13
  0
VERTEX
  5
53F
  8
0
 62
     9
 10
0.0
 20
0.0
 30
0.0
 70
   128
 71
    10
 72
    14
 73
     9
  0
VERTEX
  5
540
  8
0
 62
     9
 10
0.0
 20
0.0
 30
0.0
 70
   128
 71
     6
 72
    11
 73
     9
  0
VERTEX
  5
541
  8
0
 62
     9
 10
0.0
 20
0.0
 30
0.0
 70
   128
 71
     6
 72
     8
 73
     7
  0
VERTEX
  5
542
  8
0
 62
     9
 10
0.0
 20
0.0
 30
0.0
 70
   128
 71
     4
 72
     7
 73
     5
  0
VERTEX
  5
543
  8
0
 62
     9
 10
0.0
 20
0.0
 30
0.0
 70
   128
 71
     1
 72
     5
 73
     3
  0
SEQEND
  5
544
  8
0
 62
     9
  0
ENDBLK
  5
547
  8
0
  0
BLOCK
  8
0
  2
E3_NODE_12_
 70
     0
 10
0.0
 20
0.0
 30
0.0
  3
E3_NODE_12_
  1

  0
POLYLINE
  5
549
  8
0
 62
     9
 66
     1
 10
0.0
 20
0.0
 30
0.0
 70
    64
 71
    24
 72
    24
  0
VERTEX
  5
54A
  8
0
 10
-27.0
 20
-31.97500038146973
 30
25.0
 70
   192
  0
VERTEX
  5
54B
  8
0
 10
-27.0
 20
-27.64599990844727
 30
25.0
 70
   192
  0
VERTEX
  5
54C
  8
0
 10
-27.0
 20
-26.52599906921387
 30
32.78900146484375
 70
   192
  0
VERTEX
  5
54D
  8
0
 10
-27.0
 20
-30.68000030517578
 30
15.99199962615967
 70
   192
  0
VERTEX
  5
54E
  8
0
 10
-27.0
 20
-26.52599906921387
 30
17.21100044250488
 70
   192
  0
VERTEX
  5
54F
  8
0
 10
-27.0
 20
26.89900016784668
 30
42.2869987487793
 70
   192
  0
VERTEX
  5
550
  8
0
 10
-27.0
 20
13.28299999237061
 30
54.08599853515625
 70
   192
  0
VERTEX
  5
551
  8
0
 10
-27.0
 20
11.48400020599365
 30
50.14699935913086
 70
   192
  0
VERTEX
  5
552
  8
0
 10
-27.0
 20
-4.551000118255615
 30
56.65000152587891
 70
   192
  0
VERTEX
  5
553
  8
0
 10
-27.0
 20
-3.934000015258789
 30
52.36399841308594
 70
   192
  0
VERTEX
  5
554
  8
0
 10
-27.0
 20
-20.93899917602539
 30
0.8349999785423279
 70
   192
  0
VERTEX
  5
555
  8
0
 10
-27.0
 20
-18.10400009155273
 30
4.10699987411499
 70
   192
  0
VERTEX
  5
556
  8
0
 10
-27.0
 20
-20.93899917602539
 30
49.16500091552734
 70
   192
  0
VERTEX
  5
557
  8
0
 10
-27.0
 20
-18.10400009155273
 30
45.89300155639648
 70
   192
  0
VERTEX
  5
558
  8
0
 10
-27.0
 20
-30.68000030517578
 30
34.00799942016602
 70
   192
  0
VERTEX
  5
559
  8
0
 10
-27.0
 20
-4.551000118255615
 30
-6.650000095367432
 70
   192
  0
VERTEX
  5
55A
  8
0
 10
-27.0
 20
-3.934000015258789
 30
-2.364000082015991
 70
   192
  0
VERTEX
  5
55B
  8
0
 10
-27.0
 20
31.97500038146973
 30
25.0
 70
   192
  0
VERTEX
  5
55C
  8
0
 10
-27.0
 20
23.25699996948242
 30
39.94599914550781
 70
   192
  0
VERTEX
  5
55D
  8
0
 10
-27.0
 20
13.28299999237061
 30
-4.085999965667725
 70
   192
  0
VERTEX
  5
55E
  8
0
 10
-27.0
 20
11.48400020599365
 30
-0.1469999998807907
 70
   192
  0
VERTEX
  5
55F
  8
0
 10
-27.0
 20
26.89900016784668
 30
7.712999820709229
 70
   192
  0
VERTEX
  5
560
  8
0
 10
-27.0
 20
23.25699996948242
 30
10.05399990081787
 70
   192
  0
VERTEX
  5
561
  8
0
 10
-27.0
 20
27.64599990844727
 30
25.0
 70
   192
  0
VERTEX
  5
562
  8
0
 62
     9
 10
0.0
 20
0.0
 30
0.0
 70
   128
 71
     3
 72
     2
 73
     1
  0
VERTEX
  5
563
  8
0
 62
     9
 10
0.0
 20
0.0
 30
0.0
 70
   128
 71
     2
 72
     5
 73
     4
  0
VERTEX
  5
564
  8
0
 62
     9
 10
0.0
 20
0.0
 30
0.0
 70
   128
 71
     8
 72
     7
 73
     6
  0
VERTEX
  5
565
  8
0
 62
     9
 10
0.0
 20
0.0
 30
0.0
 70
   128
 71
     8
 72
    10
 73
     9
  0
VERTEX
  5
566
  8
0
 62
     9
 10
0.0
 20
0.0
 30
0.0
 70
   128
 71
     4
 72
     1
 73
     2
  0
VERTEX
  5
567
  8
0
 62
     9
 10
0.0
 20
0.0
 30
0.0
 70
   128
 71
    12
 72
    11
 73
     4
  0
VERTEX
  5
568
  8
0
 62
     9
 10
0.0
 20
0.0
 30
0.0
 70
   128
 71
     9
 72
     7
 73
     8
  0
VERTEX
  5
569
  8
0
 62
     9
 10
0.0
 20
0.0
 30
0.0
 70
   128
 71
    14
 72
    13
 73
     9
  0
VERTEX
  5
56A
  8
0
 62
     9
 10
0.0
 20
0.0
 30
0.0
 70
   128
 71
     3
 72
    15
 73
    13
  0
VERTEX
  5
56B
  8
0
 62
     9
 10
0.0
 20
0.0
 30
0.0
 70
   128
 71
     4
 72
     5
 73
    12
  0
VERTEX
  5
56C
  8
0
 62
     9
 10
0.0
 20
0.0
 30
0.0
 70
   128
 71
     9
 72
    10
 73
    14
  0
VERTEX
  5
56D
  8
0
 62
     9
 10
0.0
 20
0.0
 30
0.0
 70
   128
 71
     1
 72
    15
 73
     3
  0
VERTEX
  5
56E
  8
0
 62
     9
 10
0.0
 20
0.0
 30
0.0
 70
   128
 71
    13
 72
    14
 73
     3
  0
VERTEX
  5
56F
  8
0
 62
     9
 10
0.0
 20
0.0
 30
0.0
 70
   128
 71
    17
 72
    16
 73
    11
  0
VERTEX
  5
570
  8
0
 62
     9
 10
0.0
 20
0.0
 30
0.0
 70
   128
 71
    19
 72
     6
 73
    18
  0
VERTEX
  5
571
  8
0
 62
     9
 10
0.0
 20
0.0
 30
0.0
 70
   128
 71
    11
 72
    12
 73
    17
  0
VERTEX
  5
572
  8
0
 62
     9
 10
0.0
 20
0.0
 30
0.0
 70
   128
 71
    21
 72
    20
 73
    16
  0
VERTEX
  5
573
  8
0
 62
     9
 10
0.0
 20
0.0
 30
0.0
 70
   128
 71
    23
 72
    22
 73
    20
  0
VERTEX
  5
574
  8
0
 62
     9
 10
0.0
 20
0.0
 30
0.0
 70
   128
 71
     6
 72
    19
 73
     8
  0
VERTEX
  5
575
  8
0
 62
     9
 10
0.0
 20
0.0
 30
0.0
 70
   128
 71
    20
 72
    21
 73
    23
  0
VERTEX
  5
576
  8
0
 62
     9
 10
0.0
 20
0.0
 30
0.0
 70
   128
 71
    16
 72
    17
 73
    21
  0
VERTEX
  5
577
  8
0
 62
     9
 10
0.0
 20
0.0
 30
0.0
 70
   128
 71
    23
 72
    24
 73
    18
  0
VERTEX
  5
578
  8
0
 62
     9
 10
0.0
 20
0.0
 30
0.0
 70
   128
 71
    18
 72
    22
 73
    23
  0
VERTEX
  5
579
  8
0
 62
     9
 10
0.0
 20
0.0
 30
0.0
 70
   128
 71
    18
 72
    24
 73
    19
  0
SEQEND
  5
57A
  8
0
 62
     9
  0
ENDBLK
  5
57D
  8
0
  0
BLOCK
  8
0
  2
E3_NODE_13_
 70
     0
 10
0.0
 20
0.0
 30
0.0
  3
E3_NODE_13_
  1

  0
POLYLINE
  5
57F
  8
0
 62
     9
 66
     1
 10
0.0
 20
0.0
 30
0.0
 70
    64
 71
    24
 72
    24
  0
VERTEX
  5
580
  8
0
 10
-27.0
 20
27.64599990844727
 30
25.0
 70
   192
  0
VERTEX
  5
581
  8
0
 10
-23.0
 20
26.94000053405762
 30
25.0
 70
   192
  0
VERTEX
  5
582
  8
0
 10
-23.0
 20
22.66399955749512
 30
10.4350004196167
 70
   192
  0
VERTEX
  5
583
  8
0
 10
-27.0
 20
23.25699996948242
 30
10.05399990081787
 70
   192
  0
VERTEX
  5
584
  8
0
 10
-23.0
 20
11.19099998474121
 30
0.4939999878406525
 70
   192
  0
VERTEX
  5
585
  8
0
 10
-27.0
 20
-3.934000015258789
 30
-2.364000082015991
 70
   192
  0
VERTEX
  5
586
  8
0
 10
-27.0
 20
11.48400020599365
 30
-0.1469999998807907
 70
   192
  0
VERTEX
  5
587
  8
0
 10
-27.0
 20
-18.10400009155273
 30
4.10699987411499
 70
   192
  0
VERTEX
  5
588
  8
0
 10
-23.0
 20
-3.834000110626221
 30
-1.666000008583069
 70
   192
  0
VERTEX
  5
589
  8
0
 10
-23.0
 20
-17.64200019836426
 30
4.639999866485596
 70
   192
  0
VERTEX
  5
58A
  8
0
 10
-23.0
 20
-25.84900093078613
 30
17.40999984741211
 70
   192
  0
VERTEX
  5
58B
  8
0
 10
-27.0
 20
-26.52599906921387
 30
32.78900146484375
 70
   192
  0
VERTEX
  5
58C
  8
0
 10
-27.0
 20
-27.64599990844727
 30
25.0
 70
   192
  0
VERTEX
  5
58D
  8
0
 10
-23.0
 20
-26.94000053405762
 30
25.0
 70
   192
  0
VERTEX
  5
58E
  8
0
 10
-27.0
 20
-26.52599906921387
 30
17.21100044250488
 70
   192
  0
VERTEX
  5
58F
  8
0
 10
-23.0
 20
-25.84900093078613
 30
32.59000015258789
 70
   192
  0
VERTEX
  5
590
  8
0
 10
-23.0
 20
-17.64200019836426
 30
45.36000061035156
 70
   192
  0
VERTEX
  5
591
  8
0
 10
-27.0
 20
-3.934000015258789
 30
52.36399841308594
 70
   192
  0
VERTEX
  5
592
  8
0
 10
-27.0
 20
-18.10400009155273
 30
45.89300155639648
 70
   192
  0
VERTEX
  5
593
  8
0
 10
-23.0
 20
-3.834000110626221
 30
51.66600036621094
 70
   192
  0
VERTEX
  5
594
  8
0
 10
-23.0
 20
11.19099998474121
 30
49.50600051879883
 70
   192
  0
VERTEX
  5
595
  8
0
 10
-27.0
 20
23.25699996948242
 30
39.94599914550781
 70
   192
  0
VERTEX
  5
596
  8
0
 10
-27.0
 20
11.48400020599365
 30
50.14699935913086
 70
   192
  0
VERTEX
  5
597
  8
0
 10
-23.0
 20
22.66399955749512
 30
39.56499862670898
 70
   192
  0
VERTEX
  5
598
  8
0
 62
     9
 10
0.0
 20
0.0
 30
0.0
 70
   128
 71
     3
 72
     2
 73
     1
  0
VERTEX
  5
599
  8
0
 62
     9
 10
0.0
 20
0.0
 30
0.0
 70
   128
 71
     5
 72
     3
 73
     4
  0
VERTEX
  5
59A
  8
0
 62
     9
 10
0.0
 20
0.0
 30
0.0
 70
   128
 71
     5
 72
     7
 73
     6
  0
VERTEX
  5
59B
  8
0
 62
     9
 10
0.0
 20
0.0
 30
0.0
 70
   128
 71
     9
 72
     6
 73
     8
  0
VERTEX
  5
59C
  8
0
 62
     9
 10
0.0
 20
0.0
 30
0.0
 70
   128
 71
    11
 72
    10
 73
     8
  0
VERTEX
  5
59D
  8
0
 62
     9
 10
0.0
 20
0.0
 30
0.0
 70
   128
 71
    14
 72
    13
 73
    12
  0
VERTEX
  5
59E
  8
0
 62
     9
 10
0.0
 20
0.0
 30
0.0
 70
   128
 71
    14
 72
    11
 73
    15
  0
VERTEX
  5
59F
  8
0
 62
     9
 10
0.0
 20
0.0
 30
0.0
 70
   128
 71
    15
 72
    13
 73
    14
  0
VERTEX
  5
5A0
  8
0
 62
     9
 10
0.0
 20
0.0
 30
0.0
 70
   128
 71
    17
 72
    16
 73
    12
  0
VERTEX
  5
5A1
  8
0
 62
     9
 10
0.0
 20
0.0
 30
0.0
 70
   128
 71
    17
 72
    19
 73
    18
  0
VERTEX
  5
5A2
  8
0
 62
     9
 10
0.0
 20
0.0
 30
0.0
 70
   128
 71
    21
 72
    20
 73
    18
  0
VERTEX
  5
5A3
  8
0
 62
     9
 10
0.0
 20
0.0
 30
0.0
 70
   128
 71
    21
 72
    23
 73
    22
  0
VERTEX
  5
5A4
  8
0
 62
     9
 10
0.0
 20
0.0
 30
0.0
 70
   128
 71
    24
 72
    22
 73
     1
  0
VERTEX
  5
5A5
  8
0
 62
     9
 10
0.0
 20
0.0
 30
0.0
 70
   128
 71
     1
 72
     2
 73
    24
  0
VERTEX
  5
5A6
  8
0
 62
     9
 10
0.0
 20
0.0
 30
0.0
 70
   128
 71
    22
 72
    24
 73
    21
  0
VERTEX
  5
5A7
  8
0
 62
     9
 10
0.0
 20
0.0
 30
0.0
 70
   128
 71
    18
 72
    23
 73
    21
  0
VERTEX
  5
5A8
  8
0
 62
     9
 10
0.0
 20
0.0
 30
0.0
 70
   128
 71
    18
 72
    20
 73
    17
  0
VERTEX
  5
5A9
  8
0
 62
     9
 10
0.0
 20
0.0
 30
0.0
 70
   128
 71
    12
 72
    19
 73
    17
  0
VERTEX
  5
5AA
  8
0
 62
     9
 10
0.0
 20
0.0
 30
0.0
 70
   128
 71
    12
 72
    16
 73
    14
  0
VERTEX
  5
5AB
  8
0
 62
     9
 10
0.0
 20
0.0
 30
0.0
 70
   128
 71
     8
 72
    15
 73
    11
  0
VERTEX
  5
5AC
  8
0
 62
     9
 10
0.0
 20
0.0
 30
0.0
 70
   128
 71
     8
 72
    10
 73
     9
  0
VERTEX
  5
5AD
  8
0
 62
     9
 10
0.0
 20
0.0
 30
0.0
 70
   128
 71
     6
 72
     9
 73
     5
  0
VERTEX
  5
5AE
  8
0
 62
     9
 10
0.0
 20
0.0
 30
0.0
 70
   128
 71
     4
 72
     7
 73
     5
  0
VERTEX
  5
5AF
  8
0
 62
     9
 10
0.0
 20
0.0
 30
0.0
 70
   128
 71
     1
 72
     4
 73
     3
  0
SEQEND
  5
5B0
  8
0
 62
     9
  0
ENDBLK
  5
5B3
  8
0
  0
BLOCK
  8
0
  2
E3_NODE_14_
 70
     0
 10
0.0
 20
0.0
 30
0.0
  3
E3_NODE_14_
  1

  0
POLYLINE
  5
5B5
  8
0
 62
     9
 66
     1
 10
0.0
 20
0.0
 30
0.0
 70
    64
 71
    12
 72
    10
  0
VERTEX
  5
5B6
  8
0
 10
-23.0
 20
22.66399955749512
 30
10.4350004196167
 70
   192
  0
VERTEX
  5
5B7
  8
0
 10
-23.0
 20
-17.64200019836426
 30
4.639999866485596
 70
   192
  0
VERTEX
  5
5B8
  8
0
 10
-23.0
 20
-3.834000110626221
 30
-1.666000008583069
 70
   192
  0
VERTEX
  5
5B9
  8
0
 10
-23.0
 20
11.19099998474121
 30
0.4939999878406525
 70
   192
  0
VERTEX
  5
5BA
  8
0
 10
-23.0
 20
11.19099998474121
 30
49.50600051879883
 70
   192
  0
VERTEX
  5
5BB
  8
0
 10
-23.0
 20
-3.834000110626221
 30
51.66600036621094
 70
   192
  0
VERTEX
  5
5BC
  8
0
 10
-23.0
 20
-17.64200019836426
 30
45.36000061035156
 70
   192
  0
VERTEX
  5
5BD
  8
0
 10
-23.0
 20
-25.84900093078613
 30
32.59000015258789
 70
   192
  0
VERTEX
  5
5BE
  8
0
 10
-23.0
 20
26.94000053405762
 30
25.0
 70
   192
  0
VERTEX
  5
5BF
  8
0
 10
-23.0
 20
22.66399955749512
 30
39.56499862670898
 70
   192
  0
VERTEX
  5
5C0
  8
0
 10
-23.0
 20
-25.84900093078613
 30
17.40999984741211
 70
   192
  0
VERTEX
  5
5C1
  8
0
 10
-23.0
 20
-26.94000053405762
 30
25.0
 70
   192
  0
VERTEX
  5
5C2
  8
0
 62
     9
 10
0.0
 20
0.0
 30
0.0
 70
   128
 71
     3
 72
     2
 73
     1
  0
VERTEX
  5
5C3
  8
0
 62
     9
 10
0.0
 20
0.0
 30
0.0
 70
   128
 71
     1
 72
     4
 73
     3
  0
VERTEX
  5
5C4
  8
0
 62
     9
 10
0.0
 20
0.0
 30
0.0
 70
   128
 71
     7
 72
     6
 73
     5
  0
VERTEX
  5
5C5
  8
0
 62
     9
 10
0.0
 20
0.0
 30
0.0
 70
   128
 71
    10
 72
     9
 73
     8
  0
VERTEX
  5
5C6
  8
0
 62
     9
 10
0.0
 20
0.0
 30
0.0
 70
   128
 71
     2
 72
    11
 73
     9
  0
VERTEX
  5
5C7
  8
0
 62
     9
 10
0.0
 20
0.0
 30
0.0
 70
   128
 71
     8
 72
     5
 73
    10
  0
VERTEX
  5
5C8
  8
0
 62
     9
 10
0.0
 20
0.0
 30
0.0
 70
   128
 71
    11
 72
    12
 73
     9
  0
VERTEX
  5
5C9
  8
0
 62
     9
 10
0.0
 20
0.0
 30
0.0
 70
   128
 71
     5
 72
     8
 73
     7
  0
VERTEX
  5
5CA
  8
0
 62
     9
 10
0.0
 20
0.0
 30
0.0
 70
   128
 71
     9
 72
    12
 73
     8
  0
VERTEX
  5
5CB
  8
0
 62
     9
 10
0.0
 20
0.0
 30
0.0
 70
   128
 71
     2
 72
     9
 73
     1
  0
SEQEND
  5
5CC
  8
0
 62
     9
  0
ENDBLK
  5
5CF
  8
0
  0
BLOCK
  8
0
  2
E3_NODE_15_
 70
     0
 10
0.0
 20
0.0
 30
0.0
  3
E3_NODE_15_
  1

  0
POLYLINE
  5
5D1
  8
0
 62
     9
 66
     1
 10
0.0
 20
0.0
 30
0.0
 70
    64
 71
    39
 72
    50
  0
VERTEX
  5
5D2
  8
0
 10
12.19799995422363
 20
7.839000225067139
 30
5.0
 70
   192
  0
VERTEX
  5
5D3
  8
0
 10
14.5
 20
0.0
 30
5.0
 70
   192
  0
VERTEX
  5
5D4
  8
0
 10
13.0
 20
0.0
 30
3.5
 70
   192
  0
VERTEX
  5
5D5
  8
0
 10
10.93599987030029
 20
7.027999877929688
 30
3.5
 70
   192
  0
VERTEX
  5
5D6
  8
0
 10
7.76800012588501
 20
9.77400016784668
 30
3.5
 70
   192
  0
VERTEX
  5
5D7
  8
0
 10
6.02400016784668
 20
13.1899995803833
 30
5.0
 70
   192
  0
VERTEX
  5
5D8
  8
0
 10
-2.063999891281128
 20
14.35200023651123
 30
5.0
 70
   192
  0
VERTEX
  5
5D9
  8
0
 10
5.400000095367432
 20
11.82499980926514
 30
3.5
 70
   192
  0
VERTEX
  5
5DA
  8
0
 10
-9.494999885559082
 20
10.95800018310547
 30
5.0
 70
   192
  0
VERTEX
  5
5DB
  8
0
 10
-2.78600001335144
 20
12.4399995803833
 30
3.5
 70
   192
  0
VERTEX
  5
5DC
  8
0
 10
-1.850000023841858
 20
12.86800003051758
 30
3.5
 70
   192
  0
VERTEX
  5
5DD
  8
0
 10
-8.512999534606934
 20
9.824999809265137
 30
3.5
 70
   192
  0
VERTEX
  5
5DE
  8
0
 10
-11.35099983215332
 20
5.407999992370605
 30
3.5
 70
   192
  0
VERTEX
  5
5DF
  8
0
 10
-13.91300010681152
 20
4.085000038146973
 30
5.0
 70
   192
  0
VERTEX
  5
5E0
  8
0
 10
-13.91300010681152
 20
-4.085000038146973
 30
5.0
 70
   192
  0
VERTEX
  5
5E1
  8
0
 10
-12.47299957275391
 20
3.663000106811523
 30
3.5
 70
   192
  0
VERTEX
  5
5E2
  8
0
 10
-9.494999885559082
 20
-10.95800018310547
 30
5.0
 70
   192
  0
VERTEX
  5
5E3
  8
0
 10
-11.35099983215332
 20
-5.407999992370605
 30
3.5
 70
   192
  0
VERTEX
  5
5E4
  8
0
 10
-12.47299957275391
 20
-3.663000106811523
 30
3.5
 70
   192
  0
VERTEX
  5
5E5
  8
0
 10
-8.512999534606934
 20
-9.824999809265137
 30
3.5
 70
   192
  0
VERTEX
  5
5E6
  8
0
 10
-2.78600001335144
 20
-12.4399995803833
 30
3.5
 70
   192
  0
VERTEX
  5
5E7
  8
0
 10
-2.063999891281128
 20
-14.35200023651123
 30
5.0
 70
   192
  0
VERTEX
  5
5E8
  8
0
 10
6.02400016784668
 20
-13.1899995803833
 30
5.0
 70
   192
  0
VERTEX
  5
5E9
  8
0
 10
-1.850000023841858
 20
-12.86800003051758
 30
3.5
 70
   192
  0
VERTEX
  5
5EA
  8
0
 10
12.19799995422363
 20
-7.839000225067139
 30
5.0
 70
   192
  0
VERTEX
  5
5EB
  8
0
 10
7.76800012588501
 20
-9.77400016784668
 30
3.5
 70
   192
  0
VERTEX
  5
5EC
  8
0
 10
5.400000095367432
 20
-11.82499980926514
 30
3.5
 70
   192
  0
VERTEX
  5
5ED
  8
0
 10
10.93599987030029
 20
-7.027999877929688
 30
3.5
 70
   192
  0
VERTEX
  5
5EE
  8
0
 10
10.93599987030029
 20
7.027999877929688
 30
6.5
 70
   192
  0
VERTEX
  5
5EF
  8
0
 10
13.0
 20
0.0
 30
6.5
 70
   192
  0
VERTEX
  5
5F0
  8
0
 10
5.400000095367432
 20
11.82499980926514
 30
6.5
 70
   192
  0
VERTEX
  5
5F1
  8
0
 10
-1.850000023841858
 20
12.86800003051758
 30
6.5
 70
   192
  0
VERTEX
  5
5F2
  8
0
 10
-8.512999534606934
 20
9.824999809265137
 30
6.5
 70
   192
  0
VERTEX
  5
5F3
  8
0
 10
-12.47299957275391
 20
3.663000106811523
 30
6.5
 70
   192
  0
VERTEX
  5
5F4
  8
0
 10
-12.47299957275391
 20
-3.663000106811523
 30
6.5
 70
   192
  0
VERTEX
  5
5F5
  8
0
 10
-8.512999534606934
 20
-9.824999809265137
 30
6.5
 70
   192
  0
VERTEX
  5
5F6
  8
0
 10
-1.850000023841858
 20
-12.86800003051758
 30
6.5
 70
   192
  0
VERTEX
  5
5F7
  8
0
 10
5.400000095367432
 20
-11.82499980926514
 30
6.5
 70
   192
  0
VERTEX
  5
5F8
  8
0
 10
10.93599987030029
 20
-7.027999877929688
 30
6.5
 70
   192
  0
VERTEX
  5
5F9
  8
0
 62
     9
 10
0.0
 20
0.0
 30
0.0
 70
   128
 71
     3
 72
     2
 73
     1
  0
VERTEX
  5
5FA
  8
0
 62
     9
 10
0.0
 20
0.0
 30
0.0
 70
   128
 71
     5
 72
     4
 73
     1
  0
VERTEX
  5
5FB
  8
0
 62
     9
 10
0.0
 20
0.0
 30
0.0
 70
   128
 71
     1
 72
     6
 73
     5
  0
VERTEX
  5
5FC
  8
0
 62
     9
 10
0.0
 20
0.0
 30
0.0
 70
   128
 71
     8
 72
     6
 73
     7
  0
VERTEX
  5
5FD
  8
0
 62
     9
 10
0.0
 20
0.0
 30
0.0
 70
   128
 71
    10
 72
     7
 73
     9
  0
VERTEX
  5
5FE
  8
0
 62
     9
 10
0.0
 20
0.0
 30
0.0
 70
   128
 71
    10
 72
    11
 73
     7
  0
VERTEX
  5
5FF
  8
0
 62
     9
 10
0.0
 20
0.0
 30
0.0
 70
   128
 71
    13
 72
    12
 73
     9
  0
VERTEX
  5
600
  8
0
 62
     9
 10
0.0
 20
0.0
 30
0.0
 70
   128
 71
     9
 72
    14
 73
    13
  0
VERTEX
  5
601
  8
0
 62
     9
 10
0.0
 20
0.0
 30
0.0
 70
   128
 71
    16
 72
    14
 73
    15
  0
VERTEX
  5
602
  8
0
 62
     9
 10
0.0
 20
0.0
 30
0.0
 70
   128
 71
    18
 72
    15
 73
    17
  0
VERTEX
  5
603
  8
0
 62
     9
 10
0.0
 20
0.0
 30
0.0
 70
   128
 71
    18
 72
    19
 73
    15
  0
VERTEX
  5
604
  8
0
 62
     9
 10
0.0
 20
0.0
 30
0.0
 70
   128
 71
    21
 72
    20
 73
    17
  0
VERTEX
  5
605
  8
0
 62
     9
 10
0.0
 20
0.0
 30
0.0
 70
   128
 71
    17
 72
    22
 73
    21
  0
VERTEX
  5
606
  8
0
 62
     9
 10
0.0
 20
0.0
 30
0.0
 70
   128
 71
    24
 72
    22
 73
    23
  0
VERTEX
  5
607
  8
0
 62
     9
 10
0.0
 20
0.0
 30
0.0
 70
   128
 71
    26
 72
    23
 73
    25
  0
VERTEX
  5
608
  8
0
 62
     9
 10
0.0
 20
0.0
 30
0.0
 70
   128
 71
    26
 72
    27
 73
    23
  0
VERTEX
  5
609
  8
0
 62
     9
 10
0.0
 20
0.0
 30
0.0
 70
   128
 71
    28
 72
    25
 73
     2
  0
VERTEX
  5
60A
  8
0
 62
     9
 10
0.0
 20
0.0
 30
0.0
 70
   128
 71
    30
 72
    29
 73
     1
  0
VERTEX
  5
60B
  8
0
 62
     9
 10
0.0
 20
0.0
 30
0.0
 70
   128
 71
    29
 72
    31
 73
     6
  0
VERTEX
  5
60C
  8
0
 62
     9
 10
0.0
 20
0.0
 30
0.0
 70
   128
 71
    31
 72
    32
 73
     7
  0
VERTEX
  5
60D
  8
0
 62
     9
 10
0.0
 20
0.0
 30
0.0
 70
   128
 71
    32
 72
    33
 73
     9
  0
VERTEX
  5
60E
  8
0
 62
     9
 10
0.0
 20
0.0
 30
0.0
 70
   128
 71
    34
 72
    14
 73
     9
  0
VERTEX
  5
60F
  8
0
 62
     9
 10
0.0
 20
0.0
 30
0.0
 70
   128
 71
    35
 72
    15
 73
    14
  0
VERTEX
  5
610
  8
0
 62
     9
 10
0.0
 20
0.0
 30
0.0
 70
   128
 71
    35
 72
    36
 73
    17
  0
VERTEX
  5
611
  8
0
 62
     9
 10
0.0
 20
0.0
 30
0.0
 70
   128
 71
    36
 72
    37
 73
    22
  0
VERTEX
  5
612
  8
0
 62
     9
 10
0.0
 20
0.0
 30
0.0
 70
   128
 71
    38
 72
    23
 73
    22
  0
VERTEX
  5
613
  8
0
 62
     9
 10
0.0
 20
0.0
 30
0.0
 70
   128
 71
    38
 72
    39
 73
    25
  0
VERTEX
  5
614
  8
0
 62
     9
 10
0.0
 20
0.0
 30
0.0
 70
   128
 71
    30
 72
     2
 73
    25
  0
VERTEX
  5
615
  8
0
 62
     9
 10
0.0
 20
0.0
 30
0.0
 70
   128
 71
    25
 72
    39
 73
    30
  0
VERTEX
  5
616
  8
0
 62
     9
 10
0.0
 20
0.0
 30
0.0
 70
   128
 71
    25
 72
    23
 73
    38
  0
VERTEX
  5
617
  8
0
 62
     9
 10
0.0
 20
0.0
 30
0.0
 70
   128
 71
    22
 72
    37
 73
    38
  0
VERTEX
  5
618
  8
0
 62
     9
 10
0.0
 20
0.0
 30
0.0
 70
   128
 71
    22
 72
    17
 73
    36
  0
VERTEX
  5
619
  8
0
 62
     9
 10
0.0
 20
0.0
 30
0.0
 70
   128
 71
    17
 72
    15
 73
    35
  0
VERTEX
  5
61A
  8
0
 62
     9
 10
0.0
 20
0.0
 30
0.0
 70
   128
 71
    14
 72
    34
 73
    35
  0
VERTEX
  5
61B
  8
0
 62
     9
 10
0.0
 20
0.0
 30
0.0
 70
   128
 71
     9
 72
    33
 73
    34
  0
VERTEX
  5
61C
  8
0
 62
     9
 10
0.0
 20
0.0
 30
0.0
 70
   128
 71
     9
 72
     7
 73
    32
  0
VERTEX
  5
61D
  8
0
 62
     9
 10
0.0
 20
0.0
 30
0.0
 70
   128
 71
     7
 72
     6
 73
    31
  0
VERTEX
  5
61E
  8
0
 62
     9
 10
0.0
 20
0.0
 30
0.0
 70
   128
 71
     6
 72
     1
 73
    29
  0
VERTEX
  5
61F
  8
0
 62
     9
 10
0.0
 20
0.0
 30
0.0
 70
   128
 71
     1
 72
     2
 73
    30
  0
VERTEX
  5
620
  8
0
 62
     9
 10
0.0
 20
0.0
 30
0.0
 70
   128
 71
     2
 72
     3
 73
    28
  0
VERTEX
  5
621
  8
0
 62
     9
 10
0.0
 20
0.0
 30
0.0
 70
   128
 71
    25
 72
    28
 73
    26
  0
VERTEX
  5
622
  8
0
 62
     9
 10
0.0
 20
0.0
 30
0.0
 70
   128
 71
    23
 72
    27
 73
    24
  0
VERTEX
  5
623
  8
0
 62
     9
 10
0.0
 20
0.0
 30
0.0
 70
   128
 71
    22
 72
    24
 73
    21
  0
VERTEX
  5
624
  8
0
 62
     9
 10
0.0
 20
0.0
 30
0.0
 70
   128
 71
    17
 72
    20
 73
    18
  0
VERTEX
  5
625
  8
0
 62
     9
 10
0.0
 20
0.0
 30
0.0
 70
   128
 71
    15
 72
    19
 73
    16
  0
VERTEX
  5
626
  8
0
 62
     9
 10
0.0
 20
0.0
 30
0.0
 70
   128
 71
    14
 72
    16
 73
    13
  0
VERTEX
  5
627
  8
0
 62
     9
 10
0.0
 20
0.0
 30
0.0
 70
   128
 71
     9
 72
    12
 73
    10
  0
VERTEX
  5
628
  8
0
 62
     9
 10
0.0
 20
0.0
 30
0.0
 70
   128
 71
     7
 72
    11
 73
     8
  0
VERTEX
  5
629
  8
0
 62
     9
 10
0.0
 20
0.0
 30
0.0
 70
   128
 71
     6
 72
     8
 73
     5
  0
VERTEX
  5
62A
  8
0
 62
     9
 10
0.0
 20
0.0
 30
0.0
 70
   128
 71
     1
 72
     4
 73
     3
  0
SEQEND
  5
62B
  8
0
 62
     9
  0
ENDBLK
  5
62E
  8
0
  0
BLOCK
  8
0
  2
E3_NODE_16_
 70
     0
 10
0.0
 20
0.0
 30
0.0
  3
E3_NODE_16_
  1

  0
POLYLINE
  5
630
  8
0
 62
     9
 66
     1
 10
0.0
 20
0.0
 30
0.0
 70
    64
 71
    25
 72
    25
  0
VERTEX
  5
631
  8
0
 10
13.0
 20
0.0
 30
-1.5
 70
   192
  0
VERTEX
  5
632
  8
0
 10
8.104999542236328
 20
10.16399955749512
 30
-1.5
 70
   192
  0
VERTEX
  5
633
  8
0
 10
10.93599987030029
 20
7.027999877929688
 30
3.5
 70
   192
  0
VERTEX
  5
634
  8
0
 10
7.76800012588501
 20
9.77400016784668
 30
3.5
 70
   192
  0
VERTEX
  5
635
  8
0
 10
-2.892999887466431
 20
12.67399978637695
 30
-1.5
 70
   192
  0
VERTEX
  5
636
  8
0
 10
-1.850000023841858
 20
12.86800003051758
 30
3.5
 70
   192
  0
VERTEX
  5
637
  8
0
 10
5.400000095367432
 20
11.82499980926514
 30
3.5
 70
   192
  0
VERTEX
  5
638
  8
0
 10
-2.78600001335144
 20
12.4399995803833
 30
3.5
 70
   192
  0
VERTEX
  5
639
  8
0
 10
-11.71300029754639
 20
5.639999866485596
 30
-1.5
 70
   192
  0
VERTEX
  5
63A
  8
0
 10
-8.512999534606934
 20
9.824999809265137
 30
3.5
 70
   192
  0
VERTEX
  5
63B
  8
0
 10
-11.35099983215332
 20
5.407999992370605
 30
3.5
 70
   192
  0
VERTEX
  5
63C
  8
0
 10
-12.47299957275391
 20
-3.663000106811523
 30
3.5
 70
   192
  0
VERTEX
  5
63D
  8
0
 10
-12.47299957275391
 20
3.663000106811523
 30
3.5
 70
   192
  0
VERTEX
  5
63E
  8
0
 10
-13.0
 20
0.0
 30
-1.5
 70
   192
  0
VERTEX
  5
63F
  8
0
 10
-11.71300029754639
 20
-5.639999866485596
 30
-1.5
 70
   192
  0
VERTEX
  5
640
  8
0
 10
-11.35099983215332
 20
-5.407999992370605
 30
3.5
 70
   192
  0
VERTEX
  5
641
  8
0
 10
-2.892999887466431
 20
-12.67399978637695
 30
-1.5
 70
   192
  0
VERTEX
  5
642
  8
0
 10
-2.78600001335144
 20
-12.4399995803833
 30
3.5
 70
   192
  0
VERTEX
  5
643
  8
0
 10
-8.512999534606934
 20
-9.824999809265137
 30
3.5
 70
   192
  0
VERTEX
  5
644
  8
0
 10
8.104999542236328
 20
-10.16399955749512
 30
-1.5
 70
   192
  0
VERTEX
  5
645
  8
0
 10
5.400000095367432
 20
-11.82499980926514
 30
3.5
 70
   192
  0
VERTEX
  5
646
  8
0
 10
-1.850000023841858
 20
-12.86800003051758
 30
3.5
 70
   192
  0
VERTEX
  5
647
  8
0
 10
7.76800012588501
 20
-9.77400016784668
 30
3.5
 70
   192
  0
VERTEX
  5
648
  8
0
 10
13.0
 20
0.0
 30
3.5
 70
   192
  0
VERTEX
  5
649
  8
0
 10
10.93599987030029
 20
-7.027999877929688
 30
3.5
 70
   192
  0
VERTEX
  5
64A
  8
0
 62
     9
 10
0.0
 20
0.0
 30
0.0
 70
   128
 71
     3
 72
     2
 73
     1
  0
VERTEX
  5
64B
  8
0
 62
     9
 10
0.0
 20
0.0
 30
0.0
 70
   128
 71
     3
 72
     4
 73
     2
  0
VERTEX
  5
64C
  8
0
 62
     9
 10
0.0
 20
0.0
 30
0.0
 70
   128
 71
     7
 72
     6
 73
     5
  0
VERTEX
  5
64D
  8
0
 62
     9
 10
0.0
 20
0.0
 30
0.0
 70
   128
 71
     5
 72
     2
 73
     7
  0
VERTEX
  5
64E
  8
0
 62
     9
 10
0.0
 20
0.0
 30
0.0
 70
   128
 71
     6
 72
     8
 73
     5
  0
VERTEX
  5
64F
  8
0
 62
     9
 10
0.0
 20
0.0
 30
0.0
 70
   128
 71
    10
 72
     9
 73
     5
  0
VERTEX
  5
650
  8
0
 62
     9
 10
0.0
 20
0.0
 30
0.0
 70
   128
 71
    10
 72
    11
 73
     9
  0
VERTEX
  5
651
  8
0
 62
     9
 10
0.0
 20
0.0
 30
0.0
 70
   128
 71
    14
 72
    13
 73
    12
  0
VERTEX
  5
652
  8
0
 62
     9
 10
0.0
 20
0.0
 30
0.0
 70
   128
 71
    12
 72
    16
 73
    15
  0
VERTEX
  5
653
  8
0
 62
     9
 10
0.0
 20
0.0
 30
0.0
 70
   128
 71
    13
 72
    14
 73
     9
  0
VERTEX
  5
654
  8
0
 62
     9
 10
0.0
 20
0.0
 30
0.0
 70
   128
 71
     9
 72
    11
 73
    13
  0
VERTEX
  5
655
  8
0
 62
     9
 10
0.0
 20
0.0
 30
0.0
 70
   128
 71
    19
 72
    18
 73
    17
  0
VERTEX
  5
656
  8
0
 62
     9
 10
0.0
 20
0.0
 30
0.0
 70
   128
 71
    17
 72
    15
 73
    19
  0
VERTEX
  5
657
  8
0
 62
     9
 10
0.0
 20
0.0
 30
0.0
 70
   128
 71
    21
 72
    20
 73
    17
  0
VERTEX
  5
658
  8
0
 62
     9
 10
0.0
 20
0.0
 30
0.0
 70
   128
 71
    17
 72
    22
 73
    21
  0
VERTEX
  5
659
  8
0
 62
     9
 10
0.0
 20
0.0
 30
0.0
 70
   128
 71
    21
 72
    23
 73
    20
  0
VERTEX
  5
65A
  8
0
 62
     9
 10
0.0
 20
0.0
 30
0.0
 70
   128
 71
    25
 72
    24
 73
     1
  0
VERTEX
  5
65B
  8
0
 62
     9
 10
0.0
 20
0.0
 30
0.0
 70
   128
 71
     1
 72
    20
 73
    25
  0
VERTEX
  5
65C
  8
0
 62
     9
 10
0.0
 20
0.0
 30
0.0
 70
   128
 71
    20
 72
    23
 73
    25
  0
VERTEX
  5
65D
  8
0
 62
     9
 10
0.0
 20
0.0
 30
0.0
 70
   128
 71
    17
 72
    18
 73
    22
  0
VERTEX
  5
65E
  8
0
 62
     9
 10
0.0
 20
0.0
 30
0.0
 70
   128
 71
    15
 72
    16
 73
    19
  0
VERTEX
  5
65F
  8
0
 62
     9
 10
0.0
 20
0.0
 30
0.0
 70
   128
 71
    12
 72
    15
 73
    14
  0
VERTEX
  5
660
  8
0
 62
     9
 10
0.0
 20
0.0
 30
0.0
 70
   128
 71
     5
 72
     8
 73
    10
  0
VERTEX
  5
661
  8
0
 62
     9
 10
0.0
 20
0.0
 30
0.0
 70
   128
 71
     2
 72
     4
 73
     7
  0
VERTEX
  5
662
  8
0
 62
     9
 10
0.0
 20
0.0
 30
0.0
 70
   128
 71
     1
 72
    24
 73
     3
  0
SEQEND
  5
663
  8
0
 62
     9
  0
ENDBLK
  5
666
  8
0
  0
BLOCK
  8
0
  2
E3_NODE_17_
 70
     0
 10
0.0
 20
0.0
 30
0.0
  3
E3_NODE_17_
  1

  0
POLYLINE
  5
668
  8
0
 62
     9
 66
     1
 10
0.0
 20
0.0
 30
0.0
 70
    64
 71
     8
 72
     6
  0
VERTEX
  5
669
  8
0
 10
13.0
 20
0.0
 30
-1.5
 70
   192
  0
VERTEX
  5
66A
  8
0
 10
-11.71300029754639
 20
5.639999866485596
 30
-1.5
 70
   192
  0
VERTEX
  5
66B
  8
0
 10
-2.892999887466431
 20
12.67399978637695
 30
-1.5
 70
   192
  0
VERTEX
  5
66C
  8
0
 10
-11.71300029754639
 20
-5.639999866485596
 30
-1.5
 70
   192
  0
VERTEX
  5
66D
  8
0
 10
8.104999542236328
 20
-10.16399955749512
 30
-1.5
 70
   192
  0
VERTEX
  5
66E
  8
0
 10
-13.0
 20
0.0
 30
-1.5
 70
   192
  0
VERTEX
  5
66F
  8
0
 10
-2.892999887466431
 20
-12.67399978637695
 30
-1.5
 70
   192
  0
VERTEX
  5
670
  8
0
 10
8.104999542236328
 20
10.16399955749512
 30
-1.5
 70
   192
  0
VERTEX
  5
671
  8
0
 62
     9
 10
0.0
 20
0.0
 30
0.0
 70
   128
 71
     3
 72
     2
 73
     1
  0
VERTEX
  5
672
  8
0
 62
     9
 10
0.0
 20
0.0
 30
0.0
 70
   128
 71
     5
 72
     1
 73
     4
  0
VERTEX
  5
673
  8
0
 62
     9
 10
0.0
 20
0.0
 30
0.0
 70
   128
 71
     2
 72
     6
 73
     1
  0
VERTEX
  5
674
  8
0
 62
     9
 10
0.0
 20
0.0
 30
0.0
 70
   128
 71
     4
 72
     7
 73
     5
  0
VERTEX
  5
675
  8
0
 62
     9
 10
0.0
 20
0.0
 30
0.0
 70
   128
 71
     1
 72
     6
 73
     4
  0
VERTEX
  5
676
  8
0
 62
     9
 10
0.0
 20
0.0
 30
0.0
 70
   128
 71
     1
 72
     8
 73
     3
  0
SEQEND
  5
677
  8
0
 62
     9
  0
ENDBLK
  5
67A
  8
0
  0
ENDSEC
  0
SECTION
  2
ENTITIES
  0
INSERT
  5
7E
  8
LAYER_1
  2
E3_NODE
 10
0.0
 20
0.0
 30
0.0
  0
INSERT
  5
17D
  8
LAYER_1
  2
E3_NODE_1_
 10
0.0
 20
0.0
 30
0.0
  0
INSERT
  5
219
  8
LAYER_1
  2
E3_NODE_2_
 10
0.0
 20
0.0
 30
0.0
  0
INSERT
  5
22D
  8
LAYER_1
  2
E3_NODE_3_
 10
0.0
 20
0.0
 30
0.0
  0
INSERT
  5
23F
  8
LAYER_1
  2
E3_NODE_4_
 10
0.0
 20
0.0
 30
0.0
  0
INSERT
  5
26F
  8
LAYER_1
  2
E3_NODE_5_
 10
0.0
 20
0.0
 30
0.0
  0
INSERT
  5
29F
  8
LAYER_1
  2
E3_NODE_6_
 10
0.0
 20
0.0
 30
0.0
  0
INSERT
  5
2C7
  8
LAYER_1
  2
E3_NODE_7_
 10
0.0
 20
0.0
 30
0.0
  0
INSERT
  5
4C3
  8
LAYER_1
  2
E3_NODE_8_
 10
0.0
 20
0.0
 30
0.0
  0
INSERT
  5
4F7
  8
LAYER_1
  2
E3_NODE_9_
 10
0.0
 20
0.0
 30
0.0
  0
INSERT
  5
511
  8
LAYER_1
  2
E3_NODE_10_
 10
0.0
 20
0.0
 30
0.0
  0
INSERT
  5
545
  8
LAYER_1
  2
E3_NODE_11_
 10
0.0
 20
0.0
 30
0.0
  0
INSERT
  5
57B
  8
LAYER_1
  2
E3_NODE_12_
 10
0.0
 20
0.0
 30
0.0
  0
INSERT
  5
5B1
  8
LAYER_1
  2
E3_NODE_13_
 10
0.0
 20
0.0
 30
0.0
  0
INSERT
  5
5CD
  8
LAYER_1
  2
E3_NODE_14_
 10
0.0
 20
0.0
 30
0.0
  0
INSERT
  5
62C
  8
LAYER_1
  2
E3_NODE_15_
 10
0.0
 20
0.0
 30
0.0
  0
INSERT
  5
664
  8
LAYER_1
  2
E3_NODE_16_
 10
0.0
 20
0.0
 30
0.0
  0
INSERT
  5
678
  8
LAYER_1
  2
E3_NODE_17_
 10
0.0
 20
0.0
 30
0.0
  0
ENDSEC
  0
EOF
