  0
SECTION
  2
HEADER
  9
$ACADVER
  1
AC1009
  9
$DWGCODEPAGE
  3
ansi_1252
  9
$INSBASE
 10
0.0
 20
0.0
 30
0.0
  9
$EXTMIN
 10
1.000000000000000E+20
 20
1.000000000000000E+20
 30
1.000000000000000E+20
  9
$EXTMAX
 10
-1.000000000000000E+20
 20
-1.000000000000000E+20
 30
-1.000000000000000E+20
  9
$LIMMIN
 10
0.0
 20
0.0
  9
$LIMMAX
 10
12.0
 20
9.0
  9
$ORTHOMODE
 70
     0
  9
$REGENMODE
 70
     1
  9
$FILLMODE
 70
     1
  9
$QTEXTMODE
 70
     0
  9
$MIRRTEXT
 70
     1
  9
$DRAGMODE
 70
     2
  9
$LTSCALE
 40
1.0
  9
$OSMODE
 70
    37
  9
$ATTMODE
 70
     1
  9
$TEXTSIZE
 40
0.2
  9
$TRACEWID
 40
0.05
  9
$TEXTSTYLE
  7
STANDARD
  9
$CLAYER
  8
0
  9
$CELTYPE
  6
BYLAYER
  9
$CECOLOR
 62
   256
  9
$DIMSCALE
 40
1.0
  9
$DIMASZ
 40
0.18
  9
$DIMEXO
 40
0.0625
  9
$DIMDLI
 40
0.38
  9
$DIMRND
 40
0.0
  9
$DIMDLE
 40
0.0
  9
$DIMEXE
 40
0.18
  9
$DIMTP
 40
0.0
  9
$DIMTM
 40
0.0
  9
$DIMTXT
 40
0.18
  9
$DIMCEN
 40
0.09
  9
$DIMTSZ
 40
0.0
  9
$DIMTOL
 70
     0
  9
$DIMLIM
 70
     0
  9
$DIMTIH
 70
     1
  9
$DIMTOH
 70
     1
  9
$DIMSE1
 70
     0
  9
$DIMSE2
 70
     0
  9
$DIMTAD
 70
     0
  9
$DIMZIN
 70
     0
  9
$DIMBLK
  1

  9
$DIMASO
 70
     1
  9
$DIMSHO
 70
     1
  9
$DIMPOST
  1

  9
$DIMAPOST
  1

  9
$DIMALT
 70
     0
  9
$DIMALTD
 70
     2
  9
$DIMALTF
 40
25.4
  9
$DIMLFAC
 40
1.0
  9
$DIMTOFL
 70
     0
  9
$DIMTVP
 40
0.0
  9
$DIMTIX
 70
     0
  9
$DIMSOXD
 70
     0
  9
$DIMSAH
 70
     0
  9
$DIMBLK1
  1

  9
$DIMBLK2
  1

  9
$DIMSTYLE
  2
STANDARD
  9
$DIMCLRD
 70
     0
  9
$DIMCLRE
 70
     0
  9
$DIMCLRT
 70
     0
  9
$DIMTFAC
 40
1.0
  9
$DIMGAP
 40
0.09
  9
$LUNITS
 70
     2
  9
$LUPREC
 70
     4
  9
$SKETCHINC
 40
0.1
  9
$FILLETRAD
 40
0.5
  9
$AUNITS
 70
     0
  9
$AUPREC
 70
     0
  9
$MENU
  1
.
  9
$ELEVATION
 40
0.0
  9
$PELEVATION
 40
0.0
  9
$THICKNESS
 40
0.0
  9
$LIMCHECK
 70
     0
  9
$CHAMFERA
 40
0.5
  9
$CHAMFERB
 40
0.5
  9
$SKPOLY
 70
     0
  9
$TDCREATE
 40
2455362.751528495
  9
$TDUPDATE
 40
2455362.751528495
  9
$TDINDWG
 40
0.0000000116
  9
$TDUSRTIMER
 40
0.0000000116
  9
$USRTIMER
 70
     1
  9
$ANGBASE
 50
0.0
  9
$ANGDIR
 70
     0
  9
$PDMODE
 70
     0
  9
$PDSIZE
 40
0.0
  9
$PLINEWID
 40
0.0
  9
$COORDS
 70
     1
  9
$SPLFRAME
 70
     0
  9
$SPLINETYPE
 70
     6
  9
$SPLINESEGS
 70
     8
  9
$ATTDIA
 70
     0
  9
$ATTREQ
 70
     1
  9
$HANDLING
 70
     1
  9
$HANDSEED
  5
52F
  9
$SURFTAB1
 70
     6
  9
$SURFTAB2
 70
     6
  9
$SURFTYPE
 70
     6
  9
$SURFU
 70
     6
  9
$SURFV
 70
     6
  9
$UCSNAME
  2

  9
$UCSORG
 10
0.0
 20
0.0
 30
0.0
  9
$UCSXDIR
 10
1.0
 20
0.0
 30
0.0
  9
$UCSYDIR
 10
0.0
 20
1.0
 30
0.0
  9
$PUCSNAME
  2

  9
$PUCSORG
 10
0.0
 20
0.0
 30
0.0
  9
$PUCSXDIR
 10
1.0
 20
0.0
 30
0.0
  9
$PUCSYDIR
 10
0.0
 20
1.0
 30
0.0
  9
$USERI1
 70
     0
  9
$USERI2
 70
     0
  9
$USERI3
 70
     0
  9
$USERI4
 70
     0
  9
$USERI5
 70
     0
  9
$USERR1
 40
0.0
  9
$USERR2
 40
0.0
  9
$USERR3
 40
0.0
  9
$USERR4
 40
0.0
  9
$USERR5
 40
0.0
  9
$WORLDVIEW
 70
     1
  9
$SHADEDGE
 70
     3
  9
$SHADEDIF
 70
    70
  9
$TILEMODE
 70
     1
  9
$MAXACTVP
 70
    64
  9
$PLIMCHECK
 70
     0
  9
$PEXTMIN
 10
1.000000000000000E+20
 20
1.000000000000000E+20
 30
1.000000000000000E+20
  9
$PEXTMAX
 10
-1.000000000000000E+20
 20
-1.000000000000000E+20
 30
-1.000000000000000E+20
  9
$PLIMMIN
 10
0.0
 20
0.0
  9
$PLIMMAX
 10
12.0
 20
9.0
  9
$UNITMODE
 70
     0
  9
$VISRETAIN
 70
     1
  9
$PLINEGEN
 70
     0
  9
$PSLTSCALE
 70
     1
  0
ENDSEC
  0
SECTION
  2
TABLES
  0
TABLE
  2
VPORT
 70
     1
  0
VPORT
  2
*ACTIVE
 70
     0
 10
0.0
 20
0.0
 11
1.0
 21
1.0
 12
0.0
 22
0.0
 13
0.0
 23
0.0
 14
0.5
 24
0.5
 15
0.5
 25
0.5
 16
447.1235961914062
 26
255.4771881103516
 36
447.1235961914062
 17
0.0
 27
0.0
 37
-7.125
 40
256.7474068579174
 41
1.972972972850329
 42
50.0
 43
0.0
 44
0.0
 50
0.0
 51
0.0
 71
     0
 72
   100
 73
     1
 74
     3
 75
     0
 76
     0
 77
     0
 78
     0
  0
ENDTAB
  0
TABLE
  2
LTYPE
 70
     1
  0
LTYPE
  2
CONTINUOUS
 70
     0
  3
Solid line
 72
    65
 73
     0
 40
0.0
  0
ENDTAB
  0
TABLE
  2
LAYER
 70
     2
  0
LAYER
  2
0
 70
     0
 62
     7
  6
CONTINUOUS
  0
LAYER
  2
LAYER_1
 70
     0
 62
     7
  6
CONTINUOUS
  0
ENDTAB
  0
TABLE
  2
STYLE
 70
     1
  0
STYLE
  2
STANDARD
 70
     0
 40
0.0
 41
1.0
 50
0.0
 71
     0
 42
0.2
  3
txt
  4

  0
ENDTAB
  0
TABLE
  2
VIEW
 70
     0
  0
ENDTAB
  0
TABLE
  2
UCS
 70
     0
  0
ENDTAB
  0
TABLE
  2
APPID
 70
     1
  0
APPID
  2
ACAD
 70
     0
  0
ENDTAB
  0
TABLE
  2
DIMSTYLE
 70
     1
  0
DIMSTYLE
  2
STANDARD
 70
     0
  3

  4

  5

  6

  7

 40
1.0
 41
0.18
 42
0.0625
 43
0.38
 44
0.18
 45
0.0
 46
0.0
 47
0.0
 48
0.0
140
0.18
141
0.09
142
0.0
143
25.4
144
1.0
145
0.0
146
1.0
147
0.09
 71
     0
 72
     0
 73
     1
 74
     1
 75
     0
 76
     0
 77
     0
 78
     0
170
     0
171
     2
172
     0
173
     0
174
     0
175
     0
176
     0
177
     0
178
     0
  0
ENDTAB
  0
ENDSEC
  0
SECTION
  2
BLOCKS
  0
BLOCK
  8
0
  2
$MODEL_SPACE
 70
     0
 10
0.0
 20
0.0
 30
0.0
  3
$MODEL_SPACE
  1

  0
ENDBLK
  5
21
  8
0
  0
BLOCK
 67
     1
  8
0
  2
$PAPER_SPACE
 70
     0
 10
0.0
 20
0.0
 30
0.0
  3
$PAPER_SPACE
  1

  0
ENDBLK
  5
1D
 67
     1
  8
0
  0
BLOCK
  8
0
  2
E3_NODE
 70
     0
 10
0.0
 20
0.0
 30
0.0
  3
E3_NODE
  1

  0
POLYLINE
  5
3C
  8
0
 62
     9
 66
     1
 10
0.0
 20
0.0
 30
0.0
 70
    64
 71
    32
 72
    30
  0
VERTEX
  5
3D
  8
0
 10
-6.945000171661377
 20
-10.39299964904785
 30
-12.39999961853027
 70
   192
  0
VERTEX
  5
3E
  8
0
 10
0.0
 20
-12.5
 30
-12.39999961853027
 70
   192
  0
VERTEX
  5
3F
  8
0
 10
-2.438999891281128
 20
-12.26000022888184
 30
-12.39999961853027
 70
   192
  0
VERTEX
  5
40
  8
0
 10
4.783999919891357
 20
-11.54800033569336
 30
-12.39999961853027
 70
   192
  0
VERTEX
  5
41
  8
0
 10
2.438999891281128
 20
-12.26000022888184
 30
-12.39999961853027
 70
   192
  0
VERTEX
  5
42
  8
0
 10
-4.783999919891357
 20
11.54800033569336
 30
-12.39999961853027
 70
   192
  0
VERTEX
  5
43
  8
0
 10
6.945000171661377
 20
10.39299964904785
 30
-12.39999961853027
 70
   192
  0
VERTEX
  5
44
  8
0
 10
8.83899974822998
 20
8.83899974822998
 30
-12.39999961853027
 70
   192
  0
VERTEX
  5
45
  8
0
 10
0.0
 20
12.5
 30
-12.39999961853027
 70
   192
  0
VERTEX
  5
46
  8
0
 10
2.438999891281128
 20
12.26000022888184
 30
-12.39999961853027
 70
   192
  0
VERTEX
  5
47
  8
0
 10
6.945000171661377
 20
-10.39299964904785
 30
-12.39999961853027
 70
   192
  0
VERTEX
  5
48
  8
0
 10
11.54800033569336
 20
-4.783999919891357
 30
-12.39999961853027
 70
   192
  0
VERTEX
  5
49
  8
0
 10
10.39299964904785
 20
-6.945000171661377
 30
-12.39999961853027
 70
   192
  0
VERTEX
  5
4A
  8
0
 10
11.54800033569336
 20
4.783999919891357
 30
-12.39999961853027
 70
   192
  0
VERTEX
  5
4B
  8
0
 10
12.26000022888184
 20
2.438999891281128
 30
-12.39999961853027
 70
   192
  0
VERTEX
  5
4C
  8
0
 10
4.783999919891357
 20
11.54800033569336
 30
-12.39999961853027
 70
   192
  0
VERTEX
  5
4D
  8
0
 10
-2.438999891281128
 20
12.26000022888184
 30
-12.39999961853027
 70
   192
  0
VERTEX
  5
4E
  8
0
 10
12.5
 20
0.0
 30
-12.39999961853027
 70
   192
  0
VERTEX
  5
4F
  8
0
 10
-8.83899974822998
 20
8.83899974822998
 30
-12.39999961853027
 70
   192
  0
VERTEX
  5
50
  8
0
 10
-6.945000171661377
 20
10.39299964904785
 30
-12.39999961853027
 70
   192
  0
VERTEX
  5
51
  8
0
 10
-11.54800033569336
 20
4.783999919891357
 30
-12.39999961853027
 70
   192
  0
VERTEX
  5
52
  8
0
 10
-10.39299964904785
 20
6.945000171661377
 30
-12.39999961853027
 70
   192
  0
VERTEX
  5
53
  8
0
 10
12.26000022888184
 20
-2.438999891281128
 30
-12.39999961853027
 70
   192
  0
VERTEX
  5
54
  8
0
 10
-10.39299964904785
 20
-6.945000171661377
 30
-12.39999961853027
 70
   192
  0
VERTEX
  5
55
  8
0
 10
-11.54800033569336
 20
-4.783999919891357
 30
-12.39999961853027
 70
   192
  0
VERTEX
  5
56
  8
0
 10
-8.83899974822998
 20
-8.83899974822998
 30
-12.39999961853027
 70
   192
  0
VERTEX
  5
57
  8
0
 10
8.83899974822998
 20
-8.83899974822998
 30
-12.39999961853027
 70
   192
  0
VERTEX
  5
58
  8
0
 10
10.39299964904785
 20
6.945000171661377
 30
-12.39999961853027
 70
   192
  0
VERTEX
  5
59
  8
0
 10
-12.26000022888184
 20
2.438999891281128
 30
-12.39999961853027
 70
   192
  0
VERTEX
  5
5A
  8
0
 10
-12.26000022888184
 20
-2.438999891281128
 30
-12.39999961853027
 70
   192
  0
VERTEX
  5
5B
  8
0
 10
-12.5
 20
0.0
 30
-12.39999961853027
 70
   192
  0
VERTEX
  5
5C
  8
0
 10
-4.783999919891357
 20
-11.54800033569336
 30
-12.39999961853027
 70
   192
  0
VERTEX
  5
5D
  8
0
 62
     9
 10
0.0
 20
0.0
 30
0.0
 70
   128
 71
     3
 72
     2
 73
     1
  0
VERTEX
  5
5E
  8
0
 62
     9
 10
0.0
 20
0.0
 30
0.0
 70
   128
 71
     5
 72
     4
 73
     1
  0
VERTEX
  5
5F
  8
0
 62
     9
 10
0.0
 20
0.0
 30
0.0
 70
   128
 71
     1
 72
     2
 73
     5
  0
VERTEX
  5
60
  8
0
 62
     9
 10
0.0
 20
0.0
 30
0.0
 70
   128
 71
     8
 72
     7
 73
     6
  0
VERTEX
  5
61
  8
0
 62
     9
 10
0.0
 20
0.0
 30
0.0
 70
   128
 71
    10
 72
     9
 73
     6
  0
VERTEX
  5
62
  8
0
 62
     9
 10
0.0
 20
0.0
 30
0.0
 70
   128
 71
     4
 72
    11
 73
     1
  0
VERTEX
  5
63
  8
0
 62
     9
 10
0.0
 20
0.0
 30
0.0
 70
   128
 71
    13
 72
    12
 73
     1
  0
VERTEX
  5
64
  8
0
 62
     9
 10
0.0
 20
0.0
 30
0.0
 70
   128
 71
    15
 72
    14
 73
     6
  0
VERTEX
  5
65
  8
0
 62
     9
 10
0.0
 20
0.0
 30
0.0
 70
   128
 71
     7
 72
    16
 73
     6
  0
VERTEX
  5
66
  8
0
 62
     9
 10
0.0
 20
0.0
 30
0.0
 70
   128
 71
     9
 72
    17
 73
     6
  0
VERTEX
  5
67
  8
0
 62
     9
 10
0.0
 20
0.0
 30
0.0
 70
   128
 71
    20
 72
    19
 73
    18
  0
VERTEX
  5
68
  8
0
 62
     9
 10
0.0
 20
0.0
 30
0.0
 70
   128
 71
    22
 72
    21
 73
    18
  0
VERTEX
  5
69
  8
0
 62
     9
 10
0.0
 20
0.0
 30
0.0
 70
   128
 71
    25
 72
    24
 73
    23
  0
VERTEX
  5
6A
  8
0
 62
     9
 10
0.0
 20
0.0
 30
0.0
 70
   128
 71
    26
 72
     1
 73
    23
  0
VERTEX
  5
6B
  8
0
 62
     9
 10
0.0
 20
0.0
 30
0.0
 70
   128
 71
    11
 72
    27
 73
     1
  0
VERTEX
  5
6C
  8
0
 62
     9
 10
0.0
 20
0.0
 30
0.0
 70
   128
 71
    12
 72
    23
 73
     1
  0
VERTEX
  5
6D
  8
0
 62
     9
 10
0.0
 20
0.0
 30
0.0
 70
   128
 71
    14
 72
    28
 73
     6
  0
VERTEX
  5
6E
  8
0
 62
     9
 10
0.0
 20
0.0
 30
0.0
 70
   128
 71
     6
 72
    16
 73
    10
  0
VERTEX
  5
6F
  8
0
 62
     9
 10
0.0
 20
0.0
 30
0.0
 70
   128
 71
    18
 72
    19
 73
    22
  0
VERTEX
  5
70
  8
0
 62
     9
 10
0.0
 20
0.0
 30
0.0
 70
   128
 71
    23
 72
    24
 73
    26
  0
VERTEX
  5
71
  8
0
 62
     9
 10
0.0
 20
0.0
 30
0.0
 70
   128
 71
     1
 72
    27
 73
    13
  0
VERTEX
  5
72
  8
0
 62
     9
 10
0.0
 20
0.0
 30
0.0
 70
   128
 71
     6
 72
    28
 73
     8
  0
VERTEX
  5
73
  8
0
 62
     9
 10
0.0
 20
0.0
 30
0.0
 70
   128
 71
    21
 72
    29
 73
    18
  0
VERTEX
  5
74
  8
0
 62
     9
 10
0.0
 20
0.0
 30
0.0
 70
   128
 71
    31
 72
    30
 73
    23
  0
VERTEX
  5
75
  8
0
 62
     9
 10
0.0
 20
0.0
 30
0.0
 70
   128
 71
     1
 72
    32
 73
     3
  0
VERTEX
  5
76
  8
0
 62
     9
 10
0.0
 20
0.0
 30
0.0
 70
   128
 71
    18
 72
     6
 73
    20
  0
VERTEX
  5
77
  8
0
 62
     9
 10
0.0
 20
0.0
 30
0.0
 70
   128
 71
    23
 72
    30
 73
    25
  0
VERTEX
  5
78
  8
0
 62
     9
 10
0.0
 20
0.0
 30
0.0
 70
   128
 71
     6
 72
    18
 73
    15
  0
VERTEX
  5
79
  8
0
 62
     9
 10
0.0
 20
0.0
 30
0.0
 70
   128
 71
    29
 72
    23
 73
    18
  0
VERTEX
  5
7A
  8
0
 62
     9
 10
0.0
 20
0.0
 30
0.0
 70
   128
 71
    23
 72
    29
 73
    31
  0
SEQEND
  5
7B
  8
0
 62
     9
  0
ENDBLK
  5
7F
  8
0
  0
BLOCK
  8
0
  2
E3_NODE_1_
 70
     0
 10
0.0
 20
0.0
 30
0.0
  3
E3_NODE_1_
  1

  0
POLYLINE
  5
81
  8
0
 62
     9
 66
     1
 10
0.0
 20
0.0
 30
0.0
 70
    64
 71
   117
 72
   149
  0
VERTEX
  5
82
  8
0
 10
57.44300079345703
 20
0.0
 30
-11.76200008392334
 70
   192
  0
VERTEX
  5
83
  8
0
 10
12.5
 20
0.0
 30
-12.39999961853027
 70
   192
  0
VERTEX
  5
84
  8
0
 10
12.26000022888184
 20
2.438999891281128
 30
-12.39999961853027
 70
   192
  0
VERTEX
  5
85
  8
0
 10
53.06999969482422
 20
21.98299980163574
 30
-11.76200008392334
 70
   192
  0
VERTEX
  5
86
  8
0
 10
56.3390007019043
 20
11.20699977874756
 30
-11.76200008392334
 70
   192
  0
VERTEX
  5
87
  8
0
 10
47.76200103759766
 20
31.91399955749512
 30
-11.76200008392334
 70
   192
  0
VERTEX
  5
88
  8
0
 10
11.54800033569336
 20
4.783999919891357
 30
-12.39999961853027
 70
   192
  0
VERTEX
  5
89
  8
0
 10
40.61800003051758
 20
40.61800003051758
 30
-11.76200008392334
 70
   192
  0
VERTEX
  5
8A
  8
0
 10
10.39299964904785
 20
6.945000171661377
 30
-12.39999961853027
 70
   192
  0
VERTEX
  5
8B
  8
0
 10
31.91399955749512
 20
47.76200103759766
 30
-11.76200008392334
 70
   192
  0
VERTEX
  5
8C
  8
0
 10
8.83899974822998
 20
8.83899974822998
 30
-12.39999961853027
 70
   192
  0
VERTEX
  5
8D
  8
0
 10
21.98299980163574
 20
53.06999969482422
 30
-11.76200008392334
 70
   192
  0
VERTEX
  5
8E
  8
0
 10
6.945000171661377
 20
10.39299964904785
 30
-12.39999961853027
 70
   192
  0
VERTEX
  5
8F
  8
0
 10
11.20699977874756
 20
56.3390007019043
 30
-11.76200008392334
 70
   192
  0
VERTEX
  5
90
  8
0
 10
4.783999919891357
 20
11.54800033569336
 30
-12.39999961853027
 70
   192
  0
VERTEX
  5
91
  8
0
 10
0.0
 20
57.44300079345703
 30
-11.76200008392334
 70
   192
  0
VERTEX
  5
92
  8
0
 10
2.438999891281128
 20
12.26000022888184
 30
-12.39999961853027
 70
   192
  0
VERTEX
  5
93
  8
0
 10
-11.20699977874756
 20
56.3390007019043
 30
-11.76200008392334
 70
   192
  0
VERTEX
  5
94
  8
0
 10
0.0
 20
12.5
 30
-12.39999961853027
 70
   192
  0
VERTEX
  5
95
  8
0
 10
-2.438999891281128
 20
12.26000022888184
 30
-12.39999961853027
 70
   192
  0
VERTEX
  5
96
  8
0
 10
-4.783999919891357
 20
11.54800033569336
 30
-12.39999961853027
 70
   192
  0
VERTEX
  5
97
  8
0
 10
-31.91399955749512
 20
47.76200103759766
 30
-11.76200008392334
 70
   192
  0
VERTEX
  5
98
  8
0
 10
-21.98299980163574
 20
53.06999969482422
 30
-11.76200008392334
 70
   192
  0
VERTEX
  5
99
  8
0
 10
-40.61800003051758
 20
40.61800003051758
 30
-11.76200008392334
 70
   192
  0
VERTEX
  5
9A
  8
0
 10
-6.945000171661377
 20
10.39299964904785
 30
-12.39999961853027
 70
   192
  0
VERTEX
  5
9B
  8
0
 10
-47.76200103759766
 20
31.91399955749512
 30
-11.76200008392334
 70
   192
  0
VERTEX
  5
9C
  8
0
 10
-8.83899974822998
 20
8.83899974822998
 30
-12.39999961853027
 70
   192
  0
VERTEX
  5
9D
  8
0
 10
-53.06999969482422
 20
21.98299980163574
 30
-11.76200008392334
 70
   192
  0
VERTEX
  5
9E
  8
0
 10
-10.39299964904785
 20
6.945000171661377
 30
-12.39999961853027
 70
   192
  0
VERTEX
  5
9F
  8
0
 10
-56.3390007019043
 20
11.20699977874756
 30
-11.76200008392334
 70
   192
  0
VERTEX
  5
A0
  8
0
 10
-11.54800033569336
 20
4.783999919891357
 30
-12.39999961853027
 70
   192
  0
VERTEX
  5
A1
  8
0
 10
-57.44300079345703
 20
0.0
 30
-11.76200008392334
 70
   192
  0
VERTEX
  5
A2
  8
0
 10
-12.26000022888184
 20
2.438999891281128
 30
-12.39999961853027
 70
   192
  0
VERTEX
  5
A3
  8
0
 10
-56.3390007019043
 20
-11.20699977874756
 30
-11.76200008392334
 70
   192
  0
VERTEX
  5
A4
  8
0
 10
-12.5
 20
0.0
 30
-12.39999961853027
 70
   192
  0
VERTEX
  5
A5
  8
0
 10
-53.06999969482422
 20
-21.98299980163574
 30
-11.76200008392334
 70
   192
  0
VERTEX
  5
A6
  8
0
 10
-12.26000022888184
 20
-2.438999891281128
 30
-12.39999961853027
 70
   192
  0
VERTEX
  5
A7
  8
0
 10
-47.76200103759766
 20
-31.91399955749512
 30
-11.76200008392334
 70
   192
  0
VERTEX
  5
A8
  8
0
 10
-11.54800033569336
 20
-4.783999919891357
 30
-12.39999961853027
 70
   192
  0
VERTEX
  5
A9
  8
0
 10
-10.39299964904785
 20
-6.945000171661377
 30
-12.39999961853027
 70
   192
  0
VERTEX
  5
AA
  8
0
 10
-8.83899974822998
 20
-8.83899974822998
 30
-12.39999961853027
 70
   192
  0
VERTEX
  5
AB
  8
0
 10
-31.91399955749512
 20
-47.76200103759766
 30
-11.76200008392334
 70
   192
  0
VERTEX
  5
AC
  8
0
 10
-40.61800003051758
 20
-40.61800003051758
 30
-11.76200008392334
 70
   192
  0
VERTEX
  5
AD
  8
0
 10
-6.945000171661377
 20
-10.39299964904785
 30
-12.39999961853027
 70
   192
  0
VERTEX
  5
AE
  8
0
 10
-4.783999919891357
 20
-11.54800033569336
 30
-12.39999961853027
 70
   192
  0
VERTEX
  5
AF
  8
0
 10
-11.20699977874756
 20
-56.3390007019043
 30
-11.76200008392334
 70
   192
  0
VERTEX
  5
B0
  8
0
 10
-21.98299980163574
 20
-53.06999969482422
 30
-11.76200008392334
 70
   192
  0
VERTEX
  5
B1
  8
0
 10
-2.438999891281128
 20
-12.26000022888184
 30
-12.39999961853027
 70
   192
  0
VERTEX
  5
B2
  8
0
 10
0.0
 20
-12.5
 30
-12.39999961853027
 70
   192
  0
VERTEX
  5
B3
  8
0
 10
11.20699977874756
 20
-56.3390007019043
 30
-11.76200008392334
 70
   192
  0
VERTEX
  5
B4
  8
0
 10
0.0
 20
-57.44300079345703
 30
-11.76200008392334
 70
   192
  0
VERTEX
  5
B5
  8
0
 10
2.438999891281128
 20
-12.26000022888184
 30
-12.39999961853027
 70
   192
  0
VERTEX
  5
B6
  8
0
 10
4.783999919891357
 20
-11.54800033569336
 30
-12.39999961853027
 70
   192
  0
VERTEX
  5
B7
  8
0
 10
31.91399955749512
 20
-47.76200103759766
 30
-11.76200008392334
 70
   192
  0
VERTEX
  5
B8
  8
0
 10
21.98299980163574
 20
-53.06999969482422
 30
-11.76200008392334
 70
   192
  0
VERTEX
  5
B9
  8
0
 10
40.61800003051758
 20
-40.61800003051758
 30
-11.76200008392334
 70
   192
  0
VERTEX
  5
BA
  8
0
 10
6.945000171661377
 20
-10.39299964904785
 30
-12.39999961853027
 70
   192
  0
VERTEX
  5
BB
  8
0
 10
47.76200103759766
 20
-31.91399955749512
 30
-11.76200008392334
 70
   192
  0
VERTEX
  5
BC
  8
0
 10
8.83899974822998
 20
-8.83899974822998
 30
-12.39999961853027
 70
   192
  0
VERTEX
  5
BD
  8
0
 10
53.06999969482422
 20
-21.98299980163574
 30
-11.76200008392334
 70
   192
  0
VERTEX
  5
BE
  8
0
 10
10.39299964904785
 20
-6.945000171661377
 30
-12.39999961853027
 70
   192
  0
VERTEX
  5
BF
  8
0
 10
56.3390007019043
 20
-11.20699977874756
 30
-11.76200008392334
 70
   192
  0
VERTEX
  5
C0
  8
0
 10
11.54800033569336
 20
-4.783999919891357
 30
-12.39999961853027
 70
   192
  0
VERTEX
  5
C1
  8
0
 10
12.26000022888184
 20
-2.438999891281128
 30
-12.39999961853027
 70
   192
  0
VERTEX
  5
C2
  8
0
 10
101.8570022583008
 20
10.0319995880127
 30
-9.850000381469727
 70
   192
  0
VERTEX
  5
C3
  8
0
 10
102.3499984741211
 20
0.0
 30
-9.850000381469727
 70
   192
  0
VERTEX
  5
C4
  8
0
 10
100.3830032348633
 20
19.96699905395508
 30
-9.850000381469727
 70
   192
  0
VERTEX
  5
C5
  8
0
 10
97.94300079345703
 20
29.71100044250488
 30
-9.850000381469727
 70
   192
  0
VERTEX
  5
C6
  8
0
 10
94.55899810791016
 20
39.16799926757812
 30
-9.850000381469727
 70
   192
  0
VERTEX
  5
C7
  8
0
 10
72.37200164794922
 20
72.37200164794922
 30
-9.850000381469727
 70
   192
  0
VERTEX
  5
C8
  8
0
 10
85.10099792480469
 20
56.86299896240234
 30
-9.850000381469727
 70
   192
  0
VERTEX
  5
C9
  8
0
 10
64.93000030517578
 20
79.11799621582031
 30
-9.850000381469727
 70
   192
  0
VERTEX
  5
CA
  8
0
 10
56.86299896240234
 20
85.10099792480469
 30
-9.850000381469727
 70
   192
  0
VERTEX
  5
CB
  8
0
 10
48.24700164794922
 20
90.26499938964844
 30
-9.850000381469727
 70
   192
  0
VERTEX
  5
CC
  8
0
 10
39.16799926757812
 20
94.55899810791016
 30
-9.850000381469727
 70
   192
  0
VERTEX
  5
CD
  8
0
 10
19.96699905395508
 20
100.3830032348633
 30
-9.850000381469727
 70
   192
  0
VERTEX
  5
CE
  8
0
 10
10.0319995880127
 20
101.8570022583008
 30
-9.850000381469727
 70
   192
  0
VERTEX
  5
CF
  8
0
 10
0.0
 20
102.3499984741211
 30
-9.850000381469727
 70
   192
  0
VERTEX
  5
D0
  8
0
 10
-10.0319995880127
 20
101.8570022583008
 30
-9.850000381469727
 70
   192
  0
VERTEX
  5
D1
  8
0
 10
-19.96699905395508
 20
100.3830032348633
 30
-9.850000381469727
 70
   192
  0
VERTEX
  5
D2
  8
0
 10
-29.71100044250488
 20
97.94300079345703
 30
-9.850000381469727
 70
   192
  0
VERTEX
  5
D3
  8
0
 10
-39.16799926757812
 20
94.55899810791016
 30
-9.850000381469727
 70
   192
  0
VERTEX
  5
D4
  8
0
 10
-56.86299896240234
 20
85.10099792480469
 30
-9.850000381469727
 70
   192
  0
VERTEX
  5
D5
  8
0
 10
-64.93000030517578
 20
79.11799621582031
 30
-9.850000381469727
 70
   192
  0
VERTEX
  5
D6
  8
0
 10
-72.37200164794922
 20
72.37200164794922
 30
-9.850000381469727
 70
   192
  0
VERTEX
  5
D7
  8
0
 10
-79.11799621582031
 20
64.93000030517578
 30
-9.850000381469727
 70
   192
  0
VERTEX
  5
D8
  8
0
 10
-85.10099792480469
 20
56.86299896240234
 30
-9.850000381469727
 70
   192
  0
VERTEX
  5
D9
  8
0
 10
-94.55899810791016
 20
39.16799926757812
 30
-9.850000381469727
 70
   192
  0
VERTEX
  5
DA
  8
0
 10
-97.94300079345703
 20
29.71100044250488
 30
-9.850000381469727
 70
   192
  0
VERTEX
  5
DB
  8
0
 10
-100.3830032348633
 20
19.96699905395508
 30
-9.850000381469727
 70
   192
  0
VERTEX
  5
DC
  8
0
 10
-101.8570022583008
 20
10.0319995880127
 30
-9.850000381469727
 70
   192
  0
VERTEX
  5
DD
  8
0
 10
-102.3499984741211
 20
0.0
 30
-9.850000381469727
 70
   192
  0
VERTEX
  5
DE
  8
0
 10
-101.8570022583008
 20
-10.0319995880127
 30
-9.850000381469727
 70
   192
  0
VERTEX
  5
DF
  8
0
 10
-100.3830032348633
 20
-19.96699905395508
 30
-9.850000381469727
 70
   192
  0
VERTEX
  5
E0
  8
0
 10
-94.55899810791016
 20
-39.16799926757812
 30
-9.850000381469727
 70
   192
  0
VERTEX
  5
E1
  8
0
 10
-90.26499938964844
 20
-48.24700164794922
 30
-9.850000381469727
 70
   192
  0
VERTEX
  5
E2
  8
0
 10
-85.10099792480469
 20
-56.86299896240234
 30
-9.850000381469727
 70
   192
  0
VERTEX
  5
E3
  8
0
 10
-79.11799621582031
 20
-64.93000030517578
 30
-9.850000381469727
 70
   192
  0
VERTEX
  5
E4
  8
0
 10
-72.37200164794922
 20
-72.37200164794922
 30
-9.850000381469727
 70
   192
  0
VERTEX
  5
E5
  8
0
 10
-56.86299896240234
 20
-85.10099792480469
 30
-9.850000381469727
 70
   192
  0
VERTEX
  5
E6
  8
0
 10
-48.24700164794922
 20
-90.26499938964844
 30
-9.850000381469727
 70
   192
  0
VERTEX
  5
E7
  8
0
 10
-39.16799926757812
 20
-94.55899810791016
 30
-9.850000381469727
 70
   192
  0
VERTEX
  5
E8
  8
0
 10
-29.71100044250488
 20
-97.94300079345703
 30
-9.850000381469727
 70
   192
  0
VERTEX
  5
E9
  8
0
 10
-19.96699905395508
 20
-100.3830032348633
 30
-9.850000381469727
 70
   192
  0
VERTEX
  5
EA
  8
0
 10
-10.0319995880127
 20
-101.8570022583008
 30
-9.850000381469727
 70
   192
  0
VERTEX
  5
EB
  8
0
 10
0.0
 20
-102.3499984741211
 30
-9.850000381469727
 70
   192
  0
VERTEX
  5
EC
  8
0
 10
19.96699905395508
 20
-100.3830032348633
 30
-9.850000381469727
 70
   192
  0
VERTEX
  5
ED
  8
0
 10
29.71100044250488
 20
-97.94300079345703
 30
-9.850000381469727
 70
   192
  0
VERTEX
  5
EE
  8
0
 10
39.16799926757812
 20
-94.55899810791016
 30
-9.850000381469727
 70
   192
  0
VERTEX
  5
EF
  8
0
 10
48.24700164794922
 20
-90.26499938964844
 30
-9.850000381469727
 70
   192
  0
VERTEX
  5
F0
  8
0
 10
56.86299896240234
 20
-85.10099792480469
 30
-9.850000381469727
 70
   192
  0
VERTEX
  5
F1
  8
0
 10
72.37200164794922
 20
-72.37200164794922
 30
-9.850000381469727
 70
   192
  0
VERTEX
  5
F2
  8
0
 10
85.10099792480469
 20
-56.86299896240234
 30
-9.850000381469727
 70
   192
  0
VERTEX
  5
F3
  8
0
 10
90.26499938964844
 20
-48.24700164794922
 30
-9.850000381469727
 70
   192
  0
VERTEX
  5
F4
  8
0
 10
94.55899810791016
 20
-39.16799926757812
 30
-9.850000381469727
 70
   192
  0
VERTEX
  5
F5
  8
0
 10
97.94300079345703
 20
-29.71100044250488
 30
-9.850000381469727
 70
   192
  0
VERTEX
  5
F6
  8
0
 10
100.3830032348633
 20
-19.96699905395508
 30
-9.850000381469727
 70
   192
  0
VERTEX
  5
F7
  8
0
 62
     9
 10
0.0
 20
0.0
 30
0.0
 70
   128
 71
     3
 72
     2
 73
     1
  0
VERTEX
  5
F8
  8
0
 62
     9
 10
0.0
 20
0.0
 30
0.0
 70
   128
 71
     3
 72
     5
 73
     4
  0
VERTEX
  5
F9
  8
0
 62
     9
 10
0.0
 20
0.0
 30
0.0
 70
   128
 71
     7
 72
     4
 73
     6
  0
VERTEX
  5
FA
  8
0
 62
     9
 10
0.0
 20
0.0
 30
0.0
 70
   128
 71
     9
 72
     6
 73
     8
  0
VERTEX
  5
FB
  8
0
 62
     9
 10
0.0
 20
0.0
 30
0.0
 70
   128
 71
    11
 72
     8
 73
    10
  0
VERTEX
  5
FC
  8
0
 62
     9
 10
0.0
 20
0.0
 30
0.0
 70
   128
 71
    13
 72
    10
 73
    12
  0
VERTEX
  5
FD
  8
0
 62
     9
 10
0.0
 20
0.0
 30
0.0
 70
   128
 71
    15
 72
    12
 73
    14
  0
VERTEX
  5
FE
  8
0
 62
     9
 10
0.0
 20
0.0
 30
0.0
 70
   128
 71
    17
 72
    14
 73
    16
  0
VERTEX
  5
FF
  8
0
 62
     9
 10
0.0
 20
0.0
 30
0.0
 70
   128
 71
    19
 72
    16
 73
    18
  0
VERTEX
  5
100
  8
0
 62
     9
 10
0.0
 20
0.0
 30
0.0
 70
   128
 71
    21
 72
    20
 73
    18
  0
VERTEX
  5
101
  8
0
 62
     9
 10
0.0
 20
0.0
 30
0.0
 70
   128
 71
    21
 72
    23
 73
    22
  0
VERTEX
  5
102
  8
0
 62
     9
 10
0.0
 20
0.0
 30
0.0
 70
   128
 71
    25
 72
    22
 73
    24
  0
VERTEX
  5
103
  8
0
 62
     9
 10
0.0
 20
0.0
 30
0.0
 70
   128
 71
    27
 72
    24
 73
    26
  0
VERTEX
  5
104
  8
0
 62
     9
 10
0.0
 20
0.0
 30
0.0
 70
   128
 71
    29
 72
    26
 73
    28
  0
VERTEX
  5
105
  8
0
 62
     9
 10
0.0
 20
0.0
 30
0.0
 70
   128
 71
    31
 72
    28
 73
    30
  0
VERTEX
  5
106
  8
0
 62
     9
 10
0.0
 20
0.0
 30
0.0
 70
   128
 71
    33
 72
    30
 73
    32
  0
VERTEX
  5
107
  8
0
 62
     9
 10
0.0
 20
0.0
 30
0.0
 70
   128
 71
    35
 72
    32
 73
    34
  0
VERTEX
  5
108
  8
0
 62
     9
 10
0.0
 20
0.0
 30
0.0
 70
   128
 71
    37
 72
    34
 73
    36
  0
VERTEX
  5
109
  8
0
 62
     9
 10
0.0
 20
0.0
 30
0.0
 70
   128
 71
    39
 72
    36
 73
    38
  0
VERTEX
  5
10A
  8
0
 62
     9
 10
0.0
 20
0.0
 30
0.0
 70
   128
 71
    41
 72
    40
 73
    38
  0
VERTEX
  5
10B
  8
0
 62
     9
 10
0.0
 20
0.0
 30
0.0
 70
   128
 71
    41
 72
    43
 73
    42
  0
VERTEX
  5
10C
  8
0
 62
     9
 10
0.0
 20
0.0
 30
0.0
 70
   128
 71
    45
 72
    44
 73
    42
  0
VERTEX
  5
10D
  8
0
 62
     9
 10
0.0
 20
0.0
 30
0.0
 70
   128
 71
    45
 72
    47
 73
    46
  0
VERTEX
  5
10E
  8
0
 62
     9
 10
0.0
 20
0.0
 30
0.0
 70
   128
 71
    49
 72
    48
 73
    46
  0
VERTEX
  5
10F
  8
0
 62
     9
 10
0.0
 20
0.0
 30
0.0
 70
   128
 71
    49
 72
    51
 73
    50
  0
VERTEX
  5
110
  8
0
 62
     9
 10
0.0
 20
0.0
 30
0.0
 70
   128
 71
    53
 72
    52
 73
    50
  0
VERTEX
  5
111
  8
0
 62
     9
 10
0.0
 20
0.0
 30
0.0
 70
   128
 71
    53
 72
    55
 73
    54
  0
VERTEX
  5
112
  8
0
 62
     9
 10
0.0
 20
0.0
 30
0.0
 70
   128
 71
    57
 72
    54
 73
    56
  0
VERTEX
  5
113
  8
0
 62
     9
 10
0.0
 20
0.0
 30
0.0
 70
   128
 71
    59
 72
    56
 73
    58
  0
VERTEX
  5
114
  8
0
 62
     9
 10
0.0
 20
0.0
 30
0.0
 70
   128
 71
    61
 72
    58
 73
    60
  0
VERTEX
  5
115
  8
0
 62
     9
 10
0.0
 20
0.0
 30
0.0
 70
   128
 71
    63
 72
    60
 73
    62
  0
VERTEX
  5
116
  8
0
 62
     9
 10
0.0
 20
0.0
 30
0.0
 70
   128
 71
     2
 72
    64
 73
    62
  0
VERTEX
  5
117
  8
0
 62
     9
 10
0.0
 20
0.0
 30
0.0
 70
   128
 71
     1
 72
    66
 73
    65
  0
VERTEX
  5
118
  8
0
 62
     9
 10
0.0
 20
0.0
 30
0.0
 70
   128
 71
    65
 72
    67
 73
     5
  0
VERTEX
  5
119
  8
0
 62
     9
 10
0.0
 20
0.0
 30
0.0
 70
   128
 71
     5
 72
    67
 73
    68
  0
VERTEX
  5
11A
  8
0
 62
     9
 10
0.0
 20
0.0
 30
0.0
 70
   128
 71
    68
 72
    69
 73
     4
  0
VERTEX
  5
11B
  8
0
 62
     9
 10
0.0
 20
0.0
 30
0.0
 70
   128
 71
     6
 72
     4
 73
    69
  0
VERTEX
  5
11C
  8
0
 62
     9
 10
0.0
 20
0.0
 30
0.0
 70
   128
 71
     6
 72
    71
 73
    70
  0
VERTEX
  5
11D
  8
0
 62
     9
 10
0.0
 20
0.0
 30
0.0
 70
   128
 71
    10
 72
     8
 73
    72
  0
VERTEX
  5
11E
  8
0
 62
     9
 10
0.0
 20
0.0
 30
0.0
 70
   128
 71
    72
 72
    73
 73
    10
  0
VERTEX
  5
11F
  8
0
 62
     9
 10
0.0
 20
0.0
 30
0.0
 70
   128
 71
    12
 72
    10
 73
    74
  0
VERTEX
  5
120
  8
0
 62
     9
 10
0.0
 20
0.0
 30
0.0
 70
   128
 71
    74
 72
    75
 73
    12
  0
VERTEX
  5
121
  8
0
 62
     9
 10
0.0
 20
0.0
 30
0.0
 70
   128
 71
    12
 72
    75
 73
    76
  0
VERTEX
  5
122
  8
0
 62
     9
 10
0.0
 20
0.0
 30
0.0
 70
   128
 71
    16
 72
    14
 73
    77
  0
VERTEX
  5
123
  8
0
 62
     9
 10
0.0
 20
0.0
 30
0.0
 70
   128
 71
    77
 72
    78
 73
    16
  0
VERTEX
  5
124
  8
0
 62
     9
 10
0.0
 20
0.0
 30
0.0
 70
   128
 71
    16
 72
    78
 73
    79
  0
VERTEX
  5
125
  8
0
 62
     9
 10
0.0
 20
0.0
 30
0.0
 70
   128
 71
    79
 72
    80
 73
    18
  0
VERTEX
  5
126
  8
0
 62
     9
 10
0.0
 20
0.0
 30
0.0
 70
   128
 71
    23
 72
    18
 73
    81
  0
VERTEX
  5
127
  8
0
 62
     9
 10
0.0
 20
0.0
 30
0.0
 70
   128
 71
    81
 72
    82
 73
    23
  0
VERTEX
  5
128
  8
0
 62
     9
 10
0.0
 20
0.0
 30
0.0
 70
   128
 71
    23
 72
    82
 73
    83
  0
VERTEX
  5
129
  8
0
 62
     9
 10
0.0
 20
0.0
 30
0.0
 70
   128
 71
    24
 72
    22
 73
    84
  0
VERTEX
  5
12A
  8
0
 62
     9
 10
0.0
 20
0.0
 30
0.0
 70
   128
 71
    84
 72
    85
 73
    24
  0
VERTEX
  5
12B
  8
0
 62
     9
 10
0.0
 20
0.0
 30
0.0
 70
   128
 71
    24
 72
    85
 73
    86
  0
VERTEX
  5
12C
  8
0
 62
     9
 10
0.0
 20
0.0
 30
0.0
 70
   128
 71
    86
 72
    87
 73
    26
  0
VERTEX
  5
12D
  8
0
 62
     9
 10
0.0
 20
0.0
 30
0.0
 70
   128
 71
    26
 72
    87
 73
    88
  0
VERTEX
  5
12E
  8
0
 62
     9
 10
0.0
 20
0.0
 30
0.0
 70
   128
 71
    28
 72
    88
 73
    89
  0
VERTEX
  5
12F
  8
0
 62
     9
 10
0.0
 20
0.0
 30
0.0
 70
   128
 71
    89
 72
    90
 73
    30
  0
VERTEX
  5
130
  8
0
 62
     9
 10
0.0
 20
0.0
 30
0.0
 70
   128
 71
    30
 72
    90
 73
    91
  0
VERTEX
  5
131
  8
0
 62
     9
 10
0.0
 20
0.0
 30
0.0
 70
   128
 71
    91
 72
    92
 73
    32
  0
VERTEX
  5
132
  8
0
 62
     9
 10
0.0
 20
0.0
 30
0.0
 70
   128
 71
    32
 72
    92
 73
    93
  0
VERTEX
  5
133
  8
0
 62
     9
 10
0.0
 20
0.0
 30
0.0
 70
   128
 71
    93
 72
    94
 73
    34
  0
VERTEX
  5
134
  8
0
 62
     9
 10
0.0
 20
0.0
 30
0.0
 70
   128
 71
    34
 72
    94
 73
    95
  0
VERTEX
  5
135
  8
0
 62
     9
 10
0.0
 20
0.0
 30
0.0
 70
   128
 71
    36
 72
    95
 73
    96
  0
VERTEX
  5
136
  8
0
 62
     9
 10
0.0
 20
0.0
 30
0.0
 70
   128
 71
    96
 72
    97
 73
    38
  0
VERTEX
  5
137
  8
0
 62
     9
 10
0.0
 20
0.0
 30
0.0
 70
   128
 71
    38
 72
    97
 73
    98
  0
VERTEX
  5
138
  8
0
 62
     9
 10
0.0
 20
0.0
 30
0.0
 70
   128
 71
    98
 72
    99
 73
    43
  0
VERTEX
  5
139
  8
0
 62
     9
 10
0.0
 20
0.0
 30
0.0
 70
   128
 71
    43
 72
    99
 73
   100
  0
VERTEX
  5
13A
  8
0
 62
     9
 10
0.0
 20
0.0
 30
0.0
 70
   128
 71
    42
 72
   100
 73
   101
  0
VERTEX
  5
13B
  8
0
 62
     9
 10
0.0
 20
0.0
 30
0.0
 70
   128
 71
   101
 72
   102
 73
    47
  0
VERTEX
  5
13C
  8
0
 62
     9
 10
0.0
 20
0.0
 30
0.0
 70
   128
 71
    47
 72
   102
 73
   103
  0
VERTEX
  5
13D
  8
0
 62
     9
 10
0.0
 20
0.0
 30
0.0
 70
   128
 71
   103
 72
   104
 73
    46
  0
VERTEX
  5
13E
  8
0
 62
     9
 10
0.0
 20
0.0
 30
0.0
 70
   128
 71
    46
 72
   104
 73
   105
  0
VERTEX
  5
13F
  8
0
 62
     9
 10
0.0
 20
0.0
 30
0.0
 70
   128
 71
   105
 72
   106
 73
    51
  0
VERTEX
  5
140
  8
0
 62
     9
 10
0.0
 20
0.0
 30
0.0
 70
   128
 71
    51
 72
   106
 73
   107
  0
VERTEX
  5
141
  8
0
 62
     9
 10
0.0
 20
0.0
 30
0.0
 70
   128
 71
    50
 72
   107
 73
   108
  0
VERTEX
  5
142
  8
0
 62
     9
 10
0.0
 20
0.0
 30
0.0
 70
   128
 71
   108
 72
   109
 73
    55
  0
VERTEX
  5
143
  8
0
 62
     9
 10
0.0
 20
0.0
 30
0.0
 70
   128
 71
    55
 72
   109
 73
   110
  0
VERTEX
  5
144
  8
0
 62
     9
 10
0.0
 20
0.0
 30
0.0
 70
   128
 71
   110
 72
   111
 73
    54
  0
VERTEX
  5
145
  8
0
 62
     9
 10
0.0
 20
0.0
 30
0.0
 70
   128
 71
    54
 72
   111
 73
   112
  0
VERTEX
  5
146
  8
0
 62
     9
 10
0.0
 20
0.0
 30
0.0
 70
   128
 71
    56
 72
   112
 73
   113
  0
VERTEX
  5
147
  8
0
 62
     9
 10
0.0
 20
0.0
 30
0.0
 70
   128
 71
    58
 72
   113
 73
   114
  0
VERTEX
  5
148
  8
0
 62
     9
 10
0.0
 20
0.0
 30
0.0
 70
   128
 71
   114
 72
   115
 73
    60
  0
VERTEX
  5
149
  8
0
 62
     9
 10
0.0
 20
0.0
 30
0.0
 70
   128
 71
    60
 72
   115
 73
   116
  0
VERTEX
  5
14A
  8
0
 62
     9
 10
0.0
 20
0.0
 30
0.0
 70
   128
 71
   116
 72
   117
 73
    62
  0
VERTEX
  5
14B
  8
0
 62
     9
 10
0.0
 20
0.0
 30
0.0
 70
   128
 71
     1
 72
    62
 73
   117
  0
VERTEX
  5
14C
  8
0
 62
     9
 10
0.0
 20
0.0
 30
0.0
 70
   128
 71
   117
 72
    66
 73
     1
  0
VERTEX
  5
14D
  8
0
 62
     9
 10
0.0
 20
0.0
 30
0.0
 70
   128
 71
   116
 72
    62
 73
    60
  0
VERTEX
  5
14E
  8
0
 62
     9
 10
0.0
 20
0.0
 30
0.0
 70
   128
 71
   114
 72
    60
 73
    58
  0
VERTEX
  5
14F
  8
0
 62
     9
 10
0.0
 20
0.0
 30
0.0
 70
   128
 71
   113
 72
    58
 73
    56
  0
VERTEX
  5
150
  8
0
 62
     9
 10
0.0
 20
0.0
 30
0.0
 70
   128
 71
   112
 72
    56
 73
    54
  0
VERTEX
  5
151
  8
0
 62
     9
 10
0.0
 20
0.0
 30
0.0
 70
   128
 71
   110
 72
    54
 73
    55
  0
VERTEX
  5
152
  8
0
 62
     9
 10
0.0
 20
0.0
 30
0.0
 70
   128
 71
   108
 72
    55
 73
    50
  0
VERTEX
  5
153
  8
0
 62
     9
 10
0.0
 20
0.0
 30
0.0
 70
   128
 71
   107
 72
    50
 73
    51
  0
VERTEX
  5
154
  8
0
 62
     9
 10
0.0
 20
0.0
 30
0.0
 70
   128
 71
   105
 72
    51
 73
    46
  0
VERTEX
  5
155
  8
0
 62
     9
 10
0.0
 20
0.0
 30
0.0
 70
   128
 71
   103
 72
    46
 73
    47
  0
VERTEX
  5
156
  8
0
 62
     9
 10
0.0
 20
0.0
 30
0.0
 70
   128
 71
   101
 72
    47
 73
    42
  0
VERTEX
  5
157
  8
0
 62
     9
 10
0.0
 20
0.0
 30
0.0
 70
   128
 71
   100
 72
    42
 73
    43
  0
VERTEX
  5
158
  8
0
 62
     9
 10
0.0
 20
0.0
 30
0.0
 70
   128
 71
    98
 72
    43
 73
    38
  0
VERTEX
  5
159
  8
0
 62
     9
 10
0.0
 20
0.0
 30
0.0
 70
   128
 71
    96
 72
    38
 73
    36
  0
VERTEX
  5
15A
  8
0
 62
     9
 10
0.0
 20
0.0
 30
0.0
 70
   128
 71
    95
 72
    36
 73
    34
  0
VERTEX
  5
15B
  8
0
 62
     9
 10
0.0
 20
0.0
 30
0.0
 70
   128
 71
    93
 72
    34
 73
    32
  0
VERTEX
  5
15C
  8
0
 62
     9
 10
0.0
 20
0.0
 30
0.0
 70
   128
 71
    91
 72
    32
 73
    30
  0
VERTEX
  5
15D
  8
0
 62
     9
 10
0.0
 20
0.0
 30
0.0
 70
   128
 71
    89
 72
    30
 73
    28
  0
VERTEX
  5
15E
  8
0
 62
     9
 10
0.0
 20
0.0
 30
0.0
 70
   128
 71
    88
 72
    28
 73
    26
  0
VERTEX
  5
15F
  8
0
 62
     9
 10
0.0
 20
0.0
 30
0.0
 70
   128
 71
    86
 72
    26
 73
    24
  0
VERTEX
  5
160
  8
0
 62
     9
 10
0.0
 20
0.0
 30
0.0
 70
   128
 71
    22
 72
    83
 73
    84
  0
VERTEX
  5
161
  8
0
 62
     9
 10
0.0
 20
0.0
 30
0.0
 70
   128
 71
    83
 72
    22
 73
    23
  0
VERTEX
  5
162
  8
0
 62
     9
 10
0.0
 20
0.0
 30
0.0
 70
   128
 71
    18
 72
    80
 73
    81
  0
VERTEX
  5
163
  8
0
 62
     9
 10
0.0
 20
0.0
 30
0.0
 70
   128
 71
    79
 72
    18
 73
    16
  0
VERTEX
  5
164
  8
0
 62
     9
 10
0.0
 20
0.0
 30
0.0
 70
   128
 71
    14
 72
    76
 73
    77
  0
VERTEX
  5
165
  8
0
 62
     9
 10
0.0
 20
0.0
 30
0.0
 70
   128
 71
    76
 72
    14
 73
    12
  0
VERTEX
  5
166
  8
0
 62
     9
 10
0.0
 20
0.0
 30
0.0
 70
   128
 71
    10
 72
    73
 73
    74
  0
VERTEX
  5
167
  8
0
 62
     9
 10
0.0
 20
0.0
 30
0.0
 70
   128
 71
     8
 72
    70
 73
    72
  0
VERTEX
  5
168
  8
0
 62
     9
 10
0.0
 20
0.0
 30
0.0
 70
   128
 71
    70
 72
     8
 73
     6
  0
VERTEX
  5
169
  8
0
 62
     9
 10
0.0
 20
0.0
 30
0.0
 70
   128
 71
    69
 72
    71
 73
     6
  0
VERTEX
  5
16A
  8
0
 62
     9
 10
0.0
 20
0.0
 30
0.0
 70
   128
 71
    68
 72
     4
 73
     5
  0
VERTEX
  5
16B
  8
0
 62
     9
 10
0.0
 20
0.0
 30
0.0
 70
   128
 71
    65
 72
     5
 73
     1
  0
VERTEX
  5
16C
  8
0
 62
     9
 10
0.0
 20
0.0
 30
0.0
 70
   128
 71
    62
 72
     1
 73
     2
  0
VERTEX
  5
16D
  8
0
 62
     9
 10
0.0
 20
0.0
 30
0.0
 70
   128
 71
    62
 72
    64
 73
    63
  0
VERTEX
  5
16E
  8
0
 62
     9
 10
0.0
 20
0.0
 30
0.0
 70
   128
 71
    60
 72
    63
 73
    61
  0
VERTEX
  5
16F
  8
0
 62
     9
 10
0.0
 20
0.0
 30
0.0
 70
   128
 71
    58
 72
    61
 73
    59
  0
VERTEX
  5
170
  8
0
 62
     9
 10
0.0
 20
0.0
 30
0.0
 70
   128
 71
    56
 72
    59
 73
    57
  0
VERTEX
  5
171
  8
0
 62
     9
 10
0.0
 20
0.0
 30
0.0
 70
   128
 71
    54
 72
    57
 73
    53
  0
VERTEX
  5
172
  8
0
 62
     9
 10
0.0
 20
0.0
 30
0.0
 70
   128
 71
    50
 72
    55
 73
    53
  0
VERTEX
  5
173
  8
0
 62
     9
 10
0.0
 20
0.0
 30
0.0
 70
   128
 71
    50
 72
    52
 73
    49
  0
VERTEX
  5
174
  8
0
 62
     9
 10
0.0
 20
0.0
 30
0.0
 70
   128
 71
    46
 72
    51
 73
    49
  0
VERTEX
  5
175
  8
0
 62
     9
 10
0.0
 20
0.0
 30
0.0
 70
   128
 71
    46
 72
    48
 73
    45
  0
VERTEX
  5
176
  8
0
 62
     9
 10
0.0
 20
0.0
 30
0.0
 70
   128
 71
    42
 72
    47
 73
    45
  0
VERTEX
  5
177
  8
0
 62
     9
 10
0.0
 20
0.0
 30
0.0
 70
   128
 71
    42
 72
    44
 73
    41
  0
VERTEX
  5
178
  8
0
 62
     9
 10
0.0
 20
0.0
 30
0.0
 70
   128
 71
    38
 72
    43
 73
    41
  0
VERTEX
  5
179
  8
0
 62
     9
 10
0.0
 20
0.0
 30
0.0
 70
   128
 71
    38
 72
    40
 73
    39
  0
VERTEX
  5
17A
  8
0
 62
     9
 10
0.0
 20
0.0
 30
0.0
 70
   128
 71
    36
 72
    39
 73
    37
  0
VERTEX
  5
17B
  8
0
 62
     9
 10
0.0
 20
0.0
 30
0.0
 70
   128
 71
    34
 72
    37
 73
    35
  0
VERTEX
  5
17C
  8
0
 62
     9
 10
0.0
 20
0.0
 30
0.0
 70
   128
 71
    32
 72
    35
 73
    33
  0
VERTEX
  5
17D
  8
0
 62
     9
 10
0.0
 20
0.0
 30
0.0
 70
   128
 71
    30
 72
    33
 73
    31
  0
VERTEX
  5
17E
  8
0
 62
     9
 10
0.0
 20
0.0
 30
0.0
 70
   128
 71
    28
 72
    31
 73
    29
  0
VERTEX
  5
17F
  8
0
 62
     9
 10
0.0
 20
0.0
 30
0.0
 70
   128
 71
    26
 72
    29
 73
    27
  0
VERTEX
  5
180
  8
0
 62
     9
 10
0.0
 20
0.0
 30
0.0
 70
   128
 71
    24
 72
    27
 73
    25
  0
VERTEX
  5
181
  8
0
 62
     9
 10
0.0
 20
0.0
 30
0.0
 70
   128
 71
    22
 72
    25
 73
    21
  0
VERTEX
  5
182
  8
0
 62
     9
 10
0.0
 20
0.0
 30
0.0
 70
   128
 71
    18
 72
    23
 73
    21
  0
VERTEX
  5
183
  8
0
 62
     9
 10
0.0
 20
0.0
 30
0.0
 70
   128
 71
    18
 72
    20
 73
    19
  0
VERTEX
  5
184
  8
0
 62
     9
 10
0.0
 20
0.0
 30
0.0
 70
   128
 71
    16
 72
    19
 73
    17
  0
VERTEX
  5
185
  8
0
 62
     9
 10
0.0
 20
0.0
 30
0.0
 70
   128
 71
    14
 72
    17
 73
    15
  0
VERTEX
  5
186
  8
0
 62
     9
 10
0.0
 20
0.0
 30
0.0
 70
   128
 71
    12
 72
    15
 73
    13
  0
VERTEX
  5
187
  8
0
 62
     9
 10
0.0
 20
0.0
 30
0.0
 70
   128
 71
    10
 72
    13
 73
    11
  0
VERTEX
  5
188
  8
0
 62
     9
 10
0.0
 20
0.0
 30
0.0
 70
   128
 71
     8
 72
    11
 73
     9
  0
VERTEX
  5
189
  8
0
 62
     9
 10
0.0
 20
0.0
 30
0.0
 70
   128
 71
     6
 72
     9
 73
     7
  0
VERTEX
  5
18A
  8
0
 62
     9
 10
0.0
 20
0.0
 30
0.0
 70
   128
 71
     4
 72
     7
 73
     3
  0
VERTEX
  5
18B
  8
0
 62
     9
 10
0.0
 20
0.0
 30
0.0
 70
   128
 71
     1
 72
     5
 73
     3
  0
SEQEND
  5
18C
  8
0
 62
     9
  0
ENDBLK
  5
18F
  8
0
  0
BLOCK
  8
0
  2
E3_NODE_2_
 70
     0
 10
0.0
 20
0.0
 30
0.0
  3
E3_NODE_2_
  1

  0
POLYLINE
  5
191
  8
0
 62
     9
 66
     1
 10
0.0
 20
0.0
 30
0.0
 70
    64
 71
    97
 72
    97
  0
VERTEX
  5
192
  8
0
 10
-20.93000030517578
 20
100.7210006713867
 30
-9.850000381469727
 70
   192
  0
VERTEX
  5
193
  8
0
 10
-19.96699905395508
 20
100.3830032348633
 30
-9.850000381469727
 70
   192
  0
VERTEX
  5
194
  8
0
 10
-29.71100044250488
 20
97.94300079345703
 30
-9.850000381469727
 70
   192
  0
VERTEX
  5
195
  8
0
 10
-7.019999980926514
 20
102.6330032348633
 30
-9.850000381469727
 70
   192
  0
VERTEX
  5
196
  8
0
 10
-10.0319995880127
 20
101.8570022583008
 30
-9.850000381469727
 70
   192
  0
VERTEX
  5
197
  8
0
 10
7.019999980926514
 20
102.6330032348633
 30
-9.850000381469727
 70
   192
  0
VERTEX
  5
198
  8
0
 10
0.0
 20
102.3499984741211
 30
-9.850000381469727
 70
   192
  0
VERTEX
  5
199
  8
0
 10
10.0319995880127
 20
101.8570022583008
 30
-9.850000381469727
 70
   192
  0
VERTEX
  5
19A
  8
0
 10
20.93000030517578
 20
100.7210006713867
 30
-9.850000381469727
 70
   192
  0
VERTEX
  5
19B
  8
0
 10
19.96699905395508
 20
100.3830032348633
 30
-9.850000381469727
 70
   192
  0
VERTEX
  5
19C
  8
0
 10
-34.45000076293945
 20
96.93299865722656
 30
-9.850000381469727
 70
   192
  0
VERTEX
  5
19D
  8
0
 10
47.32799911499023
 20
91.33999633789062
 30
-9.850000381469727
 70
   192
  0
VERTEX
  5
19E
  8
0
 10
59.32500076293945
 20
84.04399871826172
 30
-9.850000381469727
 70
   192
  0
VERTEX
  5
19F
  8
0
 10
56.86299896240234
 20
85.10099792480469
 30
-9.850000381469727
 70
   192
  0
VERTEX
  5
1A0
  8
0
 10
70.21600341796875
 20
75.18299865722656
 30
-9.850000381469727
 70
   192
  0
VERTEX
  5
1A1
  8
0
 10
64.93000030517578
 20
79.11799621582031
 30
-9.850000381469727
 70
   192
  0
VERTEX
  5
1A2
  8
0
 10
-79.80000305175781
 20
64.9219970703125
 30
-9.850000381469727
 70
   192
  0
VERTEX
  5
1A3
  8
0
 10
-70.21600341796875
 20
75.18299865722656
 30
-9.850000381469727
 70
   192
  0
VERTEX
  5
1A4
  8
0
 10
-72.37200164794922
 20
72.37200164794922
 30
-9.850000381469727
 70
   192
  0
VERTEX
  5
1A5
  8
0
 10
-47.32799911499023
 20
91.33999633789062
 30
-9.850000381469727
 70
   192
  0
VERTEX
  5
1A6
  8
0
 10
-39.16799926757812
 20
94.55899810791016
 30
-9.850000381469727
 70
   192
  0
VERTEX
  5
1A7
  8
0
 10
-56.86299896240234
 20
85.10099792480469
 30
-9.850000381469727
 70
   192
  0
VERTEX
  5
1A8
  8
0
 10
34.45000076293945
 20
96.93299865722656
 30
-9.850000381469727
 70
   192
  0
VERTEX
  5
1A9
  8
0
 10
-79.11799621582031
 20
64.93000030517578
 30
-9.850000381469727
 70
   192
  0
VERTEX
  5
1AA
  8
0
 10
-85.10099792480469
 20
56.86299896240234
 30
-9.850000381469727
 70
   192
  0
VERTEX
  5
1AB
  8
0
 10
-64.93000030517578
 20
79.11799621582031
 30
-9.850000381469727
 70
   192
  0
VERTEX
  5
1AC
  8
0
 10
39.16799926757812
 20
94.55899810791016
 30
-9.850000381469727
 70
   192
  0
VERTEX
  5
1AD
  8
0
 10
48.24700164794922
 20
90.26499938964844
 30
-9.850000381469727
 70
   192
  0
VERTEX
  5
1AE
  8
0
 10
72.37200164794922
 20
72.37200164794922
 30
-9.850000381469727
 70
   192
  0
VERTEX
  5
1AF
  8
0
 10
94.35600280761719
 20
40.98500061035156
 30
-9.850000381469727
 70
   192
  0
VERTEX
  5
1B0
  8
0
 10
99.05799865722656
 20
27.7549991607666
 30
-9.850000381469727
 70
   192
  0
VERTEX
  5
1B1
  8
0
 10
97.94300079345703
 20
29.71100044250488
 30
-9.850000381469727
 70
   192
  0
VERTEX
  5
1B2
  8
0
 10
101.9150009155273
 20
14.00800037384033
 30
-9.850000381469727
 70
   192
  0
VERTEX
  5
1B3
  8
0
 10
100.3830032348633
 20
19.96699905395508
 30
-9.850000381469727
 70
   192
  0
VERTEX
  5
1B4
  8
0
 10
102.8730010986328
 20
0.0
 30
-9.850000381469727
 70
   192
  0
VERTEX
  5
1B5
  8
0
 10
102.3499984741211
 20
0.0
 30
-9.850000381469727
 70
   192
  0
VERTEX
  5
1B6
  8
0
 10
101.8570022583008
 20
10.0319995880127
 30
-9.850000381469727
 70
   192
  0
VERTEX
  5
1B7
  8
0
 10
-59.32500076293945
 20
84.04399871826172
 30
-9.850000381469727
 70
   192
  0
VERTEX
  5
1B8
  8
0
 10
99.05799865722656
 20
-27.7549991607666
 30
-9.850000381469727
 70
   192
  0
VERTEX
  5
1B9
  8
0
 10
97.94300079345703
 20
-29.71100044250488
 30
-9.850000381469727
 70
   192
  0
VERTEX
  5
1BA
  8
0
 10
100.3830032348633
 20
-19.96699905395508
 30
-9.850000381469727
 70
   192
  0
VERTEX
  5
1BB
  8
0
 10
94.35600280761719
 20
-40.98500061035156
 30
-9.850000381469727
 70
   192
  0
VERTEX
  5
1BC
  8
0
 10
94.55899810791016
 20
-39.16799926757812
 30
-9.850000381469727
 70
   192
  0
VERTEX
  5
1BD
  8
0
 10
-79.80000305175781
 20
-64.9219970703125
 30
-9.850000381469727
 70
   192
  0
VERTEX
  5
1BE
  8
0
 10
-79.11799621582031
 20
-64.93000030517578
 30
-9.850000381469727
 70
   192
  0
VERTEX
  5
1BF
  8
0
 10
-72.37200164794922
 20
-72.37200164794922
 30
-9.850000381469727
 70
   192
  0
VERTEX
  5
1C0
  8
0
 10
-87.89700317382812
 20
-53.45100021362305
 30
-9.850000381469727
 70
   192
  0
VERTEX
  5
1C1
  8
0
 10
-85.10099792480469
 20
-56.86299896240234
 30
-9.850000381469727
 70
   192
  0
VERTEX
  5
1C2
  8
0
 10
-94.35600280761719
 20
-40.98500061035156
 30
-9.850000381469727
 70
   192
  0
VERTEX
  5
1C3
  8
0
 10
-94.55899810791016
 20
-39.16799926757812
 30
-9.850000381469727
 70
   192
  0
VERTEX
  5
1C4
  8
0
 10
-90.26499938964844
 20
-48.24700164794922
 30
-9.850000381469727
 70
   192
  0
VERTEX
  5
1C5
  8
0
 10
-101.9150009155273
 20
-14.00800037384033
 30
-9.850000381469727
 70
   192
  0
VERTEX
  5
1C6
  8
0
 10
-101.8570022583008
 20
-10.0319995880127
 30
-9.850000381469727
 70
   192
  0
VERTEX
  5
1C7
  8
0
 10
-100.3830032348633
 20
-19.96699905395508
 30
-9.850000381469727
 70
   192
  0
VERTEX
  5
1C8
  8
0
 10
-102.8730010986328
 20
0.0
 30
-9.850000381469727
 70
   192
  0
VERTEX
  5
1C9
  8
0
 10
-102.3499984741211
 20
0.0
 30
-9.850000381469727
 70
   192
  0
VERTEX
  5
1CA
  8
0
 10
-101.9150009155273
 20
14.00800037384033
 30
-9.850000381469727
 70
   192
  0
VERTEX
  5
1CB
  8
0
 10
-101.8570022583008
 20
10.0319995880127
 30
-9.850000381469727
 70
   192
  0
VERTEX
  5
1CC
  8
0
 10
94.55899810791016
 20
39.16799926757812
 30
-9.850000381469727
 70
   192
  0
VERTEX
  5
1CD
  8
0
 10
85.10099792480469
 20
56.86299896240234
 30
-9.850000381469727
 70
   192
  0
VERTEX
  5
1CE
  8
0
 10
87.89700317382812
 20
53.45100021362305
 30
-9.850000381469727
 70
   192
  0
VERTEX
  5
1CF
  8
0
 10
87.89700317382812
 20
-53.45100021362305
 30
-9.850000381469727
 70
   192
  0
VERTEX
  5
1D0
  8
0
 10
90.26499938964844
 20
-48.24700164794922
 30
-9.850000381469727
 70
   192
  0
VERTEX
  5
1D1
  8
0
 10
47.32799911499023
 20
-91.33999633789062
 30
-9.850000381469727
 70
   192
  0
VERTEX
  5
1D2
  8
0
 10
48.24700164794922
 20
-90.26499938964844
 30
-9.850000381469727
 70
   192
  0
VERTEX
  5
1D3
  8
0
 10
56.86299896240234
 20
-85.10099792480469
 30
-9.850000381469727
 70
   192
  0
VERTEX
  5
1D4
  8
0
 10
34.45000076293945
 20
-96.93299865722656
 30
-9.850000381469727
 70
   192
  0
VERTEX
  5
1D5
  8
0
 10
39.16799926757812
 20
-94.55899810791016
 30
-9.850000381469727
 70
   192
  0
VERTEX
  5
1D6
  8
0
 10
20.93000030517578
 20
-100.7210006713867
 30
-9.850000381469727
 70
   192
  0
VERTEX
  5
1D7
  8
0
 10
19.96699905395508
 20
-100.3830032348633
 30
-9.850000381469727
 70
   192
  0
VERTEX
  5
1D8
  8
0
 10
29.71100044250488
 20
-97.94300079345703
 30
-9.850000381469727
 70
   192
  0
VERTEX
  5
1D9
  8
0
 10
-20.93000030517578
 20
-100.7210006713867
 30
-9.850000381469727
 70
   192
  0
VERTEX
  5
1DA
  8
0
 10
-34.45000076293945
 20
-96.93299865722656
 30
-9.850000381469727
 70
   192
  0
VERTEX
  5
1DB
  8
0
 10
-29.71100044250488
 20
-97.94300079345703
 30
-9.850000381469727
 70
   192
  0
VERTEX
  5
1DC
  8
0
 10
-47.32799911499023
 20
-91.33999633789062
 30
-9.850000381469727
 70
   192
  0
VERTEX
  5
1DD
  8
0
 10
-48.24700164794922
 20
-90.26499938964844
 30
-9.850000381469727
 70
   192
  0
VERTEX
  5
1DE
  8
0
 10
-39.16799926757812
 20
-94.55899810791016
 30
-9.850000381469727
 70
   192
  0
VERTEX
  5
1DF
  8
0
 10
-59.32500076293945
 20
-84.04399871826172
 30
-9.850000381469727
 70
   192
  0
VERTEX
  5
1E0
  8
0
 10
-56.86299896240234
 20
-85.10099792480469
 30
-9.850000381469727
 70
   192
  0
VERTEX
  5
1E1
  8
0
 10
-99.05799865722656
 20
-27.7549991607666
 30
-9.850000381469727
 70
   192
  0
VERTEX
  5
1E2
  8
0
 10
-100.3830032348633
 20
19.96699905395508
 30
-9.850000381469727
 70
   192
  0
VERTEX
  5
1E3
  8
0
 10
-99.05799865722656
 20
27.7549991607666
 30
-9.850000381469727
 70
   192
  0
VERTEX
  5
1E4
  8
0
 10
-97.94300079345703
 20
29.71100044250488
 30
-9.850000381469727
 70
   192
  0
VERTEX
  5
1E5
  8
0
 10
101.9150009155273
 20
-14.00800037384033
 30
-9.850000381469727
 70
   192
  0
VERTEX
  5
1E6
  8
0
 10
70.21600341796875
 20
-75.18299865722656
 30
-9.850000381469727
 70
   192
  0
VERTEX
  5
1E7
  8
0
 10
85.10099792480469
 20
-56.86299896240234
 30
-9.850000381469727
 70
   192
  0
VERTEX
  5
1E8
  8
0
 10
-7.019999980926514
 20
-102.6330032348633
 30
-9.850000381469727
 70
   192
  0
VERTEX
  5
1E9
  8
0
 10
-10.0319995880127
 20
-101.8570022583008
 30
-9.850000381469727
 70
   192
  0
VERTEX
  5
1EA
  8
0
 10
0.0
 20
-102.3499984741211
 30
-9.850000381469727
 70
   192
  0
VERTEX
  5
1EB
  8
0
 10
-19.96699905395508
 20
-100.3830032348633
 30
-9.850000381469727
 70
   192
  0
VERTEX
  5
1EC
  8
0
 10
-94.35600280761719
 20
40.98500061035156
 30
-9.850000381469727
 70
   192
  0
VERTEX
  5
1ED
  8
0
 10
-94.55899810791016
 20
39.16799926757812
 30
-9.850000381469727
 70
   192
  0
VERTEX
  5
1EE
  8
0
 10
-87.89700317382812
 20
53.45100021362305
 30
-9.850000381469727
 70
   192
  0
VERTEX
  5
1EF
  8
0
 10
72.37200164794922
 20
-72.37200164794922
 30
-9.850000381469727
 70
   192
  0
VERTEX
  5
1F0
  8
0
 10
-70.21600341796875
 20
-75.18299865722656
 30
-9.850000381469727
 70
   192
  0
VERTEX
  5
1F1
  8
0
 10
59.32500076293945
 20
-84.04399871826172
 30
-9.850000381469727
 70
   192
  0
VERTEX
  5
1F2
  8
0
 10
7.019999980926514
 20
-102.6330032348633
 30
-9.850000381469727
 70
   192
  0
VERTEX
  5
1F3
  8
0
 62
     9
 10
0.0
 20
0.0
 30
0.0
 70
   128
 71
     3
 72
     2
 73
     1
  0
VERTEX
  5
1F4
  8
0
 62
     9
 10
0.0
 20
0.0
 30
0.0
 70
   128
 71
     5
 72
     4
 73
     1
  0
VERTEX
  5
1F5
  8
0
 62
     9
 10
0.0
 20
0.0
 30
0.0
 70
   128
 71
     7
 72
     6
 73
     4
  0
VERTEX
  5
1F6
  8
0
 62
     9
 10
0.0
 20
0.0
 30
0.0
 70
   128
 71
     1
 72
     2
 73
     5
  0
VERTEX
  5
1F7
  8
0
 62
     9
 10
0.0
 20
0.0
 30
0.0
 70
   128
 71
     7
 72
     8
 73
     6
  0
VERTEX
  5
1F8
  8
0
 62
     9
 10
0.0
 20
0.0
 30
0.0
 70
   128
 71
     8
 72
    10
 73
     9
  0
VERTEX
  5
1F9
  8
0
 62
     9
 10
0.0
 20
0.0
 30
0.0
 70
   128
 71
     1
 72
    11
 73
     3
  0
VERTEX
  5
1FA
  8
0
 62
     9
 10
0.0
 20
0.0
 30
0.0
 70
   128
 71
     9
 72
     6
 73
     8
  0
VERTEX
  5
1FB
  8
0
 62
     9
 10
0.0
 20
0.0
 30
0.0
 70
   128
 71
    14
 72
    13
 73
    12
  0
VERTEX
  5
1FC
  8
0
 62
     9
 10
0.0
 20
0.0
 30
0.0
 70
   128
 71
    16
 72
    15
 73
    13
  0
VERTEX
  5
1FD
  8
0
 62
     9
 10
0.0
 20
0.0
 30
0.0
 70
   128
 71
    19
 72
    18
 73
    17
  0
VERTEX
  5
1FE
  8
0
 62
     9
 10
0.0
 20
0.0
 30
0.0
 70
   128
 71
    22
 72
    21
 73
    20
  0
VERTEX
  5
1FF
  8
0
 62
     9
 10
0.0
 20
0.0
 30
0.0
 70
   128
 71
     4
 72
     5
 73
     7
  0
VERTEX
  5
200
  8
0
 62
     9
 10
0.0
 20
0.0
 30
0.0
 70
   128
 71
    23
 72
     9
 73
    10
  0
VERTEX
  5
201
  8
0
 62
     9
 10
0.0
 20
0.0
 30
0.0
 70
   128
 71
    13
 72
    14
 73
    16
  0
VERTEX
  5
202
  8
0
 62
     9
 10
0.0
 20
0.0
 30
0.0
 70
   128
 71
    25
 72
    24
 73
    17
  0
VERTEX
  5
203
  8
0
 62
     9
 10
0.0
 20
0.0
 30
0.0
 70
   128
 71
    19
 72
    26
 73
    18
  0
VERTEX
  5
204
  8
0
 62
     9
 10
0.0
 20
0.0
 30
0.0
 70
   128
 71
    21
 72
    11
 73
    20
  0
VERTEX
  5
205
  8
0
 62
     9
 10
0.0
 20
0.0
 30
0.0
 70
   128
 71
    10
 72
    27
 73
    23
  0
VERTEX
  5
206
  8
0
 62
     9
 10
0.0
 20
0.0
 30
0.0
 70
   128
 71
    27
 72
    28
 73
    12
  0
VERTEX
  5
207
  8
0
 62
     9
 10
0.0
 20
0.0
 30
0.0
 70
   128
 71
    16
 72
    29
 73
    15
  0
VERTEX
  5
208
  8
0
 62
     9
 10
0.0
 20
0.0
 30
0.0
 70
   128
 71
    32
 72
    31
 73
    30
  0
VERTEX
  5
209
  8
0
 62
     9
 10
0.0
 20
0.0
 30
0.0
 70
   128
 71
    34
 72
    33
 73
    31
  0
VERTEX
  5
20A
  8
0
 62
     9
 10
0.0
 20
0.0
 30
0.0
 70
   128
 71
    37
 72
    36
 73
    35
  0
VERTEX
  5
20B
  8
0
 62
     9
 10
0.0
 20
0.0
 30
0.0
 70
   128
 71
    17
 72
    24
 73
    19
  0
VERTEX
  5
20C
  8
0
 62
     9
 10
0.0
 20
0.0
 30
0.0
 70
   128
 71
    26
 72
    22
 73
    38
  0
VERTEX
  5
20D
  8
0
 62
     9
 10
0.0
 20
0.0
 30
0.0
 70
   128
 71
    11
 72
    21
 73
     3
  0
VERTEX
  5
20E
  8
0
 62
     9
 10
0.0
 20
0.0
 30
0.0
 70
   128
 71
    12
 72
    28
 73
    14
  0
VERTEX
  5
20F
  8
0
 62
     9
 10
0.0
 20
0.0
 30
0.0
 70
   128
 71
    31
 72
    32
 73
    34
  0
VERTEX
  5
210
  8
0
 62
     9
 10
0.0
 20
0.0
 30
0.0
 70
   128
 71
    35
 72
    33
 73
    37
  0
VERTEX
  5
211
  8
0
 62
     9
 10
0.0
 20
0.0
 30
0.0
 70
   128
 71
    41
 72
    40
 73
    39
  0
VERTEX
  5
212
  8
0
 62
     9
 10
0.0
 20
0.0
 30
0.0
 70
   128
 71
    40
 72
    43
 73
    42
  0
VERTEX
  5
213
  8
0
 62
     9
 10
0.0
 20
0.0
 30
0.0
 70
   128
 71
    46
 72
    45
 73
    44
  0
VERTEX
  5
214
  8
0
 62
     9
 10
0.0
 20
0.0
 30
0.0
 70
   128
 71
    48
 72
    47
 73
    44
  0
VERTEX
  5
215
  8
0
 62
     9
 10
0.0
 20
0.0
 30
0.0
 70
   128
 71
    51
 72
    50
 73
    49
  0
VERTEX
  5
216
  8
0
 62
     9
 10
0.0
 20
0.0
 30
0.0
 70
   128
 71
    54
 72
    53
 73
    52
  0
VERTEX
  5
217
  8
0
 62
     9
 10
0.0
 20
0.0
 30
0.0
 70
   128
 71
    53
 72
    56
 73
    55
  0
VERTEX
  5
218
  8
0
 62
     9
 10
0.0
 20
0.0
 30
0.0
 70
   128
 71
    58
 72
    57
 73
    55
  0
VERTEX
  5
219
  8
0
 62
     9
 10
0.0
 20
0.0
 30
0.0
 70
   128
 71
    38
 72
    18
 73
    26
  0
VERTEX
  5
21A
  8
0
 62
     9
 10
0.0
 20
0.0
 30
0.0
 70
   128
 71
    12
 72
    23
 73
    27
  0
VERTEX
  5
21B
  8
0
 62
     9
 10
0.0
 20
0.0
 30
0.0
 70
   128
 71
    61
 72
    60
 73
    59
  0
VERTEX
  5
21C
  8
0
 62
     9
 10
0.0
 20
0.0
 30
0.0
 70
   128
 71
    33
 72
    34
 73
    37
  0
VERTEX
  5
21D
  8
0
 62
     9
 10
0.0
 20
0.0
 30
0.0
 70
   128
 71
    42
 72
    39
 73
    40
  0
VERTEX
  5
21E
  8
0
 62
     9
 10
0.0
 20
0.0
 30
0.0
 70
   128
 71
    63
 72
    62
 73
    42
  0
VERTEX
  5
21F
  8
0
 62
     9
 10
0.0
 20
0.0
 30
0.0
 70
   128
 71
    66
 72
    65
 73
    64
  0
VERTEX
  5
220
  8
0
 62
     9
 10
0.0
 20
0.0
 30
0.0
 70
   128
 71
    68
 72
    67
 73
    64
  0
VERTEX
  5
221
  8
0
 62
     9
 10
0.0
 20
0.0
 30
0.0
 70
   128
 71
    71
 72
    70
 73
    69
  0
VERTEX
  5
222
  8
0
 62
     9
 10
0.0
 20
0.0
 30
0.0
 70
   128
 71
    74
 72
    73
 73
    72
  0
VERTEX
  5
223
  8
0
 62
     9
 10
0.0
 20
0.0
 30
0.0
 70
   128
 71
    77
 72
    76
 73
    75
  0
VERTEX
  5
224
  8
0
 62
     9
 10
0.0
 20
0.0
 30
0.0
 70
   128
 71
    79
 72
    78
 73
    75
  0
VERTEX
  5
225
  8
0
 62
     9
 10
0.0
 20
0.0
 30
0.0
 70
   128
 71
    44
 72
    45
 73
    48
  0
VERTEX
  5
226
  8
0
 62
     9
 10
0.0
 20
0.0
 30
0.0
 70
   128
 71
    49
 72
    47
 73
    51
  0
VERTEX
  5
227
  8
0
 62
     9
 10
0.0
 20
0.0
 30
0.0
 70
   128
 71
    80
 72
    49
 73
    50
  0
VERTEX
  5
228
  8
0
 62
     9
 10
0.0
 20
0.0
 30
0.0
 70
   128
 71
    55
 72
    52
 73
    53
  0
VERTEX
  5
229
  8
0
 62
     9
 10
0.0
 20
0.0
 30
0.0
 70
   128
 71
    58
 72
    81
 73
    57
  0
VERTEX
  5
22A
  8
0
 62
     9
 10
0.0
 20
0.0
 30
0.0
 70
   128
 71
    81
 72
    83
 73
    82
  0
VERTEX
  5
22B
  8
0
 62
     9
 10
0.0
 20
0.0
 30
0.0
 70
   128
 71
    20
 72
    38
 73
    22
  0
VERTEX
  5
22C
  8
0
 62
     9
 10
0.0
 20
0.0
 30
0.0
 70
   128
 71
    15
 72
    29
 73
    60
  0
VERTEX
  5
22D
  8
0
 62
     9
 10
0.0
 20
0.0
 30
0.0
 70
   128
 71
    60
 72
    61
 73
    15
  0
VERTEX
  5
22E
  8
0
 62
     9
 10
0.0
 20
0.0
 30
0.0
 70
   128
 71
    30
 72
    59
 73
    32
  0
VERTEX
  5
22F
  8
0
 62
     9
 10
0.0
 20
0.0
 30
0.0
 70
   128
 71
    84
 72
    35
 73
    36
  0
VERTEX
  5
230
  8
0
 62
     9
 10
0.0
 20
0.0
 30
0.0
 70
   128
 71
    42
 72
    43
 73
    63
  0
VERTEX
  5
231
  8
0
 62
     9
 10
0.0
 20
0.0
 30
0.0
 70
   128
 71
    86
 72
    85
 73
    62
  0
VERTEX
  5
232
  8
0
 62
     9
 10
0.0
 20
0.0
 30
0.0
 70
   128
 71
    64
 72
    65
 73
    68
  0
VERTEX
  5
233
  8
0
 62
     9
 10
0.0
 20
0.0
 30
0.0
 70
   128
 71
    69
 72
    67
 73
    71
  0
VERTEX
  5
234
  8
0
 62
     9
 10
0.0
 20
0.0
 30
0.0
 70
   128
 71
    89
 72
    88
 73
    87
  0
VERTEX
  5
235
  8
0
 62
     9
 10
0.0
 20
0.0
 30
0.0
 70
   128
 71
    88
 72
    90
 73
    72
  0
VERTEX
  5
236
  8
0
 62
     9
 10
0.0
 20
0.0
 30
0.0
 70
   128
 71
    74
 72
    77
 73
    73
  0
VERTEX
  5
237
  8
0
 62
     9
 10
0.0
 20
0.0
 30
0.0
 70
   128
 71
    75
 72
    76
 73
    79
  0
VERTEX
  5
238
  8
0
 62
     9
 10
0.0
 20
0.0
 30
0.0
 70
   128
 71
    47
 72
    48
 73
    51
  0
VERTEX
  5
239
  8
0
 62
     9
 10
0.0
 20
0.0
 30
0.0
 70
   128
 71
    52
 72
    80
 73
    54
  0
VERTEX
  5
23A
  8
0
 62
     9
 10
0.0
 20
0.0
 30
0.0
 70
   128
 71
    82
 72
    57
 73
    81
  0
VERTEX
  5
23B
  8
0
 62
     9
 10
0.0
 20
0.0
 30
0.0
 70
   128
 71
    83
 72
    92
 73
    91
  0
VERTEX
  5
23C
  8
0
 62
     9
 10
0.0
 20
0.0
 30
0.0
 70
   128
 71
    93
 72
    91
 73
    92
  0
VERTEX
  5
23D
  8
0
 62
     9
 10
0.0
 20
0.0
 30
0.0
 70
   128
 71
    36
 72
    41
 73
    84
  0
VERTEX
  5
23E
  8
0
 62
     9
 10
0.0
 20
0.0
 30
0.0
 70
   128
 71
    62
 72
    63
 73
    86
  0
VERTEX
  5
23F
  8
0
 62
     9
 10
0.0
 20
0.0
 30
0.0
 70
   128
 71
    39
 72
    84
 73
    41
  0
VERTEX
  5
240
  8
0
 62
     9
 10
0.0
 20
0.0
 30
0.0
 70
   128
 71
    85
 72
    94
 73
    66
  0
VERTEX
  5
241
  8
0
 62
     9
 10
0.0
 20
0.0
 30
0.0
 70
   128
 71
    67
 72
    68
 73
    71
  0
VERTEX
  5
242
  8
0
 62
     9
 10
0.0
 20
0.0
 30
0.0
 70
   128
 71
    72
 72
    87
 73
    88
  0
VERTEX
  5
243
  8
0
 62
     9
 10
0.0
 20
0.0
 30
0.0
 70
   128
 71
    75
 72
    73
 73
    77
  0
VERTEX
  5
244
  8
0
 62
     9
 10
0.0
 20
0.0
 30
0.0
 70
   128
 71
    95
 72
    78
 73
    79
  0
VERTEX
  5
245
  8
0
 62
     9
 10
0.0
 20
0.0
 30
0.0
 70
   128
 71
    50
 72
    54
 73
    80
  0
VERTEX
  5
246
  8
0
 62
     9
 10
0.0
 20
0.0
 30
0.0
 70
   128
 71
    91
 72
    82
 73
    83
  0
VERTEX
  5
247
  8
0
 62
     9
 10
0.0
 20
0.0
 30
0.0
 70
   128
 71
    17
 72
    93
 73
    25
  0
VERTEX
  5
248
  8
0
 62
     9
 10
0.0
 20
0.0
 30
0.0
 70
   128
 71
    64
 72
    96
 73
    66
  0
VERTEX
  5
249
  8
0
 62
     9
 10
0.0
 20
0.0
 30
0.0
 70
   128
 71
    97
 72
    69
 73
    70
  0
VERTEX
  5
24A
  8
0
 62
     9
 10
0.0
 20
0.0
 30
0.0
 70
   128
 71
    72
 72
    90
 73
    74
  0
VERTEX
  5
24B
  8
0
 62
     9
 10
0.0
 20
0.0
 30
0.0
 70
   128
 71
    44
 72
    95
 73
    46
  0
VERTEX
  5
24C
  8
0
 62
     9
 10
0.0
 20
0.0
 30
0.0
 70
   128
 71
    92
 72
    25
 73
    93
  0
VERTEX
  5
24D
  8
0
 62
     9
 10
0.0
 20
0.0
 30
0.0
 70
   128
 71
    86
 72
    94
 73
    85
  0
VERTEX
  5
24E
  8
0
 62
     9
 10
0.0
 20
0.0
 30
0.0
 70
   128
 71
    59
 72
    30
 73
    61
  0
VERTEX
  5
24F
  8
0
 62
     9
 10
0.0
 20
0.0
 30
0.0
 70
   128
 71
    70
 72
    89
 73
    97
  0
VERTEX
  5
250
  8
0
 62
     9
 10
0.0
 20
0.0
 30
0.0
 70
   128
 71
    79
 72
    46
 73
    95
  0
VERTEX
  5
251
  8
0
 62
     9
 10
0.0
 20
0.0
 30
0.0
 70
   128
 71
    87
 72
    97
 73
    89
  0
VERTEX
  5
252
  8
0
 62
     9
 10
0.0
 20
0.0
 30
0.0
 70
   128
 71
    66
 72
    96
 73
    85
  0
VERTEX
  5
253
  8
0
 62
     9
 10
0.0
 20
0.0
 30
0.0
 70
   128
 71
    55
 72
    56
 73
    58
  0
SEQEND
  5
254
  8
0
 62
     9
  0
ENDBLK
  5
257
  8
0
  0
BLOCK
  8
0
  2
E3_NODE_3_
 70
     0
 10
0.0
 20
0.0
 30
0.0
  3
E3_NODE_3_
  1

  0
POLYLINE
  5
259
  8
0
 62
     9
 66
     1
 10
0.0
 20
0.0
 30
0.0
 70
    64
 71
    98
 72
    98
  0
VERTEX
  5
25A
  8
0
 10
99.05799865722656
 20
27.7549991607666
 30
-9.850000381469727
 70
   192
  0
VERTEX
  5
25B
  8
0
 10
98.60700225830078
 20
27.61800003051758
 30
-8.40999984741211
 70
   192
  0
VERTEX
  5
25C
  8
0
 10
100.8970031738281
 20
20.06999969482422
 30
-8.40999984741211
 70
   192
  0
VERTEX
  5
25D
  8
0
 10
102.8730010986328
 20
0.0
 30
-8.40999984741211
 70
   192
  0
VERTEX
  5
25E
  8
0
 10
102.8730010986328
 20
0.0
 30
-9.850000381469727
 70
   192
  0
VERTEX
  5
25F
  8
0
 10
101.9150009155273
 20
14.00800037384033
 30
-9.850000381469727
 70
   192
  0
VERTEX
  5
260
  8
0
 10
87.5999984741211
 20
53.29199981689453
 30
-8.40999984741211
 70
   192
  0
VERTEX
  5
261
  8
0
 10
95.04199981689453
 20
39.36800003051758
 30
-8.40999984741211
 70
   192
  0
VERTEX
  5
262
  8
0
 10
94.35600280761719
 20
40.98500061035156
 30
-9.850000381469727
 70
   192
  0
VERTEX
  5
263
  8
0
 10
70.21600341796875
 20
75.18299865722656
 30
-9.850000381469727
 70
   192
  0
VERTEX
  5
264
  8
0
 10
72.74199676513672
 20
72.74199676513672
 30
-8.40999984741211
 70
   192
  0
VERTEX
  5
265
  8
0
 10
85.53600311279297
 20
57.15299987792969
 30
-8.40999984741211
 70
   192
  0
VERTEX
  5
266
  8
0
 10
87.89700317382812
 20
53.45100021362305
 30
-9.850000381469727
 70
   192
  0
VERTEX
  5
267
  8
0
 10
70.03600311279297
 20
74.96299743652344
 30
-8.40999984741211
 70
   192
  0
VERTEX
  5
268
  8
0
 10
47.32799911499023
 20
91.33999633789062
 30
-9.850000381469727
 70
   192
  0
VERTEX
  5
269
  8
0
 10
47.0989990234375
 20
90.91000366210938
 30
-8.40999984741211
 70
   192
  0
VERTEX
  5
26A
  8
0
 10
57.15299987792969
 20
85.53600311279297
 30
-8.40999984741211
 70
   192
  0
VERTEX
  5
26B
  8
0
 10
59.32500076293945
 20
84.04399871826172
 30
-9.850000381469727
 70
   192
  0
VERTEX
  5
26C
  8
0
 10
20.9060001373291
 20
100.6429977416992
 30
-8.40999984741211
 70
   192
  0
VERTEX
  5
26D
  8
0
 10
39.36800003051758
 20
95.04199981689453
 30
-8.40999984741211
 70
   192
  0
VERTEX
  5
26E
  8
0
 10
34.45000076293945
 20
96.93299865722656
 30
-9.850000381469727
 70
   192
  0
VERTEX
  5
26F
  8
0
 10
-7.019999980926514
 20
102.6330032348633
 30
-9.850000381469727
 70
   192
  0
VERTEX
  5
270
  8
0
 10
-6.97599983215332
 20
102.1859970092773
 30
-8.40999984741211
 70
   192
  0
VERTEX
  5
271
  8
0
 10
0.0
 20
102.8730010986328
 30
-8.40999984741211
 70
   192
  0
VERTEX
  5
272
  8
0
 10
20.06999969482422
 20
100.8970031738281
 30
-8.40999984741211
 70
   192
  0
VERTEX
  5
273
  8
0
 10
20.93000030517578
 20
100.7210006713867
 30
-9.850000381469727
 70
   192
  0
VERTEX
  5
274
  8
0
 10
7.019999980926514
 20
102.6330032348633
 30
-9.850000381469727
 70
   192
  0
VERTEX
  5
275
  8
0
 10
-34.3390007019043
 20
96.56800079345703
 30
-8.40999984741211
 70
   192
  0
VERTEX
  5
276
  8
0
 10
-20.06999969482422
 20
100.8970031738281
 30
-8.40999984741211
 70
   192
  0
VERTEX
  5
277
  8
0
 10
-20.93000030517578
 20
100.7210006713867
 30
-9.850000381469727
 70
   192
  0
VERTEX
  5
278
  8
0
 10
-57.15299987792969
 20
85.53600311279297
 30
-8.40999984741211
 70
   192
  0
VERTEX
  5
279
  8
0
 10
-39.36800003051758
 20
95.04199981689453
 30
-8.40999984741211
 70
   192
  0
VERTEX
  5
27A
  8
0
 10
-47.32799911499023
 20
91.33999633789062
 30
-9.850000381469727
 70
   192
  0
VERTEX
  5
27B
  8
0
 10
-59.32500076293945
 20
84.04399871826172
 30
-9.850000381469727
 70
   192
  0
VERTEX
  5
27C
  8
0
 10
-59.18199920654297
 20
83.87100219726562
 30
-8.40999984741211
 70
   192
  0
VERTEX
  5
27D
  8
0
 10
-34.45000076293945
 20
96.93299865722656
 30
-9.850000381469727
 70
   192
  0
VERTEX
  5
27E
  8
0
 10
-79.80000305175781
 20
64.9219970703125
 30
-9.850000381469727
 70
   192
  0
VERTEX
  5
27F
  8
0
 10
-79.41799926757812
 20
64.60800170898438
 30
-8.40999984741211
 70
   192
  0
VERTEX
  5
280
  8
0
 10
-72.74199676513672
 20
72.74199676513672
 30
-8.40999984741211
 70
   192
  0
VERTEX
  5
281
  8
0
 10
-70.21600341796875
 20
75.18299865722656
 30
-9.850000381469727
 70
   192
  0
VERTEX
  5
282
  8
0
 10
-94.21800231933594
 20
40.9109992980957
 30
-8.40999984741211
 70
   192
  0
VERTEX
  5
283
  8
0
 10
-85.53600311279297
 20
57.15299987792969
 30
-8.40999984741211
 70
   192
  0
VERTEX
  5
284
  8
0
 10
-87.89700317382812
 20
53.45100021362305
 30
-9.850000381469727
 70
   192
  0
VERTEX
  5
285
  8
0
 10
-101.9150009155273
 20
14.00800037384033
 30
-9.850000381469727
 70
   192
  0
VERTEX
  5
286
  8
0
 10
-101.4980010986328
 20
13.96700000762939
 30
-8.40999984741211
 70
   192
  0
VERTEX
  5
287
  8
0
 10
-100.8970031738281
 20
20.06999969482422
 30
-8.40999984741211
 70
   192
  0
VERTEX
  5
288
  8
0
 10
-95.04199981689453
 20
39.36800003051758
 30
-8.40999984741211
 70
   192
  0
VERTEX
  5
289
  8
0
 10
-94.35600280761719
 20
40.98500061035156
 30
-9.850000381469727
 70
   192
  0
VERTEX
  5
28A
  8
0
 10
-99.05799865722656
 20
27.7549991607666
 30
-9.850000381469727
 70
   192
  0
VERTEX
  5
28B
  8
0
 10
-102.8730010986328
 20
0.0
 30
-9.850000381469727
 70
   192
  0
VERTEX
  5
28C
  8
0
 10
-101.9150009155273
 20
-14.00800037384033
 30
-9.850000381469727
 70
   192
  0
VERTEX
  5
28D
  8
0
 10
-101.4980010986328
 20
-13.96700000762939
 30
-8.40999984741211
 70
   192
  0
VERTEX
  5
28E
  8
0
 10
-102.8730010986328
 20
0.0
 30
-8.40999984741211
 70
   192
  0
VERTEX
  5
28F
  8
0
 10
-95.04199981689453
 20
-39.36800003051758
 30
-8.40999984741211
 70
   192
  0
VERTEX
  5
290
  8
0
 10
-100.8970031738281
 20
-20.06999969482422
 30
-8.40999984741211
 70
   192
  0
VERTEX
  5
291
  8
0
 10
-99.05799865722656
 20
-27.7549991607666
 30
-9.850000381469727
 70
   192
  0
VERTEX
  5
292
  8
0
 10
-94.35600280761719
 20
-40.98500061035156
 30
-9.850000381469727
 70
   192
  0
VERTEX
  5
293
  8
0
 10
-94.21800231933594
 20
-40.9109992980957
 30
-8.40999984741211
 70
   192
  0
VERTEX
  5
294
  8
0
 10
-79.80000305175781
 20
-64.9219970703125
 30
-9.850000381469727
 70
   192
  0
VERTEX
  5
295
  8
0
 10
-79.41799926757812
 20
-64.60800170898438
 30
-8.40999984741211
 70
   192
  0
VERTEX
  5
296
  8
0
 10
-85.53600311279297
 20
-57.15299987792969
 30
-8.40999984741211
 70
   192
  0
VERTEX
  5
297
  8
0
 10
-87.89700317382812
 20
-53.45100021362305
 30
-9.850000381469727
 70
   192
  0
VERTEX
  5
298
  8
0
 10
-59.18199920654297
 20
-83.87100219726562
 30
-8.40999984741211
 70
   192
  0
VERTEX
  5
299
  8
0
 10
-72.74199676513672
 20
-72.74199676513672
 30
-8.40999984741211
 70
   192
  0
VERTEX
  5
29A
  8
0
 10
-70.21600341796875
 20
-75.18299865722656
 30
-9.850000381469727
 70
   192
  0
VERTEX
  5
29B
  8
0
 10
-34.45000076293945
 20
-96.93299865722656
 30
-9.850000381469727
 70
   192
  0
VERTEX
  5
29C
  8
0
 10
-34.3390007019043
 20
-96.56800079345703
 30
-8.40999984741211
 70
   192
  0
VERTEX
  5
29D
  8
0
 10
-39.36800003051758
 20
-95.04199981689453
 30
-8.40999984741211
 70
   192
  0
VERTEX
  5
29E
  8
0
 10
-57.15299987792969
 20
-85.53600311279297
 30
-8.40999984741211
 70
   192
  0
VERTEX
  5
29F
  8
0
 10
-59.32500076293945
 20
-84.04399871826172
 30
-9.850000381469727
 70
   192
  0
VERTEX
  5
2A0
  8
0
 10
-47.32799911499023
 20
-91.33999633789062
 30
-9.850000381469727
 70
   192
  0
VERTEX
  5
2A1
  8
0
 10
-7.019999980926514
 20
-102.6330032348633
 30
-9.850000381469727
 70
   192
  0
VERTEX
  5
2A2
  8
0
 10
-6.97599983215332
 20
-102.1859970092773
 30
-8.40999984741211
 70
   192
  0
VERTEX
  5
2A3
  8
0
 10
-20.06999969482422
 20
-100.8970031738281
 30
-8.40999984741211
 70
   192
  0
VERTEX
  5
2A4
  8
0
 10
-20.93000030517578
 20
-100.7210006713867
 30
-9.850000381469727
 70
   192
  0
VERTEX
  5
2A5
  8
0
 10
20.06999969482422
 20
-100.8970031738281
 30
-8.40999984741211
 70
   192
  0
VERTEX
  5
2A6
  8
0
 10
0.0
 20
-102.8730010986328
 30
-8.40999984741211
 70
   192
  0
VERTEX
  5
2A7
  8
0
 10
7.019999980926514
 20
-102.6330032348633
 30
-9.850000381469727
 70
   192
  0
VERTEX
  5
2A8
  8
0
 10
20.93000030517578
 20
-100.7210006713867
 30
-9.850000381469727
 70
   192
  0
VERTEX
  5
2A9
  8
0
 10
20.9060001373291
 20
-100.6429977416992
 30
-8.40999984741211
 70
   192
  0
VERTEX
  5
2AA
  8
0
 10
47.32799911499023
 20
-91.33999633789062
 30
-9.850000381469727
 70
   192
  0
VERTEX
  5
2AB
  8
0
 10
47.0989990234375
 20
-90.91000366210938
 30
-8.40999984741211
 70
   192
  0
VERTEX
  5
2AC
  8
0
 10
39.36800003051758
 20
-95.04199981689453
 30
-8.40999984741211
 70
   192
  0
VERTEX
  5
2AD
  8
0
 10
34.45000076293945
 20
-96.93299865722656
 30
-9.850000381469727
 70
   192
  0
VERTEX
  5
2AE
  8
0
 10
70.03600311279297
 20
-74.96299743652344
 30
-8.40999984741211
 70
   192
  0
VERTEX
  5
2AF
  8
0
 10
57.15299987792969
 20
-85.53600311279297
 30
-8.40999984741211
 70
   192
  0
VERTEX
  5
2B0
  8
0
 10
59.32500076293945
 20
-84.04399871826172
 30
-9.850000381469727
 70
   192
  0
VERTEX
  5
2B1
  8
0
 10
70.21600341796875
 20
-75.18299865722656
 30
-9.850000381469727
 70
   192
  0
VERTEX
  5
2B2
  8
0
 10
87.89700317382812
 20
-53.45100021362305
 30
-9.850000381469727
 70
   192
  0
VERTEX
  5
2B3
  8
0
 10
85.53600311279297
 20
-57.15299987792969
 30
-8.40999984741211
 70
   192
  0
VERTEX
  5
2B4
  8
0
 10
72.74199676513672
 20
-72.74199676513672
 30
-8.40999984741211
 70
   192
  0
VERTEX
  5
2B5
  8
0
 10
87.5999984741211
 20
-53.29199981689453
 30
-8.40999984741211
 70
   192
  0
VERTEX
  5
2B6
  8
0
 10
99.05799865722656
 20
-27.7549991607666
 30
-9.850000381469727
 70
   192
  0
VERTEX
  5
2B7
  8
0
 10
98.60700225830078
 20
-27.61800003051758
 30
-8.40999984741211
 70
   192
  0
VERTEX
  5
2B8
  8
0
 10
95.04199981689453
 20
-39.36800003051758
 30
-8.40999984741211
 70
   192
  0
VERTEX
  5
2B9
  8
0
 10
94.35600280761719
 20
-40.98500061035156
 30
-9.850000381469727
 70
   192
  0
VERTEX
  5
2BA
  8
0
 10
100.8970031738281
 20
-20.06999969482422
 30
-8.40999984741211
 70
   192
  0
VERTEX
  5
2BB
  8
0
 10
101.9150009155273
 20
-14.00800037384033
 30
-9.850000381469727
 70
   192
  0
VERTEX
  5
2BC
  8
0
 62
     9
 10
0.0
 20
0.0
 30
0.0
 70
   128
 71
     3
 72
     2
 73
     1
  0
VERTEX
  5
2BD
  8
0
 62
     9
 10
0.0
 20
0.0
 30
0.0
 70
   128
 71
     6
 72
     5
 73
     4
  0
VERTEX
  5
2BE
  8
0
 62
     9
 10
0.0
 20
0.0
 30
0.0
 70
   128
 71
     4
 72
     3
 73
     6
  0
VERTEX
  5
2BF
  8
0
 62
     9
 10
0.0
 20
0.0
 30
0.0
 70
   128
 71
     9
 72
     8
 73
     7
  0
VERTEX
  5
2C0
  8
0
 62
     9
 10
0.0
 20
0.0
 30
0.0
 70
   128
 71
     8
 72
     9
 73
     1
  0
VERTEX
  5
2C1
  8
0
 62
     9
 10
0.0
 20
0.0
 30
0.0
 70
   128
 71
     1
 72
     2
 73
     8
  0
VERTEX
  5
2C2
  8
0
 62
     9
 10
0.0
 20
0.0
 30
0.0
 70
   128
 71
    12
 72
    11
 73
    10
  0
VERTEX
  5
2C3
  8
0
 62
     9
 10
0.0
 20
0.0
 30
0.0
 70
   128
 71
    10
 72
    13
 73
    12
  0
VERTEX
  5
2C4
  8
0
 62
     9
 10
0.0
 20
0.0
 30
0.0
 70
   128
 71
    11
 72
    14
 73
    10
  0
VERTEX
  5
2C5
  8
0
 62
     9
 10
0.0
 20
0.0
 30
0.0
 70
   128
 71
    17
 72
    16
 73
    15
  0
VERTEX
  5
2C6
  8
0
 62
     9
 10
0.0
 20
0.0
 30
0.0
 70
   128
 71
    18
 72
    10
 73
    14
  0
VERTEX
  5
2C7
  8
0
 62
     9
 10
0.0
 20
0.0
 30
0.0
 70
   128
 71
    14
 72
    17
 73
    18
  0
VERTEX
  5
2C8
  8
0
 62
     9
 10
0.0
 20
0.0
 30
0.0
 70
   128
 71
    21
 72
    20
 73
    19
  0
VERTEX
  5
2C9
  8
0
 62
     9
 10
0.0
 20
0.0
 30
0.0
 70
   128
 71
    20
 72
    21
 73
    15
  0
VERTEX
  5
2CA
  8
0
 62
     9
 10
0.0
 20
0.0
 30
0.0
 70
   128
 71
    15
 72
    16
 73
    20
  0
VERTEX
  5
2CB
  8
0
 62
     9
 10
0.0
 20
0.0
 30
0.0
 70
   128
 71
    24
 72
    23
 73
    22
  0
VERTEX
  5
2CC
  8
0
 62
     9
 10
0.0
 20
0.0
 30
0.0
 70
   128
 71
    27
 72
    26
 73
    25
  0
VERTEX
  5
2CD
  8
0
 62
     9
 10
0.0
 20
0.0
 30
0.0
 70
   128
 71
    25
 72
    24
 73
    27
  0
VERTEX
  5
2CE
  8
0
 62
     9
 10
0.0
 20
0.0
 30
0.0
 70
   128
 71
    26
 72
    19
 73
    25
  0
VERTEX
  5
2CF
  8
0
 62
     9
 10
0.0
 20
0.0
 30
0.0
 70
   128
 71
    30
 72
    29
 73
    28
  0
VERTEX
  5
2D0
  8
0
 62
     9
 10
0.0
 20
0.0
 30
0.0
 70
   128
 71
    29
 72
    30
 73
    22
  0
VERTEX
  5
2D1
  8
0
 62
     9
 10
0.0
 20
0.0
 30
0.0
 70
   128
 71
    22
 72
    23
 73
    29
  0
VERTEX
  5
2D2
  8
0
 62
     9
 10
0.0
 20
0.0
 30
0.0
 70
   128
 71
    33
 72
    32
 73
    31
  0
VERTEX
  5
2D3
  8
0
 62
     9
 10
0.0
 20
0.0
 30
0.0
 70
   128
 71
    31
 72
    35
 73
    34
  0
VERTEX
  5
2D4
  8
0
 62
     9
 10
0.0
 20
0.0
 30
0.0
 70
   128
 71
    32
 72
    33
 73
    36
  0
VERTEX
  5
2D5
  8
0
 62
     9
 10
0.0
 20
0.0
 30
0.0
 70
   128
 71
    36
 72
    28
 73
    32
  0
VERTEX
  5
2D6
  8
0
 62
     9
 10
0.0
 20
0.0
 30
0.0
 70
   128
 71
    39
 72
    38
 73
    37
  0
VERTEX
  5
2D7
  8
0
 62
     9
 10
0.0
 20
0.0
 30
0.0
 70
   128
 71
    40
 72
    34
 73
    35
  0
VERTEX
  5
2D8
  8
0
 62
     9
 10
0.0
 20
0.0
 30
0.0
 70
   128
 71
    35
 72
    39
 73
    40
  0
VERTEX
  5
2D9
  8
0
 62
     9
 10
0.0
 20
0.0
 30
0.0
 70
   128
 71
    43
 72
    42
 73
    41
  0
VERTEX
  5
2DA
  8
0
 62
     9
 10
0.0
 20
0.0
 30
0.0
 70
   128
 71
    42
 72
    43
 73
    37
  0
VERTEX
  5
2DB
  8
0
 62
     9
 10
0.0
 20
0.0
 30
0.0
 70
   128
 71
    37
 72
    38
 73
    42
  0
VERTEX
  5
2DC
  8
0
 62
     9
 10
0.0
 20
0.0
 30
0.0
 70
   128
 71
    46
 72
    45
 73
    44
  0
VERTEX
  5
2DD
  8
0
 62
     9
 10
0.0
 20
0.0
 30
0.0
 70
   128
 71
    49
 72
    48
 73
    47
  0
VERTEX
  5
2DE
  8
0
 62
     9
 10
0.0
 20
0.0
 30
0.0
 70
   128
 71
    47
 72
    46
 73
    49
  0
VERTEX
  5
2DF
  8
0
 62
     9
 10
0.0
 20
0.0
 30
0.0
 70
   128
 71
    48
 72
    41
 73
    47
  0
VERTEX
  5
2E0
  8
0
 62
     9
 10
0.0
 20
0.0
 30
0.0
 70
   128
 71
    52
 72
    51
 73
    50
  0
VERTEX
  5
2E1
  8
0
 62
     9
 10
0.0
 20
0.0
 30
0.0
 70
   128
 71
    45
 72
    53
 73
    50
  0
VERTEX
  5
2E2
  8
0
 62
     9
 10
0.0
 20
0.0
 30
0.0
 70
   128
 71
    50
 72
    44
 73
    45
  0
VERTEX
  5
2E3
  8
0
 62
     9
 10
0.0
 20
0.0
 30
0.0
 70
   128
 71
    56
 72
    55
 73
    54
  0
VERTEX
  5
2E4
  8
0
 62
     9
 10
0.0
 20
0.0
 30
0.0
 70
   128
 71
    54
 72
    58
 73
    57
  0
VERTEX
  5
2E5
  8
0
 62
     9
 10
0.0
 20
0.0
 30
0.0
 70
   128
 71
    55
 72
    56
 73
    51
  0
VERTEX
  5
2E6
  8
0
 62
     9
 10
0.0
 20
0.0
 30
0.0
 70
   128
 71
    51
 72
    52
 73
    55
  0
VERTEX
  5
2E7
  8
0
 62
     9
 10
0.0
 20
0.0
 30
0.0
 70
   128
 71
    61
 72
    60
 73
    59
  0
VERTEX
  5
2E8
  8
0
 62
     9
 10
0.0
 20
0.0
 30
0.0
 70
   128
 71
    62
 72
    57
 73
    58
  0
VERTEX
  5
2E9
  8
0
 62
     9
 10
0.0
 20
0.0
 30
0.0
 70
   128
 71
    58
 72
    61
 73
    62
  0
VERTEX
  5
2EA
  8
0
 62
     9
 10
0.0
 20
0.0
 30
0.0
 70
   128
 71
    65
 72
    64
 73
    63
  0
VERTEX
  5
2EB
  8
0
 62
     9
 10
0.0
 20
0.0
 30
0.0
 70
   128
 71
    64
 72
    65
 73
    59
  0
VERTEX
  5
2EC
  8
0
 62
     9
 10
0.0
 20
0.0
 30
0.0
 70
   128
 71
    59
 72
    60
 73
    64
  0
VERTEX
  5
2ED
  8
0
 62
     9
 10
0.0
 20
0.0
 30
0.0
 70
   128
 71
    68
 72
    67
 73
    66
  0
VERTEX
  5
2EE
  8
0
 62
     9
 10
0.0
 20
0.0
 30
0.0
 70
   128
 71
    71
 72
    70
 73
    69
  0
VERTEX
  5
2EF
  8
0
 62
     9
 10
0.0
 20
0.0
 30
0.0
 70
   128
 71
    69
 72
    68
 73
    71
  0
VERTEX
  5
2F0
  8
0
 62
     9
 10
0.0
 20
0.0
 30
0.0
 70
   128
 71
    70
 72
    63
 73
    69
  0
VERTEX
  5
2F1
  8
0
 62
     9
 10
0.0
 20
0.0
 30
0.0
 70
   128
 71
    74
 72
    73
 73
    72
  0
VERTEX
  5
2F2
  8
0
 62
     9
 10
0.0
 20
0.0
 30
0.0
 70
   128
 71
    75
 72
    66
 73
    67
  0
VERTEX
  5
2F3
  8
0
 62
     9
 10
0.0
 20
0.0
 30
0.0
 70
   128
 71
    67
 72
    74
 73
    75
  0
VERTEX
  5
2F4
  8
0
 62
     9
 10
0.0
 20
0.0
 30
0.0
 70
   128
 71
    78
 72
    77
 73
    76
  0
VERTEX
  5
2F5
  8
0
 62
     9
 10
0.0
 20
0.0
 30
0.0
 70
   128
 71
    76
 72
    80
 73
    79
  0
VERTEX
  5
2F6
  8
0
 62
     9
 10
0.0
 20
0.0
 30
0.0
 70
   128
 71
    77
 72
    78
 73
    72
  0
VERTEX
  5
2F7
  8
0
 62
     9
 10
0.0
 20
0.0
 30
0.0
 70
   128
 71
    72
 72
    73
 73
    77
  0
VERTEX
  5
2F8
  8
0
 62
     9
 10
0.0
 20
0.0
 30
0.0
 70
   128
 71
    83
 72
    82
 73
    81
  0
VERTEX
  5
2F9
  8
0
 62
     9
 10
0.0
 20
0.0
 30
0.0
 70
   128
 71
    84
 72
    79
 73
    80
  0
VERTEX
  5
2FA
  8
0
 62
     9
 10
0.0
 20
0.0
 30
0.0
 70
   128
 71
    80
 72
    83
 73
    84
  0
VERTEX
  5
2FB
  8
0
 62
     9
 10
0.0
 20
0.0
 30
0.0
 70
   128
 71
    87
 72
    86
 73
    85
  0
VERTEX
  5
2FC
  8
0
 62
     9
 10
0.0
 20
0.0
 30
0.0
 70
   128
 71
    86
 72
    87
 73
    81
  0
VERTEX
  5
2FD
  8
0
 62
     9
 10
0.0
 20
0.0
 30
0.0
 70
   128
 71
    81
 72
    82
 73
    86
  0
VERTEX
  5
2FE
  8
0
 62
     9
 10
0.0
 20
0.0
 30
0.0
 70
   128
 71
    90
 72
    89
 73
    88
  0
VERTEX
  5
2FF
  8
0
 62
     9
 10
0.0
 20
0.0
 30
0.0
 70
   128
 71
    88
 72
    91
 73
    90
  0
VERTEX
  5
300
  8
0
 62
     9
 10
0.0
 20
0.0
 30
0.0
 70
   128
 71
    90
 72
    92
 73
    89
  0
VERTEX
  5
301
  8
0
 62
     9
 10
0.0
 20
0.0
 30
0.0
 70
   128
 71
    95
 72
    94
 73
    93
  0
VERTEX
  5
302
  8
0
 62
     9
 10
0.0
 20
0.0
 30
0.0
 70
   128
 71
    96
 72
    89
 73
    92
  0
VERTEX
  5
303
  8
0
 62
     9
 10
0.0
 20
0.0
 30
0.0
 70
   128
 71
    92
 72
    95
 73
    96
  0
VERTEX
  5
304
  8
0
 62
     9
 10
0.0
 20
0.0
 30
0.0
 70
   128
 71
    98
 72
    97
 73
     4
  0
VERTEX
  5
305
  8
0
 62
     9
 10
0.0
 20
0.0
 30
0.0
 70
   128
 71
    97
 72
    98
 73
    93
  0
VERTEX
  5
306
  8
0
 62
     9
 10
0.0
 20
0.0
 30
0.0
 70
   128
 71
    93
 72
    94
 73
    97
  0
VERTEX
  5
307
  8
0
 62
     9
 10
0.0
 20
0.0
 30
0.0
 70
   128
 71
     4
 72
     5
 73
    98
  0
VERTEX
  5
308
  8
0
 62
     9
 10
0.0
 20
0.0
 30
0.0
 70
   128
 71
    93
 72
    96
 73
    95
  0
VERTEX
  5
309
  8
0
 62
     9
 10
0.0
 20
0.0
 30
0.0
 70
   128
 71
    88
 72
    85
 73
    91
  0
VERTEX
  5
30A
  8
0
 62
     9
 10
0.0
 20
0.0
 30
0.0
 70
   128
 71
    85
 72
    88
 73
    87
  0
VERTEX
  5
30B
  8
0
 62
     9
 10
0.0
 20
0.0
 30
0.0
 70
   128
 71
    81
 72
    84
 73
    83
  0
VERTEX
  5
30C
  8
0
 62
     9
 10
0.0
 20
0.0
 30
0.0
 70
   128
 71
    76
 72
    79
 73
    78
  0
VERTEX
  5
30D
  8
0
 62
     9
 10
0.0
 20
0.0
 30
0.0
 70
   128
 71
    72
 72
    75
 73
    74
  0
VERTEX
  5
30E
  8
0
 62
     9
 10
0.0
 20
0.0
 30
0.0
 70
   128
 71
    66
 72
    71
 73
    68
  0
VERTEX
  5
30F
  8
0
 62
     9
 10
0.0
 20
0.0
 30
0.0
 70
   128
 71
    63
 72
    70
 73
    65
  0
VERTEX
  5
310
  8
0
 62
     9
 10
0.0
 20
0.0
 30
0.0
 70
   128
 71
    59
 72
    62
 73
    61
  0
VERTEX
  5
311
  8
0
 62
     9
 10
0.0
 20
0.0
 30
0.0
 70
   128
 71
    54
 72
    57
 73
    56
  0
VERTEX
  5
312
  8
0
 62
     9
 10
0.0
 20
0.0
 30
0.0
 70
   128
 71
    50
 72
    53
 73
    52
  0
VERTEX
  5
313
  8
0
 62
     9
 10
0.0
 20
0.0
 30
0.0
 70
   128
 71
    44
 72
    49
 73
    46
  0
VERTEX
  5
314
  8
0
 62
     9
 10
0.0
 20
0.0
 30
0.0
 70
   128
 71
    41
 72
    48
 73
    43
  0
VERTEX
  5
315
  8
0
 62
     9
 10
0.0
 20
0.0
 30
0.0
 70
   128
 71
    37
 72
    40
 73
    39
  0
VERTEX
  5
316
  8
0
 62
     9
 10
0.0
 20
0.0
 30
0.0
 70
   128
 71
    31
 72
    34
 73
    33
  0
VERTEX
  5
317
  8
0
 62
     9
 10
0.0
 20
0.0
 30
0.0
 70
   128
 71
    28
 72
    36
 73
    30
  0
VERTEX
  5
318
  8
0
 62
     9
 10
0.0
 20
0.0
 30
0.0
 70
   128
 71
    22
 72
    27
 73
    24
  0
VERTEX
  5
319
  8
0
 62
     9
 10
0.0
 20
0.0
 30
0.0
 70
   128
 71
    19
 72
    26
 73
    21
  0
VERTEX
  5
31A
  8
0
 62
     9
 10
0.0
 20
0.0
 30
0.0
 70
   128
 71
    15
 72
    18
 73
    17
  0
VERTEX
  5
31B
  8
0
 62
     9
 10
0.0
 20
0.0
 30
0.0
 70
   128
 71
    13
 72
     7
 73
    12
  0
VERTEX
  5
31C
  8
0
 62
     9
 10
0.0
 20
0.0
 30
0.0
 70
   128
 71
     7
 72
    13
 73
     9
  0
VERTEX
  5
31D
  8
0
 62
     9
 10
0.0
 20
0.0
 30
0.0
 70
   128
 71
     1
 72
     6
 73
     3
  0
SEQEND
  5
31E
  8
0
 62
     9
  0
ENDBLK
  5
321
  8
0
  0
BLOCK
  8
0
  2
E3_NODE_4_
 70
     0
 10
0.0
 20
0.0
 30
0.0
  3
E3_NODE_4_
  1

  0
POLYLINE
  5
323
  8
0
 62
     9
 66
     1
 10
0.0
 20
0.0
 30
0.0
 70
    64
 71
    86
 72
    86
  0
VERTEX
  5
324
  8
0
 10
-102.9059982299805
 20
0.0
 30
-8.371000289916992
 70
   192
  0
VERTEX
  5
325
  8
0
 10
-102.8730010986328
 20
0.0
 30
-8.40999984741211
 70
   192
  0
VERTEX
  5
326
  8
0
 10
-101.4980010986328
 20
-13.96700000762939
 30
-8.40999984741211
 70
   192
  0
VERTEX
  5
327
  8
0
 10
-100.9290008544922
 20
-20.07600021362305
 30
-8.371000289916992
 70
   192
  0
VERTEX
  5
328
  8
0
 10
-100.8970031738281
 20
-20.06999969482422
 30
-8.40999984741211
 70
   192
  0
VERTEX
  5
329
  8
0
 10
-95.04199981689453
 20
-39.36800003051758
 30
-8.40999984741211
 70
   192
  0
VERTEX
  5
32A
  8
0
 10
-85.56400299072266
 20
-57.17200088500977
 30
-8.371000289916992
 70
   192
  0
VERTEX
  5
32B
  8
0
 10
-95.072998046875
 20
-39.38100051879883
 30
-8.371000289916992
 70
   192
  0
VERTEX
  5
32C
  8
0
 10
-94.21800231933594
 20
-40.9109992980957
 30
-8.40999984741211
 70
   192
  0
VERTEX
  5
32D
  8
0
 10
-72.76599884033203
 20
-72.76599884033203
 30
-8.371000289916992
 70
   192
  0
VERTEX
  5
32E
  8
0
 10
-79.41799926757812
 20
-64.60800170898438
 30
-8.40999984741211
 70
   192
  0
VERTEX
  5
32F
  8
0
 10
-85.53600311279297
 20
-57.15299987792969
 30
-8.40999984741211
 70
   192
  0
VERTEX
  5
330
  8
0
 10
-72.74199676513672
 20
-72.74199676513672
 30
-8.40999984741211
 70
   192
  0
VERTEX
  5
331
  8
0
 10
-59.18199920654297
 20
-83.87100219726562
 30
-8.40999984741211
 70
   192
  0
VERTEX
  5
332
  8
0
 10
-57.17200088500977
 20
-85.56400299072266
 30
-8.371000289916992
 70
   192
  0
VERTEX
  5
333
  8
0
 10
-39.38100051879883
 20
-95.072998046875
 30
-8.371000289916992
 70
   192
  0
VERTEX
  5
334
  8
0
 10
-57.15299987792969
 20
-85.53600311279297
 30
-8.40999984741211
 70
   192
  0
VERTEX
  5
335
  8
0
 10
-20.07600021362305
 20
-100.9290008544922
 30
-8.371000289916992
 70
   192
  0
VERTEX
  5
336
  8
0
 10
-34.3390007019043
 20
-96.56800079345703
 30
-8.40999984741211
 70
   192
  0
VERTEX
  5
337
  8
0
 10
-39.36800003051758
 20
-95.04199981689453
 30
-8.40999984741211
 70
   192
  0
VERTEX
  5
338
  8
0
 10
-20.06999969482422
 20
-100.8970031738281
 30
-8.40999984741211
 70
   192
  0
VERTEX
  5
339
  8
0
 10
-6.97599983215332
 20
-102.1859970092773
 30
-8.40999984741211
 70
   192
  0
VERTEX
  5
33A
  8
0
 10
0.0
 20
-102.9059982299805
 30
-8.371000289916992
 70
   192
  0
VERTEX
  5
33B
  8
0
 10
20.07600021362305
 20
-100.9290008544922
 30
-8.371000289916992
 70
   192
  0
VERTEX
  5
33C
  8
0
 10
0.0
 20
-102.8730010986328
 30
-8.40999984741211
 70
   192
  0
VERTEX
  5
33D
  8
0
 10
39.38100051879883
 20
-95.072998046875
 30
-8.371000289916992
 70
   192
  0
VERTEX
  5
33E
  8
0
 10
20.9060001373291
 20
-100.6429977416992
 30
-8.40999984741211
 70
   192
  0
VERTEX
  5
33F
  8
0
 10
20.06999969482422
 20
-100.8970031738281
 30
-8.40999984741211
 70
   192
  0
VERTEX
  5
340
  8
0
 10
57.17200088500977
 20
-85.56400299072266
 30
-8.371000289916992
 70
   192
  0
VERTEX
  5
341
  8
0
 10
47.0989990234375
 20
-90.91000366210938
 30
-8.40999984741211
 70
   192
  0
VERTEX
  5
342
  8
0
 10
39.36800003051758
 20
-95.04199981689453
 30
-8.40999984741211
 70
   192
  0
VERTEX
  5
343
  8
0
 10
57.15299987792969
 20
-85.53600311279297
 30
-8.40999984741211
 70
   192
  0
VERTEX
  5
344
  8
0
 10
70.03600311279297
 20
-74.96299743652344
 30
-8.40999984741211
 70
   192
  0
VERTEX
  5
345
  8
0
 10
72.76599884033203
 20
-72.76599884033203
 30
-8.371000289916992
 70
   192
  0
VERTEX
  5
346
  8
0
 10
72.74199676513672
 20
-72.74199676513672
 30
-8.40999984741211
 70
   192
  0
VERTEX
  5
347
  8
0
 10
85.53600311279297
 20
-57.15299987792969
 30
-8.40999984741211
 70
   192
  0
VERTEX
  5
348
  8
0
 10
95.072998046875
 20
-39.38100051879883
 30
-8.371000289916992
 70
   192
  0
VERTEX
  5
349
  8
0
 10
85.56400299072266
 20
-57.17200088500977
 30
-8.371000289916992
 70
   192
  0
VERTEX
  5
34A
  8
0
 10
87.5999984741211
 20
-53.29199981689453
 30
-8.40999984741211
 70
   192
  0
VERTEX
  5
34B
  8
0
 10
95.04199981689453
 20
-39.36800003051758
 30
-8.40999984741211
 70
   192
  0
VERTEX
  5
34C
  8
0
 10
98.60700225830078
 20
-27.61800003051758
 30
-8.40999984741211
 70
   192
  0
VERTEX
  5
34D
  8
0
 10
100.9290008544922
 20
-20.07600021362305
 30
-8.371000289916992
 70
   192
  0
VERTEX
  5
34E
  8
0
 10
102.9059982299805
 20
0.0
 30
-8.371000289916992
 70
   192
  0
VERTEX
  5
34F
  8
0
 10
100.8970031738281
 20
-20.06999969482422
 30
-8.40999984741211
 70
   192
  0
VERTEX
  5
350
  8
0
 10
102.8730010986328
 20
0.0
 30
-8.40999984741211
 70
   192
  0
VERTEX
  5
351
  8
0
 10
100.8970031738281
 20
20.06999969482422
 30
-8.40999984741211
 70
   192
  0
VERTEX
  5
352
  8
0
 10
95.072998046875
 20
39.38100051879883
 30
-8.371000289916992
 70
   192
  0
VERTEX
  5
353
  8
0
 10
100.9290008544922
 20
20.07600021362305
 30
-8.371000289916992
 70
   192
  0
VERTEX
  5
354
  8
0
 10
98.60700225830078
 20
27.61800003051758
 30
-8.40999984741211
 70
   192
  0
VERTEX
  5
355
  8
0
 10
95.04199981689453
 20
39.36800003051758
 30
-8.40999984741211
 70
   192
  0
VERTEX
  5
356
  8
0
 10
87.5999984741211
 20
53.29199981689453
 30
-8.40999984741211
 70
   192
  0
VERTEX
  5
357
  8
0
 10
85.56400299072266
 20
57.17200088500977
 30
-8.371000289916992
 70
   192
  0
VERTEX
  5
358
  8
0
 10
85.53600311279297
 20
57.15299987792969
 30
-8.40999984741211
 70
   192
  0
VERTEX
  5
359
  8
0
 10
72.74199676513672
 20
72.74199676513672
 30
-8.40999984741211
 70
   192
  0
VERTEX
  5
35A
  8
0
 10
57.17200088500977
 20
85.56400299072266
 30
-8.371000289916992
 70
   192
  0
VERTEX
  5
35B
  8
0
 10
72.76599884033203
 20
72.76599884033203
 30
-8.371000289916992
 70
   192
  0
VERTEX
  5
35C
  8
0
 10
70.03600311279297
 20
74.96299743652344
 30
-8.40999984741211
 70
   192
  0
VERTEX
  5
35D
  8
0
 10
57.15299987792969
 20
85.53600311279297
 30
-8.40999984741211
 70
   192
  0
VERTEX
  5
35E
  8
0
 10
47.0989990234375
 20
90.91000366210938
 30
-8.40999984741211
 70
   192
  0
VERTEX
  5
35F
  8
0
 10
39.38100051879883
 20
95.072998046875
 30
-8.371000289916992
 70
   192
  0
VERTEX
  5
360
  8
0
 10
39.36800003051758
 20
95.04199981689453
 30
-8.40999984741211
 70
   192
  0
VERTEX
  5
361
  8
0
 10
20.9060001373291
 20
100.6429977416992
 30
-8.40999984741211
 70
   192
  0
VERTEX
  5
362
  8
0
 10
20.07600021362305
 20
100.9290008544922
 30
-8.371000289916992
 70
   192
  0
VERTEX
  5
363
  8
0
 10
0.0
 20
102.9059982299805
 30
-8.371000289916992
 70
   192
  0
VERTEX
  5
364
  8
0
 10
20.06999969482422
 20
100.8970031738281
 30
-8.40999984741211
 70
   192
  0
VERTEX
  5
365
  8
0
 10
-20.07600021362305
 20
100.9290008544922
 30
-8.371000289916992
 70
   192
  0
VERTEX
  5
366
  8
0
 10
-6.97599983215332
 20
102.1859970092773
 30
-8.40999984741211
 70
   192
  0
VERTEX
  5
367
  8
0
 10
0.0
 20
102.8730010986328
 30
-8.40999984741211
 70
   192
  0
VERTEX
  5
368
  8
0
 10
-20.06999969482422
 20
100.8970031738281
 30
-8.40999984741211
 70
   192
  0
VERTEX
  5
369
  8
0
 10
-34.3390007019043
 20
96.56800079345703
 30
-8.40999984741211
 70
   192
  0
VERTEX
  5
36A
  8
0
 10
-39.38100051879883
 20
95.072998046875
 30
-8.371000289916992
 70
   192
  0
VERTEX
  5
36B
  8
0
 10
-39.36800003051758
 20
95.04199981689453
 30
-8.40999984741211
 70
   192
  0
VERTEX
  5
36C
  8
0
 10
-57.15299987792969
 20
85.53600311279297
 30
-8.40999984741211
 70
   192
  0
VERTEX
  5
36D
  8
0
 10
-72.76599884033203
 20
72.76599884033203
 30
-8.371000289916992
 70
   192
  0
VERTEX
  5
36E
  8
0
 10
-57.17200088500977
 20
85.56400299072266
 30
-8.371000289916992
 70
   192
  0
VERTEX
  5
36F
  8
0
 10
-59.18199920654297
 20
83.87100219726562
 30
-8.40999984741211
 70
   192
  0
VERTEX
  5
370
  8
0
 10
-72.74199676513672
 20
72.74199676513672
 30
-8.40999984741211
 70
   192
  0
VERTEX
  5
371
  8
0
 10
-79.41799926757812
 20
64.60800170898438
 30
-8.40999984741211
 70
   192
  0
VERTEX
  5
372
  8
0
 10
-85.56400299072266
 20
57.17200088500977
 30
-8.371000289916992
 70
   192
  0
VERTEX
  5
373
  8
0
 10
-85.53600311279297
 20
57.15299987792969
 30
-8.40999984741211
 70
   192
  0
VERTEX
  5
374
  8
0
 10
-94.21800231933594
 20
40.9109992980957
 30
-8.40999984741211
 70
   192
  0
VERTEX
  5
375
  8
0
 10
-95.072998046875
 20
39.38100051879883
 30
-8.371000289916992
 70
   192
  0
VERTEX
  5
376
  8
0
 10
-95.04199981689453
 20
39.36800003051758
 30
-8.40999984741211
 70
   192
  0
VERTEX
  5
377
  8
0
 10
-100.8970031738281
 20
20.06999969482422
 30
-8.40999984741211
 70
   192
  0
VERTEX
  5
378
  8
0
 10
-100.9290008544922
 20
20.07600021362305
 30
-8.371000289916992
 70
   192
  0
VERTEX
  5
379
  8
0
 10
-101.4980010986328
 20
13.96700000762939
 30
-8.40999984741211
 70
   192
  0
VERTEX
  5
37A
  8
0
 62
     9
 10
0.0
 20
0.0
 30
0.0
 70
   128
 71
     3
 72
     2
 73
     1
  0
VERTEX
  5
37B
  8
0
 62
     9
 10
0.0
 20
0.0
 30
0.0
 70
   128
 71
     1
 72
     4
 73
     3
  0
VERTEX
  5
37C
  8
0
 62
     9
 10
0.0
 20
0.0
 30
0.0
 70
   128
 71
     6
 72
     5
 73
     4
  0
VERTEX
  5
37D
  8
0
 62
     9
 10
0.0
 20
0.0
 30
0.0
 70
   128
 71
     9
 72
     8
 73
     7
  0
VERTEX
  5
37E
  8
0
 62
     9
 10
0.0
 20
0.0
 30
0.0
 70
   128
 71
     9
 72
     6
 73
     8
  0
VERTEX
  5
37F
  8
0
 62
     9
 10
0.0
 20
0.0
 30
0.0
 70
   128
 71
    11
 72
     7
 73
    10
  0
VERTEX
  5
380
  8
0
 62
     9
 10
0.0
 20
0.0
 30
0.0
 70
   128
 71
    11
 72
    12
 73
     7
  0
VERTEX
  5
381
  8
0
 62
     9
 10
0.0
 20
0.0
 30
0.0
 70
   128
 71
    14
 72
    13
 73
    10
  0
VERTEX
  5
382
  8
0
 62
     9
 10
0.0
 20
0.0
 30
0.0
 70
   128
 71
    10
 72
    15
 73
    14
  0
VERTEX
  5
383
  8
0
 62
     9
 10
0.0
 20
0.0
 30
0.0
 70
   128
 71
    17
 72
    15
 73
    16
  0
VERTEX
  5
384
  8
0
 62
     9
 10
0.0
 20
0.0
 30
0.0
 70
   128
 71
    19
 72
    16
 73
    18
  0
VERTEX
  5
385
  8
0
 62
     9
 10
0.0
 20
0.0
 30
0.0
 70
   128
 71
    19
 72
    20
 73
    16
  0
VERTEX
  5
386
  8
0
 62
     9
 10
0.0
 20
0.0
 30
0.0
 70
   128
 71
    22
 72
    21
 73
    18
  0
VERTEX
  5
387
  8
0
 62
     9
 10
0.0
 20
0.0
 30
0.0
 70
   128
 71
    18
 72
    23
 73
    22
  0
VERTEX
  5
388
  8
0
 62
     9
 10
0.0
 20
0.0
 30
0.0
 70
   128
 71
    25
 72
    23
 73
    24
  0
VERTEX
  5
389
  8
0
 62
     9
 10
0.0
 20
0.0
 30
0.0
 70
   128
 71
    27
 72
    24
 73
    26
  0
VERTEX
  5
38A
  8
0
 62
     9
 10
0.0
 20
0.0
 30
0.0
 70
   128
 71
    27
 72
    28
 73
    24
  0
VERTEX
  5
38B
  8
0
 62
     9
 10
0.0
 20
0.0
 30
0.0
 70
   128
 71
    30
 72
    26
 73
    29
  0
VERTEX
  5
38C
  8
0
 62
     9
 10
0.0
 20
0.0
 30
0.0
 70
   128
 71
    30
 72
    31
 73
    26
  0
VERTEX
  5
38D
  8
0
 62
     9
 10
0.0
 20
0.0
 30
0.0
 70
   128
 71
    33
 72
    32
 73
    29
  0
VERTEX
  5
38E
  8
0
 62
     9
 10
0.0
 20
0.0
 30
0.0
 70
   128
 71
    29
 72
    34
 73
    33
  0
VERTEX
  5
38F
  8
0
 62
     9
 10
0.0
 20
0.0
 30
0.0
 70
   128
 71
    36
 72
    35
 73
    34
  0
VERTEX
  5
390
  8
0
 62
     9
 10
0.0
 20
0.0
 30
0.0
 70
   128
 71
    39
 72
    38
 73
    37
  0
VERTEX
  5
391
  8
0
 62
     9
 10
0.0
 20
0.0
 30
0.0
 70
   128
 71
    39
 72
    36
 73
    38
  0
VERTEX
  5
392
  8
0
 62
     9
 10
0.0
 20
0.0
 30
0.0
 70
   128
 71
    41
 72
    40
 73
    37
  0
VERTEX
  5
393
  8
0
 62
     9
 10
0.0
 20
0.0
 30
0.0
 70
   128
 71
    37
 72
    42
 73
    41
  0
VERTEX
  5
394
  8
0
 62
     9
 10
0.0
 20
0.0
 30
0.0
 70
   128
 71
    44
 72
    42
 73
    43
  0
VERTEX
  5
395
  8
0
 62
     9
 10
0.0
 20
0.0
 30
0.0
 70
   128
 71
    46
 72
    45
 73
    43
  0
VERTEX
  5
396
  8
0
 62
     9
 10
0.0
 20
0.0
 30
0.0
 70
   128
 71
    49
 72
    48
 73
    47
  0
VERTEX
  5
397
  8
0
 62
     9
 10
0.0
 20
0.0
 30
0.0
 70
   128
 71
    49
 72
    46
 73
    48
  0
VERTEX
  5
398
  8
0
 62
     9
 10
0.0
 20
0.0
 30
0.0
 70
   128
 71
    51
 72
    50
 73
    47
  0
VERTEX
  5
399
  8
0
 62
     9
 10
0.0
 20
0.0
 30
0.0
 70
   128
 71
    47
 72
    52
 73
    51
  0
VERTEX
  5
39A
  8
0
 62
     9
 10
0.0
 20
0.0
 30
0.0
 70
   128
 71
    54
 72
    53
 73
    52
  0
VERTEX
  5
39B
  8
0
 62
     9
 10
0.0
 20
0.0
 30
0.0
 70
   128
 71
    57
 72
    56
 73
    55
  0
VERTEX
  5
39C
  8
0
 62
     9
 10
0.0
 20
0.0
 30
0.0
 70
   128
 71
    57
 72
    54
 73
    56
  0
VERTEX
  5
39D
  8
0
 62
     9
 10
0.0
 20
0.0
 30
0.0
 70
   128
 71
    59
 72
    58
 73
    55
  0
VERTEX
  5
39E
  8
0
 62
     9
 10
0.0
 20
0.0
 30
0.0
 70
   128
 71
    55
 72
    60
 73
    59
  0
VERTEX
  5
39F
  8
0
 62
     9
 10
0.0
 20
0.0
 30
0.0
 70
   128
 71
    62
 72
    61
 73
    60
  0
VERTEX
  5
3A0
  8
0
 62
     9
 10
0.0
 20
0.0
 30
0.0
 70
   128
 71
    60
 72
    63
 73
    62
  0
VERTEX
  5
3A1
  8
0
 62
     9
 10
0.0
 20
0.0
 30
0.0
 70
   128
 71
    65
 72
    63
 73
    64
  0
VERTEX
  5
3A2
  8
0
 62
     9
 10
0.0
 20
0.0
 30
0.0
 70
   128
 71
    67
 72
    64
 73
    66
  0
VERTEX
  5
3A3
  8
0
 62
     9
 10
0.0
 20
0.0
 30
0.0
 70
   128
 71
    67
 72
    68
 73
    64
  0
VERTEX
  5
3A4
  8
0
 62
     9
 10
0.0
 20
0.0
 30
0.0
 70
   128
 71
    70
 72
    69
 73
    66
  0
VERTEX
  5
3A5
  8
0
 62
     9
 10
0.0
 20
0.0
 30
0.0
 70
   128
 71
    66
 72
    71
 73
    70
  0
VERTEX
  5
3A6
  8
0
 62
     9
 10
0.0
 20
0.0
 30
0.0
 70
   128
 71
    73
 72
    72
 73
    71
  0
VERTEX
  5
3A7
  8
0
 62
     9
 10
0.0
 20
0.0
 30
0.0
 70
   128
 71
    76
 72
    75
 73
    74
  0
VERTEX
  5
3A8
  8
0
 62
     9
 10
0.0
 20
0.0
 30
0.0
 70
   128
 71
    76
 72
    73
 73
    75
  0
VERTEX
  5
3A9
  8
0
 62
     9
 10
0.0
 20
0.0
 30
0.0
 70
   128
 71
    78
 72
    77
 73
    74
  0
VERTEX
  5
3AA
  8
0
 62
     9
 10
0.0
 20
0.0
 30
0.0
 70
   128
 71
    74
 72
    79
 73
    78
  0
VERTEX
  5
3AB
  8
0
 62
     9
 10
0.0
 20
0.0
 30
0.0
 70
   128
 71
    81
 72
    80
 73
    79
  0
VERTEX
  5
3AC
  8
0
 62
     9
 10
0.0
 20
0.0
 30
0.0
 70
   128
 71
    79
 72
    82
 73
    81
  0
VERTEX
  5
3AD
  8
0
 62
     9
 10
0.0
 20
0.0
 30
0.0
 70
   128
 71
    84
 72
    83
 73
    82
  0
VERTEX
  5
3AE
  8
0
 62
     9
 10
0.0
 20
0.0
 30
0.0
 70
   128
 71
    86
 72
    85
 73
     1
  0
VERTEX
  5
3AF
  8
0
 62
     9
 10
0.0
 20
0.0
 30
0.0
 70
   128
 71
    86
 72
    84
 73
    85
  0
VERTEX
  5
3B0
  8
0
 62
     9
 10
0.0
 20
0.0
 30
0.0
 70
   128
 71
     1
 72
     2
 73
    86
  0
VERTEX
  5
3B1
  8
0
 62
     9
 10
0.0
 20
0.0
 30
0.0
 70
   128
 71
    82
 72
    85
 73
    84
  0
VERTEX
  5
3B2
  8
0
 62
     9
 10
0.0
 20
0.0
 30
0.0
 70
   128
 71
    82
 72
    83
 73
    81
  0
VERTEX
  5
3B3
  8
0
 62
     9
 10
0.0
 20
0.0
 30
0.0
 70
   128
 71
    79
 72
    80
 73
    78
  0
VERTEX
  5
3B4
  8
0
 62
     9
 10
0.0
 20
0.0
 30
0.0
 70
   128
 71
    74
 72
    77
 73
    76
  0
VERTEX
  5
3B5
  8
0
 62
     9
 10
0.0
 20
0.0
 30
0.0
 70
   128
 71
    71
 72
    75
 73
    73
  0
VERTEX
  5
3B6
  8
0
 62
     9
 10
0.0
 20
0.0
 30
0.0
 70
   128
 71
    71
 72
    72
 73
    70
  0
VERTEX
  5
3B7
  8
0
 62
     9
 10
0.0
 20
0.0
 30
0.0
 70
   128
 71
    66
 72
    69
 73
    67
  0
VERTEX
  5
3B8
  8
0
 62
     9
 10
0.0
 20
0.0
 30
0.0
 70
   128
 71
    64
 72
    68
 73
    65
  0
VERTEX
  5
3B9
  8
0
 62
     9
 10
0.0
 20
0.0
 30
0.0
 70
   128
 71
    63
 72
    65
 73
    62
  0
VERTEX
  5
3BA
  8
0
 62
     9
 10
0.0
 20
0.0
 30
0.0
 70
   128
 71
    60
 72
    61
 73
    59
  0
VERTEX
  5
3BB
  8
0
 62
     9
 10
0.0
 20
0.0
 30
0.0
 70
   128
 71
    55
 72
    58
 73
    57
  0
VERTEX
  5
3BC
  8
0
 62
     9
 10
0.0
 20
0.0
 30
0.0
 70
   128
 71
    52
 72
    56
 73
    54
  0
VERTEX
  5
3BD
  8
0
 62
     9
 10
0.0
 20
0.0
 30
0.0
 70
   128
 71
    52
 72
    53
 73
    51
  0
VERTEX
  5
3BE
  8
0
 62
     9
 10
0.0
 20
0.0
 30
0.0
 70
   128
 71
    47
 72
    50
 73
    49
  0
VERTEX
  5
3BF
  8
0
 62
     9
 10
0.0
 20
0.0
 30
0.0
 70
   128
 71
    43
 72
    48
 73
    46
  0
VERTEX
  5
3C0
  8
0
 62
     9
 10
0.0
 20
0.0
 30
0.0
 70
   128
 71
    43
 72
    45
 73
    44
  0
VERTEX
  5
3C1
  8
0
 62
     9
 10
0.0
 20
0.0
 30
0.0
 70
   128
 71
    42
 72
    44
 73
    41
  0
VERTEX
  5
3C2
  8
0
 62
     9
 10
0.0
 20
0.0
 30
0.0
 70
   128
 71
    37
 72
    40
 73
    39
  0
VERTEX
  5
3C3
  8
0
 62
     9
 10
0.0
 20
0.0
 30
0.0
 70
   128
 71
    34
 72
    38
 73
    36
  0
VERTEX
  5
3C4
  8
0
 62
     9
 10
0.0
 20
0.0
 30
0.0
 70
   128
 71
    34
 72
    35
 73
    33
  0
VERTEX
  5
3C5
  8
0
 62
     9
 10
0.0
 20
0.0
 30
0.0
 70
   128
 71
    29
 72
    32
 73
    30
  0
VERTEX
  5
3C6
  8
0
 62
     9
 10
0.0
 20
0.0
 30
0.0
 70
   128
 71
    26
 72
    31
 73
    27
  0
VERTEX
  5
3C7
  8
0
 62
     9
 10
0.0
 20
0.0
 30
0.0
 70
   128
 71
    24
 72
    28
 73
    25
  0
VERTEX
  5
3C8
  8
0
 62
     9
 10
0.0
 20
0.0
 30
0.0
 70
   128
 71
    23
 72
    25
 73
    22
  0
VERTEX
  5
3C9
  8
0
 62
     9
 10
0.0
 20
0.0
 30
0.0
 70
   128
 71
    18
 72
    21
 73
    19
  0
VERTEX
  5
3CA
  8
0
 62
     9
 10
0.0
 20
0.0
 30
0.0
 70
   128
 71
    16
 72
    20
 73
    17
  0
VERTEX
  5
3CB
  8
0
 62
     9
 10
0.0
 20
0.0
 30
0.0
 70
   128
 71
    15
 72
    17
 73
    14
  0
VERTEX
  5
3CC
  8
0
 62
     9
 10
0.0
 20
0.0
 30
0.0
 70
   128
 71
    10
 72
    13
 73
    11
  0
VERTEX
  5
3CD
  8
0
 62
     9
 10
0.0
 20
0.0
 30
0.0
 70
   128
 71
     7
 72
    12
 73
     9
  0
VERTEX
  5
3CE
  8
0
 62
     9
 10
0.0
 20
0.0
 30
0.0
 70
   128
 71
     4
 72
     8
 73
     6
  0
VERTEX
  5
3CF
  8
0
 62
     9
 10
0.0
 20
0.0
 30
0.0
 70
   128
 71
     4
 72
     5
 73
     3
  0
SEQEND
  5
3D0
  8
0
 62
     9
  0
ENDBLK
  5
3D3
  8
0
  0
BLOCK
  8
0
  2
E3_NODE_5_
 70
     0
 10
0.0
 20
0.0
 30
0.0
  3
E3_NODE_5_
  1

  0
POLYLINE
  5
3D5
  8
0
 62
     9
 66
     1
 10
0.0
 20
0.0
 30
0.0
 70
    64
 71
    56
 72
    56
  0
VERTEX
  5
3D6
  8
0
 10
-21.35099983215332
 20
102.7480010986328
 30
-8.371000289916992
 70
   192
  0
VERTEX
  5
3D7
  8
0
 10
-20.07600021362305
 20
100.9290008544922
 30
-8.371000289916992
 70
   192
  0
VERTEX
  5
3D8
  8
0
 10
-39.38100051879883
 20
95.072998046875
 30
-8.371000289916992
 70
   192
  0
VERTEX
  5
3D9
  8
0
 10
7.162000179290771
 20
104.697998046875
 30
-8.371000289916992
 70
   192
  0
VERTEX
  5
3DA
  8
0
 10
0.0
 20
102.9059982299805
 30
-8.371000289916992
 70
   192
  0
VERTEX
  5
3DB
  8
0
 10
-48.28099822998047
 20
93.177001953125
 30
-8.371000289916992
 70
   192
  0
VERTEX
  5
3DC
  8
0
 10
20.07600021362305
 20
100.9290008544922
 30
-8.371000289916992
 70
   192
  0
VERTEX
  5
3DD
  8
0
 10
35.14300155639648
 20
98.88400268554688
 30
-8.371000289916992
 70
   192
  0
VERTEX
  5
3DE
  8
0
 10
39.38100051879883
 20
95.072998046875
 30
-8.371000289916992
 70
   192
  0
VERTEX
  5
3DF
  8
0
 10
60.51800155639648
 20
85.73500061035156
 30
-8.371000289916992
 70
   192
  0
VERTEX
  5
3E0
  8
0
 10
57.17200088500977
 20
85.56400299072266
 30
-8.371000289916992
 70
   192
  0
VERTEX
  5
3E1
  8
0
 10
81.40499877929688
 20
66.22799682617188
 30
-8.371000289916992
 70
   192
  0
VERTEX
  5
3E2
  8
0
 10
72.76599884033203
 20
72.76599884033203
 30
-8.371000289916992
 70
   192
  0
VERTEX
  5
3E3
  8
0
 10
102.9059982299805
 20
0.0
 30
-8.371000289916992
 70
   192
  0
VERTEX
  5
3E4
  8
0
 10
104.943000793457
 20
0.0
 30
-8.371000289916992
 70
   192
  0
VERTEX
  5
3E5
  8
0
 10
103.9649963378906
 20
-14.28999996185303
 30
-8.371000289916992
 70
   192
  0
VERTEX
  5
3E6
  8
0
 10
96.25499725341797
 20
-41.80899810791016
 30
-8.371000289916992
 70
   192
  0
VERTEX
  5
3E7
  8
0
 10
95.072998046875
 20
-39.38100051879883
 30
-8.371000289916992
 70
   192
  0
VERTEX
  5
3E8
  8
0
 10
100.9290008544922
 20
-20.07600021362305
 30
-8.371000289916992
 70
   192
  0
VERTEX
  5
3E9
  8
0
 10
81.40499877929688
 20
-66.22799682617188
 30
-8.371000289916992
 70
   192
  0
VERTEX
  5
3EA
  8
0
 10
85.56400299072266
 20
-57.17200088500977
 30
-8.371000289916992
 70
   192
  0
VERTEX
  5
3EB
  8
0
 10
-89.66500091552734
 20
54.52700042724609
 30
-8.371000289916992
 70
   192
  0
VERTEX
  5
3EC
  8
0
 10
-85.56400299072266
 20
57.17200088500977
 30
-8.371000289916992
 70
   192
  0
VERTEX
  5
3ED
  8
0
 10
-95.072998046875
 20
39.38100051879883
 30
-8.371000289916992
 70
   192
  0
VERTEX
  5
3EE
  8
0
 10
-71.62899780273438
 20
76.69599914550781
 30
-8.371000289916992
 70
   192
  0
VERTEX
  5
3EF
  8
0
 10
-72.76599884033203
 20
72.76599884033203
 30
-8.371000289916992
 70
   192
  0
VERTEX
  5
3F0
  8
0
 10
85.56400299072266
 20
57.17200088500977
 30
-8.371000289916992
 70
   192
  0
VERTEX
  5
3F1
  8
0
 10
96.25499725341797
 20
41.80899810791016
 30
-8.371000289916992
 70
   192
  0
VERTEX
  5
3F2
  8
0
 10
95.072998046875
 20
39.38100051879883
 30
-8.371000289916992
 70
   192
  0
VERTEX
  5
3F3
  8
0
 10
103.9649963378906
 20
14.28999996185303
 30
-8.371000289916992
 70
   192
  0
VERTEX
  5
3F4
  8
0
 10
100.9290008544922
 20
20.07600021362305
 30
-8.371000289916992
 70
   192
  0
VERTEX
  5
3F5
  8
0
 10
35.14300155639648
 20
-98.88400268554688
 30
-8.371000289916992
 70
   192
  0
VERTEX
  5
3F6
  8
0
 10
7.162000179290771
 20
-104.697998046875
 30
-8.371000289916992
 70
   192
  0
VERTEX
  5
3F7
  8
0
 10
20.07600021362305
 20
-100.9290008544922
 30
-8.371000289916992
 70
   192
  0
VERTEX
  5
3F8
  8
0
 10
-57.17200088500977
 20
85.56400299072266
 30
-8.371000289916992
 70
   192
  0
VERTEX
  5
3F9
  8
0
 10
72.76599884033203
 20
-72.76599884033203
 30
-8.371000289916992
 70
   192
  0
VERTEX
  5
3FA
  8
0
 10
60.51800155639648
 20
-85.73500061035156
 30
-8.371000289916992
 70
   192
  0
VERTEX
  5
3FB
  8
0
 10
57.17200088500977
 20
-85.56400299072266
 30
-8.371000289916992
 70
   192
  0
VERTEX
  5
3FC
  8
0
 10
39.38100051879883
 20
-95.072998046875
 30
-8.371000289916992
 70
   192
  0
VERTEX
  5
3FD
  8
0
 10
0.0
 20
-102.9059982299805
 30
-8.371000289916992
 70
   192
  0
VERTEX
  5
3FE
  8
0
 10
-21.35099983215332
 20
-102.7480010986328
 30
-8.371000289916992
 70
   192
  0
VERTEX
  5
3FF
  8
0
 10
-20.07600021362305
 20
-100.9290008544922
 30
-8.371000289916992
 70
   192
  0
VERTEX
  5
400
  8
0
 10
-48.28099822998047
 20
-93.177001953125
 30
-8.371000289916992
 70
   192
  0
VERTEX
  5
401
  8
0
 10
-39.38100051879883
 20
-95.072998046875
 30
-8.371000289916992
 70
   192
  0
VERTEX
  5
402
  8
0
 10
-71.62899780273438
 20
-76.69599914550781
 30
-8.371000289916992
 70
   192
  0
VERTEX
  5
403
  8
0
 10
-72.76599884033203
 20
-72.76599884033203
 30
-8.371000289916992
 70
   192
  0
VERTEX
  5
404
  8
0
 10
-57.17200088500977
 20
-85.56400299072266
 30
-8.371000289916992
 70
   192
  0
VERTEX
  5
405
  8
0
 10
-89.66500091552734
 20
-54.52700042724609
 30
-8.371000289916992
 70
   192
  0
VERTEX
  5
406
  8
0
 10
-85.56400299072266
 20
-57.17200088500977
 30
-8.371000289916992
 70
   192
  0
VERTEX
  5
407
  8
0
 10
-101.0510025024414
 20
-28.3129997253418
 30
-8.371000289916992
 70
   192
  0
VERTEX
  5
408
  8
0
 10
-95.072998046875
 20
-39.38100051879883
 30
-8.371000289916992
 70
   192
  0
VERTEX
  5
409
  8
0
 10
-104.943000793457
 20
0.0
 30
-8.371000289916992
 70
   192
  0
VERTEX
  5
40A
  8
0
 10
-102.9059982299805
 20
0.0
 30
-8.371000289916992
 70
   192
  0
VERTEX
  5
40B
  8
0
 10
-100.9290008544922
 20
-20.07600021362305
 30
-8.371000289916992
 70
   192
  0
VERTEX
  5
40C
  8
0
 10
-101.0510025024414
 20
28.3129997253418
 30
-8.371000289916992
 70
   192
  0
VERTEX
  5
40D
  8
0
 10
-100.9290008544922
 20
20.07600021362305
 30
-8.371000289916992
 70
   192
  0
VERTEX
  5
40E
  8
0
 62
     9
 10
0.0
 20
0.0
 30
0.0
 70
   128
 71
     3
 72
     2
 73
     1
  0
VERTEX
  5
40F
  8
0
 62
     9
 10
0.0
 20
0.0
 30
0.0
 70
   128
 71
     5
 72
     4
 73
     1
  0
VERTEX
  5
410
  8
0
 62
     9
 10
0.0
 20
0.0
 30
0.0
 70
   128
 71
     1
 72
     2
 73
     5
  0
VERTEX
  5
411
  8
0
 62
     9
 10
0.0
 20
0.0
 30
0.0
 70
   128
 71
     1
 72
     6
 73
     3
  0
VERTEX
  5
412
  8
0
 62
     9
 10
0.0
 20
0.0
 30
0.0
 70
   128
 71
     5
 72
     7
 73
     4
  0
VERTEX
  5
413
  8
0
 62
     9
 10
0.0
 20
0.0
 30
0.0
 70
   128
 71
     7
 72
     9
 73
     8
  0
VERTEX
  5
414
  8
0
 62
     9
 10
0.0
 20
0.0
 30
0.0
 70
   128
 71
     8
 72
     4
 73
     7
  0
VERTEX
  5
415
  8
0
 62
     9
 10
0.0
 20
0.0
 30
0.0
 70
   128
 71
     9
 72
    11
 73
    10
  0
VERTEX
  5
416
  8
0
 62
     9
 10
0.0
 20
0.0
 30
0.0
 70
   128
 71
    10
 72
     8
 73
     9
  0
VERTEX
  5
417
  8
0
 62
     9
 10
0.0
 20
0.0
 30
0.0
 70
   128
 71
    13
 72
    12
 73
    10
  0
VERTEX
  5
418
  8
0
 62
     9
 10
0.0
 20
0.0
 30
0.0
 70
   128
 71
    16
 72
    15
 73
    14
  0
VERTEX
  5
419
  8
0
 62
     9
 10
0.0
 20
0.0
 30
0.0
 70
   128
 71
    19
 72
    18
 73
    17
  0
VERTEX
  5
41A
  8
0
 62
     9
 10
0.0
 20
0.0
 30
0.0
 70
   128
 71
    10
 72
    11
 73
    13
  0
VERTEX
  5
41B
  8
0
 62
     9
 10
0.0
 20
0.0
 30
0.0
 70
   128
 71
    17
 72
    16
 73
    19
  0
VERTEX
  5
41C
  8
0
 62
     9
 10
0.0
 20
0.0
 30
0.0
 70
   128
 71
    21
 72
    20
 73
    17
  0
VERTEX
  5
41D
  8
0
 62
     9
 10
0.0
 20
0.0
 30
0.0
 70
   128
 71
    24
 72
    23
 73
    22
  0
VERTEX
  5
41E
  8
0
 62
     9
 10
0.0
 20
0.0
 30
0.0
 70
   128
 71
    23
 72
    26
 73
    25
  0
VERTEX
  5
41F
  8
0
 62
     9
 10
0.0
 20
0.0
 30
0.0
 70
   128
 71
    13
 72
    27
 73
    12
  0
VERTEX
  5
420
  8
0
 62
     9
 10
0.0
 20
0.0
 30
0.0
 70
   128
 71
    27
 72
    29
 73
    28
  0
VERTEX
  5
421
  8
0
 62
     9
 10
0.0
 20
0.0
 30
0.0
 70
   128
 71
    31
 72
    30
 73
    28
  0
VERTEX
  5
422
  8
0
 62
     9
 10
0.0
 20
0.0
 30
0.0
 70
   128
 71
    30
 72
    31
 73
    14
  0
VERTEX
  5
423
  8
0
 62
     9
 10
0.0
 20
0.0
 30
0.0
 70
   128
 71
    17
 72
    18
 73
    21
  0
VERTEX
  5
424
  8
0
 62
     9
 10
0.0
 20
0.0
 30
0.0
 70
   128
 71
    34
 72
    33
 73
    32
  0
VERTEX
  5
425
  8
0
 62
     9
 10
0.0
 20
0.0
 30
0.0
 70
   128
 71
    25
 72
    22
 73
    23
  0
VERTEX
  5
426
  8
0
 62
     9
 10
0.0
 20
0.0
 30
0.0
 70
   128
 71
    35
 72
     6
 73
    25
  0
VERTEX
  5
427
  8
0
 62
     9
 10
0.0
 20
0.0
 30
0.0
 70
   128
 71
    28
 72
    12
 73
    27
  0
VERTEX
  5
428
  8
0
 62
     9
 10
0.0
 20
0.0
 30
0.0
 70
   128
 71
    14
 72
    15
 73
    30
  0
VERTEX
  5
429
  8
0
 62
     9
 10
0.0
 20
0.0
 30
0.0
 70
   128
 71
    21
 72
    36
 73
    20
  0
VERTEX
  5
42A
  8
0
 62
     9
 10
0.0
 20
0.0
 30
0.0
 70
   128
 71
    36
 72
    38
 73
    37
  0
VERTEX
  5
42B
  8
0
 62
     9
 10
0.0
 20
0.0
 30
0.0
 70
   128
 71
    39
 72
    32
 73
    37
  0
VERTEX
  5
42C
  8
0
 62
     9
 10
0.0
 20
0.0
 30
0.0
 70
   128
 71
    34
 72
    40
 73
    33
  0
VERTEX
  5
42D
  8
0
 62
     9
 10
0.0
 20
0.0
 30
0.0
 70
   128
 71
    25
 72
    26
 73
    35
  0
VERTEX
  5
42E
  8
0
 62
     9
 10
0.0
 20
0.0
 30
0.0
 70
   128
 71
    28
 72
    29
 73
    31
  0
VERTEX
  5
42F
  8
0
 62
     9
 10
0.0
 20
0.0
 30
0.0
 70
   128
 71
    37
 72
    20
 73
    36
  0
VERTEX
  5
430
  8
0
 62
     9
 10
0.0
 20
0.0
 30
0.0
 70
   128
 71
    32
 72
    39
 73
    34
  0
VERTEX
  5
431
  8
0
 62
     9
 10
0.0
 20
0.0
 30
0.0
 70
   128
 71
     6
 72
    35
 73
     3
  0
VERTEX
  5
432
  8
0
 62
     9
 10
0.0
 20
0.0
 30
0.0
 70
   128
 71
    37
 72
    38
 73
    39
  0
VERTEX
  5
433
  8
0
 62
     9
 10
0.0
 20
0.0
 30
0.0
 70
   128
 71
    40
 72
    42
 73
    41
  0
VERTEX
  5
434
  8
0
 62
     9
 10
0.0
 20
0.0
 30
0.0
 70
   128
 71
    44
 72
    43
 73
    41
  0
VERTEX
  5
435
  8
0
 62
     9
 10
0.0
 20
0.0
 30
0.0
 70
   128
 71
    14
 72
    19
 73
    16
  0
VERTEX
  5
436
  8
0
 62
     9
 10
0.0
 20
0.0
 30
0.0
 70
   128
 71
    41
 72
    42
 73
    44
  0
VERTEX
  5
437
  8
0
 62
     9
 10
0.0
 20
0.0
 30
0.0
 70
   128
 71
    47
 72
    46
 73
    45
  0
VERTEX
  5
438
  8
0
 62
     9
 10
0.0
 20
0.0
 30
0.0
 70
   128
 71
    49
 72
    48
 73
    45
  0
VERTEX
  5
439
  8
0
 62
     9
 10
0.0
 20
0.0
 30
0.0
 70
   128
 71
    51
 72
    50
 73
    48
  0
VERTEX
  5
43A
  8
0
 62
     9
 10
0.0
 20
0.0
 30
0.0
 70
   128
 71
    54
 72
    53
 73
    52
  0
VERTEX
  5
43B
  8
0
 62
     9
 10
0.0
 20
0.0
 30
0.0
 70
   128
 71
    41
 72
    33
 73
    40
  0
VERTEX
  5
43C
  8
0
 62
     9
 10
0.0
 20
0.0
 30
0.0
 70
   128
 71
    45
 72
    43
 73
    47
  0
VERTEX
  5
43D
  8
0
 62
     9
 10
0.0
 20
0.0
 30
0.0
 70
   128
 71
    48
 72
    49
 73
    51
  0
VERTEX
  5
43E
  8
0
 62
     9
 10
0.0
 20
0.0
 30
0.0
 70
   128
 71
    52
 72
    50
 73
    54
  0
VERTEX
  5
43F
  8
0
 62
     9
 10
0.0
 20
0.0
 30
0.0
 70
   128
 71
    56
 72
    55
 73
    52
  0
VERTEX
  5
440
  8
0
 62
     9
 10
0.0
 20
0.0
 30
0.0
 70
   128
 71
    43
 72
    44
 73
    47
  0
VERTEX
  5
441
  8
0
 62
     9
 10
0.0
 20
0.0
 30
0.0
 70
   128
 71
    50
 72
    51
 73
    54
  0
VERTEX
  5
442
  8
0
 62
     9
 10
0.0
 20
0.0
 30
0.0
 70
   128
 71
    56
 72
    24
 73
    55
  0
VERTEX
  5
443
  8
0
 62
     9
 10
0.0
 20
0.0
 30
0.0
 70
   128
 71
    45
 72
    46
 73
    49
  0
VERTEX
  5
444
  8
0
 62
     9
 10
0.0
 20
0.0
 30
0.0
 70
   128
 71
    22
 72
    55
 73
    24
  0
VERTEX
  5
445
  8
0
 62
     9
 10
0.0
 20
0.0
 30
0.0
 70
   128
 71
    52
 72
    53
 73
    56
  0
SEQEND
  5
446
  8
0
 62
     9
  0
ENDBLK
  5
449
  8
0
  0
BLOCK
  8
0
  2
E3_NODE_6_
 70
     0
 10
0.0
 20
0.0
 30
0.0
  3
E3_NODE_6_
  1

  0
POLYLINE
  5
44B
  8
0
 62
     9
 66
     1
 10
0.0
 20
0.0
 30
0.0
 70
    64
 71
    48
 72
    48
  0
VERTEX
  5
44C
  8
0
 10
-102.697998046875
 20
28.77499961853027
 30
-9.850000381469727
 70
   192
  0
VERTEX
  5
44D
  8
0
 10
-101.0510025024414
 20
28.3129997253418
 30
-8.371000289916992
 70
   192
  0
VERTEX
  5
44E
  8
0
 10
-104.943000793457
 20
0.0
 30
-8.371000289916992
 70
   192
  0
VERTEX
  5
44F
  8
0
 10
-91.1259994506836
 20
55.41500091552734
 30
-9.850000381469727
 70
   192
  0
VERTEX
  5
450
  8
0
 10
-89.66500091552734
 20
54.52700042724609
 30
-8.371000289916992
 70
   192
  0
VERTEX
  5
451
  8
0
 10
-72.7959976196289
 20
77.94599914550781
 30
-9.850000381469727
 70
   192
  0
VERTEX
  5
452
  8
0
 10
-71.62899780273438
 20
76.69599914550781
 30
-8.371000289916992
 70
   192
  0
VERTEX
  5
453
  8
0
 10
-49.06700134277344
 20
94.69499969482422
 30
-9.850000381469727
 70
   192
  0
VERTEX
  5
454
  8
0
 10
-48.28099822998047
 20
93.177001953125
 30
-8.371000289916992
 70
   192
  0
VERTEX
  5
455
  8
0
 10
-21.69899940490723
 20
104.4219970703125
 30
-9.850000381469727
 70
   192
  0
VERTEX
  5
456
  8
0
 10
-21.35099983215332
 20
102.7480010986328
 30
-8.371000289916992
 70
   192
  0
VERTEX
  5
457
  8
0
 10
7.277999877929688
 20
106.4039993286133
 30
-9.850000381469727
 70
   192
  0
VERTEX
  5
458
  8
0
 10
7.162000179290771
 20
104.697998046875
 30
-8.371000289916992
 70
   192
  0
VERTEX
  5
459
  8
0
 10
35.71599960327148
 20
100.495002746582
 30
-9.850000381469727
 70
   192
  0
VERTEX
  5
45A
  8
0
 10
35.14300155639648
 20
98.88400268554688
 30
-8.371000289916992
 70
   192
  0
VERTEX
  5
45B
  8
0
 10
61.50500106811523
 20
87.13200378417969
 30
-9.850000381469727
 70
   192
  0
VERTEX
  5
45C
  8
0
 10
60.51800155639648
 20
85.73500061035156
 30
-8.371000289916992
 70
   192
  0
VERTEX
  5
45D
  8
0
 10
82.73200225830078
 20
67.30699920654297
 30
-9.850000381469727
 70
   192
  0
VERTEX
  5
45E
  8
0
 10
81.40499877929688
 20
66.22799682617188
 30
-8.371000289916992
 70
   192
  0
VERTEX
  5
45F
  8
0
 10
97.822998046875
 20
42.49100112915039
 30
-9.850000381469727
 70
   192
  0
VERTEX
  5
460
  8
0
 10
96.25499725341797
 20
41.80899810791016
 30
-8.371000289916992
 70
   192
  0
VERTEX
  5
461
  8
0
 10
105.6589965820312
 20
14.52299976348877
 30
-9.850000381469727
 70
   192
  0
VERTEX
  5
462
  8
0
 10
103.9649963378906
 20
14.28999996185303
 30
-8.371000289916992
 70
   192
  0
VERTEX
  5
463
  8
0
 10
106.6529998779297
 20
0.0
 30
-9.850000381469727
 70
   192
  0
VERTEX
  5
464
  8
0
 10
104.943000793457
 20
0.0
 30
-8.371000289916992
 70
   192
  0
VERTEX
  5
465
  8
0
 10
105.6589965820312
 20
-14.52299976348877
 30
-9.850000381469727
 70
   192
  0
VERTEX
  5
466
  8
0
 10
103.9649963378906
 20
-14.28999996185303
 30
-8.371000289916992
 70
   192
  0
VERTEX
  5
467
  8
0
 10
97.822998046875
 20
-42.49100112915039
 30
-9.850000381469727
 70
   192
  0
VERTEX
  5
468
  8
0
 10
96.25499725341797
 20
-41.80899810791016
 30
-8.371000289916992
 70
   192
  0
VERTEX
  5
469
  8
0
 10
82.73200225830078
 20
-67.30699920654297
 30
-9.850000381469727
 70
   192
  0
VERTEX
  5
46A
  8
0
 10
81.40499877929688
 20
-66.22799682617188
 30
-8.371000289916992
 70
   192
  0
VERTEX
  5
46B
  8
0
 10
61.50500106811523
 20
-87.13200378417969
 30
-9.850000381469727
 70
   192
  0
VERTEX
  5
46C
  8
0
 10
60.51800155639648
 20
-85.73500061035156
 30
-8.371000289916992
 70
   192
  0
VERTEX
  5
46D
  8
0
 10
35.71599960327148
 20
-100.495002746582
 30
-9.850000381469727
 70
   192
  0
VERTEX
  5
46E
  8
0
 10
35.14300155639648
 20
-98.88400268554688
 30
-8.371000289916992
 70
   192
  0
VERTEX
  5
46F
  8
0
 10
7.277999877929688
 20
-106.4039993286133
 30
-9.850000381469727
 70
   192
  0
VERTEX
  5
470
  8
0
 10
7.162000179290771
 20
-104.697998046875
 30
-8.371000289916992
 70
   192
  0
VERTEX
  5
471
  8
0
 10
-21.69899940490723
 20
-104.4219970703125
 30
-9.850000381469727
 70
   192
  0
VERTEX
  5
472
  8
0
 10
-21.35099983215332
 20
-102.7480010986328
 30
-8.371000289916992
 70
   192
  0
VERTEX
  5
473
  8
0
 10
-49.06700134277344
 20
-94.69499969482422
 30
-9.850000381469727
 70
   192
  0
VERTEX
  5
474
  8
0
 10
-48.28099822998047
 20
-93.177001953125
 30
-8.371000289916992
 70
   192
  0
VERTEX
  5
475
  8
0
 10
-72.7959976196289
 20
-77.94599914550781
 30
-9.850000381469727
 70
   192
  0
VERTEX
  5
476
  8
0
 10
-71.62899780273438
 20
-76.69599914550781
 30
-8.371000289916992
 70
   192
  0
VERTEX
  5
477
  8
0
 10
-91.1259994506836
 20
-55.41500091552734
 30
-9.850000381469727
 70
   192
  0
VERTEX
  5
478
  8
0
 10
-89.66500091552734
 20
-54.52700042724609
 30
-8.371000289916992
 70
   192
  0
VERTEX
  5
479
  8
0
 10
-102.697998046875
 20
-28.77499961853027
 30
-9.850000381469727
 70
   192
  0
VERTEX
  5
47A
  8
0
 10
-101.0510025024414
 20
-28.3129997253418
 30
-8.371000289916992
 70
   192
  0
VERTEX
  5
47B
  8
0
 10
-106.6529998779297
 20
0.0
 30
-9.850000381469727
 70
   192
  0
VERTEX
  5
47C
  8
0
 62
     9
 10
0.0
 20
0.0
 30
0.0
 70
   128
 71
     3
 72
     2
 73
     1
  0
VERTEX
  5
47D
  8
0
 62
     9
 10
0.0
 20
0.0
 30
0.0
 70
   128
 71
     2
 72
     5
 73
     4
  0
VERTEX
  5
47E
  8
0
 62
     9
 10
0.0
 20
0.0
 30
0.0
 70
   128
 71
     5
 72
     7
 73
     6
  0
VERTEX
  5
47F
  8
0
 62
     9
 10
0.0
 20
0.0
 30
0.0
 70
   128
 71
     7
 72
     9
 73
     8
  0
VERTEX
  5
480
  8
0
 62
     9
 10
0.0
 20
0.0
 30
0.0
 70
   128
 71
     9
 72
    11
 73
    10
  0
VERTEX
  5
481
  8
0
 62
     9
 10
0.0
 20
0.0
 30
0.0
 70
   128
 71
    11
 72
    13
 73
    12
  0
VERTEX
  5
482
  8
0
 62
     9
 10
0.0
 20
0.0
 30
0.0
 70
   128
 71
    13
 72
    15
 73
    14
  0
VERTEX
  5
483
  8
0
 62
     9
 10
0.0
 20
0.0
 30
0.0
 70
   128
 71
    17
 72
    16
 73
    14
  0
VERTEX
  5
484
  8
0
 62
     9
 10
0.0
 20
0.0
 30
0.0
 70
   128
 71
    19
 72
    18
 73
    16
  0
VERTEX
  5
485
  8
0
 62
     9
 10
0.0
 20
0.0
 30
0.0
 70
   128
 71
    19
 72
    21
 73
    20
  0
VERTEX
  5
486
  8
0
 62
     9
 10
0.0
 20
0.0
 30
0.0
 70
   128
 71
    21
 72
    23
 73
    22
  0
VERTEX
  5
487
  8
0
 62
     9
 10
0.0
 20
0.0
 30
0.0
 70
   128
 71
    25
 72
    24
 73
    22
  0
VERTEX
  5
488
  8
0
 62
     9
 10
0.0
 20
0.0
 30
0.0
 70
   128
 71
    25
 72
    27
 73
    26
  0
VERTEX
  5
489
  8
0
 62
     9
 10
0.0
 20
0.0
 30
0.0
 70
   128
 71
    26
 72
    24
 73
    25
  0
VERTEX
  5
48A
  8
0
 62
     9
 10
0.0
 20
0.0
 30
0.0
 70
   128
 71
    27
 72
    29
 73
    28
  0
VERTEX
  5
48B
  8
0
 62
     9
 10
0.0
 20
0.0
 30
0.0
 70
   128
 71
    29
 72
    31
 73
    30
  0
VERTEX
  5
48C
  8
0
 62
     9
 10
0.0
 20
0.0
 30
0.0
 70
   128
 71
    31
 72
    33
 73
    32
  0
VERTEX
  5
48D
  8
0
 62
     9
 10
0.0
 20
0.0
 30
0.0
 70
   128
 71
    33
 72
    35
 73
    34
  0
VERTEX
  5
48E
  8
0
 62
     9
 10
0.0
 20
0.0
 30
0.0
 70
   128
 71
    35
 72
    37
 73
    36
  0
VERTEX
  5
48F
  8
0
 62
     9
 10
0.0
 20
0.0
 30
0.0
 70
   128
 71
    39
 72
    38
 73
    36
  0
VERTEX
  5
490
  8
0
 62
     9
 10
0.0
 20
0.0
 30
0.0
 70
   128
 71
    39
 72
    41
 73
    40
  0
VERTEX
  5
491
  8
0
 62
     9
 10
0.0
 20
0.0
 30
0.0
 70
   128
 71
    41
 72
    43
 73
    42
  0
VERTEX
  5
492
  8
0
 62
     9
 10
0.0
 20
0.0
 30
0.0
 70
   128
 71
    43
 72
    45
 73
    44
  0
VERTEX
  5
493
  8
0
 62
     9
 10
0.0
 20
0.0
 30
0.0
 70
   128
 71
    45
 72
    47
 73
    46
  0
VERTEX
  5
494
  8
0
 62
     9
 10
0.0
 20
0.0
 30
0.0
 70
   128
 71
     3
 72
    48
 73
    46
  0
VERTEX
  5
495
  8
0
 62
     9
 10
0.0
 20
0.0
 30
0.0
 70
   128
 71
    46
 72
    47
 73
     3
  0
VERTEX
  5
496
  8
0
 62
     9
 10
0.0
 20
0.0
 30
0.0
 70
   128
 71
    46
 72
    44
 73
    45
  0
VERTEX
  5
497
  8
0
 62
     9
 10
0.0
 20
0.0
 30
0.0
 70
   128
 71
    44
 72
    42
 73
    43
  0
VERTEX
  5
498
  8
0
 62
     9
 10
0.0
 20
0.0
 30
0.0
 70
   128
 71
    42
 72
    40
 73
    41
  0
VERTEX
  5
499
  8
0
 62
     9
 10
0.0
 20
0.0
 30
0.0
 70
   128
 71
    40
 72
    38
 73
    39
  0
VERTEX
  5
49A
  8
0
 62
     9
 10
0.0
 20
0.0
 30
0.0
 70
   128
 71
    36
 72
    37
 73
    39
  0
VERTEX
  5
49B
  8
0
 62
     9
 10
0.0
 20
0.0
 30
0.0
 70
   128
 71
    36
 72
    34
 73
    35
  0
VERTEX
  5
49C
  8
0
 62
     9
 10
0.0
 20
0.0
 30
0.0
 70
   128
 71
    34
 72
    32
 73
    33
  0
VERTEX
  5
49D
  8
0
 62
     9
 10
0.0
 20
0.0
 30
0.0
 70
   128
 71
    32
 72
    30
 73
    31
  0
VERTEX
  5
49E
  8
0
 62
     9
 10
0.0
 20
0.0
 30
0.0
 70
   128
 71
    30
 72
    28
 73
    29
  0
VERTEX
  5
49F
  8
0
 62
     9
 10
0.0
 20
0.0
 30
0.0
 70
   128
 71
    28
 72
    26
 73
    27
  0
VERTEX
  5
4A0
  8
0
 62
     9
 10
0.0
 20
0.0
 30
0.0
 70
   128
 71
    22
 72
    23
 73
    25
  0
VERTEX
  5
4A1
  8
0
 62
     9
 10
0.0
 20
0.0
 30
0.0
 70
   128
 71
    22
 72
    20
 73
    21
  0
VERTEX
  5
4A2
  8
0
 62
     9
 10
0.0
 20
0.0
 30
0.0
 70
   128
 71
    20
 72
    18
 73
    19
  0
VERTEX
  5
4A3
  8
0
 62
     9
 10
0.0
 20
0.0
 30
0.0
 70
   128
 71
    16
 72
    17
 73
    19
  0
VERTEX
  5
4A4
  8
0
 62
     9
 10
0.0
 20
0.0
 30
0.0
 70
   128
 71
    14
 72
    15
 73
    17
  0
VERTEX
  5
4A5
  8
0
 62
     9
 10
0.0
 20
0.0
 30
0.0
 70
   128
 71
    14
 72
    12
 73
    13
  0
VERTEX
  5
4A6
  8
0
 62
     9
 10
0.0
 20
0.0
 30
0.0
 70
   128
 71
    12
 72
    10
 73
    11
  0
VERTEX
  5
4A7
  8
0
 62
     9
 10
0.0
 20
0.0
 30
0.0
 70
   128
 71
    10
 72
     8
 73
     9
  0
VERTEX
  5
4A8
  8
0
 62
     9
 10
0.0
 20
0.0
 30
0.0
 70
   128
 71
     8
 72
     6
 73
     7
  0
VERTEX
  5
4A9
  8
0
 62
     9
 10
0.0
 20
0.0
 30
0.0
 70
   128
 71
     6
 72
     4
 73
     5
  0
VERTEX
  5
4AA
  8
0
 62
     9
 10
0.0
 20
0.0
 30
0.0
 70
   128
 71
     4
 72
     1
 73
     2
  0
VERTEX
  5
4AB
  8
0
 62
     9
 10
0.0
 20
0.0
 30
0.0
 70
   128
 71
     1
 72
    48
 73
     3
  0
SEQEND
  5
4AC
  8
0
 62
     9
  0
ENDBLK
  5
4AF
  8
0
  0
BLOCK
  8
0
  2
E3_NODE_7_
 70
     0
 10
0.0
 20
0.0
 30
0.0
  3
E3_NODE_7_
  1

  0
POLYLINE
  5
4B1
  8
0
 62
     9
 66
     1
 10
0.0
 20
0.0
 30
0.0
 70
    64
 71
    28
 72
    28
  0
VERTEX
  5
4B2
  8
0
 10
126.640998840332
 20
126.640998840332
 30
-9.850000381469727
 70
   192
  0
VERTEX
  5
4B3
  8
0
 10
126.640998840332
 20
-126.640998840332
 30
-9.850000381469727
 70
   192
  0
VERTEX
  5
4B4
  8
0
 10
106.6529998779297
 20
0.0
 30
-9.850000381469727
 70
   192
  0
VERTEX
  5
4B5
  8
0
 10
105.6589965820312
 20
-14.52299976348877
 30
-9.850000381469727
 70
   192
  0
VERTEX
  5
4B6
  8
0
 10
61.50500106811523
 20
87.13200378417969
 30
-9.850000381469727
 70
   192
  0
VERTEX
  5
4B7
  8
0
 10
35.71599960327148
 20
100.495002746582
 30
-9.850000381469727
 70
   192
  0
VERTEX
  5
4B8
  8
0
 10
97.822998046875
 20
42.49100112915039
 30
-9.850000381469727
 70
   192
  0
VERTEX
  5
4B9
  8
0
 10
82.73200225830078
 20
67.30699920654297
 30
-9.850000381469727
 70
   192
  0
VERTEX
  5
4BA
  8
0
 10
97.822998046875
 20
-42.49100112915039
 30
-9.850000381469727
 70
   192
  0
VERTEX
  5
4BB
  8
0
 10
105.6589965820312
 20
14.52299976348877
 30
-9.850000381469727
 70
   192
  0
VERTEX
  5
4BC
  8
0
 10
35.71599960327148
 20
-100.495002746582
 30
-9.850000381469727
 70
   192
  0
VERTEX
  5
4BD
  8
0
 10
61.50500106811523
 20
-87.13200378417969
 30
-9.850000381469727
 70
   192
  0
VERTEX
  5
4BE
  8
0
 10
-126.640998840332
 20
126.640998840332
 30
-9.850000381469727
 70
   192
  0
VERTEX
  5
4BF
  8
0
 10
-91.1259994506836
 20
55.41500091552734
 30
-9.850000381469727
 70
   192
  0
VERTEX
  5
4C0
  8
0
 10
-102.697998046875
 20
28.77499961853027
 30
-9.850000381469727
 70
   192
  0
VERTEX
  5
4C1
  8
0
 10
-49.06700134277344
 20
94.69499969482422
 30
-9.850000381469727
 70
   192
  0
VERTEX
  5
4C2
  8
0
 10
-72.7959976196289
 20
77.94599914550781
 30
-9.850000381469727
 70
   192
  0
VERTEX
  5
4C3
  8
0
 10
7.277999877929688
 20
106.4039993286133
 30
-9.850000381469727
 70
   192
  0
VERTEX
  5
4C4
  8
0
 10
82.73200225830078
 20
-67.30699920654297
 30
-9.850000381469727
 70
   192
  0
VERTEX
  5
4C5
  8
0
 10
7.277999877929688
 20
-106.4039993286133
 30
-9.850000381469727
 70
   192
  0
VERTEX
  5
4C6
  8
0
 10
-126.640998840332
 20
-126.640998840332
 30
-9.850000381469727
 70
   192
  0
VERTEX
  5
4C7
  8
0
 10
-21.69899940490723
 20
-104.4219970703125
 30
-9.850000381469727
 70
   192
  0
VERTEX
  5
4C8
  8
0
 10
-72.7959976196289
 20
-77.94599914550781
 30
-9.850000381469727
 70
   192
  0
VERTEX
  5
4C9
  8
0
 10
-49.06700134277344
 20
-94.69499969482422
 30
-9.850000381469727
 70
   192
  0
VERTEX
  5
4CA
  8
0
 10
-21.69899940490723
 20
104.4219970703125
 30
-9.850000381469727
 70
   192
  0
VERTEX
  5
4CB
  8
0
 10
-102.697998046875
 20
-28.77499961853027
 30
-9.850000381469727
 70
   192
  0
VERTEX
  5
4CC
  8
0
 10
-91.1259994506836
 20
-55.41500091552734
 30
-9.850000381469727
 70
   192
  0
VERTEX
  5
4CD
  8
0
 10
-106.6529998779297
 20
0.0
 30
-9.850000381469727
 70
   192
  0
VERTEX
  5
4CE
  8
0
 62
     9
 10
0.0
 20
0.0
 30
0.0
 70
   128
 71
     3
 72
     2
 73
     1
  0
VERTEX
  5
4CF
  8
0
 62
     9
 10
0.0
 20
0.0
 30
0.0
 70
   128
 71
     3
 72
     4
 73
     2
  0
VERTEX
  5
4D0
  8
0
 62
     9
 10
0.0
 20
0.0
 30
0.0
 70
   128
 71
     6
 72
     5
 73
     1
  0
VERTEX
  5
4D1
  8
0
 62
     9
 10
0.0
 20
0.0
 30
0.0
 70
   128
 71
     8
 72
     7
 73
     1
  0
VERTEX
  5
4D2
  8
0
 62
     9
 10
0.0
 20
0.0
 30
0.0
 70
   128
 71
     4
 72
     9
 73
     2
  0
VERTEX
  5
4D3
  8
0
 62
     9
 10
0.0
 20
0.0
 30
0.0
 70
   128
 71
     1
 72
     5
 73
     8
  0
VERTEX
  5
4D4
  8
0
 62
     9
 10
0.0
 20
0.0
 30
0.0
 70
   128
 71
     1
 72
    10
 73
     3
  0
VERTEX
  5
4D5
  8
0
 62
     9
 10
0.0
 20
0.0
 30
0.0
 70
   128
 71
     1
 72
     7
 73
    10
  0
VERTEX
  5
4D6
  8
0
 62
     9
 10
0.0
 20
0.0
 30
0.0
 70
   128
 71
    12
 72
    11
 73
     2
  0
VERTEX
  5
4D7
  8
0
 62
     9
 10
0.0
 20
0.0
 30
0.0
 70
   128
 71
    15
 72
    14
 73
    13
  0
VERTEX
  5
4D8
  8
0
 62
     9
 10
0.0
 20
0.0
 30
0.0
 70
   128
 71
    17
 72
    16
 73
    13
  0
VERTEX
  5
4D9
  8
0
 62
     9
 10
0.0
 20
0.0
 30
0.0
 70
   128
 71
    18
 72
     1
 73
    13
  0
VERTEX
  5
4DA
  8
0
 62
     9
 10
0.0
 20
0.0
 30
0.0
 70
   128
 71
     9
 72
    19
 73
     2
  0
VERTEX
  5
4DB
  8
0
 62
     9
 10
0.0
 20
0.0
 30
0.0
 70
   128
 71
    11
 72
    20
 73
     2
  0
VERTEX
  5
4DC
  8
0
 62
     9
 10
0.0
 20
0.0
 30
0.0
 70
   128
 71
    20
 72
    22
 73
    21
  0
VERTEX
  5
4DD
  8
0
 62
     9
 10
0.0
 20
0.0
 30
0.0
 70
   128
 71
    24
 72
    23
 73
    21
  0
VERTEX
  5
4DE
  8
0
 62
     9
 10
0.0
 20
0.0
 30
0.0
 70
   128
 71
    13
 72
    14
 73
    17
  0
VERTEX
  5
4DF
  8
0
 62
     9
 10
0.0
 20
0.0
 30
0.0
 70
   128
 71
    13
 72
    25
 73
    18
  0
VERTEX
  5
4E0
  8
0
 62
     9
 10
0.0
 20
0.0
 30
0.0
 70
   128
 71
     2
 72
    19
 73
    12
  0
VERTEX
  5
4E1
  8
0
 62
     9
 10
0.0
 20
0.0
 30
0.0
 70
   128
 71
    21
 72
    22
 73
    24
  0
VERTEX
  5
4E2
  8
0
 62
     9
 10
0.0
 20
0.0
 30
0.0
 70
   128
 71
    13
 72
    16
 73
    25
  0
VERTEX
  5
4E3
  8
0
 62
     9
 10
0.0
 20
0.0
 30
0.0
 70
   128
 71
    21
 72
     2
 73
    20
  0
VERTEX
  5
4E4
  8
0
 62
     9
 10
0.0
 20
0.0
 30
0.0
 70
   128
 71
    27
 72
    26
 73
    21
  0
VERTEX
  5
4E5
  8
0
 62
     9
 10
0.0
 20
0.0
 30
0.0
 70
   128
 71
     1
 72
    18
 73
     6
  0
VERTEX
  5
4E6
  8
0
 62
     9
 10
0.0
 20
0.0
 30
0.0
 70
   128
 71
    26
 72
    28
 73
    21
  0
VERTEX
  5
4E7
  8
0
 62
     9
 10
0.0
 20
0.0
 30
0.0
 70
   128
 71
    21
 72
    23
 73
    27
  0
VERTEX
  5
4E8
  8
0
 62
     9
 10
0.0
 20
0.0
 30
0.0
 70
   128
 71
    13
 72
    28
 73
    15
  0
VERTEX
  5
4E9
  8
0
 62
     9
 10
0.0
 20
0.0
 30
0.0
 70
   128
 71
    13
 72
    21
 73
    28
  0
SEQEND
  5
4EA
  8
0
 62
     9
  0
ENDBLK
  5
4ED
  8
0
  0
BLOCK
  8
0
  2
E3_NODE_8_
 70
     0
 10
0.0
 20
0.0
 30
0.0
  3
E3_NODE_8_
  1

  0
POLYLINE
  5
4EF
  8
0
 62
     9
 66
     1
 10
0.0
 20
0.0
 30
0.0
 70
    64
 71
     4
 72
     2
  0
VERTEX
  5
4F0
  8
0
 10
-126.8499984741211
 20
-126.8499984741211
 30
-1.850000023841858
 70
   192
  0
VERTEX
  5
4F1
  8
0
 10
-126.640998840332
 20
-126.640998840332
 30
-9.850000381469727
 70
   192
  0
VERTEX
  5
4F2
  8
0
 10
126.640998840332
 20
-126.640998840332
 30
-9.850000381469727
 70
   192
  0
VERTEX
  5
4F3
  8
0
 10
126.8499984741211
 20
-126.8499984741211
 30
-1.850000023841858
 70
   192
  0
VERTEX
  5
4F4
  8
0
 62
     9
 10
0.0
 20
0.0
 30
0.0
 70
   128
 71
     3
 72
     2
 73
     1
  0
VERTEX
  5
4F5
  8
0
 62
     9
 10
0.0
 20
0.0
 30
0.0
 70
   128
 71
     1
 72
     4
 73
     3
  0
SEQEND
  5
4F6
  8
0
 62
     9
  0
ENDBLK
  5
4F9
  8
0
  0
BLOCK
  8
0
  2
E3_NODE_9_
 70
     0
 10
0.0
 20
0.0
 30
0.0
  3
E3_NODE_9_
  1

  0
POLYLINE
  5
4FB
  8
0
 62
     9
 66
     1
 10
0.0
 20
0.0
 30
0.0
 70
    64
 71
     4
 72
     2
  0
VERTEX
  5
4FC
  8
0
 10
126.8499984741211
 20
-126.8499984741211
 30
-1.850000023841858
 70
   192
  0
VERTEX
  5
4FD
  8
0
 10
126.640998840332
 20
-126.640998840332
 30
-9.850000381469727
 70
   192
  0
VERTEX
  5
4FE
  8
0
 10
126.640998840332
 20
126.640998840332
 30
-9.850000381469727
 70
   192
  0
VERTEX
  5
4FF
  8
0
 10
126.8499984741211
 20
126.8499984741211
 30
-1.850000023841858
 70
   192
  0
VERTEX
  5
500
  8
0
 62
     9
 10
0.0
 20
0.0
 30
0.0
 70
   128
 71
     3
 72
     2
 73
     1
  0
VERTEX
  5
501
  8
0
 62
     9
 10
0.0
 20
0.0
 30
0.0
 70
   128
 71
     1
 72
     4
 73
     3
  0
SEQEND
  5
502
  8
0
 62
     9
  0
ENDBLK
  5
505
  8
0
  0
BLOCK
  8
0
  2
E3_NODE_10_
 70
     0
 10
0.0
 20
0.0
 30
0.0
  3
E3_NODE_10_
  1

  0
POLYLINE
  5
507
  8
0
 62
     9
 66
     1
 10
0.0
 20
0.0
 30
0.0
 70
    64
 71
     4
 72
     2
  0
VERTEX
  5
508
  8
0
 10
126.8499984741211
 20
126.8499984741211
 30
-1.850000023841858
 70
   192
  0
VERTEX
  5
509
  8
0
 10
126.640998840332
 20
126.640998840332
 30
-9.850000381469727
 70
   192
  0
VERTEX
  5
50A
  8
0
 10
-126.640998840332
 20
126.640998840332
 30
-9.850000381469727
 70
   192
  0
VERTEX
  5
50B
  8
0
 10
-126.8499984741211
 20
126.8499984741211
 30
-1.850000023841858
 70
   192
  0
VERTEX
  5
50C
  8
0
 62
     9
 10
0.0
 20
0.0
 30
0.0
 70
   128
 71
     3
 72
     2
 73
     1
  0
VERTEX
  5
50D
  8
0
 62
     9
 10
0.0
 20
0.0
 30
0.0
 70
   128
 71
     1
 72
     4
 73
     3
  0
SEQEND
  5
50E
  8
0
 62
     9
  0
ENDBLK
  5
511
  8
0
  0
BLOCK
  8
0
  2
E3_NODE_11_
 70
     0
 10
0.0
 20
0.0
 30
0.0
  3
E3_NODE_11_
  1

  0
POLYLINE
  5
513
  8
0
 62
     9
 66
     1
 10
0.0
 20
0.0
 30
0.0
 70
    64
 71
     4
 72
     2
  0
VERTEX
  5
514
  8
0
 10
-126.8499984741211
 20
126.8499984741211
 30
-1.850000023841858
 70
   192
  0
VERTEX
  5
515
  8
0
 10
-126.640998840332
 20
126.640998840332
 30
-9.850000381469727
 70
   192
  0
VERTEX
  5
516
  8
0
 10
-126.640998840332
 20
-126.640998840332
 30
-9.850000381469727
 70
   192
  0
VERTEX
  5
517
  8
0
 10
-126.8499984741211
 20
-126.8499984741211
 30
-1.850000023841858
 70
   192
  0
VERTEX
  5
518
  8
0
 62
     9
 10
0.0
 20
0.0
 30
0.0
 70
   128
 71
     3
 72
     2
 73
     1
  0
VERTEX
  5
519
  8
0
 62
     9
 10
0.0
 20
0.0
 30
0.0
 70
   128
 71
     1
 72
     4
 73
     3
  0
SEQEND
  5
51A
  8
0
 62
     9
  0
ENDBLK
  5
51D
  8
0
  0
BLOCK
  8
0
  2
E3_NODE_12_
 70
     0
 10
0.0
 20
0.0
 30
0.0
  3
E3_NODE_12_
  1

  0
POLYLINE
  5
51F
  8
0
 62
     9
 66
     1
 10
0.0
 20
0.0
 30
0.0
 70
    64
 71
     4
 72
     2
  0
VERTEX
  5
520
  8
0
 10
-126.8499984741211
 20
-126.8499984741211
 30
-1.850000023841858
 70
   192
  0
VERTEX
  5
521
  8
0
 10
126.8499984741211
 20
-126.8499984741211
 30
-1.850000023841858
 70
   192
  0
VERTEX
  5
522
  8
0
 10
126.8499984741211
 20
126.8499984741211
 30
-1.850000023841858
 70
   192
  0
VERTEX
  5
523
  8
0
 10
-126.8499984741211
 20
126.8499984741211
 30
-1.850000023841858
 70
   192
  0
VERTEX
  5
524
  8
0
 62
     9
 10
0.0
 20
0.0
 30
0.0
 70
   128
 71
     3
 72
     2
 73
     1
  0
VERTEX
  5
525
  8
0
 62
     9
 10
0.0
 20
0.0
 30
0.0
 70
   128
 71
     1
 72
     4
 73
     3
  0
SEQEND
  5
526
  8
0
 62
     9
  0
ENDBLK
  5
529
  8
0
  0
ENDSEC
  0
SECTION
  2
ENTITIES
  0
INSERT
  5
7C
  8
LAYER_1
  2
E3_NODE
 10
0.0
 20
0.0
 30
0.0
  0
INSERT
  5
18D
  8
LAYER_1
  2
E3_NODE_1_
 10
0.0
 20
0.0
 30
0.0
  0
INSERT
  5
255
  8
LAYER_1
  2
E3_NODE_2_
 10
0.0
 20
0.0
 30
0.0
  0
INSERT
  5
31F
  8
LAYER_1
  2
E3_NODE_3_
 10
0.0
 20
0.0
 30
0.0
  0
INSERT
  5
3D1
  8
LAYER_1
  2
E3_NODE_4_
 10
0.0
 20
0.0
 30
0.0
  0
INSERT
  5
447
  8
LAYER_1
  2
E3_NODE_5_
 10
0.0
 20
0.0
 30
0.0
  0
INSERT
  5
4AD
  8
LAYER_1
  2
E3_NODE_6_
 10
0.0
 20
0.0
 30
0.0
  0
INSERT
  5
4EB
  8
LAYER_1
  2
E3_NODE_7_
 10
0.0
 20
0.0
 30
0.0
  0
INSERT
  5
4F7
  8
LAYER_1
  2
E3_NODE_8_
 10
0.0
 20
0.0
 30
0.0
  0
INSERT
  5
503
  8
LAYER_1
  2
E3_NODE_9_
 10
0.0
 20
0.0
 30
0.0
  0
INSERT
  5
50F
  8
LAYER_1
  2
E3_NODE_10_
 10
0.0
 20
0.0
 30
0.0
  0
INSERT
  5
51B
  8
LAYER_1
  2
E3_NODE_11_
 10
0.0
 20
0.0
 30
0.0
  0
INSERT
  5
527
  8
LAYER_1
  2
E3_NODE_12_
 10
0.0
 20
0.0
 30
0.0
  0
ENDSEC
  0
EOF
