  0
SECTION
  2
HEADER
  9
$ACADVER
  1
AC1015
  9
$ACADMAINTVER
 70
     6
  9
$DWGCODEPAGE
  3
ANSI_1252
  9
$INSBASE
 10
0.0
 20
0.0
 30
0.0
  9
$EXTMIN
 10
0.0
 20
0.0
 30
0.0
  9
$EXTMAX
 10
1682.0
 20
2378.0
 30
0.0
  9
$LIMMIN
 10
0.0
 20
0.0
  9
$LIMMAX
 10
1682.0
 20
2378.0
  9
$ORTHOMODE
 70
     0
  9
$REGENMODE
 70
     1
  9
$FILLMODE
 70
     1
  9
$QTEXTMODE
 70
     0
  9
$MIRRTEXT
 70
     1
  9
$LTSCALE
 40
1.0
  9
$ATTMODE
 70
     1
  9
$TEXTSIZE
 40
2.5
  9
$TRACEWID
 40
1.0
  9
$TEXTSTYLE
  7
Standard
  9
$CLAYER
  8
0
  9
$CELTYPE
  6
ByLayer
  9
$CECOLOR
 62
   256
  9
$CELTSCALE
 40
1.0
  9
$DISPSILH
 70
     0
  9
$DIMSCALE
 40
1.0
  9
$DIMASZ
 40
2.5
  9
$DIMEXO
 40
0.625
  9
$DIMDLI
 40
3.75
  9
$DIMRND
 40
0.0
  9
$DIMDLE
 40
0.0
  9
$DIMEXE
 40
1.25
  9
$DIMTP
 40
0.0
  9
$DIMTM
 40
0.0
  9
$DIMTXT
 40
2.5
  9
$DIMCEN
 40
2.5
  9
$DIMTSZ
 40
0.0
  9
$DIMTOL
 70
     0
  9
$DIMLIM
 70
     0
  9
$DIMTIH
 70
     0
  9
$DIMTOH
 70
     0
  9
$DIMSE1
 70
     0
  9
$DIMSE2
 70
     0
  9
$DIMTAD
 70
     1
  9
$DIMZIN
 70
     8
  9
$DIMBLK
  1

  9
$DIMASO
 70
     1
  9
$DIMSHO
 70
     1
  9
$DIMPOST
  1

  9
$DIMAPOST
  1

  9
$DIMALT
 70
     0
  9
$DIMALTD
 70
     3
  9
$DIMALTF
 40
0.0393700787
  9
$DIMLFAC
 40
1.0
  9
$DIMTOFL
 70
     1
  9
$DIMTVP
 40
0.0
  9
$DIMTIX
 70
     0
  9
$DIMSOXD
 70
     0
  9
$DIMSAH
 70
     0
  9
$DIMBLK1
  1

  9
$DIMBLK2
  1

  9
$DIMSTYLE
  2
ISO-25
  9
$DIMCLRD
 70
     0
  9
$DIMCLRE
 70
     0
  9
$DIMCLRT
 70
     0
  9
$DIMTFAC
 40
1.0
  9
$DIMGAP
 40
0.625
  9
$DIMJUST
 70
     0
  9
$DIMSD1
 70
     0
  9
$DIMSD2
 70
     0
  9
$DIMTOLJ
 70
     0
  9
$DIMTZIN
 70
     8
  9
$DIMALTZ
 70
     0
  9
$DIMALTTZ
 70
     0
  9
$DIMUPT
 70
     0
  9
$DIMDEC
 70
     2
  9
$DIMTDEC
 70
     2
  9
$DIMALTU
 70
     2
  9
$DIMALTTD
 70
     3
  9
$DIMTXSTY
  7
Standard
  9
$DIMAUNIT
 70
     0
  9
$DIMADEC
 70
     0
  9
$DIMALTRND
 40
0.0
  9
$DIMAZIN
 70
     0
  9
$DIMDSEP
 70
    44
  9
$DIMATFIT
 70
     3
  9
$DIMFRAC
 70
     0
  9
$DIMLDRBLK
  1

  9
$DIMLUNIT
 70
     2
  9
$DIMLWD
 70
    -2
  9
$DIMLWE
 70
    -2
  9
$DIMTMOVE
 70
     0
  9
$LUNITS
 70
     2
  9
$LUPREC
 70
     4
  9
$SKETCHINC
 40
1.0
  9
$FILLETRAD
 40
10.0
  9
$AUNITS
 70
     0
  9
$AUPREC
 70
     0
  9
$MENU
  1
.
  9
$ELEVATION
 40
0.0
  9
$PELEVATION
 40
0.0
  9
$THICKNESS
 40
0.0
  9
$LIMCHECK
 70
     0
  9
$CHAMFERA
 40
10.0
  9
$CHAMFERB
 40
10.0
  9
$CHAMFERC
 40
20.0
  9
$CHAMFERD
 40
0.0
  9
$SKPOLY
 70
     0
  9
$TDCREATE
 40
2455546.511297558
  9
$TDUCREATE
 40
2455546.469630891
  9
$TDUPDATE
 40
2455546.51129757
  9
$TDUUPDATE
 40
2455546.469630903
  9
$TDINDWG
 40
0.0000000116
  9
$TDUSRTIMER
 40
0.0000000116
  9
$USRTIMER
 70
     1
  9
$ANGBASE
 50
0.0
  9
$ANGDIR
 70
     0
  9
$PDMODE
 70
     0
  9
$PDSIZE
 40
0.0
  9
$PLINEWID
 40
0.0
  9
$SPLFRAME
 70
     0
  9
$SPLINETYPE
 70
     6
  9
$SPLINESEGS
 70
     8
  9
$HANDSEED
  5
35E
  9
$SURFTAB1
 70
     6
  9
$SURFTAB2
 70
     6
  9
$SURFTYPE
 70
     6
  9
$SURFU
 70
     6
  9
$SURFV
 70
     6
  9
$UCSBASE
  2

  9
$UCSNAME
  2

  9
$UCSORG
 10
0.0
 20
0.0
 30
0.0
  9
$UCSXDIR
 10
1.0
 20
0.0
 30
0.0
  9
$UCSYDIR
 10
0.0
 20
1.0
 30
0.0
  9
$UCSORTHOREF
  2

  9
$UCSORTHOVIEW
 70
     0
  9
$UCSORGTOP
 10
0.0
 20
0.0
 30
0.0
  9
$UCSORGBOTTOM
 10
0.0
 20
0.0
 30
0.0
  9
$UCSORGLEFT
 10
0.0
 20
0.0
 30
0.0
  9
$UCSORGRIGHT
 10
0.0
 20
0.0
 30
0.0
  9
$UCSORGFRONT
 10
0.0
 20
0.0
 30
0.0
  9
$UCSORGBACK
 10
0.0
 20
0.0
 30
0.0
  9
$PUCSBASE
  2

  9
$PUCSNAME
  2

  9
$PUCSORG
 10
0.0
 20
0.0
 30
0.0
  9
$PUCSXDIR
 10
1.0
 20
0.0
 30
0.0
  9
$PUCSYDIR
 10
0.0
 20
1.0
 30
0.0
  9
$PUCSORTHOREF
  2

  9
$PUCSORTHOVIEW
 70
     0
  9
$PUCSORGTOP
 10
0.0
 20
0.0
 30
0.0
  9
$PUCSORGBOTTOM
 10
0.0
 20
0.0
 30
0.0
  9
$PUCSORGLEFT
 10
0.0
 20
0.0
 30
0.0
  9
$PUCSORGRIGHT
 10
0.0
 20
0.0
 30
0.0
  9
$PUCSORGFRONT
 10
0.0
 20
0.0
 30
0.0
  9
$PUCSORGBACK
 10
0.0
 20
0.0
 30
0.0
  9
$USERI1
 70
     0
  9
$USERI2
 70
     0
  9
$USERI3
 70
     0
  9
$USERI4
 70
     0
  9
$USERI5
 70
     0
  9
$USERR1
 40
0.0
  9
$USERR2
 40
0.0
  9
$USERR3
 40
0.0
  9
$USERR4
 40
0.0
  9
$USERR5
 40
0.0
  9
$WORLDVIEW
 70
     1
  9
$SHADEDGE
 70
     3
  9
$SHADEDIF
 70
    70
  9
$TILEMODE
 70
     1
  9
$MAXACTVP
 70
    64
  9
$PINSBASE
 10
0.0
 20
0.0
 30
0.0
  9
$PLIMCHECK
 70
     0
  9
$PEXTMIN
 10
0.0
 20
0.0
 30
0.0
  9
$PEXTMAX
 10
1682.0
 20
2378.0
 30
0.0
  9
$PLIMMIN
 10
0.0
 20
0.0
  9
$PLIMMAX
 10
1682.0
 20
2378.0
  9
$UNITMODE
 70
     0
  9
$VISRETAIN
 70
     1
  9
$PLINEGEN
 70
     0
  9
$PSLTSCALE
 70
     1
  9
$TREEDEPTH
 70
  3020
  9
$CMLSTYLE
  2
Standard
  9
$CMLJUST
 70
     0
  9
$CMLSCALE
 40
20.0
  9
$PROXYGRAPHICS
 70
     1
  9
$MEASUREMENT
 70
     1
  9
$CELWEIGHT
370
    -1
  9
$ENDCAPS
280
     0
  9
$JOINSTYLE
280
     0
  9
$LWDISPLAY
290
     0
  9
$INSUNITS
 70
     4
  9
$HYPERLINKBASE
  1

  9
$STYLESHEET
  1

  9
$XEDIT
290
     1
  9
$CEPSNTYPE
380
     0
  9
$PSTYLEMODE
290
     1
  9
$FINGERPRINTGUID
  2
{2CC4710B-0F1D-4F5C-AC10-E9DFD9DB0E4C}
  9
$VERSIONGUID
  2
{FAEB1C32-E019-11D5-929B-00C0DF256EC4}
  9
$EXTNAMES
290
     1
  9
$PSVPSCALE
 40
0.0
  9
$OLESTARTUP
290
     0
  0
ENDSEC
  0
SECTION
  2
CLASSES
  0
CLASS
  1
ACDBDICTIONARYWDFLT
  2
AcDbDictionaryWithDefault
  3
ObjectDBX Classes
 90
        0
280
     0
281
     0
  0
CLASS
  1
VISUALSTYLE
  2
AcDbVisualStyle
  3
ObjectDBX Classes
 90
     4095
280
     0
281
     0
  0
CLASS
  1
SCALE
  2
AcDbScale
  3
ObjectDBX Classes
 90
     1153
280
     0
281
     0
  0
CLASS
  1
DICTIONARYVAR
  2
AcDbDictionaryVar
  3
ObjectDBX Classes
 90
        0
280
     0
281
     0
  0
CLASS
  1
ACDBPLACEHOLDER
  2
AcDbPlaceHolder
  3
ObjectDBX Classes
 90
        0
280
     0
281
     0
  0
CLASS
  1
LAYOUT
  2
AcDbLayout
  3
ObjectDBX Classes
 90
        0
280
     0
281
     0
  0
ENDSEC
  0
SECTION
  2
TABLES
  0
TABLE
  2
VPORT
  5
8
330
0
100
AcDbSymbolTable
 70
     1
  0
VPORT
  5
29
330
8
100
AcDbSymbolTableRecord
100
AcDbViewportTableRecord
  2
*Active
 70
     0
 10
0.0
 20
0.0
 11
1.0
 21
1.0
 12
344.1869158879
 22
148.5
 13
0.0
 23
0.0
 14
10.0
 24
10.0
 15
10.0
 25
10.0
 16
0.0
 26
0.0
 36
1.0
 17
0.0
 27
0.0
 37
0.0
 40
297.0
 41
1.9729729729
 42
50.0
 43
0.0
 44
0.0
 50
0.0
 51
0.0
 71
     0
 72
   100
 73
     1
 74
     3
 75
     0
 76
     0
 77
     0
 78
     0
281
     0
 65
     1
110
0.0
120
0.0
130
0.0
111
1.0
121
0.0
131
0.0
112
0.0
122
1.0
132
0.0
 79
     0
146
0.0
  0
ENDTAB
  0
TABLE
  2
LTYPE
  5
5
330
0
100
AcDbSymbolTable
 70
     2
  0
LTYPE
  5
14
330
5
100
AcDbSymbolTableRecord
100
AcDbLinetypeTableRecord
  2
ByBlock
 70
     0
  3

 72
    65
 73
     0
 40
0.0
  0
LTYPE
  5
15
330
5
100
AcDbSymbolTableRecord
100
AcDbLinetypeTableRecord
  2
ByLayer
 70
     0
  3

 72
    65
 73
     0
 40
0.0
  0
LTYPE
  5
16
330
5
100
AcDbSymbolTableRecord
100
AcDbLinetypeTableRecord
  2
Continuous
 70
     0
  3
Solid line
 72
    65
 73
     0
 40
0.0
  0
LTYPE
  5
60
330
5
100
AcDbSymbolTableRecord
100
AcDbLinetypeTableRecord
  2
CENTER2
 70
     0
  3
Center (.5x) ___ _ ___ _ ___ _ ___ _ ___ _ ___
 72
    65
 73
     4
 40
28.575
 49
19.05
 74
     4
 75
     0
340
0
 46
0.0
 50
0.0
 44
0.0
 45
0.0
 49
-3.175
 74
     4
 75
     0
340
0
 46
0.0
 50
0.0
 44
0.0
 45
0.0
 49
3.175
 74
     4
 75
     0
340
0
 46
0.0
 50
0.0
 44
0.0
 45
0.0
 49
-3.175
 74
     4
 75
     0
340
0
 46
0.0
 50
0.0
 44
0.0
 45
0.0
  0
ENDTAB
  0
TABLE
  2
LAYER
  5
2
330
0
100
AcDbSymbolTable
 70
    16
  0
LAYER
  5
10
330
2
100
AcDbSymbolTableRecord
100
AcDbLayerTableRecord
  2
0
 70
     0
 62
     7
  6
Continuous
370
    -3
390
F
  0
LAYER
  5
5D
330
2
100
AcDbSymbolTableRecord
100
AcDbLayerTableRecord
  2
Default
 70
     0
 62
     7
  6
Continuous
370
    -3
390
F
  0
LAYER
  5
97
330
2
100
AcDbSymbolTableRecord
100
AcDbLayerTableRecord
  2
T14089600_49432_
 70
     0
 62
     7
  6
Continuous
370
    -3
390
F
  0
LAYER
  5
BE
330
2
100
AcDbSymbolTableRecord
100
AcDbLayerTableRecord
  2
14087000_ESC_-_R
 70
     0
 62
     7
  6
Continuous
370
    -3
390
F
  0
LAYER
  5
CF
330
2
100
AcDbSymbolTableRecord
100
AcDbLayerTableRecord
  2
14801000_ROUND_H
 70
     0
 62
     7
  6
Continuous
370
    -3
390
F
  0
LAYER
  5
D2
330
2
100
AcDbSymbolTableRecord
100
AcDbLayerTableRecord
  2
14088700_ROUND_H
 70
     0
 62
     7
  6
Continuous
370
    -3
390
F
  0
LAYER
  5
DC
330
2
100
AcDbSymbolTableRecord
100
AcDbLayerTableRecord
  2
14088600_ROUND_H
 70
     0
 62
     7
  6
Continuous
370
    -3
390
F
  0
LAYER
  5
F7
330
2
100
AcDbSymbolTableRecord
100
AcDbLayerTableRecord
  2
14086400_ROUND_H
 70
     0
 62
     7
  6
Continuous
370
    -3
390
F
  0
LAYER
  5
FE
330
2
100
AcDbSymbolTableRecord
100
AcDbLayerTableRecord
  2
14087800_RING_-_
 70
     0
 62
     7
  6
Continuous
370
    -3
390
F
  0
LAYER
  5
10B
330
2
100
AcDbSymbolTableRecord
100
AcDbLayerTableRecord
  2
14080001_MP_HE_B
 70
     0
 62
     7
  6
Continuous
370
    -3
390
F
  0
LAYER
  5
112
330
2
100
AcDbSymbolTableRecord
100
AcDbLayerTableRecord
  2
19275000_4LB_WW-
 70
     0
 62
     7
  6
Continuous
370
    -3
390
F
  0
LAYER
  5
122
330
2
100
AcDbSymbolTableRecord
100
AcDbLayerTableRecord
  2
14088000_RING_-_
 70
     0
 62
     7
  6
Continuous
370
    -3
390
F
  0
LAYER
  5
1CB
330
2
100
AcDbSymbolTableRecord
100
AcDbLayerTableRecord
  2
12086000_CAP_-_P
 70
     0
 62
     7
  6
Continuous
370
    -3
390
F
  0
LAYER
  5
1D9
330
2
100
AcDbSymbolTableRecord
100
AcDbLayerTableRecord
  2
14086000_RING_-_
 70
     0
 62
     7
  6
Continuous
370
    -3
390
F
  0
LAYER
  5
214
330
2
100
AcDbSymbolTableRecord
100
AcDbLayerTableRecord
  2
T14080044__LIFT_
 70
     0
 62
     7
  6
Continuous
370
    -3
390
F
  0
LAYER
  5
217
330
2
100
AcDbSymbolTableRecord
100
AcDbLayerTableRecord
  2
14085000_PULL_EL
 70
     0
 62
     7
  6
Continuous
370
    -3
390
F
  0
ENDTAB
  0
TABLE
  2
STYLE
  5
3
330
0
100
AcDbSymbolTable
 70
     2
  0
STYLE
  5
11
330
3
100
AcDbSymbolTableRecord
100
AcDbTextStyleTableRecord
  2
Standard
 70
     0
 40
0.0
 41
1.0
 50
0.0
 71
     0
 42
2.5
  3
txt
  4

  0
STYLE
  5
34D
330
3
100
AcDbSymbolTableRecord
100
AcDbTextStyleTableRecord
  2
SEACAD_seiso_ttf
 70
     0
 40
0.0
 41
1.0
 50
0.0
 71
     0
 42
0.2
  3
seiso.ttf
  4

  0
ENDTAB
  0
TABLE
  2
VIEW
  5
6
330
0
100
AcDbSymbolTable
 70
     0
  0
ENDTAB
  0
TABLE
  2
UCS
  5
7
330
0
100
AcDbSymbolTable
 70
     0
  0
ENDTAB
  0
TABLE
  2
APPID
  5
9
330
0
100
AcDbSymbolTable
 70
     1
  0
APPID
  5
12
330
9
100
AcDbSymbolTableRecord
100
AcDbRegAppTableRecord
  2
ACAD
 70
     0
  0
ENDTAB
  0
TABLE
  2
DIMSTYLE
  5
A
330
0
100
AcDbSymbolTable
 70
     1
100
AcDbDimStyleTable
  0
DIMSTYLE
105
27
330
A
100
AcDbSymbolTableRecord
100
AcDbDimStyleTableRecord
  2
ISO-25
 70
     0
 41
2.5
 42
0.625
 43
3.75
 44
1.25
 73
     0
 74
     0
 77
     1
 78
     8
140
2.5
141
2.5
143
0.0393700787
147
0.625
171
     3
172
     1
271
     2
272
     2
274
     3
278
    44
283
     0
284
     8
340
11
  0
ENDTAB
  0
TABLE
  2
BLOCK_RECORD
  5
1
330
0
100
AcDbSymbolTable
 70
    11
  0
BLOCK_RECORD
  5
1F
330
1
100
AcDbSymbolTableRecord
100
AcDbBlockTableRecord
  2
*Model_Space
340
22
  0
BLOCK_RECORD
  5
1B
330
1
100
AcDbSymbolTableRecord
100
AcDbBlockTableRecord
  2
*Paper_Space
340
1E
  0
BLOCK_RECORD
  5
5E
330
1
100
AcDbSymbolTableRecord
100
AcDbBlockTableRecord
  2
SEANNOT_GROUP
340
0
102
{BLKREFS
331
5F
102
}
  0
BLOCK_RECORD
  5
65
330
1
100
AcDbSymbolTableRecord
100
AcDbBlockTableRecord
  2
SEANNOT_GROUP1
340
0
102
{BLKREFS
331
66
102
}
  0
BLOCK_RECORD
  5
6B
330
1
100
AcDbSymbolTableRecord
100
AcDbBlockTableRecord
  2
SEANNOT_GROUP2
340
0
102
{BLKREFS
331
6C
102
}
  0
BLOCK_RECORD
  5
71
330
1
100
AcDbSymbolTableRecord
100
AcDbBlockTableRecord
  2
SEANNOT_GROUP3
340
0
102
{BLKREFS
331
72
102
}
  0
BLOCK_RECORD
  5
77
330
1
100
AcDbSymbolTableRecord
100
AcDbBlockTableRecord
  2
SEANNOT_GROUP4
340
0
102
{BLKREFS
331
78
102
}
  0
BLOCK_RECORD
  5
81
330
1
100
AcDbSymbolTableRecord
100
AcDbBlockTableRecord
  2
SEANNOT_GROUP5
340
0
102
{BLKREFS
331
82
102
}
  0
BLOCK_RECORD
  5
8B
330
1
100
AcDbSymbolTableRecord
100
AcDbBlockTableRecord
  2
SEANNOT_GROUP6
340
0
102
{BLKREFS
331
8C
102
}
  0
BLOCK_RECORD
  5
95
330
1
100
AcDbSymbolTableRecord
100
AcDbBlockTableRecord
  2
SE
340
0
102
{BLKREFS
331
96
102
}
  0
BLOCK_RECORD
  5
196
330
1
100
AcDbSymbolTableRecord
100
AcDbBlockTableRecord
  2
SE1
340
0
102
{BLKREFS
331
197
102
}
  0
BLOCK_RECORD
  5
25A
330
1
100
AcDbSymbolTableRecord
100
AcDbBlockTableRecord
  2
SE2
340
0
102
{BLKREFS
331
25B
102
}
  0
ENDTAB
  0
ENDSEC
  0
SECTION
  2
BLOCKS
  0
BLOCK
  5
20
330
1F
100
AcDbEntity
  8
0
100
AcDbBlockBegin
  2
*Model_Space
 70
     0
 10
0.0
 20
0.0
 30
0.0
  3
*Model_Space
  1

  0
ENDBLK
  5
21
330
1F
100
AcDbEntity
  8
0
100
AcDbBlockEnd
  0
BLOCK
  5
1C
330
1B
100
AcDbEntity
 67
     1
  8
0
100
AcDbBlockBegin
  2
*Paper_Space
 70
     0
 10
0.0
 20
0.0
 30
0.0
  3
*Paper_Space
  1

  0
ENDBLK
  5
1D
330
1B
100
AcDbEntity
 67
     1
  8
0
100
AcDbBlockEnd
  0
BLOCK
  5
63
330
5E
100
AcDbEntity
  8
0
100
AcDbBlockBegin
  2
SEANNOT_GROUP
 70
     0
 10
0.0
 20
0.0
 30
0.0
  3
SEANNOT_GROUP
  1

  0
LINE
  5
61
330
5E
100
AcDbEntity
  8
Default
  6
CENTER2
 62
     7
100
AcDbLine
 10
116.1711831495
 20
354.1912082668
 30
0.0
 11
76.1711840436
 21
354.1912082668
 31
0.0
  0
LINE
  5
62
330
5E
100
AcDbEntity
  8
Default
  6
CENTER2
 62
     7
100
AcDbLine
 10
96.1711835965
 20
374.1912078198
 30
0.0
 11
96.1711835965
 21
334.1912087138
 31
0.0
  0
ENDBLK
  5
64
330
5E
100
AcDbEntity
  8
0
100
AcDbBlockEnd
  0
BLOCK
  5
69
330
65
100
AcDbEntity
  8
0
100
AcDbBlockBegin
  2
SEANNOT_GROUP1
 70
     0
 10
0.0
 20
0.0
 30
0.0
  3
SEANNOT_GROUP1
  1

  0
LINE
  5
67
330
65
100
AcDbEntity
  8
Default
  6
CENTER2
 62
     7
100
AcDbLine
 10
266.1711831495
 20
354.1912082668
 30
0.0
 11
226.1711840436
 21
354.1912082668
 31
0.0
  0
LINE
  5
68
330
65
100
AcDbEntity
  8
Default
  6
CENTER2
 62
     7
100
AcDbLine
 10
246.1711835965
 20
374.1912078198
 30
0.0
 11
246.1711835965
 21
334.1912087138
 31
0.0
  0
ENDBLK
  5
6A
330
65
100
AcDbEntity
  8
0
100
AcDbBlockEnd
  0
BLOCK
  5
6F
330
6B
100
AcDbEntity
  8
0
100
AcDbBlockBegin
  2
SEANNOT_GROUP2
 70
     0
 10
0.0
 20
0.0
 30
0.0
  3
SEANNOT_GROUP2
  1

  0
LINE
  5
6D
330
6B
100
AcDbEntity
  8
Default
  6
CENTER2
 62
     7
100
AcDbLine
 10
416.1711831495
 20
354.1912082668
 30
0.0
 11
376.1711840436
 21
354.1912082668
 31
0.0
  0
LINE
  5
6E
330
6B
100
AcDbEntity
  8
Default
  6
CENTER2
 62
     7
100
AcDbLine
 10
396.1711835965
 20
374.1912078198
 30
0.0
 11
396.1711835965
 21
334.1912087138
 31
0.0
  0
ENDBLK
  5
70
330
6B
100
AcDbEntity
  8
0
100
AcDbBlockEnd
  0
BLOCK
  5
75
330
71
100
AcDbEntity
  8
0
100
AcDbBlockBegin
  2
SEANNOT_GROUP3
 70
     0
 10
0.0
 20
0.0
 30
0.0
  3
SEANNOT_GROUP3
  1

  0
LINE
  5
73
330
71
100
AcDbEntity
  8
Default
  6
CENTER2
 62
     7
100
AcDbLine
 10
599.9446976082
 20
354.1912082668
 30
0.0
 11
559.9446985022
 21
354.1912082668
 31
0.0
  0
LINE
  5
74
330
71
100
AcDbEntity
  8
Default
  6
CENTER2
 62
     7
100
AcDbLine
 10
579.9446980552
 20
374.1912078198
 30
0.0
 11
579.9446980552
 21
334.1912087138
 31
0.0
  0
ENDBLK
  5
76
330
71
100
AcDbEntity
  8
0
100
AcDbBlockEnd
  0
BLOCK
  5
7F
330
77
100
AcDbEntity
  8
0
100
AcDbBlockBegin
  2
SEANNOT_GROUP4
 70
     0
 10
0.0
 20
0.0
 30
0.0
  3
SEANNOT_GROUP4
  1

  0
LINE
  5
79
330
77
100
AcDbEntity
  8
Default
  6
CENTER2
 62
     7
100
AcDbLine
 10
116.1711831495
 20
260.2910792046
 30
0.0
 11
76.1711840436
 21
260.2910792046
 31
0.0
  0
LINE
  5
7A
330
77
100
AcDbEntity
  8
Default
  6
CENTER2
 62
     7
100
AcDbLine
 10
96.1711835965
 20
280.2910787576
 30
0.0
 11
96.1711835965
 21
240.2910796516
 31
0.0
  0
LINE
  5
7B
330
77
100
AcDbEntity
  8
Default
  6
CENTER2
 62
     7
100
AcDbLine
 10
121.1711830377
 20
260.2910792046
 30
0.0
 11
121.7961835965
 21
260.2910792046
 31
0.0
  0
LINE
  5
7C
330
77
100
AcDbEntity
  8
Default
  6
CENTER2
 62
     7
100
AcDbLine
 10
96.1711835965
 20
285.2910786458
 30
0.0
 11
96.1711835965
 21
285.9160792046
 31
0.0
  0
LINE
  5
7D
330
77
100
AcDbEntity
  8
Default
  6
CENTER2
 62
     7
100
AcDbLine
 10
71.1711841553
 20
260.2910792046
 30
0.0
 11
70.5461835965
 21
260.2910792046
 31
0.0
  0
LINE
  5
7E
330
77
100
AcDbEntity
  8
Default
  6
CENTER2
 62
     7
100
AcDbLine
 10
96.1711835965
 20
235.2910797634
 30
0.0
 11
96.1711835965
 21
234.6660792046
 31
0.0
  0
ENDBLK
  5
80
330
77
100
AcDbEntity
  8
0
100
AcDbBlockEnd
  0
BLOCK
  5
89
330
81
100
AcDbEntity
  8
0
100
AcDbBlockBegin
  2
SEANNOT_GROUP5
 70
     0
 10
0.0
 20
0.0
 30
0.0
  3
SEANNOT_GROUP5
  1

  0
LINE
  5
83
330
81
100
AcDbEntity
  8
Default
  6
CENTER2
 62
     7
100
AcDbLine
 10
416.1711831495
 20
260.2910792046
 30
0.0
 11
376.1711840436
 21
260.2910792046
 31
0.0
  0
LINE
  5
84
330
81
100
AcDbEntity
  8
Default
  6
CENTER2
 62
     7
100
AcDbLine
 10
396.1711835965
 20
280.2910787576
 30
0.0
 11
396.1711835965
 21
240.2910796516
 31
0.0
  0
LINE
  5
85
330
81
100
AcDbEntity
  8
Default
  6
CENTER2
 62
     7
100
AcDbLine
 10
421.1711830377
 20
260.2910792046
 30
0.0
 11
421.6955898712
 21
260.2910792046
 31
0.0
  0
LINE
  5
86
330
81
100
AcDbEntity
  8
Default
  6
CENTER2
 62
     7
100
AcDbLine
 10
396.1711835965
 20
285.2910786458
 30
0.0
 11
396.1711835965
 21
285.8154854793
 31
0.0
  0
LINE
  5
87
330
81
100
AcDbEntity
  8
Default
  6
CENTER2
 62
     7
100
AcDbLine
 10
371.1711841553
 20
260.2910792046
 30
0.0
 11
370.6467773218
 21
260.2910792046
 31
0.0
  0
LINE
  5
88
330
81
100
AcDbEntity
  8
Default
  6
CENTER2
 62
     7
100
AcDbLine
 10
396.1711835965
 20
235.2910797634
 30
0.0
 11
396.1711835965
 21
234.7666729299
 31
0.0
  0
ENDBLK
  5
8A
330
81
100
AcDbEntity
  8
0
100
AcDbBlockEnd
  0
BLOCK
  5
93
330
8B
100
AcDbEntity
  8
0
100
AcDbBlockBegin
  2
SEANNOT_GROUP6
 70
     0
 10
0.0
 20
0.0
 30
0.0
  3
SEANNOT_GROUP6
  1

  0
LINE
  5
8D
330
8B
100
AcDbEntity
  8
Default
  6
CENTER2
 62
     7
100
AcDbLine
 10
266.1711831495
 20
260.2910792046
 30
0.0
 11
226.1711840436
 21
260.2910792046
 31
0.0
  0
LINE
  5
8E
330
8B
100
AcDbEntity
  8
Default
  6
CENTER2
 62
     7
100
AcDbLine
 10
246.1711835965
 20
280.2910787576
 30
0.0
 11
246.1711835965
 21
240.2910796516
 31
0.0
  0
LINE
  5
8F
330
8B
100
AcDbEntity
  8
Default
  6
CENTER2
 62
     7
100
AcDbLine
 10
271.1711830377
 20
260.2910792046
 30
0.0
 11
262.4807025497
 21
260.2910792046
 31
0.0
  0
LINE
  5
90
330
8B
100
AcDbEntity
  8
Default
  6
CENTER2
 62
     7
100
AcDbLine
 10
246.1711835965
 20
285.2910786458
 30
0.0
 11
246.1711835965
 21
276.6005981577
 31
0.0
  0
LINE
  5
91
330
8B
100
AcDbEntity
  8
Default
  6
CENTER2
 62
     7
100
AcDbLine
 10
221.1711841553
 20
260.2910792046
 30
0.0
 11
229.8616646434
 21
260.2910792046
 31
0.0
  0
LINE
  5
92
330
8B
100
AcDbEntity
  8
Default
  6
CENTER2
 62
     7
100
AcDbLine
 10
246.1711835965
 20
235.2910797634
 30
0.0
 11
246.1711835965
 21
243.9815602515
 31
0.0
  0
ENDBLK
  5
94
330
8B
100
AcDbEntity
  8
0
100
AcDbBlockEnd
  0
BLOCK
  5
194
330
95
100
AcDbEntity
  8
0
100
AcDbBlockBegin
  2
SE
 70
     0
 10
0.0
 20
0.0
 30
0.0
  3
SE
  1

  0
ARC
  5
98
330
95
100
AcDbEntity
  8
T14089600_49432_
  6
Continuous
 62
     7
100
AcDbCircle
 10
420.5553084788
 20
362.5025149939
 30
0.0
 40
0.4973061562893953
100
AcDbArc
 50
38.0048404855
 51
78.9431175756
  0
ARC
  5
99
330
95
100
AcDbEntity
  8
T14089600_49432_
  6
Continuous
 62
     7
100
AcDbCircle
 10
371.7870587269
 20
362.5025149731
 30
0.0
 40
0.497306179118259
100
AcDbArc
 50
101.0568834062
 51
141.995158528
  0
LINE
  5
9A
330
95
100
AcDbEntity
  8
T14089600_49432_
  6
Continuous
 62
     7
100
AcDbLine
 10
366.765717355
 20
356.8832502312
 30
0.0
 11
365.9470087413
 21
355.8353509919
 31
0.0
  0
LINE
  5
9B
330
95
100
AcDbEntity
  8
T14089600_49432_
  6
Continuous
 62
     7
100
AcDbLine
 10
366.7657207734
 20
356.8832546065
 30
0.0
 11
371.3952019828
 21
362.8087203419
 31
0.0
  0
LINE
  5
9C
330
95
100
AcDbEntity
  8
T14089600_49432_
  6
Continuous
 62
     7
100
AcDbLine
 10
371.5135694446
 20
362.9602237842
 30
0.0
 11
371.3952019828
 21
362.8087203418
 31
0.0
  0
ARC
  5
9D
330
95
100
AcDbEntity
  8
T14089600_49432_
  6
Continuous
 62
     7
100
AcDbCircle
 10
383.783192789
 20
262.873125407
 30
0.0
 40
100.0956266974251
100
AcDbArc
 50
86.7596564925
 51
93.2403435067
  0
ARC
  5
9E
330
95
100
AcDbEntity
  8
T14089600_49432_
  6
Continuous
 62
     7
100
AcDbCircle
 10
417.6278130773
 20
329.6750782285
 30
0.0
 40
33.29427412260469
100
AcDbArc
 50
84.3695427696
 51
95.630457229
  0
LINE
  5
9F
330
95
100
AcDbEntity
  8
T14089600_49432_
  6
Continuous
 62
     7
100
AcDbLine
 10
420.9471652103
 20
362.8087203418
 30
0.0
 11
425.5766464204
 21
356.8832546055
 31
0.0
  0
LINE
  5
A0
330
95
100
AcDbEntity
  8
T14089600_49432_
  6
Continuous
 62
     7
100
AcDbLine
 10
420.8287977484
 20
362.9602237842
 30
0.0
 11
420.9471652103
 21
362.8087203418
 31
0.0
  0
LINE
  5
A1
330
95
100
AcDbEntity
  8
T14089600_49432_
  6
Continuous
 62
     7
100
AcDbLine
 10
426.0561494588
 20
354.1912082668
 30
0.0
 11
366.2862177342
 21
354.1912082668
 31
0.0
  0
LINE
  5
A2
330
95
100
AcDbEntity
  8
T14089600_49432_
  6
Continuous
 62
     7
100
AcDbLine
 10
419.9600125253
 20
363.1912082668
 30
0.0
 11
372.3823546677
 21
363.1912082668
 31
0.0
  0
ARC
  5
A3
330
95
100
AcDbEntity
  8
T14089600_49432_
  6
Continuous
 62
     7
100
AcDbCircle
 10
366.3396474648
 20
355.5264504454
 30
0.0
 40
0.4990127377291814
100
AcDbArc
 50
157.1958334476
 51
195.0170879811
  0
ARC
  5
A4
330
95
100
AcDbEntity
  8
T14089600_49432_
  6
Continuous
 62
     7
100
AcDbCircle
 10
371.9073232436
 20
362.6551781229
 30
0.0
 40
0.4972038526841774
100
AcDbArc
 50
95.9579549483
 51
126.3873037268
  0
SPLINE
  5
A5
330
95
100
AcDbEntity
  8
T14089600_49432_
  6
Continuous
 62
     7
100
AcDbSpline
210
0.0
220
0.0
230
1.0
 70
     8
 71
     3
 72
    11
 73
     7
 74
     0
 42
0.0000000055576654
 43
0.0000000001
 40
0.0
 40
0.0
 40
0.0
 40
0.0
 40
0.2510163643642095
 40
0.5013374444961788
 40
0.7508348443062595
 40
1.0
 40
1.0
 40
1.0
 40
1.0
 10
426.4846904787175
 20
355.3971526957297
 30
0.0
 10
426.4844156810624
 20
355.451248665652
 30
0.0
 10
426.4776557309477
 20
355.5485666209299
 30
0.0
 10
426.3080115229535
 20
355.8737530747041
 30
0.0
 10
426.0096721018347
 20
356.3186833137021
 30
0.0
 10
425.7266533569189
 20
356.6882233962767
 30
0.0
 10
425.5559097199086
 20
356.9097963718085
 30
0.0
  0
ARC
  5
A6
330
95
100
AcDbEntity
  8
T14089600_49432_
  6
Continuous
 62
     7
100
AcDbCircle
 10
420.4349407098
 20
362.6546435801
 30
0.0
 40
0.497746226483742
100
AcDbArc
 50
53.3340203922
 51
84.0366121635
  0
ARC
  5
A7
330
95
100
AcDbEntity
  8
T14089600_49432_
  6
Continuous
 62
     7
100
AcDbCircle
 10
418.6442575583
 20
357.5041921026
 30
0.0
 40
8.118620784498148
100
AcDbArc
 50
335.9162061553
 51
344.962608257
  0
ARC
  5
A8
330
95
100
AcDbEntity
  8
T14089600_49432_
  6
Continuous
 62
     7
100
AcDbCircle
 10
373.6981096348
 20
357.5041921026
 30
0.0
 40
8.11862078449814
100
AcDbArc
 50
195.0489751972
 51
204.0837938447
  0
ARC
  5
A9
330
95
100
AcDbEntity
  8
T14089600_49432_
  6
Continuous
 62
     7
100
AcDbCircle
 10
419.4013775673
 20
352.7427521073
 30
0.0
 40
10.46337943180488
100
AcDbArc
 50
83.9688740796
 51
86.9395498828
  0
ARC
  5
AA
330
95
100
AcDbEntity
  8
T14089600_49432_
  6
Continuous
 62
     7
100
AcDbCircle
 10
372.9409896258
 20
352.7427521073
 30
0.0
 40
10.46337943180486
100
AcDbArc
 50
93.0604501172
 51
96.0319833301
  0
ARC
  5
AB
330
95
100
AcDbEntity
  8
T14089600_49432_
  6
Continuous
 62
     7
100
AcDbCircle
 10
120.5553084788
 20
362.5025149939
 30
0.0
 40
0.4973061562892424
100
AcDbArc
 50
38.0048404855
 51
78.9431175756
  0
ARC
  5
AC
330
95
100
AcDbEntity
  8
T14089600_49432_
  6
Continuous
 62
     7
100
AcDbCircle
 10
71.7870587269
 20
362.5025149731
 30
0.0
 40
0.497306179118427
100
AcDbArc
 50
101.0568834062
 51
141.995158528
  0
LINE
  5
AD
330
95
100
AcDbEntity
  8
T14089600_49432_
  6
Continuous
 62
     7
100
AcDbLine
 10
66.765717355
 20
356.8832502312
 30
0.0
 11
65.9470087413
 21
355.8353509918
 31
0.0
  0
LINE
  5
AE
330
95
100
AcDbEntity
  8
T14089600_49432_
  6
Continuous
 62
     7
100
AcDbLine
 10
66.7657207734
 20
356.8832546065
 30
0.0
 11
71.3952019828
 21
362.8087203418
 31
0.0
  0
LINE
  5
AF
330
95
100
AcDbEntity
  8
T14089600_49432_
  6
Continuous
 62
     7
100
AcDbLine
 10
71.5135694446
 20
362.9602237841
 30
0.0
 11
71.3952019828
 21
362.8087203418
 31
0.0
  0
ARC
  5
B0
330
95
100
AcDbEntity
  8
T14089600_49432_
  6
Continuous
 62
     7
100
AcDbCircle
 10
83.783192789
 20
262.8731254069
 30
0.0
 40
100.0956266974248
100
AcDbArc
 50
86.7596564925
 51
93.2403435067
  0
ARC
  5
B1
330
95
100
AcDbEntity
  8
T14089600_49432_
  6
Continuous
 62
     7
100
AcDbCircle
 10
117.6278130773
 20
329.6750782284
 30
0.0
 40
33.29427412260463
100
AcDbArc
 50
84.3695427696
 51
95.630457229
  0
LINE
  5
B2
330
95
100
AcDbEntity
  8
T14089600_49432_
  6
Continuous
 62
     7
100
AcDbLine
 10
120.9471652103
 20
362.8087203418
 30
0.0
 11
125.5766464204
 21
356.8832546054
 31
0.0
  0
LINE
  5
B3
330
95
100
AcDbEntity
  8
T14089600_49432_
  6
Continuous
 62
     7
100
AcDbLine
 10
120.8287977484
 20
362.9602237841
 30
0.0
 11
120.9471652103
 21
362.8087203418
 31
0.0
  0
LINE
  5
B4
330
95
100
AcDbEntity
  8
T14089600_49432_
  6
Continuous
 62
     7
100
AcDbLine
 10
126.0561494588
 20
354.1912082668
 30
0.0
 11
66.2862177342
 21
354.1912082668
 31
0.0
  0
LINE
  5
B5
330
95
100
AcDbEntity
  8
T14089600_49432_
  6
Continuous
 62
     7
100
AcDbLine
 10
119.9600125253
 20
363.1912082668
 30
0.0
 11
72.3823546677
 21
363.1912082668
 31
0.0
  0
ARC
  5
B6
330
95
100
AcDbEntity
  8
T14089600_49432_
  6
Continuous
 62
     7
100
AcDbCircle
 10
66.3396474648
 20
355.5264504454
 30
0.0
 40
0.4990127377289494
100
AcDbArc
 50
157.1958334476
 51
195.0170879811
  0
ARC
  5
B7
330
95
100
AcDbEntity
  8
T14089600_49432_
  6
Continuous
 62
     7
100
AcDbCircle
 10
71.9073232436
 20
362.6551781229
 30
0.0
 40
0.4972038526841637
100
AcDbArc
 50
95.9579549483
 51
126.3873037268
  0
SPLINE
  5
B8
330
95
100
AcDbEntity
  8
T14089600_49432_
  6
Continuous
 62
     7
100
AcDbSpline
210
0.0
220
0.0
230
1.0
 70
     8
 71
     3
 72
    11
 73
     7
 74
     0
 42
0.0000000055576654
 43
0.0000000001
 40
0.0
 40
0.0
 40
0.0
 40
0.0
 40
0.2510163643642094
 40
0.5013374444961786
 40
0.7508348443062597
 40
1.0
 40
1.0
 40
1.0
 40
1.0
 10
126.4846904787175
 20
355.3971526957058
 30
0.0
 10
126.4844156810623
 20
355.451248665628
 30
0.0
 10
126.4776557309475
 20
355.548566620906
 30
0.0
 10
126.3080115229536
 20
355.8737530746801
 30
0.0
 10
126.0096721018347
 20
356.3186833136781
 30
0.0
 10
125.7266533569188
 20
356.6882233962527
 30
0.0
 10
125.5559097199086
 20
356.9097963717845
 30
0.0
  0
ARC
  5
B9
330
95
100
AcDbEntity
  8
T14089600_49432_
  6
Continuous
 62
     7
100
AcDbCircle
 10
120.4349407098
 20
362.6546435801
 30
0.0
 40
0.4977462264834114
100
AcDbArc
 50
53.3340203922
 51
84.0366121635
  0
ARC
  5
BA
330
95
100
AcDbEntity
  8
T14089600_49432_
  6
Continuous
 62
     7
100
AcDbCircle
 10
118.6442575583
 20
357.5041921026
 30
0.0
 40
8.118620784498164
100
AcDbArc
 50
335.9162061553
 51
344.962608257
  0
ARC
  5
BB
330
95
100
AcDbEntity
  8
T14089600_49432_
  6
Continuous
 62
     7
100
AcDbCircle
 10
73.6981096348
 20
357.5041921026
 30
0.0
 40
8.118620784498153
100
AcDbArc
 50
195.0489751972
 51
204.0837938447
  0
ARC
  5
BC
330
95
100
AcDbEntity
  8
T14089600_49432_
  6
Continuous
 62
     7
100
AcDbCircle
 10
119.4013775673
 20
352.7427521073
 30
0.0
 40
10.46337943180488
100
AcDbArc
 50
83.9688740796
 51
86.9395498828
  0
ARC
  5
BD
330
95
100
AcDbEntity
  8
T14089600_49432_
  6
Continuous
 62
     7
100
AcDbCircle
 10
72.9409896258
 20
352.7427521073
 30
0.0
 40
10.46337943180486
100
AcDbArc
 50
93.0604501172
 51
96.0319833301
  0
SPLINE
  5
BF
330
95
100
AcDbEntity
  8
14087000_ESC_-_R
  6
Continuous
 62
     7
100
AcDbSpline
210
0.0
220
0.0
230
1.0
 70
     8
 71
     3
 72
    12
 73
     8
 74
     0
 42
0.0000000152942083
 43
0.0000000001
 40
0.0
 40
0.0
 40
0.0
 40
0.0
 40
0.1750000000000003
 40
0.1750000000000003
 40
0.3750000000000003
 40
0.3750000000000003
 40
0.4702641995995381
 40
0.4702641995995381
 40
0.4702641995995381
 40
0.4702641995995381
 10
212.985476208448
 20
362.8401610932529
 30
0.0
 10
213.0495146793043
 20
362.9191227769745
 30
0.0
 10
213.0887992517263
 20
362.9663902031995
 30
0.0
 10
213.148518148152
 20
363.0363616464367
 30
0.0
 10
213.1652670441598
 20
363.0543492359653
 30
0.0
 10
213.1806024067979
 20
363.0688852952674
 30
0.0
 10
213.1839959845855
 20
363.0715857855755
 30
0.0
 10
213.1860758194615
 20
363.0726047361438
 30
0.0
  0
SPLINE
  5
C0
330
95
100
AcDbEntity
  8
14087000_ESC_-_R
  6
Continuous
 62
     7
100
AcDbSpline
210
0.0
220
0.0
230
1.0
 70
     8
 71
     3
 72
    12
 73
     8
 74
     0
 42
0.0000000153138426
 43
0.0000000001
 40
0.0
 40
0.0
 40
0.0
 40
0.0
 40
0.1749999999999999
 40
0.1749999999999999
 40
0.3749999999999999
 40
0.3749999999999999
 40
0.4709461824212269
 40
0.4709461824212269
 40
0.4709461824212269
 40
0.4709461824212269
 10
279.3568909846052
 20
362.8401610932527
 30
0.0
 10
279.292852513749
 20
362.9191227769743
 30
0.0
 10
279.2535679413269
 20
362.9663902031993
 30
0.0
 10
279.1938490449012
 20
363.0363616464366
 30
0.0
 10
279.1771001488934
 20
363.0543492359652
 30
0.0
 10
279.1617293655916
 20
363.0689188697499
 30
0.0
 10
279.1583226998418
 20
363.0716243484687
 30
0.0
 10
279.1562469077645
 20
363.0726263612893
 30
0.0
  0
LINE
  5
C1
330
95
100
AcDbEntity
  8
14087000_ESC_-_R
  6
Continuous
 62
     7
100
AcDbLine
 10
208.5090360899
 20
357.1140676821
 30
0.0
 11
212.9854762084
 21
362.8401610933
 31
0.0
  0
LINE
  5
C2
330
95
100
AcDbEntity
  8
14087000_ESC_-_R
  6
Continuous
 62
     7
100
AcDbLine
 10
283.8333311032
 20
357.1140676821
 30
0.0
 11
279.3568909846
 21
362.8401610933
 31
0.0
  0
SPLINE
  5
C3
330
95
100
AcDbEntity
  8
14087000_ESC_-_R
  6
Continuous
 62
     7
100
AcDbSpline
210
0.0
220
0.0
230
1.0
 70
     8
 71
     3
 72
    16
 73
    12
 74
     0
 42
0.0000000029764513
 43
0.0000000001
 40
0.4599319048680607
 40
0.4599319048680607
 40
0.4599319048680607
 40
0.4599319048680607
 40
0.5000000000001887
 40
0.5000000000001887
 40
0.7155822504139701
 40
0.7155822504139701
 40
0.8210042741584679
 40
0.8210042741584679
 40
0.9264262979029687
 40
0.9264262979029687
 40
1.0
 40
1.0
 40
1.0
 40
1.0
 10
284.9169371637262
 20
355.6953556857728
 30
0.0
 10
284.9219350418642
 20
355.6897592550939
 30
0.0
 10
284.9247294242811
 20
355.6869833766746
 30
0.0
 10
284.9287205095845
 20
355.6869833766746
 30
0.0
 10
284.8693069114356
 20
355.7673413639228
 30
0.0
 10
284.6792040269337
 20
356.0170099843515
 30
0.0
 10
284.600106380529
 20
356.1203290008112
 30
0.0
 10
284.4051330605011
 20
356.3740018040313
 30
0.0
 10
284.2893153876038
 20
356.5242809977533
 30
0.0
 10
284.0571680237008
 20
356.8248185240431
 30
0.0
 10
283.9515683486898
 20
356.9613624881862
 30
0.0
 10
283.8333311031671
 20
357.114067682144
 30
0.0
  0
SPLINE
  5
C4
330
95
100
AcDbEntity
  8
14087000_ESC_-_R
  6
Continuous
 62
     7
100
AcDbSpline
210
0.0
220
0.0
230
1.0
 70
     8
 71
     3
 72
    15
 73
    11
 74
     0
 42
0.0000000027589531
 43
0.0000000001
 40
0.0085552366215076
 40
0.0085552366215076
 40
0.0085552366215076
 40
0.0085552366215076
 40
0.0407051623684841
 40
0.0824437524324485
 40
0.1252505312148072
 40
0.1871151617074844
 40
0.2503767043670853
 40
0.3124494156729752
 40
0.3752291676667798
 40
0.4956107761331847
 40
0.4956107761331847
 40
0.4956107761331847
 40
0.4956107761331847
 10
208.4337524888781
 20
356.9305089621945
 30
0.0
 10
208.3840870564684
 20
356.8646916818085
 30
0.0
 10
208.2712440977691
 20
356.7151235643245
 30
0.0
 10
208.1154727573059
 20
356.5081103584245
 30
0.0
 10
207.9415792133871
 20
356.2765845091474
 30
0.0
 10
207.7739555834382
 20
356.0523108793156
 30
0.0
 10
207.6252967287827
 20
355.8527108911893
 30
0.0
 10
207.5122692596229
 20
355.6995822163012
 30
0.0
 10
207.4096896664369
 20
355.559043891569
 30
0.0
 10
207.3802311809704
 20
355.5164610045728
 30
0.0
 10
207.3806812972257
 20
355.5145626952645
 30
0.0
  0
SPLINE
  5
C5
330
95
100
AcDbEntity
  8
14087000_ESC_-_R
  6
Continuous
 62
     7
100
AcDbSpline
210
0.0
220
0.0
230
1.0
 70
     8
 71
     3
 72
    18
 73
    14
 74
     0
 42
0.0000000029821825
 43
0.0000000001
 40
0.459841979634535
 40
0.459841979634535
 40
0.459841979634535
 40
0.459841979634535
 40
0.5062608754270571
 40
0.5062608754270571
 40
0.6969465172167629
 40
0.6969465172167629
 40
0.8000729587349759
 40
0.8000729587349759
 40
0.9031994002531862
 40
0.9031994002531862
 40
0.9857005534677568
 40
0.9857005534677568
 40
1.0
 40
1.0
 40
1.0
 40
1.0
 10
207.4254659138606
 20
355.6953961640053
 30
0.0
 10
207.4196552162911
 20
355.6888862192084
 30
0.0
 10
207.4168085765017
 20
355.6861704246176
 30
0.0
 10
207.4171738806301
 20
355.6913760750098
 30
0.0
 10
207.4667348771109
 20
355.7586231971247
 30
0.0
 10
207.6245649345919
 20
355.9664586787762
 30
0.0
 10
207.6955690482453
 20
356.0593753217678
 30
0.0
 10
207.8721364365149
 20
356.2894143469549
 30
0.0
 10
207.9776076605486
 20
356.4264166774356
 30
0.0
 10
208.2023234188042
 20
356.7175944868893
 30
0.0
 10
208.3141676454786
 20
356.8623043904372
 30
0.0
 10
208.4635164222503
 20
357.0552720642149
 30
0.0
 10
208.4860394386712
 20
357.0843670797832
 30
0.0
 10
208.5090360898864
 20
357.1140676821445
 30
0.0
  0
SPLINE
  5
C6
330
95
100
AcDbEntity
  8
14087000_ESC_-_R
  6
Continuous
 62
     7
100
AcDbSpline
210
0.0
220
0.0
230
1.0
 70
     8
 71
     3
 72
     9
 73
     5
 74
     0
 42
0.0000000350765915
 43
0.0000000001
 40
0.4956066962578971
 40
0.4956066962578971
 40
0.4956066962578971
 40
0.4956066962578971
 40
0.4999899599912018
 40
0.5399237592619068
 40
0.5399237592619068
 40
0.5399237592619068
 40
0.5399237592619068
 10
284.961686777154
 20
355.5145678035186
 30
0.0
 10
284.9616703451806
 20
355.5144981176724
 30
0.0
 10
284.9612371846245
 20
355.5141376348686
 30
0.0
 10
284.9581059916827
 20
355.5172482546831
 30
0.0
 10
284.9530821812169
 20
355.5229317732357
 30
0.0
  0
LINE
  5
C7
330
95
100
AcDbEntity
  8
14087000_ESC_-_R
  6
Continuous
 62
     7
100
AcDbLine
 10
213.8590429017
 20
363.1912082668
 30
0.0
 11
278.4833750452
 21
363.1912082668
 31
0.0
  0
LINE
  5
C8
330
95
100
AcDbEntity
  8
14087000_ESC_-_R
  6
Continuous
 62
     7
100
AcDbLine
 10
207.8629763264
 20
354.1912082668
 30
0.0
 11
284.4794510388
 21
354.1912082668
 31
0.0
  0
ARC
  5
C9
330
95
100
AcDbEntity
  8
14087000_ESC_-_R
  6
Continuous
 62
     7
100
AcDbCircle
 10
213.3420560751
 20
362.9632792817
 30
0.0
 40
0.1864208095736263
100
AcDbArc
 50
95.5085049805
 51
116.9997761078
  0
ARC
  5
CA
330
95
100
AcDbEntity
  8
14087000_ESC_-_R
  6
Continuous
 62
     7
100
AcDbCircle
 10
278.9999514378
 20
362.9618531795
 30
0.0
 40
0.1878749830145199
100
AcDbArc
 50
63.3581119469
 51
84.4240598008
  0
ARC
  5
CB
330
95
100
AcDbEntity
  8
14087000_ESC_-_R
  6
Continuous
 62
     7
100
AcDbCircle
 10
277.9247400872
 20
352.7427521073
 30
0.0
 40
10.46337943180498
100
AcDbArc
 50
83.9977570635
 51
86.9395498828
  0
ARC
  5
CC
330
95
100
AcDbEntity
  8
14087000_ESC_-_R
  6
Continuous
 62
     7
100
AcDbCircle
 10
214.4176271059
 20
352.7427521073
 30
0.0
 40
10.46337943180498
100
AcDbArc
 50
93.0604501172
 51
96.0008638981
  0
ARC
  5
CD
330
95
100
AcDbEntity
  8
14087000_ESC_-_R
  6
Continuous
 62
     7
100
AcDbCircle
 10
278.1211972793
 20
357.2577161151
 30
0.0
 40
7.059097764824552
100
AcDbArc
 50
334.2525564926
 51
345.7284367658
  0
ARC
  5
CE
330
95
100
AcDbEntity
  8
14087000_ESC_-_R
  6
Continuous
 62
     7
100
AcDbCircle
 10
214.2211699138
 20
357.2577161151
 30
0.0
 40
7.059097764824528
100
AcDbArc
 50
194.2734360911
 51
205.7474435074
  0
LINE
  5
D0
330
95
100
AcDbEntity
  8
14801000_ROUND_H
  6
Continuous
 62
     7
100
AcDbLine
 10
390.1711835965
 20
427.344240086
 30
0.0
 11
390.1711835965
 21
413.0653954511
 31
0.0
  0
LINE
  5
D1
330
95
100
AcDbEntity
  8
14801000_ROUND_H
  6
Continuous
 62
     7
100
AcDbLine
 10
402.1711835965
 20
413.0653954511
 30
0.0
 11
402.1711835965
 21
427.344240086
 31
0.0
  0
LINE
  5
D3
330
95
100
AcDbEntity
  8
14088700_ROUND_H
  6
Continuous
 62
     7
100
AcDbLine
 10
390.0711835965
 20
427.344240086
 30
0.0
 11
402.2711835965
 21
427.344240086
 31
0.0
  0
ARC
  5
D4
330
95
100
AcDbEntity
  8
14088700_ROUND_H
  6
Continuous
 62
     7
100
AcDbCircle
 10
373.7084363588
 20
435.8229699496
 30
0.0
 40
0.2000000000000057
100
AcDbArc
 50
90.0
 51
187.3021854762
  0
ARC
  5
D5
330
95
100
AcDbEntity
  8
14088700_ROUND_H
  6
Continuous
 62
     7
100
AcDbCircle
 10
418.6339308343
 20
435.8229699496
 30
0.0
 40
0.1999999999999953
100
AcDbArc
 50
352.6978145238
 51
90.0
  0
LINE
  5
D6
330
95
100
AcDbEntity
  8
14088700_ROUND_H
  6
Continuous
 62
     7
100
AcDbLine
 10
373.5100584397
 20
435.7975494609
 30
0.0
 11
373.6272969788
 21
434.8826363863
 31
0.0
  0
LINE
  5
D7
330
95
100
AcDbEntity
  8
14088700_ROUND_H
  6
Continuous
 62
     7
100
AcDbLine
 10
418.7150702143
 20
434.8826363863
 30
0.0
 11
418.8323087533
 21
435.7975494609
 31
0.0
  0
ARC
  5
D8
330
95
100
AcDbEntity
  8
14088700_ROUND_H
  6
Continuous
 62
     7
100
AcDbCircle
 10
374.4704031346
 20
434.9906734629
 30
0.0
 40
0.8500000000000125
100
AcDbArc
 50
187.3021854762
 51
232.7838920423
  0
ARC
  5
D9
330
95
100
AcDbEntity
  8
14088700_ROUND_H
  6
Continuous
 62
     7
100
AcDbCircle
 10
417.8719640584
 20
434.9906734629
 30
0.0
 40
0.8499999999999702
100
AcDbArc
 50
307.2161079577
 51
352.6978145238
  0
ARC
  5
DA
330
95
100
AcDbEntity
  8
14088700_ROUND_H
  6
Continuous
 62
     7
100
AcDbCircle
 10
396.1711835965
 20
463.5637120124
 30
0.0
 40
36.72955413051704
100
AcDbArc
 50
279.5599094461
 51
307.2161079577
  0
ARC
  5
DB
330
95
100
AcDbEntity
  8
14088700_ROUND_H
  6
Continuous
 62
     7
100
AcDbCircle
 10
396.1711835965
 20
463.5637120124
 30
0.0
 40
36.72955413051704
100
AcDbArc
 50
232.7838920423
 51
260.4400905539
  0
ELLIPSE
  5
DD
330
95
100
AcDbEntity
  8
14088600_ROUND_H
  6
Continuous
 62
     7
100
AcDbEllipse
 10
423.1653888953
 20
439.8956000224
 30
0.0
 11
-0.435895171122077
 21
0.2449395839642099
 31
0.0
210
0.0
220
0.0
230
1.0
 40
0.9352547002
 41
3.121245694141072
 42
3.141592653590247
  0
ELLIPSE
  5
DE
330
95
100
AcDbEntity
  8
14088600_ROUND_H
  6
Continuous
 62
     7
100
AcDbEllipse
 10
424.4846836661
 20
444.2127124497
 30
0.0
 11
-0.4999305647899466
 21
-0.008332489948845168
 31
0.0
210
0.0
220
0.0
230
1.0
 40
0.9651352827
 41
3.141592653589793
 42
3.306808799164171
  0
ELLIPSE
  5
DF
330
95
100
AcDbEntity
  8
14088600_ROUND_H
  6
Continuous
 62
     7
100
AcDbEllipse
 10
369.1769782977
 20
439.8956000224
 30
0.0
 11
0.4358951711216398
 21
0.244939583965001
 31
0.0
210
0.0
220
0.0
230
1.0
 40
0.9352547002
 41
3.141592653589744
 42
3.16167170014531
  0
ELLIPSE
  5
E0
330
95
100
AcDbEntity
  8
14088600_ROUND_H
  6
Continuous
 62
     7
100
AcDbEllipse
 10
367.8576835271
 20
444.2127124555
 30
0.0
 11
0.4999305663664563
 21
-0.008332395366072998
 31
0.0
210
0.0
220
0.0
230
1.0
 40
0.965135281
 41
3.077415113125581
 42
3.141592502167368
  0
SPLINE
  5
E1
330
95
100
AcDbEntity
  8
14088600_ROUND_H
  6
Continuous
 62
     7
100
AcDbSpline
210
0.0
220
0.0
230
1.0
 70
     8
 71
     3
 72
     8
 73
     4
 74
     0
 42
0.0000000062147944
 43
0.0000000001
 40
0.3066700182555646
 40
0.3066700182555646
 40
0.3066700182555646
 40
0.3066700182555646
 40
0.3389893709045523
 40
0.3389893709045523
 40
0.3389893709045523
 40
0.3389893709045523
 10
367.7516114810527
 20
445.2802562923173
 30
0.0
 10
367.7649427368769
 20
445.2923467136156
 30
0.0
 10
367.7783907477607
 20
445.3032442126303
 30
0.0
 10
367.7919350175673
 20
445.3130095380483
 30
0.0
  0
SPLINE
  5
E2
330
95
100
AcDbEntity
  8
14088600_ROUND_H
  6
Continuous
 62
     7
100
AcDbSpline
210
0.0
220
0.0
230
1.0
 70
     8
 71
     3
 72
     8
 73
     4
 74
     0
 42
0.0000000062145667
 43
0.0000000001
 40
0.3066498110427862
 40
0.3066498110427862
 40
0.3066498110427862
 40
0.3066498110427862
 40
0.3389785480929381
 40
0.3389785480929381
 40
0.3389785480929381
 40
0.3389785480929381
 10
424.5907807173903
 20
445.2802336128295
 30
0.0
 10
424.5774457366884
 20
445.2923290369323
 30
0.0
 10
424.5639939202916
 20
445.3032308078812
 30
0.0
 10
424.5504457821961
 20
445.3129997272966
 30
0.0
  0
LINE
  5
E3
330
95
100
AcDbEntity
  8
14088600_ROUND_H
  6
Continuous
 62
     7
100
AcDbLine
 10
418.8180231479
 20
436.0229699496
 30
0.0
 11
373.5243440452
 21
436.0229699496
 31
0.0
  0
ARC
  5
E4
330
95
100
AcDbEntity
  8
14088600_ROUND_H
  6
Continuous
 62
     7
100
AcDbCircle
 10
423.1653888953
 20
439.8956000224
 30
0.0
 40
0.4999999999999412
100
AcDbArc
 50
330.6673600562
 51
343.0070271288
  0
ARC
  5
E5
330
95
100
AcDbEntity
  8
14088600_ROUND_H
  6
Continuous
 62
     7
100
AcDbCircle
 10
424.4846836661
 20
444.2127124497
 30
0.0
 40
0.5000000000000171
100
AcDbArc
 50
343.0070280252
 51
0.9548771903
  0
ARC
  5
E6
330
95
100
AcDbEntity
  8
14088600_ROUND_H
  6
Continuous
 62
     7
100
AcDbCircle
 10
369.1769782977
 20
439.8956000224
 30
0.0
 40
0.4999999999999998
100
AcDbArc
 50
196.9929728712
 51
209.3326399437
  0
ARC
  5
E7
330
95
100
AcDbEntity
  8
14088600_ROUND_H
  6
Continuous
 62
     7
100
AcDbCircle
 10
367.8576835263
 20
444.2127124492
 30
0.0
 40
0.4999999996715173
100
AcDbArc
 50
179.0451245189
 51
196.9929719297
  0
SPLINE
  5
E8
330
95
100
AcDbEntity
  8
14088600_ROUND_H
  6
Continuous
 62
     7
100
AcDbSpline
210
0.0
220
0.0
230
1.0
 70
     8
 71
     3
 72
     8
 73
     4
 74
     0
 42
0.0000000080946919
 43
0.0000000001
 40
0.2284215409013974
 40
0.2284215409013974
 40
0.2284215409013974
 40
0.2284215409013974
 40
1.0
 40
1.0
 40
1.0
 40
1.0
 10
367.6131556461225
 20
445.1427048372656
 30
0.0
 10
367.4652045812965
 20
444.9486702793211
 30
0.0
 10
367.3805828983893
 20
444.6517267893647
 30
0.0
 10
367.359290597401
 20
444.2518743673963
 30
0.0
  0
ARC
  5
E9
330
95
100
AcDbEntity
  8
14088600_ROUND_H
  6
Continuous
 62
     7
100
AcDbCircle
 10
372.2765816704
 20
441.4041711118
 30
0.0
 40
3.944230609571702
100
AcDbArc
 50
206.5158653613
 51
224.3081367483
  0
LINE
  5
EA
330
95
100
AcDbEntity
  8
14088600_ROUND_H
  6
Continuous
 62
     7
100
AcDbLine
 10
367.3795132211
 20
444.0665852496
 30
0.0
 11
368.6988079941
 21
439.7494728148
 31
0.0
  0
SPLINE
  5
EB
330
95
100
AcDbEntity
  8
14088600_ROUND_H
  6
Continuous
 62
     7
100
AcDbSpline
210
0.0
220
0.0
230
1.0
 70
     8
 71
     3
 72
     8
 73
     4
 74
     0
 42
0.0000000084443112
 43
0.0000000001
 40
0.0
 40
0.0
 40
0.0
 40
0.0
 40
1.0
 40
1.0
 40
1.0
 40
1.0
 10
424.9829987461795
 20
444.2528006513269
 30
0.0
 10
424.9551151429638
 20
444.7707774278886
 30
0.0
 10
424.8211689796501
 20
445.1158358368551
 30
0.0
 10
424.5811602562382
 20
445.2879758782262
 30
0.0
  0
LINE
  5
EC
330
95
100
AcDbEntity
  8
14088600_ROUND_H
  6
Continuous
 62
     7
100
AcDbLine
 10
423.6435591989
 20
439.7494728148
 30
0.0
 11
424.9628539719
 21
444.0665852496
 31
0.0
  0
ARC
  5
ED
330
95
100
AcDbEntity
  8
14088600_ROUND_H
  6
Continuous
 62
     7
100
AcDbCircle
 10
420.0658104515
 20
441.404148975
 30
0.0
 40
3.944197400551321
100
AcDbArc
 50
313.3362091715
 51
333.4841174114
  0
ARC
  5
EE
330
95
100
AcDbEntity
  8
14088600_ROUND_H
  6
Continuous
 62
     7
100
AcDbCircle
 10
409.2882976395
 20
455.3909986053
 30
0.0
 40
21.58555540800877
100
AcDbArc
 50
296.1987470491
 51
308.6740150715
  0
ARC
  5
EF
330
95
100
AcDbEntity
  8
14088600_ROUND_H
  6
Continuous
 62
     7
100
AcDbCircle
 10
383.0540695535
 20
455.3909986053
 30
0.0
 40
21.5855554080088
100
AcDbArc
 50
231.3232698962
 51
243.8012529509
  0
ARC
  5
F0
330
95
100
AcDbEntity
  8
14088600_ROUND_H
  6
Continuous
 62
     7
100
AcDbCircle
 10
396.1711835965
 20
383.5220724246
 30
0.0
 40
68.0540978140181
100
AcDbArc
 50
109.3280430914
 51
114.1475423058
  0
ARC
  5
F1
330
95
100
AcDbEntity
  8
14088600_ROUND_H
  6
Continuous
 62
     7
100
AcDbCircle
 10
396.1711835965
 20
383.5220724246
 30
0.0
 40
68.05409781401721
100
AcDbArc
 50
65.8524576942
 51
70.6719569086
  0
ARC
  5
F2
330
95
100
AcDbEntity
  8
14088600_ROUND_H
  6
Continuous
 62
     7
100
AcDbCircle
 10
422.7267465889
 20
442.7558648843
 30
0.0
 40
3.140000000000003
100
AcDbArc
 50
54.4007357955
 51
65.8524576942
  0
ARC
  5
F3
330
95
100
AcDbEntity
  8
14088600_ROUND_H
  6
Continuous
 62
     7
100
AcDbCircle
 10
369.6156206041
 20
442.7558648843
 30
0.0
 40
3.139999999999986
100
AcDbArc
 50
114.1475423058
 51
125.5903906061
  0
ARC
  5
F4
330
95
100
AcDbEntity
  8
14088600_ROUND_H
  6
Continuous
 62
     7
100
AcDbCircle
 10
418.5961835965
 20
447.4574862857
 30
0.0
 40
0.2999999999999852
100
AcDbArc
 50
70.6719569086
 51
90.0
  0
ARC
  5
F5
330
95
100
AcDbEntity
  8
14088600_ROUND_H
  6
Continuous
 62
     7
100
AcDbCircle
 10
373.7461835965
 20
447.4574862857
 30
0.0
 40
0.3000000000000086
100
AcDbArc
 50
90.0
 51
109.3280430914
  0
LINE
  5
F6
330
95
100
AcDbEntity
  8
14088600_ROUND_H
  6
Continuous
 62
     7
100
AcDbLine
 10
418.5961835965
 20
447.7574862857
 30
0.0
 11
373.7461835965
 21
447.7574862857
 31
0.0
  0
ARC
  5
F8
330
95
100
AcDbEntity
  8
14086400_ROUND_H
  6
Continuous
 62
     7
100
AcDbCircle
 10
417.9455898712
 20
447.7655608399
 30
0.0
 40
0.2500000000000037
100
AcDbArc
 50
0.0
 51
71.2682987072
  0
ARC
  5
F9
330
95
100
AcDbEntity
  8
14086400_ROUND_H
  6
Continuous
 62
     7
100
AcDbCircle
 10
374.3967773218
 20
447.7655608399
 30
0.0
 40
0.2500000000000058
100
AcDbArc
 50
108.7317012928
 51
180.0
  0
ARC
  5
FA
330
95
100
AcDbEntity
  8
14086400_ROUND_H
  6
Continuous
 62
     7
100
AcDbCircle
 10
396.1711835965
 20
383.5528602912
 30
0.0
 40
68.0540978140143
100
AcDbArc
 50
89.9989848366
 51
108.7317012929
  0
ARC
  5
FB
330
95
100
AcDbEntity
  8
14086400_ROUND_H
  6
Continuous
 62
     7
100
AcDbCircle
 10
396.1711835965
 20
383.5528602912
 30
0.0
 40
68.05409781401423
100
AcDbArc
 50
71.2682987071
 51
89.9989848366
  0
LINE
  5
FC
330
95
100
AcDbEntity
  8
14086400_ROUND_H
  6
Continuous
 62
     7
100
AcDbLine
 10
418.1955898712
 20
447.7574862857
 30
0.0
 11
418.1955898712
 21
447.7655608399
 31
0.0
  0
LINE
  5
FD
330
95
100
AcDbEntity
  8
14086400_ROUND_H
  6
Continuous
 62
     7
100
AcDbLine
 10
374.1467773218
 20
447.7655608399
 30
0.0
 11
374.1467773218
 21
447.7574862857
 31
0.0
  0
LINE
  5
FF
330
95
100
AcDbEntity
  8
14087800_RING_-_
  6
Continuous
 62
     7
100
AcDbLine
 10
407.5728964872
 20
395.4912082668
 30
0.0
 11
384.7694707058
 21
395.4912082668
 31
0.0
  0
ARC
  5
100
330
95
100
AcDbEntity
  8
14087800_RING_-_
  6
Continuous
 62
     7
100
AcDbCircle
 10
396.1711835965
 20
378.7123675216
 30
0.0
 40
34.99999999999765
100
AcDbArc
 50
101.1135262976
 51
111.2365591835
  0
ARC
  5
101
330
95
100
AcDbEntity
  8
14087800_RING_-_
  6
Continuous
 62
     7
100
AcDbCircle
 10
396.1711835965
 20
378.7123675216
 30
0.0
 40
34.99999999999783
100
AcDbArc
 50
68.7634408165
 51
78.8864737024
  0
ARC
  5
102
330
95
100
AcDbEntity
  8
14087800_RING_-_
  6
Continuous
 62
     7
100
AcDbCircle
 10
383.7470584562
 20
410.6831528497
 30
0.0
 40
0.7000000000001406
100
AcDbArc
 50
111.2365591834
 51
204.6643304599
  0
ARC
  5
103
330
95
100
AcDbEntity
  8
14087800_RING_-_
  6
Continuous
 62
     7
100
AcDbCircle
 10
408.5953087369
 20
410.6831528497
 30
0.0
 40
0.7000000000000138
100
AcDbArc
 50
335.3356695401
 51
68.7634408166
  0
ARC
  5
104
330
95
100
AcDbEntity
  8
14087800_RING_-_
  6
Continuous
 62
     7
100
AcDbCircle
 10
384.7694707058
 20
395.6912082668
 30
0.0
 40
0.2000000000000017
100
AcDbArc
 50
166.7450899086
 51
270.0
  0
ARC
  5
105
330
95
100
AcDbEntity
  8
14087800_RING_-_
  6
Continuous
 62
     7
100
AcDbCircle
 10
407.5728964872
 20
395.6912082668
 30
0.0
 40
0.1999999999999988
100
AcDbArc
 50
270.0
 51
13.2549100914
  0
ARC
  5
106
330
95
100
AcDbEntity
  8
14087800_RING_-_
  6
Continuous
 62
     7
100
AcDbCircle
 10
362.5149231637
 20
400.9334715509
 30
0.0
 40
22.6636438618831
100
AcDbArc
 50
346.7450899086
 51
24.6643304599
  0
ARC
  5
107
330
95
100
AcDbEntity
  8
14087800_RING_-_
  6
Continuous
 62
     7
100
AcDbCircle
 10
429.8274440293
 20
400.9334715509
 30
0.0
 40
22.6636438618831
100
AcDbArc
 50
155.3356695401
 51
193.2549100914
  0
ARC
  5
108
330
95
100
AcDbEntity
  8
14087800_RING_-_
  6
Continuous
 62
     7
100
AcDbCircle
 10
402.8211835965
 20
412.5653954511
 30
0.0
 40
0.5000000000000017
100
AcDbArc
 50
78.8864737024
 51
90.0
  0
ARC
  5
109
330
95
100
AcDbEntity
  8
14087800_RING_-_
  6
Continuous
 62
     7
100
AcDbCircle
 10
389.5211835965
 20
412.5653954511
 30
0.0
 40
0.5000000000000004
100
AcDbArc
 50
90.0
 51
101.1135262976
  0
LINE
  5
10A
330
95
100
AcDbEntity
  8
14087800_RING_-_
  6
Continuous
 62
     7
100
AcDbLine
 10
402.8211835965
 20
413.0653954511
 30
0.0
 11
389.5211835965
 21
413.0653954511
 31
0.0
  0
ARC
  5
10C
330
95
100
AcDbEntity
  8
14080001_MP_HE_B
  6
Continuous
 62
     7
100
AcDbCircle
 10
-27.0263584035
 20
423.0440992668
 30
0.0
 40
114.900009
100
AcDbArc
 50
329.8225659318
 51
345.9308582892
  0
ARC
  5
10D
330
95
100
AcDbEntity
  8
14080001_MP_HE_B
  6
Continuous
 62
     7
100
AcDbCircle
 10
219.3687255965
 20
423.0440992668
 30
0.0
 40
114.900009
100
AcDbArc
 50
194.0691417108
 51
210.1774340682
  0
ARC
  5
10E
330
95
100
AcDbEntity
  8
14080001_MP_HE_B
  6
Continuous
 62
     7
100
AcDbCircle
 10
118.5711835965
 20
364.4316635082
 30
0.0
 40
1.700000000000039
100
AcDbArc
 50
313.1404633598
 51
30.1774340682
  0
ARC
  5
10F
330
95
100
AcDbEntity
  8
14080001_MP_HE_B
  6
Continuous
 62
     7
100
AcDbCircle
 10
73.7711835965
 20
364.4316635082
 30
0.0
 40
1.700000000000009
100
AcDbArc
 50
149.8225659318
 51
226.8595366402
  0
ARC
  5
110
330
95
100
AcDbEntity
  8
14080001_MP_HE_B
  6
Continuous
 62
     7
100
AcDbCircle
 10
107.4303613788
 20
394.9912082668
 30
0.0
 40
0.4999999999999882
100
AcDbArc
 50
14.0691417108
 51
90.0
  0
ARC
  5
111
330
95
100
AcDbEntity
  8
14080001_MP_HE_B
  6
Continuous
 62
     7
100
AcDbCircle
 10
84.9120058143
 20
394.9912082668
 30
0.0
 40
0.5000000000000004
100
AcDbArc
 50
90.0
 51
165.9308582892
  0
ELLIPSE
  5
113
330
95
100
AcDbEntity
  8
19275000_4LB_WW-
  6
Continuous
 62
     7
100
AcDbEllipse
 10
246.1711835965
 20
470.2439511648
 30
0.0
 11
-16.89008326398711
 21
-4.163336342344337E-14
 31
0.0
210
0.0
220
0.0
230
1.0
 40
0.5013620697
 41
3.648901808924094
 42
5.686659084446674
  0
ELLIPSE
  5
114
330
95
100
AcDbEntity
  8
19275000_4LB_WW-
  6
Continuous
 62
     7
100
AcDbEllipse
 10
246.1711835965
 20
470.2439511648
 30
0.0
 11
-16.89008326398711
 21
-4.163336342344337E-14
 31
0.0
210
0.0
220
0.0
230
1.0
 40
0.5013620697
 41
3.334028893827856
 42
3.500097962095656
  0
SPLINE
  5
115
330
95
100
AcDbEntity
  8
19275000_4LB_WW-
  6
Continuous
 62
     7
100
AcDbSpline
210
0.0
220
0.0
230
1.0
 70
     8
 71
     3
 72
    30
 73
    26
 74
     0
 42
0.0000000000216378
 43
0.0000000001
 40
0.0
 40
0.0
 40
0.0
 40
0.0
 40
0.0045336789095872
 40
0.0137488060372633
 40
0.0227053313586084
 40
0.0313711570476969
 40
0.0397467104220218
 40
0.0478531447810032
 40
0.0556920251743155
 40
0.067492804908673
 40
0.0810752377072805
 40
0.0937092994667396
 40
0.1053772962432208
 40
0.1160466185144593
 40
0.1256803142707779
 40
0.1342105857181246
 40
0.1412755443627533
 40
0.1476904847579655
 40
0.1540401221602061
 40
0.1606080792002703
 40
0.1673915609576463
 40
0.1768174317677138
 40
0.1879437914977695
 40
0.1995689160047317
 40
0.2037761088766709
 40
0.2037761088766709
 40
0.2037761088766709
 40
0.2037761088766709
 10
278.258618386911
 20
366.0944578556495
 30
0.0
 10
277.8967023008518
 20
366.8026959187075
 30
0.0
 10
276.9879130623797
 20
368.6009366219702
 30
0.0
 10
275.3337677420049
 20
371.9930762818323
 30
0.0
 10
274.0385484808763
 20
376.011732713674
 30
0.0
 10
273.1348827359869
 20
380.1066656421009
 30
0.0
 10
272.565922924047
 20
384.0636282474889
 30
0.0
 10
271.9568862969726
 20
387.9114328448457
 30
0.0
 10
271.3727809765647
 20
392.2930104674728
 30
0.0
 10
270.6464063082713
 20
397.5353329657498
 30
0.0
 10
269.8629777097894
 20
403.5130598950666
 30
0.0
 10
269.1013985070256
 20
409.4408934923895
 30
0.0
 10
268.429687211325
 20
414.8795322893917
 30
0.0
 10
267.8359080465539
 20
419.8181895626506
 30
0.0
 10
267.3207290641587
 20
424.2400761153151
 30
0.0
 10
266.8849825121159
 20
428.080831905799
 30
0.0
 10
266.5167896217717
 20
431.4081899479436
 30
0.0
 10
266.1944341181054
 20
434.3860751655045
 30
0.0
 10
265.8887764870195
 20
437.2699372472065
 30
0.0
 10
265.5867488307174
 20
440.1876000387941
 30
0.0
 10
265.2480074444093
 20
443.5348854462749
 30
0.0
 10
264.8592833270267
 20
447.5108357089123
 30
0.0
 10
264.4240713841004
 20
452.1289322901497
 30
0.0
 10
264.0919112608872
 20
455.9292244176305
 30
0.0
 10
263.9001757011782
 20
458.138176856546
 30
0.0
 10
263.8494689097974
 20
458.7229685867073
 30
0.0
  0
SPLINE
  5
116
330
95
100
AcDbEntity
  8
19275000_4LB_WW-
  6
Continuous
 62
     7
100
AcDbSpline
210
0.0
220
0.0
230
1.0
 70
     8
 71
     3
 72
    66
 73
    62
 74
     0
 42
0.0000000000418087
 43
0.0000000001
 40
0.3058042813892589
 40
0.3058042813892589
 40
0.3058042813892589
 40
0.3058042813892589
 40
0.3168817180381527
 40
0.3292416986108147
 40
0.3423277424590511
 40
0.3547182975084519
 40
0.3662937821643802
 40
0.377030227907709
 40
0.3869560954241945
 40
0.3958476644816011
 40
0.4044416465764974
 40
0.4138435518806386
 40
0.4240457438922178
 40
0.434100048650268
 40
0.4430224488401169
 40
0.4506837693047718
 40
0.4563873684896941
 40
0.4611394271661197
 40
0.4646505981594584
 40
0.4664300398681612
 40
0.4683764512600085
 40
0.4708537270126572
 40
0.4737908533075778
 40
0.4772140569399542
 40
0.4810995284187868
 40
0.4852724416610886
 40
0.4895916673163422
 40
0.493999833420646
 40
0.4983145699079018
 40
0.5016790777700333
 40
0.5052166487292434
 40
0.5088563741321961
 40
0.5124275864726211
 40
0.5158929731731104
 40
0.5192246599692807
 40
0.5223995086686678
 40
0.5253995779203665
 40
0.5282129854777036
 40
0.5308589092451153
 40
0.533374680589514
 40
0.5358127763495003
 40
0.5387627320176405
 40
0.5434991899005974
 40
0.548111880032514
 40
0.5533172254767647
 40
0.5592382241085099
 40
0.5659101339347408
 40
0.5733607774130878
 40
0.5810848744418841
 40
0.5893089739305278
 40
0.5968611573779722
 40
0.6034871103171271
 40
0.6093378425724078
 40
0.6155190957076886
 40
0.6235545940485255
 40
0.6321699149282337
 40
0.64295901139076
 40
0.6562741409792305
 40
0.6703646475506053
 40
0.6846415158874604
 40
0.6945093878500723
 40
0.6945093878500723
 40
0.6945093878500723
 40
0.6945093878500723
 10
262.1408446574225
 20
494.2271055017461
 30
0.0
 10
262.119688297459
 20
495.2538786630897
 30
0.0
 10
262.0736240122743
 20
497.3667448109952
 30
0.0
 10
261.9986177036577
 20
500.4571544360741
 30
0.0
 10
261.917014181387
 20
503.4221572401477
 30
0.0
 10
261.8334757618627
 20
506.0851290207879
 30
0.0
 10
261.7524418650107
 20
508.3618061509414
 30
0.0
 10
261.6746657653372
 20
510.2949529028559
 30
0.0
 10
261.6020673997522
 20
511.9003337291188
 30
0.0
 10
261.5321843787205
 20
513.271820168705
 30
0.0
 10
261.4595636586493
 20
514.5394030041147
 30
0.0
 10
261.3766892717907
 20
515.7825332241167
 30
0.0
 10
261.2862960238833
 20
516.9213928842915
 30
0.0
 10
261.1828704525279
 20
517.9834882154387
 30
0.0
 10
261.0416312228792
 20
519.0807658520645
 30
0.0
 10
260.8448878024182
 20
520.1815745535087
 30
0.0
 10
260.567466017925
 20
521.3033727079868
 30
0.0
 10
260.2133031640888
 20
522.3967755080848
 30
0.0
 10
259.790527604824
 20
523.4138340433681
 30
0.0
 10
259.3622208541269
 20
524.2707544857126
 30
0.0
 10
258.8995571063256
 20
525.0828133181876
 30
0.0
 10
258.2592424761433
 20
526.0438805582216
 30
0.0
 10
257.3915695755903
 20
527.1298826495718
 30
0.0
 10
256.2524058502099
 20
528.2928128927877
 30
0.0
 10
254.8271899569849
 20
529.4410881536178
 30
0.0
 10
253.1397045405189
 20
530.4742961843023
 30
0.0
 10
251.2489150889485
 20
531.3037449559212
 30
0.0
 10
249.2374968520037
 20
531.8692434227944
 30
0.0
 10
247.3184735496426
 20
532.129615941025
 30
0.0
 10
245.5238472341031
 20
532.151954141129
 30
0.0
 10
243.8444003324785
 20
531.9878013775212
 30
0.0
 10
242.1620787695138
 20
531.6256250949893
 30
0.0
 10
240.5452519254133
 20
531.0773219223573
 30
0.0
 10
239.0466899311712
 20
530.372666536962
 30
0.0
 10
237.6915180485403
 20
529.5458978626299
 30
0.0
 10
236.4907818942993
 20
528.6293307587425
 30
0.0
 10
235.4525926224461
 20
527.6619468788672
 30
0.0
 10
234.5639170485757
 20
526.6650735932178
 30
0.0
 10
233.8262953808652
 20
525.676075472861
 30
0.0
 10
233.2292950297173
 20
524.727955272471
 30
0.0
 10
232.7176671673801
 20
523.7661909590474
 30
0.0
 10
232.2126158059397
 20
522.629564335864
 30
0.0
 10
231.8225282080384
 20
521.4653284722876
 30
0.0
 10
231.5731161098088
 20
520.4993919010169
 30
0.0
 10
231.399138901213
 20
519.6499633199843
 30
0.0
 10
231.2689163699671
 20
518.8352641451927
 30
0.0
 10
231.1660624668619
 20
518.0206726192857
 30
0.0
 10
231.0842496572146
 20
517.2183073051876
 30
0.0
 10
231.0097055722076
 20
516.3518750624183
 30
0.0
 10
230.9379257257088
 20
515.3797248003176
 30
0.0
 10
230.8737723682717
 20
514.3795157100049
 30
0.0
 10
230.8193255013414
 20
513.4297874861552
 30
0.0
 10
230.7714912468261
 20
512.5176927756402
 30
0.0
 10
230.7216966387501
 20
511.4928046632341
 30
0.0
 10
230.6656942618248
 20
510.235841827516
 30
0.0
 10
230.5999751728844
 20
508.6146088031097
 30
0.0
 10
230.5235873694585
 20
506.5159611599118
 30
0.0
 10
230.4373080824657
 20
503.8322625305075
 30
0.0
 10
230.3479620660014
 20
500.6114289504655
 30
0.0
 10
230.2693164051998
 20
497.385529702797
 30
0.0
 10
230.2226982191133
 20
495.2072643354592
 30
0.0
 10
230.2039235714778
 20
494.2937791557208
 30
0.0
  0
SPLINE
  5
117
330
95
100
AcDbEntity
  8
19275000_4LB_WW-
  6
Continuous
 62
     7
100
AcDbSpline
210
0.0
220
0.0
230
1.0
 70
     8
 71
     3
 72
    25
 73
    21
 74
     0
 42
0.000000000021641
 43
0.0000000001
 40
0.7968426625798992
 40
0.7968426625798992
 40
0.7968426625798992
 40
0.7968426625798992
 40
0.8027604911526824
 40
0.8159124662887625
 40
0.8299407087919746
 40
0.8448482452929444
 40
0.8606387995467265
 40
0.8772917961073469
 40
0.8945676474638165
 40
0.9082499359112922
 40
0.9223749283032563
 40
0.9369230749921441
 40
0.9490509210174393
 40
0.9566581284590907
 40
0.9643855104146646
 40
0.9722391261518459
 40
0.9802374652755186
 40
0.9883680723550469
 40
0.996606304227112
 40
1.0
 40
1.0
 40
1.0
 40
1.0
 10
228.4698085789227
 20
458.4335718151414
 30
0.0
 10
228.3985516932373
 20
457.61121343633
 30
0.0
 10
228.1674572513541
 20
454.9471505002888
 30
0.0
 10
227.7497538640045
 20
450.2620588857212
 30
0.0
 10
227.1625397605914
 20
444.1781642381539
 30
0.0
 10
226.4947368172669
 20
437.5967198121597
 30
0.0
 10
225.7333634501962
 20
430.5081069717337
 30
0.0
 10
224.8792764851095
 20
422.9509896726053
 30
0.0
 10
224.0062396084871
 20
415.616451223374
 30
0.0
 10
223.1365250918838
 20
408.6055683928337
 30
0.0
 10
222.280549618037
 20
401.9731191315635
 30
0.0
 10
221.4270399804537
 20
395.5518622767638
 30
0.0
 10
220.6763942887446
 20
390.138272166796
 30
0.0
 10
220.0767455955591
 20
385.8006500394367
 30
0.0
 10
219.4771191899376
 20
382.1349349927169
 30
0.0
 10
218.8966648455462
 20
378.4316877942125
 30
0.0
 10
217.8997906926245
 20
374.6866982994183
 30
0.0
 10
216.6173938259974
 20
371.0908474952473
 30
0.0
 10
215.1221210110355
 20
368.151444297065
 30
0.0
 10
214.3560803635116
 20
366.6324287178558
 30
0.0
 10
214.0865607785576
 20
366.1014945584167
 30
0.0
  0
SPLINE
  5
118
330
95
100
AcDbEntity
  8
19275000_4LB_WW-
  6
Continuous
 62
     7
100
AcDbSpline
210
0.0
220
0.0
230
1.0
 70
     8
 71
     3
 72
    39
 73
    35
 74
     0
 42
0.0000000000818132
 43
0.0000000001
 40
0.0049340403072548
 40
0.0049340403072548
 40
0.0049340403072548
 40
0.0049340403072548
 40
0.0146100740693685
 40
0.0263783832410169
 40
0.0352835301710568
 40
0.0413211190245349
 40
0.0465748529783021
 40
0.0539978197657157
 40
0.0647808438580329
 40
0.076124045350853
 40
0.0859626156661295
 40
0.0947329006803732
 40
0.1019789159069596
 40
0.1091398760776236
 40
0.1166099885294843
 40
0.1243657662543642
 40
0.1322288634129906
 40
0.1428399674782326
 40
0.1543682093267361
 40
0.1657569658588242
 40
0.1771807148643156
 40
0.189725637178017
 40
0.2034144912472742
 40
0.2187137052579942
 40
0.2352443567069017
 40
0.2532437499162347
 40
0.2721247174531226
 40
0.291520188984652
 40
0.3097126222762019
 40
0.326581636831321
 40
0.3420288189861429
 40
0.3559537762825328
 40
0.3684702159498598
 40
0.3740107263491233
 40
0.3740107263491233
 40
0.3740107263491233
 40
0.3740107263491233
 10
263.0891733452699
 20
471.1050093643843
 30
0.0
 10
263.107353481141
 20
471.7329784836703
 30
0.0
 10
263.140356439704
 20
473.0261364408796
 30
0.0
 10
263.1626477798249
 20
475.0540186572123
 30
0.0
 10
263.1625136742264
 20
476.7100069573209
 30
0.0
 10
263.1512307980344
 20
478.0084104735014
 30
0.0
 10
263.1329838480679
 20
479.185849461427
 30
0.0
 10
263.099013309862
 20
480.6716781589061
 30
0.0
 10
263.0361622753787
 20
482.5209835135838
 30
0.0
 10
262.9419742809756
 20
484.5040992837812
 30
0.0
 10
262.8305797215563
 20
486.334431816529
 30
0.0
 10
262.7165318226142
 20
487.8964965548429
 30
0.0
 10
262.5987780922596
 20
489.2773388215245
 30
0.0
 10
262.478539403684
 20
490.5442235316153
 30
0.0
 10
262.3605431850988
 20
491.8000488376053
 30
0.0
 10
262.2454246894997
 20
493.0485254514095
 30
0.0
 10
262.1212375673848
 20
494.4283274613479
 30
0.0
 10
261.987079618901
 20
495.9632190404483
 30
0.0
 10
261.8485571544559
 20
497.6139418043288
 30
0.0
 10
261.7181454884533
 20
499.2379283570046
 30
0.0
 10
261.5968801638103
 20
500.8353120100393
 30
0.0
 10
261.4797765810893
 20
502.4658819708826
 30
0.0
 10
261.3690226167668
 20
504.1788264517168
 30
0.0
 10
261.2617493673004
 20
505.950678181163
 30
0.0
 10
261.1867146435895
 20
507.7554911652417
 30
0.0
 10
261.1222445349019
 20
509.5170990299346
 30
0.0
 10
261.0640733508483
 20
511.1864768754718
 30
0.0
 10
261.0209580391015
 20
512.6567812715608
 30
0.0
 10
260.992272564081
 20
513.8512699870629
 30
0.0
 10
260.9757713389067
 20
514.7640851081871
 30
0.0
 10
260.9679953528292
 20
515.424873658138
 30
0.0
 10
260.9662155973768
 20
515.8707806402738
 30
0.0
 10
260.9677406406838
 20
516.1046019764808
 30
0.0
 10
260.9673666307508
 20
516.1397534713503
 30
0.0
 10
260.9668094887472
 20
516.1399487415297
 30
0.0
  0
SPLINE
  5
119
330
95
100
AcDbEntity
  8
19275000_4LB_WW-
  6
Continuous
 62
     7
100
AcDbSpline
210
0.0
220
0.0
230
1.0
 70
     8
 71
     3
 72
    28
 73
    24
 74
     0
 42
0.0000000000817324
 43
0.0000000001
 40
0.6276315403851744
 40
0.6276315403851744
 40
0.6276315403851744
 40
0.6276315403851744
 40
0.6355674009648207
 40
0.6519058397562292
 40
0.6702507541268046
 40
0.6903536334918442
 40
0.7110038739933057
 40
0.7335553401808429
 40
0.7610224956026481
 40
0.7888549467085446
 40
0.8173285763049991
 40
0.8457900789330914
 40
0.8679371276983423
 40
0.8826036199084805
 40
0.8966950839597998
 40
0.9096040564843845
 40
0.9210732717874577
 40
0.9303367716860284
 40
0.939506258434044
 40
0.9504521425494341
 40
0.9640924558478873
 40
0.980618341239991
 40
0.9925597409092056
 40
0.9925597409092056
 40
0.9925597409092056
 40
0.9925597409092056
 10
231.3735301590808
 20
516.1788714947292
 30
0.0
 10
231.372732652769
 20
516.1794599213172
 30
0.0
 10
231.3759694206296
 20
516.0434853412884
 30
0.0
 10
231.3746910946118
 20
515.7099464703996
 30
0.0
 10
231.3706659257196
 20
514.9646683506893
 30
0.0
 10
231.3498934842525
 20
513.8833501744894
 30
0.0
 10
231.3185364260635
 20
512.4600767809299
 30
0.0
 10
231.2552347849092
 20
510.5786638677802
 30
0.0
 10
231.1763031843551
 20
508.1371841131865
 30
0.0
 10
231.0371449527347
 20
505.0692550870202
 30
0.0
 10
230.8029180948283
 20
501.5588406181178
 30
0.0
 10
230.5252017867479
 20
497.9348543406454
 30
0.0
 10
230.242039574513
 20
494.6514070583391
 30
0.0
 10
229.9950030463211
 20
491.9094820250531
 30
0.0
 10
229.7659782873692
 20
489.5479177357475
 30
0.0
 10
229.574583618398
 20
487.2852102125593
 30
0.0
 10
229.4434145706652
 20
485.2510565060722
 30
0.0
 10
229.3451941102367
 20
483.3881015647818
 30
0.0
 10
229.2714873290701
 20
481.5785710983154
 30
0.0
 10
229.2100446140441
 20
479.4280266085798
 30
0.0
 10
229.1749308729882
 20
476.8960899610597
 30
0.0
 10
229.1823553580744
 20
474.0961908273759
 30
0.0
 10
229.2200246200106
 20
472.3758456026671
 30
0.0
 10
229.2403859575481
 20
471.6083993088758
 30
0.0
  0
ARC
  5
11A
330
95
100
AcDbEntity
  8
19275000_4LB_WW-
  6
Continuous
 62
     7
100
AcDbCircle
 10
215.8694871276
 20
365.1912224197
 30
0.0
 40
2.000014153155043
100
AcDbArc
 50
152.8784939967
 51
270.0134086489
  0
ARC
  5
11B
330
95
100
AcDbEntity
  8
19275000_4LB_WW-
  6
Continuous
 62
     7
100
AcDbCircle
 10
276.4730036872
 20
365.1912151307
 30
0.0
 40
2.000006863989757
100
AcDbArc
 50
269.9934322357
 51
26.8766706318
  0
ARC
  5
11C
330
95
100
AcDbEntity
  8
14080001_MP_HE_B
  6
Continuous
 62
     7
100
AcDbCircle
 10
272.9736415965
 20
423.0440992668
 30
0.0
 40
114.900009
100
AcDbArc
 50
329.8225659318
 51
345.9308582892
  0
ARC
  5
11D
330
95
100
AcDbEntity
  8
14080001_MP_HE_B
  6
Continuous
 62
     7
100
AcDbCircle
 10
519.3687255965
 20
423.0440992668
 30
0.0
 40
114.900009
100
AcDbArc
 50
194.0691417108
 51
210.1774340682
  0
ARC
  5
11E
330
95
100
AcDbEntity
  8
14080001_MP_HE_B
  6
Continuous
 62
     7
100
AcDbCircle
 10
418.5711835965
 20
364.4316635082
 30
0.0
 40
1.700000000000067
100
AcDbArc
 50
313.1404633598
 51
30.1774340682
  0
ARC
  5
11F
330
95
100
AcDbEntity
  8
14080001_MP_HE_B
  6
Continuous
 62
     7
100
AcDbCircle
 10
373.7711835965
 20
364.4316635082
 30
0.0
 40
1.699999999999997
100
AcDbArc
 50
149.8225659318
 51
226.8595366402
  0
ARC
  5
120
330
95
100
AcDbEntity
  8
14080001_MP_HE_B
  6
Continuous
 62
     7
100
AcDbCircle
 10
407.4303613788
 20
394.9912082668
 30
0.0
 40
0.5000000000000033
100
AcDbArc
 50
14.0691417108
 51
90.0
  0
ARC
  5
121
330
95
100
AcDbEntity
  8
14080001_MP_HE_B
  6
Continuous
 62
     7
100
AcDbCircle
 10
384.9120058143
 20
394.9912082668
 30
0.0
 40
0.5000000000000004
100
AcDbArc
 50
90.0
 51
165.9308582892
  0
ELLIPSE
  5
123
330
95
100
AcDbEntity
  8
14088000_RING_-_
  6
Continuous
 62
     7
100
AcDbEllipse
 10
226.6016967491
 20
463.3491361313
 30
0.0
 11
0.4879455399393606
 21
0.1091290522861194
 31
0.0
210
0.0
220
0.0
230
1.0
 40
0.6557252882
 41
2.649352455012747
 42
3.446931711803932
  0
ELLIPSE
  5
124
330
95
100
AcDbEntity
  8
14088000_RING_-_
  6
Continuous
 62
     7
100
AcDbEllipse
 10
228.5986085147
 20
469.2089014646
 30
0.0
 11
0.4732732340514134
 21
-0.1612837435405884
 31
0.0
210
0.0
220
0.0
230
1.0
 40
0.4796367175
 41
3.057270044345552
 42
3.14159265358978
  0
ELLIPSE
  5
125
330
95
100
AcDbEntity
  8
14088000_RING_-_
  6
Continuous
 62
     7
100
AcDbEllipse
 10
229.1560977647
 20
468.2259724111
 30
0.0
 11
-0.455041988696947
 21
0.2072119410715806
 31
0.0
210
0.0
220
0.0
230
1.0
 40
0.6184251472
 41
0.0941816243114697
 42
0.8917608811018632
  0
ARC
  5
126
330
95
100
AcDbEntity
  8
14088000_RING_-_
  6
Continuous
 62
     7
100
AcDbCircle
 10
230.831871455
 20
473.619856601
 30
0.0
 40
0.431392266937106
100
AcDbArc
 50
148.8256904458
 51
160.4364464751
  0
ELLIPSE
  5
127
330
95
100
AcDbEntity
  8
14088000_RING_-_
  6
Continuous
 62
     7
100
AcDbEllipse
 10
236.2318611263
 20
471.8090966295
 30
0.0
 11
-0.3091897585373593
 21
0.3929398086420094
 31
0.0
210
0.0
220
0.0
230
0.9999999999999999
 40
0.3739412868
 41
0.5041144352927425
 42
1.301693692083676
  0
ELLIPSE
  5
128
330
95
100
AcDbEntity
  8
14088000_RING_-_
  6
Continuous
 62
     7
100
AcDbEllipse
 10
245.9330417554
 20
473.1384135459
 30
0.0
 11
-0.1748920740671234
 21
0.468415160331595
 31
0.0
210
0.0
220
0.0
230
1.0
 40
0.0122170399
 41
-1.525420978597594
 42
-0.7278417218097575
  0
ELLIPSE
  5
129
330
95
100
AcDbEntity
  8
14088000_RING_-_
  6
Continuous
 62
     7
100
AcDbEllipse
 10
263.4614950045
 20
469.2961775603
 30
0.0
 11
-0.4731890188559851
 21
-0.1615306547819856
 31
0.0
210
0.0
220
0.0
230
1.0
 40
0.4820823847
 41
3.141592653589793
 42
3.235242351353986
  0
ELLIPSE
  5
12A
330
95
100
AcDbEntity
  8
14088000_RING_-_
  6
Continuous
 62
     7
100
AcDbEllipse
 10
262.8069957503
 20
468.3102144026
 30
0.0
 11
0.07939727926992157
 21
0.4936558234688027
 31
0.0
210
0.0
220
0.0
230
1.0
 40
0.7854372069
 41
4.662454002722271
 42
5.460033259512101
  0
ELLIPSE
  5
12B
330
95
100
AcDbEntity
  8
14088000_RING_-_
  6
Continuous
 62
     7
100
AcDbEllipse
 10
255.6602161368
 20
471.857733766
 30
0.0
 11
-0.05772221501151864
 21
0.4966569700449175
 31
0.0
210
0.0
220
0.0
230
0.9999999999999999
 40
0.4365790212
 41
4.649874434138001
 42
5.447453690928947
  0
ARC
  5
12C
330
95
100
AcDbEntity
  8
14088000_RING_-_
  6
Continuous
 62
     7
100
AcDbCircle
 10
242.3410170237
 20
444.0757588841
 30
0.0
 40
35.50600395582988
100
AcDbArc
 50
59.5345055565
 51
69.4694528938
  0
ARC
  5
12D
330
95
100
AcDbEntity
  8
14088000_RING_-_
  6
Continuous
 62
     7
100
AcDbCircle
 10
244.8191487359
 20
435.7678415045
 30
0.0
 40
42.73889632203608
100
AcDbArc
 50
76.5043219869
 51
88.4948329383
  0
ARC
  5
12E
330
95
100
AcDbEntity
  8
14088000_RING_-_
  6
Continuous
 62
     7
100
AcDbCircle
 10
245.0620063274
 20
437.0064589309
 30
0.0
 40
41.34948378072943
100
AcDbArc
 50
76.3892857963
 51
88.6098691388
  0
ARC
  5
12F
330
95
100
AcDbEntity
  8
14088000_RING_-_
  6
Continuous
 62
     7
100
AcDbCircle
 10
210.5571132614
 20
443.2160025573
 30
0.0
 40
59.48005014725415
100
AcDbArc
 50
26.2016526437
 51
30.990701023
  0
ARC
  5
130
330
95
100
AcDbEntity
  8
14088000_RING_-_
  6
Continuous
 62
     7
100
AcDbCircle
 10
253.9876114852
 20
496.1587542975
 30
0.0
 40
24.01640545014809
100
AcDbArc
 50
250.7134702055
 51
274.2856847187
  0
ARC
  5
131
330
95
100
AcDbEntity
  8
14088000_RING_-_
  6
Continuous
 62
     7
100
AcDbCircle
 10
267.8387885294
 20
487.0282123341
 30
0.0
 40
19.01639010881695
100
AcDbArc
 50
231.4912052167
 51
255.7110183148
  0
ARC
  5
132
330
95
100
AcDbEntity
  8
14088000_RING_-_
  6
Continuous
 62
     7
100
AcDbCircle
 10
247.2847894277
 20
435.8740351472
 30
0.0
 40
42.63911191509965
100
AcDbArc
 50
91.8049567815
 51
103.7999183801
  0
ARC
  5
133
330
95
100
AcDbEntity
  8
14088000_RING_-_
  6
Continuous
 62
     7
100
AcDbCircle
 10
237.7956835636
 20
495.8861551211
 30
0.0
 40
23.78606807043056
100
AcDbArc
 50
265.9242729781
 51
289.6806021826
  0
ARC
  5
134
330
95
100
AcDbEntity
  8
14088000_RING_-_
  6
Continuous
 62
     7
100
AcDbCircle
 10
248.2016374026
 20
446.8884738233
 30
0.0
 40
32.2454987055097
100
AcDbArc
 50
110.5223405465
 51
123.1924215282
  0
SPLINE
  5
135
330
95
100
AcDbEntity
  8
14088000_RING_-_
  6
Continuous
 62
     7
100
AcDbSpline
210
0.0
220
0.0
230
1.0
 70
     8
 71
     3
 72
     8
 73
     4
 74
     0
 42
0.0000000021690651
 43
0.0000000001
 40
0.7645306010376994
 40
0.7645306010376994
 40
0.7645306010376994
 40
0.7645306010376994
 40
0.7754132374345075
 40
0.7754132374345075
 40
0.7754132374345075
 40
0.7754132374345075
 10
264.0258861323293
 20
458.8983404451577
 30
0.0
 10
264.0151490452972
 20
458.8854096007905
 30
0.0
 10
264.0043894573727
 20
458.8726061912287
 30
0.0
 10
263.9936065172841
 20
458.8599321479441
 30
0.0
  0
ARC
  5
136
330
95
100
AcDbEntity
  8
14088000_RING_-_
  6
Continuous
 62
     7
100
AcDbCircle
 10
224.2244293152
 20
486.3561879922
 30
0.0
 40
18.4229448903673
100
AcDbArc
 50
284.426863969
 51
309.2878980946
  0
ARC
  5
137
330
95
100
AcDbEntity
  8
14088000_RING_-_
  6
Continuous
 62
     7
100
AcDbCircle
 10
285.9205671394
 20
441.9089036434
 30
0.0
 40
63.98814194760433
100
AcDbArc
 50
150.1432674458
 51
154.5672207404
  0
ARC
  5
138
330
95
100
AcDbEntity
  8
14088000_RING_-_
  6
Continuous
 62
     7
100
AcDbCircle
 10
196.9139305913
 20
481.9426892058
 30
0.0
 40
34.54027828226225
100
AcDbArc
 50
327.784259173
 51
336.9262290094
  0
SPLINE
  5
139
330
95
100
AcDbEntity
  8
14088000_RING_-_
  6
Continuous
 62
     7
100
AcDbSpline
210
0.0
220
0.0
230
1.0
 70
     8
 71
     3
 72
    10
 73
     6
 74
     0
 42
0.0000000021285866
 43
0.0000000001
 40
0.2352033222125097
 40
0.2352033222125097
 40
0.2352033222125097
 40
0.2352033222125097
 40
0.2398371509868575
 40
0.2398371509868575
 40
0.2426309168691726
 40
0.2426309168691726
 40
0.2426309168691726
 40
0.2426309168691726
 10
228.1114643719507
 20
458.8074988286719
 30
0.0
 10
228.1067410568187
 20
458.8129772059638
 30
0.0
 10
228.1020220902877
 20
458.8184784049847
 30
0.0
 10
228.0944649076054
 20
458.8273326377617
 30
0.0
 10
228.0916239715927
 20
458.8306710897845
 30
0.0
 10
228.0887846071385
 20
458.8340176048425
 30
0.0
  0
ELLIPSE
  5
13A
330
95
100
AcDbEntity
  8
14088000_RING_-_
  6
Continuous
 62
     7
100
AcDbEllipse
 10
246.0300517596
 20
462.1634235132
 30
0.0
 11
19.03767298376435
 21
0.0
 31
0.0
210
0.0
220
0.0
230
1.0
 40
0.5013620697
 41
3.340708575269724
 42
3.755265887237841
  0
ELLIPSE
  5
13B
330
95
100
AcDbEntity
  8
14088000_RING_-_
  6
Continuous
 62
     7
100
AcDbEllipse
 10
246.0300517596
 20
462.1634235132
 30
0.0
 11
19.03767298376435
 21
0.0
 31
0.0
210
0.0
220
0.0
230
1.0
 40
0.5013620697
 41
5.676771997937
 42
6.147042150517768
  0
ELLIPSE
  5
13C
330
95
100
AcDbEntity
  8
14088000_RING_-_
  6
Continuous
 62
     7
100
AcDbEllipse
 10
246.0300517596
 20
461.2820553595
 30
0.0
 11
-14.00000000000001
 21
0.0
 31
0.0
210
0.0
220
0.0
230
1.0
 40
0.5013620697
 41
3.141592653589793
 42
6.283185307179586
  0
ELLIPSE
  5
13D
330
95
100
AcDbEntity
  8
14088000_RING_-_
  6
Continuous
 62
     7
100
AcDbEllipse
 10
246.0300517596
 20
461.3685789089
 30
0.0
 11
14.10021974398845
 21
0.0
 31
0.0
210
0.0
220
0.0
230
1.0
 40
0.5013620697
 41
0.0
 42
2.524018691401804
  0
ELLIPSE
  5
13E
330
95
100
AcDbEntity
  8
14088000_RING_-_
  6
Continuous
 62
     7
100
AcDbEllipse
 10
246.0300517596
 20
461.3685789089
 30
0.0
 11
14.10021974398845
 21
0.0
 31
0.0
210
0.0
220
0.0
230
1.0
 40
0.5013620697
 41
2.538202018752331
 42
3.260891507908108
  0
ELLIPSE
  5
13F
330
95
100
AcDbEntity
  8
14088000_RING_-_
  6
Continuous
 62
     7
100
AcDbEllipse
 10
246.0300517596
 20
461.3685789089
 30
0.0
 11
14.10021974398845
 21
0.0
 31
0.0
210
0.0
220
0.0
230
1.0
 40
0.5013620697
 41
6.163886452861338
 42
6.283185307179586
  0
ELLIPSE
  5
140
330
95
100
AcDbEntity
  8
14088000_RING_-_
  6
Continuous
 62
     7
100
AcDbEllipse
 10
246.0300517596
 20
462.0943494461
 30
0.0
 11
18.91814591059976
 21
0.0
 31
0.0
210
0.0
220
0.0
230
1.0
 40
0.5013620697
 41
-0.8104654701377445
 42
-0.5837792724766544
  0
ELLIPSE
  5
141
330
95
100
AcDbEntity
  8
14088000_RING_-_
  6
Continuous
 62
     7
100
AcDbEllipse
 10
246.0300517596
 20
462.0943494461
 30
0.0
 11
18.91814591059976
 21
0.0
 31
0.0
210
0.0
220
0.0
230
1.0
 40
0.5013620697
 41
3.735862916929686
 42
3.952879390714264
  0
ELLIPSE
  5
142
330
95
100
AcDbEntity
  8
14088000_RING_-_
  6
Continuous
 62
     7
100
AcDbEllipse
 10
246.0300517596
 20
455.3989387937
 30
0.0
 11
-11.50000000000001
 21
1.387778780781446E-14
 31
0.0
210
0.0
220
0.0
230
1.0
 40
0.5013620697
 41
0.0
 42
6.283185307179586
  0
ELLIPSE
  5
143
330
95
100
AcDbEntity
  8
14088000_RING_-_
  6
Continuous
 62
     7
100
AcDbEllipse
 10
246.0300517596
 20
458.8598891259
 30
0.0
 11
-11.50000000000001
 21
1.387778780781446E-14
 31
0.0
210
0.0
220
0.0
230
1.0
 40
0.5013620697
 41
0.3048337503585124
 42
2.836758903231249
  0
LINE
  5
144
330
95
100
AcDbEntity
  8
14088000_RING_-_
  6
Continuous
 62
     7
100
AcDbLine
 10
233.0300517596
 20
455.3989387937
 30
0.0
 11
233.0300517596
 21
453.4130280369
 31
0.0
  0
LINE
  5
145
330
95
100
AcDbEntity
  8
14088000_RING_-_
  6
Continuous
 62
     7
100
AcDbLine
 10
233.0300517596
 20
458.8693301097
 30
0.0
 11
233.0300517596
 21
455.3989387937
 31
0.0
  0
ELLIPSE
  5
146
330
95
100
AcDbEntity
  8
14088000_RING_-_
  6
Continuous
 62
     7
100
AcDbEllipse
 10
246.0300517596
 20
457.9946515428
 30
0.0
 11
14.0000000000001
 21
5.551115123125782E-14
 31
0.0
210
0.0
220
0.0
230
1.0
 40
0.5013620697
 41
2.761341446896868
 42
3.52184386028272
  0
LINE
  5
147
330
95
100
AcDbEntity
  8
14088000_RING_-_
  6
Continuous
 62
     7
100
AcDbLine
 10
233.0300517596
 20
460.5998052757
 30
0.0
 11
233.0300517596
 21
458.8693301097
 31
0.0
  0
ELLIPSE
  5
148
330
95
100
AcDbEntity
  8
14088000_RING_-_
  6
Continuous
 62
     7
100
AcDbEllipse
 10
246.0300517596
 20
457.9946515428
 30
0.0
 11
-14.00000000000015
 21
-5.551115123125783E-14
 31
0.0
210
0.0
220
0.0
230
1.0
 40
0.5013620697
 41
2.761341446896869
 42
3.521843860282713
  0
LINE
  5
149
330
95
100
AcDbEntity
  8
14088000_RING_-_
  6
Continuous
 62
     7
100
AcDbLine
 10
259.0300517596
 20
453.4131674558
 30
0.0
 11
259.0300517596
 21
455.3989387937
 31
0.0
  0
LINE
  5
14A
330
95
100
AcDbEntity
  8
14088000_RING_-_
  6
Continuous
 62
     7
100
AcDbLine
 10
259.0300517596
 20
455.3989387937
 30
0.0
 11
259.0300517596
 21
458.8693301097
 31
0.0
  0
LINE
  5
14B
330
95
100
AcDbEntity
  8
14088000_RING_-_
  6
Continuous
 62
     7
100
AcDbLine
 10
259.0300517596
 20
458.8693301097
 30
0.0
 11
259.0300517596
 21
460.5998052757
 31
0.0
  0
ARC
  5
14C
330
95
100
AcDbEntity
  8
14088000_RING_-_
  6
Continuous
 62
     7
100
AcDbCircle
 10
226.6016967491
 20
463.3491361313
 30
0.0
 40
0.4999999999647418
100
AcDbArc
 50
161.1817331165
 51
192.6067436712
  0
ARC
  5
14D
330
95
100
AcDbEntity
  8
14088000_RING_-_
  6
Continuous
 62
     7
100
AcDbCircle
 10
230.8904595905
 20
473.5844800866
 30
0.0
 40
0.4999999999999966
100
AcDbArc
 50
123.6188430334
 51
148.8429404686
  0
ARC
  5
14E
330
95
100
AcDbEntity
  8
14088000_RING_-_
  6
Continuous
 62
     7
100
AcDbCircle
 10
265.45840677
 20
463.4464104043
 30
0.0
 40
0.4999999999998207
100
AcDbArc
 50
348.1010847986
 51
18.8481613007
  0
ARC
  5
14F
330
95
100
AcDbEntity
  8
14088000_RING_-_
  6
Continuous
 62
     7
100
AcDbCircle
 10
261.0826049393
 20
473.6600634026
 30
0.0
 40
0.5000000000000003
100
AcDbArc
 50
32.5639694846
 51
56.909241266
  0
LINE
  5
150
330
95
100
AcDbEntity
  8
14088000_RING_-_
  6
Continuous
 62
     7
100
AcDbLine
 10
261.3696486556
 20
474.0682694989
 30
0.0
 11
260.4326810475
 21
474.6432907609
 31
0.0
  0
ARC
  5
151
330
95
100
AcDbEntity
  8
14088000_RING_-_
  6
Continuous
 62
     7
100
AcDbCircle
 10
207.4652961688
 20
441.6088308152
 30
0.0
 40
62.96277253101512
100
AcDbArc
 50
26.3202622284
 51
28.7221513365
  0
ARC
  5
152
330
95
100
AcDbEntity
  8
14088000_RING_-_
  6
Continuous
 62
     7
100
AcDbCircle
 10
207.4652961688
 20
441.6088308152
 30
0.0
 40
62.96277253101512
100
AcDbArc
 50
29.9321625014
 51
30.9403622674
  0
LINE
  5
153
330
95
100
AcDbEntity
  8
14088000_RING_-_
  6
Continuous
 62
     7
100
AcDbLine
 10
265.9315957889
 20
463.607941059
 30
0.0
 11
263.9346840234
 21
469.4577082151
 31
0.0
  0
ARC
  5
154
330
95
100
AcDbEntity
  8
14088000_RING_-_
  6
Continuous
 62
     7
100
AcDbCircle
 10
248.2356636779
 20
447.1691972929
 30
0.0
 40
32.09951269184746
100
AcDbArc
 50
110.3592714169
 51
123.4110447807
  0
ARC
  5
155
330
95
100
AcDbEntity
  8
14088000_RING_-_
  6
Continuous
 62
     7
100
AcDbCircle
 10
255.4195760559
 20
465.2590850595
 30
0.0
 40
10.70094232341975
100
AcDbArc
 50
324.2249762438
 51
349.7573969859
  0
LINE
  5
156
330
95
100
AcDbEntity
  8
14088000_RING_-_
  6
Continuous
 62
     7
100
AcDbLine
 10
228.1253352806
 20
469.3701852082
 30
0.0
 11
226.1284235151
 21
463.5104198747
 31
0.0
  0
ARC
  5
157
330
95
100
AcDbEntity
  8
14088000_RING_-_
  6
Continuous
 62
     7
100
AcDbCircle
 10
236.6519987096
 20
465.3215238589
 30
0.0
 40
10.74297285048537
100
AcDbArc
 50
190.836960945
 51
217.1695530658
  0
ARC
  5
158
330
95
100
AcDbEntity
  8
14088000_RING_-_
  6
Continuous
 62
     7
100
AcDbCircle
 10
255.8076757726
 20
465.5113226003
 30
0.0
 40
10.53356697796892
100
AcDbArc
 50
306.3485692545
 51
320.9345115888
  0
ARC
  5
159
330
95
100
AcDbEntity
  8
14088000_RING_-_
  6
Continuous
 62
     7
100
AcDbCircle
 10
238.1154179196
 20
467.4698470117
 30
0.0
 40
13.23242617394736
100
AcDbArc
 50
220.8876767761
 51
231.8763862996
  0
SPLINE
  5
15A
330
95
100
AcDbEntity
  8
14088000_RING_-_
  6
Continuous
 62
     7
100
AcDbSpline
210
0.0
220
0.0
230
1.0
 70
     8
 71
     3
 72
    33
 73
    29
 74
     0
 42
0.0000000003503757
 43
0.0000000001
 40
0.0
 40
0.0
 40
0.0
 40
0.0
 40
0.0149213443552645
 40
0.0542904825945819
 40
0.0944232064132886
 40
0.1350308465239182
 40
0.1758416591616056
 40
0.2166471514722149
 40
0.2573638633973415
 40
0.297971337013657
 40
0.3384745062117941
 40
0.3788894934359634
 40
0.4192364717109598
 40
0.4595365151774058
 40
0.4998104850122017
 40
0.5400788960571555
 40
0.5803588154312733
 40
0.6206676930809527
 40
0.6610271438529965
 40
0.7014599264717868
 40
0.7419898964904531
 40
0.7826410038723768
 40
0.8234342377365417
 40
0.8643804242791324
 40
0.9054653240105689
 40
0.9466085717311371
 40
0.9875899318738948
 40
1.0
 40
1.0
 40
1.0
 40
1.0
 10
233.0396607692866
 20
453.4224703500602
 30
0.0
 10
233.1057769136847
 20
453.3257877564315
 30
0.0
 10
233.3124103943341
 20
453.0261793053847
 30
0.0
 10
233.8211730749344
 20
452.499092468057
 30
0.0
 10
234.5311033060663
 20
451.8894578466472
 30
0.0
 10
235.3634623673329
 20
451.317066423002
 30
0.0
 10
236.2933406403928
 20
450.7936867806915
 30
0.0
 10
237.3135925303007
 20
450.3230941251118
 30
0.0
 10
238.4117793240055
 20
449.9093697651631
 30
0.0
 10
239.5773748100656
 20
449.5550561032139
 30
0.0
 10
240.7995647853011
 20
449.262271968158
 30
0.0
 10
242.0674546114591
 20
449.0327297098714
 30
0.0
 10
243.3698691191451
 20
448.8678022623018
 30
0.0
 10
244.6953911936126
 20
448.7684918082642
 30
0.0
 10
246.0324120104899
 20
448.735403542415
 30
0.0
 10
247.3691876123628
 20
448.7687217749408
 30
0.0
 10
248.6939486326729
 20
448.8681922699811
 30
0.0
 10
249.9950586587881
 20
449.0331266097378
 30
0.0
 10
251.2611714035145
 20
449.2624424065181
 30
0.0
 10
252.4813205688569
 20
449.554721543485
 30
0.0
 10
253.6450008767195
 20
449.9082906852305
 30
0.0
 10
254.7420643739884
 20
450.3212708644547
 30
0.0
 10
255.7632186792081
 20
450.7918205371241
 30
0.0
 10
256.6978865901773
 20
451.3176173376714
 30
0.0
 10
257.5412971847986
 20
451.8978333337985
 30
0.0
 10
258.2658367220992
 20
452.5244733941043
 30
0.0
 10
258.7744407920883
 20
453.0538707172541
 30
0.0
 10
258.9734021148048
 20
453.3507704233084
 30
0.0
 10
259.0271914078883
 20
453.4316078215485
 30
0.0
  0
LINE
  5
15B
330
95
100
AcDbEntity
  8
14088000_RING_-_
  6
Continuous
 62
     7
100
AcDbLine
 10
232.0300517596
 20
461.2820553595
 30
0.0
 11
232.0300517596
 21
457.9946515428
 31
0.0
  0
LINE
  5
15C
330
95
100
AcDbEntity
  8
14088000_RING_-_
  6
Continuous
 62
     7
100
AcDbLine
 10
260.0300517596
 20
457.9946515428
 30
0.0
 11
260.0300517596
 21
461.2820553595
 31
0.0
  0
LINE
  5
15D
330
95
100
AcDbEntity
  8
14801000_ROUND_H
  6
Continuous
 62
     7
100
AcDbLine
 10
90.1711835965
 20
427.3442400859
 30
0.0
 11
90.1711835965
 21
413.0653954511
 31
0.0
  0
LINE
  5
15E
330
95
100
AcDbEntity
  8
14801000_ROUND_H
  6
Continuous
 62
     7
100
AcDbLine
 10
102.1711835965
 20
413.0653954511
 30
0.0
 11
102.1711835965
 21
427.3442400859
 31
0.0
  0
LINE
  5
15F
330
95
100
AcDbEntity
  8
14088700_ROUND_H
  6
Continuous
 62
     7
100
AcDbLine
 10
90.0711835965
 20
427.3442400859
 30
0.0
 11
102.2711835965
 21
427.3442400859
 31
0.0
  0
ARC
  5
160
330
95
100
AcDbEntity
  8
14088700_ROUND_H
  6
Continuous
 62
     7
100
AcDbCircle
 10
73.7084363588
 20
435.8229699495
 30
0.0
 40
0.2000000000000057
100
AcDbArc
 50
90.0
 51
187.3021854762
  0
ARC
  5
161
330
95
100
AcDbEntity
  8
14088700_ROUND_H
  6
Continuous
 62
     7
100
AcDbCircle
 10
118.6339308343
 20
435.8229699495
 30
0.0
 40
0.2000000000000297
100
AcDbArc
 50
352.6978145237
 51
90.0
  0
LINE
  5
162
330
95
100
AcDbEntity
  8
14088700_ROUND_H
  6
Continuous
 62
     7
100
AcDbLine
 10
73.5100584397
 20
435.7975494609
 30
0.0
 11
73.6272969788
 21
434.8826363862
 31
0.0
  0
LINE
  5
163
330
95
100
AcDbEntity
  8
14088700_ROUND_H
  6
Continuous
 62
     7
100
AcDbLine
 10
118.7150702143
 20
434.8826363862
 30
0.0
 11
118.8323087533
 21
435.7975494609
 31
0.0
  0
ARC
  5
164
330
95
100
AcDbEntity
  8
14088700_ROUND_H
  6
Continuous
 62
     7
100
AcDbCircle
 10
74.4704031346
 20
434.9906734629
 30
0.0
 40
0.849999999999985
100
AcDbArc
 50
187.3021854762
 51
232.7838920423
  0
ARC
  5
165
330
95
100
AcDbEntity
  8
14088700_ROUND_H
  6
Continuous
 62
     7
100
AcDbCircle
 10
117.8719640584
 20
434.9906734629
 30
0.0
 40
0.849999999999966
100
AcDbArc
 50
307.2161079577
 51
352.6978145238
  0
ARC
  5
166
330
95
100
AcDbEntity
  8
14088700_ROUND_H
  6
Continuous
 62
     7
100
AcDbCircle
 10
96.1711835965
 20
463.5637120123
 30
0.0
 40
36.72955413051705
100
AcDbArc
 50
279.5599094461
 51
307.2161079577
  0
ARC
  5
167
330
95
100
AcDbEntity
  8
14088700_ROUND_H
  6
Continuous
 62
     7
100
AcDbCircle
 10
96.1711835965
 20
463.5637120123
 30
0.0
 40
36.72955413051707
100
AcDbArc
 50
232.7838920423
 51
260.4400905539
  0
ELLIPSE
  5
168
330
95
100
AcDbEntity
  8
14088600_ROUND_H
  6
Continuous
 62
     7
100
AcDbEllipse
 10
123.1653888953
 20
439.8956000223
 30
0.0
 11
-0.435895171122025
 21
0.2449395839641405
 31
0.0
210
0.0
220
0.0
230
1.0
 40
0.9352547002
 41
3.12124569414051
 42
3.141592653589797
  0
ELLIPSE
  5
169
330
95
100
AcDbEntity
  8
14088600_ROUND_H
  6
Continuous
 62
     7
100
AcDbEllipse
 10
124.4846836661
 20
444.2127124496
 30
0.0
 11
-0.4999305647899743
 21
-0.008332489949317012
 31
0.0
210
0.0
220
0.0
230
1.0
 40
0.9651352827
 41
3.141592653161953
 42
3.306808799161605
  0
ELLIPSE
  5
16A
330
95
100
AcDbEntity
  8
14088600_ROUND_H
  6
Continuous
 62
     7
100
AcDbEllipse
 10
69.1769782977
 20
439.8956000223
 30
0.0
 11
0.4358951711215808
 21
0.2449395839643487
 31
0.0
210
0.0
220
0.0
230
1.0
 40
0.9352547002
 41
3.141592653589793
 42
3.161671700146388
  0
ELLIPSE
  5
16B
330
95
100
AcDbEntity
  8
14088600_ROUND_H
  6
Continuous
 62
     7
100
AcDbEllipse
 10
67.8576835271
 20
444.2127124555
 30
0.0
 11
0.499930566366491
 21
-0.00833239536630892
 31
0.0
210
0.0
220
0.0
230
1.0
 40
0.965135281
 41
3.0774151131269
 42
3.141592502167809
  0
SPLINE
  5
16C
330
95
100
AcDbEntity
  8
14088600_ROUND_H
  6
Continuous
 62
     7
100
AcDbSpline
210
0.0
220
0.0
230
1.0
 70
     8
 71
     3
 72
     8
 73
     4
 74
     0
 42
0.0000000062147944
 43
0.0000000001
 40
0.3066700182555646
 40
0.3066700182555646
 40
0.3066700182555646
 40
0.3066700182555646
 40
0.3389893709045522
 40
0.3389893709045522
 40
0.3389893709045522
 40
0.3389893709045522
 10
67.75161148105266
 20
445.2802562922933
 30
0.0
 10
67.76494273687692
 20
445.2923467135917
 30
0.0
 10
67.77839074776071
 20
445.3032442126063
 30
0.0
 10
67.79193501756725
 20
445.3130095380243
 30
0.0
  0
SPLINE
  5
16D
330
95
100
AcDbEntity
  8
14088600_ROUND_H
  6
Continuous
 62
     7
100
AcDbSpline
210
0.0
220
0.0
230
1.0
 70
     8
 71
     3
 72
     8
 73
     4
 74
     0
 42
0.0000000062145667
 43
0.0000000001
 40
0.3066498110427858
 40
0.3066498110427858
 40
0.3066498110427858
 40
0.3066498110427858
 40
0.3389785480929381
 40
0.3389785480929381
 40
0.3389785480929381
 40
0.3389785480929381
 10
124.5907807173903
 20
445.2802336128055
 30
0.0
 10
124.5774457366884
 20
445.2923290369083
 30
0.0
 10
124.5639939202916
 20
445.3032308078572
 30
0.0
 10
124.550445782196
 20
445.3129997272727
 30
0.0
  0
LINE
  5
16E
330
95
100
AcDbEntity
  8
14088600_ROUND_H
  6
Continuous
 62
     7
100
AcDbLine
 10
118.8180231479
 20
436.0229699495
 30
0.0
 11
73.5243440452
 21
436.0229699495
 31
0.0
  0
ARC
  5
16F
330
95
100
AcDbEntity
  8
14088600_ROUND_H
  6
Continuous
 62
     7
100
AcDbCircle
 10
123.1653888953
 20
439.8956000223
 30
0.0
 40
0.4999999999999261
100
AcDbArc
 50
330.6673600562
 51
343.0070271288
  0
ARC
  5
170
330
95
100
AcDbEntity
  8
14088600_ROUND_H
  6
Continuous
 62
     7
100
AcDbCircle
 10
124.4846836661
 20
444.2127124497
 30
0.0
 40
0.5000000000000271
100
AcDbArc
 50
343.0070280252
 51
0.9548771903
  0
ARC
  5
171
330
95
100
AcDbEntity
  8
14088600_ROUND_H
  6
Continuous
 62
     7
100
AcDbCircle
 10
69.1769782977
 20
439.8956000223
 30
0.0
 40
0.4999999999999998
100
AcDbArc
 50
196.9929728712
 51
209.3326399437
  0
ARC
  5
172
330
95
100
AcDbEntity
  8
14088600_ROUND_H
  6
Continuous
 62
     7
100
AcDbCircle
 10
67.8576835263
 20
444.2127124491
 30
0.0
 40
0.4999999996715208
100
AcDbArc
 50
179.0451245189
 51
196.9929719297
  0
SPLINE
  5
173
330
95
100
AcDbEntity
  8
14088600_ROUND_H
  6
Continuous
 62
     7
100
AcDbSpline
210
0.0
220
0.0
230
1.0
 70
     8
 71
     3
 72
     8
 73
     4
 74
     0
 42
0.0000000080946919
 43
0.0000000001
 40
0.2284215409014456
 40
0.2284215409014456
 40
0.2284215409014456
 40
0.2284215409014456
 40
1.0
 40
1.0
 40
1.0
 40
1.0
 10
67.61315564612234
 20
445.1427048372416
 30
0.0
 10
67.46520458129629
 20
444.9486702792971
 30
0.0
 10
67.38058289838919
 20
444.6517267893407
 30
0.0
 10
67.35929059740099
 20
444.2518743673724
 30
0.0
  0
ARC
  5
174
330
95
100
AcDbEntity
  8
14088600_ROUND_H
  6
Continuous
 62
     7
100
AcDbCircle
 10
72.2765816704
 20
441.4041711117
 30
0.0
 40
3.944230609570985
100
AcDbArc
 50
206.5158653613
 51
224.3081367483
  0
LINE
  5
175
330
95
100
AcDbEntity
  8
14088600_ROUND_H
  6
Continuous
 62
     7
100
AcDbLine
 10
67.3795132211
 20
444.0665852496
 30
0.0
 11
68.6988079941
 21
439.7494728148
 31
0.0
  0
SPLINE
  5
176
330
95
100
AcDbEntity
  8
14088600_ROUND_H
  6
Continuous
 62
     7
100
AcDbSpline
210
0.0
220
0.0
230
1.0
 70
     8
 71
     3
 72
     8
 73
     4
 74
     0
 42
0.0000000084443112
 43
0.0000000001
 40
0.0
 40
0.0
 40
0.0
 40
0.0
 40
1.0
 40
1.0
 40
1.0
 40
1.0
 10
124.9829987461793
 20
444.2528006513029
 30
0.0
 10
124.9551151429639
 20
444.7707774278647
 30
0.0
 10
124.8211689796502
 20
445.1158358368312
 30
0.0
 10
124.5811602562382
 20
445.2879758782022
 30
0.0
  0
LINE
  5
177
330
95
100
AcDbEntity
  8
14088600_ROUND_H
  6
Continuous
 62
     7
100
AcDbLine
 10
123.6435591989
 20
439.7494728148
 30
0.0
 11
124.9628539719
 21
444.0665852496
 31
0.0
  0
ARC
  5
178
330
95
100
AcDbEntity
  8
14088600_ROUND_H
  6
Continuous
 62
     7
100
AcDbCircle
 10
120.0658104515
 20
441.404148975
 30
0.0
 40
3.944197400560152
100
AcDbArc
 50
313.3362091716
 51
333.4841174114
  0
ARC
  5
179
330
95
100
AcDbEntity
  8
14088600_ROUND_H
  6
Continuous
 62
     7
100
AcDbCircle
 10
109.2882976395
 20
455.3909986052
 30
0.0
 40
21.58555540800878
100
AcDbArc
 50
296.1987470491
 51
308.6740150715
  0
ARC
  5
17A
330
95
100
AcDbEntity
  8
14088600_ROUND_H
  6
Continuous
 62
     7
100
AcDbCircle
 10
83.0540695535
 20
455.3909986052
 30
0.0
 40
21.58555540800881
100
AcDbArc
 50
231.3232698962
 51
243.8012529509
  0
ARC
  5
17B
330
95
100
AcDbEntity
  8
14088600_ROUND_H
  6
Continuous
 62
     7
100
AcDbCircle
 10
96.1711835965
 20
383.5220724246
 30
0.0
 40
68.0540978140181
100
AcDbArc
 50
109.3280430914
 51
114.1475423058
  0
ARC
  5
17C
330
95
100
AcDbEntity
  8
14088600_ROUND_H
  6
Continuous
 62
     7
100
AcDbCircle
 10
96.1711835965
 20
383.5220724246
 30
0.0
 40
68.05409781401721
100
AcDbArc
 50
65.8524576942
 51
70.6719569086
  0
ARC
  5
17D
330
95
100
AcDbEntity
  8
14088600_ROUND_H
  6
Continuous
 62
     7
100
AcDbCircle
 10
122.7267465889
 20
442.7558648843
 30
0.0
 40
3.139999999999995
100
AcDbArc
 50
54.4007357955
 51
65.8524576942
  0
ARC
  5
17E
330
95
100
AcDbEntity
  8
14088600_ROUND_H
  6
Continuous
 62
     7
100
AcDbCircle
 10
69.6156206041
 20
442.7558648843
 30
0.0
 40
3.139999999999995
100
AcDbArc
 50
114.1475423058
 51
125.5903906061
  0
ARC
  5
17F
330
95
100
AcDbEntity
  8
14088600_ROUND_H
  6
Continuous
 62
     7
100
AcDbCircle
 10
118.5961835965
 20
447.4574862857
 30
0.0
 40
0.2999999999999864
100
AcDbArc
 50
70.6719569086
 51
90.0
  0
ARC
  5
180
330
95
100
AcDbEntity
  8
14088600_ROUND_H
  6
Continuous
 62
     7
100
AcDbCircle
 10
73.7461835965
 20
447.4574862857
 30
0.0
 40
0.3000000000000086
100
AcDbArc
 50
90.0
 51
109.3280430914
  0
LINE
  5
181
330
95
100
AcDbEntity
  8
14088600_ROUND_H
  6
Continuous
 62
     7
100
AcDbLine
 10
118.5961835965
 20
447.7574862857
 30
0.0
 11
73.7461835965
 21
447.7574862857
 31
0.0
  0
ARC
  5
182
330
95
100
AcDbEntity
  8
14086400_ROUND_H
  6
Continuous
 62
     7
100
AcDbCircle
 10
117.9455898712
 20
447.7655608399
 30
0.0
 40
0.250000000000028
100
AcDbArc
 50
0.0
 51
71.2682987072
  0
ARC
  5
183
330
95
100
AcDbEntity
  8
14086400_ROUND_H
  6
Continuous
 62
     7
100
AcDbCircle
 10
74.3967773218
 20
447.7655608399
 30
0.0
 40
0.2500000000000058
100
AcDbArc
 50
108.7317012928
 51
180.0
  0
ARC
  5
184
330
95
100
AcDbEntity
  8
14086400_ROUND_H
  6
Continuous
 62
     7
100
AcDbCircle
 10
96.1711835965
 20
383.5528602912
 30
0.0
 40
68.0540978140143
100
AcDbArc
 50
89.9989848366
 51
108.7317012929
  0
ARC
  5
185
330
95
100
AcDbEntity
  8
14086400_ROUND_H
  6
Continuous
 62
     7
100
AcDbCircle
 10
96.1711835965
 20
383.5528602912
 30
0.0
 40
68.05409781401424
100
AcDbArc
 50
71.2682987071
 51
89.9989848366
  0
LINE
  5
186
330
95
100
AcDbEntity
  8
14086400_ROUND_H
  6
Continuous
 62
     7
100
AcDbLine
 10
118.1955898712
 20
447.7574862857
 30
0.0
 11
118.1955898712
 21
447.7655608399
 31
0.0
  0
LINE
  5
187
330
95
100
AcDbEntity
  8
14086400_ROUND_H
  6
Continuous
 62
     7
100
AcDbLine
 10
74.1467773218
 20
447.7655608399
 30
0.0
 11
74.1467773218
 21
447.7574862857
 31
0.0
  0
LINE
  5
188
330
95
100
AcDbEntity
  8
14087800_RING_-_
  6
Continuous
 62
     7
100
AcDbLine
 10
107.5728964872
 20
395.4912082668
 30
0.0
 11
84.7694707058
 21
395.4912082668
 31
0.0
  0
ARC
  5
189
330
95
100
AcDbEntity
  8
14087800_RING_-_
  6
Continuous
 62
     7
100
AcDbCircle
 10
96.1711835965
 20
378.7123675215
 30
0.0
 40
34.99999999999765
100
AcDbArc
 50
101.1135262976
 51
111.2365591835
  0
ARC
  5
18A
330
95
100
AcDbEntity
  8
14087800_RING_-_
  6
Continuous
 62
     7
100
AcDbCircle
 10
96.1711835965
 20
378.7123675215
 30
0.0
 40
34.99999999999783
100
AcDbArc
 50
68.7634408165
 51
78.8864737024
  0
ARC
  5
18B
330
95
100
AcDbEntity
  8
14087800_RING_-_
  6
Continuous
 62
     7
100
AcDbCircle
 10
83.7470584562
 20
410.6831528497
 30
0.0
 40
0.7000000000001463
100
AcDbArc
 50
111.2365591834
 51
204.6643304599
  0
ARC
  5
18C
330
95
100
AcDbEntity
  8
14087800_RING_-_
  6
Continuous
 62
     7
100
AcDbCircle
 10
108.5953087369
 20
410.6831528497
 30
0.0
 40
0.699999999999984
100
AcDbArc
 50
335.3356695401
 51
68.7634408165
  0
ARC
  5
18D
330
95
100
AcDbEntity
  8
14087800_RING_-_
  6
Continuous
 62
     7
100
AcDbCircle
 10
84.7694707058
 20
395.6912082668
 30
0.0
 40
0.1999999999999494
100
AcDbArc
 50
166.7450899086
 51
270.0
  0
ARC
  5
18E
330
95
100
AcDbEntity
  8
14087800_RING_-_
  6
Continuous
 62
     7
100
AcDbCircle
 10
107.5728964872
 20
395.6912082668
 30
0.0
 40
0.1999999999999988
100
AcDbArc
 50
270.0
 51
13.2549100914
  0
ARC
  5
18F
330
95
100
AcDbEntity
  8
14087800_RING_-_
  6
Continuous
 62
     7
100
AcDbCircle
 10
62.5149231637
 20
400.9334715509
 30
0.0
 40
22.66364386188309
100
AcDbArc
 50
346.7450899086
 51
24.6643304599
  0
ARC
  5
190
330
95
100
AcDbEntity
  8
14087800_RING_-_
  6
Continuous
 62
     7
100
AcDbCircle
 10
129.8274440293
 20
400.9334715509
 30
0.0
 40
22.66364386188308
100
AcDbArc
 50
155.3356695401
 51
193.2549100914
  0
ARC
  5
191
330
95
100
AcDbEntity
  8
14087800_RING_-_
  6
Continuous
 62
     7
100
AcDbCircle
 10
102.8211835965
 20
412.5653954511
 30
0.0
 40
0.5000000000000003
100
AcDbArc
 50
78.8864737024
 51
90.0
  0
ARC
  5
192
330
95
100
AcDbEntity
  8
14087800_RING_-_
  6
Continuous
 62
     7
100
AcDbCircle
 10
89.5211835965
 20
412.5653954511
 30
0.0
 40
0.5000000000000004
100
AcDbArc
 50
90.0
 51
101.1135262976
  0
LINE
  5
193
330
95
100
AcDbEntity
  8
14087800_RING_-_
  6
Continuous
 62
     7
100
AcDbLine
 10
102.8211835965
 20
413.0653954511
 30
0.0
 11
89.5211835965
 21
413.0653954511
 31
0.0
  0
ENDBLK
  5
195
330
95
100
AcDbEntity
  8
0
100
AcDbBlockEnd
  0
BLOCK
  5
258
330
196
100
AcDbEntity
  8
0
100
AcDbBlockBegin
  2
SE1
 70
     0
 10
0.0
 20
0.0
 30
0.0
  3
SE1
  1

  0
ARC
  5
198
330
196
100
AcDbEntity
  8
T14089600_49432_
  6
Continuous
 62
     7
100
AcDbCircle
 10
604.3264476895
 20
362.4986428897
 30
0.0
 40
0.5015644324436341
100
AcDbArc
 50
38.1863075908
 51
78.7616504703
  0
ARC
  5
199
330
196
100
AcDbEntity
  8
T14089600_49432_
  6
Continuous
 62
     7
100
AcDbCircle
 10
555.5605731735
 20
362.5025149929
 30
0.0
 40
0.4973061573037745
100
AcDbArc
 50
101.0568824681
 51
141.9951594661
  0
ARC
  5
19A
330
196
100
AcDbEntity
  8
T14089600_49432_
  6
Continuous
 62
     7
100
AcDbCircle
 10
567.5567072477
 20
262.873125405
 30
0.0
 40
100.0956266993693
100
AcDbArc
 50
86.7596564926
 51
93.2403435066
  0
ARC
  5
19B
330
196
100
AcDbEntity
  8
T14089600_49432_
  6
Continuous
 62
     7
100
AcDbCircle
 10
579.9446980555
 20
224.3809971338
 30
0.0
 40
138.5818038242244
100
AcDbArc
 50
87.2979164379
 51
92.7020835624
  0
LINE
  5
19C
330
196
100
AcDbEntity
  8
T14089600_49432_
  6
Continuous
 62
     7
100
AcDbLine
 10
550.539235232
 20
356.8832546064
 30
0.0
 11
555.1687164415
 21
362.8087203418
 31
0.0
  0
ARC
  5
19D
330
196
100
AcDbEntity
  8
T14089600_49432_
  6
Continuous
 62
     7
100
AcDbCircle
 10
601.401327536
 20
329.6750782284
 30
0.0
 40
33.29427412259407
100
AcDbArc
 50
84.3695427696
 51
95.630457229
  0
LINE
  5
19E
330
196
100
AcDbEntity
  8
T14089600_49432_
  6
Continuous
 62
     7
100
AcDbLine
 10
604.7206796689
 20
362.8087203418
 30
0.0
 11
609.3501608791
 21
356.8832546055
 31
0.0
  0
LINE
  5
19F
330
196
100
AcDbEntity
  8
T14089600_49432_
  6
Continuous
 62
     7
100
AcDbLine
 10
610.1669257889
 20
355.8378431938
 30
0.0
 11
609.3501608784
 21
356.8832546064
 31
0.0
  0
LINE
  5
1A0
330
196
100
AcDbEntity
  8
T14089600_49432_
  6
Continuous
 62
     7
100
AcDbLine
 10
550.0597321929
 20
354.1912082668
 30
0.0
 11
609.8296639175
 21
354.1912082668
 31
0.0
  0
LINE
  5
1A1
330
196
100
AcDbEntity
  8
T14089600_49432_
  6
Continuous
 62
     7
100
AcDbLine
 10
556.1558691264
 20
363.1912082668
 30
0.0
 11
603.733526984
 21
363.1912082668
 31
0.0
  0
SPLINE
  5
1A2
330
196
100
AcDbEntity
  8
T14089600_49432_
  6
Continuous
 62
     7
100
AcDbSpline
210
0.0
220
0.0
230
1.0
 70
     8
 71
     3
 72
    11
 73
     7
 74
     0
 42
0.0000000056645299
 43
0.0000000001
 40
0.0
 40
0.0
 40
0.0
 40
0.0
 40
0.240221559227091
 40
0.4926812025931075
 40
0.74597795137908
 40
1.0
 40
1.0
 40
1.0
 40
1.0
 10
550.5395380271907
 20
356.8827453330093
 30
0.0
 10
550.3771403209619
 20
356.6719074093522
 30
0.0
 10
550.1009352740522
 20
356.3111763839342
 30
0.0
 10
549.8080119585538
 20
355.8738719563116
 30
0.0
 10
549.6383423077486
 20
355.5487214306476
 30
0.0
 10
549.6315227649698
 20
355.451318668243
 30
0.0
 10
549.6311911730135
 20
355.3971526957062
 30
0.0
  0
ARC
  5
1A3
330
196
100
AcDbEntity
  8
T14089600_49432_
  6
Continuous
 62
     7
100
AcDbCircle
 10
609.7898048961
 20
355.5248859677
 30
0.0
 40
0.4855042610114434
100
AcDbArc
 50
344.7462696248
 51
28.0926327943
  0
SPLINE
  5
1A4
330
196
100
AcDbEntity
  8
T14089600_49432_
  6
Continuous
 62
     7
100
AcDbSpline
210
0.0
220
0.0
230
1.0
 70
     8
 71
     3
 72
     8
 73
     4
 74
     0
 42
0.0000000167402101
 43
0.0000000001
 40
0.0
 40
0.0
 40
0.0
 40
0.0
 40
1.0
 40
1.0
 40
1.0
 40
1.0
 10
555.6134213240043
 20
363.1430490509014
 30
0.0
 10
555.4868934931283
 20
363.1386244455651
 30
0.0
 10
555.3368884628967
 20
363.0249159570391
 30
0.0
 10
555.1634062333093
 20
362.8019235853236
 30
0.0
  0
SPLINE
  5
1A5
330
196
100
AcDbEntity
  8
T14089600_49432_
  6
Continuous
 62
     7
100
AcDbSpline
210
0.0
220
0.0
230
1.0
 70
     8
 71
     3
 72
     8
 73
     4
 74
     0
 42
0.0000000168143488
 43
0.0000000001
 40
0.0
 40
0.0
 40
0.0
 40
0.0
 40
1.0
 40
1.0
 40
1.0
 40
1.0
 10
604.72457551817
 20
362.8037338822006
 30
0.0
 10
604.5510591336531
 20
363.0257291002637
 30
0.0
 10
604.4015734732706
 20
363.1388180475371
 30
0.0
 10
604.2761185370224
 20
363.1430007240209
 30
0.0
  0
ARC
  5
1A6
330
196
100
AcDbEntity
  8
T14089600_49432_
  6
Continuous
 62
     7
100
AcDbCircle
 10
602.4177720169
 20
357.5041921026
 30
0.0
 40
8.118620784498143
100
AcDbArc
 50
335.9162061553
 51
344.962608257
  0
ARC
  5
1A7
330
196
100
AcDbEntity
  8
T14089600_49432_
  6
Continuous
 62
     7
100
AcDbCircle
 10
557.4716240935
 20
357.5041921026
 30
0.0
 40
8.118620784498141
100
AcDbArc
 50
195.0477656695
 51
204.0837938447
  0
ARC
  5
1A8
330
196
100
AcDbEntity
  8
T14089600_49432_
  6
Continuous
 62
     7
100
AcDbCircle
 10
603.174892026
 20
352.7427521073
 30
0.0
 40
10.46337943180488
100
AcDbArc
 50
83.9688740796
 51
86.9395498828
  0
ARC
  5
1A9
330
196
100
AcDbEntity
  8
T14089600_49432_
  6
Continuous
 62
     7
100
AcDbCircle
 10
556.7145040844
 20
352.7427521073
 30
0.0
 40
10.46337943180485
100
AcDbArc
 50
93.0604501172
 51
96.0333671654
  0
SPLINE
  5
1AA
330
196
100
AcDbEntity
  8
14087000_ESC_-_R
  6
Continuous
 62
     7
100
AcDbSpline
210
0.0
220
0.0
230
1.0
 70
     8
 71
     3
 72
    12
 73
     8
 74
     0
 42
0.0000000152942083
 43
0.0000000001
 40
0.0
 40
0.0
 40
0.0
 40
0.0
 40
0.1750000000000001
 40
0.1750000000000001
 40
0.3750000000000003
 40
0.3750000000000003
 40
0.4702641995997073
 40
0.4702641995997073
 40
0.4702641995997073
 40
0.4702641995997073
 10
546.7589906671259
 20
362.8401610932528
 30
0.0
 10
546.8230291379821
 20
362.9191227769745
 30
0.0
 10
546.8623137104041
 20
362.9663902031994
 30
0.0
 10
546.9220326068298
 20
363.0363616464367
 30
0.0
 10
546.9387815028377
 20
363.0543492359653
 30
0.0
 10
546.9541168654758
 20
363.0688852952673
 30
0.0
 10
546.9575104432633
 20
363.0715857855755
 30
0.0
 10
546.9595902781393
 20
363.0726047361438
 30
0.0
  0
SPLINE
  5
1AB
330
196
100
AcDbEntity
  8
14087000_ESC_-_R
  6
Continuous
 62
     7
100
AcDbSpline
210
0.0
220
0.0
230
1.0
 70
     8
 71
     3
 72
    15
 73
    11
 74
     0
 42
0.0000000150614036
 43
0.0000000001
 40
0.5042293019355343
 40
0.5042293019355343
 40
0.5042293019355343
 40
0.5042293019355343
 40
0.6248668091669785
 40
0.7498112751700574
 40
0.8128670752480154
 40
0.8748605812164059
 40
0.9067466979015791
 40
0.9382180805479108
 40
0.9692955935258564
 40
1.0
 40
1.0
 40
1.0
 40
1.0
 10
612.791714504645
 20
363.1488395850382
 30
0.0
 10
612.7935281270192
 20
363.1486529530969
 30
0.0
 10
612.8023196266272
 20
363.1429289684525
 30
0.0
 10
612.8284591018478
 20
363.118890934952
 30
0.0
 10
612.8647434988101
 20
363.0820979121186
 30
0.0
 10
612.8954833470669
 20
363.0493836745778
 30
0.0
 10
612.9260098434019
 20
363.015816094462
 30
0.0
 10
612.9527861689925
 20
362.9859980733533
 30
0.0
 10
612.9828868452539
 20
362.9521005118408
 30
0.0
 10
613.0065837165204
 20
362.9249088481836
 30
0.0
 10
613.0183605983974
 20
362.911395122792
 30
0.0
  0
SPLINE
  5
1AC
330
196
100
AcDbEntity
  8
14087000_ESC_-_R
  6
Continuous
 62
     7
100
AcDbSpline
210
0.0
220
0.0
230
1.0
 70
     8
 71
     3
 72
    12
 73
     8
 74
     0
 42
0.0000000153138426
 43
0.0000000001
 40
0.0
 40
0.0
 40
0.0
 40
0.0
 40
0.1750000000000002
 40
0.1750000000000002
 40
0.3750000000000004
 40
0.3750000000000004
 40
0.4709461824208391
 40
0.4709461824208391
 40
0.4709461824208391
 40
0.4709461824208391
 10
613.130405443283
 20
362.8401610932527
 30
0.0
 10
613.0663669724269
 20
362.9191227769744
 30
0.0
 10
613.0270824000048
 20
362.9663902031994
 30
0.0
 10
612.967363503579
 20
363.0363616464367
 30
0.0
 10
612.9506146075713
 20
363.0543492359653
 30
0.0
 10
612.9352438242696
 20
363.0689188697499
 30
0.0
 10
612.9318371585198
 20
363.0716243484687
 30
0.0
 10
612.9297613664424
 20
363.0726263612893
 30
0.0
  0
LINE
  5
1AD
330
196
100
AcDbEntity
  8
14087000_ESC_-_R
  6
Continuous
 62
     7
100
AcDbLine
 10
613.0900126428
 20
362.8401610933
 30
0.0
 11
617.5609781527
 21
357.1140676821
 31
0.0
  0
LINE
  5
1AE
330
196
100
AcDbEntity
  8
14087000_ESC_-_R
  6
Continuous
 62
     7
100
AcDbLine
 10
617.6068455618
 20
357.1140676821
 30
0.0
 11
613.1304054433
 21
362.8401610933
 31
0.0
  0
SPLINE
  5
1AF
330
196
100
AcDbEntity
  8
14087000_ESC_-_R
  6
Continuous
 62
     7
100
AcDbSpline
210
0.0
220
0.0
230
1.0
 70
     8
 71
     3
 72
    18
 73
    14
 74
     0
 42
0.0000000029821825
 43
0.0000000001
 40
0.4598419796338759
 40
0.4598419796338759
 40
0.4598419796338759
 40
0.4598419796338759
 40
0.5062608754271012
 40
0.5062608754271012
 40
0.6969465172160252
 40
0.6969465172160252
 40
0.800072958733556
 40
0.800072958733556
 40
0.9031994002510867
 40
0.9031994002510867
 40
0.9857005534651114
 40
0.9857005534651114
 40
1.0
 40
1.0
 40
1.0
 40
1.0
 10
618.6904157378698
 20
355.695396164006
 30
0.0
 10
618.6962264354394
 20
355.6888862192089
 30
0.0
 10
618.699073075229
 20
355.686170424618
 30
0.0
 10
618.6987077711005
 20
355.6913760750102
 30
0.0
 10
618.6491467746201
 20
355.7586231971247
 30
0.0
 10
618.4913167171405
 20
355.9664586787744
 30
0.0
 10
618.4203126034878
 20
356.059375321765
 30
0.0
 10
618.2437452152203
 20
356.2894143469494
 30
0.0
 10
618.1382739911879
 20
356.4264166774283
 30
0.0
 10
617.9135582329352
 20
356.7175944868783
 30
0.0
 10
617.8017140062624
 20
356.8623043904244
 30
0.0
 10
617.6523652294886
 20
357.0552720642048
 30
0.0
 10
617.6298422130635
 20
357.0843670797784
 30
0.0
 10
617.6068455618442
 20
357.1140676821452
 30
0.0
  0
SPLINE
  5
1B0
330
196
100
AcDbEntity
  8
14087000_ESC_-_R
  6
Continuous
 62
     7
100
AcDbSpline
210
0.0
220
0.0
230
1.0
 70
     8
 71
     3
 72
    15
 73
    11
 74
     0
 42
0.0000000027671896
 43
0.0000000001
 40
0.0098479122046119
 40
0.0098479122046119
 40
0.0098479122046119
 40
0.0098479122046119
 40
0.0389838949893542
 40
0.0787897953225566
 40
0.1194483590764982
 40
0.16098920271851
 40
0.2034410921072356
 40
0.303780378232113
 40
0.4064163457718576
 40
0.4956095846974496
 40
0.4956095846974496
 40
0.4956095846974496
 40
0.4956095846974496
 10
542.2012214716212
 20
356.9224704295851
 30
0.0
 10
542.1562053641021
 20
356.8627852314788
 30
0.0
 10
542.0510145544233
 20
356.7232722861369
 30
0.0
 10
541.9035446925104
 20
356.5270168869579
 30
0.0
 10
541.756527192904
 20
356.3312048549795
 30
0.0
 10
541.6250474729437
 20
356.1558538571248
 30
0.0
 10
541.4567561343117
 20
355.9304861748732
 30
0.0
 10
541.2892324394085
 20
355.703860650689
 30
0.0
 10
541.1765205132201
 20
355.5501937483402
 30
0.0
 10
541.1539095339166
 20
355.5157752824375
 30
0.0
 10
541.15427970011
 20
355.5142279097647
 30
0.0
  0
SPLINE
  5
1B1
330
196
100
AcDbEntity
  8
14087000_ESC_-_R
  6
Continuous
 62
     7
100
AcDbSpline
210
0.0
220
0.0
230
1.0
 70
     8
 71
     3
 72
    16
 73
    12
 74
     0
 42
0.0000000029764513
 43
0.0000000001
 40
0.4599319047317342
 40
0.4599319047317342
 40
0.4599319047317342
 40
0.4599319047317342
 40
0.5000000000071025
 40
0.5000000000071025
 40
0.7155822042869875
 40
0.7155822042869875
 40
0.8210042264150347
 40
0.8210042264150347
 40
0.9264262485430816
 40
0.9264262485430816
 40
1.0
 40
1.0
 40
1.0
 40
1.0
 10
541.1989444880862
 20
355.6953556858687
 30
0.0
 10
541.1939466098971
 20
355.6897592551273
 30
0.0
 10
541.1911522274507
 20
355.6869833766731
 30
0.0
 10
541.1871611428699
 20
355.6869833766794
 30
0.0
 10
541.2465747152365
 20
355.7673413300025
 30
0.0
 10
541.4366775274826
 20
356.0170098570387
 30
0.0
 10
541.5157751570043
 20
356.1203288518623
 30
0.0
 10
541.7107484406996
 20
356.3740016085521
 30
0.0
 10
541.8265660939858
 20
356.5242807771671
 30
0.0
 10
542.0587134864383
 20
356.824818340963
 30
0.0
 10
542.1643132234519
 20
356.9613623853941
 30
0.0
 10
542.2825505485633
 20
357.1140676821434
 30
0.0
  0
LINE
  5
1B2
330
196
100
AcDbEntity
  8
14087000_ESC_-_R
  6
Continuous
 62
     7
100
AcDbLine
 10
542.2825505486
 20
357.1140676821
 30
0.0
 11
546.7589906671
 21
362.8401610933
 31
0.0
  0
SPLINE
  5
1B3
330
196
100
AcDbEntity
  8
14087000_ESC_-_R
  6
Continuous
 62
     7
100
AcDbSpline
210
0.0
220
0.0
230
1.0
 70
     8
 71
     3
 72
     9
 73
     5
 74
     0
 42
0.0000000347889794
 43
0.0000000001
 40
0.4956148679857635
 40
0.4956148679857635
 40
0.4956148679857635
 40
0.4956148679857635
 40
0.4999969649571375
 40
0.5400154026976812
 40
0.5400154026976812
 40
0.5400154026976812
 40
0.5400154026976812
 10
618.735200308537
 20
355.5145625017809
 30
0.0
 10
618.7351838745071
 20
355.5144934646278
 30
0.0
 10
618.7347513695651
 20
355.5141442357722
 30
0.0
 10
618.7316265405468
 20
355.5173398156042
 30
0.0
 10
618.7266030086824
 20
355.5231310914168
 30
0.0
  0
LINE
  5
1B4
330
196
100
AcDbEntity
  8
14087000_ESC_-_R
  6
Continuous
 62
     7
100
AcDbLine
 10
547.6325066065
 20
363.1912082668
 30
0.0
 11
556.1558691264
 21
363.1912082668
 31
0.0
  0
LINE
  5
1B5
330
196
100
AcDbEntity
  8
14087000_ESC_-_R
  6
Continuous
 62
     7
100
AcDbLine
 10
603.733526984
 20
363.1912082668
 30
0.0
 11
612.2568895039
 21
363.1912082668
 31
0.0
  0
LINE
  5
1B6
330
196
100
AcDbEntity
  8
14087000_ESC_-_R
  6
Continuous
 62
     7
100
AcDbLine
 10
541.636430613
 20
354.1912082668
 30
0.0
 11
550.0597321929
 21
354.1912082668
 31
0.0
  0
LINE
  5
1B7
330
196
100
AcDbEntity
  8
14087000_ESC_-_R
  6
Continuous
 62
     7
100
AcDbLine
 10
609.8296639175
 20
354.1912082668
 30
0.0
 11
618.2529654974
 21
354.1912082668
 31
0.0
  0
ARC
  5
1B8
330
196
100
AcDbEntity
  8
14087000_ESC_-_R
  6
Continuous
 62
     7
100
AcDbCircle
 10
547.1155705338
 20
362.9632792817
 30
0.0
 40
0.186420809574035
100
AcDbArc
 50
95.5085049805
 51
116.9997761078
  0
ARC
  5
1B9
330
196
100
AcDbEntity
  8
14087000_ESC_-_R
  6
Continuous
 62
     7
100
AcDbCircle
 10
612.7734658965
 20
362.9618531795
 30
0.0
 40
0.1878749830140989
100
AcDbArc
 50
63.3581119468
 51
84.4240598009
  0
ARC
  5
1BA
330
196
100
AcDbEntity
  8
14087000_ESC_-_R
  6
Continuous
 62
     7
100
AcDbCircle
 10
611.6982545459
 20
352.7427521073
 30
0.0
 40
10.46337943180498
100
AcDbArc
 50
83.9977570635
 51
86.9395498828
  0
ARC
  5
1BB
330
196
100
AcDbEntity
  8
14087000_ESC_-_R
  6
Continuous
 62
     7
100
AcDbCircle
 10
548.1911415645
 20
352.7427521073
 30
0.0
 40
10.46337943180498
100
AcDbArc
 50
93.0604501172
 51
96.0008638981
  0
ARC
  5
1BC
330
196
100
AcDbEntity
  8
14087000_ESC_-_R
  6
Continuous
 62
     7
100
AcDbCircle
 10
611.894711738
 20
357.2577161151
 30
0.0
 40
7.059097764824539
100
AcDbArc
 50
334.2525564926
 51
345.7284158264
  0
ARC
  5
1BD
330
196
100
AcDbEntity
  8
14087000_ESC_-_R
  6
Continuous
 62
     7
100
AcDbCircle
 10
547.9946843724
 20
357.2577161151
 30
0.0
 40
7.059097764824536
100
AcDbArc
 50
194.2760785264
 51
205.7474435074
  0
ARC
  5
1BE
330
196
100
AcDbEntity
  8
14080001_MP_HE_B
  6
Continuous
 62
     7
100
AcDbCircle
 10
456.7471560552
 20
423.0440992668
 30
0.0
 40
114.900009
100
AcDbArc
 50
329.8225659318
 51
345.9308582892
  0
ARC
  5
1BF
330
196
100
AcDbEntity
  8
14080001_MP_HE_B
  6
Continuous
 62
     7
100
AcDbCircle
 10
703.1422400552
 20
423.0440992668
 30
0.0
 40
114.900009
100
AcDbArc
 50
194.0691417108
 51
210.1774340682
  0
ARC
  5
1C0
330
196
100
AcDbEntity
  8
14080001_MP_HE_B
  6
Continuous
 62
     7
100
AcDbCircle
 10
602.3446980552
 20
364.4316635082
 30
0.0
 40
1.700000000000067
100
AcDbArc
 50
313.1404633598
 51
30.1774340682
  0
ARC
  5
1C1
330
196
100
AcDbEntity
  8
14080001_MP_HE_B
  6
Continuous
 62
     7
100
AcDbCircle
 10
557.5446980552
 20
364.4316635082
 30
0.0
 40
1.699999999999997
100
AcDbArc
 50
149.8225659318
 51
226.8595366402
  0
ARC
  5
1C2
330
196
100
AcDbEntity
  8
14080001_MP_HE_B
  6
Continuous
 62
     7
100
AcDbCircle
 10
591.2038758375
 20
394.9912082668
 30
0.0
 40
0.5000000000000033
100
AcDbArc
 50
14.0691417108
 51
90.0
  0
ARC
  5
1C3
330
196
100
AcDbEntity
  8
14080001_MP_HE_B
  6
Continuous
 62
     7
100
AcDbCircle
 10
568.6855202729
 20
394.9912082668
 30
0.0
 40
0.5000000000000004
100
AcDbArc
 50
90.0
 51
165.9308582892
  0
LINE
  5
1C4
330
196
100
AcDbEntity
  8
19275000_4LB_WW-
  6
Continuous
 62
     7
100
AcDbLine
 10
789.231696595
 20
461.7759040629
 30
0.0
 11
818.4595662363
 21
478.7119982668
 31
0.0
  0
SPLINE
  5
1C5
330
196
100
AcDbEntity
  8
19275000_4LB_WW-
  6
Continuous
 62
     7
100
AcDbSpline
210
0.0
220
0.0
230
1.0
 70
     8
 71
     3
 72
     8
 73
     4
 74
     0
 42
0.0000000039164052
 43
0.0000000001
 40
0.9996083594836612
 40
0.9996083594836612
 40
0.9996083594836612
 40
0.9996083594836612
 40
1.0
 40
1.0
 40
1.0
 40
1.0
 10
612.0883471947592
 20
366.0378313012868
 30
0.0
 10
612.0884138936862
 20
366.0378311849224
 30
0.0
 10
612.0884472547565
 20
366.0378311398383
 30
0.0
 10
612.0884472499466
 20
366.0378311661241
 30
0.0
  0
SPLINE
  5
1C6
330
196
100
AcDbEntity
  8
19275000_4LB_WW-
  6
Continuous
 62
     7
100
AcDbSpline
210
0.0
220
0.0
230
1.0
 70
     8
 71
     3
 72
    66
 73
    62
 74
     0
 42
0.0000000000343735
 43
0.0000000001
 40
0.0
 40
0.0
 40
0.0
 40
0.0
 40
0.0072764150061188
 40
0.0224275383061653
 40
0.0371353437059969
 40
0.0513613787905762
 40
0.0696633928762165
 40
0.087053481435513
 40
0.1037054012551423
 40
0.1196017298871383
 40
0.1347102387855308
 40
0.1532792106516042
 40
0.1704492332546908
 40
0.1862043509693877
 40
0.198454670045954
 40
0.2096739445355935
 40
0.2199335668911976
 40
0.230022088377941
 40
0.2401506498079735
 40
0.2503160558312713
 40
0.2744072738838474
 40
0.2986490821018433
 40
0.3172914191626203
 40
0.3362102905342438
 40
0.3552634638285029
 40
0.3742753881685678
 40
0.393196673809978
 40
0.4119178970937952
 40
0.4345310759795218
 40
0.4572817377569277
 40
0.4801322090084305
 40
0.5030474203624993
 40
0.5259907177872792
 40
0.5489226046324739
 40
0.5718035082373342
 40
0.5945951190010799
 40
0.61726172141724
 40
0.6397563066720073
 40
0.6583532532170675
 40
0.6769504287017685
 40
0.6957041403834161
 40
0.7146474577744479
 40
0.7339393525918798
 40
0.7537891865718658
 40
0.7712184061172984
 40
0.7890053720103358
 40
0.8071235432245911
 40
0.8255442560582932
 40
0.8442390249571372
 40
0.8629921388199397
 40
0.8807285433846394
 40
0.896946069978855
 40
0.9120081634710111
 40
0.92624559096337
 40
0.9396362659550268
 40
0.946617400139823
 40
0.9547826420166957
 40
0.9642017543980923
 40
0.9748752339758211
 40
0.986805947431213
 40
1.0
 40
1.0
 40
1.0
 40
1.0
 10
612.1263051705758
 20
366.0555974175184
 30
0.0
 10
611.7878870042674
 20
366.7536849662478
 30
0.0
 10
610.9056130321138
 20
368.5864727066495
 30
0.0
 10
609.6125734240192
 20
372.0517361340692
 30
0.0
 10
608.3739267351526
 20
376.1125304132756
 30
0.0
 10
607.340694199387
 20
380.5856473859349
 30
0.0
 10
606.6576905186813
 20
385.3780512877261
 30
0.0
 10
606.2114752916021
 20
390.4335495457133
 30
0.0
 10
605.9641797142435
 20
395.2685071014403
 30
0.0
 10
605.9058838351405
 20
399.8884237480001
 30
0.0
 10
606.021239003969
 20
404.6929202015957
 30
0.0
 10
606.3346780111586
 20
409.6129743670595
 30
0.0
 10
606.8606738867115
 20
414.5775737987178
 30
0.0
 10
607.4907195842613
 20
418.9116810006997
 30
0.0
 10
608.1615186711676
 20
422.6543965263344
 30
0.0
 10
608.8265543684213
 20
425.8556269282357
 30
0.0
 10
609.5240535383086
 20
428.8350281715608
 30
0.0
 10
610.265734208099
 20
431.6946354883724
 30
0.0
 10
611.0726698796358
 20
434.5270319209886
 30
0.0
 10
612.349371377118
 20
438.6356474672859
 30
0.0
 10
614.2561827028642
 20
443.9785045724378
 30
0.0
 10
616.7562162459658
 20
449.973348021555
 30
0.0
 10
619.4195189731664
 20
455.3450161883252
 30
0.0
 10
622.2745070905296
 20
460.0391135668058
 30
0.0
 10
625.509823498937
 20
464.5220784736178
 30
0.0
 10
629.0913163867142
 20
468.7353885596685
 30
0.0
 10
632.989038903529
 20
472.6113909984076
 30
0.0
 10
637.395802040058
 20
476.4476118615718
 30
0.0
 10
642.2668421802181
 20
480.306710312704
 30
0.0
 10
647.688704114752
 20
484.0975058918103
 30
0.0
 10
653.3437807273308
 20
487.5860697491381
 30
0.0
 10
659.2091542242969
 20
490.7481505683635
 30
0.0
 10
665.2559501837712
 20
493.5662411097252
 30
0.0
 10
671.4526502981768
 20
496.0283941155513
 30
0.0
 10
677.7685202047766
 20
498.1201636035253
 30
0.0
 10
684.1702052005971
 20
499.8352175868825
 30
0.0
 10
690.6233174040725
 20
501.1712594672418
 30
0.0
 10
696.739819954172
 20
502.0758144743824
 30
0.0
 10
702.5017153643403
 20
502.6239285610887
 30
0.0
 10
707.9241344919485
 20
502.8215987348025
 30
0.0
 10
713.3821892450973
 20
502.6973869081656
 30
0.0
 10
718.8904755439462
 20
502.2444524147409
 30
0.0
 10
724.4674154834737
 20
501.4499276523284
 30
0.0
 10
729.8414875431843
 20
500.3432146453736
 30
0.0
 10
734.99887917658
 20
498.959183153539
 30
0.0
 10
739.9128318518742
 20
497.3456002900654
 30
0.0
 10
744.8180313885355
 20
495.4233902810846
 30
0.0
 10
749.6839093297416
 20
493.1837826093113
 30
0.0
 10
754.4652081751233
 20
490.6351708000839
 30
0.0
 10
759.0327288449823
 20
487.8459402316894
 30
0.0
 10
763.2346227052137
 20
484.9356557617817
 30
0.0
 10
766.9914827707412
 20
482.0243923477475
 30
0.0
 10
770.3440386024951
 20
479.1537976871992
 30
0.0
 10
773.3614621300911
 20
476.3218631395384
 30
0.0
 10
775.8314451182324
 20
474.0523093440632
 30
0.0
 10
777.8660123502683
 20
472.1782552469962
 30
0.0
 10
779.6184236487937
 20
470.5674055004719
 30
0.0
 10
781.6385517807477
 20
468.713011489717
 30
0.0
 10
783.9161637565408
 20
466.6264304522085
 30
0.0
 10
786.525807329124
 20
464.2409074606721
 30
0.0
 10
788.1917364254649
 20
462.7231784670899
 30
0.0
 10
789.2316965949587
 20
461.7759040628609
 30
0.0
  0
SPLINE
  5
1C7
330
196
100
AcDbEntity
  8
19275000_4LB_WW-
  6
Continuous
 62
     7
100
AcDbSpline
210
0.0
220
0.0
230
1.0
 70
     8
 71
     3
 72
    59
 73
    55
 74
     0
 42
0.0000000000263511
 43
0.0000000001
 40
0.0
 40
0.0
 40
0.0
 40
0.0
 40
0.0078446140849751
 40
0.0160477545477528
 40
0.0246094533909606
 40
0.0329359686016185
 40
0.0402895748199891
 40
0.0453808344597769
 40
0.0498286361745178
 40
0.0532561410026538
 40
0.0556101568592553
 40
0.0579689073074244
 40
0.0621206396973022
 40
0.0672132509885684
 40
0.0732472343630746
 40
0.0799129028438676
 40
0.0867276532158209
 40
0.0936854840647111
 40
0.1007859422129773
 40
0.1080285134028834
 40
0.1229370573184505
 40
0.1384008160517481
 40
0.1543616817982188
 40
0.1704156898352732
 40
0.1854224236813842
 40
0.2001676527752531
 40
0.2150460883172651
 40
0.2299387108813479
 40
0.2497669431224366
 40
0.2695595444609614
 40
0.2893212085656042
 40
0.3091333491473438
 40
0.3289771711636906
 40
0.3488212332854594
 40
0.3686341702869479
 40
0.3883881587502013
 40
0.408055008927831
 40
0.4277085955542127
 40
0.4474043837471862
 40
0.4671160508717329
 40
0.4868164890901419
 40
0.5064772183911455
 40
0.5260701989977996
 40
0.5455722799716484
 40
0.5649834773115403
 40
0.5842830562298192
 40
0.6034518308670024
 40
0.6224754839365216
 40
0.6413361478533
 40
0.6600032254417195
 40
0.6783499319015451
 40
0.6961765531054106
 40
0.7131720611305016
 40
0.7219031036690812
 40
0.7219031036690812
 40
0.7219031036690812
 40
0.7219031036690812
 10
818.4595662363224
 20
478.7119982668123
 30
0.0
 10
817.738986932847
 20
479.5314077075188
 30
0.0
 10
816.4942282416399
 20
480.9430174280546
 30
0.0
 10
814.3416074789652
 20
483.2757168157642
 30
0.0
 10
812.1574102535648
 20
485.5532524693741
 30
0.0
 10
809.9889310657362
 20
487.7266724584572
 30
0.0
 10
808.1004753134638
 20
489.5510263638756
 30
0.0
 10
806.5425316248821
 20
491.0128187082
 30
0.0
 10
805.3343174824324
 20
492.1212939541267
 30
0.0
 10
804.3730941268649
 20
492.9869327520976
 30
0.0
 10
803.6035167644178
 20
493.6705646767828
 30
0.0
 10
802.7613539942184
 20
494.4103589151217
 30
0.0
 10
801.6516063564205
 20
495.3702332469671
 30
0.0
 10
800.1766298853917
 20
496.6181264504378
 30
0.0
 10
798.4400171292958
 20
498.048699873151
 30
0.0
 10
796.5120559267004
 20
499.5891005180672
 30
0.0
 10
794.4675044311846
 20
501.1702261495577
 30
0.0
 10
792.3536085968992
 20
502.7510009703364
 30
0.0
 10
790.1700433211884
 20
504.3283591029749
 30
0.0
 10
787.1354134109903
 20
506.4436402440772
 30
0.0
 10
783.1629760043335
 20
509.0617469270282
 30
0.0
 10
778.1573867511875
 20
512.1091389004116
 30
0.0
 10
772.9168858170557
 20
515.0417210494434
 30
0.0
 10
767.6217536666948
 20
517.7497896400723
 30
0.0
 10
762.3676876955527
 20
520.1918090590306
 30
0.0
 10
757.1537057302533
 20
522.3557664439822
 30
0.0
 10
751.8736102820186
 20
524.3115377644444
 30
0.0
 10
745.9086401348637
 20
526.2549907377442
 30
0.0
 10
739.2585750338133
 20
528.0833689275851
 30
0.0
 10
731.9189452542741
 20
529.6862054442307
 30
0.0
 10
724.5069901130316
 20
530.899259873446
 30
0.0
 10
717.034784913534
 20
531.7196997691578
 30
0.0
 10
709.5190055923484
 20
532.1405691731992
 30
0.0
 10
701.991451899041
 20
532.1624964343295
 30
0.0
 10
694.4845701317694
 20
531.7871965134153
 30
0.0
 10
687.0305984741168
 20
531.0151008737718
 30
0.0
 10
679.647844011645
 20
529.8533949098478
 30
0.0
 10
672.3432198601113
 20
528.3084064259947
 30
0.0
 10
665.1246471503847
 20
526.3789854898192
 30
0.0
 10
658.0129569799691
 20
524.0675937911441
 30
0.0
 10
651.0366387712493
 20
521.3875825202211
 30
0.0
 10
644.2243718078151
 20
518.3509462252426
 30
0.0
 10
637.6046556375345
 20
514.9695978049233
 30
0.0
 10
631.1979459389739
 20
511.2630673014741
 30
0.0
 10
625.0229682393468
 20
507.2498552929121
 30
0.0
 10
619.0989557675706
 20
502.9460126606064
 30
0.0
 10
613.4433075309555
 20
498.3728416189104
 30
0.0
 10
608.0698204592269
 20
493.5540545957262
 30
0.0
 10
602.9937485613787
 20
488.5126421977585
 30
0.0
 10
598.2356382696491
 20
483.285411566355
 30
0.0
 10
593.8239904423987
 20
477.9315022743459
 30
0.0
 10
589.7985401198662
 20
472.5427507650031
 30
0.0
 10
586.7221759545123
 20
467.9729188954158
 30
0.0
 10
584.9650077882304
 20
465.2347739267459
 30
0.0
 10
584.3758713251523
 20
464.3009795415378
 30
0.0
  0
SPLINE
  5
1C8
330
196
100
AcDbEntity
  8
19275000_4LB_WW-
  6
Continuous
 62
     7
100
AcDbSpline
210
0.0
220
0.0
230
1.0
 70
     8
 71
     3
 72
    22
 73
    18
 74
     0
 42
0.0000000000263451
 43
0.0000000001
 40
0.8253231026814478
 40
0.8253231026814478
 40
0.8253231026814478
 40
0.8253231026814478
 40
0.826977274759707
 40
0.8424936426553016
 40
0.859169104598195
 40
0.8769951258713219
 40
0.8959600404119585
 40
0.9160467407520959
 40
0.9252348055930384
 40
0.9346331177135789
 40
0.9442389621248036
 40
0.9540529099884676
 40
0.9641267428509058
 40
0.9742949463167195
 40
0.9846733548472197
 40
0.9952280714356132
 40
1.0
 40
1.0
 40
1.0
 40
1.0
 10
566.6455494673405
 20
429.3645017942571
 30
0.0
 10
566.5685929409558
 20
429.1699901001332
 30
0.0
 10
565.7727843583688
 20
427.1497393646803
 30
0.0
 10
564.2658095568509
 20
423.1432787790781
 30
0.0
 10
562.2110503824064
 20
417.1604137172401
 30
0.0
 10
560.214078250876
 20
410.6998242056308
 30
0.0
 10
558.3190747258237
 20
403.7601529467711
 30
0.0
 10
556.9199380641463
 20
397.8212411535402
 30
0.0
 10
555.922453024219
 20
393.0334704288859
 30
0.0
 10
555.2560830477023
 20
389.5312675480624
 30
0.0
 10
554.6250972273602
 20
385.9415364686828
 30
0.0
 10
554.0847655285665
 20
382.2520660486784
 30
0.0
 10
553.4484238252999
 20
378.5008327484749
 30
0.0
 10
552.2930560008709
 20
374.7887831481668
 30
0.0
 10
550.7798834321756
 20
371.1758675175092
 30
0.0
 10
549.0377989352658
 20
368.3233388693903
 30
0.0
 10
548.211687496524
 20
366.7082406956788
 30
0.0
 10
547.9053140856356
 20
366.1194066908037
 30
0.0
  0
ARC
  5
1C9
330
196
100
AcDbEntity
  8
19275000_4LB_WW-
  6
Continuous
 62
     7
100
AcDbCircle
 10
549.6588149657
 20
365.191211838
 30
0.0
 40
2.000003571230445
100
AcDbArc
 50
152.0315237619
 51
270.0032955088
  0
ARC
  5
1CA
330
196
100
AcDbEntity
  8
19275000_4LB_WW-
  6
Continuous
 62
     7
100
AcDbCircle
 10
610.2763854391
 20
365.191213516
 30
0.0
 40
2.000005249280735
100
AcDbArc
 50
269.9946475356
 51
25.0952870493
  0
LINE
  5
1CC
330
196
100
AcDbEntity
  8
12086000_CAP_-_P
  6
Continuous
 62
     7
100
AcDbLine
 10
579.9446980552
 20
496.9872263881
 30
0.0
 11
579.9446980552
 21
496.1784482356
 31
0.0
  0
ARC
  5
1CD
330
196
100
AcDbEntity
  8
12086000_CAP_-_P
  6
Continuous
 62
     7
100
AcDbCircle
 10
584.1906530187
 20
496.5069791193
 30
0.0
 40
0.5000000000002502
100
AcDbArc
 50
73.8412997469
 51
90.0
  0
LINE
  5
1CE
330
196
100
AcDbEntity
  8
12086000_CAP_-_P
  6
Continuous
 62
     7
100
AcDbLine
 10
584.1906530187
 20
497.0069791193
 30
0.0
 11
579.9446980552
 21
497.0069791193
 31
0.0
  0
LINE
  5
1CF
330
196
100
AcDbEntity
  8
12086000_CAP_-_P
  6
Continuous
 62
     7
100
AcDbLine
 10
579.9446980552
 20
497.0069791193
 30
0.0
 11
579.9446980552
 21
496.9872263881
 31
0.0
  0
LINE
  5
1D0
330
196
100
AcDbEntity
  8
12086000_CAP_-_P
  6
Continuous
 62
     7
100
AcDbLine
 10
579.9446980552
 20
497.0069791193
 30
0.0
 11
575.6987430917
 21
497.0069791193
 31
0.0
  0
ARC
  5
1D1
330
196
100
AcDbEntity
  8
12086000_CAP_-_P
  6
Continuous
 62
     7
100
AcDbCircle
 10
575.6987430917
 20
496.5069791193
 30
0.0
 40
0.5000000000002502
100
AcDbArc
 50
90.0
 51
106.1587002531
  0
LINE
  5
1D2
330
196
100
AcDbEntity
  8
12086000_CAP_-_P
  6
Continuous
 62
     7
100
AcDbLine
 10
587.1211435841
 20
496.1784482356
 30
0.0
 11
584.3298024377
 21
496.9872263881
 31
0.0
  0
LINE
  5
1D3
330
196
100
AcDbEntity
  8
12086000_CAP_-_P
  6
Continuous
 62
     7
100
AcDbLine
 10
587.1211435841
 20
496.1784482356
 30
0.0
 11
587.5771804678
 21
496.0463136634
 31
0.0
  0
LINE
  5
1D4
330
196
100
AcDbEntity
  8
12086000_CAP_-_P
  6
Continuous
 62
     7
100
AcDbLine
 10
572.7682525263
 20
496.1784482356
 30
0.0
 11
575.5595936727
 21
496.9872263881
 31
0.0
  0
LINE
  5
1D5
330
196
100
AcDbEntity
  8
12086000_CAP_-_P
  6
Continuous
 62
     7
100
AcDbLine
 10
572.3122156426
 20
496.0463136634
 30
0.0
 11
572.7682525263
 21
496.1784482356
 31
0.0
  0
ARC
  5
1D6
330
196
100
AcDbEntity
  8
12086000_CAP_-_P
  6
Continuous
 62
     7
100
AcDbCircle
 10
572.9350079808
 20
495.711355527
 30
0.0
 40
0.4959667126231094
100
AcDbArc
 50
109.646929831
 51
136.92549302
  0
LINE
  5
1D7
330
196
100
AcDbEntity
  8
12086000_CAP_-_P
  6
Continuous
 62
     7
100
AcDbLine
 10
579.9446980552
 20
496.1784482356
 30
0.0
 11
579.9446980552
 21
496.051260808
 31
0.0
  0
ARC
  5
1D8
330
196
100
AcDbEntity
  8
12086000_CAP_-_P
  6
Continuous
 62
     7
100
AcDbCircle
 10
586.9543881296
 20
495.711355527
 30
0.0
 40
0.4959667126235896
100
AcDbArc
 50
43.07450698
 51
70.3530701689
  0
LINE
  5
1DA
330
196
100
AcDbEntity
  8
14086000_RING_-_
  6
Continuous
 62
     7
100
AcDbLine
 10
589.7804890387
 20
490.6273500927
 30
0.0
 11
570.1089070717
 21
490.6273500927
 31
0.0
  0
ARC
  5
1DB
330
196
100
AcDbEntity
  8
14086000_RING_-_
  6
Continuous
 62
     7
100
AcDbCircle
 10
577.6526145249
 20
465.4831663286
 30
0.0
 40
32.61873984882686
100
AcDbArc
 50
62.9599516407
 51
69.4549050507
  0
ARC
  5
1DC
330
196
100
AcDbEntity
  8
14086000_RING_-_
  6
Continuous
 62
     7
100
AcDbCircle
 10
582.2367815855
 20
465.4831663286
 30
0.0
 40
32.61873984882684
100
AcDbArc
 50
110.5450949493
 51
117.0400483593
  0
ARC
  5
1DD
330
196
100
AcDbEntity
  8
14086000_RING_-_
  6
Continuous
 62
     7
100
AcDbCircle
 10
570.1089070717
 20
490.8273500927
 30
0.0
 40
0.2000000000000116
100
AcDbArc
 50
213.6908082453
 51
270.0
  0
ARC
  5
1DE
330
196
100
AcDbEntity
  8
14086000_RING_-_
  6
Continuous
 62
     7
100
AcDbCircle
 10
589.7804890387
 20
490.8273500927
 30
0.0
 40
0.2000000000000057
100
AcDbArc
 50
270.0
 51
326.3091917547
  0
ARC
  5
1DF
330
196
100
AcDbEntity
  8
14086000_RING_-_
  6
Continuous
 62
     7
100
AcDbCircle
 10
567.6351791021
 20
494.0909739061
 30
0.0
 40
0.4999999999999947
100
AcDbArc
 50
117.0400483593
 51
228.9587665359
  0
ARC
  5
1E0
330
196
100
AcDbEntity
  8
14086000_RING_-_
  6
Continuous
 62
     7
100
AcDbCircle
 10
592.2542170083
 20
494.0909739061
 30
0.0
 40
0.4999999999999903
100
AcDbArc
 50
311.0412334641
 51
62.9599516407
  0
ARC
  5
1E1
330
196
100
AcDbEntity
  8
14086000_RING_-_
  6
Continuous
 62
     7
100
AcDbCircle
 10
557.4428652048
 20
482.3830856567
 30
0.0
 40
15.02281900428217
100
AcDbArc
 50
33.6908082453
 51
48.9587665359
  0
ARC
  5
1E2
330
196
100
AcDbEntity
  8
14086000_RING_-_
  6
Continuous
 62
     7
100
AcDbCircle
 10
602.4465309056
 20
482.3830856567
 30
0.0
 40
15.02281900428215
100
AcDbArc
 50
131.0412334641
 51
146.3091917547
  0
ARC
  5
1E3
330
196
100
AcDbEntity
  8
14086000_RING_-_
  6
Continuous
 62
     7
100
AcDbCircle
 10
570.8946980552
 20
495.7463136634
 30
0.0
 40
0.2999999999999947
100
AcDbArc
 50
90.0
 51
110.5450949493
  0
ARC
  5
1E4
330
196
100
AcDbEntity
  8
14086000_RING_-_
  6
Continuous
 62
     7
100
AcDbCircle
 10
588.9946980552
 20
495.7463136634
 30
0.0
 40
0.3000000000000039
100
AcDbArc
 50
69.4549050508
 51
90.0
  0
LINE
  5
1E5
330
196
100
AcDbEntity
  8
14086000_RING_-_
  6
Continuous
 62
     7
100
AcDbLine
 10
588.9946980552
 20
496.0463136634
 30
0.0
 11
570.8946980552
 21
496.0463136634
 31
0.0
  0
ELLIPSE
  5
1E6
330
196
100
AcDbEntity
  8
14088000_RING_-_
  6
Continuous
 62
     7
100
AcDbEllipse
 10
798.8999185755
 20
458.4853321329
 30
0.0
 11
-0.3995684498884489
 21
0.3005745395969761
 31
0.0
210
0.0
220
0.0
230
0.9999999999999998
 40
0.611088003
 41
1.02513151937525
 42
1.822710776166111
  0
ELLIPSE
  5
1E7
330
196
100
AcDbEntity
  8
14088000_RING_-_
  6
Continuous
 62
     7
100
AcDbEllipse
 10
807.2937446556
 20
463.3491361313
 30
0.0
 11
-0.3735046486745831
 21
0.3324067950841309
 31
0.0
210
0.0
220
0.0
230
0.9999999999999998
 40
0.1647847745
 41
1.224171133883338
 42
2.021750390674354
  0
ELLIPSE
  5
1E8
330
196
100
AcDbEntity
  8
14088000_RING_-_
  6
Continuous
 62
     7
100
AcDbEllipse
 10
815.7100615072
 20
468.2259724111
 30
0.0
 11
-0.378210933548534
 21
0.3270420305469118
 31
0.0
210
0.0
220
0.0
230
1.0
 40
0.3256724013
 41
4.095130556699743
 42
4.892709813490432
  0
ELLIPSE
  5
1E9
330
196
100
AcDbEntity
  8
14088000_RING_-_
  6
Continuous
 62
     7
100
AcDbEllipse
 10
821.8937238265
 20
471.8090966295
 30
0.0
 11
0.4188360045479511
 21
-0.273086801757777
 31
0.0
210
0.0
220
0.0
230
1.0
 40
0.7288659201
 41
0.7127390589807727
 42
1.510318315771742
  0
ELLIPSE
  5
1EA
330
196
100
AcDbEntity
  8
14088000_RING_-_
  6
Continuous
 62
     7
100
AcDbEllipse
 10
824.1878242888
 20
473.1384135459
 30
0.0
 11
0.4996952530416654
 21
0.01745434294224413
 31
0.0
210
0.0
220
0.0
230
0.9999999999999998
 40
0.9367604043
 41
0.0126660004881953
 42
0.8102452572791654
  0
SPLINE
  5
1EB
330
196
100
AcDbEntity
  8
14088000_RING_-_
  6
Continuous
 62
     7
100
AcDbSpline
210
0.0
220
0.0
230
1.0
 70
     8
 71
     3
 72
    31
 73
    27
 74
     0
 42
0.0000000031747292
 43
0.0000000001
 40
0.0
 40
0.0
 40
0.0
 40
0.0
 40
0.03141908322416
 40
0.0628246898662048
 40
0.0941879229255769
 40
0.1254811227691414
 40
0.1529180923498639
 40
0.1879508684627062
 40
0.2503740214304862
 40
0.3751735956131879
 40
0.4999733360622436
 40
0.5002170633352832
 40
0.5004607926198623
 40
0.5009482572057985
 40
0.5019232103211291
 40
0.5038732113390136
 40
0.5077735846723876
 40
0.5155757543828735
 40
0.5311852995461189
 40
0.5624214969031908
 40
0.6249355212446543
 40
0.7499666092830597
 40
0.874915022901061
 40
0.9374159121398242
 40
0.9693676923752671
 40
1.0
 40
1.0
 40
1.0
 40
1.0
 10
824.5204293590904
 20
473.4895593412695
 30
0.0
 10
824.5210886654872
 20
473.4526884797709
 30
0.0
 10
824.5223888071495
 20
473.3789776779146
 30
0.0
 10
824.5160306233813
 20
473.2754525024587
 30
0.0
 10
824.5040978793141
 20
473.1768531398357
 30
0.0
 10
824.4870347254911
 20
473.0872917090241
 30
0.0
 10
824.4643783544282
 20
472.998381876328
 30
0.0
 10
824.4274727686674
 20
472.8859097426971
 30
0.0
 10
824.3436677345734
 20
472.7020035077382
 30
0.0
 10
824.1797100032122
 20
472.4861581724155
 30
0.0
 10
824.004762232871
 20
472.3548934343855
 30
0.0
 10
823.9074589043038
 20
472.298539038897
 30
0.0
 10
823.9067014658309
 20
472.2981007864462
 30
0.0
 10
823.9053751922092
 20
472.2973345465741
 30
0.0
 10
823.9027196374873
 20
472.2958048749798
 30
0.0
 10
823.8973964851913
 20
472.2927567912245
 30
0.0
 10
823.8867019542602
 20
472.2867058230066
 30
0.0
 10
823.8651194964688
 20
472.2747860072673
 30
0.0
 10
823.8211772070903
 20
472.251685217399
 30
0.0
 10
823.7301498899526
 20
472.208519983735
 30
0.0
 10
823.5352552445179
 20
472.134941232697
 30
0.0
 10
823.2177941080665
 20
472.0694412519931
 30
0.0
 10
822.8421976038762
 20
472.0653905080224
 30
0.0
 10
822.5448610478387
 20
472.0999220360727
 30
0.0
 10
822.3658674512077
 20
472.130397281816
 30
0.0
 10
822.2721842111627
 20
472.1504338644742
 30
0.0
 10
822.2263288965697
 20
472.1602424249358
 30
0.0
  0
ARC
  5
1EC
330
196
100
AcDbEntity
  8
14088000_RING_-_
  6
Continuous
 62
     7
100
AcDbCircle
 10
822.1851572326
 20
462.1467227361
 30
0.0
 40
15.74007468040291
100
AcDbArc
 50
108.3372978712
 51
131.843011731
  0
ARC
  5
1ED
330
196
100
AcDbEntity
  8
14088000_RING_-_
  6
Continuous
 62
     7
100
AcDbCircle
 10
814.7212575659
 20
477.7345638387
 30
0.0
 40
9.299800355568973
100
AcDbArc
 50
277.4933578045
 51
322.6869517768
  0
ARC
  5
1EE
330
196
100
AcDbEntity
  8
14088000_RING_-_
  6
Continuous
 62
     7
100
AcDbCircle
 10
822.0842559994
 20
446.7912167397
 30
0.0
 40
28.97612370067594
100
AcDbArc
 50
111.4286816146
 51
128.7516279826
  0
ARC
  5
1EF
330
196
100
AcDbEntity
  8
14088000_RING_-_
  6
Continuous
 62
     7
100
AcDbCircle
 10
803.41163862
 20
479.9931205003
 30
0.0
 40
16.92416664268834
100
AcDbArc
 50
283.3892716319
 51
316.7910379498
  0
ARC
  5
1F0
330
196
100
AcDbEntity
  8
14088000_RING_-_
  6
Continuous
 62
     7
100
AcDbCircle
 10
794.8616097639
 20
474.8765150748
 30
0.0
 40
16.78595885786127
100
AcDbArc
 50
283.294025228
 51
316.8862843538
  0
ARC
  5
1F1
330
196
100
AcDbEntity
  8
14088000_RING_-_
  6
Continuous
 62
     7
100
AcDbCircle
 10
800.8021580503
 20
450.1984134387
 30
0.0
 40
15.35917695932578
100
AcDbArc
 50
108.1630107941
 51
132.017298808
  0
ARC
  5
1F2
330
196
100
AcDbEntity
  8
14088000_RING_-_
  6
Continuous
 62
     7
100
AcDbCircle
 10
791.310607336
 20
463.8446790449
 30
0.0
 40
9.027190393447219
100
AcDbArc
 50
277.0165124284
 51
323.1637971528
  0
LINE
  5
1F3
330
196
100
AcDbEntity
  8
14088000_RING_-_
  6
Continuous
 62
     7
100
AcDbLine
 10
817.8256247463
 20
478.3446607589
 30
0.0
 11
789.2143710477
 21
461.7658647715
 31
0.0
  0
LINE
  5
1F4
330
196
100
AcDbEntity
  8
14088000_RING_-_
  6
Continuous
 62
     7
100
AcDbLine
 10
812.0126073999
 20
455.3989387937
 30
0.0
 11
800.7645188204
 21
448.8812318881
 31
0.0
  0
SPLINE
  5
1F5
330
196
100
AcDbEntity
  8
14088000_RING_-_
  6
Continuous
 62
     7
100
AcDbSpline
210
0.0
220
0.0
230
1.0
 70
     8
 71
     3
 72
    14
 73
    10
 74
     0
 42
0.0000000017885789
 43
0.0000000001
 40
0.0
 40
0.0
 40
0.0
 40
0.0
 40
0.5
 40
0.5
 40
0.7500000000000001
 40
0.7500000000000001
 40
0.8750000000000001
 40
0.8750000000000001
 40
1.0
 40
1.0
 40
1.0
 40
1.0
 10
812.0126073998758
 20
455.3989387936987
 30
0.0
 10
811.2093320235086
 20
454.9334807355919
 30
0.0
 10
810.4207089337151
 20
454.459191207382
 30
0.0
 10
809.1822707072882
 20
453.8429041908751
 30
0.0
 10
808.7582567942175
 20
453.6521779393707
 30
0.0
 10
808.092951923985
 20
453.4637833794884
 30
0.0
 10
807.8642864627683
 20
453.4157306285675
 30
0.0
 10
807.4001927146732
 20
453.4104577229464
 30
0.0
 10
807.1318392974714
 20
453.4579694119094
 30
0.0
 10
807.0153389668833
 20
453.6590226438178
 30
0.0
  0
SPLINE
  5
1F6
330
196
100
AcDbEntity
  8
14088000_RING_-_
  6
Continuous
 62
     7
100
AcDbSpline
210
0.0
220
0.0
230
1.0
 70
     8
 71
     3
 72
    24
 73
    20
 74
     0
 42
0.0000000018022857
 43
0.0000000001
 40
0.0
 40
0.0
 40
0.0
 40
0.0
 40
0.03125
 40
0.03125
 40
0.0625000000000001
 40
0.0625000000000001
 40
0.1249999999999998
 40
0.1249999999999998
 40
0.1874999999999996
 40
0.1874999999999996
 40
0.2499999999999994
 40
0.2499999999999994
 40
0.3749999999999994
 40
0.3749999999999994
 40
0.4999999999999994
 40
0.4999999999999994
 40
0.7499999999999997
 40
0.7499999999999997
 40
1.0
 40
1.0
 40
1.0
 40
1.0
 10
816.0071516935468
 20
458.8693301096602
 30
0.0
 10
816.0363789794866
 20
458.8188904219061
 30
0.0
 10
816.0532081980265
 20
458.7610030408565
 30
0.0
 10
816.063475724431
 20
458.6439557895344
 30
0.0
 10
816.0576568902239
 20
458.585107344191
 30
0.0
 10
816.0202731294966
 20
458.4138817707532
 30
0.0
 10
815.9701966280245
 20
458.3069286703514
 30
0.0
 10
815.8512329678111
 20
458.1064300638465
 30
0.0
 10
815.7813659253808
 20
458.0125435508616
 30
0.0
 10
815.6330863291519
 20
457.8358010486773
 30
0.0
 10
815.5539209477507
 20
457.7522163203602
 30
0.0
 10
815.3065119665663
 20
457.5109034315271
 30
0.0
 10
815.1277868900872
 20
457.361968870793
 30
0.0
 10
814.7609439351769
 20
457.0809084007585
 30
0.0
 10
814.5723147887128
 20
456.9486168183802
 30
0.0
 10
813.9977404158742
 20
456.5654850005744
 30
0.0
 10
813.6033863231526
 20
456.3279477859037
 30
0.0
 10
812.8101449759448
 20
455.8600449231631
 30
0.0
 10
812.4111385816293
 20
455.6298677570549
 30
0.0
 10
812.0126073998758
 20
455.3989387936987
 30
0.0
  0
LINE
  5
1F7
330
196
100
AcDbEntity
  8
14088000_RING_-_
  6
Continuous
 62
     7
100
AcDbLine
 10
806.0126148276
 20
455.3894978099
 30
0.0
 11
815.0044275542
 21
460.5998052757
 31
0.0
  0
LINE
  5
1F8
330
196
100
AcDbEntity
  8
14088000_RING_-_
  6
Continuous
 62
     7
100
AcDbLine
 10
815.0044275542
 20
460.5998052757
 30
0.0
 11
816.0071516935
 21
458.8693301097
 31
0.0
  0
LINE
  5
1F9
330
196
100
AcDbEntity
  8
14088000_RING_-_
  6
Continuous
 62
     7
100
AcDbLine
 10
807.0153389669
 20
453.6590226438
 30
0.0
 11
806.0126148276
 21
455.3894978099
 31
0.0
  0
LINE
  5
1FA
330
196
100
AcDbEntity
  8
14088000_RING_-_
  6
Continuous
 62
     7
100
AcDbLine
 10
813.6635990688
 20
456.3556062066
 30
0.0
 11
823.2606959794
 21
461.9166456993
 31
0.0
  0
ARC
  5
1FB
330
196
100
AcDbEntity
  8
14088000_RING_-_
  6
Continuous
 62
     7
100
AcDbCircle
 10
790.5675384255
 20
453.6571329896
 30
0.0
 40
0.4999999999999968
100
AcDbArc
 50
193.6482703856
 51
236.8104926996
  0
ARC
  5
1FC
330
196
100
AcDbEntity
  8
14088000_RING_-_
  6
Continuous
 62
     7
100
AcDbCircle
 10
788.9027962048
 20
460.51307505
 30
0.0
 40
0.5000000000000008
100
AcDbArc
 50
150.4164109962
 51
193.6482703796
  0
ARC
  5
1FD
330
196
100
AcDbEntity
  8
14088000_RING_-_
  6
Continuous
 62
     7
100
AcDbCircle
 10
824.1878242888
 20
473.1384135459
 30
0.0
 40
0.4999999999993147
100
AcDbArc
 50
3.3698169285
 51
46.5320391924
  0
ARC
  5
1FE
330
196
100
AcDbEntity
  8
14088000_RING_-_
  6
Continuous
 62
     7
100
AcDbCircle
 10
819.0674758491
 20
477.9920039749
 30
0.0
 40
0.499999999999992
100
AcDbArc
 50
46.5320392035
 51
89.4280734962
  0
ARC
  5
1FF
330
196
100
AcDbEntity
  8
14088000_RING_-_
  6
Continuous
 62
     7
100
AcDbCircle
 10
822.8914794844
 20
473.0557254622
 30
0.0
 40
1.792292269853606
100
AcDbArc
 50
1.6583688632
 51
4.9710371898
  0
LINE
  5
200
330
196
100
AcDbEntity
  8
14088000_RING_-_
  6
Continuous
 62
     7
100
AcDbLine
 10
824.531798712
 20
473.501293135
 30
0.0
 11
819.4114502723
 21
478.354883564
 31
0.0
  0
LINE
  5
201
330
196
100
AcDbEntity
  8
14088000_RING_-_
  6
Continuous
 62
     7
100
AcDbLine
 10
788.4169149279
 20
460.3950946078
 30
0.0
 11
790.0816571486
 21
453.5391525473
 31
0.0
  0
ARC
  5
202
330
196
100
AcDbEntity
  8
14088000_RING_-_
  6
Continuous
 62
     7
100
AcDbCircle
 10
790.4390925068
 20
459.6704245446
 30
0.0
 40
2.245750463370662
100
AcDbArc
 50
144.7652543846
 51
153.3632762239
  0
ARC
  5
203
330
196
100
AcDbEntity
  8
14088000_RING_-_
  6
Continuous
 62
     7
100
AcDbCircle
 10
791.2839143343
 20
454.7407162748
 30
0.0
 40
1.792292272312166
100
AcDbArc
 50
233.7334298304
 51
244.8198230202
  0
ARC
  5
204
330
196
100
AcDbEntity
  8
14088000_RING_-_
  6
Continuous
 62
     7
100
AcDbCircle
 10
793.3031925733
 20
457.9514030323
 30
0.0
 40
5.591831527161057
100
AcDbArc
 50
237.8307403642
 51
252.4905344122
  0
ARC
  5
205
330
196
100
AcDbEntity
  8
14088000_RING_-_
  6
Continuous
 62
     7
100
AcDbCircle
 10
819.1017741223
 20
472.900395648
 30
0.0
 40
5.591831527161045
100
AcDbArc
 50
347.6897751709
 51
2.976858995
  0
ARC
  5
206
330
196
100
AcDbEntity
  8
14088000_RING_-_
  6
Continuous
 62
     7
100
AcDbCircle
 10
793.3031925733
 20
457.9514030323
 30
0.0
 40
5.591831527161039
100
AcDbArc
 50
136.9882050586
 51
150.1169571222
  0
ARC
  5
207
330
196
100
AcDbEntity
  8
14088000_RING_-_
  6
Continuous
 62
     7
100
AcDbCircle
 10
819.1017741223
 20
472.900395648
 30
0.0
 40
5.59183152716106
100
AcDbArc
 50
90.6762954393
 51
103.1921045245
  0
ARC
  5
208
330
196
100
AcDbEntity
  8
14088000_RING_-_
  6
Continuous
 62
     7
100
AcDbCircle
 10
796.4037845503
 20
454.2128501772
 30
0.0
 40
0.0999999999999966
100
AcDbArc
 50
30.0901547915
 51
118.5909407696
  0
ARC
  5
209
330
196
100
AcDbEntity
  8
14088000_RING_-_
  6
Continuous
 62
     7
100
AcDbCircle
 10
820.8034843921
 20
468.3512605417
 30
0.0
 40
0.0999999999999808
100
AcDbArc
 50
121.5893688136
 51
210.0901547916
  0
LINE
  5
20A
330
196
100
AcDbEntity
  8
14088000_RING_-_
  6
Continuous
 62
     7
100
AcDbLine
 10
820.7533481851
 20
468.4377843
 30
0.0
 11
796.3536483434
 21
454.2993739355
 31
0.0
  0
ARC
  5
20B
330
196
100
AcDbEntity
  8
14088000_RING_-_
  6
Continuous
 62
     7
100
AcDbCircle
 10
791.7110743868
 20
452.9047565624
 30
0.0
 40
0.3000000000001037
100
AcDbArc
 50
252.4905344123
 51
280.2116177108
  0
ARC
  5
20C
330
196
100
AcDbEntity
  8
14088000_RING_-_
  6
Continuous
 62
     7
100
AcDbCircle
 10
824.271933436
 20
471.7721520649
 30
0.0
 40
0.2999999999999392
100
AcDbArc
 50
319.9686918723
 51
347.6897751709
  0
ARC
  5
20D
330
196
100
AcDbEntity
  8
14088000_RING_-_
  6
Continuous
 62
     7
100
AcDbCircle
 10
789.2684065835
 20
466.4647569343
 30
0.0
 40
14.07825228692368
100
AcDbArc
 50
280.2116177108
 51
300.0901547916
  0
ARC
  5
20E
330
196
100
AcDbEntity
  8
14088000_RING_-_
  6
Continuous
 62
     7
100
AcDbCircle
 10
813.7220208622
 20
480.6344080287
 30
0.0
 40
14.07825228692364
100
AcDbArc
 50
300.0901547916
 51
319.9686918723
  0
LINE
  5
20F
330
196
100
AcDbEntity
  8
14088000_RING_-_
  6
Continuous
 62
     7
100
AcDbLine
 10
796.3267082873
 20
454.2837239521
 30
0.0
 11
820.780322566
 21
468.4533750465
 31
0.0
  0
ARC
  5
210
330
196
100
AcDbEntity
  8
14088000_RING_-_
  6
Continuous
 62
     7
100
AcDbCircle
 10
800.2631567507
 20
449.7464694711
 30
0.0
 40
0.9999999999999898
100
AcDbArc
 50
210.0901547916
 51
300.0901547916
  0
ARC
  5
211
330
196
100
AcDbEntity
  8
14088000_RING_-_
  6
Continuous
 62
     7
100
AcDbCircle
 10
822.7593339097
 20
462.7818832823
 30
0.0
 40
1.000000000000009
100
AcDbArc
 50
300.0901547916
 51
30.0901547916
  0
LINE
  5
212
330
196
100
AcDbEntity
  8
14088000_RING_-_
  6
Continuous
 62
     7
100
AcDbLine
 10
796.4903083086
 20
454.2629863842
 30
0.0
 11
799.3979191677
 21
449.2451074015
 31
0.0
  0
LINE
  5
213
330
196
100
AcDbEntity
  8
14088000_RING_-_
  6
Continuous
 62
     7
100
AcDbLine
 10
823.6245714928
 20
463.283245352
 30
0.0
 11
820.7169606338
 21
468.3011243347
 31
0.0
  0
LINE
  5
215
330
196
100
AcDbEntity
  8
T14080044__LIFT_
  6
Continuous
 62
     7
100
AcDbLine
 10
584.3979755552
 20
464.2870338506
 30
0.0
 11
584.3979755552
 21
473.2789102668
 31
0.0
  0
LINE
  5
216
330
196
100
AcDbEntity
  8
T14080044__LIFT_
  6
Continuous
 62
     7
100
AcDbLine
 10
575.4914205552
 20
473.2789102668
 30
0.0
 11
575.4914205552
 21
451.4610965279
 31
0.0
  0
LINE
  5
218
330
196
100
AcDbEntity
  8
14085000_PULL_EL
  6
Continuous
 62
     7
100
AcDbLine
 10
573.7265681619
 20
473.2789102668
 30
0.0
 11
586.1628279485
 21
473.2789102668
 31
0.0
  0
ARC
  5
219
330
196
100
AcDbEntity
  8
14085000_PULL_EL
  6
Continuous
 62
     7
100
AcDbCircle
 10
589.5527797686
 20
490.4273500927
 30
0.0
 40
0.1999999999999919
100
AcDbArc
 50
325.0313777412
 51
90.0
  0
ARC
  5
21A
330
196
100
AcDbEntity
  8
14085000_PULL_EL
  6
Continuous
 62
     7
100
AcDbCircle
 10
570.3366163418
 20
490.4273500927
 30
0.0
 40
0.199999999999978
100
AcDbArc
 50
90.0
 51
214.9686222588
  0
ARC
  5
21B
330
196
100
AcDbEntity
  8
14085000_PULL_EL
  6
Continuous
 62
     7
100
AcDbCircle
 10
586.1628279485
 20
473.7789102668
 30
0.0
 40
0.5000000000000004
100
AcDbArc
 50
270.0
 51
10.9384144658
  0
ARC
  5
21C
330
196
100
AcDbEntity
  8
14085000_PULL_EL
  6
Continuous
 62
     7
100
AcDbCircle
 10
573.7265681619
 20
473.7789102668
 30
0.0
 40
0.5000000000000129
100
AcDbArc
 50
169.0615855342
 51
270.0
  0
ARC
  5
21D
330
196
100
AcDbEntity
  8
14085000_PULL_EL
  6
Continuous
 62
     7
100
AcDbCircle
 10
606.1573947841
 20
478.8142201537
 30
0.0
 40
20.06272505840829
100
AcDbArc
 50
145.0313777412
 51
188.5424787082
  0
ARC
  5
21E
330
196
100
AcDbEntity
  8
14085000_PULL_EL
  6
Continuous
 62
     7
100
AcDbCircle
 10
553.7320013263
 20
478.8142201537
 30
0.0
 40
20.06272505840832
100
AcDbArc
 50
351.4575212918
 51
34.9686222588
  0
ARC
  5
21F
330
196
100
AcDbEntity
  8
14085000_PULL_EL
  6
Continuous
 62
     7
100
AcDbCircle
 10
633.3558849701
 20
482.8996792068
 30
0.0
 40
47.56634016750698
100
AcDbArc
 50
188.5424787082
 51
190.9384144658
  0
ARC
  5
220
330
196
100
AcDbEntity
  8
14085000_PULL_EL
  6
Continuous
 62
     7
100
AcDbCircle
 10
526.5335111404
 20
482.8996792068
 30
0.0
 40
47.56634016750699
100
AcDbArc
 50
349.0615855342
 51
351.4575212918
  0
LINE
  5
221
330
196
100
AcDbEntity
  8
14801000_ROUND_H
  6
Continuous
 62
     7
100
AcDbLine
 10
573.9446980552
 20
427.3442400859
 30
0.0
 11
573.9446980552
 21
413.0653954511
 31
0.0
  0
LINE
  5
222
330
196
100
AcDbEntity
  8
14801000_ROUND_H
  6
Continuous
 62
     7
100
AcDbLine
 10
585.9446980552
 20
413.0653954511
 30
0.0
 11
585.9446980552
 21
427.3442400859
 31
0.0
  0
LINE
  5
223
330
196
100
AcDbEntity
  8
14088700_ROUND_H
  6
Continuous
 62
     7
100
AcDbLine
 10
586.0446980552
 20
427.3442400859
 30
0.0
 11
573.8446980552
 21
427.3442400859
 31
0.0
  0
ARC
  5
224
330
196
100
AcDbEntity
  8
14088700_ROUND_H
  6
Continuous
 62
     7
100
AcDbCircle
 10
557.4819508175
 20
435.8229699495
 30
0.0
 40
0.1999999999999919
100
AcDbArc
 50
90.0
 51
187.3021854762
  0
ARC
  5
225
330
196
100
AcDbEntity
  8
14088700_ROUND_H
  6
Continuous
 62
     7
100
AcDbCircle
 10
602.407445293
 20
435.8229699495
 30
0.0
 40
0.1999999999999987
100
AcDbArc
 50
352.6978145238
 51
90.0
  0
LINE
  5
226
330
196
100
AcDbEntity
  8
14088700_ROUND_H
  6
Continuous
 62
     7
100
AcDbLine
 10
557.2835728984
 20
435.7975494609
 30
0.0
 11
557.4008114374
 21
434.8826363862
 31
0.0
  0
LINE
  5
227
330
196
100
AcDbEntity
  8
14088700_ROUND_H
  6
Continuous
 62
     7
100
AcDbLine
 10
602.488584673
 20
434.8826363862
 30
0.0
 11
602.605823212
 21
435.7975494609
 31
0.0
  0
ARC
  5
228
330
196
100
AcDbEntity
  8
14088700_ROUND_H
  6
Continuous
 62
     7
100
AcDbCircle
 10
558.2439175933
 20
434.9906734629
 30
0.0
 40
0.8500000000000058
100
AcDbArc
 50
187.3021854762
 51
232.7838920423
  0
ARC
  5
229
330
196
100
AcDbEntity
  8
14088700_ROUND_H
  6
Continuous
 62
     7
100
AcDbCircle
 10
601.6454785171
 20
434.9906734629
 30
0.0
 40
0.8499999999999854
100
AcDbArc
 50
307.2161079577
 51
352.6978145238
  0
ARC
  5
22A
330
196
100
AcDbEntity
  8
14088700_ROUND_H
  6
Continuous
 62
     7
100
AcDbCircle
 10
579.9446980552
 20
463.5637120123
 30
0.0
 40
36.72955413051689
100
AcDbArc
 50
279.5599094461
 51
307.2161079577
  0
ARC
  5
22B
330
196
100
AcDbEntity
  8
14088700_ROUND_H
  6
Continuous
 62
     7
100
AcDbCircle
 10
579.9446980552
 20
463.5637120123
 30
0.0
 40
36.72955413051702
100
AcDbArc
 50
232.7838920423
 51
260.4400905539
  0
ELLIPSE
  5
22C
330
196
100
AcDbEntity
  8
14088600_ROUND_H
  6
Continuous
 62
     7
100
AcDbEllipse
 10
606.938903354
 20
439.8956000223
 30
0.0
 11
-0.4358951711220492
 21
0.2449395839641128
 31
0.0
210
0.0
220
0.0
230
0.9999999999999997
 40
0.9352547002
 41
3.121513607019175
 42
3.14159265358987
  0
ELLIPSE
  5
22D
330
196
100
AcDbEntity
  8
14088600_ROUND_H
  6
Continuous
 62
     7
100
AcDbEllipse
 10
608.2581981246
 20
444.2127124555
 30
0.0
 11
-0.4999305663663869
 21
-0.008332395365975853
 31
0.0
210
0.0
220
0.0
230
0.9999999999999997
 40
0.965135281
 41
3.141592653589807
 42
3.205770194050684
  0
ELLIPSE
  5
22E
330
196
100
AcDbEntity
  8
14088600_ROUND_H
  6
Continuous
 62
     7
100
AcDbEllipse
 10
552.9504927564
 20
439.8956000223
 30
0.0
 11
0.4358951711227015
 21
0.244939583962489
 31
0.0
210
0.0
220
0.0
230
1.0
 40
0.9352547002
 41
3.141592653592578
 42
3.161939613020621
  0
ELLIPSE
  5
22F
330
196
100
AcDbEntity
  8
14088600_ROUND_H
  6
Continuous
 62
     7
100
AcDbEllipse
 10
551.6311979857
 20
444.2127124496
 30
0.0
 11
0.4999305647900055
 21
-0.008332489948720267
 31
0.0
210
0.0
220
0.0
230
1.0
 40
0.9651352827
 41
2.550204748874166
 42
3.141592653589925
  0
SPLINE
  5
230
330
196
100
AcDbEntity
  8
14088600_ROUND_H
  6
Continuous
 62
     7
100
AcDbSpline
210
0.0
220
0.0
230
1.0
 70
     8
 71
     3
 72
     8
 73
     4
 74
     0
 42
0.0000000062146399
 43
0.0000000001
 40
0.3066498110461163
 40
0.3066498110461163
 40
0.3066498110461163
 40
0.3066498110461163
 40
0.338989370904747
 40
0.338989370904747
 40
0.338989370904747
 40
0.338989370904747
 10
551.5251009343431
 20
445.2802336128094
 30
0.0
 10
551.5384403792447
 20
445.2923330861409
 30
0.0
 10
551.5518967380815
 20
445.3032381069776
 30
0.0
 10
551.5654494762476
 20
445.3130095380247
 30
0.0
  0
SPLINE
  5
231
330
196
100
AcDbEntity
  8
14088600_ROUND_H
  6
Continuous
 62
     7
100
AcDbSpline
210
0.0
220
0.0
230
1.0
 70
     8
 71
     3
 72
     8
 73
     4
 74
     0
 42
0.0000000062147171
 43
0.0000000001
 40
0.3066694887763678
 40
0.3066694887763678
 40
0.3066694887763678
 40
0.3066694887763678
 40
0.3389785395712111
 40
0.3389785395712111
 40
0.3389785395712111
 40
0.3389785395712111
 10
608.3642708258876
 20
445.2802556980665
 30
0.0
 10
608.3509438232505
 20
445.2923423045948
 30
0.0
 10
608.3375001396381
 20
445.303236748216
 30
0.0
 10
608.3239602515941
 20
445.3129997195445
 30
0.0
  0
LINE
  5
232
330
196
100
AcDbEntity
  8
14088600_ROUND_H
  6
Continuous
 62
     7
100
AcDbLine
 10
557.2978585039
 20
436.0229699495
 30
0.0
 11
602.5915376065
 21
436.0229699495
 31
0.0
  0
ARC
  5
233
330
196
100
AcDbEntity
  8
14088600_ROUND_H
  6
Continuous
 62
     7
100
AcDbCircle
 10
606.938903354
 20
439.8956000223
 30
0.0
 40
0.4999999999999525
100
AcDbArc
 50
330.6673600563
 51
343.0070271288
  0
ARC
  5
234
330
196
100
AcDbEntity
  8
14088600_ROUND_H
  6
Continuous
 62
     7
100
AcDbCircle
 10
608.2581981254
 20
444.2127124491
 30
0.0
 40
0.4999999996060704
100
AcDbArc
 50
343.0070280703
 51
0.9548754812
  0
ARC
  5
235
330
196
100
AcDbEntity
  8
14088600_ROUND_H
  6
Continuous
 62
     7
100
AcDbCircle
 10
552.9504927564
 20
439.8956000223
 30
0.0
 40
0.5000000000000031
100
AcDbArc
 50
196.9929728712
 51
209.3326399437
  0
ARC
  5
236
330
196
100
AcDbEntity
  8
14088600_ROUND_H
  6
Continuous
 62
     7
100
AcDbCircle
 10
551.6311979857
 20
444.2127124497
 30
0.0
 40
0.5000000000000149
100
AcDbArc
 50
179.0451228097
 51
196.9929719748
  0
SPLINE
  5
237
330
196
100
AcDbEntity
  8
14088600_ROUND_H
  6
Continuous
 62
     7
100
AcDbSpline
210
0.0
220
0.0
230
1.0
 70
     8
 71
     3
 72
     8
 73
     4
 74
     0
 42
0.000000008263649
 43
0.0000000001
 40
0.2284408777752655
 40
0.2284408777752655
 40
0.2284408777752655
 40
0.2284408777752655
 40
0.9478051366003746
 40
0.9478051366003746
 40
0.9478051366003746
 40
0.9478051366003746
 10
551.3868426838964
 20
445.1429330549899
 30
0.0
 10
551.2490479747232
 20
444.9622695492374
 30
0.0
 10
551.1661390427669
 20
444.6921233929453
 30
0.0
 10
551.138115888028
 20
444.3324945861137
 30
0.0
  0
LINE
  5
238
330
196
100
AcDbEntity
  8
14088600_ROUND_H
  6
Continuous
 62
     7
100
AcDbLine
 10
551.1530276798
 20
444.0665852496
 30
0.0
 11
552.4723224528
 21
439.7494728148
 31
0.0
  0
ARC
  5
239
330
196
100
AcDbEntity
  8
14088600_ROUND_H
  6
Continuous
 62
     7
100
AcDbCircle
 10
556.0500712002
 20
441.404148975
 30
0.0
 40
3.944197400561843
100
AcDbArc
 50
206.5158825886
 51
226.6637908284
  0
SPLINE
  5
23A
330
196
100
AcDbEntity
  8
14088600_ROUND_H
  6
Continuous
 62
     7
100
AcDbSpline
210
0.0
220
0.0
230
1.0
 70
     8
 71
     3
 72
     8
 73
     4
 74
     0
 42
0.0000000084370324
 43
0.0000000001
 40
0.0
 40
0.0
 40
0.0
 40
0.0
 40
1.0
 40
1.0
 40
1.0
 40
1.0
 10
608.756591054328
 20
444.2518743673725
 30
0.0
 10
608.7289952852432
 20
444.7701008902273
 30
0.0
 10
608.5950231721065
 20
445.1154680605039
 30
0.0
 10
608.3546747149178
 20
445.2879758782026
 30
0.0
  0
ARC
  5
23B
330
196
100
AcDbEntity
  8
14088600_ROUND_H
  6
Continuous
 62
     7
100
AcDbCircle
 10
603.8392999814
 20
441.4041711117
 30
0.0
 40
3.944230609566161
100
AcDbArc
 50
313.3362518757
 51
333.4841346388
  0
LINE
  5
23C
330
196
100
AcDbEntity
  8
14088600_ROUND_H
  6
Continuous
 62
     7
100
AcDbLine
 10
607.4170736576
 20
439.7494728148
 30
0.0
 11
608.7363684306
 21
444.0665852496
 31
0.0
  0
ARC
  5
23D
330
196
100
AcDbEntity
  8
14088600_ROUND_H
  6
Continuous
 62
     7
100
AcDbCircle
 10
593.0618120982
 20
455.3909986052
 30
0.0
 40
21.58555540800877
100
AcDbArc
 50
296.1987470491
 51
308.6740150715
  0
ARC
  5
23E
330
196
100
AcDbEntity
  8
14088600_ROUND_H
  6
Continuous
 62
     7
100
AcDbCircle
 10
566.8275840122
 20
455.3909986052
 30
0.0
 40
21.5855554080088
100
AcDbArc
 50
231.3232698962
 51
243.8012529509
  0
ARC
  5
23F
330
196
100
AcDbEntity
  8
14088600_ROUND_H
  6
Continuous
 62
     7
100
AcDbCircle
 10
579.9446980552
 20
383.5220724246
 30
0.0
 40
68.05409781401812
100
AcDbArc
 50
109.3280430914
 51
114.1475423058
  0
ARC
  5
240
330
196
100
AcDbEntity
  8
14088600_ROUND_H
  6
Continuous
 62
     7
100
AcDbCircle
 10
579.9446980552
 20
383.5220724246
 30
0.0
 40
68.05409781401694
100
AcDbArc
 50
65.8524576942
 51
70.6719569086
  0
ARC
  5
241
330
196
100
AcDbEntity
  8
14088600_ROUND_H
  6
Continuous
 62
     7
100
AcDbCircle
 10
606.5002610476
 20
442.7558648843
 30
0.0
 40
3.140000000000004
100
AcDbArc
 50
54.4007136291
 51
65.8524576942
  0
ARC
  5
242
330
196
100
AcDbEntity
  8
14088600_ROUND_H
  6
Continuous
 62
     7
100
AcDbCircle
 10
553.3891350628
 20
442.7558648843
 30
0.0
 40
3.139999999999993
100
AcDbArc
 50
114.1475423058
 51
125.5903906057
  0
ARC
  5
243
330
196
100
AcDbEntity
  8
14088600_ROUND_H
  6
Continuous
 62
     7
100
AcDbCircle
 10
602.3696980552
 20
447.4574862857
 30
0.0
 40
0.3000000000002114
100
AcDbArc
 50
70.6719569085
 51
90.0
  0
ARC
  5
244
330
196
100
AcDbEntity
  8
14088600_ROUND_H
  6
Continuous
 62
     7
100
AcDbCircle
 10
557.5196980552
 20
447.4574862857
 30
0.0
 40
0.2999999999999947
100
AcDbArc
 50
90.0
 51
109.3280430912
  0
LINE
  5
245
330
196
100
AcDbEntity
  8
14088600_ROUND_H
  6
Continuous
 62
     7
100
AcDbLine
 10
602.3696980552
 20
447.7574862857
 30
0.0
 11
557.5196980552
 21
447.7574862857
 31
0.0
  0
ARC
  5
246
330
196
100
AcDbEntity
  8
14086400_ROUND_H
  6
Continuous
 62
     7
100
AcDbCircle
 10
601.7191043299
 20
447.7655608399
 30
0.0
 40
0.2500000000000037
100
AcDbArc
 50
0.0
 51
71.2682987071
  0
ARC
  5
247
330
196
100
AcDbEntity
  8
14086400_ROUND_H
  6
Continuous
 62
     7
100
AcDbCircle
 10
558.1702917805
 20
447.7655608399
 30
0.0
 40
0.2500000000000047
100
AcDbArc
 50
108.7317012929
 51
180.0
  0
ARC
  5
248
330
196
100
AcDbEntity
  8
14086400_ROUND_H
  6
Continuous
 62
     7
100
AcDbCircle
 10
579.9446980552
 20
383.5528602912
 30
0.0
 40
68.05409781401431
100
AcDbArc
 50
89.9989848366
 51
108.7317012929
  0
ARC
  5
249
330
196
100
AcDbEntity
  8
14086400_ROUND_H
  6
Continuous
 62
     7
100
AcDbCircle
 10
579.9446980552
 20
383.5528602912
 30
0.0
 40
68.05409781401428
100
AcDbArc
 50
71.2682987071
 51
89.9989848366
  0
LINE
  5
24A
330
196
100
AcDbEntity
  8
14086400_ROUND_H
  6
Continuous
 62
     7
100
AcDbLine
 10
601.9691043299
 20
447.7574862857
 30
0.0
 11
601.9691043299
 21
447.7655608399
 31
0.0
  0
LINE
  5
24B
330
196
100
AcDbEntity
  8
14086400_ROUND_H
  6
Continuous
 62
     7
100
AcDbLine
 10
557.9202917805
 20
447.7655608399
 30
0.0
 11
557.9202917805
 21
447.7574862857
 31
0.0
  0
LINE
  5
24C
330
196
100
AcDbEntity
  8
14087800_RING_-_
  6
Continuous
 62
     7
100
AcDbLine
 10
568.5429851645
 20
395.4912082668
 30
0.0
 11
591.3464109459
 21
395.4912082668
 31
0.0
  0
ARC
  5
24D
330
196
100
AcDbEntity
  8
14087800_RING_-_
  6
Continuous
 62
     7
100
AcDbCircle
 10
579.9446980552
 20
378.7123675215
 30
0.0
 40
34.99999999999765
100
AcDbArc
 50
101.1135262976
 51
111.2365591835
  0
ARC
  5
24E
330
196
100
AcDbEntity
  8
14087800_RING_-_
  6
Continuous
 62
     7
100
AcDbCircle
 10
579.9446980552
 20
378.7123675215
 30
0.0
 40
34.99999999999799
100
AcDbArc
 50
68.7634408165
 51
78.8864737024
  0
ARC
  5
24F
330
196
100
AcDbEntity
  8
14087800_RING_-_
  6
Continuous
 62
     7
100
AcDbCircle
 10
567.5205729149
 20
410.6831528497
 30
0.0
 40
0.7000000000001374
100
AcDbArc
 50
111.2365591834
 51
204.6643304599
  0
ARC
  5
250
330
196
100
AcDbEntity
  8
14087800_RING_-_
  6
Continuous
 62
     7
100
AcDbCircle
 10
592.3688231955
 20
410.6831528497
 30
0.0
 40
0.7000000000000155
100
AcDbArc
 50
335.3356695401
 51
68.7634408165
  0
ARC
  5
251
330
196
100
AcDbEntity
  8
14087800_RING_-_
  6
Continuous
 62
     7
100
AcDbCircle
 10
568.5429851645
 20
395.6912082668
 30
0.0
 40
0.2000000000000017
100
AcDbArc
 50
166.7450899086
 51
270.0
  0
ARC
  5
252
330
196
100
AcDbEntity
  8
14087800_RING_-_
  6
Continuous
 62
     7
100
AcDbCircle
 10
591.3464109459
 20
395.6912082668
 30
0.0
 40
0.1999999999999988
100
AcDbArc
 50
270.0
 51
13.2549100914
  0
ARC
  5
253
330
196
100
AcDbEntity
  8
14087800_RING_-_
  6
Continuous
 62
     7
100
AcDbCircle
 10
546.2884376224
 20
400.9334715509
 30
0.0
 40
22.6636438618831
100
AcDbArc
 50
346.7450899086
 51
24.6643304599
  0
ARC
  5
254
330
196
100
AcDbEntity
  8
14087800_RING_-_
  6
Continuous
 62
     7
100
AcDbCircle
 10
613.600958488
 20
400.9334715509
 30
0.0
 40
22.6636438618831
100
AcDbArc
 50
155.3356695401
 51
193.2549100914
  0
ARC
  5
255
330
196
100
AcDbEntity
  8
14087800_RING_-_
  6
Continuous
 62
     7
100
AcDbCircle
 10
586.5946980552
 20
412.5653954511
 30
0.0
 40
0.4999999999999162
100
AcDbArc
 50
78.8864737025
 51
90.0
  0
ARC
  5
256
330
196
100
AcDbEntity
  8
14087800_RING_-_
  6
Continuous
 62
     7
100
AcDbCircle
 10
573.2946980552
 20
412.5653954511
 30
0.0
 40
0.5000000000000004
100
AcDbArc
 50
90.0
 51
101.1135262976
  0
LINE
  5
257
330
196
100
AcDbEntity
  8
14087800_RING_-_
  6
Continuous
 62
     7
100
AcDbLine
 10
586.5946980552
 20
413.0653954511
 30
0.0
 11
573.2946980552
 21
413.0653954511
 31
0.0
  0
ENDBLK
  5
259
330
196
100
AcDbEntity
  8
0
100
AcDbBlockEnd
  0
BLOCK
  5
34B
330
25A
100
AcDbEntity
  8
0
100
AcDbBlockBegin
  2
SE2
 70
     0
 10
0.0
 20
0.0
 30
0.0
  3
SE2
  1

  0
ELLIPSE
  5
25C
330
25A
100
AcDbEntity
  8
T14089600_49432_
  6
Continuous
 62
     7
100
AcDbEllipse
 10
425.1826410428
 20
252.5174826106
 30
0.0
 11
-0.4872303157271614
 21
0.1122792030450555
 31
0.0
210
0.0
220
0.0
230
1.0
 40
0.2762378858
 41
3.01440681330559
 42
3.836855335768423
  0
SPLINE
  5
25D
330
25A
100
AcDbEntity
  8
T14089600_49432_
  6
Continuous
 62
     7
100
AcDbSpline
210
0.0
220
0.0
230
1.0
 70
     8
 71
     3
 72
    13
 73
     9
 74
     0
 42
0.0000000577057089
 43
0.0000000001
 40
0.0
 40
0.0
 40
0.0
 40
0.0
 40
0.2222903129873769
 40
0.499653424797782
 40
0.6236238570431735
 40
0.7498266994194855
 40
0.8749246677842821
 40
1.0
 40
1.0
 40
1.0
 40
1.0
 10
425.5238597081368
 20
252.3204799216447
 30
0.0
 10
425.5432917754266
 20
252.3215460617488
 30
0.0
 10
425.5869702373523
 20
252.3239424799604
 30
0.0
 10
425.6246369772545
 20
252.3356923542124
 30
0.0
 10
425.6464406500228
 20
252.3494211681286
 30
0.0
 10
425.6568515717263
 20
252.3609116211947
 30
0.0
 10
425.662630015792
 20
252.3739895770422
 30
0.0
 10
425.6622111599901
 20
252.384022358917
 30
0.0
 10
425.6620017510388
 20
252.3890382959621
 30
0.0
  0
SPLINE
  5
25E
330
25A
100
AcDbEntity
  8
T14089600_49432_
  6
Continuous
 62
     7
100
AcDbSpline
210
0.0
220
0.0
230
1.0
 70
     8
 71
     3
 72
    14
 73
    10
 74
     0
 42
0.0000000578156163
 43
0.0000000001
 40
0.0
 40
0.0
 40
0.0
 40
0.0
 40
0.1250129122221765
 40
0.2500479730323422
 40
0.3878045580860656
 40
0.5000924166864613
 40
0.6912894685359762
 40
0.857928788544982
 40
1.0
 40
1.0
 40
1.0
 40
1.0
 10
425.6620017510388
 20
268.1931201132314
 30
0.0
 10
425.6622240062585
 20
268.1980919450817
 30
0.0
 10
425.6626685557514
 20
268.2080364895569
 30
0.0
 10
425.656675172804
 20
268.2216709312994
 30
0.0
 10
425.6459935468433
 20
268.2331409655145
 30
0.0
 10
425.6276107249197
 20
268.2444678833543
 30
0.0
 10
425.6006517755928
 20
268.2537841912144
 30
0.0
 10
425.5640743339769
 20
268.2599859161184
 30
0.0
 10
425.5365340021205
 20
268.2611450481053
 30
0.0
 10
425.5238597072327
 20
268.2616784905014
 30
0.0
  0
SPLINE
  5
25F
330
25A
100
AcDbEntity
  8
T14089600_49432_
  6
Continuous
 62
     7
100
AcDbSpline
210
0.0
220
0.0
230
1.0
 70
     8
 71
     3
 72
    14
 73
    10
 74
     0
 42
0.0000000578156163
 43
0.0000000001
 40
0.0
 40
0.0
 40
0.0
 40
0.0
 40
0.1250129122221886
 40
0.2500479730323686
 40
0.3878045582598125
 40
0.5000924166864205
 40
0.6912894685502289
 40
0.8579287885591621
 40
1.0
 40
1.0
 40
1.0
 40
1.0
 10
417.7599608424039
 20
281.8798564504744
 30
0.0
 10
417.7576674051454
 20
281.8842733107697
 30
0.0
 10
417.7530801240625
 20
281.8931078136604
 30
0.0
 10
417.7410724812979
 20
281.9019188951069
 30
0.0
 10
417.726086904752
 20
281.9065114231365
 30
0.0
 10
417.7045034550505
 20
281.9071294107668
 30
0.0
 10
417.6764981661516
 20
281.9017180953825
 30
0.0
 10
417.641720310055
 20
281.8888002258877
 30
0.0
 10
417.6172901170468
 20
281.8760338977065
 30
0.0
 10
417.6060471345022
 20
281.8701587249295
 30
0.0
  0
SPLINE
  5
260
330
25A
100
AcDbEntity
  8
T14089600_49432_
  6
Continuous
 62
     7
100
AcDbSpline
210
0.0
220
0.0
230
1.0
 70
     8
 71
     3
 72
    14
 73
    10
 74
     0
 42
0.0000000571451598
 43
0.0000000001
 40
0.0
 40
0.0
 40
0.0
 40
0.0
 40
0.0000735860315055
 40
0.0000735860315055
 40
0.0000735860315055
 40
0.2500686594342263
 40
0.5000637328369472
 40
0.7500588062396679
 40
1.0
 40
1.0
 40
1.0
 40
1.0
 10
404.1417828824202
 20
230.9384030934162
 30
0.0
 10
404.1417832950745
 20
230.9383964620552
 30
0.0
 10
404.1417831408353
 20
230.9383896571243
 30
0.0
 10
404.1417829865961
 20
230.9383828521933
 30
0.0
 10
404.1412589871064
 20
230.9152643449196
 30
0.0
 10
404.1374250358272
 20
230.8738535659739
 30
0.0
 10
404.1235584350791
 20
230.8288298069265
 30
0.0
 10
404.1021617397512
 20
230.8027978114148
 30
0.0
 10
404.0834788401931
 20
230.7988317408495
 30
0.0
 10
404.0732245051609
 20
230.8002610500844
 30
0.0
  0
ELLIPSE
  5
261
330
25A
100
AcDbEntity
  8
T14089600_49432_
  6
Continuous
 62
     7
100
AcDbEllipse
 10
403.9447801899
 20
231.2796217582
 30
0.0
 11
-0.1122792042770543
 21
0.4872303154432357
 31
0.0
210
0.0
220
0.0
230
1.0
 40
0.276237877
 41
2.446329969306739
 42
3.26877849317554
  0
ELLIPSE
  5
262
330
25A
100
AcDbEntity
  8
T14089600_49432_
  6
Continuous
 62
     7
100
AcDbEllipse
 10
388.3975870026
 20
231.2796217583
 30
0.0
 11
0.112279203045104
 21
0.4872303157271336
 31
0.0
210
0.0
220
0.0
230
0.9999999999999999
 40
0.2762378858
 41
3.014406813306409
 42
3.836855335768441
  0
SPLINE
  5
263
330
25A
100
AcDbEntity
  8
T14089600_49432_
  6
Continuous
 62
     7
100
AcDbSpline
210
0.0
220
0.0
230
1.0
 70
     8
 71
     3
 72
     8
 73
     4
 74
     0
 42
0.0000000523074344
 43
0.0000000001
 40
0.0
 40
0.0
 40
0.0
 40
0.0
 40
1.0
 40
1.0
 40
1.0
 40
1.0
 10
366.6803654420145
 20
268.1931201132311
 30
0.0
 10
366.674716882749
 20
268.2341303408502
 30
0.0
 10
366.726031509784
 20
268.259583073288
 30
0.0
 10
366.8185074848387
 20
268.2616784875466
 30
0.0
  0
ARC
  5
264
330
25A
100
AcDbEntity
  8
T14089600_49432_
  6
Continuous
 62
     7
100
AcDbCircle
 10
404.2648187741
 20
260.2910792046
 30
0.0
 40
38.40616334379587
100
AcDbArc
 50
168.1266346126
 51
191.8733653874
  0
ARC
  5
265
330
25A
100
AcDbEntity
  8
T14089600_49432_
  6
Continuous
 62
     7
100
AcDbCircle
 10
403.1502973931
 20
256.2616859755
 30
0.0
 40
38.37206089198199
100
AcDbArc
 50
138.1159284785
 51
161.8840715215
  0
ARC
  5
266
330
25A
100
AcDbEntity
  8
T14089600_49432_
  6
Continuous
 62
     7
100
AcDbCircle
 10
403.1504319005
 20
264.3205500916
 30
0.0
 40
38.37221287881134
100
AcDbArc
 50
198.1159762364
 51
221.8840237636
  0
ARC
  5
267
330
25A
100
AcDbEntity
  8
T14089600_49432_
  6
Continuous
 62
     7
100
AcDbCircle
 10
400.2006926519
 20
253.3117647912
 30
0.0
 40
38.37228757927763
100
AcDbArc
 50
108.115999709
 51
131.884000291
  0
ARC
  5
268
330
25A
100
AcDbEntity
  8
T14089600_49432_
  6
Continuous
 62
     7
100
AcDbCircle
 10
400.2008432737
 20
267.2706545026
 30
0.0
 40
38.37258236617937
100
AcDbArc
 50
228.1160923367
 51
251.8839076633
  0
ARC
  5
269
330
25A
100
AcDbEntity
  8
T14089600_49432_
  6
Continuous
 62
     7
100
AcDbCircle
 10
396.1711835965
 20
252.3015114929
 30
0.0
 40
38.30432841336458
100
AcDbArc
 50
78.0946067372
 51
101.9053932628
  0
ARC
  5
26A
330
25A
100
AcDbEntity
  8
T14089600_49432_
  6
Continuous
 62
     7
100
AcDbCircle
 10
396.1711835965
 20
268.2806469162
 30
0.0
 40
38.3043284133396
100
AcDbArc
 50
258.0946067372
 51
281.9053932628
  0
ARC
  5
26B
330
25A
100
AcDbEntity
  8
T14089600_49432_
  6
Continuous
 62
     7
100
AcDbCircle
 10
392.1489598204
 20
253.3243832649
 30
0.0
 40
38.35802943580794
100
AcDbArc
 50
48.1115177887
 51
71.8884822113
  0
ARC
  5
26C
330
25A
100
AcDbEntity
  8
T14089600_49432_
  6
Continuous
 62
     7
100
AcDbCircle
 10
392.1415304678
 20
267.2706431604
 30
0.0
 40
38.37256955005856
100
AcDbArc
 50
288.1160883096
 51
311.8839116904
  0
ARC
  5
26D
330
25A
100
AcDbEntity
  8
T14089600_49432_
  6
Continuous
 62
     7
100
AcDbCircle
 10
389.2041626602
 20
256.2686677916
 30
0.0
 40
38.35839666023774
100
AcDbArc
 50
18.1116332652
 51
41.8883667348
  0
ARC
  5
26E
330
25A
100
AcDbEntity
  8
T14089600_49432_
  6
Continuous
 62
     7
100
AcDbCircle
 10
389.2044782568
 20
264.3133084079
 30
0.0
 40
38.35804005728276
100
AcDbArc
 50
318.1115211287
 51
341.8884788713
  0
ARC
  5
26F
330
25A
100
AcDbEntity
  8
T14089600_49432_
  6
Continuous
 62
     7
100
AcDbCircle
 10
388.1816158849
 20
260.2910792046
 30
0.0
 40
38.30432841329312
100
AcDbArc
 50
348.0946067371
 51
11.9053932629
  0
ARC
  5
270
330
25A
100
AcDbEntity
  8
T14089600_49432_
  6
Continuous
 62
     7
100
AcDbCircle
 10
417.4090444489
 20
239.0532183522
 30
0.0
 40
0.4999999999262564
100
AcDbArc
 50
312.976912295
 51
317.0230877749
  0
ARC
  5
271
330
25A
100
AcDbEntity
  8
T14089600_49432_
  6
Continuous
 62
     7
100
AcDbCircle
 10
388.3975870025
 20
289.302536651
 30
0.0
 40
0.4999999999262573
100
AcDbArc
 50
102.9769122914
 51
107.0230877749
  0
ARC
  5
272
330
25A
100
AcDbEntity
  8
T14089600_49432_
  6
Continuous
 62
     7
100
AcDbCircle
 10
374.9333227443
 20
239.0532183523
 30
0.0
 40
0.4999999999999971
100
AcDbArc
 50
222.9769122896
 51
227.0230877803
  0
ARC
  5
273
330
25A
100
AcDbEntity
  8
T14089600_49432_
  6
Continuous
 62
     7
100
AcDbCircle
 10
374.9333227441
 20
281.528940057
 30
0.0
 40
0.4999999999263092
100
AcDbArc
 50
132.9769122914
 51
137.0230877749
  0
ARC
  5
274
330
25A
100
AcDbEntity
  8
T14089600_49432_
  6
Continuous
 62
     7
100
AcDbCircle
 10
367.1597261501
 20
252.5174826106
 30
0.0
 40
0.4999999999262359
100
AcDbArc
 50
192.976912295
 51
197.0230877749
  0
ELLIPSE
  5
275
330
25A
100
AcDbEntity
  8
T14089600_49432_
  6
Continuous
 62
     7
100
AcDbEllipse
 10
125.1826410428
 20
252.5174826106
 30
0.0
 11
-0.4872303157270608
 21
0.1122792030450737
 31
0.0
210
0.0
220
0.0
230
0.9999999999999999
 40
0.2762378858
 41
3.0144068133051
 42
3.836855335768566
  0
SPLINE
  5
276
330
25A
100
AcDbEntity
  8
T14089600_49432_
  6
Continuous
 62
     7
100
AcDbSpline
210
0.0
220
0.0
230
1.0
 70
     8
 71
     3
 72
    13
 73
     9
 74
     0
 42
0.0000000577057089
 43
0.0000000001
 40
0.0
 40
0.0
 40
0.0
 40
0.0
 40
0.2222903129873769
 40
0.499653424797782
 40
0.6236238570431735
 40
0.7498266994194855
 40
0.8749246677842821
 40
1.0
 40
1.0
 40
1.0
 40
1.0
 10
125.5238597081368
 20
252.3204799216447
 30
0.0
 10
125.5432917754265
 20
252.3215460617488
 30
0.0
 10
125.5869702373522
 20
252.3239424799604
 30
0.0
 10
125.6246369772545
 20
252.3356923542124
 30
0.0
 10
125.6464406500228
 20
252.3494211681286
 30
0.0
 10
125.6568515717263
 20
252.3609116211947
 30
0.0
 10
125.6626300157919
 20
252.3739895770422
 30
0.0
 10
125.6622111599901
 20
252.384022358917
 30
0.0
 10
125.6620017510387
 20
252.3890382959621
 30
0.0
  0
SPLINE
  5
277
330
25A
100
AcDbEntity
  8
T14089600_49432_
  6
Continuous
 62
     7
100
AcDbSpline
210
0.0
220
0.0
230
1.0
 70
     8
 71
     3
 72
    14
 73
    10
 74
     0
 42
0.0000000578156163
 43
0.0000000001
 40
0.0
 40
0.0
 40
0.0
 40
0.0
 40
0.1250129122221765
 40
0.2500479730323422
 40
0.3878045580860656
 40
0.5000924166864613
 40
0.6912894685359762
 40
0.857928788544982
 40
1.0
 40
1.0
 40
1.0
 40
1.0
 10
125.6620017510387
 20
268.1931201132314
 30
0.0
 10
125.6622240062584
 20
268.1980919450817
 30
0.0
 10
125.6626685557514
 20
268.2080364895569
 30
0.0
 10
125.6566751728039
 20
268.2216709312994
 30
0.0
 10
125.6459935468432
 20
268.2331409655145
 30
0.0
 10
125.6276107249197
 20
268.2444678833543
 30
0.0
 10
125.6006517755927
 20
268.2537841912144
 30
0.0
 10
125.5640743339769
 20
268.2599859161184
 30
0.0
 10
125.5365340021204
 20
268.2611450481053
 30
0.0
 10
125.5238597072326
 20
268.2616784905014
 30
0.0
  0
SPLINE
  5
278
330
25A
100
AcDbEntity
  8
T14089600_49432_
  6
Continuous
 62
     7
100
AcDbSpline
210
0.0
220
0.0
230
1.0
 70
     8
 71
     3
 72
    14
 73
    10
 74
     0
 42
0.0000000578156163
 43
0.0000000001
 40
0.0
 40
0.0
 40
0.0
 40
0.0
 40
0.1250129122221886
 40
0.2500479730323686
 40
0.3878045582598125
 40
0.5000924166864205
 40
0.6912894685502289
 40
0.8579287885591621
 40
1.0
 40
1.0
 40
1.0
 40
1.0
 10
117.7599608424038
 20
281.8798564504744
 30
0.0
 10
117.7576674051454
 20
281.8842733107697
 30
0.0
 10
117.7530801240625
 20
281.8931078136604
 30
0.0
 10
117.7410724812979
 20
281.9019188951069
 30
0.0
 10
117.726086904752
 20
281.9065114231365
 30
0.0
 10
117.7045034550505
 20
281.9071294107668
 30
0.0
 10
117.6764981661516
 20
281.9017180953825
 30
0.0
 10
117.641720310055
 20
281.8888002258877
 30
0.0
 10
117.6172901170468
 20
281.8760338977065
 30
0.0
 10
117.6060471345021
 20
281.8701587249295
 30
0.0
  0
SPLINE
  5
279
330
25A
100
AcDbEntity
  8
T14089600_49432_
  6
Continuous
 62
     7
100
AcDbSpline
210
0.0
220
0.0
230
1.0
 70
     8
 71
     3
 72
    14
 73
    10
 74
     0
 42
0.0000000571451598
 43
0.0000000001
 40
0.0
 40
0.0
 40
0.0
 40
0.0
 40
0.0000735860315055
 40
0.0000735860315055
 40
0.0000735860315055
 40
0.2500686594342263
 40
0.5000637328369472
 40
0.7500588062396679
 40
1.0
 40
1.0
 40
1.0
 40
1.0
 10
104.1417828824202
 20
230.9384030934162
 30
0.0
 10
104.1417832950744
 20
230.9383964620552
 30
0.0
 10
104.1417831408352
 20
230.9383896571243
 30
0.0
 10
104.141782986596
 20
230.9383828521933
 30
0.0
 10
104.1412589871064
 20
230.9152643449196
 30
0.0
 10
104.1374250358271
 20
230.8738535659739
 30
0.0
 10
104.123558435079
 20
230.8288298069265
 30
0.0
 10
104.1021617397512
 20
230.8027978114148
 30
0.0
 10
104.0834788401931
 20
230.7988317408495
 30
0.0
 10
104.0732245051609
 20
230.8002610500844
 30
0.0
  0
ELLIPSE
  5
27A
330
25A
100
AcDbEntity
  8
T14089600_49432_
  6
Continuous
 62
     7
100
AcDbEllipse
 10
103.9447801899
 20
231.2796217582
 30
0.0
 11
-0.1122792042769216
 21
0.4872303154432705
 31
0.0
210
0.0
220
0.0
230
1.0
 40
0.276237877
 41
2.446329969306812
 42
3.268778493175879
  0
ELLIPSE
  5
27B
330
25A
100
AcDbEntity
  8
T14089600_49432_
  6
Continuous
 62
     7
100
AcDbEllipse
 10
88.3975870026
 20
231.2796217583
 30
0.0
 11
0.1122792030451847
 21
0.4872303157271337
 31
0.0
210
0.0
220
0.0
230
1.0
 40
0.2762378858
 41
3.014406813305211
 42
3.836855335768691
  0
SPLINE
  5
27C
330
25A
100
AcDbEntity
  8
T14089600_49432_
  6
Continuous
 62
     7
100
AcDbSpline
210
0.0
220
0.0
230
1.0
 70
     8
 71
     3
 72
     8
 73
     4
 74
     0
 42
0.0000000523074344
 43
0.0000000001
 40
0.0
 40
0.0
 40
0.0
 40
0.0
 40
1.0
 40
1.0
 40
1.0
 40
1.0
 10
66.68036544201448
 20
268.1931201132311
 30
0.0
 10
66.67471688274892
 20
268.2341303408502
 30
0.0
 10
66.72603150978398
 20
268.259583073288
 30
0.0
 10
66.81850748483866
 20
268.2616784875466
 30
0.0
  0
ARC
  5
27D
330
25A
100
AcDbEntity
  8
T14089600_49432_
  6
Continuous
 62
     7
100
AcDbCircle
 10
104.2648187741
 20
260.2910792046
 30
0.0
 40
38.40616334379613
100
AcDbArc
 50
168.1266346126
 51
191.8733653874
  0
ARC
  5
27E
330
25A
100
AcDbEntity
  8
T14089600_49432_
  6
Continuous
 62
     7
100
AcDbCircle
 10
103.1502973931
 20
256.2616859755
 30
0.0
 40
38.37206089198153
100
AcDbArc
 50
138.1159284785
 51
161.8840715215
  0
ARC
  5
27F
330
25A
100
AcDbEntity
  8
T14089600_49432_
  6
Continuous
 62
     7
100
AcDbCircle
 10
103.1504319005
 20
264.3205500916
 30
0.0
 40
38.37221287881076
100
AcDbArc
 50
198.1159762364
 51
221.8840237636
  0
ARC
  5
280
330
25A
100
AcDbEntity
  8
T14089600_49432_
  6
Continuous
 62
     7
100
AcDbCircle
 10
100.2006926519
 20
253.3117647912
 30
0.0
 40
38.37228757927779
100
AcDbArc
 50
108.115999709
 51
131.884000291
  0
ARC
  5
281
330
25A
100
AcDbEntity
  8
T14089600_49432_
  6
Continuous
 62
     7
100
AcDbCircle
 10
100.2008432737
 20
267.2706545026
 30
0.0
 40
38.37258236617949
100
AcDbArc
 50
228.1160923367
 51
251.8839076633
  0
ARC
  5
282
330
25A
100
AcDbEntity
  8
T14089600_49432_
  6
Continuous
 62
     7
100
AcDbCircle
 10
96.1711835965
 20
252.3015114929
 30
0.0
 40
38.30432841336468
100
AcDbArc
 50
78.0946067372
 51
101.9053932628
  0
ARC
  5
283
330
25A
100
AcDbEntity
  8
T14089600_49432_
  6
Continuous
 62
     7
100
AcDbCircle
 10
96.1711835965
 20
268.2806469162
 30
0.0
 40
38.3043284133396
100
AcDbArc
 50
258.0946067372
 51
281.9053932628
  0
ARC
  5
284
330
25A
100
AcDbEntity
  8
T14089600_49432_
  6
Continuous
 62
     7
100
AcDbCircle
 10
92.1489598204
 20
253.3243832649
 30
0.0
 40
38.35802943580816
100
AcDbArc
 50
48.1115177887
 51
71.8884822113
  0
ARC
  5
285
330
25A
100
AcDbEntity
  8
T14089600_49432_
  6
Continuous
 62
     7
100
AcDbCircle
 10
92.1415304678
 20
267.2706431604
 30
0.0
 40
38.37256955005872
100
AcDbArc
 50
288.1160883096
 51
311.8839116904
  0
ARC
  5
286
330
25A
100
AcDbEntity
  8
T14089600_49432_
  6
Continuous
 62
     7
100
AcDbCircle
 10
89.2041626602
 20
256.2686677916
 30
0.0
 40
38.35839666023745
100
AcDbArc
 50
18.1116332652
 51
41.8883667348
  0
ARC
  5
287
330
25A
100
AcDbEntity
  8
T14089600_49432_
  6
Continuous
 62
     7
100
AcDbCircle
 10
89.2044782568
 20
264.3133084079
 30
0.0
 40
38.35804005728306
100
AcDbArc
 50
318.1115211287
 51
341.8884788713
  0
ARC
  5
288
330
25A
100
AcDbEntity
  8
T14089600_49432_
  6
Continuous
 62
     7
100
AcDbCircle
 10
88.1816158849
 20
260.2910792046
 30
0.0
 40
38.30432841329318
100
AcDbArc
 50
348.0946067371
 51
11.9053932629
  0
ARC
  5
289
330
25A
100
AcDbEntity
  8
T14089600_49432_
  6
Continuous
 62
     7
100
AcDbCircle
 10
117.4090444489
 20
239.0532183522
 30
0.0
 40
0.4999999999262422
100
AcDbArc
 50
312.976912295
 51
317.0230877749
  0
ARC
  5
28A
330
25A
100
AcDbEntity
  8
T14089600_49432_
  6
Continuous
 62
     7
100
AcDbCircle
 10
88.3975870025
 20
289.302536651
 30
0.0
 40
0.4999999999262612
100
AcDbArc
 50
102.9769122914
 51
107.0230877749
  0
ARC
  5
28B
330
25A
100
AcDbEntity
  8
T14089600_49432_
  6
Continuous
 62
     7
100
AcDbCircle
 10
74.9333227443
 20
239.0532183523
 30
0.0
 40
0.4999999999999996
100
AcDbArc
 50
222.9769122896
 51
227.0230877803
  0
ARC
  5
28C
330
25A
100
AcDbEntity
  8
T14089600_49432_
  6
Continuous
 62
     7
100
AcDbCircle
 10
74.9333227441
 20
281.528940057
 30
0.0
 40
0.4999999999262784
100
AcDbArc
 50
132.9769122914
 51
137.0230877749
  0
ARC
  5
28D
330
25A
100
AcDbEntity
  8
T14089600_49432_
  6
Continuous
 62
     7
100
AcDbCircle
 10
67.1597261501
 20
252.5174826106
 30
0.0
 40
0.4999999999262223
100
AcDbArc
 50
192.976912295
 51
197.0230877749
  0
ARC
  5
28E
330
25A
100
AcDbEntity
  8
14087000_ESC_-_R
  6
Continuous
 62
     7
100
AcDbCircle
 10
252.0762559669
 20
263.6824189195
 30
0.0
 40
45.56944380305183
100
AcDbArc
 50
197.1370381607
 51
222.6012909725
  0
ARC
  5
28F
330
25A
100
AcDbEntity
  8
14087000_ESC_-_R
  6
Continuous
 62
     7
100
AcDbCircle
 10
249.6013851094
 20
266.2011542988
 30
0.0
 40
45.59262323419087
100
AcDbArc
 50
227.1436198231
 51
244.2703882652
  0
ARC
  5
290
330
25A
100
AcDbEntity
  8
14087000_ESC_-_R
  6
Continuous
 62
     7
100
AcDbCircle
 10
242.7798438816
 20
266.1961515749
 30
0.0
 40
45.56944380301441
100
AcDbArc
 50
295.7085150764
 51
312.6012909725
  0
ARC
  5
291
330
25A
100
AcDbEntity
  8
14087000_ESC_-_R
  6
Continuous
 62
     7
100
AcDbCircle
 10
240.2744228039
 20
263.7135531105
 30
0.0
 40
45.57760713388188
100
AcDbArc
 50
317.1393568734
 51
342.5989722598
  0
ARC
  5
292
330
25A
100
AcDbEntity
  8
14087000_ESC_-_R
  6
Continuous
 62
     7
100
AcDbCircle
 10
239.4655945248
 20
260.3063915048
 30
0.0
 40
45.46798366938719
100
AcDbArc
 50
347.1081481607
 51
12.6301809724
  0
ARC
  5
293
330
25A
100
AcDbEntity
  8
14087000_ESC_-_R
  6
Continuous
 62
     7
100
AcDbCircle
 10
253.6285430796
 20
260.2740502268
 30
0.0
 40
46.24733862837291
100
AcDbArc
 50
167.261072629
 51
192.4772565041
  0
ARC
  5
294
330
25A
100
AcDbEntity
  8
14087000_ESC_-_R
  6
Continuous
 62
     7
100
AcDbCircle
 10
252.7705518437
 20
260.276009461
 30
0.0
 40
45.36439231062388
100
AcDbArc
 50
167.0785145545
 51
192.6598145786
  0
ARC
  5
295
330
25A
100
AcDbEntity
  8
14087000_ESC_-_R
  6
Continuous
 62
     7
100
AcDbCircle
 10
252.6207680836
 20
256.5477469943
 30
0.0
 40
46.24715382613889
100
AcDbArc
 50
137.2610214182
 51
162.477307715
  0
ARC
  5
296
330
25A
100
AcDbEntity
  8
14087000_ESC_-_R
  6
Continuous
 62
     7
100
AcDbCircle
 10
252.0812586907
 20
256.8608776917
 30
0.0
 40
45.59262323419146
100
AcDbArc
 50
137.1436198231
 51
162.59470931
  0
ARC
  5
297
330
25A
100
AcDbEntity
  8
14087000_ESC_-_R
  6
Continuous
 62
     7
100
AcDbCircle
 10
252.6379105672
 20
264.0049825449
 30
0.0
 40
46.24728204934394
100
AcDbArc
 50
197.2610569504
 51
222.4772721828
  0
ARC
  5
298
330
25A
100
AcDbEntity
  8
14087000_ESC_-_R
  6
Continuous
 62
     7
100
AcDbCircle
 10
249.8852297295
 20
253.8241036005
 30
0.0
 40
46.2475618553555
100
AcDbArc
 50
107.2611344873
 51
132.4771946459
  0
ARC
  5
299
330
25A
100
AcDbEntity
  8
14087000_ESC_-_R
  6
Continuous
 62
     7
100
AcDbCircle
 10
249.5533839765
 20
254.4019204374
 30
0.0
 40
45.55154392057639
100
AcDbArc
 50
107.1319508942
 51
132.6063782389
  0
ARC
  5
29A
330
25A
100
AcDbEntity
  8
14087000_ESC_-_R
  6
Continuous
 62
     7
100
AcDbCircle
 10
249.9145158067
 20
266.7406636916
 30
0.0
 40
46.24715382599012
100
AcDbArc
 50
227.2610214181
 51
244.2449753923
  0
ARC
  5
29B
330
25A
100
AcDbEntity
  8
14087000_ESC_-_R
  6
Continuous
 62
     7
100
AcDbCircle
 10
246.1541087691
 20
252.813641149
 30
0.0
 40
46.26693328377697
100
AcDbArc
 50
77.2665001556
 51
102.4718289776
  0
ARC
  5
29C
330
25A
100
AcDbEntity
  8
14087000_ESC_-_R
  6
Continuous
 62
     7
100
AcDbCircle
 10
246.1558712961
 20
253.5854900562
 30
0.0
 40
45.46798374416862
100
AcDbArc
 50
77.108148182
 51
102.6301809511
  0
ARC
  5
29D
330
25A
100
AcDbEntity
  8
14087000_ESC_-_R
  6
Continuous
 62
     7
100
AcDbCircle
 10
242.4279083043
 20
253.8415927846
 30
0.0
 40
46.24704317243175
100
AcDbArc
 50
47.2609907546
 51
72.4773383786
  0
ARC
  5
29E
330
25A
100
AcDbEntity
  8
14087000_ESC_-_R
  6
Continuous
 62
     7
100
AcDbCircle
 10
242.7487096906
 20
254.394318412
 30
0.0
 40
45.5776071339202
100
AcDbArc
 50
47.1393568734
 51
72.5989722597
  0
ARC
  5
29F
330
25A
100
AcDbEntity
  8
14087000_ESC_-_R
  6
Continuous
 62
     7
100
AcDbCircle
 10
242.4572802562
 20
266.7578061753
 30
0.0
 40
46.24728204936734
100
AcDbArc
 50
295.729693267
 51
312.4772721828
  0
ARC
  5
2A0
330
25A
100
AcDbEntity
  8
14087000_ESC_-_R
  6
Continuous
 62
     7
100
AcDbCircle
 10
239.7042079926
 20
256.5770330718
 30
0.0
 40
46.24756185515816
100
AcDbArc
 50
17.2611344872
 51
42.4771946459
  0
ARC
  5
2A1
330
25A
100
AcDbEntity
  8
14087000_ESC_-_R
  6
Continuous
 62
     7
100
AcDbCircle
 10
240.2820248293
 20
256.9088788246
 30
0.0
 40
45.55154392057182
100
AcDbArc
 50
17.1319508942
 51
42.6063782389
  0
ARC
  5
2A2
330
25A
100
AcDbEntity
  8
14087000_ESC_-_R
  6
Continuous
 62
     7
100
AcDbCircle
 10
239.7216971766
 20
264.0343544968
 30
0.0
 40
46.24704317235091
100
AcDbArc
 50
317.2609907545
 51
342.4773383786
  0
ARC
  5
2A3
330
25A
100
AcDbEntity
  8
14087000_ESC_-_R
  6
Continuous
 62
     7
100
AcDbCircle
 10
238.8658342524
 20
260.3077610652
 30
0.0
 40
46.09900562527047
100
AcDbArc
 50
347.2198324186
 51
12.5184967145
  0
ARC
  5
2A4
330
25A
100
AcDbEntity
  8
14087000_ESC_-_R
  6
Continuous
 62
     7
100
AcDbCircle
 10
246.1711835965
 20
260.2910792046
 30
0.0
 40
32.31219144868906
100
AcDbArc
 50
178.9986200324
 51
188.7571182854
  0
ARC
  5
2A5
330
25A
100
AcDbEntity
  8
14087000_ESC_-_R
  6
Continuous
 62
     7
100
AcDbCircle
 10
283.6757293633
 20
270.248657137
 30
0.0
 40
0.1999999999999909
100
AcDbArc
 50
14.164323514
 51
15.5740056171
  0
ARC
  5
2A6
330
25A
100
AcDbEntity
  8
14087000_ESC_-_R
  6
Continuous
 62
     7
100
AcDbCircle
 10
273.5469719293
 20
232.789978779
 30
0.0
 40
0.1999999999948894
100
AcDbArc
 50
314.1643236235
 51
315.5740057504
  0
ARC
  5
2A7
330
25A
100
AcDbEntity
  8
14087000_ESC_-_R
  6
Continuous
 62
     7
100
AcDbCircle
 10
273.6722840218
 20
287.6668675376
 30
0.0
 40
0.2000000000000028
100
AcDbArc
 50
44.164323514
 51
45.5740056171
  0
ARC
  5
2A8
330
25A
100
AcDbEntity
  8
14087000_ESC_-_R
  6
Continuous
 62
     7
100
AcDbCircle
 10
236.2136056641
 20
297.7956249714
 30
0.0
 40
0.1999999999999808
100
AcDbArc
 50
104.164323514
 51
105.5740056171
  0
ARC
  5
2A9
330
25A
100
AcDbEntity
  8
14087000_ESC_-_R
  6
Continuous
 62
     7
100
AcDbCircle
 10
218.670083171
 20
232.9152908718
 30
0.0
 40
0.1999999999948869
100
AcDbArc
 50
224.1643236235
 51
225.5740057504
  0
ARC
  5
2AA
330
25A
100
AcDbEntity
  8
14087000_ESC_-_R
  6
Continuous
 62
     7
100
AcDbCircle
 10
218.7953952635
 20
287.7921796298
 30
0.0
 40
0.2000000000000099
100
AcDbArc
 50
134.164323514
 51
135.574005617
  0
ARC
  5
2AB
330
25A
100
AcDbEntity
  8
14087000_ESC_-_R
  6
Continuous
 62
     7
100
AcDbCircle
 10
208.6666378296
 20
250.3335012726
 30
0.0
 40
0.199999999994882
100
AcDbArc
 50
194.1643236235
 51
195.5740057504
  0
ARC
  5
2AC
330
25A
100
AcDbEntity
  8
14087000_ESC_-_R
  6
Continuous
 62
     7
100
AcDbCircle
 10
208.7125052389
 20
270.4198366384
 30
0.0
 40
0.2000000000000175
100
AcDbArc
 50
164.164323514
 51
165.5740056171
  0
SPLINE
  5
2AD
330
25A
100
AcDbEntity
  8
14088600_ROUND_H
  6
Continuous
 62
     7
100
AcDbSpline
210
0.0
220
0.0
230
1.0
 70
     8
 71
     3
 72
     8
 73
     4
 74
     0
 42
0.0000000694817067
 43
0.0000000001
 40
0.667710216245917
 40
0.667710216245917
 40
0.667710216245917
 40
0.667710216245917
 40
1.0
 40
1.0
 40
1.0
 40
1.0
 10
423.6997899907079
 20
250.40907215989
 30
0.0
 10
423.7022340804746
 20
250.4220366579015
 30
0.0
 10
423.6973223135129
 20
250.4362428548207
 30
0.0
 10
423.6846209321763
 20
250.4511703122805
 30
0.0
  0
ELLIPSE
  5
2AE
330
25A
100
AcDbEntity
  8
14088600_ROUND_H
  6
Continuous
 62
     7
100
AcDbEllipse
 10
423.2074488919
 20
250.4922642043
 30
0.0
 11
-0.4318783883916419
 21
0.2519544753328447
 31
0.0
210
0.0
220
0.0
230
1.0
 40
0.2617152309
 41
2.839465679814708
 42
3.141592653589989
  0
SPLINE
  5
2AF
330
25A
100
AcDbEntity
  8
14088600_ROUND_H
  6
Continuous
 62
     7
100
AcDbSpline
210
0.0
220
0.0
230
1.0
 70
     8
 71
     3
 72
     8
 73
     4
 74
     0
 42
0.000000069476998
 43
0.0000000001
 40
0.6680750017536858
 40
0.6680750017536858
 40
0.6680750017536858
 40
0.6680750017536858
 40
1.0
 40
1.0
 40
1.0
 40
1.0
 10
424.9526451841502
 20
265.4973542525458
 30
0.0
 10
424.9482690384121
 20
265.5097845062014
 30
0.0
 10
424.9369168993691
 20
265.519617154087
 30
0.0
 10
424.9184737207883
 20
265.5261868007523
 30
0.0
  0
ELLIPSE
  5
2B0
330
25A
100
AcDbEntity
  8
14088600_ROUND_H
  6
Continuous
 62
     7
100
AcDbEllipse
 10
424.4846836661
 20
265.3231891567
 30
0.0
 11
-0.4999948932433406
 21
0.002259807629637761
 31
0.0
210
0.0
220
0.0
230
0.9999999999999999
 40
0.2617152235
 41
2.8394657015943
 42
3.141592653589793
  0
SPLINE
  5
2B1
330
25A
100
AcDbEntity
  8
14088600_ROUND_H
  6
Continuous
 62
     7
100
AcDbSpline
210
0.0
220
0.0
230
1.0
 70
     8
 71
     3
 72
    10
 73
     6
 74
     0
 42
0.0000000705631996
 43
0.0000000001
 40
0.0
 40
0.0
 40
0.0
 40
0.0
 40
0.111539841484877
 40
0.2502367279587706
 40
0.3327421514764864
 40
0.3327421514764864
 40
0.3327421514764864
 40
0.3327421514764864
 10
415.0785648284722
 20
238.0127494651004
 30
0.0
 10
415.0793579864495
 20
238.0065665224035
 30
0.0
 10
415.0811374157042
 20
237.992695251573
 30
0.0
 10
415.0778865252477
 20
237.9783554435102
 30
0.0
 10
415.0731898514992
 20
237.9707508458436
 30
0.0
 10
415.0710878140721
 20
237.9682135409754
 30
0.0
  0
ELLIPSE
  5
2B2
330
25A
100
AcDbEntity
  8
14088600_ROUND_H
  6
Continuous
 62
     7
100
AcDbEllipse
 10
414.6858686656
 20
238.2869238396
 30
0.0
 11
-0.2480404180261742
 21
0.43413817043126
 31
0.0
210
0.0
220
0.0
230
1.0
 40
0.2617152309
 41
2.839465679814811
 42
3.141592653589793
  0
SPLINE
  5
2B3
330
25A
100
AcDbEntity
  8
14088600_ROUND_H
  6
Continuous
 62
     7
100
AcDbSpline
210
0.0
220
0.0
230
1.0
 70
     8
 71
     3
 72
     8
 73
     4
 74
     0
 42
0.0000000694861125
 43
0.0000000001
 40
0.667366580577472
 40
0.667366580577472
 40
0.667366580577472
 40
0.667366580577472
 40
1.0
 40
1.0
 40
1.0
 40
1.0
 10
418.4935869609816
 20
279.1905214544485
 30
0.0
 10
418.4835809156213
 20
279.1991411430439
 30
0.0
 10
418.468811520558
 20
279.2020000834399
 30
0.0
 10
418.4495133360205
 20
279.1984604365442
 30
0.0
  0
ELLIPSE
  5
2B4
330
25A
100
AcDbEntity
  8
14088600_ROUND_H
  6
Continuous
 62
     7
100
AcDbEllipse
 10
418.1753389507
 20
278.8057642925
 30
0.0
 11
-0.4341381831261121
 21
-0.2480403958067326
 31
0.0
210
0.0
220
0.0
230
0.9999999999999998
 40
0.2617152235
 41
2.839465701594186
 42
3.141592653620929
  0
SPLINE
  5
2B5
330
25A
100
AcDbEntity
  8
14088600_ROUND_H
  6
Continuous
 62
     7
100
AcDbSpline
210
0.0
220
0.0
230
1.0
 70
     8
 71
     3
 72
    10
 73
     6
 74
     0
 42
0.0000000705294956
 43
0.0000000001
 40
0.0
 40
0.0
 40
0.0
 40
0.0
 40
0.1115398415042085
 40
0.2502367279589324
 40
0.3315457602417798
 40
0.3315457602417798
 40
0.3315457602417798
 40
0.3315457602417798
 10
401.4062911926802
 20
231.5437890803327
 30
0.0
 10
401.403886616289
 20
231.5380379158974
 30
0.0
 10
401.3984920118127
 20
231.5251353283483
 30
0.0
 10
401.3885426565599
 20
231.5143809429798
 30
0.0
 10
401.3807221086894
 20
231.5101506206315
 30
0.0
 10
401.3776822307372
 20
231.5090084885639
 30
0.0
  0
ELLIPSE
  5
2B6
330
25A
100
AcDbEntity
  8
14088600_ROUND_H
  6
Continuous
 62
     7
100
AcDbEllipse
 10
401.2032935269
 20
231.9775791352
 30
0.0
 11
0.0
 21
0.4789382581401956
 31
0.0
210
0.0
220
0.0
230
1.0
 40
1.0
 41
3.055684919222744
 42
3.137073074123943
  0
ELLIPSE
  5
2B7
330
25A
100
AcDbEntity
  8
14088600_ROUND_H
  6
Continuous
 62
     7
100
AcDbEllipse
 10
405.9699985782
 20
287.3273445109
 30
0.0
 11
-0.2519544974366149
 21
-0.4318783754963841
 31
0.0
210
0.0
220
0.0
230
1.0
 40
0.2617152235
 41
2.839465701594106
 42
3.141592653620385
  0
ELLIPSE
  5
2B8
330
25A
100
AcDbEntity
  8
14088600_ROUND_H
  6
Continuous
 62
     7
100
AcDbEllipse
 10
386.3723685962
 20
233.2548139092
 30
0.0
 11
0.2519544753328795
 21
0.4318783883916523
 31
0.0
210
0.0
220
0.0
230
1.0
 40
0.2617152309
 41
2.839465679814578
 42
3.141592653589793
  0
SPLINE
  5
2B9
330
25A
100
AcDbEntity
  8
14088600_ROUND_H
  6
Continuous
 62
     7
100
AcDbSpline
210
0.0
220
0.0
230
1.0
 70
     8
 71
     3
 72
     8
 73
     4
 74
     0
 42
0.000000069476882
 43
0.0000000001
 40
0.6680839582355275
 40
0.6680839582355275
 40
0.6680839582355275
 40
0.6680839582355275
 40
1.0
 40
1.0
 40
1.0
 40
1.0
 10
390.9649075423477
 20
289.0725404379565
 30
0.0
 10
390.9524777642847
 20
289.0681640338393
 30
0.0
 10
390.9426454697626
 20
289.0568120097806
 30
0.0
 10
390.9360760003689
 20
289.0383693288604
 30
0.0
  0
ELLIPSE
  5
2BA
330
25A
100
AcDbEntity
  8
14088600_ROUND_H
  6
Continuous
 62
     7
100
AcDbEllipse
 10
391.1390736444
 20
288.6045792741
 30
0.0
 11
-0.002259807629629955
 21
-0.4999948932433891
 31
0.0
210
0.0
220
0.0
230
1.0
 40
0.2617152235
 41
2.839465701594367
 42
3.141592653589811
  0
SPLINE
  5
2BB
330
25A
100
AcDbEntity
  8
14088600_ROUND_H
  6
Continuous
 62
     7
100
AcDbSpline
210
0.0
220
0.0
230
1.0
 70
     8
 71
     3
 72
    10
 73
     6
 74
     0
 42
0.0000000705625821
 43
0.0000000001
 40
0.0
 40
0.0
 40
0.0
 40
0.0
 40
0.1115398415808095
 40
0.2502367279584429
 40
0.3327201405509813
 40
0.3327201405509813
 40
0.3327201405509813
 40
0.3327201405509813
 10
373.8928538570283
 20
241.3836979726491
 30
0.0
 10
373.8866709143261
 20
241.3829048146714
 30
0.0
 10
373.8727996434959
 20
241.3811253854174
 30
0.0
 10
373.8584607840142
 20
241.3843760608291
 30
0.0
 10
373.8508567511949
 20
241.3890720149535
 30
0.0
 10
373.848319963686
 20
241.3911733047687
 30
0.0
  0
ELLIPSE
  5
2BC
330
25A
100
AcDbEntity
  8
14088600_ROUND_H
  6
Continuous
 62
     7
100
AcDbEllipse
 10
374.1670282316
 20
241.7763941355
 30
0.0
 11
0.434138170431253
 21
0.2480404180262193
 31
0.0
210
0.0
220
0.0
230
1.0
 40
0.2617152309
 41
2.839465679814495
 42
3.141592653589803
  0
SPLINE
  5
2BD
330
25A
100
AcDbEntity
  8
14088600_ROUND_H
  6
Continuous
 62
     7
100
AcDbSpline
210
0.0
220
0.0
230
1.0
 70
     8
 71
     3
 72
     8
 73
     4
 74
     0
 42
0.0000000694832034
 43
0.0000000001
 40
0.6675937343386978
 40
0.6675937343386978
 40
0.6675937343386978
 40
0.6675937343386978
 40
1.0
 40
1.0
 40
1.0
 40
1.0
 10
377.2717236957008
 20
282.6134620631491
 30
0.0
 10
377.263117756348
 20
282.603456349684
 30
0.0
 10
377.2602651348892
 20
282.5886939499929
 30
0.0
 10
377.2638023645771
 20
282.5694089440927
 30
0.0
  0
ELLIPSE
  5
2BE
330
25A
100
AcDbEntity
  8
14088600_ROUND_H
  6
Continuous
 62
     7
100
AcDbEllipse
 10
377.6564985086
 20
282.2952345588
 30
0.0
 11
0.2480403958067222
 21
-0.4341381831261191
 31
0.0
210
0.0
220
0.0
230
1.0
 40
0.2617152235
 41
2.83946570159452
 42
3.141592653589793
  0
SPLINE
  5
2BF
330
25A
100
AcDbEntity
  8
14088600_ROUND_H
  6
Continuous
 62
     7
100
AcDbSpline
210
0.0
220
0.0
230
1.0
 70
     8
 71
     3
 72
    10
 73
     6
 74
     0
 42
0.0000000705451815
 43
0.0000000001
 40
0.0
 40
0.0
 40
0.0
 40
0.0
 40
0.1115398415859262
 40
0.2502367279583461
 40
0.3321012956960927
 40
0.3321012956960927
 40
0.3321012956960927
 40
0.3321012956960927
 10
367.4238934722605
 20
255.0559716084411
 30
0.0
 10
367.4181423078213
 20
255.0583761848345
 30
0.0
 10
367.4052397202726
 20
255.0637707893117
 30
0.0
 10
367.3944673149431
 20
255.0737368156259
 30
0.0
 10
367.3902336671721
 20
255.0815801954244
 30
0.0
 10
367.3890895290066
 20
255.0846429002702
 30
0.0
  0
ELLIPSE
  5
2C0
330
25A
100
AcDbEntity
  8
14088600_ROUND_H
  6
Continuous
 62
     7
100
AcDbEllipse
 10
367.8576835271
 20
255.2589692742
 30
0.0
 11
0.4999948933590778
 21
-0.002259782039692668
 31
0.0
210
0.0
220
0.0
230
1.0
 40
0.2617152309
 41
2.839465679814746
 42
3.141592653589793
  0
ELLIPSE
  5
2C1
330
25A
100
AcDbEntity
  8
14088600_ROUND_H
  6
Continuous
 62
     7
100
AcDbEllipse
 10
369.1349182902
 20
270.0898941862
 30
0.0
 11
0.4318783754963841
 21
-0.2519544974366427
 31
0.0
210
0.0
220
0.0
230
1.0
 40
0.2617152235
 41
2.839465709978602
 42
3.141592652548695
  0
ARC
  5
2C2
330
25A
100
AcDbEntity
  8
14088600_ROUND_H
  6
Continuous
 62
     7
100
AcDbCircle
 10
487.112972714
 20
252.4591998672
 30
0.0
 40
119.7661587148013
100
AcDbArc
 50
171.5148869392
 51
178.6408118338
  0
ARC
  5
2C3
330
25A
100
AcDbEntity
  8
14088600_ROUND_H
  6
Continuous
 62
     7
100
AcDbCircle
 10
471.3497660124
 20
207.8025535669
 30
0.0
 40
120.1759177977421
100
AcDbArc
 50
141.5270510271
 51
148.6286477405
  0
ARC
  5
2C4
330
25A
100
AcDbEntity
  8
14088600_ROUND_H
  6
Continuous
 62
     7
100
AcDbCircle
 10
478.8450229066
 20
298.9793672978
 30
0.0
 40
119.7661587148198
100
AcDbArc
 50
201.5148869392
 51
208.6408118338
  0
ARC
  5
2C5
330
25A
100
AcDbEntity
  8
14088600_ROUND_H
  6
Continuous
 62
     7
100
AcDbCircle
 10
435.0334830744
 20
177.2453911809
 30
0.0
 40
120.1759180278841
100
AcDbArc
 50
111.5270510371
 51
118.6286477269
  0
ARC
  5
2C6
330
25A
100
AcDbEntity
  8
14088600_ROUND_H
  6
Continuous
 62
     7
100
AcDbCircle
 10
448.4246846209
 20
335.1330391773
 30
0.0
 40
119.7661587149061
100
AcDbArc
 50
231.5148869392
 51
238.6408118338
  0
ARC
  5
2C7
330
25A
100
AcDbEntity
  8
14088600_ROUND_H
  6
Continuous
 62
     7
100
AcDbCircle
 10
388.304078182
 20
168.9402539624
 30
0.0
 40
120.1759180278737
100
AcDbArc
 50
81.5270510371
 51
88.6286477269
  0
ARC
  5
2C8
330
25A
100
AcDbEntity
  8
14088600_ROUND_H
  6
Continuous
 62
     7
100
AcDbCircle
 10
404.0030629339
 20
351.2328683222
 30
0.0
 40
119.7661587149027
100
AcDbArc
 50
261.5148869392
 51
268.6408118338
  0
ARC
  5
2C9
330
25A
100
AcDbEntity
  8
14088600_ROUND_H
  6
Continuous
 62
     7
100
AcDbCircle
 10
343.6826578322
 20
185.1124965955
 30
0.0
 40
120.1759180278751
100
AcDbArc
 50
51.5270510371
 51
58.6286477269
  0
ARC
  5
2CA
330
25A
100
AcDbEntity
  8
14088600_ROUND_H
  6
Continuous
 62
     7
100
AcDbCircle
 10
357.4828955035
 20
342.9649185144
 30
0.0
 40
119.7661587145663
100
AcDbArc
 50
291.5148869392
 51
298.6408118338
  0
ARC
  5
2CB
330
25A
100
AcDbEntity
  8
14088600_ROUND_H
  6
Continuous
 62
     7
100
AcDbCircle
 10
313.1254955728
 20
221.4287797268
 30
0.0
 40
120.1759180278702
100
AcDbArc
 50
21.5270510371
 51
28.6286477269
  0
ARC
  5
2CC
330
25A
100
AcDbEntity
  8
14088600_ROUND_H
  6
Continuous
 62
     7
100
AcDbCircle
 10
321.3292236241
 20
312.5445802288
 30
0.0
 40
119.7661587145721
100
AcDbArc
 50
321.5148869392
 51
328.6408118338
  0
ARC
  5
2CD
330
25A
100
AcDbEntity
  8
14088600_ROUND_H
  6
Continuous
 62
     7
100
AcDbCircle
 10
304.8203583543
 20
268.1581846192
 30
0.0
 40
120.1759180278617
100
AcDbArc
 50
351.5270510371
 51
358.6286477269
  0
CIRCLE
  5
2CE
330
25A
100
AcDbEntity
  8
14088600_ROUND_H
  6
Continuous
 62
     7
100
AcDbCircle
 10
396.1711835965
 20
260.2910792046
 30
0.0
 40
22.125
  0
ARC
  5
2CF
330
25A
100
AcDbEntity
  8
14088600_ROUND_H
  6
Continuous
 62
     7
100
AcDbCircle
 10
423.2074489028
 20
250.4922642229
 30
0.0
 40
0.4999999999999918
100
AcDbArc
 50
329.7410445135
 51
350.4109480724
  0
ARC
  5
2D0
330
25A
100
AcDbEntity
  8
14088600_ROUND_H
  6
Continuous
 62
     7
100
AcDbCircle
 10
424.4846836661
 20
265.3231891566
 30
0.0
 40
0.5000000000000157
100
AcDbArc
 50
359.7410442459
 51
20.3705606013
  0
ARC
  5
2D1
330
25A
100
AcDbEntity
  8
14088600_ROUND_H
  6
Continuous
 62
     7
100
AcDbCircle
 10
414.6858686832
 20
238.2869238489
 30
0.0
 40
0.4999999996631252
100
AcDbArc
 50
299.741044702
 51
320.4028807928
  0
ARC
  5
2D2
330
25A
100
AcDbEntity
  8
14088600_ROUND_H
  6
Continuous
 62
     7
100
AcDbCircle
 10
418.1753389508
 20
278.8057642924
 30
0.0
 40
0.4999999999999939
100
AcDbArc
 50
29.7410442459
 51
50.4088344725
  0
ARC
  5
2D3
330
25A
100
AcDbEntity
  8
14088600_ROUND_H
  6
Continuous
 62
     7
100
AcDbCircle
 10
401.2032935468
 20
231.9775791344
 30
0.0
 40
0.4999999996631241
100
AcDbArc
 50
269.741044702
 51
290.475119325
  0
ARC
  5
2D4
330
25A
100
AcDbEntity
  8
14088600_ROUND_H
  6
Continuous
 62
     7
100
AcDbCircle
 10
405.9699985782
 20
287.3273445109
 30
0.0
 40
0.5000000000000158
100
AcDbArc
 50
59.7410442459
 51
80.4082482061
  0
ARC
  5
2D5
330
25A
100
AcDbEntity
  8
14088600_ROUND_H
  6
Continuous
 62
     7
100
AcDbCircle
 10
386.372368613
 20
233.2548138986
 30
0.0
 40
0.4999999996631013
100
AcDbArc
 50
239.741044702
 51
260.410392435
  0
ARC
  5
2D6
330
25A
100
AcDbEntity
  8
14088600_ROUND_H
  6
Continuous
 62
     7
100
AcDbCircle
 10
391.1390736445
 20
288.6045792741
 30
0.0
 40
0.500000000000019
100
AcDbArc
 50
89.7410442459
 51
110.3929607193
  0
ARC
  5
2D7
330
25A
100
AcDbEntity
  8
14088600_ROUND_H
  6
Continuous
 62
     7
100
AcDbCircle
 10
374.1670282408
 20
241.776394118
 30
0.0
 40
0.4999999996631058
100
AcDbArc
 50
209.741044702
 51
230.4023695706
  0
ARC
  5
2D8
330
25A
100
AcDbEntity
  8
14088600_ROUND_H
  6
Continuous
 62
     7
100
AcDbCircle
 10
377.6564985087
 20
282.2952345588
 30
0.0
 40
0.5000000000000073
100
AcDbArc
 50
119.7410442459
 51
140.4224195148
  0
ARC
  5
2D9
330
25A
100
AcDbEntity
  8
14088600_ROUND_H
  6
Continuous
 62
     7
100
AcDbCircle
 10
367.8576835263
 20
255.2589692544
 30
0.0
 40
0.4999999996631204
100
AcDbArc
 50
179.741044702
 51
200.4417261141
  0
ARC
  5
2DA
330
25A
100
AcDbEntity
  8
14088600_ROUND_H
  6
Continuous
 62
     7
100
AcDbCircle
 10
369.1349182906
 20
270.0898941882
 30
0.0
 40
0.4999999996631299
100
AcDbArc
 50
149.7410444344
 51
175.0778493932
  0
CIRCLE
  5
2DB
330
25A
100
AcDbEntity
  8
14086400_ROUND_H
  6
Continuous
 62
     7
100
AcDbCircle
 10
396.1711835965
 20
260.2910792046
 30
0.0
 40
22.0244062747178
  0
ELLIPSE
  5
2DC
330
25A
100
AcDbEntity
  8
19275000_4LB_WW-
  6
Continuous
 62
     7
100
AcDbEllipse
 10
246.1711835965
 20
36.3901458442
 30
0.0
 11
16.89008326398711
 21
1.110223024625157E-13
 31
0.0
210
0.0
220
0.0
230
1.0
 40
0.865237583
 41
3.16954308275236
 42
6.253408945638148
  0
SPLINE
  5
2DD
330
25A
100
AcDbEntity
  8
19275000_4LB_WW-
  6
Continuous
 62
     7
100
AcDbSpline
210
0.0
220
0.0
230
1.0
 70
     8
 71
     3
 72
    46
 73
    42
 74
     0
 42
0.0000000000209393
 43
0.0000000001
 40
0.0
 40
0.0
 40
0.0
 40
0.0
 40
0.013174353490552
 40
0.0244841103942427
 40
0.0345680682493879
 40
0.0463186286316436
 40
0.0595994138166935
 40
0.073274259609103
 40
0.0877150385401888
 40
0.1030710681148641
 40
0.115026383317771
 40
0.1249933586803807
 40
0.1333558175683403
 40
0.1396351330838001
 40
0.1439006655743966
 40
0.1471846298745026
 40
0.1517011937804875
 40
0.1578495772579023
 40
0.168214539304637
 40
0.1828054154142577
 40
0.1981113948239131
 40
0.2163745007631905
 40
0.2355056315091072
 40
0.2556561744578674
 40
0.270756712474863
 40
0.2838411892272823
 40
0.295801958564478
 40
0.3071358195253729
 40
0.31951645447361
 40
0.3359069826478719
 40
0.3528235582979369
 40
0.3682187093859293
 40
0.3818753556773276
 40
0.3882021502712633
 40
0.3934591056401908
 40
0.3998558052502902
 40
0.4072156881004865
 40
0.413650095207534
 40
0.4209761572933662
 40
0.4299379868577908
 40
0.4382425106065977
 40
0.4382425106065977
 40
0.4382425106065977
 40
0.4382425106065977
 10
263.0537175816065
 20
35.95325748831478
 30
0.0
 10
263.117793300003
 20
38.16001737302781
 30
0.0
 10
263.1997854807597
 20
41.55706101450792
 30
0.0
 10
263.108873358483
 20
47.18035301261896
 30
0.0
 10
262.919121012467
 20
52.3248487335158
 30
0.0
 10
262.5024216548929
 20
57.92185189227688
 30
0.0
 10
262.0301006794292
 20
64.16163971399098
 30
0.0
 10
261.6531802797975
 20
71.19371061692371
 30
0.0
 10
261.3333891694408
 20
78.9232895887373
 30
0.0
 10
261.1662845238199
 20
86.66802150872815
 30
0.0
 10
261.0774546435503
 20
93.81778880037996
 30
0.0
 10
261.016152877518
 20
99.75226721505125
 30
0.0
 10
260.9895996266475
 20
104.6482904551895
 30
0.0
 10
260.9743860205425
 20
108.4485719399291
 30
0.0
 10
260.9695793777277
 20
111.2459138831578
 30
0.0
 10
260.9673024028861
 20
113.6975057801801
 30
0.0
 10
260.968675934868
 20
116.5429346334037
 30
0.0
 10
260.97720020424
 20
120.8503402465565
 30
0.0
 10
261.0065206826965
 20
127.2541485497281
 30
0.0
 10
261.0741787371622
 20
135.5748680714822
 30
0.0
 10
261.2185510939637
 20
145.5101308296047
 30
0.0
 10
261.3772063326212
 20
156.2924607325969
 30
0.0
 10
261.5561750549709
 20
167.8652987116631
 30
0.0
 10
261.7223081040269
 20
178.5051792314073
 30
0.0
 10
261.8651045320775
 20
187.6468697530048
 30
0.0
 10
261.977132620695
 20
194.9918119969871
 30
0.0
 10
262.0743442784265
 20
201.4241733784985
 30
0.0
 10
262.1625790819995
 20
207.5090777806336
 30
0.0
 10
262.2592330889341
 20
213.9709831848323
 30
0.0
 10
262.3222531509822
 20
220.8554458787768
 30
0.0
 10
262.6102403152537
 20
227.3253119674611
 30
0.0
 10
263.0623587117499
 20
232.5725663222081
 30
0.0
 10
263.5546743919861
 20
235.8598542354495
 30
0.0
 10
263.9032144764259
 20
237.9580262313092
 30
0.0
 10
264.1485477262465
 20
239.3762175856904
 30
0.0
 10
264.4098457374052
 20
240.6930081551037
 30
0.0
 10
264.6796166012181
 20
241.9319429637101
 30
0.0
 10
264.9656207540634
 20
243.0769147088672
 30
0.0
 10
265.230755566162
 20
244.0286592268505
 30
0.0
 10
265.4613121701992
 20
244.7237505420506
 30
0.0
 10
265.5238694619383
 20
244.8856158840887
 30
0.0
 10
265.5235997719092
 20
244.8896542683501
 30
0.0
  0
SPLINE
  5
2DE
330
25A
100
AcDbEntity
  8
19275000_4LB_WW-
  6
Continuous
 62
     7
100
AcDbSpline
210
0.0
220
0.0
230
1.0
 70
     8
 71
     3
 72
    45
 73
    41
 74
     0
 42
0.0000000000209372
 43
0.0000000001
 40
0.561805314669478
 40
0.561805314669478
 40
0.561805314669478
 40
0.561805314669478
 40
0.570008668083634
 40
0.5791371883046263
 40
0.5857452858649993
 40
0.591796016598651
 40
0.5991535879364871
 40
0.6057905155674694
 40
0.6111778646736514
 40
0.6196722472470377
 40
0.633482747110048
 40
0.6491719399179404
 40
0.6662212922032615
 40
0.6826898958492071
 40
0.6979764544847333
 40
0.7123948852816377
 40
0.7270811421819207
 40
0.7432523552168877
 40
0.7658982029957929
 40
0.7887617781647605
 40
0.8099156627286881
 40
0.8278097355764874
 40
0.8425282270944661
 40
0.8483973193342212
 40
0.8525894454610192
 40
0.8558233733013358
 40
0.8602597149962989
 40
0.8677548361234929
 40
0.8774256281832422
 40
0.8890360896750769
 40
0.9003498527165079
 40
0.9162702589242754
 40
0.9302488615561135
 40
0.9450847210987003
 40
0.9595206826682241
 40
0.9661127155260689
 40
0.9717048841122824
 40
0.9789290781902401
 40
0.9884730936064529
 40
1.0
 40
1.0
 40
1.0
 40
1.0
 10
226.8195928992143
 20
244.8883266288354
 30
0.0
 10
226.8194146584356
 20
244.8844205115085
 30
0.0
 10
226.8789563474566
 20
244.7293976796642
 30
0.0
 10
227.1052108470821
 20
244.0487918703137
 30
0.0
 10
227.355789448469
 20
243.1533533942289
 30
0.0
 10
227.6244476567347
 20
242.092703070673
 30
0.0
 10
227.8934557269835
 20
240.8821184606911
 30
0.0
 10
228.1586091601514
 20
239.5625217668799
 30
0.0
 10
228.4397220881191
 20
237.9674722819505
 30
0.0
 10
228.8223520962165
 20
235.6500371213516
 30
0.0
 10
229.343567386922
 20
232.0179680061453
 30
0.0
 10
229.7795993753369
 20
226.5938438177767
 30
0.0
 10
230.0381066383398
 20
219.9504754889045
 30
0.0
 10
230.0960529817221
 20
212.5089638895912
 30
0.0
 10
230.2212598469236
 20
204.9397725119364
 30
0.0
 10
230.3289981171513
 20
197.1860734275091
 30
0.0
 10
230.4585720752623
 20
188.9759055804316
 30
0.0
 10
230.6119852591135
 20
178.8904814410789
 30
0.0
 10
230.8051098647762
 20
166.8212420794021
 30
0.0
 10
231.0062636892472
 20
153.3574072736088
 30
0.0
 10
231.2015049131639
 20
140.6331707421444
 30
0.0
 10
231.3281863612698
 20
129.5172347869251
 30
0.0
 10
231.3620891912601
 20
121.5838221702745
 30
0.0
 10
231.3744059998384
 20
116.5097465814432
 30
0.0
 10
231.3746659076299
 20
113.7974835091916
 30
0.0
 10
231.3732038125968
 20
111.3863782010933
 30
0.0
 10
231.3676868008229
 20
108.3177629843632
 30
0.0
 10
231.3502801454353
 20
103.9778202000772
 30
0.0
 10
231.3148242442761
 20
98.26799122900022
 30
0.0
 10
231.242346292289
 20
91.916911177276
 30
0.0
 10
231.1386978007807
 20
84.5329169227476
 30
0.0
 10
230.94296742942
 20
76.97354634273702
 30
0.0
 10
230.5881570378567
 20
69.13177755581746
 30
0.0
 10
230.1678655225747
 20
61.95181518453504
 30
0.0
 10
229.6965226399313
 20
56.24299282177976
 30
0.0
 10
229.4296904893091
 20
52.04563167669684
 30
0.0
 10
229.2978708570562
 20
48.8869426225884
 30
0.0
 10
229.1946299931732
 20
45.42702457712951
 30
0.0
 10
229.1598171028928
 20
40.78674921930462
 30
0.0
 10
229.2311499456455
 20
37.8818074869703
 30
0.0
 10
229.2886485063205
 20
35.95328946000152
 30
0.0
  0
SPLINE
  5
2DF
330
25A
100
AcDbEntity
  8
19275000_4LB_WW-
  6
Continuous
 62
     7
100
AcDbSpline
210
0.0
220
0.0
230
1.0
 70
     8
 71
     3
 72
    72
 73
    68
 74
     0
 42
0.000000000049246
 43
0.0000000001
 40
0.104942808994524
 40
0.104942808994524
 40
0.104942808994524
 40
0.104942808994524
 40
0.1100216997721794
 40
0.1228899639207819
 40
0.1356548310110433
 40
0.1482875544150056
 40
0.1610516983688503
 40
0.1739626453341444
 40
0.1869822297892449
 40
0.2000638383824545
 40
0.2131478299488469
 40
0.226173487875245
 40
0.2390961926079585
 40
0.2518792180712164
 40
0.2644983957277774
 40
0.2772179131908376
 40
0.290062022631585
 40
0.3030071154251735
 40
0.3160225785724778
 40
0.3290733870162419
 40
0.3421129664191785
 40
0.3551077493730735
 40
0.3680330115254243
 40
0.3808549633601043
 40
0.3935393122526573
 40
0.4063049323233348
 40
0.4191555634770019
 40
0.4320773406685396
 40
0.4450500335309715
 40
0.4580487283178767
 40
0.4710389149122294
 40
0.4839967331042974
 40
0.4969035466503284
 40
0.5097147019625818
 40
0.522432630282591
 40
0.5352347872247598
 40
0.5481215228022761
 40
0.5610744768730296
 40
0.574070256741647
 40
0.587079093671515
 40
0.600070683034299
 40
0.6130241504851845
 40
0.6259256865560894
 40
0.6386917788461718
 40
0.6513747055776343
 40
0.664173405549812
 40
0.6770713433269249
 40
0.6900443844473511
 40
0.7030613769858611
 40
0.7160796709418082
 40
0.7290585084944919
 40
0.7419663514903718
 40
0.754780755974035
 40
0.7674267263740465
 40
0.7801134664775198
 40
0.7929619603770133
 40
0.8059380166255267
 40
0.8189985007464763
 40
0.8320935332364128
 40
0.8451532545722704
 40
0.8581295024544048
 40
0.870983137128629
 40
0.8836641290529268
 40
0.896292841264116
 40
0.9090839034833721
 40
0.9219831952008067
 40
0.9285261416934049
 40
0.9285261416934049
 40
0.9285261416934049
 40
0.9285261416934049
 10
263.1679212745614
 20
232.8020355862295
 30
0.0
 10
263.4604609793786
 20
232.9820715913481
 30
0.0
 10
264.4839865809871
 20
233.6348607794493
 30
0.0
 10
266.1702051228251
 20
234.8508904783564
 30
0.0
 10
268.1371265898665
 20
236.5364455716925
 30
0.0
 10
269.9532684573997
 20
238.3732791851065
 30
0.0
 10
271.622888946932
 20
240.3570827458932
 30
0.0
 10
273.1446477200516
 20
242.488694590432
 30
0.0
 10
274.5035849330374
 20
244.7527184670924
 30
0.0
 10
275.6834488739911
 20
247.1281258884939
 30
0.0
 10
276.6697046018986
 20
249.5907225601234
 30
0.0
 10
277.4506265050001
 20
252.1147212198557
 30
0.0
 10
278.0183519953492
 20
254.6742929669599
 30
0.0
 10
278.3670404683853
 20
257.2451038061087
 30
0.0
 10
278.5004599626124
 20
259.8220709262541
 30
0.0
 10
278.4258536220161
 20
262.4054629361165
 30
0.0
 10
278.1420462249362
 20
264.9964900212112
 30
0.0
 10
277.6484457037633
 20
267.576233804363
 30
0.0
 10
276.9465797405887
 20
270.1217915075794
 30
0.0
 10
276.0407089868173
 20
272.6089244547583
 30
0.0
 10
274.9378224938092
 20
275.0136886106678
 30
0.0
 10
273.6472707082379
 20
277.3134784735122
 30
0.0
 10
272.1807666900531
 20
279.4876235949577
 30
0.0
 10
270.5518423202638
 20
281.5160205336375
 30
0.0
 10
268.7701857920347
 20
283.3965922601396
 30
0.0
 10
266.8416733024401
 20
285.1291182313418
 30
0.0
 10
264.7677186726619
 20
286.7112185416071
 30
0.0
 10
262.5619995950597
 20
288.1298235019535
 30
0.0
 10
260.2408746038354
 20
289.3718967800838
 30
0.0
 10
257.8231699439187
 20
290.4252711155107
 30
0.0
 10
255.3292060590647
 20
291.2796212388016
 30
0.0
 10
252.780028976388
 20
291.9268379645027
 30
0.0
 10
250.1982906034965
 20
292.3611171893399
 30
0.0
 10
247.6056745133573
 20
292.5790419188896
 30
0.0
 10
245.0111372416465
 20
292.5849932986746
 30
0.0
 10
242.4194330634066
 20
292.382031006276
 30
0.0
 10
239.8366314523992
 20
291.9694982687128
 30
0.0
 10
237.2824343029885
 20
291.3483143148439
 30
0.0
 10
234.7784564029125
 20
290.5215735907041
 30
0.0
 10
232.3467892814404
 20
289.4947656510416
 30
0.0
 10
230.0087907266224
 20
288.2756635010218
 30
0.0
 10
227.7841855313387
 20
286.8737105103845
 30
0.0
 10
225.6943374908127
 20
285.3029515420747
 30
0.0
 10
223.755782916499
 20
283.5763592295216
 30
0.0
 10
221.9688036924736
 20
281.7031453732461
 30
0.0
 10
220.3318922827876
 20
279.6859816192194
 30
0.0
 10
218.8500402274796
 20
277.5284643541378
 30
0.0
 10
217.5375304401261
 20
275.2468702755988
 30
0.0
 10
216.408028170271
 20
272.8603146006687
 30
0.0
 10
215.4736904004307
 20
270.390355678506
 30
0.0
 10
214.7443310180608
 20
267.8599351674472
 30
0.0
 10
214.2268673766355
 20
265.2918636262049
 30
0.0
 10
213.9262027787862
 20
262.7120414793789
 30
0.0
 10
213.8428768693848
 20
260.1311936335119
 30
0.0
 10
213.9681621129843
 20
257.5498980883131
 30
0.0
 10
214.3016885308785
 20
254.9646572792632
 30
0.0
 10
214.8445526267362
 20
252.3893064406705
 30
0.0
 10
215.5948643587582
 20
249.8491553337439
 30
0.0
 10
216.5473803191108
 20
247.3716019044682
 30
0.0
 10
217.6935229386878
 20
244.9837173547474
 30
0.0
 10
219.0217941455114
 20
242.7109815275111
 30
0.0
 10
220.5181324316965
 20
240.5762555797627
 30
0.0
 10
222.1732247358786
 20
238.5927493093161
 30
0.0
 10
223.9807211588827
 20
236.7532634680505
 30
0.0
 10
225.9411466852364
 20
235.0549972971027
 30
0.0
 10
227.6991395149217
 20
233.7629969415978
 30
0.0
 10
228.8038785518255
 20
233.0491953499739
 30
0.0
 10
229.1803368135357
 20
232.8165846647281
 30
0.0
  0
LINE
  5
2E0
330
25A
100
AcDbEntity
  8
12086000_CAP_-_P
  6
Continuous
 62
     7
100
AcDbLine
 10
241.1077012052
 20
260.2910792046
 30
0.0
 11
237.8845380806
 21
260.2910792046
 31
0.0
  0
LINE
  5
2E1
330
25A
100
AcDbEntity
  8
12086000_CAP_-_P
  6
Continuous
 62
     7
100
AcDbLine
 10
251.0739900788
 20
260.2910792046
 30
0.0
 11
251.2346659878
 21
260.2910792046
 31
0.0
  0
LINE
  5
2E2
330
25A
100
AcDbEntity
  8
12086000_CAP_-_P
  6
Continuous
 62
     7
100
AcDbLine
 10
248.6225868376
 20
256.0451242411
 30
0.0
 11
248.7029247922
 21
255.9059748221
 31
0.0
  0
LINE
  5
2E3
330
25A
100
AcDbEntity
  8
12086000_CAP_-_P
  6
Continuous
 62
     7
100
AcDbLine
 10
243.7197803554
 20
256.0451242411
 30
0.0
 11
243.6394424009
 21
255.9059748221
 31
0.0
  0
LINE
  5
2E4
330
25A
100
AcDbEntity
  8
12086000_CAP_-_P
  6
Continuous
 62
     7
100
AcDbLine
 10
241.2683771143
 20
260.2910792046
 30
0.0
 11
241.1077012052
 21
260.2910792046
 31
0.0
  0
LINE
  5
2E5
330
25A
100
AcDbEntity
  8
12086000_CAP_-_P
  6
Continuous
 62
     7
100
AcDbLine
 10
243.7197803554
 20
264.5370341681
 30
0.0
 11
243.6394424009
 21
264.6761835871
 31
0.0
  0
LINE
  5
2E6
330
25A
100
AcDbEntity
  8
12086000_CAP_-_P
  6
Continuous
 62
     7
100
AcDbLine
 10
248.6225868376
 20
264.5370341681
 30
0.0
 11
248.7029247922
 21
264.6761835871
 31
0.0
  0
LINE
  5
2E7
330
25A
100
AcDbEntity
  8
12086000_CAP_-_P
  6
Continuous
 62
     7
100
AcDbLine
 10
242.0278608386
 20
253.1146336757
 30
0.0
 11
243.6394424009
 21
255.9059748221
 31
0.0
  0
LINE
  5
2E8
330
25A
100
AcDbEntity
  8
12086000_CAP_-_P
  6
Continuous
 62
     7
100
AcDbLine
 10
250.3145063545
 20
253.1146336757
 30
0.0
 11
248.7029247922
 21
255.9059748221
 31
0.0
  0
LINE
  5
2E9
330
25A
100
AcDbEntity
  8
12086000_CAP_-_P
  6
Continuous
 62
     7
100
AcDbLine
 10
254.4578291124
 20
260.2910792046
 30
0.0
 11
251.2346659878
 21
260.2910792046
 31
0.0
  0
LINE
  5
2EA
330
25A
100
AcDbEntity
  8
12086000_CAP_-_P
  6
Continuous
 62
     7
100
AcDbLine
 10
242.0278608386
 20
267.4675247335
 30
0.0
 11
243.6394424009
 21
264.6761835871
 31
0.0
  0
LINE
  5
2EB
330
25A
100
AcDbEntity
  8
12086000_CAP_-_P
  6
Continuous
 62
     7
100
AcDbLine
 10
250.3145063545
 20
267.4675247335
 30
0.0
 11
248.7029247922
 21
264.6761835871
 31
0.0
  0
LINE
  5
2EC
330
25A
100
AcDbEntity
  8
12086000_CAP_-_P
  6
Continuous
 62
     7
100
AcDbLine
 10
242.0278608386
 20
267.4675247335
 30
0.0
 11
241.8379151831
 21
267.7965202595
 31
0.0
  0
LINE
  5
2ED
330
25A
100
AcDbEntity
  8
12086000_CAP_-_P
  6
Continuous
 62
     7
100
AcDbLine
 10
250.50445201
 20
267.7965202595
 30
0.0
 11
250.3145063545
 21
267.4675247335
 31
0.0
  0
LINE
  5
2EE
330
25A
100
AcDbEntity
  8
12086000_CAP_-_P
  6
Continuous
 62
     7
100
AcDbLine
 10
237.8845380806
 20
260.2910792046
 30
0.0
 11
237.5046467696
 21
260.2910792046
 31
0.0
  0
LINE
  5
2EF
330
25A
100
AcDbEntity
  8
12086000_CAP_-_P
  6
Continuous
 62
     7
100
AcDbLine
 10
254.8377204234
 20
260.2910792046
 30
0.0
 11
254.4578291124
 21
260.2910792046
 31
0.0
  0
LINE
  5
2F0
330
25A
100
AcDbEntity
  8
12086000_CAP_-_P
  6
Continuous
 62
     7
100
AcDbLine
 10
242.0278608386
 20
253.1146336757
 30
0.0
 11
241.8379151831
 21
252.7856381497
 31
0.0
  0
LINE
  5
2F1
330
25A
100
AcDbEntity
  8
12086000_CAP_-_P
  6
Continuous
 62
     7
100
AcDbLine
 10
250.50445201
 20
252.7856381497
 30
0.0
 11
250.3145063545
 21
253.1146336757
 31
0.0
  0
CIRCLE
  5
2F2
330
25A
100
AcDbEntity
  8
12086000_CAP_-_P
  6
Continuous
 62
     7
100
AcDbCircle
 10
246.1711835965
 20
260.2910792046
 30
0.0
 40
8.691196303513935
  0
CIRCLE
  5
2F3
330
25A
100
AcDbEntity
  8
14086000_RING_-_
  6
Continuous
 62
     7
100
AcDbCircle
 10
246.1711835965
 20
260.2910792046
 30
0.0
 40
8.75
  0
CIRCLE
  5
2F4
330
25A
100
AcDbEntity
  8
14086000_RING_-_
  6
Continuous
 62
     7
100
AcDbCircle
 10
246.1711835965
 20
260.2910792046
 30
0.0
 40
12.80951895312984
  0
ELLIPSE
  5
2F5
330
25A
100
AcDbEntity
  8
14088000_RING_-_
  6
Continuous
 62
     7
100
AcDbEllipse
 10
226.6016967491
 20
32.9420326042
 30
0.0
 11
0.4849223814847037
 21
-0.1218617410623513
 31
0.0
210
0.0
220
0.0
230
1.0
 40
0.7367973429
 41
2.978052290491366
 42
3.141592653590005
  0
ELLIPSE
  5
2F6
330
25A
100
AcDbEntity
  8
14088000_RING_-_
  6
Continuous
 62
     7
100
AcDbEllipse
 10
226.6016967491
 20
32.9420326042
 30
0.0
 11
0.4849223814847037
 21
-0.1218617410623513
 31
0.0
210
0.0
220
0.0
230
1.0
 40
0.7367973429
 41
3.5915664123442
 42
3.77563154728245
  0
ELLIPSE
  5
2F7
330
25A
100
AcDbEntity
  8
14088000_RING_-_
  6
Continuous
 62
     7
100
AcDbEllipse
 10
226.6016967492
 20
32.9420326043
 30
0.0
 11
0.4936604165791114
 21
0.07936871614633301
 31
0.0
210
0.0
220
0.0
230
1.0
 40
0.2033165364
 41
3.14159265332665
 42
3.507811994921533
  0
ELLIPSE
  5
2F8
330
25A
100
AcDbEntity
  8
14088000_RING_-_
  6
Continuous
 62
     7
100
AcDbEllipse
 10
229.1560977647
 20
24.5257157526
 30
0.0
 11
0.4424044117460613
 21
0.2329771157593696
 31
0.0
210
0.0
220
0.0
230
0.9999999999999998
 40
0.7151837697
 41
2.60107549189531
 42
3.141592653589793
  0
ELLIPSE
  5
2F9
330
25A
100
AcDbEntity
  8
14088000_RING_-_
  6
Continuous
 62
     7
100
AcDbEllipse
 10
229.1560977647
 20
24.5257157527
 30
0.0
 11
0.39738815032192
 21
0.3034512448214787
 31
0.0
210
0.0
220
0.0
230
1.0
 40
0.1013258291
 41
3.141592653589483
 42
3.321173416636125
  0
ELLIPSE
  5
2FA
330
25A
100
AcDbEntity
  8
14088000_RING_-_
  6
Continuous
 62
     7
100
AcDbEllipse
 10
236.2318611263
 20
18.3420534333
 30
0.0
 11
0.2282375234376743
 21
0.4448681073025984
 31
0.0
210
0.0
220
0.0
230
1.0
 40
0.5735175538
 41
2.36107529611071
 42
3.158654552900095
  0
ELLIPSE
  5
2FB
330
25A
100
AcDbEntity
  8
14088000_RING_-_
  6
Continuous
 62
     7
100
AcDbEllipse
 10
265.45840677
 20
32.774159201
 30
0.0
 11
-0.492870343722307
 21
0.08413574911350641
 31
0.0
210
0.0
220
0.0
230
1.0
 40
0.2025149272
 41
2.759376913656054
 42
3.141592653589873
  0
ELLIPSE
  5
2FC
330
25A
100
AcDbEntity
  8
14088000_RING_-_
  6
Continuous
 62
     7
100
AcDbEllipse
 10
265.45840677
 20
32.7741592009
 30
0.0
 11
-0.4865748468824983
 21
-0.1150865690751346
 31
0.0
210
0.0
220
0.0
230
0.9999999999999999
 40
0.7375989511
 41
3.141592653589774
 42
3.312331995214221
  0
ELLIPSE
  5
2FD
330
25A
100
AcDbEntity
  8
14088000_RING_-_
  6
Continuous
 62
     7
100
AcDbEllipse
 10
245.9330417554
 20
16.047952971
 30
0.0
 11
0.006520344462856986
 21
-0.4999574833003395
 31
0.0
210
0.0
220
0.0
230
0.9999999999999999
 40
0.3497580435
 41
5.435669260106772
 42
6.23324851689662
  0
ELLIPSE
  5
2FE
330
25A
100
AcDbEntity
  8
14088000_RING_-_
  6
Continuous
 62
     7
100
AcDbEllipse
 10
262.8069957502
 20
24.3803331208
 30
0.0
 11
-0.4393032795619312
 21
0.2387731738829058
 31
0.0
210
0.0
220
0.0
230
0.9999999999999998
 40
0.7135308859
 41
3.141592653589827
 42
3.688418363579818
  0
ELLIPSE
  5
2FF
330
25A
100
AcDbEntity
  8
14088000_RING_-_
  6
Continuous
 62
     7
100
AcDbEllipse
 10
262.8069957503
 20
24.380333121
 30
0.0
 11
-0.3946292578656252
 21
0.3070305340459323
 31
0.0
210
0.0
220
0.0
230
1.0
 40
0.0982845183
 41
2.9659972718046
 42
3.763576528594964
  0
ELLIPSE
  5
300
330
25A
100
AcDbEntity
  8
14088000_RING_-_
  6
Continuous
 62
     7
100
AcDbEllipse
 10
255.6602161368
 20
18.2581167318
 30
0.0
 11
-0.2194764880878719
 21
0.4492550179760468
 31
0.0
210
0.0
220
0.0
230
1.0
 40
0.1038614187
 41
2.355831553694347
 42
3.153410810490311
  0
ARC
  5
301
330
25A
100
AcDbEntity
  8
14088000_RING_-_
  6
Continuous
 62
     7
100
AcDbCircle
 10
259.4895801791
 20
-18.0512182742
 30
0.0
 40
41.13786557320392
100
AcDbArc
 50
96.5562357389
 51
109.0460491157
  0
ARC
  5
302
330
25A
100
AcDbEntity
  8
14088000_RING_-_
  6
Continuous
 62
     7
100
AcDbCircle
 10
314.489006662
 20
16.0212402668
 30
0.0
 40
54.41712431767323
100
AcDbArc
 50
158.3084174649
 51
166.6313950158
  0
ARC
  5
303
330
25A
100
AcDbEntity
  8
14088000_RING_-_
  6
Continuous
 62
     7
100
AcDbCircle
 10
245.7072096075
 20
39.5572020151
 30
0.0
 40
24.00973847584538
100
AcDbArc
 50
270.5336346762
 51
295.0686501683
  0
ARC
  5
304
330
25A
100
AcDbEntity
  8
14088000_RING_-_
  6
Continuous
 62
     7
100
AcDbCircle
 10
245.7541064426
 20
39.5495648757
 30
0.0
 40
23.83719363385566
100
AcDbArc
 50
270.7236716031
 51
294.8786132404
  0
ARC
  5
305
330
25A
100
AcDbEntity
  8
14088000_RING_-_
  6
Continuous
 62
     7
100
AcDbCircle
 10
243.7340325812
 20
39.3857911385
 30
0.0
 40
24.76047223129981
100
AcDbArc
 50
299.3765957945
 51
321.7927588558
  0
ARC
  5
306
330
25A
100
AcDbEntity
  8
14088000_RING_-_
  6
Continuous
 62
     7
100
AcDbCircle
 10
244.1936588185
 20
39.044123158
 30
0.0
 40
24.10183446561793
100
AcDbArc
 50
299.3268527699
 51
321.8425018795
  0
ARC
  5
307
330
25A
100
AcDbEntity
  8
14088000_RING_-_
  6
Continuous
 62
     7
100
AcDbCircle
 10
232.530248593
 20
38.4771507147
 30
0.0
 40
33.8757710187631
100
AcDbArc
 50
335.1303768238
 51
338.858334104
  0
ARC
  5
308
330
25A
100
AcDbEntity
  8
14088000_RING_-_
  6
Continuous
 62
     7
100
AcDbCircle
 10
235.7368936529
 20
37.6523593324
 30
0.0
 40
30.58354683009972
100
AcDbArc
 50
334.1956717246
 51
350.7441407583
  0
ARC
  5
309
330
25A
100
AcDbEntity
  8
14088000_RING_-_
  6
Continuous
 62
     7
100
AcDbCircle
 10
246.3722394311
 20
39.5689513849
 30
0.0
 40
24.02450199503728
100
AcDbArc
 50
244.443402219
 51
268.9472172381
  0
ARC
  5
30A
330
25A
100
AcDbEntity
  8
14088000_RING_-_
  6
Continuous
 62
     7
100
AcDbCircle
 10
246.3404778747
 20
39.6333615369
 30
0.0
 40
23.92397859699738
100
AcDbArc
 50
244.6701001826
 51
268.7205192735
  0
ARC
  5
30B
330
25A
100
AcDbEntity
  8
14088000_RING_-_
  6
Continuous
 62
     7
100
AcDbCircle
 10
206.1698776859
 20
-5.7514901962
 30
0.0
 40
42.08289175343916
100
AcDbArc
 50
43.0999361348
 51
54.5982417344
  0
ARC
  5
30C
330
25A
100
AcDbEntity
  8
14088000_RING_-_
  6
Continuous
 62
     7
100
AcDbCircle
 10
172.6302008206
 20
9.2292963976
 30
0.0
 40
96.26130926632953
100
AcDbArc
 50
14.2648730655
 51
19.501823605
  0
ARC
  5
30D
330
25A
100
AcDbEntity
  8
14088000_RING_-_
  6
Continuous
 62
     7
100
AcDbCircle
 10
248.4414109655
 20
39.4253911143
 30
0.0
 40
24.86255181237387
100
AcDbArc
 50
217.7038334103
 51
239.9943444496
  0
ARC
  5
30E
330
25A
100
AcDbEntity
  8
14088000_RING_-_
  6
Continuous
 62
     7
100
AcDbCircle
 10
248.1331130752
 20
39.2673864821
 30
0.0
 40
24.43734835263594
100
AcDbArc
 50
217.7639335299
 51
239.9342443291
  0
ARC
  5
30F
330
25A
100
AcDbEntity
  8
14088000_RING_-_
  6
Continuous
 62
     7
100
AcDbCircle
 10
176.5154939962
 20
16.4992003445
 30
0.0
 40
55.281624446923
100
AcDbArc
 50
12.7904118801
 51
20.9762847972
  0
ARC
  5
310
330
25A
100
AcDbEntity
  8
14088000_RING_-_
  6
Continuous
 62
     7
100
AcDbCircle
 10
260.1162877266
 20
38.4343454499
 30
0.0
 40
34.41804183196354
100
AcDbArc
 50
200.8664384404
 51
204.0945867243
  0
ARC
  5
311
330
25A
100
AcDbEntity
  8
14088000_RING_-_
  6
Continuous
 62
     7
100
AcDbCircle
 10
257.7406411414
 20
37.9012888283
 30
0.0
 40
31.99650325471506
100
AcDbArc
 50
188.9834144009
 51
204.7832822692
  0
ARC
  5
312
330
25A
100
AcDbEntity
  8
14088000_RING_-_
  6
Continuous
 62
     7
100
AcDbCircle
 10
326.919043464
 20
5.9017216491
 30
0.0
 40
104.3920729978113
100
AcDbArc
 50
160.0535202069
 51
164.8862922763
  0
ARC
  5
313
330
25A
100
AcDbEntity
  8
14088000_RING_-_
  6
Continuous
 62
     7
100
AcDbCircle
 10
229.2531077689
 20
41.3358586843
 30
0.0
 40
0.4999999999791381
100
AcDbArc
 50
145.6292818685
 51
160.1177367314
  0
ARC
  5
314
330
25A
100
AcDbEntity
  8
14088000_RING_-_
  6
Continuous
 62
     7
100
AcDbCircle
 10
226.6016967491
 20
32.9420326042
 30
0.0
 40
0.499999999999995
100
AcDbArc
 50
165.8935919587
 51
189.1336198654
  0
ARC
  5
315
330
25A
100
AcDbEntity
  8
14088000_RING_-_
  6
Continuous
 62
     7
100
AcDbCircle
 10
229.1560977647
 20
24.5257157526
 30
0.0
 40
0.499999999999985
100
AcDbArc
 50
207.7719957694
 51
217.3658682014
  0
ARC
  5
316
330
25A
100
AcDbEntity
  8
14088000_RING_-_
  6
Continuous
 62
     7
100
AcDbCircle
 10
262.9040057545
 20
41.1904760525
 30
0.0
 40
0.4999999999999954
100
AcDbArc
 50
19.3377240931
 51
34.3668792903
  0
ARC
  5
317
330
25A
100
AcDbEntity
  8
14088000_RING_-_
  6
Continuous
 62
     7
100
AcDbCircle
 10
265.45840677
 20
32.774159201
 30
0.0
 40
0.4999999999999868
100
AcDbArc
 50
350.3126645038
 51
13.3072653201
  0
ARC
  5
318
330
25A
100
AcDbEntity
  8
14088000_RING_-_
  6
Continuous
 62
     7
100
AcDbCircle
 10
262.8069957503
 20
24.380333121
 30
0.0
 40
0.4999999999999877
100
AcDbArc
 50
322.1162725355
 51
331.4747276068
  0
LINE
  5
319
330
25A
100
AcDbEntity
  8
14088000_RING_-_
  6
Continuous
 62
     7
100
AcDbLine
 10
263.3167257286
 20
41.4727210223
 30
0.0
 11
263.1514434952
 21
41.7144092236
 31
0.0
  0
LINE
  5
31A
330
25A
100
AcDbEntity
  8
14088000_RING_-_
  6
Continuous
 62
     7
100
AcDbLine
 10
229.1871596961
 20
42.1251068903
 30
0.0
 11
228.8404067064
 21
41.6181313061
 31
0.0
  0
LINE
  5
31B
330
25A
100
AcDbEntity
  8
14088000_RING_-_
  6
Continuous
 62
     7
100
AcDbLine
 10
245.1049802508
 20
15.5696212487
 30
0.0
 11
245.6260166463
 21
15.5677598038
 31
0.0
  0
SPLINE
  5
31C
330
25A
100
AcDbEntity
  8
14088600_ROUND_H
  6
Continuous
 62
     7
100
AcDbSpline
210
0.0
220
0.0
230
1.0
 70
     8
 71
     3
 72
     8
 73
     4
 74
     0
 42
0.0000000694817067
 43
0.0000000001
 40
0.6677102162459242
 40
0.6677102162459242
 40
0.6677102162459242
 40
0.6677102162459242
 40
1.0
 40
1.0
 40
1.0
 40
1.0
 10
123.6997899907079
 20
250.40907215989
 30
0.0
 10
123.7022340804745
 20
250.4220366579015
 30
0.0
 10
123.6973223135129
 20
250.4362428548207
 30
0.0
 10
123.6846209321763
 20
250.4511703122805
 30
0.0
  0
ELLIPSE
  5
31D
330
25A
100
AcDbEntity
  8
14088600_ROUND_H
  6
Continuous
 62
     7
100
AcDbEllipse
 10
123.2074488919
 20
250.4922642043
 30
0.0
 11
-0.4318783883915933
 21
0.2519544753328429
 31
0.0
210
0.0
220
0.0
230
1.0
 40
0.2617152309
 41
2.839465679814417
 42
3.141592653589407
  0
SPLINE
  5
31E
330
25A
100
AcDbEntity
  8
14088600_ROUND_H
  6
Continuous
 62
     7
100
AcDbSpline
210
0.0
220
0.0
230
1.0
 70
     8
 71
     3
 72
     8
 73
     4
 74
     0
 42
0.000000069476998
 43
0.0000000001
 40
0.6680750017536965
 40
0.6680750017536965
 40
0.6680750017536965
 40
0.6680750017536965
 40
1.0
 40
1.0
 40
1.0
 40
1.0
 10
124.9526451841501
 20
265.4973542525458
 30
0.0
 10
124.9482690384121
 20
265.5097845062014
 30
0.0
 10
124.9369168993691
 20
265.519617154087
 30
0.0
 10
124.9184737207882
 20
265.5261868007523
 30
0.0
  0
ELLIPSE
  5
31F
330
25A
100
AcDbEntity
  8
14088600_ROUND_H
  6
Continuous
 62
     7
100
AcDbEllipse
 10
124.4846836661
 20
265.3231891567
 30
0.0
 11
-0.4999948932433718
 21
0.002259807629636894
 31
0.0
210
0.0
220
0.0
230
0.9999999999999998
 40
0.2617152235
 41
2.839465701594099
 42
3.141592653589793
  0
SPLINE
  5
320
330
25A
100
AcDbEntity
  8
14088600_ROUND_H
  6
Continuous
 62
     7
100
AcDbSpline
210
0.0
220
0.0
230
1.0
 70
     8
 71
     3
 72
    10
 73
     6
 74
     0
 42
0.0000000705631996
 43
0.0000000001
 40
0.0
 40
0.0
 40
0.0
 40
0.0
 40
0.111539841484877
 40
0.2502367279587706
 40
0.3327421514765055
 40
0.3327421514765055
 40
0.3327421514765055
 40
0.3327421514765055
 10
115.0785648284722
 20
238.0127494651004
 30
0.0
 10
115.0793579864494
 20
238.0065665224035
 30
0.0
 10
115.0811374157042
 20
237.992695251573
 30
0.0
 10
115.0778865252477
 20
237.9783554435102
 30
0.0
 10
115.0731898514992
 20
237.9707508458436
 30
0.0
 10
115.0710878140721
 20
237.9682135409754
 30
0.0
  0
ELLIPSE
  5
321
330
25A
100
AcDbEntity
  8
14088600_ROUND_H
  6
Continuous
 62
     7
100
AcDbEllipse
 10
114.6858686656
 20
238.2869238396
 30
0.0
 11
-0.2480404180260631
 21
0.4341381704312635
 31
0.0
210
0.0
220
0.0
230
1.0
 40
0.2617152309
 41
2.839465679814723
 42
3.141592653589793
  0
SPLINE
  5
322
330
25A
100
AcDbEntity
  8
14088600_ROUND_H
  6
Continuous
 62
     7
100
AcDbSpline
210
0.0
220
0.0
230
1.0
 70
     8
 71
     3
 72
     8
 73
     4
 74
     0
 42
0.0000000694861125
 43
0.0000000001
 40
0.66736658057748
 40
0.66736658057748
 40
0.66736658057748
 40
0.66736658057748
 40
1.0
 40
1.0
 40
1.0
 40
1.0
 10
118.4935869609815
 20
279.1905214544486
 30
0.0
 10
118.4835809156213
 20
279.1991411430439
 30
0.0
 10
118.4688115205579
 20
279.2020000834399
 30
0.0
 10
118.4495133360205
 20
279.1984604365442
 30
0.0
  0
ELLIPSE
  5
323
330
25A
100
AcDbEntity
  8
14088600_ROUND_H
  6
Continuous
 62
     7
100
AcDbEllipse
 10
118.1753389507
 20
278.8057642925
 30
0.0
 11
-0.4341381831261537
 21
-0.2480403958067395
 31
0.0
210
0.0
220
0.0
230
1.0
 40
0.2617152235
 41
2.83946570159381
 42
3.141592653589793
  0
SPLINE
  5
324
330
25A
100
AcDbEntity
  8
14088600_ROUND_H
  6
Continuous
 62
     7
100
AcDbSpline
210
0.0
220
0.0
230
1.0
 70
     8
 71
     3
 72
    10
 73
     6
 74
     0
 42
0.0000000705294956
 43
0.0000000001
 40
0.0
 40
0.0
 40
0.0
 40
0.0
 40
0.1115398415042085
 40
0.2502367279589324
 40
0.3315457602417269
 40
0.3315457602417269
 40
0.3315457602417269
 40
0.3315457602417269
 10
101.4062911926802
 20
231.5437890803327
 30
0.0
 10
101.4038866162889
 20
231.5380379158974
 30
0.0
 10
101.3984920118126
 20
231.5251353283483
 30
0.0
 10
101.3885426565599
 20
231.5143809429798
 30
0.0
 10
101.3807221086893
 20
231.5101506206315
 30
0.0
 10
101.3776822307371
 20
231.5090084885639
 30
0.0
  0
ELLIPSE
  5
325
330
25A
100
AcDbEntity
  8
14088600_ROUND_H
  6
Continuous
 62
     7
100
AcDbEllipse
 10
101.2032935269
 20
231.9775791352
 30
0.0
 11
0.0
 21
0.4789382581401956
 31
0.0
210
0.0
220
0.0
230
1.0
 40
1.0
 41
3.055684919222744
 42
3.137073074123999
  0
ELLIPSE
  5
326
330
25A
100
AcDbEntity
  8
14088600_ROUND_H
  6
Continuous
 62
     7
100
AcDbEllipse
 10
105.9699985782
 20
287.3273445109
 30
0.0
 11
-0.2519544974366461
 21
-0.4318783754963737
 31
0.0
210
0.0
220
0.0
230
1.0
 40
0.2617152235
 41
2.83946570159408
 42
3.141592653589793
  0
ELLIPSE
  5
327
330
25A
100
AcDbEntity
  8
14088600_ROUND_H
  6
Continuous
 62
     7
100
AcDbEllipse
 10
86.3723685962
 20
233.2548139092
 30
0.0
 11
0.2519544753328828
 21
0.4318783883916593
 31
0.0
210
0.0
220
0.0
230
1.0
 40
0.2617152309
 41
2.839465679814644
 42
3.141592653589793
  0
SPLINE
  5
328
330
25A
100
AcDbEntity
  8
14088600_ROUND_H
  6
Continuous
 62
     7
100
AcDbSpline
210
0.0
220
0.0
230
1.0
 70
     8
 71
     3
 72
     8
 73
     4
 74
     0
 42
0.000000069476882
 43
0.0000000001
 40
0.6680839582355305
 40
0.6680839582355305
 40
0.6680839582355305
 40
0.6680839582355305
 40
1.0
 40
1.0
 40
1.0
 40
1.0
 10
90.96490754234762
 20
289.0725404379565
 30
0.0
 10
90.95247776428467
 20
289.0681640338393
 30
0.0
 10
90.9426454697625
 20
289.0568120097806
 30
0.0
 10
90.93607600036887
 20
289.0383693288604
 30
0.0
  0
ELLIPSE
  5
329
330
25A
100
AcDbEntity
  8
14088600_ROUND_H
  6
Continuous
 62
     7
100
AcDbEllipse
 10
91.1390736444
 20
288.6045792741
 30
0.0
 11
-0.002259807629578781
 21
-0.4999948932433961
 31
0.0
210
0.0
220
0.0
230
1.0
 40
0.2617152235
 41
2.839465701594294
 42
3.141592653589746
  0
SPLINE
  5
32A
330
25A
100
AcDbEntity
  8
14088600_ROUND_H
  6
Continuous
 62
     7
100
AcDbSpline
210
0.0
220
0.0
230
1.0
 70
     8
 71
     3
 72
    10
 73
     6
 74
     0
 42
0.0000000705625821
 43
0.0000000001
 40
0.0
 40
0.0
 40
0.0
 40
0.0
 40
0.1115398415808095
 40
0.2502367279584429
 40
0.3327201405509951
 40
0.3327201405509951
 40
0.3327201405509951
 40
0.3327201405509951
 10
73.89285385702823
 20
241.3836979726491
 30
0.0
 10
73.88667091432607
 20
241.3829048146714
 30
0.0
 10
73.87279964349582
 20
241.3811253854174
 30
0.0
 10
73.85846078401408
 20
241.3843760608291
 30
0.0
 10
73.85085675119485
 20
241.3890720149535
 30
0.0
 10
73.84831996368597
 20
241.3911733047687
 30
0.0
  0
ELLIPSE
  5
32B
330
25A
100
AcDbEntity
  8
14088600_ROUND_H
  6
Continuous
 62
     7
100
AcDbEllipse
 10
74.1670282316
 20
241.7763941355
 30
0.0
 11
0.434138170431142
 21
0.2480404180262193
 31
0.0
210
0.0
220
0.0
230
0.9999999999999999
 40
0.2617152309
 41
2.839465679814776
 42
3.141592640376052
  0
SPLINE
  5
32C
330
25A
100
AcDbEntity
  8
14088600_ROUND_H
  6
Continuous
 62
     7
100
AcDbSpline
210
0.0
220
0.0
230
1.0
 70
     8
 71
     3
 72
     8
 73
     4
 74
     0
 42
0.0000000694832034
 43
0.0000000001
 40
0.6675937343387248
 40
0.6675937343387248
 40
0.6675937343387248
 40
0.6675937343387248
 40
1.0
 40
1.0
 40
1.0
 40
1.0
 10
77.27172369570079
 20
282.6134620631491
 30
0.0
 10
77.26311775634801
 20
282.603456349684
 30
0.0
 10
77.26026513488915
 20
282.5886939499929
 30
0.0
 10
77.26380236457706
 20
282.5694089440927
 30
0.0
  0
ELLIPSE
  5
32D
330
25A
100
AcDbEntity
  8
14088600_ROUND_H
  6
Continuous
 62
     7
100
AcDbEllipse
 10
77.6564985086
 20
282.2952345588
 30
0.0
 11
0.2480403958067257
 21
-0.4341381831261225
 31
0.0
210
0.0
220
0.0
230
1.0
 40
0.2617152235
 41
2.839465701594299
 42
3.141592653589793
  0
SPLINE
  5
32E
330
25A
100
AcDbEntity
  8
14088600_ROUND_H
  6
Continuous
 62
     7
100
AcDbSpline
210
0.0
220
0.0
230
1.0
 70
     8
 71
     3
 72
    10
 73
     6
 74
     0
 42
0.0000000705451815
 43
0.0000000001
 40
0.0
 40
0.0
 40
0.0
 40
0.0
 40
0.1115398415859262
 40
0.2502367279583461
 40
0.3321012956961131
 40
0.3321012956961131
 40
0.3321012956961131
 40
0.3321012956961131
 10
67.42389347226054
 20
255.0559716084411
 30
0.0
 10
67.41814230782131
 20
255.0583761848345
 30
0.0
 10
67.40523972027255
 20
255.0637707893117
 30
0.0
 10
67.394467314943
 20
255.0737368156259
 30
0.0
 10
67.39023366717214
 20
255.0815801954244
 30
0.0
 10
67.3890895290066
 20
255.0846429002702
 30
0.0
  0
ELLIPSE
  5
32F
330
25A
100
AcDbEntity
  8
14088600_ROUND_H
  6
Continuous
 62
     7
100
AcDbEllipse
 10
67.8576835271
 20
255.2589692742
 30
0.0
 11
0.4999948933591126
 21
-0.002259782039686597
 31
0.0
210
0.0
220
0.0
230
1.0
 40
0.2617152309
 41
2.839465679814616
 42
3.141592653589793
  0
ELLIPSE
  5
330
330
25A
100
AcDbEntity
  8
14088600_ROUND_H
  6
Continuous
 62
     7
100
AcDbEllipse
 10
69.1349182902
 20
270.0898941862
 30
0.0
 11
0.4318783754965194
 21
-0.2519544974366322
 31
0.0
210
0.0
220
0.0
230
0.9999999999999998
 40
0.2617152235
 41
2.839465709978258
 42
3.141592653589793
  0
ARC
  5
331
330
25A
100
AcDbEntity
  8
14088600_ROUND_H
  6
Continuous
 62
     7
100
AcDbCircle
 10
187.112972714
 20
252.4591998672
 30
0.0
 40
119.7661587148118
100
AcDbArc
 50
171.5148869392
 51
178.6408118338
  0
ARC
  5
332
330
25A
100
AcDbEntity
  8
14088600_ROUND_H
  6
Continuous
 62
     7
100
AcDbCircle
 10
171.3497660124
 20
207.8025535669
 30
0.0
 40
120.1759177977347
100
AcDbArc
 50
141.5270510271
 51
148.6286477405
  0
ARC
  5
333
330
25A
100
AcDbEntity
  8
14088600_ROUND_H
  6
Continuous
 62
     7
100
AcDbCircle
 10
178.8450229066
 20
298.9793672978
 30
0.0
 40
119.7661587148114
100
AcDbArc
 50
201.5148869392
 51
208.6408118338
  0
ARC
  5
334
330
25A
100
AcDbEntity
  8
14088600_ROUND_H
  6
Continuous
 62
     7
100
AcDbCircle
 10
135.0334830744
 20
177.2453911809
 30
0.0
 40
120.1759180278899
100
AcDbArc
 50
111.5270510371
 51
118.6286477269
  0
ARC
  5
335
330
25A
100
AcDbEntity
  8
14088600_ROUND_H
  6
Continuous
 62
     7
100
AcDbCircle
 10
148.4246846209
 20
335.1330391773
 30
0.0
 40
119.7661587149085
100
AcDbArc
 50
231.5148869392
 51
238.6408118338
  0
ARC
  5
336
330
25A
100
AcDbEntity
  8
14088600_ROUND_H
  6
Continuous
 62
     7
100
AcDbCircle
 10
88.304078182
 20
168.9402539624
 30
0.0
 40
120.1759180278722
100
AcDbArc
 50
81.5270510371
 51
88.6286477269
  0
ARC
  5
337
330
25A
100
AcDbEntity
  8
14088600_ROUND_H
  6
Continuous
 62
     7
100
AcDbCircle
 10
104.0030629339
 20
351.2328683222
 30
0.0
 40
119.7661587149023
100
AcDbArc
 50
261.5148869392
 51
268.6408118338
  0
ARC
  5
338
330
25A
100
AcDbEntity
  8
14088600_ROUND_H
  6
Continuous
 62
     7
100
AcDbCircle
 10
43.6826578322
 20
185.1124965955
 30
0.0
 40
120.1759180278718
100
AcDbArc
 50
51.5270510371
 51
58.6286477269
  0
ARC
  5
339
330
25A
100
AcDbEntity
  8
14088600_ROUND_H
  6
Continuous
 62
     7
100
AcDbCircle
 10
57.4828955035
 20
342.9649185144
 30
0.0
 40
119.7661587145659
100
AcDbArc
 50
291.5148869392
 51
298.6408118338
  0
ARC
  5
33A
330
25A
100
AcDbEntity
  8
14088600_ROUND_H
  6
Continuous
 62
     7
100
AcDbCircle
 10
13.1254955728
 20
221.4287797268
 30
0.0
 40
120.1759180278685
100
AcDbArc
 50
21.5270510371
 51
28.6286477269
  0
ARC
  5
33B
330
25A
100
AcDbEntity
  8
14088600_ROUND_H
  6
Continuous
 62
     7
100
AcDbCircle
 10
21.3292236241
 20
312.5445802288
 30
0.0
 40
119.7661587145733
100
AcDbArc
 50
321.5148869392
 51
328.6408118338
  0
ARC
  5
33C
330
25A
100
AcDbEntity
  8
14088600_ROUND_H
  6
Continuous
 62
     7
100
AcDbCircle
 10
4.8203583543
 20
268.1581846192
 30
0.0
 40
120.1759180278712
100
AcDbArc
 50
351.5270510371
 51
358.6286477269
  0
CIRCLE
  5
33D
330
25A
100
AcDbEntity
  8
14088600_ROUND_H
  6
Continuous
 62
     7
100
AcDbCircle
 10
96.1711835965
 20
260.2910792046
 30
0.0
 40
22.125
  0
ARC
  5
33E
330
25A
100
AcDbEntity
  8
14088600_ROUND_H
  6
Continuous
 62
     7
100
AcDbCircle
 10
123.2074489028
 20
250.4922642229
 30
0.0
 40
0.5000000000000336
100
AcDbArc
 50
329.7410445135
 51
350.4109480724
  0
ARC
  5
33F
330
25A
100
AcDbEntity
  8
14088600_ROUND_H
  6
Continuous
 62
     7
100
AcDbCircle
 10
124.4846836661
 20
265.3231891566
 30
0.0
 40
0.5000000000000364
100
AcDbArc
 50
359.7410442459
 51
20.3705606013
  0
ARC
  5
340
330
25A
100
AcDbEntity
  8
14088600_ROUND_H
  6
Continuous
 62
     7
100
AcDbCircle
 10
114.6858686832
 20
238.2869238489
 30
0.0
 40
0.499999999663132
100
AcDbArc
 50
299.741044702
 51
320.4028807928
  0
ARC
  5
341
330
25A
100
AcDbEntity
  8
14088600_ROUND_H
  6
Continuous
 62
     7
100
AcDbCircle
 10
118.1753389508
 20
278.8057642924
 30
0.0
 40
0.4999999999999516
100
AcDbArc
 50
29.7410442459
 51
50.4088344725
  0
ARC
  5
342
330
25A
100
AcDbEntity
  8
14088600_ROUND_H
  6
Continuous
 62
     7
100
AcDbCircle
 10
101.2032935468
 20
231.9775791344
 30
0.0
 40
0.499999999663124
100
AcDbArc
 50
269.741044702
 51
290.475119325
  0
ARC
  5
343
330
25A
100
AcDbEntity
  8
14088600_ROUND_H
  6
Continuous
 62
     7
100
AcDbCircle
 10
105.9699985782
 20
287.3273445109
 30
0.0
 40
0.5000000000000139
100
AcDbArc
 50
59.7410442459
 51
80.4082482061
  0
ARC
  5
344
330
25A
100
AcDbEntity
  8
14088600_ROUND_H
  6
Continuous
 62
     7
100
AcDbCircle
 10
86.372368613
 20
233.2548138986
 30
0.0
 40
0.4999999996630927
100
AcDbArc
 50
239.741044702
 51
260.410392435
  0
ARC
  5
345
330
25A
100
AcDbEntity
  8
14088600_ROUND_H
  6
Continuous
 62
     7
100
AcDbCircle
 10
91.1390736445
 20
288.6045792741
 30
0.0
 40
0.5000000000000192
100
AcDbArc
 50
89.7410442459
 51
110.3929607193
  0
ARC
  5
346
330
25A
100
AcDbEntity
  8
14088600_ROUND_H
  6
Continuous
 62
     7
100
AcDbCircle
 10
74.1670282408
 20
241.776394118
 30
0.0
 40
0.4999999996631329
100
AcDbArc
 50
209.741044702
 51
230.4023695706
  0
ARC
  5
347
330
25A
100
AcDbEntity
  8
14088600_ROUND_H
  6
Continuous
 62
     7
100
AcDbCircle
 10
77.6564985087
 20
282.2952345588
 30
0.0
 40
0.4999999999999969
100
AcDbArc
 50
119.7410442459
 51
140.4224195148
  0
ARC
  5
348
330
25A
100
AcDbEntity
  8
14088600_ROUND_H
  6
Continuous
 62
     7
100
AcDbCircle
 10
67.8576835263
 20
255.2589692544
 30
0.0
 40
0.4999999996631307
100
AcDbArc
 50
179.741044702
 51
200.4417261141
  0
ARC
  5
349
330
25A
100
AcDbEntity
  8
14088600_ROUND_H
  6
Continuous
 62
     7
100
AcDbCircle
 10
69.1349182906
 20
270.0898941882
 30
0.0
 40
0.4999999996631179
100
AcDbArc
 50
149.7410444344
 51
175.0778493932
  0
CIRCLE
  5
34A
330
25A
100
AcDbEntity
  8
14086400_ROUND_H
  6
Continuous
 62
     7
100
AcDbCircle
 10
96.1711835965
 20
260.2910792046
 30
0.0
 40
22.0244062747178
  0
ENDBLK
  5
34C
330
25A
100
AcDbEntity
  8
0
100
AcDbBlockEnd
  0
ENDSEC
  0
SECTION
  2
ENTITIES
  0
INSERT
  5
5F
330
1F
100
AcDbEntity
  8
Default
100
AcDbBlockReference
  2
SEANNOT_GROUP
 10
0.0
 20
0.0
 30
0.0
  0
INSERT
  5
66
330
1F
100
AcDbEntity
  8
Default
100
AcDbBlockReference
  2
SEANNOT_GROUP1
 10
0.0
 20
0.0
 30
0.0
  0
INSERT
  5
6C
330
1F
100
AcDbEntity
  8
Default
100
AcDbBlockReference
  2
SEANNOT_GROUP2
 10
0.0
 20
0.0
 30
0.0
  0
INSERT
  5
72
330
1F
100
AcDbEntity
  8
Default
100
AcDbBlockReference
  2
SEANNOT_GROUP3
 10
0.0
 20
0.0
 30
0.0
  0
INSERT
  5
78
330
1F
100
AcDbEntity
  8
Default
100
AcDbBlockReference
  2
SEANNOT_GROUP4
 10
0.0
 20
0.0
 30
0.0
  0
INSERT
  5
82
330
1F
100
AcDbEntity
  8
Default
100
AcDbBlockReference
  2
SEANNOT_GROUP5
 10
0.0
 20
0.0
 30
0.0
  0
INSERT
  5
8C
330
1F
100
AcDbEntity
  8
Default
100
AcDbBlockReference
  2
SEANNOT_GROUP6
 10
0.0
 20
0.0
 30
0.0
  0
INSERT
  5
96
330
1F
100
AcDbEntity
  8
Default
100
AcDbBlockReference
  2
SE
 10
0.0
 20
0.0
 30
0.0
  0
INSERT
  5
197
330
1F
100
AcDbEntity
  8
Default
100
AcDbBlockReference
  2
SE1
 10
0.0
 20
0.0
 30
0.0
  0
INSERT
  5
25B
330
1F
100
AcDbEntity
  8
Default
100
AcDbBlockReference
  2
SE2
 10
0.0
 20
0.0
 30
0.0
  0
TEXT
  5
34E
330
1F
100
AcDbEntity
  8
Default
  6
Continuous
 62
     7
100
AcDbText
 10
5.9362635081
 20
53.4225120485
 30
0.0
 40
10.0
  1
Grohe AG^J
  7
SEACAD_seiso_ttf
 11
5.9362635081
 21
63.4225120485
 31
0.0
100
AcDbText
 73
     3
  0
TEXT
  5
34F
330
1F
100
AcDbEntity
  8
Default
  6
Continuous
 62
     7
100
AcDbText
 10
5.9362635081
 20
37.0588756849
 30
0.0
 40
10.0
  1
 
  7
SEACAD_seiso_ttf
 11
5.9362635081
 21
47.0588756849
 31
0.0
100
AcDbText
 73
     3
  0
TEXT
  5
350
330
1F
100
AcDbEntity
  8
Default
  6
Continuous
 62
     7
100
AcDbText
 10
5.9362635081
 20
20.6952393213
 30
0.0
 40
10.0
  1
ecn: 
  7
SEACAD_seiso_ttf
 11
5.9362635081
 21
30.6952393213
 31
0.0
100
AcDbText
 73
     3
  0
TEXT
  5
351
330
1F
100
AcDbEntity
  8
Default
  6
Continuous
 62
     7
100
AcDbText
 10
5.9362635081
 20
4.3316029576
 30
0.0
 40
10.0
  1
unit: mm
  7
SEACAD_seiso_ttf
 11
5.9362635081
 21
14.3316029576
 31
0.0
100
AcDbText
 73
     3
  0
LINE
  5
352
330
1F
100
AcDbEntity
  8
Default
  6
Continuous
 62
     7
100
AcDbLine
 10
0.0
 20
0.0
 30
0.0
 11
100.0
 21
0.0
 31
0.0
  0
LINE
  5
353
330
1F
100
AcDbEntity
  8
Default
  6
Continuous
 62
     7
100
AcDbLine
 10
0.0
 20
0.0
 30
0.0
 11
0.0
 21
100.0
 31
0.0
  0
TEXT
  5
354
330
1F
100
AcDbEntity
  8
Default
  6
Continuous
 62
     7
100
AcDbText
 10
24.3923665681
 20
-18.2375342018
 30
0.0
 40
10.0
  1
100 mm
  7
SEACAD_seiso_ttf
 11
24.3923665681
 21
-8.2375342018
 31
0.0
100
AcDbText
 73
     3
  0
TEXT
  5
355
330
1F
100
AcDbEntity
  8
Default
  6
Continuous
 62
     7
100
AcDbText
 10
-7.6150308803
 20
24.6231930421
 30
0.0
 40
10.0
  1
100 mm
 50
90.0
  7
SEACAD_seiso_ttf
 11
-17.6150308803
 21
24.6231930421
 31
0.0
100
AcDbText
 73
     3
  0
TEXT
  5
356
330
1F
100
AcDbEntity
  8
Default
  6
Continuous
 62
     7
100
AcDbText
 10
28.4878128572
 20
20.0907663715
 30
0.0
 40
10.0
  1
201845
  7
SEACAD_seiso_ttf
 11
28.4878128572
 21
30.0907663715
 31
0.0
100
AcDbText
 73
     3
  0
TEXT
  5
357
330
1F
100
AcDbEntity
  8
Default
  6
Continuous
 62
     7
100
AcDbText
 10
5.9012241913
 20
36.7242780188
 30
0.0
 40
10.0
  1
25074000
  7
SEACAD_seiso_ttf
 11
5.9012241913
 21
46.7242780188
 31
0.0
100
AcDbText
 73
     3
  0
ENDSEC
  0
SECTION
  2
OBJECTS
  0
DICTIONARY
  5
C
330
0
100
AcDbDictionary
281
     1
  3
ACAD_GROUP
350
D
  3
ACAD_LAYOUT
350
1A
  3
ACAD_MLEADERSTYLE
350
35B
  3
ACAD_MLINESTYLE
350
17
  3
ACAD_PLOTSETTINGS
350
19
  3
ACAD_PLOTSTYLENAME
350
E
  3
ACAD_SCALELIST
350
3B
  3
ACAD_TABLESTYLE
350
35A
  3
ACAD_VISUALSTYLE
350
2A
  3
AcDbVariableDictionary
350
358
  0
DICTIONARY
  5
D
102
{ACAD_REACTORS
330
C
102
}
330
C
100
AcDbDictionary
281
     1
  0
DICTIONARY
  5
1A
102
{ACAD_REACTORS
330
C
102
}
330
C
100
AcDbDictionary
281
     1
  3
Layout1
350
1E
  3
Model
350
22
  0
DICTIONARY
  5
35B
102
{ACAD_REACTORS
330
C
102
}
330
C
100
AcDbDictionary
281
     1
  0
DICTIONARY
  5
17
102
{ACAD_REACTORS
330
C
102
}
330
C
100
AcDbDictionary
281
     1
  3
Standard
350
18
  0
DICTIONARY
  5
19
102
{ACAD_REACTORS
330
C
102
}
330
C
100
AcDbDictionary
281
     1
  0
ACDBDICTIONARYWDFLT
  5
E
102
{ACAD_REACTORS
330
C
102
}
330
C
100
AcDbDictionary
281
     1
  3
Normal
350
F
100
AcDbDictionaryWithDefault
340
F
  0
DICTIONARY
  5
3B
102
{ACAD_REACTORS
330
C
102
}
330
C
100
AcDbDictionary
281
     1
  3
A0
350
3C
  3
A1
350
3D
  3
A2
350
3E
  3
A3
350
3F
  3
A4
350
40
  3
A5
350
41
  3
A6
350
42
  3
A7
350
43
  3
A8
350
44
  3
A9
350
45
  3
B0
350
46
  3
B1
350
47
  3
B2
350
48
  3
B3
350
49
  3
B4
350
4A
  3
B5
350
4B
  3
B6
350
4C
  3
B7
350
4D
  3
B8
350
4E
  3
B9
350
4F
  3
C0
350
50
  3
C1
350
51
  3
C2
350
52
  3
C3
350
53
  3
C4
350
54
  3
C5
350
55
  3
C6
350
56
  3
C7
350
57
  3
C8
350
58
  3
C9
350
59
  3
D0
350
5A
  3
D1
350
5B
  3
D2
350
5C
  0
DICTIONARY
  5
35A
102
{ACAD_REACTORS
330
C
102
}
330
C
100
AcDbDictionary
281
     1
  0
DICTIONARY
  5
2A
102
{ACAD_REACTORS
330
C
102
}
330
C
100
AcDbDictionary
281
     1
  3
2dWireframe
350
2F
  3
3D Hidden
350
31
  3
3dWireframe
350
30
  3
Basic
350
32
  3
Brighten
350
36
  3
ColorChange
350
3A
  3
Conceptual
350
34
  3
Dim
350
35
  3
Facepattern
350
39
  3
Flat
350
2B
  3
FlatWithEdges
350
2C
  3
Gouraud
350
2D
  3
GouraudWithEdges
350
2E
  3
Linepattern
350
38
  3
Realistic
350
33
  3
Thicken
350
37
  0
DICTIONARY
  5
358
102
{ACAD_REACTORS
330
C
102
}
330
C
100
AcDbDictionary
281
     1
  3
CANNOSCALE
350
359
  3
PSOLHEIGHT
350
35D
  3
PSOLWIDTH
350
35C
  0
LAYOUT
  5
1E
102
{ACAD_REACTORS
330
1A
102
}
330
1A
100
AcDbPlotSettings
  1

  2
none_device
  4

  6

 40
0.0
 41
0.0
 42
0.0
 43
0.0
 44
0.0
 45
0.0
 46
0.0
 47
0.0
 48
0.0
 49
0.0
140
0.0
141
0.0
142
1.0
143
1.0
 70
   688
 72
     0
 73
     0
 74
     5
  7

 75
    16
147
1.0
148
0.0
149
0.0
100
AcDbLayout
  1
Layout1
 70
     1
 71
     1
 10
0.0
 20
0.0
 11
1682.0
 21
2378.0
 12
0.0
 22
0.0
 32
0.0
 14
0.0
 24
0.0
 34
0.0
 15
1682.0
 25
2378.0
 35
0.0
146
0.0
 13
0.0
 23
0.0
 33
0.0
 16
1.0
 26
0.0
 36
0.0
 17
0.0
 27
1.0
 37
0.0
 76
     0
330
1B
  0
LAYOUT
  5
22
102
{ACAD_REACTORS
330
1A
102
}
330
1A
100
AcDbPlotSettings
  1

  2
none_device
  4

  6

 40
0.0
 41
0.0
 42
0.0
 43
0.0
 44
0.0
 45
0.0
 46
0.0
 47
0.0
 48
0.0
 49
0.0
140
0.0
141
0.0
142
1.0
143
1.0
 70
  1712
 72
     0
 73
     0
 74
     0
  7

 75
     0
147
1.0
148
0.0
149
0.0
100
AcDbLayout
  1
Model
 70
     1
 71
     0
 10
0.0
 20
0.0
 11
1682.0
 21
2378.0
 12
0.0
 22
0.0
 32
0.0
 14
0.0
 24
0.0
 34
0.0
 15
1682.0
 25
2378.0
 35
0.0
146
0.0
 13
0.0
 23
0.0
 33
0.0
 16
1.0
 26
0.0
 36
0.0
 17
0.0
 27
1.0
 37
0.0
 76
     0
330
1F
331
29
  0
MLINESTYLE
  5
18
102
{ACAD_REACTORS
330
17
102
}
330
17
100
AcDbMlineStyle
  2
Standard
 70
     0
  3

 62
   256
 51
90.0
 52
90.0
 71
     2
 49
0.5
 62
   256
  6
BYLAYER
 49
-0.5
 62
   256
  6
BYLAYER
  0
ACDBPLACEHOLDER
  5
F
102
{ACAD_REACTORS
330
E
102
}
330
E
  0
SCALE
  5
3C
102
{ACAD_REACTORS
330
3B
102
}
330
3B
100
AcDbScale
 70
     0
300
1:1
140
1.0
141
1.0
290
     1
  0
SCALE
  5
3D
102
{ACAD_REACTORS
330
3B
102
}
330
3B
100
AcDbScale
 70
     0
300
1:2
140
1.0
141
2.0
290
     0
  0
SCALE
  5
3E
102
{ACAD_REACTORS
330
3B
102
}
330
3B
100
AcDbScale
 70
     0
300
1:4
140
1.0
141
4.0
290
     0
  0
SCALE
  5
3F
102
{ACAD_REACTORS
330
3B
102
}
330
3B
100
AcDbScale
 70
     0
300
1:5
140
1.0
141
5.0
290
     0
  0
SCALE
  5
40
102
{ACAD_REACTORS
330
3B
102
}
330
3B
100
AcDbScale
 70
     0
300
1:8
140
1.0
141
8.0
290
     0
  0
SCALE
  5
41
102
{ACAD_REACTORS
330
3B
102
}
330
3B
100
AcDbScale
 70
     0
300
1:10
140
1.0
141
10.0
290
     0
  0
SCALE
  5
42
102
{ACAD_REACTORS
330
3B
102
}
330
3B
100
AcDbScale
 70
     0
300
1:16
140
1.0
141
16.0
290
     0
  0
SCALE
  5
43
102
{ACAD_REACTORS
330
3B
102
}
330
3B
100
AcDbScale
 70
     0
300
1:20
140
1.0
141
20.0
290
     0
  0
SCALE
  5
44
102
{ACAD_REACTORS
330
3B
102
}
330
3B
100
AcDbScale
 70
     0
300
1:30
140
1.0
141
30.0
290
     0
  0
SCALE
  5
45
102
{ACAD_REACTORS
330
3B
102
}
330
3B
100
AcDbScale
 70
     0
300
1:40
140
1.0
141
40.0
290
     0
  0
SCALE
  5
46
102
{ACAD_REACTORS
330
3B
102
}
330
3B
100
AcDbScale
 70
     0
300
1:50
140
1.0
141
50.0
290
     0
  0
SCALE
  5
47
102
{ACAD_REACTORS
330
3B
102
}
330
3B
100
AcDbScale
 70
     0
300
1:100
140
1.0
141
100.0
290
     0
  0
SCALE
  5
48
102
{ACAD_REACTORS
330
3B
102
}
330
3B
100
AcDbScale
 70
     0
300
2:1
140
2.0
141
1.0
290
     0
  0
SCALE
  5
49
102
{ACAD_REACTORS
330
3B
102
}
330
3B
100
AcDbScale
 70
     0
300
4:1
140
4.0
141
1.0
290
     0
  0
SCALE
  5
4A
102
{ACAD_REACTORS
330
3B
102
}
330
3B
100
AcDbScale
 70
     0
300
8:1
140
8.0
141
1.0
290
     0
  0
SCALE
  5
4B
102
{ACAD_REACTORS
330
3B
102
}
330
3B
100
AcDbScale
 70
     0
300
10:1
140
10.0
141
1.0
290
     0
  0
SCALE
  5
4C
102
{ACAD_REACTORS
330
3B
102
}
330
3B
100
AcDbScale
 70
     0
300
100:1
140
100.0
141
1.0
290
     0
  0
SCALE
  5
4D
102
{ACAD_REACTORS
330
3B
102
}
330
3B
100
AcDbScale
 70
     0
300
1/128" = 1'-0"
140
0.0078125
141
12.0
290
     0
  0
SCALE
  5
4E
102
{ACAD_REACTORS
330
3B
102
}
330
3B
100
AcDbScale
 70
     0
300
1/64" = 1'-0"
140
0.015625
141
12.0
290
     0
  0
SCALE
  5
4F
102
{ACAD_REACTORS
330
3B
102
}
330
3B
100
AcDbScale
 70
     0
300
1/32" = 1'-0"
140
0.03125
141
12.0
290
     0
  0
SCALE
  5
50
102
{ACAD_REACTORS
330
3B
102
}
330
3B
100
AcDbScale
 70
     0
300
1/16" = 1'-0"
140
0.0625
141
12.0
290
     0
  0
SCALE
  5
51
102
{ACAD_REACTORS
330
3B
102
}
330
3B
100
AcDbScale
 70
     0
300
3/32" = 1'-0"
140
0.09375
141
12.0
290
     0
  0
SCALE
  5
52
102
{ACAD_REACTORS
330
3B
102
}
330
3B
100
AcDbScale
 70
     0
300
1/8" = 1'-0"
140
0.125
141
12.0
290
     0
  0
SCALE
  5
53
102
{ACAD_REACTORS
330
3B
102
}
330
3B
100
AcDbScale
 70
     0
300
3/16" = 1'-0"
140
0.1875
141
12.0
290
     0
  0
SCALE
  5
54
102
{ACAD_REACTORS
330
3B
102
}
330
3B
100
AcDbScale
 70
     0
300
1/4" = 1'-0"
140
0.25
141
12.0
290
     0
  0
SCALE
  5
55
102
{ACAD_REACTORS
330
3B
102
}
330
3B
100
AcDbScale
 70
     0
300
3/8" = 1'-0"
140
0.375
141
12.0
290
     0
  0
SCALE
  5
56
102
{ACAD_REACTORS
330
3B
102
}
330
3B
100
AcDbScale
 70
     0
300
1/2" = 1'-0"
140
0.5
141
12.0
290
     0
  0
SCALE
  5
57
102
{ACAD_REACTORS
330
3B
102
}
330
3B
100
AcDbScale
 70
     0
300
3/4" = 1'-0"
140
0.75
141
12.0
290
     0
  0
SCALE
  5
58
102
{ACAD_REACTORS
330
3B
102
}
330
3B
100
AcDbScale
 70
     0
300
1" = 1'-0"
140
1.0
141
12.0
290
     0
  0
SCALE
  5
59
102
{ACAD_REACTORS
330
3B
102
}
330
3B
100
AcDbScale
 70
     0
300
1-1/2" = 1'-0"
140
1.5
141
12.0
290
     0
  0
SCALE
  5
5A
102
{ACAD_REACTORS
330
3B
102
}
330
3B
100
AcDbScale
 70
     0
300
3" = 1'-0"
140
3.0
141
12.0
290
     0
  0
SCALE
  5
5B
102
{ACAD_REACTORS
330
3B
102
}
330
3B
100
AcDbScale
 70
     0
300
6" = 1'-0"
140
6.0
141
12.0
290
     0
  0
SCALE
  5
5C
102
{ACAD_REACTORS
330
3B
102
}
330
3B
100
AcDbScale
 70
     0
300
1'-0" = 1'-0"
140
12.0
141
12.0
290
     0
  0
VISUALSTYLE
  5
2F
102
{ACAD_REACTORS
330
2A
102
}
330
2A
100
AcDbVisualStyle
  2
2dWireframe
 70
     4
 71
     0
 72
     2
 73
     0
 90
        0
 40
-0.6
 41
-30.0
 62
     5
 63
     7
 74
     1
 91
        4
 64
     7
 65
   257
 75
     1
175
     1
 42
1.0
 92
        0
 66
   257
 43
1.0
 76
     1
 77
     6
 78
     2
 67
     7
 79
     5
170
     0
171
     0
290
     0
174
     0
 93
        1
 44
0.0
173
     0
291
     0
 45
0.0
1001
ACAD
1000
AcDbSavedByObjectVersion
1070
     0
  0
VISUALSTYLE
  5
31
102
{ACAD_REACTORS
330
2A
102
}
330
2A
100
AcDbVisualStyle
  2
3D Hidden
 70
     6
 71
     1
 72
     2
 73
     2
 90
        0
 40
-0.6
 41
-30.0
 62
     5
 63
     7
 74
     2
 91
        2
 64
     7
 65
   257
 75
     2
175
     1
 42
40.0
 92
        0
 66
   257
 43
1.0
 76
     1
 77
     6
 78
     2
 67
     7
 79
     3
170
     0
171
     0
290
     0
174
     0
 93
        1
 44
0.0
173
     0
291
     0
 45
0.0
1001
ACAD
1000
AcDbSavedByObjectVersion
1070
     0
  0
VISUALSTYLE
  5
30
102
{ACAD_REACTORS
330
2A
102
}
330
2A
100
AcDbVisualStyle
  2
3dWireframe
 70
     5
 71
     0
 72
     2
 73
     0
 90
        0
 40
-0.6
 41
-30.0
 62
     5
 63
     7
 74
     1
 91
        4
 64
     7
 65
   257
 75
     1
175
     1
 42
1.0
 92
        0
 66
   257
 43
1.0
 76
     1
 77
     6
 78
     2
 67
     7
 79
     5
170
     0
171
     0
290
     0
174
     0
 93
        1
 44
0.0
173
     0
291
     0
 45
0.0
1001
ACAD
1000
AcDbSavedByObjectVersion
1070
     0
  0
VISUALSTYLE
  5
32
102
{ACAD_REACTORS
330
2A
102
}
330
2A
100
AcDbVisualStyle
  2
Basic
 70
     7
 71
     1
 72
     0
 73
     1
 90
        0
 40
-0.6
 41
-30.0
 62
     5
 63
     7
 74
     0
 91
        4
 64
     7
 65
   257
 75
     1
175
     1
 42
1.0
 92
        8
 66
     7
 43
1.0
 76
     1
 77
     6
 78
     2
 67
     7
 79
     5
170
     0
171
     0
290
     0
174
     0
 93
        1
 44
0.0
173
     0
291
     1
 45
0.0
1001
ACAD
1000
AcDbSavedByObjectVersion
1070
     0
  0
VISUALSTYLE
  5
36
102
{ACAD_REACTORS
330
2A
102
}
330
2A
100
AcDbVisualStyle
  2
Brighten
 70
    12
 71
     2
 72
     2
 73
     0
 90
        0
 40
-0.6
 41
-30.0
 62
     5
 63
     7
 74
     1
 91
        4
 64
     7
 65
   257
 75
     1
175
     1
 42
1.0
 92
        8
 66
     7
 43
1.0
 76
     1
 77
     6
 78
     2
 67
     7
 79
     5
170
     0
171
     0
290
     0
174
     0
 93
        1
 44
50.0
173
     0
291
     1
 45
0.0
1001
ACAD
1000
AcDbSavedByObjectVersion
1070
     0
  0
VISUALSTYLE
  5
3A
102
{ACAD_REACTORS
330
2A
102
}
330
2A
100
AcDbVisualStyle
  2
ColorChange
 70
    16
 71
     2
 72
     2
 73
     3
 90
        0
 40
-0.6
 41
-30.0
 62
     5
 63
     8
 74
     1
 91
        4
 64
     7
 65
   257
 75
     1
175
     1
 42
1.0
 92
        8
 66
     8
 43
1.0
 76
     1
 77
     6
 78
     2
 67
     7
 79
     5
170
     0
171
     0
290
     0
174
     0
 93
        1
 44
0.0
173
     0
291
     1
 45
0.0
1001
ACAD
1000
AcDbSavedByObjectVersion
1070
     0
  0
VISUALSTYLE
  5
34
102
{ACAD_REACTORS
330
2A
102
}
330
2A
100
AcDbVisualStyle
  2
Conceptual
 70
     9
 71
     3
 72
     2
 73
     0
 90
        0
 40
-0.6
 41
-30.0
 62
     5
 63
     7
 74
     2
 91
        2
 64
     7
 65
   257
 75
     1
175
     1
 42
40.0
 92
        8
 66
     7
 43
1.0
 76
     1
 77
     6
 78
     2
 67
     7
 79
     3
170
     0
171
     0
290
     0
174
     0
 93
        1
 44
0.0
173
     0
291
     0
 45
0.0
1001
ACAD
1000
AcDbSavedByObjectVersion
1070
     0
  0
VISUALSTYLE
  5
35
102
{ACAD_REACTORS
330
2A
102
}
330
2A
100
AcDbVisualStyle
  2
Dim
 70
    11
 71
     2
 72
     2
 73
     0
 90
        0
 40
-0.6
 41
-30.0
 62
     5
 63
     7
 74
     1
 91
        4
 64
     7
 65
   257
 75
     1
175
     1
 42
1.0
 92
        8
 66
     7
 43
1.0
 76
     1
 77
     6
 78
     2
 67
     7
 79
     5
170
     0
171
     0
290
     0
174
     0
 93
        1
 44
-50.0
173
     0
291
     1
 45
0.0
1001
ACAD
1000
AcDbSavedByObjectVersion
1070
     0
  0
VISUALSTYLE
  5
39
102
{ACAD_REACTORS
330
2A
102
}
330
2A
100
AcDbVisualStyle
  2
Facepattern
 70
    15
 71
     2
 72
     2
 73
     0
 90
        0
 40
-0.6
 41
-30.0
 62
     5
 63
     7
 74
     1
 91
        4
 64
     7
 65
   257
 75
     1
175
     1
 42
1.0
 92
        8
 66
     7
 43
1.0
 76
     1
 77
     6
 78
     2
 67
     7
 79
     5
170
     0
171
     0
290
     0
174
     0
 93
        1
 44
0.0
173
     0
291
     1
 45
0.0
1001
ACAD
1000
AcDbSavedByObjectVersion
1070
     0
  0
VISUALSTYLE
  5
2B
102
{ACAD_REACTORS
330
2A
102
}
330
2A
100
AcDbVisualStyle
  2
Flat
 70
     0
 71
     2
 72
     1
 73
     1
 90
        2
 40
-0.6
 41
30.0
 62
     5
 63
     7
 74
     0
 91
        4
 64
     7
 65
   257
 75
     1
175
     1
 42
1.0
 92
        8
 66
     7
 43
1.0
 76
     1
 77
     6
 78
     2
 67
     7
 79
     5
170
     0
171
     0
290
     0
174
     0
 93
       13
 44
0.0
173
     0
291
     1
 45
0.0
1001
ACAD
1000
AcDbSavedByObjectVersion
1070
     0
  0
VISUALSTYLE
  5
2C
102
{ACAD_REACTORS
330
2A
102
}
330
2A
100
AcDbVisualStyle
  2
FlatWithEdges
 70
     1
 71
     2
 72
     1
 73
     1
 90
        2
 40
-0.6
 41
30.0
 62
     5
 63
     7
 74
     1
 91
        4
 64
     7
 65
   257
 75
     1
175
     1
 42
1.0
 92
        0
 66
   257
 43
1.0
 76
     1
 77
     6
 78
     2
 67
     7
 79
     5
170
     0
171
     0
290
     0
174
     0
 93
       13
 44
0.0
173
     0
291
     1
 45
0.0
1001
ACAD
1000
AcDbSavedByObjectVersion
1070
     0
  0
VISUALSTYLE
  5
2D
102
{ACAD_REACTORS
330
2A
102
}
330
2A
100
AcDbVisualStyle
  2
Gouraud
 70
     2
 71
     2
 72
     2
 73
     1
 90
        2
 40
-0.6
 41
30.0
 62
     5
 63
     7
 74
     0
 91
        4
 64
     7
 65
   257
 75
     1
175
     1
 42
1.0
 92
        0
 66
     7
 43
1.0
 76
     1
 77
     6
 78
     2
 67
     7
 79
     5
170
     0
171
     0
290
     0
174
     0
 93
       13
 44
0.0
173
     0
291
     1
 45
0.0
1001
ACAD
1000
AcDbSavedByObjectVersion
1070
     0
  0
VISUALSTYLE
  5
2E
102
{ACAD_REACTORS
330
2A
102
}
330
2A
100
AcDbVisualStyle
  2
GouraudWithEdges
 70
     3
 71
     2
 72
     2
 73
     1
 90
        2
 40
-0.6
 41
30.0
 62
     5
 63
     7
 74
     1
 91
        4
 64
     7
 65
   257
 75
     1
175
     1
 42
1.0
 92
        0
 66
   257
 43
1.0
 76
     1
 77
     6
 78
     2
 67
     7
 79
     5
170
     0
171
     0
290
     0
174
     0
 93
       13
 44
0.0
173
     0
291
     1
 45
0.0
1001
ACAD
1000
AcDbSavedByObjectVersion
1070
     0
  0
VISUALSTYLE
  5
38
102
{ACAD_REACTORS
330
2A
102
}
330
2A
100
AcDbVisualStyle
  2
Linepattern
 70
    14
 71
     2
 72
     2
 73
     0
 90
        0
 40
-0.6
 41
-30.0
 62
     5
 63
     7
 74
     1
 91
        4
 64
     7
 65
   257
 75
     7
175
     7
 42
1.0
 92
        8
 66
     7
 43
1.0
 76
     1
 77
     6
 78
     2
 67
     7
 79
     5
170
     0
171
     0
290
     0
174
     0
 93
        1
 44
0.0
173
     0
291
     1
 45
0.0
1001
ACAD
1000
AcDbSavedByObjectVersion
1070
     0
  0
VISUALSTYLE
  5
33
102
{ACAD_REACTORS
330
2A
102
}
330
2A
100
AcDbVisualStyle
  2
Realistic
 70
     8
 71
     2
 72
     2
 73
     0
 90
        0
 40
-0.6
 41
-30.0
 62
     5
 63
     7
 74
     1
 91
        0
 64
     7
 65
   257
 75
     1
175
     1
 42
1.0
 92
        8
 66
     8
 43
1.0
 76
     1
 77
     6
 78
     2
 67
     7
 79
     5
170
     0
171
     0
290
     0
174
     0
 93
       13
 44
0.0
173
     0
291
     0
 45
0.0
1001
ACAD
1000
AcDbSavedByObjectVersion
1070
     0
  0
VISUALSTYLE
  5
37
102
{ACAD_REACTORS
330
2A
102
}
330
2A
100
AcDbVisualStyle
  2
Thicken
 70
    13
 71
     2
 72
     2
 73
     0
 90
        0
 40
-0.6
 41
-30.0
 62
     5
 63
     7
 74
     1
 91
        4
 64
     7
 65
   257
 75
     1
175
     1
 42
1.0
 92
       12
 66
     7
 43
1.0
 76
     1
 77
     6
 78
     2
 67
     7
 79
     5
170
     0
171
     0
290
     0
174
     0
 93
        1
 44
0.0
173
     0
291
     1
 45
0.0
1001
ACAD
1000
AcDbSavedByObjectVersion
1070
     0
  0
DICTIONARYVAR
  5
359
102
{ACAD_REACTORS
330
358
102
}
330
358
100
DictionaryVariables
280
     0
  1
1:1
  0
DICTIONARYVAR
  5
35D
102
{ACAD_REACTORS
330
358
102
}
330
358
100
DictionaryVariables
280
     0
  1
80.000000
  0
DICTIONARYVAR
  5
35C
102
{ACAD_REACTORS
330
358
102
}
330
358
100
DictionaryVariables
280
     0
  1
5.000000
  0
ENDSEC
  0
EOF
