  0
SECTION
  2
HEADER
  9
$ACADVER
  1
AC1015
  9
$ACADMAINTVER
 70
     6
  9
$DWGCODEPAGE
  3
ANSI_1252
  9
$INSBASE
 10
0.0
 20
0.0
 30
0.0
  9
$EXTMIN
 10
0.0
 20
0.0
 30
0.0
  9
$EXTMAX
 10
1682.0
 20
2378.0
 30
0.0
  9
$LIMMIN
 10
0.0
 20
0.0
  9
$LIMMAX
 10
1682.0
 20
2378.0
  9
$ORTHOMODE
 70
     0
  9
$REGENMODE
 70
     1
  9
$FILLMODE
 70
     1
  9
$QTEXTMODE
 70
     0
  9
$MIRRTEXT
 70
     1
  9
$LTSCALE
 40
1.0
  9
$ATTMODE
 70
     1
  9
$TEXTSIZE
 40
2.5
  9
$TRACEWID
 40
1.0
  9
$TEXTSTYLE
  7
Standard
  9
$CLAYER
  8
0
  9
$CELTYPE
  6
ByLayer
  9
$CECOLOR
 62
   256
  9
$CELTSCALE
 40
1.0
  9
$DISPSILH
 70
     0
  9
$DIMSCALE
 40
1.0
  9
$DIMASZ
 40
2.5
  9
$DIMEXO
 40
0.625
  9
$DIMDLI
 40
3.75
  9
$DIMRND
 40
0.0
  9
$DIMDLE
 40
0.0
  9
$DIMEXE
 40
1.25
  9
$DIMTP
 40
0.0
  9
$DIMTM
 40
0.0
  9
$DIMTXT
 40
2.5
  9
$DIMCEN
 40
2.5
  9
$DIMTSZ
 40
0.0
  9
$DIMTOL
 70
     0
  9
$DIMLIM
 70
     0
  9
$DIMTIH
 70
     0
  9
$DIMTOH
 70
     0
  9
$DIMSE1
 70
     0
  9
$DIMSE2
 70
     0
  9
$DIMTAD
 70
     1
  9
$DIMZIN
 70
     8
  9
$DIMBLK
  1

  9
$DIMASO
 70
     1
  9
$DIMSHO
 70
     1
  9
$DIMPOST
  1

  9
$DIMAPOST
  1

  9
$DIMALT
 70
     0
  9
$DIMALTD
 70
     3
  9
$DIMALTF
 40
0.0393700787
  9
$DIMLFAC
 40
1.0
  9
$DIMTOFL
 70
     1
  9
$DIMTVP
 40
0.0
  9
$DIMTIX
 70
     0
  9
$DIMSOXD
 70
     0
  9
$DIMSAH
 70
     0
  9
$DIMBLK1
  1

  9
$DIMBLK2
  1

  9
$DIMSTYLE
  2
ISO-25
  9
$DIMCLRD
 70
     0
  9
$DIMCLRE
 70
     0
  9
$DIMCLRT
 70
     0
  9
$DIMTFAC
 40
1.0
  9
$DIMGAP
 40
0.625
  9
$DIMJUST
 70
     0
  9
$DIMSD1
 70
     0
  9
$DIMSD2
 70
     0
  9
$DIMTOLJ
 70
     0
  9
$DIMTZIN
 70
     8
  9
$DIMALTZ
 70
     0
  9
$DIMALTTZ
 70
     0
  9
$DIMUPT
 70
     0
  9
$DIMDEC
 70
     2
  9
$DIMTDEC
 70
     2
  9
$DIMALTU
 70
     2
  9
$DIMALTTD
 70
     3
  9
$DIMTXSTY
  7
Standard
  9
$DIMAUNIT
 70
     0
  9
$DIMADEC
 70
     0
  9
$DIMALTRND
 40
0.0
  9
$DIMAZIN
 70
     0
  9
$DIMDSEP
 70
    44
  9
$DIMATFIT
 70
     3
  9
$DIMFRAC
 70
     0
  9
$DIMLDRBLK
  1

  9
$DIMLUNIT
 70
     2
  9
$DIMLWD
 70
    -2
  9
$DIMLWE
 70
    -2
  9
$DIMTMOVE
 70
     0
  9
$LUNITS
 70
     2
  9
$LUPREC
 70
     4
  9
$SKETCHINC
 40
1.0
  9
$FILLETRAD
 40
10.0
  9
$AUNITS
 70
     0
  9
$AUPREC
 70
     0
  9
$MENU
  1
.
  9
$ELEVATION
 40
0.0
  9
$PELEVATION
 40
0.0
  9
$THICKNESS
 40
0.0
  9
$LIMCHECK
 70
     0
  9
$CHAMFERA
 40
10.0
  9
$CHAMFERB
 40
10.0
  9
$CHAMFERC
 40
20.0
  9
$CHAMFERD
 40
0.0
  9
$SKPOLY
 70
     0
  9
$TDCREATE
 40
2455546.456989954
  9
$TDUCREATE
 40
2455546.415323287
  9
$TDUPDATE
 40
2455546.456989965
  9
$TDUUPDATE
 40
2455546.415323298
  9
$TDINDWG
 40
0.0000000116
  9
$TDUSRTIMER
 40
0.0000000116
  9
$USRTIMER
 70
     1
  9
$ANGBASE
 50
0.0
  9
$ANGDIR
 70
     0
  9
$PDMODE
 70
     0
  9
$PDSIZE
 40
0.0
  9
$PLINEWID
 40
0.0
  9
$SPLFRAME
 70
     0
  9
$SPLINETYPE
 70
     6
  9
$SPLINESEGS
 70
     8
  9
$HANDSEED
  5
1B6
  9
$SURFTAB1
 70
     6
  9
$SURFTAB2
 70
     6
  9
$SURFTYPE
 70
     6
  9
$SURFU
 70
     6
  9
$SURFV
 70
     6
  9
$UCSBASE
  2

  9
$UCSNAME
  2

  9
$UCSORG
 10
0.0
 20
0.0
 30
0.0
  9
$UCSXDIR
 10
1.0
 20
0.0
 30
0.0
  9
$UCSYDIR
 10
0.0
 20
1.0
 30
0.0
  9
$UCSORTHOREF
  2

  9
$UCSORTHOVIEW
 70
     0
  9
$UCSORGTOP
 10
0.0
 20
0.0
 30
0.0
  9
$UCSORGBOTTOM
 10
0.0
 20
0.0
 30
0.0
  9
$UCSORGLEFT
 10
0.0
 20
0.0
 30
0.0
  9
$UCSORGRIGHT
 10
0.0
 20
0.0
 30
0.0
  9
$UCSORGFRONT
 10
0.0
 20
0.0
 30
0.0
  9
$UCSORGBACK
 10
0.0
 20
0.0
 30
0.0
  9
$PUCSBASE
  2

  9
$PUCSNAME
  2

  9
$PUCSORG
 10
0.0
 20
0.0
 30
0.0
  9
$PUCSXDIR
 10
1.0
 20
0.0
 30
0.0
  9
$PUCSYDIR
 10
0.0
 20
1.0
 30
0.0
  9
$PUCSORTHOREF
  2

  9
$PUCSORTHOVIEW
 70
     0
  9
$PUCSORGTOP
 10
0.0
 20
0.0
 30
0.0
  9
$PUCSORGBOTTOM
 10
0.0
 20
0.0
 30
0.0
  9
$PUCSORGLEFT
 10
0.0
 20
0.0
 30
0.0
  9
$PUCSORGRIGHT
 10
0.0
 20
0.0
 30
0.0
  9
$PUCSORGFRONT
 10
0.0
 20
0.0
 30
0.0
  9
$PUCSORGBACK
 10
0.0
 20
0.0
 30
0.0
  9
$USERI1
 70
     0
  9
$USERI2
 70
     0
  9
$USERI3
 70
     0
  9
$USERI4
 70
     0
  9
$USERI5
 70
     0
  9
$USERR1
 40
0.0
  9
$USERR2
 40
0.0
  9
$USERR3
 40
0.0
  9
$USERR4
 40
0.0
  9
$USERR5
 40
0.0
  9
$WORLDVIEW
 70
     1
  9
$SHADEDGE
 70
     3
  9
$SHADEDIF
 70
    70
  9
$TILEMODE
 70
     1
  9
$MAXACTVP
 70
    64
  9
$PINSBASE
 10
0.0
 20
0.0
 30
0.0
  9
$PLIMCHECK
 70
     0
  9
$PEXTMIN
 10
0.0
 20
0.0
 30
0.0
  9
$PEXTMAX
 10
1682.0
 20
2378.0
 30
0.0
  9
$PLIMMIN
 10
0.0
 20
0.0
  9
$PLIMMAX
 10
1682.0
 20
2378.0
  9
$UNITMODE
 70
     0
  9
$VISRETAIN
 70
     1
  9
$PLINEGEN
 70
     0
  9
$PSLTSCALE
 70
     1
  9
$TREEDEPTH
 70
  3020
  9
$CMLSTYLE
  2
Standard
  9
$CMLJUST
 70
     0
  9
$CMLSCALE
 40
20.0
  9
$PROXYGRAPHICS
 70
     1
  9
$MEASUREMENT
 70
     1
  9
$CELWEIGHT
370
    -1
  9
$ENDCAPS
280
     0
  9
$JOINSTYLE
280
     0
  9
$LWDISPLAY
290
     0
  9
$INSUNITS
 70
     4
  9
$HYPERLINKBASE
  1

  9
$STYLESHEET
  1

  9
$XEDIT
290
     1
  9
$CEPSNTYPE
380
     0
  9
$PSTYLEMODE
290
     1
  9
$FINGERPRINTGUID
  2
{A8DC19F9-1AB0-446A-84CB-65AA21023D6F}
  9
$VERSIONGUID
  2
{FAEB1C32-E019-11D5-929B-00C0DF256EC4}
  9
$EXTNAMES
290
     1
  9
$PSVPSCALE
 40
0.0
  9
$OLESTARTUP
290
     0
  0
ENDSEC
  0
SECTION
  2
CLASSES
  0
CLASS
  1
ACDBDICTIONARYWDFLT
  2
AcDbDictionaryWithDefault
  3
ObjectDBX Classes
 90
        0
280
     0
281
     0
  0
CLASS
  1
VISUALSTYLE
  2
AcDbVisualStyle
  3
ObjectDBX Classes
 90
     4095
280
     0
281
     0
  0
CLASS
  1
SCALE
  2
AcDbScale
  3
ObjectDBX Classes
 90
     1153
280
     0
281
     0
  0
CLASS
  1
DICTIONARYVAR
  2
AcDbDictionaryVar
  3
ObjectDBX Classes
 90
        0
280
     0
281
     0
  0
CLASS
  1
ACDBPLACEHOLDER
  2
AcDbPlaceHolder
  3
ObjectDBX Classes
 90
        0
280
     0
281
     0
  0
CLASS
  1
LAYOUT
  2
AcDbLayout
  3
ObjectDBX Classes
 90
        0
280
     0
281
     0
  0
ENDSEC
  0
SECTION
  2
TABLES
  0
TABLE
  2
VPORT
  5
8
330
0
100
AcDbSymbolTable
 70
     1
  0
VPORT
  5
29
330
8
100
AcDbSymbolTableRecord
100
AcDbViewportTableRecord
  2
*Active
 70
     0
 10
0.0
 20
0.0
 11
1.0
 21
1.0
 12
344.1869158879
 22
148.5
 13
0.0
 23
0.0
 14
10.0
 24
10.0
 15
10.0
 25
10.0
 16
0.0
 26
0.0
 36
1.0
 17
0.0
 27
0.0
 37
0.0
 40
297.0
 41
1.9729729729
 42
50.0
 43
0.0
 44
0.0
 50
0.0
 51
0.0
 71
     0
 72
   100
 73
     1
 74
     3
 75
     0
 76
     0
 77
     0
 78
     0
281
     0
 65
     1
110
0.0
120
0.0
130
0.0
111
1.0
121
0.0
131
0.0
112
0.0
122
1.0
132
0.0
 79
     0
146
0.0
  0
ENDTAB
  0
TABLE
  2
LTYPE
  5
5
330
0
100
AcDbSymbolTable
 70
     2
  0
LTYPE
  5
14
330
5
100
AcDbSymbolTableRecord
100
AcDbLinetypeTableRecord
  2
ByBlock
 70
     0
  3

 72
    65
 73
     0
 40
0.0
  0
LTYPE
  5
15
330
5
100
AcDbSymbolTableRecord
100
AcDbLinetypeTableRecord
  2
ByLayer
 70
     0
  3

 72
    65
 73
     0
 40
0.0
  0
LTYPE
  5
16
330
5
100
AcDbSymbolTableRecord
100
AcDbLinetypeTableRecord
  2
Continuous
 70
     0
  3
Solid line
 72
    65
 73
     0
 40
0.0
  0
LTYPE
  5
64
330
5
100
AcDbSymbolTableRecord
100
AcDbLinetypeTableRecord
  2
CENTER2
 70
     0
  3
Center (.5x) ___ _ ___ _ ___ _ ___ _ ___ _ ___
 72
    65
 73
     4
 40
28.575
 49
19.05
 74
     4
 75
     0
340
0
 46
0.0
 50
0.0
 44
0.0
 45
0.0
 49
-3.175
 74
     4
 75
     0
340
0
 46
0.0
 50
0.0
 44
0.0
 45
0.0
 49
3.175
 74
     4
 75
     0
340
0
 46
0.0
 50
0.0
 44
0.0
 45
0.0
 49
-3.175
 74
     4
 75
     0
340
0
 46
0.0
 50
0.0
 44
0.0
 45
0.0
  0
ENDTAB
  0
TABLE
  2
LAYER
  5
2
330
0
100
AcDbSymbolTable
 70
    10
  0
LAYER
  5
10
330
2
100
AcDbSymbolTableRecord
100
AcDbLayerTableRecord
  2
0
 70
     0
 62
     7
  6
Continuous
370
    -3
390
F
  0
LAYER
  5
5D
330
2
100
AcDbSymbolTableRecord
100
AcDbLayerTableRecord
  2
Default
 70
     0
 62
     7
  6
Continuous
370
    -3
390
F
  0
LAYER
  5
7B
330
2
100
AcDbSymbolTableRecord
100
AcDbLayerTableRecord
  2
14088200_LEVER_H
 70
     0
 62
     7
  6
Continuous
370
    -3
390
F
  0
LAYER
  5
8A
330
2
100
AcDbSymbolTableRecord
100
AcDbLayerTableRecord
  2
14088300_LEVER_H
 70
     0
 62
     7
  6
Continuous
370
    -3
390
F
  0
LAYER
  5
92
330
2
100
AcDbSymbolTableRecord
100
AcDbLayerTableRecord
  2
12088100_LEVER_H
 70
     0
 62
     7
  6
Continuous
370
    -3
390
F
  0
LAYER
  5
9C
330
2
100
AcDbSymbolTableRecord
100
AcDbLayerTableRecord
  2
14088500_LEVER_-
 70
     0
 62
     7
  6
Continuous
370
    -3
390
F
  0
LAYER
  5
AC
330
2
100
AcDbSymbolTableRecord
100
AcDbLayerTableRecord
  2
14087700_ESC_-_V
 70
     0
 62
     7
  6
Continuous
370
    -3
390
F
  0
LAYER
  5
D2
330
2
100
AcDbSymbolTableRecord
100
AcDbLayerTableRecord
  2
14089500_RING_-_
 70
     0
 62
     7
  6
Continuous
370
    -3
390
F
  0
LAYER
  5
D5
330
2
100
AcDbSymbolTableRecord
100
AcDbLayerTableRecord
  2
14088400_LEVER_H
 70
     0
 62
     7
  6
Continuous
370
    -3
390
F
  0
LAYER
  5
DB
330
2
100
AcDbSymbolTableRecord
100
AcDbLayerTableRecord
  2
T14080027__MP_VC
 70
     0
 62
     7
  6
Continuous
370
    -3
390
F
  0
ENDTAB
  0
TABLE
  2
STYLE
  5
3
330
0
100
AcDbSymbolTable
 70
     2
  0
STYLE
  5
11
330
3
100
AcDbSymbolTableRecord
100
AcDbTextStyleTableRecord
  2
Standard
 70
     0
 40
0.0
 41
1.0
 50
0.0
 71
     0
 42
2.5
  3
txt
  4

  0
STYLE
  5
1A5
330
3
100
AcDbSymbolTableRecord
100
AcDbTextStyleTableRecord
  2
SEACAD_seiso_ttf
 70
     0
 40
0.0
 41
1.0
 50
0.0
 71
     0
 42
0.2
  3
seiso.ttf
  4

  0
ENDTAB
  0
TABLE
  2
VIEW
  5
6
330
0
100
AcDbSymbolTable
 70
     0
  0
ENDTAB
  0
TABLE
  2
UCS
  5
7
330
0
100
AcDbSymbolTable
 70
     0
  0
ENDTAB
  0
TABLE
  2
APPID
  5
9
330
0
100
AcDbSymbolTable
 70
     1
  0
APPID
  5
12
330
9
100
AcDbSymbolTableRecord
100
AcDbRegAppTableRecord
  2
ACAD
 70
     0
  0
ENDTAB
  0
TABLE
  2
DIMSTYLE
  5
A
330
0
100
AcDbSymbolTable
 70
     1
100
AcDbDimStyleTable
  0
DIMSTYLE
105
27
330
A
100
AcDbSymbolTableRecord
100
AcDbDimStyleTableRecord
  2
ISO-25
 70
     0
 41
2.5
 42
0.625
 43
3.75
 44
1.25
 73
     0
 74
     0
 77
     1
 78
     8
140
2.5
141
2.5
143
0.0393700787
147
0.625
171
     3
172
     1
271
     2
272
     2
274
     3
278
    44
283
     0
284
     8
340
11
  0
ENDTAB
  0
TABLE
  2
BLOCK_RECORD
  5
1
330
0
100
AcDbSymbolTable
 70
     7
  0
BLOCK_RECORD
  5
1F
330
1
100
AcDbSymbolTableRecord
100
AcDbBlockTableRecord
  2
*Model_Space
340
22
  0
BLOCK_RECORD
  5
1B
330
1
100
AcDbSymbolTableRecord
100
AcDbBlockTableRecord
  2
*Paper_Space
340
1E
  0
BLOCK_RECORD
  5
62
330
1
100
AcDbSymbolTableRecord
100
AcDbBlockTableRecord
  2
SEANNOT_GROUP
340
0
102
{BLKREFS
331
63
102
}
  0
BLOCK_RECORD
  5
6D
330
1
100
AcDbSymbolTableRecord
100
AcDbBlockTableRecord
  2
SEANNOT_GROUP1
340
0
102
{BLKREFS
331
6E
102
}
  0
BLOCK_RECORD
  5
73
330
1
100
AcDbSymbolTableRecord
100
AcDbBlockTableRecord
  2
SEANNOT_GROUP2
340
0
102
{BLKREFS
331
74
102
}
  0
BLOCK_RECORD
  5
79
330
1
100
AcDbSymbolTableRecord
100
AcDbBlockTableRecord
  2
SE
340
0
102
{BLKREFS
331
7A
102
}
  0
BLOCK_RECORD
  5
D9
330
1
100
AcDbSymbolTableRecord
100
AcDbBlockTableRecord
  2
SE1
340
0
102
{BLKREFS
331
DA
102
}
  0
BLOCK_RECORD
  5
138
330
1
100
AcDbSymbolTableRecord
100
AcDbBlockTableRecord
  2
SE2
340
0
102
{BLKREFS
331
139
102
}
  0
ENDTAB
  0
ENDSEC
  0
SECTION
  2
BLOCKS
  0
BLOCK
  5
20
330
1F
100
AcDbEntity
  8
0
100
AcDbBlockBegin
  2
*Model_Space
 70
     0
 10
0.0
 20
0.0
 30
0.0
  3
*Model_Space
  1

  0
ENDBLK
  5
21
330
1F
100
AcDbEntity
  8
0
100
AcDbBlockEnd
  0
BLOCK
  5
1C
330
1B
100
AcDbEntity
 67
     1
  8
0
100
AcDbBlockBegin
  2
*Paper_Space
 70
     0
 10
0.0
 20
0.0
 30
0.0
  3
*Paper_Space
  1

  0
ENDBLK
  5
1D
330
1B
100
AcDbEntity
 67
     1
  8
0
100
AcDbBlockEnd
  0
BLOCK
  5
6B
330
62
100
AcDbEntity
  8
0
100
AcDbBlockBegin
  2
SEANNOT_GROUP
 70
     0
 10
0.0
 20
0.0
 30
0.0
  3
SEANNOT_GROUP
  1

  0
LINE
  5
65
330
62
100
AcDbEntity
  8
Default
  6
CENTER2
 62
     7
100
AcDbLine
 10
151.0179942597
 20
242.0468234605
 30
0.0
 11
111.0179951537
 21
242.0468234605
 31
0.0
  0
LINE
  5
66
330
62
100
AcDbEntity
  8
Default
  6
CENTER2
 62
     7
100
AcDbLine
 10
131.0179947067
 20
262.0468230134
 30
0.0
 11
131.0179947067
 21
222.0468239075
 31
0.0
  0
LINE
  5
67
330
62
100
AcDbEntity
  8
Default
  6
CENTER2
 62
     7
100
AcDbLine
 10
156.0179941479
 20
242.0468234605
 30
0.0
 11
144.5075472666
 21
242.0468234605
 31
0.0
  0
LINE
  5
68
330
62
100
AcDbEntity
  8
Default
  6
CENTER2
 62
     7
100
AcDbLine
 10
131.0179947067
 20
267.0468229017
 30
0.0
 11
131.0179947067
 21
255.5363760204
 31
0.0
  0
LINE
  5
69
330
62
100
AcDbEntity
  8
Default
  6
CENTER2
 62
     7
100
AcDbLine
 10
106.0179952655
 20
242.0468234605
 30
0.0
 11
117.5284421468
 21
242.0468234605
 31
0.0
  0
LINE
  5
6A
330
62
100
AcDbEntity
  8
Default
  6
CENTER2
 62
     7
100
AcDbLine
 10
131.0179947067
 20
217.0468240193
 30
0.0
 11
131.0179947067
 21
228.5572709005
 31
0.0
  0
ENDBLK
  5
6C
330
62
100
AcDbEntity
  8
0
100
AcDbBlockEnd
  0
BLOCK
  5
71
330
6D
100
AcDbEntity
  8
0
100
AcDbBlockBegin
  2
SEANNOT_GROUP1
 70
     0
 10
0.0
 20
0.0
 30
0.0
  3
SEANNOT_GROUP1
  1

  0
LINE
  5
6F
330
6D
100
AcDbEntity
  8
Default
  6
CENTER2
 62
     7
100
AcDbLine
 10
282.9225129191
 20
242.0468234605
 30
0.0
 11
242.9225138131
 21
242.0468234605
 31
0.0
  0
LINE
  5
70
330
6D
100
AcDbEntity
  8
Default
  6
CENTER2
 62
     7
100
AcDbLine
 10
262.9225133661
 20
262.0468230134
 30
0.0
 11
262.9225133661
 21
222.0468239075
 31
0.0
  0
ENDBLK
  5
72
330
6D
100
AcDbEntity
  8
0
100
AcDbBlockEnd
  0
BLOCK
  5
77
330
73
100
AcDbEntity
  8
0
100
AcDbBlockBegin
  2
SEANNOT_GROUP2
 70
     0
 10
0.0
 20
0.0
 30
0.0
  3
SEANNOT_GROUP2
  1

  0
LINE
  5
75
330
73
100
AcDbEntity
  8
Default
  6
CENTER2
 62
     7
100
AcDbLine
 10
151.0179942597
 20
163.5381326829
 30
0.0
 11
111.0179951537
 21
163.5381326829
 31
0.0
  0
LINE
  5
76
330
73
100
AcDbEntity
  8
Default
  6
CENTER2
 62
     7
100
AcDbLine
 10
131.0179947067
 20
183.5381322358
 30
0.0
 11
131.0179947067
 21
143.5381331299
 31
0.0
  0
ENDBLK
  5
78
330
73
100
AcDbEntity
  8
0
100
AcDbBlockEnd
  0
BLOCK
  5
D7
330
79
100
AcDbEntity
  8
0
100
AcDbBlockBegin
  2
SE
 70
     0
 10
0.0
 20
0.0
 30
0.0
  3
SE
  1

  0
LINE
  5
7C
330
79
100
AcDbEntity
  8
14088200_LEVER_H
  6
Continuous
 62
     7
100
AcDbLine
 10
139.6661829764
 20
237.0468234605
 30
0.0
 11
146.5190356173
 21
237.0468234605
 31
0.0
  0
LINE
  5
7D
330
79
100
AcDbEntity
  8
14088200_LEVER_H
  6
Continuous
 62
     7
100
AcDbLine
 10
146.5190356173
 20
247.0468234605
 30
0.0
 11
139.6661829764
 21
247.0468234605
 31
0.0
  0
ARC
  5
7E
330
79
100
AcDbEntity
  8
14088200_LEVER_H
  6
Continuous
 62
     7
100
AcDbCircle
 10
149.5257496351
 20
234.6942556834
 30
0.0
 40
0.4999999999999988
100
AcDbArc
 50
219.4376738989
 51
245.2407560264
  0
ARC
  5
7F
330
79
100
AcDbEntity
  8
14088200_LEVER_H
  6
Continuous
 62
     7
100
AcDbCircle
 10
149.5257496351
 20
249.3993912375
 30
0.0
 40
0.4999999999999866
100
AcDbArc
 50
114.7592439736
 51
140.5623261011
  0
ARC
  5
80
330
79
100
AcDbEntity
  8
14088200_LEVER_H
  6
Continuous
 62
     7
100
AcDbCircle
 10
153.7036512975
 20
240.3406662824
 30
0.0
 40
10.4757385748292
100
AcDbArc
 50
92.2146862203
 51
114.7592439737
  0
ARC
  5
81
330
79
100
AcDbEntity
  8
14088200_LEVER_H
  6
Continuous
 62
     7
100
AcDbCircle
 10
153.7036512975
 20
243.7529806386
 30
0.0
 40
10.47573857482923
100
AcDbArc
 50
245.2407560263
 51
267.7853137797
  0
ARC
  5
82
330
79
100
AcDbEntity
  8
14088200_LEVER_H
  6
Continuous
 62
     7
100
AcDbCircle
 10
159.6740626337
 20
241.0522918002
 30
0.0
 40
13.6401037185163
100
AcDbArc
 50
140.5623261011
 51
150.3294642965
  0
ARC
  5
83
330
79
100
AcDbEntity
  8
14088200_LEVER_H
  6
Continuous
 62
     7
100
AcDbCircle
 10
159.6740626337
 20
243.0413551207
 30
0.0
 40
13.6401037185163
100
AcDbArc
 50
209.6705357035
 51
219.4376738989
  0
LINE
  5
84
330
79
100
AcDbEntity
  8
14088200_LEVER_H
  6
Continuous
 62
     7
100
AcDbLine
 10
153.8181494134
 20
233.7845408338
 30
0.0
 11
153.8182064084
 21
233.9712034825
 31
0.0
  0
LINE
  5
85
330
79
100
AcDbEntity
  8
14088200_LEVER_H
  6
Continuous
 62
     7
100
AcDbLine
 10
153.8182064084
 20
250.1224434384
 30
0.0
 11
153.8181494134
 21
250.3091060871
 31
0.0
  0
ARC
  5
86
330
79
100
AcDbEntity
  8
14088200_LEVER_H
  6
Continuous
 62
     7
100
AcDbCircle
 10
153.3181494367
 20
233.7846935024
 30
0.0
 40
0.4999999999999994
100
AcDbArc
 50
267.7853137797
 51
359.9825054656
  0
ARC
  5
87
330
79
100
AcDbEntity
  8
14088200_LEVER_H
  6
Continuous
 62
     7
100
AcDbCircle
 10
153.3181494367
 20
250.3089534185
 30
0.0
 40
0.5000000000000028
100
AcDbArc
 50
0.0174945344
 51
92.2146862203
  0
ARC
  5
88
330
79
100
AcDbEntity
  8
14088200_LEVER_H
  6
Continuous
 62
     7
100
AcDbCircle
 10
146.5190356173
 20
248.5468234605
 30
0.0
 40
1.499999999999959
100
AcDbArc
 50
270.0
 51
330.3294642965
  0
ARC
  5
89
330
79
100
AcDbEntity
  8
14088200_LEVER_H
  6
Continuous
 62
     7
100
AcDbCircle
 10
146.5190356173
 20
235.5468234605
 30
0.0
 40
1.500000000000147
100
AcDbArc
 50
29.6705357035
 51
90.0
  0
ARC
  5
8B
330
79
100
AcDbEntity
  8
14088300_LEVER_H
  6
Continuous
 62
     7
100
AcDbCircle
 10
120.8652575677
 20
216.0387422598
 30
0.0
 40
21.00808120065041
100
AcDbArc
 50
90.0
 51
119.5009463347
  0
ARC
  5
8C
330
79
100
AcDbEntity
  8
14088300_LEVER_H
  6
Continuous
 62
     7
100
AcDbCircle
 10
120.8652575677
 20
268.0549046611
 30
0.0
 40
21.00808120065042
100
AcDbArc
 50
240.4990536653
 51
270.0
  0
LINE
  5
8D
330
79
100
AcDbEntity
  8
14088300_LEVER_H
  6
Continuous
 62
     7
100
AcDbLine
 10
120.8652575677
 20
237.0468234605
 30
0.0
 11
122.369806437
 21
237.0468234605
 31
0.0
  0
LINE
  5
8E
330
79
100
AcDbEntity
  8
14088300_LEVER_H
  6
Continuous
 62
     7
100
AcDbLine
 10
122.369806437
 20
247.0468234605
 30
0.0
 11
120.8652575677
 21
247.0468234605
 31
0.0
  0
ARC
  5
8F
330
79
100
AcDbEntity
  8
14088300_LEVER_H
  6
Continuous
 62
     7
100
AcDbCircle
 10
110.099496714
 20
235.0664268577
 30
0.0
 40
0.8540867594113135
100
AcDbArc
 50
184.9218299871
 51
299.5009463347
  0
ARC
  5
90
330
79
100
AcDbEntity
  8
14088300_LEVER_H
  6
Continuous
 62
     7
100
AcDbCircle
 10
110.099496714
 20
249.0272200633
 30
0.0
 40
0.8540867594113906
100
AcDbArc
 50
60.4990536653
 51
175.0781700129
  0
ARC
  5
91
330
79
100
AcDbEntity
  8
14088300_LEVER_H
  6
Continuous
 62
     7
100
AcDbCircle
 10
191.159391268
 20
242.0468234605
 30
0.0
 40
82.2139813133979
100
AcDbArc
 50
175.0781700129
 51
184.9218299871
  0
LINE
  5
93
330
79
100
AcDbEntity
  8
12088100_LEVER_H
  6
Continuous
 62
     7
100
AcDbLine
 10
222.9086469124
 20
230.4873332622
 30
0.0
 11
222.9086469124
 21
253.6063136588
 31
0.0
  0
ARC
  5
94
330
79
100
AcDbEntity
  8
12088100_LEVER_H
  6
Continuous
 62
     7
100
AcDbCircle
 10
223.4086469124
 20
253.6063136588
 30
0.0
 40
0.4999999999999962
100
AcDbArc
 50
82.6999461058
 51
180.0
  0
ARC
  5
95
330
79
100
AcDbEntity
  8
12088100_LEVER_H
  6
Continuous
 62
     7
100
AcDbCircle
 10
223.4086469124
 20
230.4873332622
 30
0.0
 40
0.5000000000000282
100
AcDbArc
 50
180.0
 51
277.3000538942
  0
ARC
  5
96
330
79
100
AcDbEntity
  8
12088100_LEVER_H
  6
Continuous
 62
     7
100
AcDbCircle
 10
221.3290191002
 20
246.7212468385
 30
0.0
 40
16.86657575182324
100
AcDbArc
 50
277.3000538942
 51
287.6350589698
  0
ARC
  5
97
330
79
100
AcDbEntity
  8
12088100_LEVER_H
  6
Continuous
 62
     7
100
AcDbCircle
 10
221.3290191002
 20
237.3724000824
 30
0.0
 40
16.86657575182329
100
AcDbArc
 50
72.3649410302
 51
82.6999461058
  0
ARC
  5
98
330
79
100
AcDbEntity
  8
12088100_LEVER_H
  6
Continuous
 62
     7
100
AcDbCircle
 10
226.2873237347
 20
252.9698363138
 30
0.0
 40
0.4999999999999703
100
AcDbArc
 50
29.5691520075
 51
72.3649410302
  0
ARC
  5
99
330
79
100
AcDbEntity
  8
12088100_LEVER_H
  6
Continuous
 62
     7
100
AcDbCircle
 10
226.2873237347
 20
231.1238106071
 30
0.0
 40
0.4999999999999465
100
AcDbArc
 50
287.6350589698
 51
330.4308479925
  0
ARC
  5
9A
330
79
100
AcDbEntity
  8
12088100_LEVER_H
  6
Continuous
 62
     7
100
AcDbCircle
 10
207.0352166198
 20
242.0468234605
 30
0.0
 40
22.63494608437429
100
AcDbArc
 50
330.4308479925
 51
360.0
  0
ARC
  5
9B
330
79
100
AcDbEntity
  8
12088100_LEVER_H
  6
Continuous
 62
     7
100
AcDbCircle
 10
207.0352166198
 20
242.0468234605
 30
0.0
 40
22.634946084374
100
AcDbArc
 50
0.0
 51
29.5691520075
  0
LINE
  5
9D
330
79
100
AcDbEntity
  8
14088500_LEVER_-
  6
Continuous
 62
     7
100
AcDbLine
 10
221.4882510166
 20
228.6800457735
 30
0.0
 11
221.8601543576
 21
228.6546919473
 31
0.0
  0
LINE
  5
9E
330
79
100
AcDbEntity
  8
14088500_LEVER_-
  6
Continuous
 62
     7
100
AcDbLine
 10
221.4882510166
 20
228.6800457735
 30
0.0
 11
154.2841987631
 21
233.2615584273
 31
0.0
  0
LINE
  5
9F
330
79
100
AcDbEntity
  8
14088500_LEVER_-
  6
Continuous
 62
     7
100
AcDbLine
 10
153.8182064084
 20
248.1129060317
 30
0.0
 11
153.8182064084
 21
250.3332463542
 31
0.0
  0
LINE
  5
A0
330
79
100
AcDbEntity
  8
14088500_LEVER_-
  6
Continuous
 62
     7
100
AcDbLine
 10
153.8182064084
 20
244.267163783
 30
0.0
 11
153.8182064084
 21
248.1129060317
 31
0.0
  0
LINE
  5
A1
330
79
100
AcDbEntity
  8
14088500_LEVER_-
  6
Continuous
 62
     7
100
AcDbLine
 10
153.8182064084
 20
239.826483138
 30
0.0
 11
153.8182064084
 21
244.267163783
 31
0.0
  0
LINE
  5
A2
330
79
100
AcDbEntity
  8
14088500_LEVER_-
  6
Continuous
 62
     7
100
AcDbLine
 10
153.8182064084
 20
235.9807408893
 30
0.0
 11
153.8182064084
 21
239.826483138
 31
0.0
  0
LINE
  5
A3
330
79
100
AcDbEntity
  8
14088500_LEVER_-
  6
Continuous
 62
     7
100
AcDbLine
 10
153.8182064084
 20
233.7604005668
 30
0.0
 11
153.8182064084
 21
235.9807408893
 31
0.0
  0
LINE
  5
A4
330
79
100
AcDbEntity
  8
14088500_LEVER_-
  6
Continuous
 62
     7
100
AcDbLine
 10
221.8601543576
 20
255.4389549736
 30
0.0
 11
221.4882510166
 21
255.4136011474
 31
0.0
  0
LINE
  5
A5
330
79
100
AcDbEntity
  8
14088500_LEVER_-
  6
Continuous
 62
     7
100
AcDbLine
 10
154.2841987631
 20
250.8320884936
 30
0.0
 11
221.4882510166
 21
255.4136011474
 31
0.0
  0
ARC
  5
A6
330
79
100
AcDbEntity
  8
14088500_LEVER_-
  6
Continuous
 62
     7
100
AcDbCircle
 10
154.3182064084
 20
250.3332463542
 30
0.0
 40
0.5000000000000001
100
AcDbArc
 50
93.9000000001
 51
180.0
  0
ARC
  5
A7
330
79
100
AcDbEntity
  8
14088500_LEVER_-
  6
Continuous
 62
     7
100
AcDbCircle
 10
154.3182064084
 20
233.7604005668
 30
0.0
 40
0.5000000000000004
100
AcDbArc
 50
180.0
 51
266.0999999999
  0
ARC
  5
A8
330
79
100
AcDbEntity
  8
14088500_LEVER_-
  6
Continuous
 62
     7
100
AcDbCircle
 10
219.5906577919
 20
253.316866859
 30
0.0
 40
3.317989120529316
100
AcDbArc
 50
0.0
 51
35.257822074
  0
ARC
  5
A9
330
79
100
AcDbEntity
  8
14088500_LEVER_-
  6
Continuous
 62
     7
100
AcDbCircle
 10
219.5906577919
 20
230.7767800619
 30
0.0
 40
3.317989120529305
100
AcDbArc
 50
324.7327881563
 51
360.0
  0
ARC
  5
AA
330
79
100
AcDbEntity
  8
14088500_LEVER_-
  6
Continuous
 62
     7
100
AcDbCircle
 10
221.8939071371
 20
254.9401025309
 30
0.0
 40
0.499992944674314
100
AcDbArc
 50
35.7761521606
 51
93.8142030966
  0
ARC
  5
AB
330
79
100
AcDbEntity
  8
14088500_LEVER_-
  6
Continuous
 62
     7
100
AcDbCircle
 10
221.893907285
 20
229.1535443929
 30
0.0
 40
0.4999914706002148
100
AcDbArc
 50
266.1857382871
 51
324.2683577764
  0
ARC
  5
AD
330
79
100
AcDbEntity
  8
14087700_ESC_-_V
  6
Continuous
 62
     7
100
AcDbCircle
 10
127.7415977335
 20
236.3719374371
 30
0.0
 40
45.43402028646643
100
AcDbArc
 50
47.1392676214
 51
48.5092503076
  0
ARC
  5
AE
330
79
100
AcDbEntity
  8
14087700_ESC_-_V
  6
Continuous
 62
     7
100
AcDbCircle
 10
127.7415977335
 20
236.3719374371
 30
0.0
 40
45.43402028646643
100
AcDbArc
 50
71.3500412933
 51
72.8607323786
  0
ARC
  5
AF
330
79
100
AcDbEntity
  8
14087700_ESC_-_V
  6
Continuous
 62
     7
100
AcDbCircle
 10
131.0179947067
 20
235.4940295141
 30
0.0
 40
45.43402028646749
100
AcDbArc
 50
77.1392676214
 51
78.5092503077
  0
ARC
  5
B0
330
79
100
AcDbEntity
  8
14087700_ESC_-_V
  6
Continuous
 62
     7
100
AcDbCircle
 10
131.0179947067
 20
235.4940295141
 30
0.0
 40
45.43402028646749
100
AcDbArc
 50
101.3500412914
 51
102.8607323786
  0
ARC
  5
B1
330
79
100
AcDbEntity
  8
14087700_ESC_-_V
  6
Continuous
 62
     7
100
AcDbCircle
 10
125.3431086834
 20
238.7704264873
 30
0.0
 40
45.43402028647598
100
AcDbArc
 50
17.1392676214
 51
18.5216940604
  0
ARC
  5
B2
330
79
100
AcDbEntity
  8
14087700_ESC_-_V
  6
Continuous
 62
     7
100
AcDbCircle
 10
125.3431086834
 20
238.7704264873
 30
0.0
 40
45.43402028647598
100
AcDbArc
 50
41.3366297611
 51
42.8607323786
  0
ARC
  5
B3
330
79
100
AcDbEntity
  8
14087700_ESC_-_V
  6
Continuous
 62
     7
100
AcDbCircle
 10
134.3504971226
 20
236.2747599598
 30
0.0
 40
45.54342309468335
100
AcDbArc
 50
107.1706887686
 51
108.5100699161
  0
ARC
  5
B4
330
79
100
AcDbEntity
  8
14087700_ESC_-_V
  6
Continuous
 62
     7
100
AcDbCircle
 10
134.3504971226
 20
236.2747599598
 30
0.0
 40
45.54342309468335
100
AcDbArc
 50
130.2093752891
 51
132.8293112314
  0
ARC
  5
B5
330
79
100
AcDbEntity
  8
14087700_ESC_-_V
  6
Continuous
 62
     7
100
AcDbCircle
 10
136.6928807301
 20
238.7704264873
 30
0.0
 40
45.43402028645665
100
AcDbArc
 50
137.1392676214
 51
138.5092503075
  0
ARC
  5
B6
330
79
100
AcDbEntity
  8
14087700_ESC_-_V
  6
Continuous
 62
     7
100
AcDbCircle
 10
136.6928807301
 20
238.7704264873
 30
0.0
 40
45.43402028645665
100
AcDbArc
 50
161.3500412919
 51
162.8607323786
  0
ARC
  5
B7
330
79
100
AcDbEntity
  8
14087700_ESC_-_V
  6
Continuous
 62
     7
100
AcDbCircle
 10
125.3431086818
 20
245.3232204345
 30
0.0
 40
45.43402028817855
100
AcDbArc
 50
317.1392676219
 51
318.5216940602
  0
ARC
  5
B8
330
79
100
AcDbEntity
  8
14087700_ESC_-_V
  6
Continuous
 62
     7
100
AcDbCircle
 10
125.3431086818
 20
245.3232204345
 30
0.0
 40
45.43402028817855
100
AcDbArc
 50
341.3366297612
 51
342.8607323781
  0
ARC
  5
B9
330
79
100
AcDbEntity
  8
14087700_ESC_-_V
  6
Continuous
 62
     7
100
AcDbCircle
 10
137.5707886549
 20
242.0468234605
 30
0.0
 40
45.43402028818976
100
AcDbArc
 50
167.1392676219
 51
168.5092503071
  0
ARC
  5
BA
330
79
100
AcDbEntity
  8
14087700_ESC_-_V
  6
Continuous
 62
     7
100
AcDbCircle
 10
137.5707886549
 20
242.0468234605
 30
0.0
 40
45.43402028818976
100
AcDbArc
 50
191.3500412926
 51
192.8607323781
  0
ARC
  5
BB
330
79
100
AcDbEntity
  8
14087700_ESC_-_V
  6
Continuous
 62
     7
100
AcDbCircle
 10
127.7415977326
 20
247.7217094854
 30
0.0
 40
45.43402028820149
100
AcDbArc
 50
287.1392676219
 51
288.5216940608
  0
ARC
  5
BC
330
79
100
AcDbEntity
  8
14087700_ESC_-_V
  6
Continuous
 62
     7
100
AcDbCircle
 10
127.7415977326
 20
247.7217094854
 30
0.0
 40
45.43402028820149
100
AcDbArc
 50
311.3366297616
 51
312.8607323781
  0
ARC
  5
BD
330
79
100
AcDbEntity
  8
14087700_ESC_-_V
  6
Continuous
 62
     7
100
AcDbCircle
 10
136.7900582123
 20
245.3793258792
 30
0.0
 40
45.54342310013441
100
AcDbArc
 50
197.1706887702
 51
198.510069919
  0
ARC
  5
BE
330
79
100
AcDbEntity
  8
14087700_ESC_-_V
  6
Continuous
 62
     7
100
AcDbCircle
 10
136.7900582123
 20
245.3793258792
 30
0.0
 40
45.54342310013441
100
AcDbArc
 50
220.2093752868
 51
222.8293112298
  0
ARC
  5
BF
330
79
100
AcDbEntity
  8
14087700_ESC_-_V
  6
Continuous
 62
     7
100
AcDbCircle
 10
131.0179947067
 20
248.5996174087
 30
0.0
 40
45.43402028820186
100
AcDbArc
 50
257.1392676219
 51
258.5216940608
  0
ARC
  5
C0
330
79
100
AcDbEntity
  8
14087700_ESC_-_V
  6
Continuous
 62
     7
100
AcDbCircle
 10
131.0179947067
 20
248.5996174087
 30
0.0
 40
45.43402028820186
100
AcDbArc
 50
281.336629761
 51
282.8607323781
  0
ARC
  5
C1
330
79
100
AcDbEntity
  8
14087700_ESC_-_V
  6
Continuous
 62
     7
100
AcDbCircle
 10
134.2943916808
 20
247.7217094853
 30
0.0
 40
45.43402028817254
100
AcDbArc
 50
227.1392676219
 51
228.5216940607
  0
ARC
  5
C2
330
79
100
AcDbEntity
  8
14087700_ESC_-_V
  6
Continuous
 62
     7
100
AcDbCircle
 10
134.2943916808
 20
247.7217094853
 30
0.0
 40
45.43402028817254
100
AcDbArc
 50
251.3366297607
 51
252.8607323781
  0
ARC
  5
C3
330
79
100
AcDbEntity
  8
14087700_ESC_-_V
  6
Continuous
 62
     7
100
AcDbCircle
 10
131.0179947067
 20
242.0468234604
 30
0.0
 40
17.34649018775705
100
AcDbArc
 50
18.0497351871
 51
160.041823777
  0
ARC
  5
C4
330
79
100
AcDbEntity
  8
14087700_ESC_-_V
  6
Continuous
 62
     7
100
AcDbCircle
 10
131.0179947067
 20
242.0468234604
 30
0.0
 40
17.34649018775705
100
AcDbArc
 50
199.9581762228
 51
341.950264813
  0
ARC
  5
C5
330
79
100
AcDbEntity
  8
14087700_ESC_-_V
  6
Continuous
 62
     7
100
AcDbCircle
 10
127.7813516923
 20
236.4405025135
 30
0.0
 40
45.34815317237796
100
AcDbArc
 50
47.1570873918
 51
72.8432443766
  0
ARC
  5
C6
330
79
100
AcDbEntity
  8
14087700_ESC_-_V
  6
Continuous
 62
     7
100
AcDbCircle
 10
131.0181407572
 20
235.5732775445
 30
0.0
 40
45.34816116262416
100
AcDbArc
 50
77.1571538672
 51
102.8432429179
  0
ARC
  5
C7
330
79
100
AcDbEntity
  8
14087700_ESC_-_V
  6
Continuous
 62
     7
100
AcDbCircle
 10
125.4128894694
 20
238.8105467558
 30
0.0
 40
45.34686533730714
100
AcDbArc
 50
17.1569419319
 51
42.8433890641
  0
ARC
  5
C8
330
79
100
AcDbEntity
  8
14087700_ESC_-_V
  6
Continuous
 62
     7
100
AcDbCircle
 10
134.2681157831
 20
236.4048857312
 30
0.0
 40
45.38623959618017
100
AcDbArc
 50
107.1597787953
 51
132.8261517833
  0
ARC
  5
C9
330
79
100
AcDbEntity
  8
14087700_ESC_-_V
  6
Continuous
 62
     7
100
AcDbCircle
 10
124.545692828
 20
242.0466782391
 30
0.0
 40
45.34686533730678
100
AcDbArc
 50
347.1569419319
 51
347.5485676381
  0
ARC
  5
CA
330
79
100
AcDbEntity
  8
14087700_ESC_-_V
  6
Continuous
 62
     7
100
AcDbCircle
 10
124.545692828
 20
242.0466782391
 30
0.0
 40
45.34686533730678
100
AcDbArc
 50
12.4519008376
 51
12.8433890641
  0
ARC
  5
CB
330
79
100
AcDbEntity
  8
14087700_ESC_-_V
  6
Continuous
 62
     7
100
AcDbCircle
 10
136.6243229478
 20
238.8101769859
 30
0.0
 40
45.34816116262695
100
AcDbArc
 50
137.1571538672
 51
162.8432429179
  0
ARC
  5
CC
330
79
100
AcDbEntity
  8
14087700_ESC_-_V
  6
Continuous
 62
     7
100
AcDbCircle
 10
125.4127442481
 20
245.2828486345
 30
0.0
 40
45.34686533731523
100
AcDbArc
 50
317.1569419319
 51
342.8433890641
  0
ARC
  5
CD
330
79
100
AcDbEntity
  8
14087700_ESC_-_V
  6
Continuous
 62
     7
100
AcDbCircle
 10
137.4915406227
 20
242.0469695109
 30
0.0
 40
45.3481611626292
100
AcDbArc
 50
167.1571538672
 51
192.8432429179
  0
ARC
  5
CE
330
79
100
AcDbEntity
  8
14087700_ESC_-_V
  6
Continuous
 62
     7
100
AcDbCircle
 10
127.781718002
 20
247.6519286977
 30
0.0
 40
45.34686533731012
100
AcDbArc
 50
287.1569419319
 51
312.8433890641
  0
ARC
  5
CF
330
79
100
AcDbEntity
  8
14087700_ESC_-_V
  6
Continuous
 62
     7
100
AcDbCircle
 10
136.6599324359
 20
245.2969445369
 30
0.0
 40
45.38623959613036
100
AcDbArc
 50
197.1597787953
 51
222.8261517833
  0
ARC
  5
D0
330
79
100
AcDbEntity
  8
14087700_ESC_-_V
  6
Continuous
 62
     7
100
AcDbCircle
 10
131.0178494854
 20
248.5191253392
 30
0.0
 40
45.34686533731566
100
AcDbArc
 50
257.1569419319
 51
282.8433890641
  0
ARC
  5
D1
330
79
100
AcDbEntity
  8
14087700_ESC_-_V
  6
Continuous
 62
     7
100
AcDbCircle
 10
134.2540233595
 20
247.6520812528
 30
0.0
 40
45.34687337093853
100
AcDbArc
 50
227.157008763
 51
252.8433875975
  0
ARC
  5
D3
330
79
100
AcDbEntity
  8
14089500_RING_-_
  6
Continuous
 62
     7
100
AcDbCircle
 10
131.0179947067
 20
242.0468234605
 30
0.0
 40
14.3964603006904
100
AcDbArc
 50
20.3227237337
 51
158.5993435285
  0
ARC
  5
D4
330
79
100
AcDbEntity
  8
14089500_RING_-_
  6
Continuous
 62
     7
100
AcDbCircle
 10
131.0179947067
 20
242.0468234605
 30
0.0
 40
14.3964603006904
100
AcDbArc
 50
201.4006564715
 51
339.6772762663
  0
CIRCLE
  5
D6
330
79
100
AcDbEntity
  8
14088400_LEVER_H
  6
Continuous
 62
     7
100
AcDbCircle
 10
131.0179947067
 20
242.0468234605
 30
0.0
 40
9.98955255993718
  0
ENDBLK
  5
D8
330
79
100
AcDbEntity
  8
0
100
AcDbBlockEnd
  0
BLOCK
  5
136
330
D9
100
AcDbEntity
  8
0
100
AcDbBlockBegin
  2
SE1
 70
     0
 10
0.0
 20
0.0
 30
0.0
  3
SE1
  1

  0
ARC
  5
DC
330
D9
100
AcDbEntity
  8
T14080027__MP_VC
  6
Continuous
 62
     7
100
AcDbCircle
 10
304.4225133661
 20
229.5468234605
 30
0.0
 40
0.5000000000000004
100
AcDbArc
 50
270.0
 51
0.0
  0
ARC
  5
DD
330
D9
100
AcDbEntity
  8
T14080027__MP_VC
  6
Continuous
 62
     7
100
AcDbCircle
 10
304.4225133661
 20
254.5468234605
 30
0.0
 40
0.5000000000000004
100
AcDbArc
 50
0.0
 51
90.0
  0
ARC
  5
DE
330
D9
100
AcDbEntity
  8
14088200_LEVER_H
  6
Continuous
 62
     7
100
AcDbCircle
 10
347.9497610446
 20
242.0468234605
 30
0.0
 40
8.762129958045099
100
AcDbArc
 50
83.4467870095
 51
100.6580534257
  0
ARC
  5
DF
330
D9
100
AcDbEntity
  8
14088200_LEVER_H
  6
Continuous
 62
     7
100
AcDbCircle
 10
347.9497610446
 20
242.0468234605
 30
0.0
 40
8.762129958045099
100
AcDbArc
 50
259.3419465744
 51
276.5532129905
  0
CIRCLE
  5
E0
330
D9
100
AcDbEntity
  8
14088300_LEVER_H
  6
Continuous
 62
     7
100
AcDbCircle
 10
347.9497610446
 20
242.0468234605
 30
0.0
 40
7.834483362212076
  0
ARC
  5
E1
330
D9
100
AcDbEntity
  8
14088500_LEVER_-
  6
Continuous
 62
     7
100
AcDbCircle
 10
347.9497610446
 20
458.6245559343
 30
0.0
 40
229.9703592476895
100
AcDbArc
 50
269.1409303613
 51
270.8590696387
  0
ARC
  5
E2
330
D9
100
AcDbEntity
  8
14088500_LEVER_-
  6
Continuous
 62
     7
100
AcDbCircle
 10
239.6608948077
 20
429.6086416767
 30
0.0
 40
229.970359247588
100
AcDbArc
 50
299.1409303613
 51
300.8590696387
  0
ARC
  5
E3
330
D9
100
AcDbEntity
  8
14088500_LEVER_-
  6
Continuous
 62
     7
100
AcDbCircle
 10
160.3879428282
 20
350.3356896974
 30
0.0
 40
229.9703592477134
100
AcDbArc
 50
329.1409303613
 51
330.8590696387
  0
ARC
  5
E4
330
D9
100
AcDbEntity
  8
14088500_LEVER_-
  6
Continuous
 62
     7
100
AcDbCircle
 10
456.2386272815
 20
429.6086416768
 30
0.0
 40
229.9703592477454
100
AcDbArc
 50
239.1409303613
 51
240.8590696387
  0
ARC
  5
E5
330
D9
100
AcDbEntity
  8
14088500_LEVER_-
  6
Continuous
 62
     7
100
AcDbCircle
 10
131.3720285708
 20
242.0468234605
 30
0.0
 40
229.9703592476604
100
AcDbArc
 50
359.1409303613
 51
0.8590696387
  0
ARC
  5
E6
330
D9
100
AcDbEntity
  8
14088500_LEVER_-
  6
Continuous
 62
     7
100
AcDbCircle
 10
535.511579261
 20
350.3356896974
 30
0.0
 40
229.970359247759
100
AcDbArc
 50
209.7999074462
 51
210.8590696387
  0
ARC
  5
E7
330
D9
100
AcDbEntity
  8
14088500_LEVER_-
  6
Continuous
 62
     7
100
AcDbCircle
 10
160.3879428283
 20
133.7579572236
 30
0.0
 40
229.9703592476835
100
AcDbArc
 50
29.1409303613
 51
30.8590696387
  0
ARC
  5
E8
330
D9
100
AcDbEntity
  8
14088500_LEVER_-
  6
Continuous
 62
     7
100
AcDbCircle
 10
239.6608948076
 20
54.485005244
 30
0.0
 40
229.9703592477995
100
AcDbArc
 50
59.1409303613
 51
60.8590696387
  0
ARC
  5
E9
330
D9
100
AcDbEntity
  8
14088500_LEVER_-
  6
Continuous
 62
     7
100
AcDbCircle
 10
535.511579261
 20
133.7579572235
 30
0.0
 40
229.9703592478043
100
AcDbArc
 50
149.1409303613
 51
150.2000873443
  0
ARC
  5
EA
330
D9
100
AcDbEntity
  8
14088500_LEVER_-
  6
Continuous
 62
     7
100
AcDbCircle
 10
347.9497610446
 20
25.4690909866
 30
0.0
 40
229.9703592477243
100
AcDbArc
 50
89.1409303613
 51
90.8590696387
  0
ARC
  5
EB
330
D9
100
AcDbEntity
  8
14088500_LEVER_-
  6
Continuous
 62
     7
100
AcDbCircle
 10
456.2386272815
 20
54.4850052442
 30
0.0
 40
229.9703592476665
100
AcDbArc
 50
119.1409303613
 51
120.8590696387
  0
ELLIPSE
  5
EC
330
D9
100
AcDbEntity
  8
14088500_LEVER_-
  6
Continuous
 62
     7
100
AcDbEllipse
 10
344.5018081064
 20
254.914759008
 30
0.0
 11
0.00875735054747806
 21
-0.4999233029289382
 31
0.0
210
0.0
220
0.0
230
1.0
 40
0.248833945
 41
3.071310699236497
 42
3.141592653589793
  0
ELLIPSE
  5
ED
330
D9
100
AcDbEntity
  8
14088500_LEVER_-
  6
Continuous
 62
     7
100
AcDbEllipse
 10
344.5018081064
 20
254.914759008
 30
0.0
 11
0.2423775634205066
 21
-0.4373249555539999
 31
0.0
210
0.0
220
0.0
230
1.0
 40
0.248833945
 41
3.141592653589793
 42
3.211874607941667
  0
ELLIPSE
  5
EE
330
D9
100
AcDbEntity
  8
14088500_LEVER_-
  6
Continuous
 62
     7
100
AcDbEllipse
 10
351.3977139828
 20
254.914759008
 30
0.0
 11
-0.008757350547408671
 21
-0.4999233029289417
 31
0.0
210
0.0
220
0.0
230
1.0
 40
0.248833945
 41
3.141592653589793
 42
3.211874607943148
  0
ELLIPSE
  5
EF
330
D9
100
AcDbEntity
  8
14088500_LEVER_-
  6
Continuous
 62
     7
100
AcDbEllipse
 10
338.5297784353
 20
251.4668060698
 30
0.0
 11
0.2575457395084524
 21
-0.4285676050065756
 31
0.0
210
0.0
220
0.0
230
1.0
 40
0.248833945
 41
3.071310699236137
 42
3.141592653589905
  0
ELLIPSE
  5
F0
330
D9
100
AcDbEntity
  8
14088500_LEVER_-
  6
Continuous
 62
     7
100
AcDbEllipse
 10
351.3977139828
 20
254.914759008
 30
0.0
 11
-0.2423775634205899
 21
-0.4373249555540172
 31
0.0
210
0.0
220
0.0
230
1.0
 40
0.248833945
 41
3.071310699238729
 42
3.141592653589793
  0
ELLIPSE
  5
F1
330
D9
100
AcDbEntity
  8
14088500_LEVER_-
  6
Continuous
 62
     7
100
AcDbEllipse
 10
338.5297784353
 20
251.4668060698
 30
0.0
 11
0.4285676050065496
 21
-0.2575457395084038
 31
0.0
210
0.0
220
0.0
230
1.0
 40
0.248833945
 41
3.141592653589611
 42
3.211874607942087
  0
ELLIPSE
  5
F2
330
D9
100
AcDbEntity
  8
14088500_LEVER_-
  6
Continuous
 62
     7
100
AcDbEllipse
 10
357.3697436539
 20
251.4668060698
 30
0.0
 11
-0.2575457395083969
 21
-0.4285676050066068
 31
0.0
210
0.0
220
0.0
230
1.0
 40
0.248833945
 41
3.141592653589793
 42
3.211874607942536
  0
ELLIPSE
  5
F3
330
D9
100
AcDbEntity
  8
14088500_LEVER_-
  6
Continuous
 62
     7
100
AcDbEllipse
 10
357.3697436539
 20
251.4668060698
 30
0.0
 11
-0.4285676050065773
 21
-0.2575457395083917
 31
0.0
210
0.0
220
0.0
230
1.0
 40
0.248833945
 41
3.07131069923687
 42
3.141592653589352
  0
ELLIPSE
  5
F4
330
D9
100
AcDbEntity
  8
14088500_LEVER_-
  6
Continuous
 62
     7
100
AcDbEllipse
 10
360.8176965921
 20
245.4947763987
 30
0.0
 11
-0.4373249555539999
 21
-0.2423775634205778
 31
0.0
210
0.0
220
0.0
230
1.0
 40
0.248833945
 41
3.14159265358976
 42
3.211874607942457
  0
ELLIPSE
  5
F5
330
D9
100
AcDbEntity
  8
14088500_LEVER_-
  6
Continuous
 62
     7
100
AcDbEllipse
 10
360.8176965921
 20
245.4947763987
 30
0.0
 11
-0.4999233029289174
 21
-0.008757350547430789
 31
0.0
210
0.0
220
0.0
230
0.9999999999999998
 40
0.248833945
 41
3.071310699237973
 42
3.141592653589757
  0
ELLIPSE
  5
F6
330
D9
100
AcDbEntity
  8
14088500_LEVER_-
  6
Continuous
 62
     7
100
AcDbEllipse
 10
360.8176965921
 20
238.5988705223
 30
0.0
 11
-0.4999233029290007
 21
0.008757350547409105
 31
0.0
210
0.0
220
0.0
230
1.0
 40
0.248833945
 41
3.14159265358966
 42
3.211874607942405
  0
ELLIPSE
  5
F7
330
D9
100
AcDbEntity
  8
14088500_LEVER_-
  6
Continuous
 62
     7
100
AcDbEllipse
 10
338.5297784353
 20
232.6268408512
 30
0.0
 11
0.4285676050066051
 21
0.2575457395083986
 31
0.0
210
0.0
220
0.0
230
1.0
 40
0.248833945
 41
3.071310699236653
 42
3.14159265358981
  0
ELLIPSE
  5
F8
330
D9
100
AcDbEntity
  8
14088500_LEVER_-
  6
Continuous
 62
     7
100
AcDbEllipse
 10
360.8176965921
 20
238.5988705223
 30
0.0
 11
-0.437324955553986
 21
0.2423775634205561
 31
0.0
210
0.0
220
0.0
230
1.0
 40
0.248833945
 41
3.071310699239418
 42
3.141592653589729
  0
ELLIPSE
  5
F9
330
D9
100
AcDbEntity
  8
14088500_LEVER_-
  6
Continuous
 62
     7
100
AcDbEllipse
 10
338.5297784353
 20
232.6268408512
 30
0.0
 11
0.2575457395084108
 21
0.4285676050065929
 31
0.0
210
0.0
220
0.0
230
1.0
 40
0.248833945
 41
3.141592653589793
 42
3.211874607942408
  0
ELLIPSE
  5
FA
330
D9
100
AcDbEntity
  8
14088500_LEVER_-
  6
Continuous
 62
     7
100
AcDbEllipse
 10
357.3697436539
 20
232.6268408512
 30
0.0
 11
-0.4285676050066883
 21
0.2575457395083605
 31
0.0
210
0.0
220
0.0
230
0.9999999999999998
 40
0.248833945
 41
3.141592653589835
 42
3.211874607942696
  0
ELLIPSE
  5
FB
330
D9
100
AcDbEntity
  8
14088500_LEVER_-
  6
Continuous
 62
     7
100
AcDbEllipse
 10
344.5018081064
 20
229.178887913
 30
0.0
 11
0.2423775634206454
 21
0.4373249555540171
 31
0.0
210
0.0
220
0.0
230
1.0
 40
0.248833945
 41
3.071310699237362
 42
3.141592653589946
  0
ELLIPSE
  5
FC
330
D9
100
AcDbEntity
  8
14088500_LEVER_-
  6
Continuous
 62
     7
100
AcDbEllipse
 10
357.3697436539
 20
232.6268408512
 30
0.0
 11
-0.2575457395084108
 21
0.4285676050065912
 31
0.0
210
0.0
220
0.0
230
1.0
 40
0.248833945
 41
3.071310699236524
 42
3.141592653589793
  0
ELLIPSE
  5
FD
330
D9
100
AcDbEntity
  8
14088500_LEVER_-
  6
Continuous
 62
     7
100
AcDbEllipse
 10
344.5018081064
 20
229.178887913
 30
0.0
 11
0.008757350547408671
 21
0.4999233029289399
 31
0.0
210
0.0
220
0.0
230
1.0
 40
0.248833945
 41
3.141592653589877
 42
3.211874607941422
  0
ELLIPSE
  5
FE
330
D9
100
AcDbEntity
  8
14088500_LEVER_-
  6
Continuous
 62
     7
100
AcDbEllipse
 10
351.3977139828
 20
229.178887913
 30
0.0
 11
-0.2423775634206038
 21
0.4373249555539825
 31
0.0
210
0.0
220
0.0
230
1.0
 40
0.248833945
 41
3.141592653589509
 42
3.211874607940952
  0
ELLIPSE
  5
FF
330
D9
100
AcDbEntity
  8
14088500_LEVER_-
  6
Continuous
 62
     7
100
AcDbEllipse
 10
351.3977139828
 20
229.178887913
 30
0.0
 11
-0.008757350547422549
 21
0.4999233029289417
 31
0.0
210
0.0
220
0.0
230
1.0
 40
0.248833945
 41
3.071310699238102
 42
3.141592653590054
  0
ARC
  5
100
330
D9
100
AcDbEntity
  8
14088500_LEVER_-
  6
Continuous
 62
     7
100
AcDbCircle
 10
344.5018081064
 20
254.914759008
 30
0.0
 40
0.4999999999999993
100
AcDbArc
 50
91.0035697666
 51
118.9964302334
  0
ARC
  5
101
330
D9
100
AcDbEntity
  8
14088500_LEVER_-
  6
Continuous
 62
     7
100
AcDbCircle
 10
351.3977139828
 20
254.914759008
 30
0.0
 40
0.5000000000000016
100
AcDbArc
 50
61.0035697666
 51
88.9964302334
  0
ARC
  5
102
330
D9
100
AcDbEntity
  8
14088500_LEVER_-
  6
Continuous
 62
     7
100
AcDbCircle
 10
338.5297784353
 20
251.4668060698
 30
0.0
 40
0.5000000000000003
100
AcDbArc
 50
121.0035697666
 51
148.9964302334
  0
ARC
  5
103
330
D9
100
AcDbEntity
  8
14088500_LEVER_-
  6
Continuous
 62
     7
100
AcDbCircle
 10
357.3697436539
 20
251.4668060698
 30
0.0
 40
0.499999999999993
100
AcDbArc
 50
31.0035697666
 51
58.9964302334
  0
ARC
  5
104
330
D9
100
AcDbEntity
  8
14088500_LEVER_-
  6
Continuous
 62
     7
100
AcDbCircle
 10
360.8176965921
 20
245.4947763987
 30
0.0
 40
0.4999999999999957
100
AcDbArc
 50
1.0035697666
 51
28.9964302334
  0
ARC
  5
105
330
D9
100
AcDbEntity
  8
14088500_LEVER_-
  6
Continuous
 62
     7
100
AcDbCircle
 10
360.8176965921
 20
238.5988705223
 30
0.0
 40
0.5000000000000004
100
AcDbArc
 50
331.0035697666
 51
358.9964302334
  0
ARC
  5
106
330
D9
100
AcDbEntity
  8
14088500_LEVER_-
  6
Continuous
 62
     7
100
AcDbCircle
 10
338.5297784353
 20
232.6268408512
 30
0.0
 40
0.499999999999993
100
AcDbArc
 50
211.0035697666
 51
238.9964302334
  0
ARC
  5
107
330
D9
100
AcDbEntity
  8
14088500_LEVER_-
  6
Continuous
 62
     7
100
AcDbCircle
 10
357.3697436539
 20
232.6268408512
 30
0.0
 40
0.5000000000000028
100
AcDbArc
 50
301.0035697666
 51
328.9964302334
  0
ARC
  5
108
330
D9
100
AcDbEntity
  8
14088500_LEVER_-
  6
Continuous
 62
     7
100
AcDbCircle
 10
344.5018081064
 20
229.178887913
 30
0.0
 40
0.4999999999999958
100
AcDbArc
 50
241.0035697666
 51
268.9964302334
  0
ARC
  5
109
330
D9
100
AcDbEntity
  8
14088500_LEVER_-
  6
Continuous
 62
     7
100
AcDbCircle
 10
351.3977139828
 20
229.178887913
 30
0.0
 40
0.4999999999999993
100
AcDbArc
 50
271.0035697666
 51
298.9964302334
  0
ARC
  5
10A
330
D9
100
AcDbEntity
  8
14087700_ESC_-_V
  6
Continuous
 62
     7
100
AcDbCircle
 10
271.4407075148
 20
274.8132399448
 30
0.0
 40
0.4912244504173764
100
AcDbArc
 50
17.2401229311
 51
51.9719693722
  0
LINE
  5
10B
330
D9
100
AcDbEntity
  8
14087700_ESC_-_V
  6
Continuous
 62
     7
100
AcDbLine
 10
265.9843305911
 20
279.6996015087
 30
0.0
 11
264.7598288983
 21
280.656287081
 31
0.0
  0
LINE
  5
10C
330
D9
100
AcDbEntity
  8
14087700_ESC_-_V
  6
Continuous
 62
     7
100
AcDbLine
 10
271.7433248233
 20
275.200182092
 30
0.0
 11
272.2461921728
 21
274.8072990598
 31
0.0
  0
LINE
  5
10D
330
D9
100
AcDbEntity
  8
14087700_ESC_-_V
  6
Continuous
 62
     7
100
AcDbLine
 10
271.7433248233
 20
275.200182092
 30
0.0
 11
265.9843305911
 21
279.6996015087
 31
0.0
  0
LINE
  5
10E
330
D9
100
AcDbEntity
  8
14087700_ESC_-_V
  6
Continuous
 62
     7
100
AcDbLine
 10
265.9843305911
 20
204.3940454122
 30
0.0
 11
264.5414442934
 21
203.2667390871
 31
0.0
  0
LINE
  5
10F
330
D9
100
AcDbEntity
  8
14087700_ESC_-_V
  6
Continuous
 62
     7
100
AcDbLine
 10
265.9843305911
 20
204.3940454122
 30
0.0
 11
271.7433248233
 21
208.893464829
 31
0.0
  0
LINE
  5
110
330
D9
100
AcDbEntity
  8
14087700_ESC_-_V
  6
Continuous
 62
     7
100
AcDbLine
 10
262.9225133661
 20
280.5468234605
 30
0.0
 11
262.9225133661
 21
203.5468234605
 31
0.0
  0
LINE
  5
111
330
D9
100
AcDbEntity
  8
14087700_ESC_-_V
  6
Continuous
 62
     7
100
AcDbLine
 10
276.0315691335
 20
224.7003332727
 30
0.0
 11
276.0315691335
 21
259.3933136482
 31
0.0
  0
SPLINE
  5
112
330
D9
100
AcDbEntity
  8
14087700_ESC_-_V
  6
Continuous
 62
     7
100
AcDbSpline
210
0.0
220
0.0
230
1.0
 70
     8
 71
     3
 72
    12
 73
     8
 74
     0
 42
0.0000000151934232
 43
0.0000000001
 40
0.0
 40
0.0
 40
0.0
 40
0.0
 40
0.1403775285033839
 40
0.4016836816181822
 40
0.6230780584750922
 40
0.8180524034709409
 40
1.0
 40
1.0
 40
1.0
 40
1.0
 10
264.7139264379826
 20
280.6869412060138
 30
0.0
 10
264.6831816704968
 20
280.7099674494585
 30
0.0
 10
264.6083252172743
 20
280.7653145890122
 30
0.0
 10
264.4878606562285
 20
280.8428574223784
 30
0.0
 10
264.3561081624495
 20
280.9044242608678
 30
0.0
 10
264.2285426513751
 20
280.9337740298079
 30
0.0
 10
264.1610847077192
 20
280.9256215535876
 30
0.0
 10
264.1223030935383
 20
280.9203853390589
 30
0.0
  0
ARC
  5
113
330
D9
100
AcDbEntity
  8
14087700_ESC_-_V
  6
Continuous
 62
     7
100
AcDbCircle
 10
271.9342978155
 20
274.4146347248
 30
0.0
 40
0.5015603058667233
100
AcDbArc
 50
27.3398767662
 51
46.5501514819
  0
ARC
  5
114
330
D9
100
AcDbEntity
  8
14087700_ESC_-_V
  6
Continuous
 62
     7
100
AcDbCircle
 10
264.2289841413
 20
203.6841781359
 30
0.0
 40
0.5219354090019694
100
AcDbArc
 50
258.2059080629
 51
301.1046899405
  0
SPLINE
  5
115
330
D9
100
AcDbEntity
  8
14087700_ESC_-_V
  6
Continuous
 62
     7
100
AcDbSpline
210
0.0
220
0.0
230
1.0
 70
     8
 71
     3
 72
    11
 73
     7
 74
     0
 42
0.0000000110189621
 43
0.0000000001
 40
0.0
 40
0.0
 40
0.0
 40
0.0
 40
0.2639092447729031
 40
0.5281082939547264
 40
0.7925871713047561
 40
1.0
 40
1.0
 40
1.0
 40
1.0
 10
271.7433232663402
 20
208.8934636125234
 30
0.0
 10
271.8505898398
 20
208.9785974847859
 30
0.0
 10
272.028723049623
 20
209.1206241592191
 30
0.0
 10
272.2338698698562
 20
209.3030471547225
 30
0.0
 10
272.3631948379939
 20
209.436524802345
 30
0.0
 10
272.3896869970537
 20
209.4847921531133
 30
0.0
 10
272.4021720878172
 20
209.5090958117182
 30
0.0
  0
ARC
  5
116
330
D9
100
AcDbEntity
  8
14087700_ESC_-_V
  6
Continuous
 62
     7
100
AcDbCircle
 10
169.6292855223
 20
242.0450260744
 30
0.0
 40
107.8072773026249
100
AcDbArc
 50
9.2602682985
 51
17.5675021767
  0
ARC
  5
117
330
D9
100
AcDbEntity
  8
14087700_ESC_-_V
  6
Continuous
 62
     7
100
AcDbCircle
 10
169.6292855223
 20
242.0486208465
 30
0.0
 40
107.807277302627
100
AcDbArc
 50
342.4325808773
 51
350.7397317015
  0
ARC
  5
118
330
D9
100
AcDbEntity
  8
14087700_ESC_-_V
  6
Continuous
 62
     7
100
AcDbCircle
 10
265.93071716
 20
211.0949466183
 30
0.0
 40
8.125481725526285
100
AcDbArc
 50
248.2709055824
 51
257.1403560762
  0
ARC
  5
119
330
D9
100
AcDbEntity
  8
14087700_ESC_-_V
  6
Continuous
 62
     7
100
AcDbCircle
 10
265.93071716
 20
272.9987003026
 30
0.0
 40
8.125481725526297
100
AcDbArc
 50
102.8603664505
 51
111.7290944176
  0
LINE
  5
11A
330
D9
100
AcDbEntity
  8
14089500_RING_-_
  6
Continuous
 62
     7
100
AcDbLine
 10
304.9225133661
 20
254.5794276198
 30
0.0
 11
304.9225133661
 21
229.5142193011
 31
0.0
  0
ARC
  5
11B
330
D9
100
AcDbEntity
  8
14089500_RING_-_
  6
Continuous
 62
     7
100
AcDbCircle
 10
305.4225133661
 20
254.5794276198
 30
0.0
 40
0.4999999999999978
100
AcDbArc
 50
79.7100735981
 51
180.0
  0
ARC
  5
11C
330
D9
100
AcDbEntity
  8
14089500_RING_-_
  6
Continuous
 62
     7
100
AcDbCircle
 10
305.4225133661
 20
229.5142193011
 30
0.0
 40
0.4999999999999935
100
AcDbArc
 50
180.0
 51
280.2899264019
  0
ARC
  5
11D
330
D9
100
AcDbEntity
  8
14089500_RING_-_
  6
Continuous
 62
     7
100
AcDbCircle
 10
312.830253208
 20
255.6932837612
 30
0.0
 40
0.7500000000002292
100
AcDbArc
 50
28.236649966
 51
120.9718593872
  0
ARC
  5
11E
330
D9
100
AcDbEntity
  8
14089500_RING_-_
  6
Continuous
 62
     7
100
AcDbCircle
 10
312.830253208
 20
228.4003631598
 30
0.0
 40
0.7500000000000062
100
AcDbArc
 50
239.0281406128
 51
331.763350034
  0
ARC
  5
11F
330
D9
100
AcDbEntity
  8
14089500_RING_-_
  6
Continuous
 62
     7
100
AcDbCircle
 10
307.2981202621
 20
264.9105504422
 30
0.0
 40
9.999999999999767
100
AcDbArc
 50
259.710073598
 51
300.9718593872
  0
ARC
  5
120
330
D9
100
AcDbEntity
  8
14089500_RING_-_
  6
Continuous
 62
     7
100
AcDbCircle
 10
307.2981202621
 20
219.1830964787
 30
0.0
 40
9.999999999999776
100
AcDbArc
 50
59.0281406128
 51
100.289926402
  0
ARC
  5
121
330
D9
100
AcDbEntity
  8
14089500_RING_-_
  6
Continuous
 62
     7
100
AcDbCircle
 10
287.4187564803
 20
242.0468234605
 30
0.0
 40
29.59389094202715
100
AcDbArc
 50
12.719748024
 51
28.236649966
  0
ARC
  5
122
330
D9
100
AcDbEntity
  8
14089500_RING_-_
  6
Continuous
 62
     7
100
AcDbCircle
 10
287.4187564803
 20
242.0468234605
 30
0.0
 40
29.59389094202736
100
AcDbArc
 50
331.763350034
 51
347.280251976
  0
ARC
  5
123
330
D9
100
AcDbEntity
  8
14089500_RING_-_
  6
Continuous
 62
     7
100
AcDbCircle
 10
315.9937376094
 20
235.5968234605
 30
0.0
 40
0.300000000000008
100
AcDbArc
 50
347.280251976
 51
0.0
  0
ARC
  5
124
330
D9
100
AcDbEntity
  8
14089500_RING_-_
  6
Continuous
 62
     7
100
AcDbCircle
 10
315.9937376094
 20
248.4968234605
 30
0.0
 40
0.3000000000000086
100
AcDbArc
 50
0.0
 51
12.719748024
  0
LINE
  5
125
330
D9
100
AcDbEntity
  8
14089500_RING_-_
  6
Continuous
 62
     7
100
AcDbLine
 10
316.2937376094
 20
235.5968234605
 30
0.0
 11
316.2937376094
 21
248.4968234605
 31
0.0
  0
LINE
  5
126
330
D9
100
AcDbEntity
  8
14088400_LEVER_H
  6
Continuous
 62
     7
100
AcDbLine
 10
336.4850089972
 20
236.0468234605
 30
0.0
 11
336.4850089972
 21
248.0468234605
 31
0.0
  0
ARC
  5
127
330
D9
100
AcDbEntity
  8
14088400_LEVER_H
  6
Continuous
 62
     7
100
AcDbCircle
 10
337.6262453227
 20
234.1845516872
 30
0.0
 40
0.4999999999999712
100
AcDbArc
 50
198.2671133831
 51
268.364491995
  0
ARC
  5
128
330
D9
100
AcDbEntity
  8
14088400_LEVER_H
  6
Continuous
 62
     7
100
AcDbCircle
 10
337.6262453227
 20
249.9090952337
 30
0.0
 40
0.5000000000000038
100
AcDbArc
 50
91.635508005
 51
161.7328866169
  0
LINE
  5
129
330
D9
100
AcDbEntity
  8
14088400_LEVER_H
  6
Continuous
 62
     7
100
AcDbLine
 10
337.1514425494
 20
250.0658189604
 30
0.0
 11
336.4850089972
 21
248.0468234605
 31
0.0
  0
LINE
  5
12A
330
D9
100
AcDbEntity
  8
14088400_LEVER_H
  6
Continuous
 62
     7
100
AcDbLine
 10
336.4850089972
 20
236.0468234605
 30
0.0
 11
337.1514425494
 21
234.0278279606
 31
0.0
  0
ARC
  5
12B
330
D9
100
AcDbEntity
  8
14088400_LEVER_H
  6
Continuous
 62
     7
100
AcDbCircle
 10
356.6773873733
 20
232.5572709005
 30
0.0
 40
0.5000000000000133
100
AcDbArc
 50
254.5412106681
 51
331.4570989152
  0
ARC
  5
12C
330
D9
100
AcDbEntity
  8
14088400_LEVER_H
  6
Continuous
 62
     7
100
AcDbCircle
 10
356.6773873733
 20
251.5363760204
 30
0.0
 40
0.4999999999999937
100
AcDbArc
 50
28.5429010848
 51
105.4587893318
  0
ARC
  5
12D
330
D9
100
AcDbEntity
  8
14088400_LEVER_H
  6
Continuous
 62
     7
100
AcDbCircle
 10
339.5044718402
 20
241.8980592161
 30
0.0
 40
20.04889649725834
100
AcDbArc
 50
331.4570989152
 51
0.0
  0
ARC
  5
12E
330
D9
100
AcDbEntity
  8
14088400_LEVER_H
  6
Continuous
 62
     7
100
AcDbCircle
 10
339.5044718402
 20
242.1955877048
 30
0.0
 40
20.04889649725834
100
AcDbArc
 50
0.0
 51
28.5429010848
  0
LINE
  5
12F
330
D9
100
AcDbEntity
  8
14088400_LEVER_H
  6
Continuous
 62
     7
100
AcDbLine
 10
359.5533683375
 20
241.8980592161
 30
0.0
 11
359.5533683375
 21
242.1955877048
 31
0.0
  0
ARC
  5
130
330
D9
100
AcDbEntity
  8
14088400_LEVER_H
  6
Continuous
 62
     7
100
AcDbCircle
 10
346.7116249301
 20
196.5212623741
 30
0.0
 40
36.88863907110505
100
AcDbArc
 50
74.5412106682
 51
88.364491995
  0
ARC
  5
131
330
D9
100
AcDbEntity
  8
14088400_LEVER_H
  6
Continuous
 62
     7
100
AcDbCircle
 10
346.7116249301
 20
287.5723845468
 30
0.0
 40
36.88863907110504
100
AcDbArc
 50
271.635508005
 51
285.4587893318
  0
LINE
  5
132
330
D9
100
AcDbEntity
  8
14088400_LEVER_H
  6
Continuous
 62
     7
100
AcDbLine
 10
347.764468126
 20
250.6987732004
 30
0.0
 11
337.611974761
 21
250.4088915433
 31
0.0
  0
LINE
  5
133
330
D9
100
AcDbEntity
  8
14088400_LEVER_H
  6
Continuous
 62
     7
100
AcDbLine
 10
337.611974761
 20
233.6847553776
 30
0.0
 11
347.764468126
 21
233.3948737205
 31
0.0
  0
LINE
  5
134
330
D9
100
AcDbEntity
  8
14088400_LEVER_H
  6
Continuous
 62
     7
100
AcDbLine
 10
316.2937376094
 20
236.0468234605
 30
0.0
 11
336.4850089972
 21
236.0468234605
 31
0.0
  0
LINE
  5
135
330
D9
100
AcDbEntity
  8
14088400_LEVER_H
  6
Continuous
 62
     7
100
AcDbLine
 10
336.4850089972
 20
248.0468234605
 30
0.0
 11
316.2937376094
 21
248.0468234605
 31
0.0
  0
ENDBLK
  5
137
330
D9
100
AcDbEntity
  8
0
100
AcDbBlockEnd
  0
BLOCK
  5
1A3
330
138
100
AcDbEntity
  8
0
100
AcDbBlockBegin
  2
SE2
 70
     0
 10
0.0
 20
0.0
 30
0.0
  3
SE2
  1

  0
ARC
  5
13A
330
138
100
AcDbEntity
  8
T14080027__MP_VC
  6
Continuous
 62
     7
100
AcDbCircle
 10
118.5179947067
 20
122.0381326829
 30
0.0
 40
0.5000000000000004
100
AcDbArc
 50
180.0
 51
270.0
  0
ARC
  5
13B
330
138
100
AcDbEntity
  8
T14080027__MP_VC
  6
Continuous
 62
     7
100
AcDbCircle
 10
143.5179947067
 20
122.0381326829
 30
0.0
 40
0.5000000000000004
100
AcDbArc
 50
270.0
 51
0.0
  0
LINE
  5
13C
330
138
100
AcDbEntity
  8
14088200_LEVER_H
  6
Continuous
 62
     7
100
AcDbLine
 10
139.9580873985
 20
73.5108850044
 30
0.0
 11
146.5190356173
 21
73.5108850044
 31
0.0
  0
LINE
  5
13D
330
138
100
AcDbEntity
  8
14088200_LEVER_H
  6
Continuous
 62
     7
100
AcDbLine
 10
146.5190356173
 20
83.5108850044
 30
0.0
 11
139.2363733525
 21
83.5108850044
 31
0.0
  0
ARC
  5
13E
330
138
100
AcDbEntity
  8
14088200_LEVER_H
  6
Continuous
 62
     7
100
AcDbCircle
 10
149.5257496351
 20
71.1583172273
 30
0.0
 40
0.5000000000000022
100
AcDbArc
 50
219.4376738989
 51
245.2407560264
  0
ARC
  5
13F
330
138
100
AcDbEntity
  8
14088200_LEVER_H
  6
Continuous
 62
     7
100
AcDbCircle
 10
149.5257496351
 20
85.8634527814
 30
0.0
 40
0.4999999999999919
100
AcDbArc
 50
114.7592439736
 51
140.5623261011
  0
ARC
  5
140
330
138
100
AcDbEntity
  8
14088200_LEVER_H
  6
Continuous
 62
     7
100
AcDbCircle
 10
153.7036512975
 20
76.8047278262
 30
0.0
 40
10.47573857482921
100
AcDbArc
 50
92.2146862203
 51
114.7592439737
  0
ARC
  5
141
330
138
100
AcDbEntity
  8
14088200_LEVER_H
  6
Continuous
 62
     7
100
AcDbCircle
 10
153.7036512975
 20
80.2170421825
 30
0.0
 40
10.47573857482922
100
AcDbArc
 50
245.2407560263
 51
267.7853137797
  0
ARC
  5
142
330
138
100
AcDbEntity
  8
14088200_LEVER_H
  6
Continuous
 62
     7
100
AcDbCircle
 10
159.6740626337
 20
77.5163533441
 30
0.0
 40
13.64010371851628
100
AcDbArc
 50
140.5623261011
 51
150.3294642965
  0
ARC
  5
143
330
138
100
AcDbEntity
  8
14088200_LEVER_H
  6
Continuous
 62
     7
100
AcDbCircle
 10
159.6740626337
 20
79.5054166646
 30
0.0
 40
13.6401037185163
100
AcDbArc
 50
209.6705357035
 51
219.4376738989
  0
LINE
  5
144
330
138
100
AcDbEntity
  8
14088200_LEVER_H
  6
Continuous
 62
     7
100
AcDbLine
 10
153.8181494134
 20
70.2486023777
 30
0.0
 11
153.8182064084
 21
70.4352650264
 31
0.0
  0
LINE
  5
145
330
138
100
AcDbEntity
  8
14088200_LEVER_H
  6
Continuous
 62
     7
100
AcDbLine
 10
153.8182064084
 20
86.5865049823
 30
0.0
 11
153.8181494134
 21
86.773167631
 31
0.0
  0
ARC
  5
146
330
138
100
AcDbEntity
  8
14088200_LEVER_H
  6
Continuous
 62
     7
100
AcDbCircle
 10
153.3181494367
 20
70.2487550463
 30
0.0
 40
0.5000000000000113
100
AcDbArc
 50
267.7853137797
 51
359.9825054656
  0
ARC
  5
147
330
138
100
AcDbEntity
  8
14088200_LEVER_H
  6
Continuous
 62
     7
100
AcDbCircle
 10
153.3181494367
 20
86.7730149624
 30
0.0
 40
0.5000000000000028
100
AcDbArc
 50
0.0174945344
 51
92.2146862203
  0
ARC
  5
148
330
138
100
AcDbEntity
  8
14088200_LEVER_H
  6
Continuous
 62
     7
100
AcDbCircle
 10
146.5190356173
 20
85.0108850044
 30
0.0
 40
1.500000000000004
100
AcDbArc
 50
270.0
 51
330.3294642965
  0
ARC
  5
149
330
138
100
AcDbEntity
  8
14088200_LEVER_H
  6
Continuous
 62
     7
100
AcDbCircle
 10
146.5190356173
 20
72.0108850044
 30
0.0
 40
1.50000000000021
100
AcDbArc
 50
29.6705357035
 51
90.0
  0
ARC
  5
14A
330
138
100
AcDbEntity
  8
14088300_LEVER_H
  6
Continuous
 62
     7
100
AcDbCircle
 10
120.8652575677
 20
52.5028038037
 30
0.0
 40
21.00808120065041
100
AcDbArc
 50
90.0
 51
119.5009463347
  0
ARC
  5
14B
330
138
100
AcDbEntity
  8
14088300_LEVER_H
  6
Continuous
 62
     7
100
AcDbCircle
 10
120.8652575677
 20
104.518966205
 30
0.0
 40
21.00808120065042
100
AcDbArc
 50
240.4990536653
 51
270.0
  0
LINE
  5
14C
330
138
100
AcDbEntity
  8
14088300_LEVER_H
  6
Continuous
 62
     7
100
AcDbLine
 10
120.8652575677
 20
73.5108850044
 30
0.0
 11
122.0777485284
 21
73.5108850044
 31
0.0
  0
LINE
  5
14D
330
138
100
AcDbEntity
  8
14088300_LEVER_H
  6
Continuous
 62
     7
100
AcDbLine
 10
122.7995659128
 20
83.5108850044
 30
0.0
 11
120.8652575677
 21
83.5108850044
 31
0.0
  0
ARC
  5
14E
330
138
100
AcDbEntity
  8
14088300_LEVER_H
  6
Continuous
 62
     7
100
AcDbCircle
 10
110.099496714
 20
71.5304884016
 30
0.0
 40
0.8540867594113136
100
AcDbArc
 50
184.9218299871
 51
299.5009463347
  0
ARC
  5
14F
330
138
100
AcDbEntity
  8
14088300_LEVER_H
  6
Continuous
 62
     7
100
AcDbCircle
 10
110.099496714
 20
85.4912816072
 30
0.0
 40
0.8540867594113882
100
AcDbArc
 50
60.4990536653
 51
175.0781700129
  0
ARC
  5
150
330
138
100
AcDbEntity
  8
14088300_LEVER_H
  6
Continuous
 62
     7
100
AcDbCircle
 10
191.159391268
 20
78.5108850044
 30
0.0
 40
82.21398131339791
100
AcDbArc
 50
175.0781700129
 51
180.0
  0
ARC
  5
151
330
138
100
AcDbEntity
  8
14088300_LEVER_H
  6
Continuous
 62
     7
100
AcDbCircle
 10
191.159391268
 20
78.5108850044
 30
0.0
 40
82.21398131339791
100
AcDbArc
 50
180.0
 51
184.9218299871
  0
LINE
  5
152
330
138
100
AcDbEntity
  8
12088100_LEVER_H
  6
Continuous
 62
     7
100
AcDbLine
 10
222.9086469124
 20
66.9513948061
 30
0.0
 11
222.9086469124
 21
90.0703752026
 31
0.0
  0
ARC
  5
153
330
138
100
AcDbEntity
  8
12088100_LEVER_H
  6
Continuous
 62
     7
100
AcDbCircle
 10
223.4086469124
 20
90.0703752026
 30
0.0
 40
0.4999999999999945
100
AcDbArc
 50
82.6999461058
 51
180.0
  0
ARC
  5
154
330
138
100
AcDbEntity
  8
12088100_LEVER_H
  6
Continuous
 62
     7
100
AcDbCircle
 10
223.4086469124
 20
66.9513948061
 30
0.0
 40
0.5000000000000282
100
AcDbArc
 50
180.0
 51
277.3000538942
  0
ARC
  5
155
330
138
100
AcDbEntity
  8
12088100_LEVER_H
  6
Continuous
 62
     7
100
AcDbCircle
 10
221.3290191002
 20
83.1853083824
 30
0.0
 40
16.86657575182324
100
AcDbArc
 50
277.3000538942
 51
287.6350589698
  0
ARC
  5
156
330
138
100
AcDbEntity
  8
12088100_LEVER_H
  6
Continuous
 62
     7
100
AcDbCircle
 10
221.3290191002
 20
73.8364616263
 30
0.0
 40
16.86657575182328
100
AcDbArc
 50
72.3649410302
 51
82.6999461058
  0
ARC
  5
157
330
138
100
AcDbEntity
  8
12088100_LEVER_H
  6
Continuous
 62
     7
100
AcDbCircle
 10
226.2873237347
 20
89.4338978577
 30
0.0
 40
0.4999999999999713
100
AcDbArc
 50
29.5691520075
 51
72.3649410302
  0
ARC
  5
158
330
138
100
AcDbEntity
  8
12088100_LEVER_H
  6
Continuous
 62
     7
100
AcDbCircle
 10
226.2873237347
 20
67.587872151
 30
0.0
 40
0.4999999999999465
100
AcDbArc
 50
287.6350589698
 51
330.4308479925
  0
ARC
  5
159
330
138
100
AcDbEntity
  8
12088100_LEVER_H
  6
Continuous
 62
     7
100
AcDbCircle
 10
207.0352166198
 20
78.5108850044
 30
0.0
 40
22.634946084374
100
AcDbArc
 50
359.9975882055
 51
29.5691520075
  0
ARC
  5
15A
330
138
100
AcDbEntity
  8
12088100_LEVER_H
  6
Continuous
 62
     7
100
AcDbCircle
 10
207.0352166198
 20
78.5108850044
 30
0.0
 40
22.63494608437427
100
AcDbArc
 50
330.4308479925
 51
359.9975882055
  0
LINE
  5
15B
330
138
100
AcDbEntity
  8
14088500_LEVER_-
  6
Continuous
 62
     7
100
AcDbLine
 10
153.8182064084
 20
80.7312253269
 30
0.0
 11
153.8182064084
 21
84.5769675756
 31
0.0
  0
LINE
  5
15C
330
138
100
AcDbEntity
  8
14088500_LEVER_-
  6
Continuous
 62
     7
100
AcDbLine
 10
153.8182064084
 20
76.2905446818
 30
0.0
 11
153.8182064084
 21
80.7312253269
 31
0.0
  0
LINE
  5
15D
330
138
100
AcDbEntity
  8
14088500_LEVER_-
  6
Continuous
 62
     7
100
AcDbLine
 10
153.8182064084
 20
84.5769675756
 30
0.0
 11
153.8182064084
 21
86.7973078981
 31
0.0
  0
LINE
  5
15E
330
138
100
AcDbEntity
  8
14088500_LEVER_-
  6
Continuous
 62
     7
100
AcDbLine
 10
153.8182064084
 20
72.4448024331
 30
0.0
 11
153.8182064084
 21
76.2905446818
 31
0.0
  0
LINE
  5
15F
330
138
100
AcDbEntity
  8
14088500_LEVER_-
  6
Continuous
 62
     7
100
AcDbLine
 10
153.8182064084
 20
70.2244621106
 30
0.0
 11
153.8182064084
 21
72.4448024331
 31
0.0
  0
LINE
  5
160
330
138
100
AcDbEntity
  8
14088500_LEVER_-
  6
Continuous
 62
     7
100
AcDbLine
 10
221.4882510166
 20
65.1441073174
 30
0.0
 11
154.2841987631
 21
69.7256199712
 31
0.0
  0
LINE
  5
161
330
138
100
AcDbEntity
  8
14088500_LEVER_-
  6
Continuous
 62
     7
100
AcDbLine
 10
221.4882510166
 20
65.1441073174
 30
0.0
 11
221.8599067235
 21
65.1187703732
 31
0.0
  0
LINE
  5
162
330
138
100
AcDbEntity
  8
14088500_LEVER_-
  6
Continuous
 62
     7
100
AcDbLine
 10
154.2841987631
 20
87.2961500375
 30
0.0
 11
221.4882510166
 21
91.8776626913
 31
0.0
  0
LINE
  5
163
330
138
100
AcDbEntity
  8
14088500_LEVER_-
  6
Continuous
 62
     7
100
AcDbLine
 10
221.8601543576
 20
91.9030165175
 30
0.0
 11
221.4882510166
 21
91.8776626913
 31
0.0
  0
ARC
  5
164
330
138
100
AcDbEntity
  8
14088500_LEVER_-
  6
Continuous
 62
     7
100
AcDbCircle
 10
154.3182064084
 20
86.7973078981
 30
0.0
 40
0.5000000000000004
100
AcDbArc
 50
93.9000000001
 51
180.0
  0
ARC
  5
165
330
138
100
AcDbEntity
  8
14088500_LEVER_-
  6
Continuous
 62
     7
100
AcDbCircle
 10
154.3182064084
 20
70.2244621106
 30
0.0
 40
0.4999999999999967
100
AcDbArc
 50
180.0
 51
266.0999999999
  0
ARC
  5
166
330
138
100
AcDbEntity
  8
14088500_LEVER_-
  6
Continuous
 62
     7
100
AcDbCircle
 10
219.5906577919
 20
89.7809284029
 30
0.0
 40
3.317989120529316
100
AcDbArc
 50
0.0
 51
35.436364771
  0
ARC
  5
167
330
138
100
AcDbEntity
  8
14088500_LEVER_-
  6
Continuous
 62
     7
100
AcDbCircle
 10
219.5906577919
 20
67.2408416058
 30
0.0
 40
3.317989120529318
100
AcDbArc
 50
324.5195189784
 51
0.0
  0
ARC
  5
168
330
138
100
AcDbEntity
  8
14088500_LEVER_-
  6
Continuous
 62
     7
100
AcDbCircle
 10
221.8939071218
 20
91.4041643036
 30
0.0
 40
0.4999927153834023
100
AcDbArc
 50
36.9408229659
 51
93.8142030965
  0
ARC
  5
169
330
138
100
AcDbEntity
  8
14088500_LEVER_-
  6
Continuous
 62
     7
100
AcDbCircle
 10
221.8939071205
 20
65.6176056853
 30
0.0
 40
0.499991326790889
100
AcDbArc
 50
266.1857969034
 51
322.9573990229
  0
ARC
  5
16A
330
138
100
AcDbEntity
  8
14087700_ESC_-_V
  6
Continuous
 62
     7
100
AcDbCircle
 10
163.784463708
 20
155.0198624236
 30
0.0
 40
0.4911361953562302
100
AcDbArc
 50
287.2369031166
 51
321.9751891867
  0
LINE
  5
16B
330
138
100
AcDbEntity
  8
14087700_ESC_-_V
  6
Continuous
 62
     7
100
AcDbLine
 10
164.1713533382
 20
154.7173212256
 30
0.0
 11
168.670772755
 21
160.4763154578
 31
0.0
  0
LINE
  5
16C
330
138
100
AcDbEntity
  8
14087700_ESC_-_V
  6
Continuous
 62
     7
100
AcDbLine
 10
163.7784703061
 20
154.2144538762
 30
0.0
 11
164.1713533382
 21
154.7173212256
 31
0.0
  0
LINE
  5
16D
330
138
100
AcDbEntity
  8
14087700_ESC_-_V
  6
Continuous
 62
     7
100
AcDbLine
 10
93.3652166585
 20
160.4763154578
 30
0.0
 11
97.8646360752
 21
154.7173212256
 31
0.0
  0
LINE
  5
16E
330
138
100
AcDbEntity
  8
14087700_ESC_-_V
  6
Continuous
 62
     7
100
AcDbLine
 10
93.3652166585
 20
160.4763154578
 30
0.0
 11
92.2386562441
 21
161.9182470333
 31
0.0
  0
LINE
  5
16F
330
138
100
AcDbEntity
  8
14087700_ESC_-_V
  6
Continuous
 62
     7
100
AcDbLine
 10
98.2575191074
 20
154.2144538762
 30
0.0
 11
97.8646360752
 21
154.7173212256
 31
0.0
  0
LINE
  5
170
330
138
100
AcDbEntity
  8
14087700_ESC_-_V
  6
Continuous
 62
     7
100
AcDbLine
 10
169.5179947067
 20
163.5381326829
 30
0.0
 11
92.5179947067
 21
163.5381326829
 31
0.0
  0
LINE
  5
171
330
138
100
AcDbEntity
  8
14087700_ESC_-_V
  6
Continuous
 62
     7
100
AcDbLine
 10
113.671504519
 20
150.4290769155
 30
0.0
 11
148.3644848945
 21
150.4290769155
 31
0.0
  0
SPLINE
  5
172
330
138
100
AcDbEntity
  8
14087700_ESC_-_V
  6
Continuous
 62
     7
100
AcDbSpline
210
0.0
220
0.0
230
1.0
 70
     8
 71
     3
 72
    11
 73
     7
 74
     0
 42
0.0000000052788912
 43
0.0000000001
 40
0.0
 40
0.0
 40
0.0
 40
0.0
 40
0.166089165202654
 40
0.4437329401399484
 40
0.721581330133613
 40
1.0
 40
1.0
 40
1.0
 40
1.0
 10
168.8820409596707
 20
160.7561225137244
 30
0.0
 10
169.0157644601242
 20
160.9305483615276
 30
0.0
 10
169.31580797058
 20
161.3230401250119
 30
0.0
 10
169.6422783941154
 20
161.7944978283723
 30
0.0
 10
169.8699870952378
 20
162.1843595612945
 30
0.0
 10
169.8862419893317
 20
162.2839212405732
 30
0.0
 10
169.8915565853021
 20
162.3383429553984
 30
0.0
  0
LINE
  5
173
330
138
100
AcDbEntity
  8
14087700_ESC_-_V
  6
Continuous
 62
     7
100
AcDbLine
 10
168.680378137
 20
160.490377371
 30
0.0
 11
168.8820409597
 21
160.7561225137
 31
0.0
  0
ARC
  5
174
330
138
100
AcDbEntity
  8
14087700_ESC_-_V
  6
Continuous
 62
     7
100
AcDbCircle
 10
163.3691818299
 20
154.5458619209
 30
0.0
 40
0.527141901934146
100
AcDbArc
 50
288.3669830009
 51
314.1416230827
  0
ARC
  5
175
330
138
100
AcDbEntity
  8
14087700_ESC_-_V
  6
Continuous
 62
     7
100
AcDbCircle
 10
92.6356737711
 20
162.2285804627
 30
0.0
 40
0.5033542180453432
100
AcDbArc
 50
167.4047620065
 51
210.4208798393
  0
ARC
  5
176
330
138
100
AcDbEntity
  8
14087700_ESC_-_V
  6
Continuous
 62
     7
100
AcDbCircle
 10
98.6650293729
 20
154.5422287371
 30
0.0
 40
0.5231129273174844
100
AcDbArc
 50
226.8637901883
 51
251.8933473249
  0
ARC
  5
177
330
138
100
AcDbEntity
  8
14087700_ESC_-_V
  6
Continuous
 62
     7
100
AcDbCircle
 10
131.0161973207
 20
256.8313605266
 30
0.0
 40
107.8072773026271
100
AcDbArc
 50
279.2602682985
 51
287.5561527798
  0
ARC
  5
178
330
138
100
AcDbEntity
  8
14087700_ESC_-_V
  6
Continuous
 62
     7
100
AcDbCircle
 10
131.0197920927
 20
256.8313605266
 30
0.0
 40
107.807277302627
100
AcDbArc
 50
252.4438872798
 51
260.7397317015
  0
ARC
  5
179
330
138
100
AcDbEntity
  8
14087700_ESC_-_V
  6
Continuous
 62
     7
100
AcDbCircle
 10
100.0661178646
 20
160.5299288889
 30
0.0
 40
8.125481725526278
100
AcDbArc
 50
158.2709055824
 51
167.1406280648
  0
ARC
  5
17A
330
138
100
AcDbEntity
  8
14087700_ESC_-_V
  6
Continuous
 62
     7
100
AcDbCircle
 10
161.9698715489
 20
160.5299288889
 30
0.0
 40
8.125481725526301
100
AcDbArc
 50
12.8620547258
 51
21.7290944176
  0
LINE
  5
17B
330
138
100
AcDbEntity
  8
14089500_RING_-_
  6
Continuous
 62
     7
100
AcDbLine
 10
143.550598866
 20
121.5381326829
 30
0.0
 11
118.4853905474
 21
121.5381326829
 31
0.0
  0
ARC
  5
17C
330
138
100
AcDbEntity
  8
14089500_RING_-_
  6
Continuous
 62
     7
100
AcDbCircle
 10
143.550598866
 20
121.0381326829
 30
0.0
 40
0.4999999999999962
100
AcDbArc
 50
349.710073598
 51
90.0
  0
ARC
  5
17D
330
138
100
AcDbEntity
  8
14089500_RING_-_
  6
Continuous
 62
     7
100
AcDbCircle
 10
118.4853905474
 20
121.0381326829
 30
0.0
 40
0.5000000000000004
100
AcDbArc
 50
90.0
 51
190.289926402
  0
ARC
  5
17E
330
138
100
AcDbEntity
  8
14089500_RING_-_
  6
Continuous
 62
     7
100
AcDbCircle
 10
144.6644550074
 20
113.630392841
 30
0.0
 40
0.750000000000241
100
AcDbArc
 50
298.236649966
 51
30.9718593872
  0
ARC
  5
17F
330
138
100
AcDbEntity
  8
14089500_RING_-_
  6
Continuous
 62
     7
100
AcDbCircle
 10
117.371534406
 20
113.630392841
 30
0.0
 40
0.7500000000000075
100
AcDbArc
 50
149.0281406128
 51
241.763350034
  0
ARC
  5
180
330
138
100
AcDbEntity
  8
14089500_RING_-_
  6
Continuous
 62
     7
100
AcDbCircle
 10
153.8817216884
 20
119.1625257868
 30
0.0
 40
9.999999999999769
100
AcDbArc
 50
169.710073598
 51
210.9718593872
  0
ARC
  5
181
330
138
100
AcDbEntity
  8
14089500_RING_-_
  6
Continuous
 62
     7
100
AcDbCircle
 10
108.154267725
 20
119.1625257868
 30
0.0
 40
9.99999999999977
100
AcDbArc
 50
329.0281406128
 51
10.289926402
  0
ARC
  5
182
330
138
100
AcDbEntity
  8
14089500_RING_-_
  6
Continuous
 62
     7
100
AcDbCircle
 10
131.0179947067
 20
139.0418895686
 30
0.0
 40
29.59389094202715
100
AcDbArc
 50
282.719748024
 51
298.236649966
  0
ARC
  5
183
330
138
100
AcDbEntity
  8
14089500_RING_-_
  6
Continuous
 62
     7
100
AcDbCircle
 10
131.0179947067
 20
139.0418895686
 30
0.0
 40
29.59389094202715
100
AcDbArc
 50
241.763350034
 51
257.280251976
  0
ARC
  5
184
330
138
100
AcDbEntity
  8
14089500_RING_-_
  6
Continuous
 62
     7
100
AcDbCircle
 10
124.5679947067
 20
110.4669084396
 30
0.0
 40
0.3000000000001011
100
AcDbArc
 50
257.2802519759
 51
270.0
  0
ARC
  5
185
330
138
100
AcDbEntity
  8
14089500_RING_-_
  6
Continuous
 62
     7
100
AcDbCircle
 10
137.4679947067
 20
110.4669084396
 30
0.0
 40
0.3000000000000086
100
AcDbArc
 50
270.0
 51
282.719748024
  0
LINE
  5
186
330
138
100
AcDbEntity
  8
14089500_RING_-_
  6
Continuous
 62
     7
100
AcDbLine
 10
124.5679947067
 20
110.1669084396
 30
0.0
 11
137.4679947067
 21
110.1669084396
 31
0.0
  0
LINE
  5
187
330
138
100
AcDbEntity
  8
14088400_LEVER_H
  6
Continuous
 62
     7
100
AcDbLine
 10
137.0179947067
 20
89.9756370518
 30
0.0
 11
125.0179947067
 21
89.9756370518
 31
0.0
  0
ARC
  5
188
330
138
100
AcDbEntity
  8
14088400_LEVER_H
  6
Continuous
 62
     7
100
AcDbCircle
 10
123.1557229334
 20
88.8344007262
 30
0.0
 40
0.4999999999999844
100
AcDbArc
 50
108.2671133831
 51
178.364491995
  0
ARC
  5
189
330
138
100
AcDbEntity
  8
14088400_LEVER_H
  6
Continuous
 62
     7
100
AcDbCircle
 10
138.88026648
 20
88.8344007262
 30
0.0
 40
0.5000000000000034
100
AcDbArc
 50
1.635508005
 51
71.7328866169
  0
LINE
  5
18A
330
138
100
AcDbEntity
  8
14088400_LEVER_H
  6
Continuous
 62
     7
100
AcDbLine
 10
139.0369902066
 20
89.3092034995
 30
0.0
 11
137.0179947067
 21
89.9756370518
 31
0.0
  0
LINE
  5
18B
330
138
100
AcDbEntity
  8
14088400_LEVER_H
  6
Continuous
 62
     7
100
AcDbLine
 10
125.0179947067
 20
89.9756370518
 30
0.0
 11
122.9989992068
 21
89.3092034995
 31
0.0
  0
ARC
  5
18C
330
138
100
AcDbEntity
  8
14088400_LEVER_H
  6
Continuous
 62
     7
100
AcDbCircle
 10
121.5284421468
 20
69.7832586757
 30
0.0
 40
0.5000000000000133
100
AcDbArc
 50
164.5412106681
 51
241.4570989152
  0
ARC
  5
18D
330
138
100
AcDbEntity
  8
14088400_LEVER_H
  6
Continuous
 62
     7
100
AcDbCircle
 10
140.5075472666
 20
69.7832586757
 30
0.0
 40
0.4999999999999937
100
AcDbArc
 50
298.5429010848
 51
15.4587893319
  0
ARC
  5
18E
330
138
100
AcDbEntity
  8
14088400_LEVER_H
  6
Continuous
 62
     7
100
AcDbCircle
 10
130.8692304623
 20
86.9561742087
 30
0.0
 40
20.04889649725835
100
AcDbArc
 50
241.4570989152
 51
270.0
  0
ARC
  5
18F
330
138
100
AcDbEntity
  8
14088400_LEVER_H
  6
Continuous
 62
     7
100
AcDbCircle
 10
131.1667589511
 20
86.9561742087
 30
0.0
 40
20.04889649725834
100
AcDbArc
 50
270.0
 51
298.5429010848
  0
LINE
  5
190
330
138
100
AcDbEntity
  8
14088400_LEVER_H
  6
Continuous
 62
     7
100
AcDbLine
 10
130.8692304623
 20
66.9072777114
 30
0.0
 11
131.1667589511
 21
66.9072777114
 31
0.0
  0
ARC
  5
191
330
138
100
AcDbEntity
  8
14088400_LEVER_H
  6
Continuous
 62
     7
100
AcDbCircle
 10
121.9312630139
 20
78.5749890517
 30
0.0
 40
2.634209684028371
100
AcDbArc
 50
349.6895901703
 51
2.4190852629
  0
SPLINE
  5
192
330
138
100
AcDbEntity
  8
14088400_LEVER_H
  6
Continuous
 62
     7
100
AcDbSpline
210
0.0
220
0.0
230
1.0
 70
     8
 71
     3
 72
    28
 73
    24
 74
     0
 42
0.0000000017093606
 43
0.0000000001
 40
0.0
 40
0.0
 40
0.0
 40
0.0
 40
0.0440514956054686
 40
0.1043204914267611
 40
0.1682179749666089
 40
0.2381663568553442
 40
0.3137901585411927
 40
0.3954280888511758
 40
0.4793707085653499
 40
0.5637637979775587
 40
0.644935313036705
 40
0.7228359307206733
 40
0.7973284329965733
 40
0.8684305382557193
 40
0.9374928806836331
 40
0.9713772917566758
 40
0.9729085795510298
 40
0.9738052814446897
 40
0.9745923886122358
 40
0.9758230220840515
 40
0.9813783024306915
 40
0.9998459407677754
 40
1.0
 40
1.0
 40
1.0
 40
1.0
 10
124.5176670122585
 20
78.10481432569414
 30
0.0
 10
124.4967784108225
 20
77.96552178841503
 30
0.0
 10
124.4535700192665
 20
77.68605339388974
 30
0.0
 10
124.3192484783343
 20
77.213286387155
 30
0.0
 10
124.1302822251123
 20
76.71073928994792
 30
0.0
 10
123.8914453240635
 20
76.19856604233269
 30
0.0
 10
123.6107427834172
 20
75.68375529963009
 30
0.0
 10
123.3022965386743
 20
75.18170405062024
 30
0.0
 10
122.9845230138295
 20
74.71107619780793
 30
0.0
 10
122.68374499487
 20
74.29330697258065
 30
0.0
 10
122.4185302080958
 20
73.94226310710431
 30
0.0
 10
122.200118793427
 20
73.66326757604263
 30
0.0
 10
122.0347823053392
 20
73.4566625903384
 30
0.0
 10
121.9273633713047
 20
73.32475793524162
 30
0.0
 10
121.8711938275362
 20
73.25608199736935
 30
0.0
 10
121.8751370606945
 20
73.26119268100071
 30
0.0
 10
121.8647231919077
 20
73.24821648898758
 30
0.0
 10
121.8624821219098
 20
73.24538948120329
 30
0.0
 10
121.8588368374414
 20
73.24071189900802
 30
0.0
 10
121.8459537854687
 20
73.22370073359397
 30
0.0
 10
121.8057031779149
 20
73.16196689862554
 30
0.0
 10
121.7706840878566
 20
73.09317341457705
 30
0.0
 10
121.7669327401448
 20
73.04164134008212
 30
0.0
 10
121.7668968453877
 20
73.0411475664608
 30
0.0
  0
SPLINE
  5
193
330
138
100
AcDbEntity
  8
14088400_LEVER_H
  6
Continuous
 62
     7
100
AcDbSpline
210
0.0
220
0.0
230
1.0
 70
     8
 71
     3
 72
    10
 73
     6
 74
     0
 42
0.0000000130139069
 43
0.0000000001
 40
0.8755908506726938
 40
0.8755908506726938
 40
0.8755908506726938
 40
0.8755908506726938
 40
0.9032357568642285
 40
0.9359498798957777
 40
0.9422219665263295
 40
0.9422219665263295
 40
0.9422219665263295
 40
0.9422219665263295
 10
121.9028560027352
 20
73.29484632201738
 30
0.0
 10
121.8946997826401
 20
73.28486785450306
 30
0.0
 10
121.8800198376461
 20
73.26692952337675
 30
0.0
 10
121.8715051852443
 20
73.2565336085793
 30
0.0
 10
121.8704545908647
 20
73.25526123221313
 30
0.0
 10
121.8704262820978
 20
73.25522632258107
 30
0.0
  0
ARC
  5
194
330
138
100
AcDbEntity
  8
14088400_LEVER_H
  6
Continuous
 62
     7
100
AcDbCircle
 10
120.6273135121
 20
78.864417459
 30
0.0
 40
3.937204469054686
100
AcDbArc
 50
357.411746809
 51
8.5762582547
  0
SPLINE
  5
195
330
138
100
AcDbEntity
  8
14088400_LEVER_H
  6
Continuous
 62
     7
100
AcDbSpline
210
0.0
220
0.0
230
1.0
 70
     8
 71
     3
 72
    30
 73
    26
 74
     0
 42
0.0000000019562026
 43
0.0000000001
 40
0.0
 40
0.0
 40
0.0
 40
0.0
 40
0.0013091953576056
 40
0.0133990887088826
 40
0.0231494732437207
 40
0.0303871461857123
 40
0.0343336265949327
 40
0.0359195875774522
 40
0.0371196536547998
 40
0.038661631753489
 40
0.0414758535362497
 40
0.0489414222378935
 40
0.0763879136665146
 40
0.1490101987131529
 40
0.225547031513123
 40
0.3020479211433175
 40
0.3798946538041813
 40
0.4606855379885613
 40
0.5433515624076309
 40
0.6289939100350669
 40
0.7151736200055041
 40
0.8006118838425463
 40
0.8742613213177978
 40
0.942123464994429
 40
1.0
 40
1.0
 40
1.0
 40
1.0
 10
122.5215731626279
 20
84.09832170492825
 30
0.0
 10
122.5210622083447
 20
84.09446383164634
 30
0.0
 10
122.5166023102274
 20
84.06047467694705
 30
0.0
 10
122.5268254829171
 20
83.99531424224752
 30
0.0
 10
122.546760888218
 20
83.9199110614001
 30
0.0
 10
122.569288309087
 20
83.86817448816741
 30
0.0
 10
122.5860744168333
 20
83.83750848540663
 30
0.0
 10
122.5938731479613
 20
83.82457911507946
 30
0.0
 10
122.5972518496776
 20
83.81915836136928
 30
0.0
 10
122.5999116957825
 20
83.814981397482
 30
0.0
 10
122.6027247240252
 20
83.81065275365607
 30
0.0
 10
122.6062786563718
 20
83.80528687961663
 30
0.0
 10
122.6151891793044
 20
83.7919833613799
 30
0.0
 10
122.6514533977535
 20
83.73784829274112
 30
0.0
 10
122.7381707225722
 20
83.60630935987903
 30
0.0
 10
122.8664691563964
 20
83.4083834934965
 30
0.0
 10
123.0299677987446
 20
83.14907973489974
 30
0.0
 10
123.2252785499833
 20
82.82650255969901
 30
0.0
 10
123.448170115533
 20
82.43852888865932
 30
0.0
 10
123.6867675609887
 20
81.98950193478144
 30
0.0
 10
123.928209336972
 20
81.48402802258688
 30
0.0
 10
124.1461191134966
 20
80.9535103351254
 30
0.0
 10
124.320745466794
 20
80.42713182832078
 30
0.0
 10
124.4511433756013
 20
79.9238817208992
 30
0.0
 10
124.4944421625509
 20
79.61732077745829
 30
0.0
 10
124.5173700363822
 20
79.45041808354011
 30
0.0
  0
SPLINE
  5
196
330
138
100
AcDbEntity
  8
14088400_LEVER_H
  6
Continuous
 62
     7
100
AcDbSpline
210
0.0
220
0.0
230
1.0
 70
     8
 71
     3
 72
    11
 73
     7
 74
     0
 42
0.0000000081113744
 43
0.0000000001
 40
0.0716213946336698
 40
0.0716213946336698
 40
0.0716213946336698
 40
0.0716213946336698
 40
0.0791479407825188
 40
0.1159566385200155
 40
0.1820397842194206
 40
0.2155801308275699
 40
0.2155801308275699
 40
0.2155801308275699
 40
0.2155801308275699
 10
122.6082206800822
 20
83.80253781126224
 30
0.0
 10
122.6082081259426
 20
83.80255559599095
 30
0.0
 10
122.6097334034314
 20
83.80032270424759
 30
0.0
 10
122.6215862713071
 20
83.78270424618748
 30
0.0
 10
122.6552397703299
 20
83.73214573479943
 30
0.0
 10
122.6923594873893
 20
83.67576539925255
 30
0.0
 10
122.7062268724609
 20
83.65462866685095
 30
0.0
  0
ARC
  5
197
330
138
100
AcDbEntity
  8
14088400_LEVER_H
  6
Continuous
 62
     7
100
AcDbCircle
 10
85.4924336204
 20
79.7490211189
 30
0.0
 40
36.88863907110505
100
AcDbArc
 50
344.5412106682
 51
349.5252974587
  0
ARC
  5
198
330
138
100
AcDbEntity
  8
14088400_LEVER_H
  6
Continuous
 62
     7
100
AcDbCircle
 10
176.5435557931
 20
79.7490211189
 30
0.0
 40
36.88863907110503
100
AcDbArc
 50
190.4761718609
 51
195.4587893318
  0
LINE
  5
199
330
138
100
AcDbEntity
  8
14088400_LEVER_H
  6
Continuous
 62
     7
100
AcDbLine
 10
139.5156798623
 20
84.0989694805
 30
0.0
 11
139.3800627896
 21
88.8486712879
 31
0.0
  0
LINE
  5
19A
330
138
100
AcDbEntity
  8
14088400_LEVER_H
  6
Continuous
 62
     7
100
AcDbLine
 10
122.6559266239
 20
88.8486712879
 30
0.0
 11
122.5203095512
 21
84.0989694805
 31
0.0
  0
SPLINE
  5
19B
330
138
100
AcDbEntity
  8
14088400_LEVER_H
  6
Continuous
 62
     7
100
AcDbSpline
210
0.0
220
0.0
230
1.0
 70
     8
 71
     3
 72
    22
 73
    18
 74
     0
 42
0.0000000016839386
 43
0.0000000001
 40
0.0578928580634398
 40
0.0578928580634398
 40
0.0578928580634398
 40
0.0578928580634398
 40
0.0676260159056608
 40
0.1058821897279856
 40
0.1685396393305233
 40
0.2339445465585331
 40
0.3017008411837805
 40
0.3709832032824184
 40
0.4429748768477237
 40
0.5184534047165573
 40
0.5966125962434344
 40
0.6771547661793694
 40
0.7578569789025137
 40
0.8275256343383312
 40
0.8913571335027066
 40
0.949168458547796
 40
1.0
 40
1.0
 40
1.0
 40
1.0
 10
140.1656362993667
 20
73.25513683601878
 30
0.0
 10
140.1657013440918
 20
73.25505824396593
 30
0.0
 10
140.1632026329023
 20
73.25809376737449
 30
0.0
 10
140.1471503363292
 20
73.27770667311754
 30
0.0
 10
140.0893872707247
 20
73.34832880226332
 30
0.0
 10
139.9768748041455
 20
73.4868804045072
 30
0.0
 10
139.8188230570071
 20
73.68491273984928
 30
0.0
 10
139.616831101707
 20
73.94345466594524
 30
0.0
 10
139.3760555893556
 20
74.26151182856022
 30
0.0
 10
139.1007759821772
 20
74.64162688215688
 30
0.0
 10
138.7977117608199
 20
75.08466556846757
 30
0.0
 10
138.4829286268526
 20
75.58503300017139
 30
0.0
 10
138.1874381991272
 20
76.11386738125886
 30
0.0
 10
137.9333234108655
 20
76.64577189381764
 30
0.0
 10
137.7382112980817
 20
77.15012934795881
 30
0.0
 10
137.5913114908218
 20
77.64277120401778
 30
0.0
 10
137.5434574953832
 20
77.94021891380262
 30
0.0
 10
137.5177958216135
 20
78.1047577425682
 30
0.0
  0
SPLINE
  5
19C
330
138
100
AcDbEntity
  8
14088400_LEVER_H
  6
Continuous
 62
     7
100
AcDbSpline
210
0.0
220
0.0
230
1.0
 70
     8
 71
     3
 72
    19
 73
    15
 74
     0
 42
0.0000000037310718
 43
0.0000000001
 40
0.0
 40
0.0
 40
0.0
 40
0.0
 40
0.0052490755752716
 40
0.0140209321882876
 40
0.0204627076652017
 40
0.0244336018151014
 40
0.0254926322952114
 40
0.0261632122810627
 40
0.0268590232975461
 40
0.0279668076051541
 40
0.0304126281780447
 40
0.0390479074490186
 40
0.0766297049012328
 40
0.1160766310338871
 40
0.1160766310338871
 40
0.1160766310338871
 40
0.1160766310338871
 10
140.2667865252004
 20
73.04180345813307
 30
0.0
 10
140.2638166567191
 20
73.0584076627338
 30
0.0
 10
140.2568405018617
 20
73.09608807759474
 30
0.0
 10
140.2324197259605
 20
73.15296414439688
 30
0.0
 10
140.2053579745164
 20
73.20129141607484
 30
0.0
 10
140.1858126477557
 20
73.22932777232246
 30
0.0
 10
140.1764405937309
 20
73.24162979467982
 30
0.0
 10
140.1735788729664
 20
73.24529472800512
 30
0.0
 10
140.1717399570415
 20
73.24762065179394
 30
0.0
 10
140.1700343947401
 20
73.24975444859224
 30
0.0
 10
140.1681155637242
 20
73.25212979693904
 30
0.0
 10
140.16546072559
 20
73.25538831619963
 30
0.0
 10
140.1545333910694
 20
73.26878183254485
 30
0.0
 10
140.1336499199088
 20
73.29424176384045
 30
0.0
 10
140.1202419725901
 20
73.31062961544157
 30
0.0
  0
ARC
  5
19D
330
138
100
AcDbEntity
  8
14088400_LEVER_H
  6
Continuous
 62
     7
100
AcDbCircle
 10
140.1686352587
 20
78.5772215837
 30
0.0
 40
2.696726811176091
100
AcDbArc
 50
177.6792643555
 51
190.1133308311
  0
SPLINE
  5
19E
330
138
100
AcDbEntity
  8
14088400_LEVER_H
  6
Continuous
 62
     7
100
AcDbSpline
210
0.0
220
0.0
230
1.0
 70
     8
 71
     3
 72
    21
 73
    17
 74
     0
 42
0.0000000019351242
 43
0.0000000001
 40
0.0
 40
0.0
 40
0.0
 40
0.0
 40
0.0296785410348979
 40
0.096482671308385
 40
0.1663242141008119
 40
0.2414547875512349
 40
0.3212897220124196
 40
0.4052590501842058
 40
0.4907630021961839
 40
0.5756134698123316
 40
0.6581729612208239
 40
0.7383421219787655
 40
0.8161013722219743
 40
0.8907531509644703
 40
0.9273735189080159
 40
0.9282722220655854
 40
0.9282722220655854
 40
0.9282722220655854
 40
0.9282722220655854
 10
137.520271420924
 20
79.45026180344658
 30
0.0
 10
137.5301721892966
 20
79.5387438190008
 30
0.0
 10
137.5581896782992
 20
79.78371043724866
 30
0.0
 10
137.6591271678448
 20
80.22492637365944
 30
0.0
 10
137.8140699644615
 20
80.74051089040293
 30
0.0
 10
138.009983539537
 20
81.2556546491559
 30
0.0
 10
138.2352886212098
 20
81.7585930808454
 30
0.0
 10
138.4764557648238
 20
82.23442838183256
 30
0.0
 10
138.7166963574883
 20
82.66604318139079
 30
0.0
 10
138.9362613478646
 20
83.03617293721958
 30
0.0
 10
139.1233285148786
 20
83.33647403740865
 30
0.0
 10
139.2708880156758
 20
83.5650477873473
 30
0.0
 10
139.3718784723806
 20
83.7188650165936
 30
0.0
 10
139.4168284453671
 20
83.78634713857822
 30
0.0
 10
139.4275266800518
 20
83.80219467354084
 30
0.0
 10
139.4276927301529
 20
83.80242760749526
 30
0.0
 10
139.4276939944377
 20
83.8024292049294
 30
0.0
  0
SPLINE
  5
19F
330
138
100
AcDbEntity
  8
14088400_LEVER_H
  6
Continuous
 62
     7
100
AcDbSpline
210
0.0
220
0.0
230
1.0
 70
     8
 71
     3
 72
    17
 73
    13
 74
     0
 42
0.0000000038533251
 43
0.0000000001
 40
0.8308830264796283
 40
0.8308830264796283
 40
0.8308830264796283
 40
0.8308830264796283
 40
0.9065781826428961
 40
0.9447038399079943
 40
0.9548843431020646
 40
0.9618752724873513
 40
0.9635512375318158
 40
0.9650443721380835
 40
0.9674350358286965
 40
0.9788650623553212
 40
0.9969687724412952
 40
1.0
 40
1.0
 40
1.0
 40
1.0
 10
139.3598425759582
 20
83.70031048693474
 30
0.0
 10
139.3857626964271
 20
83.73956490487357
 30
0.0
 10
139.4148584725709
 20
83.78319581142246
 30
0.0
 10
139.4271705872962
 20
83.80141348754528
 30
0.0
 10
139.4324981918717
 20
83.80953508787591
 30
0.0
 10
139.4342917480349
 20
83.81215588391925
 30
0.0
 10
139.4399692092287
 20
83.8211073074557
 30
0.0
 10
139.4455447337298
 20
83.83018981544535
 30
0.0
 10
139.4656386263609
 20
83.86489154873098
 30
0.0
 10
139.4992956246085
 20
83.94434757401731
 30
0.0
 10
139.5210480865365
 20
84.03562778998203
 30
0.0
 10
139.5139638605171
 20
84.08919486798652
 30
0.0
 10
139.5127530809493
 20
84.09812234831898
 30
0.0
  0
ARC
  5
1A0
330
138
100
AcDbEntity
  8
14088400_LEVER_H
  6
Continuous
 62
     7
100
AcDbCircle
 10
141.7414908113
 20
78.804093227
 30
0.0
 40
4.272821949314123
100
AcDbArc
 50
171.2923422327
 51
181.5735941559
  0
LINE
  5
1A1
330
138
100
AcDbEntity
  8
14088400_LEVER_H
  6
Continuous
 62
     7
100
AcDbLine
 10
125.0179947067
 20
110.1669084396
 30
0.0
 11
125.0179947067
 21
89.9756370518
 31
0.0
  0
LINE
  5
1A2
330
138
100
AcDbEntity
  8
14088400_LEVER_H
  6
Continuous
 62
     7
100
AcDbLine
 10
137.0179947067
 20
89.9756370518
 30
0.0
 11
137.0179947067
 21
110.1669084396
 31
0.0
  0
ENDBLK
  5
1A4
330
138
100
AcDbEntity
  8
0
100
AcDbBlockEnd
  0
ENDSEC
  0
SECTION
  2
ENTITIES
  0
LINE
  5
5E
330
1F
100
AcDbEntity
  8
Default
  6
Continuous
 62
     7
100
AcDbLine
 10
143.550598866
 20
121.5381326829
 30
0.0
 11
143.550598866
 21
150.4290769155
 31
0.0
  0
LINE
  5
5F
330
1F
100
AcDbEntity
  8
Default
  6
Continuous
 62
     7
100
AcDbLine
 10
118.4853905474
 20
121.5381326829
 30
0.0
 11
118.4853905474
 21
150.4290769155
 31
0.0
  0
LINE
  5
60
330
1F
100
AcDbEntity
  8
Default
  6
Continuous
 62
     7
100
AcDbLine
 10
304.9225133661
 20
254.5794276198
 30
0.0
 11
276.0315691335
 21
254.5794276198
 31
0.0
  0
LINE
  5
61
330
1F
100
AcDbEntity
  8
Default
  6
Continuous
 62
     7
100
AcDbLine
 10
304.9225133661
 20
229.5142193011
 30
0.0
 11
276.0315691335
 21
229.5142193011
 31
0.0
  0
INSERT
  5
63
330
1F
100
AcDbEntity
  8
Default
100
AcDbBlockReference
  2
SEANNOT_GROUP
 10
0.0
 20
0.0
 30
0.0
  0
INSERT
  5
6E
330
1F
100
AcDbEntity
  8
Default
100
AcDbBlockReference
  2
SEANNOT_GROUP1
 10
0.0
 20
0.0
 30
0.0
  0
INSERT
  5
74
330
1F
100
AcDbEntity
  8
Default
100
AcDbBlockReference
  2
SEANNOT_GROUP2
 10
0.0
 20
0.0
 30
0.0
  0
INSERT
  5
7A
330
1F
100
AcDbEntity
  8
Default
100
AcDbBlockReference
  2
SE
 10
0.0
 20
0.0
 30
0.0
  0
INSERT
  5
DA
330
1F
100
AcDbEntity
  8
Default
100
AcDbBlockReference
  2
SE1
 10
0.0
 20
0.0
 30
0.0
  0
INSERT
  5
139
330
1F
100
AcDbEntity
  8
Default
100
AcDbBlockReference
  2
SE2
 10
0.0
 20
0.0
 30
0.0
  0
TEXT
  5
1A6
330
1F
100
AcDbEntity
  8
Default
  6
Continuous
 62
     7
100
AcDbText
 10
5.9362635081
 20
53.4225120485
 30
0.0
 40
10.0
  1
Grohe AG^J
  7
SEACAD_seiso_ttf
 11
5.9362635081
 21
63.4225120485
 31
0.0
100
AcDbText
 73
     3
  0
TEXT
  5
1A7
330
1F
100
AcDbEntity
  8
Default
  6
Continuous
 62
     7
100
AcDbText
 10
5.9362635081
 20
37.0588756849
 30
0.0
 40
10.0
  1
 
  7
SEACAD_seiso_ttf
 11
5.9362635081
 21
47.0588756849
 31
0.0
100
AcDbText
 73
     3
  0
TEXT
  5
1A8
330
1F
100
AcDbEntity
  8
Default
  6
Continuous
 62
     7
100
AcDbText
 10
5.9362635081
 20
20.6952393213
 30
0.0
 40
10.0
  1
ecn: 
  7
SEACAD_seiso_ttf
 11
5.9362635081
 21
30.6952393213
 31
0.0
100
AcDbText
 73
     3
  0
TEXT
  5
1A9
330
1F
100
AcDbEntity
  8
Default
  6
Continuous
 62
     7
100
AcDbText
 10
5.9362635081
 20
4.3316029576
 30
0.0
 40
10.0
  1
unit: mm
  7
SEACAD_seiso_ttf
 11
5.9362635081
 21
14.3316029576
 31
0.0
100
AcDbText
 73
     3
  0
LINE
  5
1AA
330
1F
100
AcDbEntity
  8
Default
  6
Continuous
 62
     7
100
AcDbLine
 10
0.0
 20
0.0
 30
0.0
 11
100.0
 21
0.0
 31
0.0
  0
LINE
  5
1AB
330
1F
100
AcDbEntity
  8
Default
  6
Continuous
 62
     7
100
AcDbLine
 10
0.0
 20
0.0
 30
0.0
 11
0.0
 21
100.0
 31
0.0
  0
TEXT
  5
1AC
330
1F
100
AcDbEntity
  8
Default
  6
Continuous
 62
     7
100
AcDbText
 10
24.3923665681
 20
-18.2375342018
 30
0.0
 40
10.0
  1
100 mm
  7
SEACAD_seiso_ttf
 11
24.3923665681
 21
-8.2375342018
 31
0.0
100
AcDbText
 73
     3
  0
TEXT
  5
1AD
330
1F
100
AcDbEntity
  8
Default
  6
Continuous
 62
     7
100
AcDbText
 10
-7.6150308803
 20
24.6231930421
 30
0.0
 40
10.0
  1
100 mm
 50
90.0
  7
SEACAD_seiso_ttf
 11
-17.6150308803
 21
24.6231930421
 31
0.0
100
AcDbText
 73
     3
  0
TEXT
  5
1AE
330
1F
100
AcDbEntity
  8
Default
  6
Continuous
 62
     7
100
AcDbText
 10
28.4878128572
 20
20.0907663715
 30
0.0
 40
10.0
  1
209124
  7
SEACAD_seiso_ttf
 11
28.4878128572
 21
30.0907663715
 31
0.0
100
AcDbText
 73
     3
  0
TEXT
  5
1AF
330
1F
100
AcDbEntity
  8
Default
  6
Continuous
 62
     7
100
AcDbText
 10
5.9012241913
 20
36.7242780188
 30
0.0
 40
10.0
  1
19270000
  7
SEACAD_seiso_ttf
 11
5.9012241913
 21
46.7242780188
 31
0.0
100
AcDbText
 73
     3
  0
ENDSEC
  0
SECTION
  2
OBJECTS
  0
DICTIONARY
  5
C
330
0
100
AcDbDictionary
281
     1
  3
ACAD_GROUP
350
D
  3
ACAD_LAYOUT
350
1A
  3
ACAD_MLEADERSTYLE
350
1B3
  3
ACAD_MLINESTYLE
350
17
  3
ACAD_PLOTSETTINGS
350
19
  3
ACAD_PLOTSTYLENAME
350
E
  3
ACAD_SCALELIST
350
3B
  3
ACAD_TABLESTYLE
350
1B2
  3
ACAD_VISUALSTYLE
350
2A
  3
AcDbVariableDictionary
350
1B0
  0
DICTIONARY
  5
D
102
{ACAD_REACTORS
330
C
102
}
330
C
100
AcDbDictionary
281
     1
  0
DICTIONARY
  5
1A
102
{ACAD_REACTORS
330
C
102
}
330
C
100
AcDbDictionary
281
     1
  3
Layout1
350
1E
  3
Model
350
22
  0
DICTIONARY
  5
1B3
102
{ACAD_REACTORS
330
C
102
}
330
C
100
AcDbDictionary
281
     1
  0
DICTIONARY
  5
17
102
{ACAD_REACTORS
330
C
102
}
330
C
100
AcDbDictionary
281
     1
  3
Standard
350
18
  0
DICTIONARY
  5
19
102
{ACAD_REACTORS
330
C
102
}
330
C
100
AcDbDictionary
281
     1
  0
ACDBDICTIONARYWDFLT
  5
E
102
{ACAD_REACTORS
330
C
102
}
330
C
100
AcDbDictionary
281
     1
  3
Normal
350
F
100
AcDbDictionaryWithDefault
340
F
  0
DICTIONARY
  5
3B
102
{ACAD_REACTORS
330
C
102
}
330
C
100
AcDbDictionary
281
     1
  3
A0
350
3C
  3
A1
350
3D
  3
A2
350
3E
  3
A3
350
3F
  3
A4
350
40
  3
A5
350
41
  3
A6
350
42
  3
A7
350
43
  3
A8
350
44
  3
A9
350
45
  3
B0
350
46
  3
B1
350
47
  3
B2
350
48
  3
B3
350
49
  3
B4
350
4A
  3
B5
350
4B
  3
B6
350
4C
  3
B7
350
4D
  3
B8
350
4E
  3
B9
350
4F
  3
C0
350
50
  3
C1
350
51
  3
C2
350
52
  3
C3
350
53
  3
C4
350
54
  3
C5
350
55
  3
C6
350
56
  3
C7
350
57
  3
C8
350
58
  3
C9
350
59
  3
D0
350
5A
  3
D1
350
5B
  3
D2
350
5C
  0
DICTIONARY
  5
1B2
102
{ACAD_REACTORS
330
C
102
}
330
C
100
AcDbDictionary
281
     1
  0
DICTIONARY
  5
2A
102
{ACAD_REACTORS
330
C
102
}
330
C
100
AcDbDictionary
281
     1
  3
2dWireframe
350
2F
  3
3D Hidden
350
31
  3
3dWireframe
350
30
  3
Basic
350
32
  3
Brighten
350
36
  3
ColorChange
350
3A
  3
Conceptual
350
34
  3
Dim
350
35
  3
Facepattern
350
39
  3
Flat
350
2B
  3
FlatWithEdges
350
2C
  3
Gouraud
350
2D
  3
GouraudWithEdges
350
2E
  3
Linepattern
350
38
  3
Realistic
350
33
  3
Thicken
350
37
  0
DICTIONARY
  5
1B0
102
{ACAD_REACTORS
330
C
102
}
330
C
100
AcDbDictionary
281
     1
  3
CANNOSCALE
350
1B1
  3
PSOLHEIGHT
350
1B5
  3
PSOLWIDTH
350
1B4
  0
LAYOUT
  5
1E
102
{ACAD_REACTORS
330
1A
102
}
330
1A
100
AcDbPlotSettings
  1

  2
none_device
  4

  6

 40
0.0
 41
0.0
 42
0.0
 43
0.0
 44
0.0
 45
0.0
 46
0.0
 47
0.0
 48
0.0
 49
0.0
140
0.0
141
0.0
142
1.0
143
1.0
 70
   688
 72
     0
 73
     0
 74
     5
  7

 75
    16
147
1.0
148
0.0
149
0.0
100
AcDbLayout
  1
Layout1
 70
     1
 71
     1
 10
0.0
 20
0.0
 11
1682.0
 21
2378.0
 12
0.0
 22
0.0
 32
0.0
 14
0.0
 24
0.0
 34
0.0
 15
1682.0
 25
2378.0
 35
0.0
146
0.0
 13
0.0
 23
0.0
 33
0.0
 16
1.0
 26
0.0
 36
0.0
 17
0.0
 27
1.0
 37
0.0
 76
     0
330
1B
  0
LAYOUT
  5
22
102
{ACAD_REACTORS
330
1A
102
}
330
1A
100
AcDbPlotSettings
  1

  2
none_device
  4

  6

 40
0.0
 41
0.0
 42
0.0
 43
0.0
 44
0.0
 45
0.0
 46
0.0
 47
0.0
 48
0.0
 49
0.0
140
0.0
141
0.0
142
1.0
143
1.0
 70
  1712
 72
     0
 73
     0
 74
     0
  7

 75
     0
147
1.0
148
0.0
149
0.0
100
AcDbLayout
  1
Model
 70
     1
 71
     0
 10
0.0
 20
0.0
 11
1682.0
 21
2378.0
 12
0.0
 22
0.0
 32
0.0
 14
0.0
 24
0.0
 34
0.0
 15
1682.0
 25
2378.0
 35
0.0
146
0.0
 13
0.0
 23
0.0
 33
0.0
 16
1.0
 26
0.0
 36
0.0
 17
0.0
 27
1.0
 37
0.0
 76
     0
330
1F
331
29
  0
MLINESTYLE
  5
18
102
{ACAD_REACTORS
330
17
102
}
330
17
100
AcDbMlineStyle
  2
Standard
 70
     0
  3

 62
   256
 51
90.0
 52
90.0
 71
     2
 49
0.5
 62
   256
  6
BYLAYER
 49
-0.5
 62
   256
  6
BYLAYER
  0
ACDBPLACEHOLDER
  5
F
102
{ACAD_REACTORS
330
E
102
}
330
E
  0
SCALE
  5
3C
102
{ACAD_REACTORS
330
3B
102
}
330
3B
100
AcDbScale
 70
     0
300
1:1
140
1.0
141
1.0
290
     1
  0
SCALE
  5
3D
102
{ACAD_REACTORS
330
3B
102
}
330
3B
100
AcDbScale
 70
     0
300
1:2
140
1.0
141
2.0
290
     0
  0
SCALE
  5
3E
102
{ACAD_REACTORS
330
3B
102
}
330
3B
100
AcDbScale
 70
     0
300
1:4
140
1.0
141
4.0
290
     0
  0
SCALE
  5
3F
102
{ACAD_REACTORS
330
3B
102
}
330
3B
100
AcDbScale
 70
     0
300
1:5
140
1.0
141
5.0
290
     0
  0
SCALE
  5
40
102
{ACAD_REACTORS
330
3B
102
}
330
3B
100
AcDbScale
 70
     0
300
1:8
140
1.0
141
8.0
290
     0
  0
SCALE
  5
41
102
{ACAD_REACTORS
330
3B
102
}
330
3B
100
AcDbScale
 70
     0
300
1:10
140
1.0
141
10.0
290
     0
  0
SCALE
  5
42
102
{ACAD_REACTORS
330
3B
102
}
330
3B
100
AcDbScale
 70
     0
300
1:16
140
1.0
141
16.0
290
     0
  0
SCALE
  5
43
102
{ACAD_REACTORS
330
3B
102
}
330
3B
100
AcDbScale
 70
     0
300
1:20
140
1.0
141
20.0
290
     0
  0
SCALE
  5
44
102
{ACAD_REACTORS
330
3B
102
}
330
3B
100
AcDbScale
 70
     0
300
1:30
140
1.0
141
30.0
290
     0
  0
SCALE
  5
45
102
{ACAD_REACTORS
330
3B
102
}
330
3B
100
AcDbScale
 70
     0
300
1:40
140
1.0
141
40.0
290
     0
  0
SCALE
  5
46
102
{ACAD_REACTORS
330
3B
102
}
330
3B
100
AcDbScale
 70
     0
300
1:50
140
1.0
141
50.0
290
     0
  0
SCALE
  5
47
102
{ACAD_REACTORS
330
3B
102
}
330
3B
100
AcDbScale
 70
     0
300
1:100
140
1.0
141
100.0
290
     0
  0
SCALE
  5
48
102
{ACAD_REACTORS
330
3B
102
}
330
3B
100
AcDbScale
 70
     0
300
2:1
140
2.0
141
1.0
290
     0
  0
SCALE
  5
49
102
{ACAD_REACTORS
330
3B
102
}
330
3B
100
AcDbScale
 70
     0
300
4:1
140
4.0
141
1.0
290
     0
  0
SCALE
  5
4A
102
{ACAD_REACTORS
330
3B
102
}
330
3B
100
AcDbScale
 70
     0
300
8:1
140
8.0
141
1.0
290
     0
  0
SCALE
  5
4B
102
{ACAD_REACTORS
330
3B
102
}
330
3B
100
AcDbScale
 70
     0
300
10:1
140
10.0
141
1.0
290
     0
  0
SCALE
  5
4C
102
{ACAD_REACTORS
330
3B
102
}
330
3B
100
AcDbScale
 70
     0
300
100:1
140
100.0
141
1.0
290
     0
  0
SCALE
  5
4D
102
{ACAD_REACTORS
330
3B
102
}
330
3B
100
AcDbScale
 70
     0
300
1/128" = 1'-0"
140
0.0078125
141
12.0
290
     0
  0
SCALE
  5
4E
102
{ACAD_REACTORS
330
3B
102
}
330
3B
100
AcDbScale
 70
     0
300
1/64" = 1'-0"
140
0.015625
141
12.0
290
     0
  0
SCALE
  5
4F
102
{ACAD_REACTORS
330
3B
102
}
330
3B
100
AcDbScale
 70
     0
300
1/32" = 1'-0"
140
0.03125
141
12.0
290
     0
  0
SCALE
  5
50
102
{ACAD_REACTORS
330
3B
102
}
330
3B
100
AcDbScale
 70
     0
300
1/16" = 1'-0"
140
0.0625
141
12.0
290
     0
  0
SCALE
  5
51
102
{ACAD_REACTORS
330
3B
102
}
330
3B
100
AcDbScale
 70
     0
300
3/32" = 1'-0"
140
0.09375
141
12.0
290
     0
  0
SCALE
  5
52
102
{ACAD_REACTORS
330
3B
102
}
330
3B
100
AcDbScale
 70
     0
300
1/8" = 1'-0"
140
0.125
141
12.0
290
     0
  0
SCALE
  5
53
102
{ACAD_REACTORS
330
3B
102
}
330
3B
100
AcDbScale
 70
     0
300
3/16" = 1'-0"
140
0.1875
141
12.0
290
     0
  0
SCALE
  5
54
102
{ACAD_REACTORS
330
3B
102
}
330
3B
100
AcDbScale
 70
     0
300
1/4" = 1'-0"
140
0.25
141
12.0
290
     0
  0
SCALE
  5
55
102
{ACAD_REACTORS
330
3B
102
}
330
3B
100
AcDbScale
 70
     0
300
3/8" = 1'-0"
140
0.375
141
12.0
290
     0
  0
SCALE
  5
56
102
{ACAD_REACTORS
330
3B
102
}
330
3B
100
AcDbScale
 70
     0
300
1/2" = 1'-0"
140
0.5
141
12.0
290
     0
  0
SCALE
  5
57
102
{ACAD_REACTORS
330
3B
102
}
330
3B
100
AcDbScale
 70
     0
300
3/4" = 1'-0"
140
0.75
141
12.0
290
     0
  0
SCALE
  5
58
102
{ACAD_REACTORS
330
3B
102
}
330
3B
100
AcDbScale
 70
     0
300
1" = 1'-0"
140
1.0
141
12.0
290
     0
  0
SCALE
  5
59
102
{ACAD_REACTORS
330
3B
102
}
330
3B
100
AcDbScale
 70
     0
300
1-1/2" = 1'-0"
140
1.5
141
12.0
290
     0
  0
SCALE
  5
5A
102
{ACAD_REACTORS
330
3B
102
}
330
3B
100
AcDbScale
 70
     0
300
3" = 1'-0"
140
3.0
141
12.0
290
     0
  0
SCALE
  5
5B
102
{ACAD_REACTORS
330
3B
102
}
330
3B
100
AcDbScale
 70
     0
300
6" = 1'-0"
140
6.0
141
12.0
290
     0
  0
SCALE
  5
5C
102
{ACAD_REACTORS
330
3B
102
}
330
3B
100
AcDbScale
 70
     0
300
1'-0" = 1'-0"
140
12.0
141
12.0
290
     0
  0
VISUALSTYLE
  5
2F
102
{ACAD_REACTORS
330
2A
102
}
330
2A
100
AcDbVisualStyle
  2
2dWireframe
 70
     4
 71
     0
 72
     2
 73
     0
 90
        0
 40
-0.6
 41
-30.0
 62
     5
 63
     7
 74
     1
 91
        4
 64
     7
 65
   257
 75
     1
175
     1
 42
1.0
 92
        0
 66
   257
 43
1.0
 76
     1
 77
     6
 78
     2
 67
     7
 79
     5
170
     0
171
     0
290
     0
174
     0
 93
        1
 44
0.0
173
     0
291
     0
 45
0.0
1001
ACAD
1000
AcDbSavedByObjectVersion
1070
     0
  0
VISUALSTYLE
  5
31
102
{ACAD_REACTORS
330
2A
102
}
330
2A
100
AcDbVisualStyle
  2
3D Hidden
 70
     6
 71
     1
 72
     2
 73
     2
 90
        0
 40
-0.6
 41
-30.0
 62
     5
 63
     7
 74
     2
 91
        2
 64
     7
 65
   257
 75
     2
175
     1
 42
40.0
 92
        0
 66
   257
 43
1.0
 76
     1
 77
     6
 78
     2
 67
     7
 79
     3
170
     0
171
     0
290
     0
174
     0
 93
        1
 44
0.0
173
     0
291
     0
 45
0.0
1001
ACAD
1000
AcDbSavedByObjectVersion
1070
     0
  0
VISUALSTYLE
  5
30
102
{ACAD_REACTORS
330
2A
102
}
330
2A
100
AcDbVisualStyle
  2
3dWireframe
 70
     5
 71
     0
 72
     2
 73
     0
 90
        0
 40
-0.6
 41
-30.0
 62
     5
 63
     7
 74
     1
 91
        4
 64
     7
 65
   257
 75
     1
175
     1
 42
1.0
 92
        0
 66
   257
 43
1.0
 76
     1
 77
     6
 78
     2
 67
     7
 79
     5
170
     0
171
     0
290
     0
174
     0
 93
        1
 44
0.0
173
     0
291
     0
 45
0.0
1001
ACAD
1000
AcDbSavedByObjectVersion
1070
     0
  0
VISUALSTYLE
  5
32
102
{ACAD_REACTORS
330
2A
102
}
330
2A
100
AcDbVisualStyle
  2
Basic
 70
     7
 71
     1
 72
     0
 73
     1
 90
        0
 40
-0.6
 41
-30.0
 62
     5
 63
     7
 74
     0
 91
        4
 64
     7
 65
   257
 75
     1
175
     1
 42
1.0
 92
        8
 66
     7
 43
1.0
 76
     1
 77
     6
 78
     2
 67
     7
 79
     5
170
     0
171
     0
290
     0
174
     0
 93
        1
 44
0.0
173
     0
291
     1
 45
0.0
1001
ACAD
1000
AcDbSavedByObjectVersion
1070
     0
  0
VISUALSTYLE
  5
36
102
{ACAD_REACTORS
330
2A
102
}
330
2A
100
AcDbVisualStyle
  2
Brighten
 70
    12
 71
     2
 72
     2
 73
     0
 90
        0
 40
-0.6
 41
-30.0
 62
     5
 63
     7
 74
     1
 91
        4
 64
     7
 65
   257
 75
     1
175
     1
 42
1.0
 92
        8
 66
     7
 43
1.0
 76
     1
 77
     6
 78
     2
 67
     7
 79
     5
170
     0
171
     0
290
     0
174
     0
 93
        1
 44
50.0
173
     0
291
     1
 45
0.0
1001
ACAD
1000
AcDbSavedByObjectVersion
1070
     0
  0
VISUALSTYLE
  5
3A
102
{ACAD_REACTORS
330
2A
102
}
330
2A
100
AcDbVisualStyle
  2
ColorChange
 70
    16
 71
     2
 72
     2
 73
     3
 90
        0
 40
-0.6
 41
-30.0
 62
     5
 63
     8
 74
     1
 91
        4
 64
     7
 65
   257
 75
     1
175
     1
 42
1.0
 92
        8
 66
     8
 43
1.0
 76
     1
 77
     6
 78
     2
 67
     7
 79
     5
170
     0
171
     0
290
     0
174
     0
 93
        1
 44
0.0
173
     0
291
     1
 45
0.0
1001
ACAD
1000
AcDbSavedByObjectVersion
1070
     0
  0
VISUALSTYLE
  5
34
102
{ACAD_REACTORS
330
2A
102
}
330
2A
100
AcDbVisualStyle
  2
Conceptual
 70
     9
 71
     3
 72
     2
 73
     0
 90
        0
 40
-0.6
 41
-30.0
 62
     5
 63
     7
 74
     2
 91
        2
 64
     7
 65
   257
 75
     1
175
     1
 42
40.0
 92
        8
 66
     7
 43
1.0
 76
     1
 77
     6
 78
     2
 67
     7
 79
     3
170
     0
171
     0
290
     0
174
     0
 93
        1
 44
0.0
173
     0
291
     0
 45
0.0
1001
ACAD
1000
AcDbSavedByObjectVersion
1070
     0
  0
VISUALSTYLE
  5
35
102
{ACAD_REACTORS
330
2A
102
}
330
2A
100
AcDbVisualStyle
  2
Dim
 70
    11
 71
     2
 72
     2
 73
     0
 90
        0
 40
-0.6
 41
-30.0
 62
     5
 63
     7
 74
     1
 91
        4
 64
     7
 65
   257
 75
     1
175
     1
 42
1.0
 92
        8
 66
     7
 43
1.0
 76
     1
 77
     6
 78
     2
 67
     7
 79
     5
170
     0
171
     0
290
     0
174
     0
 93
        1
 44
-50.0
173
     0
291
     1
 45
0.0
1001
ACAD
1000
AcDbSavedByObjectVersion
1070
     0
  0
VISUALSTYLE
  5
39
102
{ACAD_REACTORS
330
2A
102
}
330
2A
100
AcDbVisualStyle
  2
Facepattern
 70
    15
 71
     2
 72
     2
 73
     0
 90
        0
 40
-0.6
 41
-30.0
 62
     5
 63
     7
 74
     1
 91
        4
 64
     7
 65
   257
 75
     1
175
     1
 42
1.0
 92
        8
 66
     7
 43
1.0
 76
     1
 77
     6
 78
     2
 67
     7
 79
     5
170
     0
171
     0
290
     0
174
     0
 93
        1
 44
0.0
173
     0
291
     1
 45
0.0
1001
ACAD
1000
AcDbSavedByObjectVersion
1070
     0
  0
VISUALSTYLE
  5
2B
102
{ACAD_REACTORS
330
2A
102
}
330
2A
100
AcDbVisualStyle
  2
Flat
 70
     0
 71
     2
 72
     1
 73
     1
 90
        2
 40
-0.6
 41
30.0
 62
     5
 63
     7
 74
     0
 91
        4
 64
     7
 65
   257
 75
     1
175
     1
 42
1.0
 92
        8
 66
     7
 43
1.0
 76
     1
 77
     6
 78
     2
 67
     7
 79
     5
170
     0
171
     0
290
     0
174
     0
 93
       13
 44
0.0
173
     0
291
     1
 45
0.0
1001
ACAD
1000
AcDbSavedByObjectVersion
1070
     0
  0
VISUALSTYLE
  5
2C
102
{ACAD_REACTORS
330
2A
102
}
330
2A
100
AcDbVisualStyle
  2
FlatWithEdges
 70
     1
 71
     2
 72
     1
 73
     1
 90
        2
 40
-0.6
 41
30.0
 62
     5
 63
     7
 74
     1
 91
        4
 64
     7
 65
   257
 75
     1
175
     1
 42
1.0
 92
        0
 66
   257
 43
1.0
 76
     1
 77
     6
 78
     2
 67
     7
 79
     5
170
     0
171
     0
290
     0
174
     0
 93
       13
 44
0.0
173
     0
291
     1
 45
0.0
1001
ACAD
1000
AcDbSavedByObjectVersion
1070
     0
  0
VISUALSTYLE
  5
2D
102
{ACAD_REACTORS
330
2A
102
}
330
2A
100
AcDbVisualStyle
  2
Gouraud
 70
     2
 71
     2
 72
     2
 73
     1
 90
        2
 40
-0.6
 41
30.0
 62
     5
 63
     7
 74
     0
 91
        4
 64
     7
 65
   257
 75
     1
175
     1
 42
1.0
 92
        0
 66
     7
 43
1.0
 76
     1
 77
     6
 78
     2
 67
     7
 79
     5
170
     0
171
     0
290
     0
174
     0
 93
       13
 44
0.0
173
     0
291
     1
 45
0.0
1001
ACAD
1000
AcDbSavedByObjectVersion
1070
     0
  0
VISUALSTYLE
  5
2E
102
{ACAD_REACTORS
330
2A
102
}
330
2A
100
AcDbVisualStyle
  2
GouraudWithEdges
 70
     3
 71
     2
 72
     2
 73
     1
 90
        2
 40
-0.6
 41
30.0
 62
     5
 63
     7
 74
     1
 91
        4
 64
     7
 65
   257
 75
     1
175
     1
 42
1.0
 92
        0
 66
   257
 43
1.0
 76
     1
 77
     6
 78
     2
 67
     7
 79
     5
170
     0
171
     0
290
     0
174
     0
 93
       13
 44
0.0
173
     0
291
     1
 45
0.0
1001
ACAD
1000
AcDbSavedByObjectVersion
1070
     0
  0
VISUALSTYLE
  5
38
102
{ACAD_REACTORS
330
2A
102
}
330
2A
100
AcDbVisualStyle
  2
Linepattern
 70
    14
 71
     2
 72
     2
 73
     0
 90
        0
 40
-0.6
 41
-30.0
 62
     5
 63
     7
 74
     1
 91
        4
 64
     7
 65
   257
 75
     7
175
     7
 42
1.0
 92
        8
 66
     7
 43
1.0
 76
     1
 77
     6
 78
     2
 67
     7
 79
     5
170
     0
171
     0
290
     0
174
     0
 93
        1
 44
0.0
173
     0
291
     1
 45
0.0
1001
ACAD
1000
AcDbSavedByObjectVersion
1070
     0
  0
VISUALSTYLE
  5
33
102
{ACAD_REACTORS
330
2A
102
}
330
2A
100
AcDbVisualStyle
  2
Realistic
 70
     8
 71
     2
 72
     2
 73
     0
 90
        0
 40
-0.6
 41
-30.0
 62
     5
 63
     7
 74
     1
 91
        0
 64
     7
 65
   257
 75
     1
175
     1
 42
1.0
 92
        8
 66
     8
 43
1.0
 76
     1
 77
     6
 78
     2
 67
     7
 79
     5
170
     0
171
     0
290
     0
174
     0
 93
       13
 44
0.0
173
     0
291
     0
 45
0.0
1001
ACAD
1000
AcDbSavedByObjectVersion
1070
     0
  0
VISUALSTYLE
  5
37
102
{ACAD_REACTORS
330
2A
102
}
330
2A
100
AcDbVisualStyle
  2
Thicken
 70
    13
 71
     2
 72
     2
 73
     0
 90
        0
 40
-0.6
 41
-30.0
 62
     5
 63
     7
 74
     1
 91
        4
 64
     7
 65
   257
 75
     1
175
     1
 42
1.0
 92
       12
 66
     7
 43
1.0
 76
     1
 77
     6
 78
     2
 67
     7
 79
     5
170
     0
171
     0
290
     0
174
     0
 93
        1
 44
0.0
173
     0
291
     1
 45
0.0
1001
ACAD
1000
AcDbSavedByObjectVersion
1070
     0
  0
DICTIONARYVAR
  5
1B1
102
{ACAD_REACTORS
330
1B0
102
}
330
1B0
100
DictionaryVariables
280
     0
  1
1:1
  0
DICTIONARYVAR
  5
1B5
102
{ACAD_REACTORS
330
1B0
102
}
330
1B0
100
DictionaryVariables
280
     0
  1
80.000000
  0
DICTIONARYVAR
  5
1B4
102
{ACAD_REACTORS
330
1B0
102
}
330
1B0
100
DictionaryVariables
280
     0
  1
5.000000
  0
ENDSEC
  0
EOF
