  0
SECTION
  2
HEADER
  9
$ACADVER
  1
AC1015
  9
$ACADMAINTVER
 70
     6
  9
$DWGCODEPAGE
  3
ANSI_1252
  9
$INSBASE
 10
0.0
 20
0.0
 30
0.0
  9
$EXTMIN
 10
0.0
 20
0.0
 30
0.0
  9
$EXTMAX
 10
1682.0
 20
2378.0
 30
0.0
  9
$LIMMIN
 10
0.0
 20
0.0
  9
$LIMMAX
 10
1682.0
 20
2378.0
  9
$ORTHOMODE
 70
     0
  9
$REGENMODE
 70
     1
  9
$FILLMODE
 70
     1
  9
$QTEXTMODE
 70
     0
  9
$MIRRTEXT
 70
     1
  9
$LTSCALE
 40
1.0
  9
$ATTMODE
 70
     1
  9
$TEXTSIZE
 40
2.5
  9
$TRACEWID
 40
1.0
  9
$TEXTSTYLE
  7
Standard
  9
$CLAYER
  8
0
  9
$CELTYPE
  6
ByLayer
  9
$CECOLOR
 62
   256
  9
$CELTSCALE
 40
1.0
  9
$DISPSILH
 70
     0
  9
$DIMSCALE
 40
1.0
  9
$DIMASZ
 40
2.5
  9
$DIMEXO
 40
0.625
  9
$DIMDLI
 40
3.75
  9
$DIMRND
 40
0.0
  9
$DIMDLE
 40
0.0
  9
$DIMEXE
 40
1.25
  9
$DIMTP
 40
0.0
  9
$DIMTM
 40
0.0
  9
$DIMTXT
 40
2.5
  9
$DIMCEN
 40
2.5
  9
$DIMTSZ
 40
0.0
  9
$DIMTOL
 70
     0
  9
$DIMLIM
 70
     0
  9
$DIMTIH
 70
     0
  9
$DIMTOH
 70
     0
  9
$DIMSE1
 70
     0
  9
$DIMSE2
 70
     0
  9
$DIMTAD
 70
     1
  9
$DIMZIN
 70
     8
  9
$DIMBLK
  1

  9
$DIMASO
 70
     1
  9
$DIMSHO
 70
     1
  9
$DIMPOST
  1

  9
$DIMAPOST
  1

  9
$DIMALT
 70
     0
  9
$DIMALTD
 70
     3
  9
$DIMALTF
 40
0.0393700787
  9
$DIMLFAC
 40
1.0
  9
$DIMTOFL
 70
     1
  9
$DIMTVP
 40
0.0
  9
$DIMTIX
 70
     0
  9
$DIMSOXD
 70
     0
  9
$DIMSAH
 70
     0
  9
$DIMBLK1
  1

  9
$DIMBLK2
  1

  9
$DIMSTYLE
  2
ISO-25
  9
$DIMCLRD
 70
     0
  9
$DIMCLRE
 70
     0
  9
$DIMCLRT
 70
     0
  9
$DIMTFAC
 40
1.0
  9
$DIMGAP
 40
0.625
  9
$DIMJUST
 70
     0
  9
$DIMSD1
 70
     0
  9
$DIMSD2
 70
     0
  9
$DIMTOLJ
 70
     0
  9
$DIMTZIN
 70
     8
  9
$DIMALTZ
 70
     0
  9
$DIMALTTZ
 70
     0
  9
$DIMUPT
 70
     0
  9
$DIMDEC
 70
     2
  9
$DIMTDEC
 70
     2
  9
$DIMALTU
 70
     2
  9
$DIMALTTD
 70
     3
  9
$DIMTXSTY
  7
Standard
  9
$DIMAUNIT
 70
     0
  9
$DIMADEC
 70
     0
  9
$DIMALTRND
 40
0.0
  9
$DIMAZIN
 70
     0
  9
$DIMDSEP
 70
    44
  9
$DIMATFIT
 70
     3
  9
$DIMFRAC
 70
     0
  9
$DIMLDRBLK
  1

  9
$DIMLUNIT
 70
     2
  9
$DIMLWD
 70
    -2
  9
$DIMLWE
 70
    -2
  9
$DIMTMOVE
 70
     0
  9
$LUNITS
 70
     2
  9
$LUPREC
 70
     4
  9
$SKETCHINC
 40
1.0
  9
$FILLETRAD
 40
10.0
  9
$AUNITS
 70
     0
  9
$AUPREC
 70
     0
  9
$MENU
  1
.
  9
$ELEVATION
 40
0.0
  9
$PELEVATION
 40
0.0
  9
$THICKNESS
 40
0.0
  9
$LIMCHECK
 70
     0
  9
$CHAMFERA
 40
10.0
  9
$CHAMFERB
 40
10.0
  9
$CHAMFERC
 40
20.0
  9
$CHAMFERD
 40
0.0
  9
$SKPOLY
 70
     0
  9
$TDCREATE
 40
2455546.298166458
  9
$TDUCREATE
 40
2455546.256499792
  9
$TDUPDATE
 40
2455546.29816647
  9
$TDUUPDATE
 40
2455546.256499803
  9
$TDINDWG
 40
0.0000000116
  9
$TDUSRTIMER
 40
0.0000000116
  9
$USRTIMER
 70
     1
  9
$ANGBASE
 50
0.0
  9
$ANGDIR
 70
     0
  9
$PDMODE
 70
     0
  9
$PDSIZE
 40
0.0
  9
$PLINEWID
 40
0.0
  9
$SPLFRAME
 70
     0
  9
$SPLINETYPE
 70
     6
  9
$SPLINESEGS
 70
     8
  9
$HANDSEED
  5
FF
  9
$SURFTAB1
 70
     6
  9
$SURFTAB2
 70
     6
  9
$SURFTYPE
 70
     6
  9
$SURFU
 70
     6
  9
$SURFV
 70
     6
  9
$UCSBASE
  2

  9
$UCSNAME
  2

  9
$UCSORG
 10
0.0
 20
0.0
 30
0.0
  9
$UCSXDIR
 10
1.0
 20
0.0
 30
0.0
  9
$UCSYDIR
 10
0.0
 20
1.0
 30
0.0
  9
$UCSORTHOREF
  2

  9
$UCSORTHOVIEW
 70
     0
  9
$UCSORGTOP
 10
0.0
 20
0.0
 30
0.0
  9
$UCSORGBOTTOM
 10
0.0
 20
0.0
 30
0.0
  9
$UCSORGLEFT
 10
0.0
 20
0.0
 30
0.0
  9
$UCSORGRIGHT
 10
0.0
 20
0.0
 30
0.0
  9
$UCSORGFRONT
 10
0.0
 20
0.0
 30
0.0
  9
$UCSORGBACK
 10
0.0
 20
0.0
 30
0.0
  9
$PUCSBASE
  2

  9
$PUCSNAME
  2

  9
$PUCSORG
 10
0.0
 20
0.0
 30
0.0
  9
$PUCSXDIR
 10
1.0
 20
0.0
 30
0.0
  9
$PUCSYDIR
 10
0.0
 20
1.0
 30
0.0
  9
$PUCSORTHOREF
  2

  9
$PUCSORTHOVIEW
 70
     0
  9
$PUCSORGTOP
 10
0.0
 20
0.0
 30
0.0
  9
$PUCSORGBOTTOM
 10
0.0
 20
0.0
 30
0.0
  9
$PUCSORGLEFT
 10
0.0
 20
0.0
 30
0.0
  9
$PUCSORGRIGHT
 10
0.0
 20
0.0
 30
0.0
  9
$PUCSORGFRONT
 10
0.0
 20
0.0
 30
0.0
  9
$PUCSORGBACK
 10
0.0
 20
0.0
 30
0.0
  9
$USERI1
 70
     0
  9
$USERI2
 70
     0
  9
$USERI3
 70
     0
  9
$USERI4
 70
     0
  9
$USERI5
 70
     0
  9
$USERR1
 40
0.0
  9
$USERR2
 40
0.0
  9
$USERR3
 40
0.0
  9
$USERR4
 40
0.0
  9
$USERR5
 40
0.0
  9
$WORLDVIEW
 70
     1
  9
$SHADEDGE
 70
     3
  9
$SHADEDIF
 70
    70
  9
$TILEMODE
 70
     1
  9
$MAXACTVP
 70
    64
  9
$PINSBASE
 10
0.0
 20
0.0
 30
0.0
  9
$PLIMCHECK
 70
     0
  9
$PEXTMIN
 10
0.0
 20
0.0
 30
0.0
  9
$PEXTMAX
 10
1682.0
 20
2378.0
 30
0.0
  9
$PLIMMIN
 10
0.0
 20
0.0
  9
$PLIMMAX
 10
1682.0
 20
2378.0
  9
$UNITMODE
 70
     0
  9
$VISRETAIN
 70
     1
  9
$PLINEGEN
 70
     0
  9
$PSLTSCALE
 70
     1
  9
$TREEDEPTH
 70
  3020
  9
$CMLSTYLE
  2
Standard
  9
$CMLJUST
 70
     0
  9
$CMLSCALE
 40
20.0
  9
$PROXYGRAPHICS
 70
     1
  9
$MEASUREMENT
 70
     1
  9
$CELWEIGHT
370
    -1
  9
$ENDCAPS
280
     0
  9
$JOINSTYLE
280
     0
  9
$LWDISPLAY
290
     0
  9
$INSUNITS
 70
     4
  9
$HYPERLINKBASE
  1

  9
$STYLESHEET
  1

  9
$XEDIT
290
     1
  9
$CEPSNTYPE
380
     0
  9
$PSTYLEMODE
290
     1
  9
$FINGERPRINTGUID
  2
{DC5839AC-9464-4D77-A464-065DAD8CB566}
  9
$VERSIONGUID
  2
{FAEB1C32-E019-11D5-929B-00C0DF256EC4}
  9
$EXTNAMES
290
     1
  9
$PSVPSCALE
 40
0.0
  9
$OLESTARTUP
290
     0
  0
ENDSEC
  0
SECTION
  2
CLASSES
  0
CLASS
  1
ACDBDICTIONARYWDFLT
  2
AcDbDictionaryWithDefault
  3
ObjectDBX Classes
 90
        0
280
     0
281
     0
  0
CLASS
  1
VISUALSTYLE
  2
AcDbVisualStyle
  3
ObjectDBX Classes
 90
     4095
280
     0
281
     0
  0
CLASS
  1
SCALE
  2
AcDbScale
  3
ObjectDBX Classes
 90
     1153
280
     0
281
     0
  0
CLASS
  1
DICTIONARYVAR
  2
AcDbDictionaryVar
  3
ObjectDBX Classes
 90
        0
280
     0
281
     0
  0
CLASS
  1
ACDBPLACEHOLDER
  2
AcDbPlaceHolder
  3
ObjectDBX Classes
 90
        0
280
     0
281
     0
  0
CLASS
  1
LAYOUT
  2
AcDbLayout
  3
ObjectDBX Classes
 90
        0
280
     0
281
     0
  0
ENDSEC
  0
SECTION
  2
TABLES
  0
TABLE
  2
VPORT
  5
8
330
0
100
AcDbSymbolTable
 70
     1
  0
VPORT
  5
29
330
8
100
AcDbSymbolTableRecord
100
AcDbViewportTableRecord
  2
*Active
 70
     0
 10
0.0
 20
0.0
 11
1.0
 21
1.0
 12
344.1869158879
 22
148.5
 13
0.0
 23
0.0
 14
10.0
 24
10.0
 15
10.0
 25
10.0
 16
0.0
 26
0.0
 36
1.0
 17
0.0
 27
0.0
 37
0.0
 40
297.0
 41
1.9729729729
 42
50.0
 43
0.0
 44
0.0
 50
0.0
 51
0.0
 71
     0
 72
   100
 73
     1
 74
     3
 75
     0
 76
     0
 77
     0
 78
     0
281
     0
 65
     1
110
0.0
120
0.0
130
0.0
111
1.0
121
0.0
131
0.0
112
0.0
122
1.0
132
0.0
 79
     0
146
0.0
  0
ENDTAB
  0
TABLE
  2
LTYPE
  5
5
330
0
100
AcDbSymbolTable
 70
     2
  0
LTYPE
  5
14
330
5
100
AcDbSymbolTableRecord
100
AcDbLinetypeTableRecord
  2
ByBlock
 70
     0
  3

 72
    65
 73
     0
 40
0.0
  0
LTYPE
  5
15
330
5
100
AcDbSymbolTableRecord
100
AcDbLinetypeTableRecord
  2
ByLayer
 70
     0
  3

 72
    65
 73
     0
 40
0.0
  0
LTYPE
  5
16
330
5
100
AcDbSymbolTableRecord
100
AcDbLinetypeTableRecord
  2
Continuous
 70
     0
  3
Solid line
 72
    65
 73
     0
 40
0.0
  0
LTYPE
  5
60
330
5
100
AcDbSymbolTableRecord
100
AcDbLinetypeTableRecord
  2
CENTER2
 70
     0
  3
Center (.5x) ___ _ ___ _ ___ _ ___ _ ___ _ ___
 72
    65
 73
     4
 40
28.575
 49
19.05
 74
     4
 75
     0
340
0
 46
0.0
 50
0.0
 44
0.0
 45
0.0
 49
-3.175
 74
     4
 75
     0
340
0
 46
0.0
 50
0.0
 44
0.0
 45
0.0
 49
3.175
 74
     4
 75
     0
340
0
 46
0.0
 50
0.0
 44
0.0
 45
0.0
 49
-3.175
 74
     4
 75
     0
340
0
 46
0.0
 50
0.0
 44
0.0
 45
0.0
  0
ENDTAB
  0
TABLE
  2
LAYER
  5
2
330
0
100
AcDbSymbolTable
 70
     7
  0
LAYER
  5
10
330
2
100
AcDbSymbolTableRecord
100
AcDbLayerTableRecord
  2
0
 70
     0
 62
     7
  6
Continuous
370
    -3
390
F
  0
LAYER
  5
5D
330
2
100
AcDbSymbolTableRecord
100
AcDbLayerTableRecord
  2
Default
 70
     0
 62
     7
  6
Continuous
370
    -3
390
F
  0
LAYER
  5
7F
330
2
100
AcDbSymbolTableRecord
100
AcDbLayerTableRecord
  2
410288038_WALL_S
 70
     0
 62
     7
  6
Continuous
370
    -3
390
F
  0
LAYER
  5
8E
330
2
100
AcDbSymbolTableRecord
100
AcDbLayerTableRecord
  2
$DDT_AUDIT_GENERATED_(8E)
 70
     0
 62
     7
  6
Continuous
370
    -3
390
F
  0
LAYER
  5
99
330
2
100
AcDbSymbolTableRecord
100
AcDbLayerTableRecord
  2
$DDT_AUDIT_GENERATED_(99)
 70
     0
 62
     7
  6
Continuous
370
    -3
390
F
  0
LAYER
  5
9F
330
2
100
AcDbSymbolTableRecord
100
AcDbLayerTableRecord
  2
$DDT_AUDIT_GENERATED_(9F)
 70
     0
 62
     7
  6
Continuous
370
    -3
390
F
  0
LAYER
  5
D5
330
2
100
AcDbSymbolTableRecord
100
AcDbLayerTableRecord
  2
STIFT_GEW-_00065
 70
     0
 62
     7
  6
Continuous
370
    -3
390
F
  0
ENDTAB
  0
TABLE
  2
STYLE
  5
3
330
0
100
AcDbSymbolTable
 70
     2
  0
STYLE
  5
11
330
3
100
AcDbSymbolTableRecord
100
AcDbTextStyleTableRecord
  2
Standard
 70
     0
 40
0.0
 41
1.0
 50
0.0
 71
     0
 42
2.5
  3
txt
  4

  0
STYLE
  5
EE
330
3
100
AcDbSymbolTableRecord
100
AcDbTextStyleTableRecord
  2
SEACAD_seiso_ttf
 70
     0
 40
0.0
 41
1.0
 50
0.0
 71
     0
 42
0.2
  3
seiso.ttf
  4

  0
ENDTAB
  0
TABLE
  2
VIEW
  5
6
330
0
100
AcDbSymbolTable
 70
     0
  0
ENDTAB
  0
TABLE
  2
UCS
  5
7
330
0
100
AcDbSymbolTable
 70
     0
  0
ENDTAB
  0
TABLE
  2
APPID
  5
9
330
0
100
AcDbSymbolTable
 70
     1
  0
APPID
  5
12
330
9
100
AcDbSymbolTableRecord
100
AcDbRegAppTableRecord
  2
ACAD
 70
     0
  0
ENDTAB
  0
TABLE
  2
DIMSTYLE
  5
A
330
0
100
AcDbSymbolTable
 70
     1
100
AcDbDimStyleTable
  0
DIMSTYLE
105
27
330
A
100
AcDbSymbolTableRecord
100
AcDbDimStyleTableRecord
  2
ISO-25
 70
     0
 41
2.5
 42
0.625
 43
3.75
 44
1.25
 73
     0
 74
     0
 77
     1
 78
     8
140
2.5
141
2.5
143
0.0393700787
147
0.625
171
     3
172
     1
271
     2
272
     2
274
     3
278
    44
283
     0
284
     8
340
11
  0
ENDTAB
  0
TABLE
  2
BLOCK_RECORD
  5
1
330
0
100
AcDbSymbolTable
 70
     9
  0
BLOCK_RECORD
  5
1F
330
1
100
AcDbSymbolTableRecord
100
AcDbBlockTableRecord
  2
*Model_Space
340
22
  0
BLOCK_RECORD
  5
1B
330
1
100
AcDbSymbolTableRecord
100
AcDbBlockTableRecord
  2
*Paper_Space
340
1E
  0
BLOCK_RECORD
  5
5E
330
1
100
AcDbSymbolTableRecord
100
AcDbBlockTableRecord
  2
SEANNOT_GROUP
340
0
102
{BLKREFS
331
5F
102
}
  0
BLOCK_RECORD
  5
65
330
1
100
AcDbSymbolTableRecord
100
AcDbBlockTableRecord
  2
SEANNOT_GROUP1
340
0
102
{BLKREFS
331
66
102
}
  0
BLOCK_RECORD
  5
6B
330
1
100
AcDbSymbolTableRecord
100
AcDbBlockTableRecord
  2
SEANNOT_GROUP2
340
0
102
{BLKREFS
331
6C
102
}
  0
BLOCK_RECORD
  5
71
330
1
100
AcDbSymbolTableRecord
100
AcDbBlockTableRecord
  2
SEANNOT_GROUP3
340
0
102
{BLKREFS
331
72
102
}
  0
BLOCK_RECORD
  5
77
330
1
100
AcDbSymbolTableRecord
100
AcDbBlockTableRecord
  2
SEANNOT_GROUP4
340
0
102
{BLKREFS
331
78
102
}
  0
BLOCK_RECORD
  5
7D
330
1
100
AcDbSymbolTableRecord
100
AcDbBlockTableRecord
  2
SE
340
0
102
{BLKREFS
331
7E
102
}
  0
BLOCK_RECORD
  5
AF
330
1
100
AcDbSymbolTableRecord
100
AcDbBlockTableRecord
  2
SE1
340
0
102
{BLKREFS
331
B0
102
}
  0
BLOCK_RECORD
  5
E0
330
1
100
AcDbSymbolTableRecord
100
AcDbBlockTableRecord
  2
SE2
340
0
102
{BLKREFS
331
E1
102
}
  0
ENDTAB
  0
ENDSEC
  0
SECTION
  2
BLOCKS
  0
BLOCK
  5
20
330
1F
100
AcDbEntity
  8
0
100
AcDbBlockBegin
  2
*Model_Space
 70
     0
 10
0.0
 20
0.0
 30
0.0
  3
*Model_Space
  1

  0
ENDBLK
  5
21
330
1F
100
AcDbEntity
  8
0
100
AcDbBlockEnd
  0
BLOCK
  5
1C
330
1B
100
AcDbEntity
 67
     1
  8
0
100
AcDbBlockBegin
  2
*Paper_Space
 70
     0
 10
0.0
 20
0.0
 30
0.0
  3
*Paper_Space
  1

  0
ENDBLK
  5
1D
330
1B
100
AcDbEntity
 67
     1
  8
0
100
AcDbBlockEnd
  0
BLOCK
  5
63
330
5E
100
AcDbEntity
  8
0
100
AcDbBlockBegin
  2
SEANNOT_GROUP
 70
     0
 10
0.0
 20
0.0
 30
0.0
  3
SEANNOT_GROUP
  1

  0
LINE
  5
61
330
5E
100
AcDbEntity
  8
Default
  6
CENTER2
 62
     7
100
AcDbLine
 10
111.5357537476
 20
438.6279292486
 30
0.0
 11
71.5357546417
 21
438.6279292486
 31
0.0
  0
LINE
  5
62
330
5E
100
AcDbEntity
  8
Default
  6
CENTER2
 62
     7
100
AcDbLine
 10
91.5357541947
 20
458.6279288016
 30
0.0
 11
91.5357541947
 21
418.6279296957
 31
0.0
  0
ENDBLK
  5
64
330
5E
100
AcDbEntity
  8
0
100
AcDbBlockEnd
  0
BLOCK
  5
69
330
65
100
AcDbEntity
  8
0
100
AcDbBlockBegin
  2
SEANNOT_GROUP1
 70
     0
 10
0.0
 20
0.0
 30
0.0
  3
SEANNOT_GROUP1
  1

  0
LINE
  5
67
330
65
100
AcDbEntity
  8
Default
  6
CENTER2
 62
     7
100
AcDbLine
 10
277.3219040389
 20
438.6269487339
 30
0.0
 11
237.321904933
 21
438.6269487339
 31
0.0
  0
LINE
  5
68
330
65
100
AcDbEntity
  8
Default
  6
CENTER2
 62
     7
100
AcDbLine
 10
257.3219044859
 20
458.6269482869
 30
0.0
 11
257.3219044859
 21
418.626949181
 31
0.0
  0
ENDBLK
  5
6A
330
65
100
AcDbEntity
  8
0
100
AcDbBlockEnd
  0
BLOCK
  5
6F
330
6B
100
AcDbEntity
  8
0
100
AcDbBlockBegin
  2
SEANNOT_GROUP2
 70
     0
 10
0.0
 20
0.0
 30
0.0
  3
SEANNOT_GROUP2
  1

  0
LINE
  5
6D
330
6B
100
AcDbEntity
  8
Default
  6
CENTER2
 62
     7
100
AcDbLine
 10
111.5357537476
 20
271.0405604104
 30
0.0
 11
71.5357546417
 21
271.0405604104
 31
0.0
  0
LINE
  5
6E
330
6B
100
AcDbEntity
  8
Default
  6
CENTER2
 62
     7
100
AcDbLine
 10
91.5357541947
 20
291.0405599634
 30
0.0
 11
91.5357541947
 21
251.0405608575
 31
0.0
  0
ENDBLK
  5
70
330
6B
100
AcDbEntity
  8
0
100
AcDbBlockEnd
  0
BLOCK
  5
75
330
71
100
AcDbEntity
  8
0
100
AcDbBlockBegin
  2
SEANNOT_GROUP3
 70
     0
 10
0.0
 20
0.0
 30
0.0
  3
SEANNOT_GROUP3
  1

  0
LINE
  5
73
330
71
100
AcDbEntity
  8
Default
  6
CENTER2
 62
     7
100
AcDbLine
 10
417.3856427584
 20
419.7279292488
 30
0.0
 11
377.3856436525
 21
419.7279292488
 31
0.0
  0
LINE
  5
74
330
71
100
AcDbEntity
  8
Default
  6
CENTER2
 62
     7
100
AcDbLine
 10
397.3856432054
 20
439.7279288018
 30
0.0
 11
397.3856432054
 21
399.7279296958
 31
0.0
  0
ENDBLK
  5
76
330
71
100
AcDbEntity
  8
0
100
AcDbBlockEnd
  0
BLOCK
  5
7B
330
77
100
AcDbEntity
  8
0
100
AcDbBlockBegin
  2
SEANNOT_GROUP4
 70
     0
 10
0.0
 20
0.0
 30
0.0
  3
SEANNOT_GROUP4
  1

  0
LINE
  5
79
330
77
100
AcDbEntity
  8
Default
  6
CENTER2
 62
     7
100
AcDbLine
 10
289.8219040391
 20
420.6531219574
 30
0.0
 11
249.8219049332
 21
420.6531219574
 31
0.0
  0
LINE
  5
7A
330
77
100
AcDbEntity
  8
Default
  6
CENTER2
 62
     7
100
AcDbLine
 10
269.8219044861
 20
440.6531215104
 30
0.0
 11
269.8219044861
 21
400.6531224044
 31
0.0
  0
ENDBLK
  5
7C
330
77
100
AcDbEntity
  8
0
100
AcDbBlockEnd
  0
BLOCK
  5
AD
330
7D
100
AcDbEntity
  8
0
100
AcDbBlockBegin
  2
SE
 70
     0
 10
0.0
 20
0.0
 30
0.0
  3
SE
  1

  0
LINE
  5
80
330
7D
100
AcDbEntity
  8
410288038_WALL_S
  6
Continuous
 62
     7
100
AcDbLine
 10
112.3969303354
 20
438.6279292486
 30
0.0
 11
112.3969303354
 21
450.4525266714
 31
0.0
  0
LINE
  5
81
330
7D
100
AcDbEntity
  8
410288038_WALL_S
  6
Continuous
 62
     7
100
AcDbLine
 10
70.6745780539
 20
438.6279292486
 30
0.0
 11
70.6745780539
 21
450.4525266714
 31
0.0
  0
ARC
  5
82
330
7D
100
AcDbEntity
  8
410288038_WALL_S
  6
Continuous
 62
     7
100
AcDbCircle
 10
93.9747135684
 20
445.3343887129
 30
0.0
 40
24.24609068565129
100
AcDbArc
 50
196.0573637618
 51
234.4531595321
  0
LINE
  5
83
330
7D
100
AcDbEntity
  8
410288038_WALL_S
  6
Continuous
 62
     7
100
AcDbLine
 10
112.3969303354
 20
438.6279292486
 30
0.0
 11
91.5357541947
 21
438.6279292486
 31
0.0
  0
LINE
  5
84
330
7D
100
AcDbEntity
  8
410288038_WALL_S
  6
Continuous
 62
     7
100
AcDbLine
 10
70.6745780539
 20
438.6279292486
 30
0.0
 11
91.5357541947
 21
438.6279292486
 31
0.0
  0
ARC
  5
85
330
7D
100
AcDbEntity
  8
410288038_WALL_S
  6
Continuous
 62
     7
100
AcDbCircle
 10
88.7505820456
 20
445.5791149266
 30
0.0
 40
24.64688154252844
100
AcDbArc
 50
305.8709392631
 51
343.6185389009
  0
LINE
  5
86
330
7D
100
AcDbEntity
  8
410288038_WALL_S
  6
Continuous
 62
     7
100
AcDbLine
 10
71.1745780539
 20
450.9525266714
 30
0.0
 11
91.5357541947
 21
450.9525266714
 31
0.0
  0
LINE
  5
87
330
7D
100
AcDbEntity
  8
410288038_WALL_S
  6
Continuous
 62
     7
100
AcDbLine
 10
91.5357541947
 20
450.9525266714
 30
0.0
 11
111.8969303354
 21
450.9525266714
 31
0.0
  0
SPLINE
  5
88
330
7D
100
AcDbEntity
  8
410288038_WALL_S
  6
Continuous
 62
     7
100
AcDbSpline
210
0.0
220
0.0
230
1.0
 70
     8
 71
     3
 72
    10
 73
     6
 74
     0
 42
0.0000000124189131
 43
0.0000000001
 40
0.0
 40
0.0
 40
0.0
 40
0.0
 40
0.5
 40
0.5
 40
1.0
 40
1.0
 40
1.0
 40
1.0
 10
71.17457805394601
 20
450.9525266713578
 30
0.0
 10
71.04367836004643
 20
450.9525266713578
 30
0.0
 10
70.91358472456436
 20
450.8986401231627
 30
0.0
 10
70.72846460214109
 20
450.7135200007394
 30
0.0
 10
70.67457805394601
 20
450.5834263652574
 30
0.0
 10
70.67457805394601
 20
450.4525266713578
 30
0.0
  0
SPLINE
  5
89
330
7D
100
AcDbEntity
  8
410288038_WALL_S
  6
Continuous
 62
     7
100
AcDbSpline
210
0.0
220
0.0
230
1.0
 70
     8
 71
     3
 72
    10
 73
     6
 74
     0
 42
0.0000000124189131
 43
0.0000000001
 40
0.0
 40
0.0
 40
0.0
 40
0.0
 40
0.5
 40
0.5
 40
1.0
 40
1.0
 40
1.0
 40
1.0
 10
111.8969303354
 20
450.9525266713578
 30
0.0
 10
112.0278300292996
 20
450.9525266713578
 30
0.0
 10
112.1579236647816
 20
450.8986401231627
 30
0.0
 10
112.3430437872049
 20
450.7135200007394
 30
0.0
 10
112.3969303354
 20
450.5834263652574
 30
0.0
 10
112.3969303354
 20
450.4525266713578
 30
0.0
  0
ARC
  5
8A
330
7D
100
AcDbEntity
  8
410288038_WALL_S
  6
Continuous
 62
     7
100
AcDbCircle
 10
91.5357467841
 20
442.527102393
 30
0.0
 40
20.55104336086301
100
AcDbArc
 50
305.1051416266
 51
306.5878434821
  0
ARC
  5
8B
330
7D
100
AcDbEntity
  8
410288038_WALL_S
  6
Continuous
 62
     7
100
AcDbCircle
 10
91.5357467841
 20
442.527102393
 30
0.0
 40
20.55104336086301
100
AcDbArc
 50
233.4106856556
 51
234.8975600535
  0
SPLINE
  5
8C
330
7D
100
AcDbEntity
  8
410288038_WALL_S
  6
Continuous
 62
     7
100
AcDbSpline
210
0.0
220
0.0
230
1.0
 70
     8
 71
     3
 72
    12
 73
     8
 74
     0
 42
0.0000000008393696
 43
0.0000000001
 40
0.0
 40
0.0
 40
0.0
 40
0.0
 40
0.2500000000000001
 40
0.2500000000000001
 40
0.5000000000000002
 40
0.5000000000000002
 40
1.0
 40
1.0
 40
1.0
 40
1.0
 10
79.87880461763899
 20
425.606787125536
 30
0.0
 10
80.2718886192083
 20
425.3387352531494
 30
0.0
 10
80.84222504754203
 20
425.0958157672002
 30
0.0
 10
82.33985621054785
 20
424.6546368789898
 30
0.0
 10
83.24376287148093
 20
424.4646818953323
 30
0.0
 10
86.35445980534317
 20
423.9937478196253
 30
0.0
 10
88.92104752208878
 20
423.8232099742274
 30
0.0
 10
91.53575332174373
 20
423.8232100117413
 30
0.0
  0
ARC
  5
8D
330
7D
100
AcDbEntity
  8
410288038_WALL_S
  6
Continuous
 62
     7
100
AcDbCircle
 10
93.2250319123
 20
451.7676092592
 30
0.0
 40
27.99541232878053
100
AcDbArc
 50
266.5405987032
 51
290.8576029319
  0
SPLINE
  5
8F
330
7D
100
AcDbEntity
  8
$DDT_AUDIT_GENERATED_(8E)
  6
Continuous
 62
     7
100
AcDbSpline
210
0.0
220
0.0
230
1.0
 70
    11
 71
     6
 72
    14
 73
     7
 74
     0
 42
0.0000000000205832
 43
0.0000000001
 40
0.0
 40
0.0
 40
0.0
 40
0.0
 40
0.0
 40
0.0
 40
0.0
 40
1.0
 40
1.0
 40
1.0
 40
1.0
 40
1.0
 40
1.0
 40
1.0
 10
91.535754194673
 20
478.6301596172078
 30
0.0
 10
140.97033141271
 20
478.6301596172078
 30
0.0
 10
176.721508389348
 20
405.1807624972818
 30
0.0
 10
91.53575419467163
 20
332.7837056440798
 30
0.0
 10
6.349999999999994
 20
405.1807624972818
 30
0.0
 10
42.10117697663599
 20
478.6301596172078
 30
0.0
 10
91.535754194673
 20
478.6301596172078
 30
0.0
  0
LINE
  5
90
330
7D
100
AcDbEntity
  8
$DDT_AUDIT_GENERATED_(8E)
  6
Continuous
 62
     7
100
AcDbLine
 10
71.251151706
 20
451.0788869982
 30
0.0
 11
111.8203566833
 21
451.0788869982
 31
0.0
  0
SPLINE
  5
91
330
7D
100
AcDbEntity
  8
$DDT_AUDIT_GENERATED_(8E)
  6
Continuous
 62
     7
100
AcDbSpline
210
0.0
220
0.0
230
1.0
 70
     8
 71
     3
 72
    13
 73
     9
 74
     0
 42
0.0000000088203725
 43
0.0000000001
 40
0.0
 40
0.0
 40
0.0
 40
0.0
 40
0.0881236894105
 40
0.2990422872625149
 40
0.484649540760954
 40
0.6791335167850644
 40
0.8802001540205404
 40
1.0
 40
1.0
 40
1.0
 40
1.0
 10
111.820356683309
 20
451.0788869981619
 30
0.0
 10
111.8564520815108
 20
451.0780569167433
 30
0.0
 10
111.9607545321334
 20
451.0741614801058
 30
0.0
 10
112.1440158412931
 20
451.0290738664024
 30
0.0
 10
112.3311145577105
 20
450.9070659291007
 30
0.0
 10
112.4605086056431
 20
450.7286239968676
 30
0.0
 10
112.5162095328246
 20
450.5366233074923
 30
0.0
 10
112.5217568563473
 20
450.4250119505066
 30
0.0
 10
112.523290662196
 20
450.3759530192008
 30
0.0
  0
SPLINE
  5
92
330
7D
100
AcDbEntity
  8
$DDT_AUDIT_GENERATED_(8E)
  6
Continuous
 62
     7
100
AcDbSpline
210
0.0
220
0.0
230
1.0
 70
     8
 71
     3
 72
    13
 73
     9
 74
     0
 42
0.0000000088203725
 43
0.0000000001
 40
0.0
 40
0.0
 40
0.0
 40
0.0
 40
0.088123689410596
 40
0.2990422872629798
 40
0.484649540761993
 40
0.6791335167868632
 40
0.8802001540230516
 40
1.0
 40
1.0
 40
1.0
 40
1.0
 10
70.54821772714972
 20
450.3759530192034
 30
0.0
 10
70.54904780856462
 20
450.4120484174052
 30
0.0
 10
70.5529432451915
 20
450.5163508680282
 30
0.0
 10
70.59803085887633
 20
450.6996121771923
 30
0.0
 10
70.72003879615912
 20
450.8867108936222
 30
0.0
 10
70.89848072837928
 20
451.0161049415731
 30
0.0
 10
71.0904814177481
 20
451.0718058687738
 30
0.0
 10
71.20209277473224
 20
451.077353192308
 30
0.0
 10
71.25115170603674
 20
451.0788869981619
 30
0.0
  0
LINE
  5
93
330
7D
100
AcDbEntity
  8
$DDT_AUDIT_GENERATED_(8E)
  6
Continuous
 62
     7
100
AcDbLine
 10
112.5232906622
 20
450.3759530192
 30
0.0
 11
112.523290661
 21
438.7275949279
 31
0.0
  0
LINE
  5
94
330
7D
100
AcDbEntity
  8
$DDT_AUDIT_GENERATED_(8E)
  6
Continuous
 62
     7
100
AcDbLine
 10
70.5482177283
 20
438.727594756
 30
0.0
 11
70.5482177271
 21
450.3759530192
 31
0.0
  0
SPLINE
  5
95
330
7D
100
AcDbEntity
  8
$DDT_AUDIT_GENERATED_(8E)
  6
Continuous
 62
     7
100
AcDbSpline
210
0.0
220
0.0
230
1.0
 70
     8
 71
     3
 72
     8
 73
     4
 74
     0
 42
0.0000000350161507
 43
0.0000000001
 40
0.0
 40
0.0
 40
0.0
 40
0.0
 40
1.0
 40
1.0
 40
1.0
 40
1.0
 10
112.5216762644025
 20
438.7743668772339
 30
0.0
 10
112.5317023839053
 20
438.7210507271233
 30
0.0
 10
112.5174887211467
 20
438.6283572587656
 30
0.0
 10
112.4790352761267
 20
438.4962864721605
 30
0.0
  0
SPLINE
  5
96
330
7D
100
AcDbEntity
  8
$DDT_AUDIT_GENERATED_(8E)
  6
Continuous
 62
     7
100
AcDbSpline
210
0.0
220
0.0
230
1.0
 70
     8
 71
     3
 72
     8
 73
     4
 74
     0
 42
0.0000000348883931
 43
0.0000000001
 40
0.0
 40
0.0
 40
0.0
 40
0.0
 40
1.0
 40
1.0
 40
1.0
 40
1.0
 10
70.60444073116297
 20
438.452273662879
 30
0.0
 10
70.57737787086212
 20
438.4993000571197
 30
0.0
 10
70.56020259326004
 20
438.591841585991
 30
0.0
 10
70.5529148983567
 20
438.7298982494928
 30
0.0
  0
SPLINE
  5
97
330
7D
100
AcDbEntity
  8
$DDT_AUDIT_GENERATED_(8E)
  6
Continuous
 62
     7
100
AcDbSpline
210
0.0
220
0.0
230
1.0
 70
     8
 71
     3
 72
    19
 73
    15
 74
     0
 42
0.0000000001742604
 43
0.0000000001
 40
0.0
 40
0.0
 40
0.0
 40
0.0
 40
0.0227060905813392
 40
0.0501454098078162
 40
0.0746246037768548
 40
0.1006390353134189
 40
0.1256486000955608
 40
0.1503111530387909
 40
0.1745933308709923
 40
0.1984757818930417
 40
0.2219552951878535
 40
0.2450442706708934
 40
0.2677697466655769
 40
0.2810314981203466
 40
0.2810314981203466
 40
0.2810314981203466
 40
0.2810314981203466
 10
112.4730777794015
 20
438.4999591614064
 30
0.0
 10
112.3130168697024
 20
438.0500490380797
 30
0.0
 10
112.011904788119
 20
437.2116933811094
 30
0.0
 10
111.469042774528
 20
435.8584436731044
 30
0.0
 10
110.8585184268143
 20
434.507384888933
 30
0.0
 10
110.1903490572548
 20
433.2243716662864
 30
0.0
 10
109.4495837766021
 20
431.9810581202482
 30
0.0
 10
108.6570070663687
 20
430.8090015137871
 30
0.0
 10
107.8106929695328
 20
429.702364756069
 30
0.0
 10
106.9149826312902
 20
428.6649339727917
 30
0.0
 10
105.9741638249559
 20
427.6998327233036
 30
0.0
 10
104.9921084864595
 20
426.8093126754739
 30
0.0
 10
104.1090336901806
 20
426.1038815300857
 30
0.0
 10
103.55004658763
 20
425.7022959486525
 30
0.0
 10
103.3413492174322
 20
425.5582237774638
 30
0.0
  0
SPLINE
  5
98
330
7D
100
AcDbEntity
  8
$DDT_AUDIT_GENERATED_(8E)
  6
Continuous
 62
     7
100
AcDbSpline
210
0.0
220
0.0
230
1.0
 70
     8
 71
     3
 72
    19
 73
    15
 74
     0
 42
0.0000000001742636
 43
0.0000000001
 40
0.7188769731164502
 40
0.7188769731164502
 40
0.7188769731164502
 40
0.7188769731164502
 40
0.7400859245377237
 40
0.7621255884674822
 40
0.7845726124770812
 40
0.8074446823703252
 40
0.8307516937952151
 40
0.8544868092203144
 40
0.8786251616288121
 40
0.9031228318540175
 40
0.9279164064095401
 40
0.9531108082489791
 40
0.9797938774197155
 40
1.0
 40
1.0
 40
1.0
 40
1.0
 10
79.73464752365348
 20
425.554856274954
 30
0.0
 10
79.40073897728075
 20
425.7850449527597
 30
0.0
 10
78.73406509119619
 20
426.2750912667999
 30
0.0
 10
77.76881878669629
 20
427.0800184561893
 30
0.0
 10
76.83072989501332
 20
427.9634839567743
 30
0.0
 10
75.93005684327552
 20
428.9186298995655
 30
0.0
 10
75.07064683756897
 20
429.943420486542
 30
0.0
 10
74.25679085042253
 20
431.0350255836068
 30
0.0
 10
73.49303707857865
 20
432.1898682807413
 30
0.0
 10
72.7847713492003
 20
433.402181390967
 30
0.0
 10
72.13387443402544
 20
434.6721431204415
 30
0.0
 10
71.5415994783853
 20
436.0044288877171
 30
0.0
 10
71.02203940067005
 20
437.3143889384927
 30
0.0
 10
70.7403423238967
 20
438.0992966645498
 30
0.0
 10
70.5978485850525
 20
438.499651309321
 30
0.0
  0
LINE
  5
9A
330
7D
100
AcDbEntity
  8
$DDT_AUDIT_GENERATED_(99)
  6
Continuous
 62
     7
100
AcDbLine
 10
82.4857541947
 20
419.3279292488
 30
0.0
 11
100.5857541947
 21
419.3279292488
 31
0.0
  0
LINE
  5
9B
330
7D
100
AcDbEntity
  8
$DDT_AUDIT_GENERATED_(99)
  6
Continuous
 62
     7
100
AcDbLine
 10
100.7857541947
 20
419.5279292488
 30
0.0
 11
100.7857541947
 21
419.7279292488
 31
0.0
  0
LINE
  5
9C
330
7D
100
AcDbEntity
  8
$DDT_AUDIT_GENERATED_(99)
  6
Continuous
 62
     7
100
AcDbLine
 10
82.2857541947
 20
419.7279292488
 30
0.0
 11
82.2857541947
 21
419.5279292488
 31
0.0
  0
ARC
  5
9D
330
7D
100
AcDbEntity
  8
$DDT_AUDIT_GENERATED_(99)
  6
Continuous
 62
     7
100
AcDbCircle
 10
82.4857541947
 20
419.5279292488
 30
0.0
 40
0.1999999999999988
100
AcDbArc
 50
180.0
 51
270.0
  0
ARC
  5
9E
330
7D
100
AcDbEntity
  8
$DDT_AUDIT_GENERATED_(99)
  6
Continuous
 62
     7
100
AcDbCircle
 10
100.5857541947
 20
419.5279292488
 30
0.0
 40
0.1999999999999988
100
AcDbArc
 50
270.0
 51
0.0
  0
LINE
  5
A0
330
7D
100
AcDbEntity
  8
$DDT_AUDIT_GENERATED_(9F)
  6
Continuous
 62
     7
100
AcDbLine
 10
102.2857541947
 20
419.7279292488
 30
0.0
 11
80.7857541947
 21
419.7279292488
 31
0.0
  0
LINE
  5
A1
330
7D
100
AcDbEntity
  8
$DDT_AUDIT_GENERATED_(9F)
  6
Continuous
 62
     7
100
AcDbLine
 10
102.5357541947
 20
420.0454718969
 30
0.0
 11
102.5357541947
 21
419.8722668174
 31
0.0
  0
LINE
  5
A2
330
7D
100
AcDbEntity
  8
$DDT_AUDIT_GENERATED_(9F)
  6
Continuous
 62
     7
100
AcDbLine
 10
102.5357541947
 20
422.7279292488
 30
0.0
 11
103.3357541947
 21
422.7279292488
 31
0.0
  0
LINE
  5
A3
330
7D
100
AcDbEntity
  8
$DDT_AUDIT_GENERATED_(9F)
  6
Continuous
 62
     7
100
AcDbLine
 10
102.5357541947
 20
420.0454718969
 30
0.0
 11
102.5357541947
 21
420.9114973007
 31
0.0
  0
LINE
  5
A4
330
7D
100
AcDbEntity
  8
$DDT_AUDIT_GENERATED_(9F)
  6
Continuous
 62
     7
100
AcDbLine
 10
102.5357541947
 20
420.9114973007
 30
0.0
 11
102.5357541947
 21
422.7279292488
 31
0.0
  0
LINE
  5
A5
330
7D
100
AcDbEntity
  8
$DDT_AUDIT_GENERATED_(9F)
  6
Continuous
 62
     7
100
AcDbLine
 10
80.5357541947
 20
420.0454718969
 30
0.0
 11
80.5357541947
 21
419.8722668174
 31
0.0
  0
LINE
  5
A6
330
7D
100
AcDbEntity
  8
$DDT_AUDIT_GENERATED_(9F)
  6
Continuous
 62
     7
100
AcDbLine
 10
79.7357541947
 20
422.7279292488
 30
0.0
 11
80.5357541947
 21
422.7279292488
 31
0.0
  0
LINE
  5
A7
330
7D
100
AcDbEntity
  8
$DDT_AUDIT_GENERATED_(9F)
  6
Continuous
 62
     7
100
AcDbLine
 10
80.5357541947
 20
422.7279292488
 30
0.0
 11
80.5357541947
 21
420.9114973007
 31
0.0
  0
LINE
  5
A8
330
7D
100
AcDbEntity
  8
$DDT_AUDIT_GENERATED_(9F)
  6
Continuous
 62
     7
100
AcDbLine
 10
80.5357541947
 20
420.9114973007
 30
0.0
 11
80.5357541947
 21
420.0454718969
 31
0.0
  0
LINE
  5
A9
330
7D
100
AcDbEntity
  8
$DDT_AUDIT_GENERATED_(9F)
  6
Continuous
 62
     7
100
AcDbLine
 10
80.5357541947
 20
419.8722668161
 30
0.0
 11
80.7857541947
 21
419.7279292488
 31
0.0
  0
LINE
  5
AA
330
7D
100
AcDbEntity
  8
$DDT_AUDIT_GENERATED_(9F)
  6
Continuous
 62
     7
100
AcDbLine
 10
102.2857541947
 20
419.7279292488
 30
0.0
 11
102.5357541947
 21
419.8722668161
 31
0.0
  0
LINE
  5
AB
330
7D
100
AcDbEntity
  8
$DDT_AUDIT_GENERATED_(9F)
  6
Continuous
 62
     7
100
AcDbLine
 10
79.7357541947
 20
425.7143805811
 30
0.0
 11
79.7357541947
 21
422.7279292488
 31
0.0
  0
LINE
  5
AC
330
7D
100
AcDbEntity
  8
$DDT_AUDIT_GENERATED_(9F)
  6
Continuous
 62
     7
100
AcDbLine
 10
103.3357541947
 20
422.7279292488
 30
0.0
 11
103.3357541947
 21
425.7141254462
 31
0.0
  0
ENDBLK
  5
AE
330
7D
100
AcDbEntity
  8
0
100
AcDbBlockEnd
  0
BLOCK
  5
DE
330
AF
100
AcDbEntity
  8
0
100
AcDbBlockBegin
  2
SE1
 70
     0
 10
0.0
 20
0.0
 30
0.0
  3
SE1
  1

  0
LINE
  5
B1
330
AF
100
AcDbEntity
  8
410288038_WALL_S
  6
Continuous
 62
     7
100
AcDbLine
 10
422.0123262978
 20
438.6279292486
 30
0.0
 11
422.0124648964
 21
450.4525266714
 31
0.0
  0
LINE
  5
B2
330
AF
100
AcDbEntity
  8
410288038_WALL_S
  6
Continuous
 62
     7
100
AcDbLine
 10
401.1510194418
 20
438.6279292486
 30
0.0
 11
422.0123262978
 21
438.6279292486
 31
0.0
  0
ARC
  5
B3
330
AF
100
AcDbEntity
  8
410288038_WALL_S
  6
Continuous
 62
     7
100
AcDbCircle
 10
399.3807817072
 20
444.972018303
 30
0.0
 40
23.50392044932127
100
AcDbArc
 50
295.8683174249
 51
344.3407192653
  0
LINE
  5
B4
330
AF
100
AcDbEntity
  8
410288038_WALL_S
  6
Continuous
 62
     7
100
AcDbLine
 10
401.1510194418
 20
450.9525266714
 30
0.0
 11
421.5124648964
 21
450.9525266714
 31
0.0
  0
SPLINE
  5
B5
330
AF
100
AcDbEntity
  8
410288038_WALL_S
  6
Continuous
 62
     7
100
AcDbSpline
210
0.0
220
0.0
230
1.0
 70
     8
 71
     3
 72
    10
 73
     6
 74
     0
 42
0.0000000124189131
 43
0.0000000001
 40
0.0
 40
0.0
 40
0.0
 40
0.0
 40
0.5
 40
0.5
 40
1.0
 40
1.0
 40
1.0
 40
1.0
 10
421.5124648963807
 20
450.9525266713578
 30
0.0
 10
421.6433645902789
 20
450.9525266713578
 30
0.0
 10
421.773458225761
 20
450.8986401231627
 30
0.0
 10
421.9585783481842
 20
450.7135200007395
 30
0.0
 10
422.0124648963793
 20
450.5834263652575
 30
0.0
 10
422.01246489638
 20
450.4525266713578
 30
0.0
  0
ARC
  5
B6
330
AF
100
AcDbEntity
  8
410288038_WALL_S
  6
Continuous
 62
     7
100
AcDbCircle
 10
397.3486249919
 20
405.2679058421
 30
0.0
 40
20.69126027193627
100
AcDbArc
 50
79.4106916215
 51
126.1746300633
  0
ARC
  5
B7
330
AF
100
AcDbEntity
  8
410288038_WALL_S
  6
Continuous
 62
     7
100
AcDbCircle
 10
504.235290154
 20
894.9146641032
 30
0.0
 40
480.4958390254441
100
AcDbArc
 50
257.6116173655
 51
258.6454765367
  0
LINE
  5
B8
330
AF
100
AcDbEntity
  8
410288038_WALL_S
  6
Continuous
 62
     7
100
AcDbLine
 10
265.3219046054
 20
450.9525266714
 30
0.0
 11
401.1510194418
 21
450.9525266714
 31
0.0
  0
LINE
  5
B9
330
AF
100
AcDbEntity
  8
410288038_WALL_S
  6
Continuous
 62
     7
100
AcDbLine
 10
265.3219046054
 20
438.6279292486
 30
0.0
 11
401.1510194418
 21
438.6279292486
 31
0.0
  0
ARC
  5
BA
330
AF
100
AcDbEntity
  8
410288038_WALL_S
  6
Continuous
 62
     7
100
AcDbCircle
 10
269.8219044659
 20
402.9267719608
 30
0.0
 40
19.20931640672248
100
AcDbArc
 50
82.4678504888
 51
97.5321482509
  0
LINE
  5
BB
330
AF
100
AcDbEntity
  8
410288038_WALL_S
  6
Continuous
 62
     7
100
AcDbLine
 10
272.3398678301
 20
421.9703401063
 30
0.0
 11
385.1666161518
 21
421.9703401063
 31
0.0
  0
LINE
  5
BC
330
AF
100
AcDbEntity
  8
410288038_WALL_S
  6
Continuous
 62
     7
100
AcDbLine
 10
265.3219046054
 20
421.9703401063
 30
0.0
 11
267.3040499693
 21
421.9703401063
 31
0.0
  0
LINE
  5
BD
330
AF
100
AcDbEntity
  8
$DDT_AUDIT_GENERATED_(8E)
  6
Continuous
 62
     7
100
AcDbLine
 10
257.3219044859
 20
478.6301596172
 30
0.0
 11
257.3219044859
 21
398.6237378506
 31
0.0
  0
LINE
  5
BE
330
AF
100
AcDbEntity
  8
$DDT_AUDIT_GENERATED_(8E)
  6
Continuous
 62
     7
100
AcDbLine
 10
265.3219046054
 20
477.6301596172
 30
0.0
 11
265.3219046054
 21
399.6237550178
 31
0.0
  0
LINE
  5
BF
330
AF
100
AcDbEntity
  8
$DDT_AUDIT_GENERATED_(8E)
  6
Continuous
 62
     7
100
AcDbLine
 10
264.3219046054
 20
478.6301596172
 30
0.0
 11
257.3219044859
 21
478.6301596172
 31
0.0
  0
LINE
  5
C0
330
AF
100
AcDbEntity
  8
$DDT_AUDIT_GENERATED_(8E)
  6
Continuous
 62
     7
100
AcDbLine
 10
257.3219044859
 20
398.6237378506
 30
0.0
 11
264.3219046054
 21
398.6237378506
 31
0.0
  0
SPLINE
  5
C1
330
AF
100
AcDbEntity
  8
$DDT_AUDIT_GENERATED_(8E)
  6
Continuous
 62
     7
100
AcDbSpline
210
0.0
220
0.0
230
1.0
 70
     8
 71
     3
 72
    13
 73
     9
 74
     0
 42
0.0000000063014691
 43
0.0000000001
 40
0.0
 40
0.0
 40
0.0
 40
0.0
 40
0.1294353894207184
 40
0.2550301634045705
 40
0.5000000700765382
 40
0.7449699367923128
 40
0.870564665748142
 40
1.0
 40
1.0
 40
1.0
 40
1.0
 10
264.3219046053527
 20
398.6237554527681
 30
0.0
 10
264.3960839829446
 20
398.6274364604467
 30
0.0
 10
264.519995444389
 20
398.6355097849911
 30
0.0
 10
264.7749409411109
 20
398.7155808426179
 30
0.0
 10
265.0465306446627
 20
398.8991292466832
 30
0.0
 10
265.2300791648496
 20
399.1707188502111
 30
0.0
 10
265.3101502671898
 20
399.425664258273
 30
0.0
 10
265.3182235956797
 20
399.549575671992
 30
0.0
 10
265.3219046053527
 20
399.6237550177898
 30
0.0
  0
SPLINE
  5
C2
330
AF
100
AcDbEntity
  8
$DDT_AUDIT_GENERATED_(8E)
  6
Continuous
 62
     7
100
AcDbSpline
210
0.0
220
0.0
230
1.0
 70
     8
 71
     3
 72
    13
 73
     9
 74
     0
 42
0.0000000063014677
 43
0.0000000001
 40
0.0
 40
0.0
 40
0.0
 40
0.0
 40
0.1294353618363176
 40
0.2550301133061735
 40
0.5000000000000013
 40
0.7449698866938298
 40
0.870564638163682
 40
1.0
 40
1.0
 40
1.0
 40
1.0
 10
265.3219046053527
 20
477.6301596172078
 30
0.0
 10
265.3182235958763
 20
477.7043389950359
 30
0.0
 10
265.3101502676034
 20
477.828250459567
 30
0.0
 10
265.2300791702053
 20
478.0831959674068
 30
0.0
 10
265.0465306681594
 20
478.3547856800145
 30
0.0
 10
264.7749409555516
 20
478.5383341820604
 30
0.0
 10
264.5199954477119
 20
478.6184052794585
 30
0.0
 10
264.3960839831808
 20
478.6264786077314
 30
0.0
 10
264.3219046053527
 20
478.6301596172078
 30
0.0
  0
LINE
  5
C3
330
AF
100
AcDbEntity
  8
$DDT_AUDIT_GENERATED_(99)
  6
Continuous
 62
     7
100
AcDbLine
 10
406.4356432054
 20
419.3279292488
 30
0.0
 11
388.3356432054
 21
419.3279292488
 31
0.0
  0
LINE
  5
C4
330
AF
100
AcDbEntity
  8
$DDT_AUDIT_GENERATED_(99)
  6
Continuous
 62
     7
100
AcDbLine
 10
406.6356432054
 20
419.5279292488
 30
0.0
 11
406.6356432054
 21
419.7279292488
 31
0.0
  0
LINE
  5
C5
330
AF
100
AcDbEntity
  8
$DDT_AUDIT_GENERATED_(99)
  6
Continuous
 62
     7
100
AcDbLine
 10
388.1356432054
 20
419.7279292488
 30
0.0
 11
388.1356432054
 21
419.5279292488
 31
0.0
  0
ARC
  5
C6
330
AF
100
AcDbEntity
  8
$DDT_AUDIT_GENERATED_(99)
  6
Continuous
 62
     7
100
AcDbCircle
 10
388.3356432054
 20
419.5279292488
 30
0.0
 40
0.2000000000000057
100
AcDbArc
 50
180.0
 51
270.0
  0
ARC
  5
C7
330
AF
100
AcDbEntity
  8
$DDT_AUDIT_GENERATED_(99)
  6
Continuous
 62
     7
100
AcDbCircle
 10
406.4356432054
 20
419.5279292488
 30
0.0
 40
0.1999999999999988
100
AcDbArc
 50
270.0
 51
0.0
  0
LINE
  5
C8
330
AF
100
AcDbEntity
  8
$DDT_AUDIT_GENERATED_(9F)
  6
Continuous
 62
     7
100
AcDbLine
 10
386.6356432054
 20
419.7279292488
 30
0.0
 11
408.1356432054
 21
419.7279292488
 31
0.0
  0
SPLINE
  5
C9
330
AF
100
AcDbEntity
  8
$DDT_AUDIT_GENERATED_(9F)
  6
Continuous
 62
     7
100
AcDbSpline
210
0.0
220
0.0
230
1.0
 70
     8
 71
     3
 72
    10
 73
     6
 74
     0
 42
0.0000000019260148
 43
0.0000000001
 40
0.0
 40
0.0
 40
0.0
 40
0.0
 40
0.5
 40
0.5
 40
1.0
 40
1.0
 40
1.0
 40
1.0
 10
399.9721466367141
 20
420.0454718968688
 30
0.0
 10
399.1098317875662
 20
419.9315151998838
 30
0.0
 10
398.2475875156977
 20
419.8722567041672
 30
0.0
 10
396.5232519209457
 20
419.8722769306781
 30
0.0
 10
395.6611605960019
 20
419.9315540562029
 30
0.0
 10
394.799139774163
 20
420.0454718968688
 30
0.0
  0
LINE
  5
CA
330
AF
100
AcDbEntity
  8
$DDT_AUDIT_GENERATED_(9F)
  6
Continuous
 62
     7
100
AcDbLine
 10
401.6564745063
 20
422.7279292488
 30
0.0
 11
393.1148119046
 21
422.7279292488
 31
0.0
  0
LINE
  5
CB
330
AF
100
AcDbEntity
  8
$DDT_AUDIT_GENERATED_(9F)
  6
Continuous
 62
     7
100
AcDbLine
 10
401.6564745063
 20
422.7279292488
 30
0.0
 11
401.6564745063
 21
420.9114973007
 31
0.0
  0
SPLINE
  5
CC
330
AF
100
AcDbEntity
  8
$DDT_AUDIT_GENERATED_(9F)
  6
Continuous
 62
     7
100
AcDbSpline
210
0.0
220
0.0
230
1.0
 70
     8
 71
     3
 72
    14
 73
    10
 74
     0
 42
0.0000000049320844
 43
0.0000000001
 40
0.0
 40
0.0
 40
0.0
 40
0.0
 40
0.1249999999999999
 40
0.1249999999999999
 40
0.2499999999999999
 40
0.2499999999999999
 40
0.4999999999999999
 40
0.4999999999999999
 40
1.0
 40
1.0
 40
1.0
 40
1.0
 10
401.6564745062511
 20
420.9114973006533
 30
0.0
 10
401.6564745062511
 20
420.8270721096838
 30
0.0
 10
401.6242994388346
 20
420.7430299872092
 30
0.0
 10
401.5284794638665
 20
420.6038504867363
 30
0.0
 10
401.4653331484533
 20
420.5448299614066
 30
0.0
 10
401.2629877395722
 20
420.3937176547813
 30
0.0
 10
401.1069998457801
 20
420.3223275050304
 30
0.0
 10
400.6362066795705
 20
420.1509723513733
 30
0.0
 10
400.3033281543318
 20
420.0892382217645
 30
0.0
 10
399.9721466367141
 20
420.0454718968688
 30
0.0
  0
SPLINE
  5
CD
330
AF
100
AcDbEntity
  8
$DDT_AUDIT_GENERATED_(9F)
  6
Continuous
 62
     7
100
AcDbSpline
210
0.0
220
0.0
230
1.0
 70
     8
 71
     3
 72
    14
 73
    10
 74
     0
 42
0.0000000049319876
 43
0.0000000001
 40
0.0
 40
0.0
 40
0.0
 40
0.0
 40
0.5000000000000002
 40
0.5000000000000002
 40
0.7500000000000003
 40
0.7500000000000003
 40
0.8750000000000001
 40
0.8750000000000001
 40
1.0
 40
1.0
 40
1.0
 40
1.0
 10
394.799139774163
 20
420.0454718968688
 30
0.0
 10
394.4665371787305
 20
420.0894260201471
 30
0.0
 10
394.1362398239983
 20
420.1504925373311
 30
0.0
 10
393.6630903086738
 20
420.3227917510364
 30
0.0
 10
393.5084876753718
 20
420.393806058376
 30
0.0
 10
393.3072970704718
 20
420.5437128517559
 30
0.0
 10
393.2436905767173
 20
420.6028162950057
 30
0.0
 10
393.1471679524636
 20
420.7425205606677
 30
0.0
 10
393.1148119046237
 20
420.8266718072942
 30
0.0
 10
393.114811904626
 20
420.9114973006533
 30
0.0
  0
LINE
  5
CE
330
AF
100
AcDbEntity
  8
$DDT_AUDIT_GENERATED_(9F)
  6
Continuous
 62
     7
100
AcDbLine
 10
393.1148119046
 20
420.9114973007
 30
0.0
 11
393.1148119046
 21
422.7279292488
 31
0.0
  0
LINE
  5
CF
330
AF
100
AcDbEntity
  8
$DDT_AUDIT_GENERATED_(9F)
  6
Continuous
 62
     7
100
AcDbLine
 10
386.0856432054
 20
420.0454718969
 30
0.0
 11
386.6356432054
 21
419.7279292488
 31
0.0
  0
LINE
  5
D0
330
AF
100
AcDbEntity
  8
$DDT_AUDIT_GENERATED_(9F)
  6
Continuous
 62
     7
100
AcDbLine
 10
408.1356432054
 20
419.7279292488
 30
0.0
 11
408.6856432054
 21
420.0454718969
 31
0.0
  0
ARC
  5
D1
330
AF
100
AcDbEntity
  8
$DDT_AUDIT_GENERATED_(9F)
  6
Continuous
 62
     7
100
AcDbCircle
 10
408.1856432054
 20
420.9114973007
 30
0.0
 40
1.000000000000001
100
AcDbArc
 50
300.0
 51
0.0
  0
ARC
  5
D2
330
AF
100
AcDbEntity
  8
$DDT_AUDIT_GENERATED_(9F)
  6
Continuous
 62
     7
100
AcDbCircle
 10
386.5856432054
 20
420.9114973007
 30
0.0
 40
1.000000000000001
100
AcDbArc
 50
180.0
 51
240.0
  0
LINE
  5
D3
330
AF
100
AcDbEntity
  8
$DDT_AUDIT_GENERATED_(9F)
  6
Continuous
 62
     7
100
AcDbLine
 10
385.5856432054
 20
422.2406726843
 30
0.0
 11
385.5856432054
 21
420.9114973007
 31
0.0
  0
LINE
  5
D4
330
AF
100
AcDbEntity
  8
$DDT_AUDIT_GENERATED_(9F)
  6
Continuous
 62
     7
100
AcDbLine
 10
409.1856432054
 20
420.9114973007
 30
0.0
 11
409.1856432054
 21
423.9140274906
 31
0.0
  0
LINE
  5
D6
330
AF
100
AcDbEntity
  8
STIFT_GEW-_00065
  6
Continuous
 62
     7
100
AcDbLine
 10
267.3219044861
 20
420.9331219574
 30
0.0
 11
272.3219044861
 21
420.9331219574
 31
0.0
  0
LINE
  5
D7
330
AF
100
AcDbEntity
  8
STIFT_GEW-_00065
  6
Continuous
 62
     7
100
AcDbLine
 10
271.83693026
 20
420.6531219574
 30
0.0
 11
267.8068787123
 21
420.6531219574
 31
0.0
  0
LINE
  5
D8
330
AF
100
AcDbEntity
  8
STIFT_GEW-_00065
  6
Continuous
 62
     7
100
AcDbLine
 10
267.3219044861
 20
421.9726485725
 30
0.0
 11
267.3219044861
 21
420.9331219574
 31
0.0
  0
LINE
  5
D9
330
AF
100
AcDbEntity
  8
STIFT_GEW-_00065
  6
Continuous
 62
     7
100
AcDbLine
 10
272.3219044861
 20
420.9331219574
 30
0.0
 11
272.3219044861
 21
421.9726418284
 31
0.0
  0
LINE
  5
DA
330
AF
100
AcDbEntity
  8
STIFT_GEW-_00065
  6
Continuous
 62
     7
100
AcDbLine
 10
267.3219044861
 20
420.9331219574
 30
0.0
 11
267.8068787123
 21
420.6531219574
 31
0.0
  0
LINE
  5
DB
330
AF
100
AcDbEntity
  8
STIFT_GEW-_00065
  6
Continuous
 62
     7
100
AcDbLine
 10
271.83693026
 20
420.6531219574
 30
0.0
 11
272.3219044861
 21
420.9331219574
 31
0.0
  0
LINE
  5
DC
330
AF
100
AcDbEntity
  8
STIFT_GEW-_00065
  6
Continuous
 62
     7
100
AcDbLine
 10
267.8124044861
 20
420.6531219574
 30
0.0
 11
267.8124044861
 21
421.9726485725
 31
0.0
  0
LINE
  5
DD
330
AF
100
AcDbEntity
  8
STIFT_GEW-_00065
  6
Continuous
 62
     7
100
AcDbLine
 10
271.8314044861
 20
420.6531219574
 30
0.0
 11
271.8314044861
 21
421.9726418284
 31
0.0
  0
ENDBLK
  5
DF
330
AF
100
AcDbEntity
  8
0
100
AcDbBlockEnd
  0
BLOCK
  5
EC
330
E0
100
AcDbEntity
  8
0
100
AcDbBlockBegin
  2
SE2
 70
     0
 10
0.0
 20
0.0
 30
0.0
  3
SE2
  1

  0
SPLINE
  5
E2
330
E0
100
AcDbEntity
  8
410288038_WALL_S
  6
Continuous
 62
     7
100
AcDbSpline
210
0.0
220
0.0
230
1.0
 70
     8
 71
     3
 72
    18
 73
    14
 74
     0
 42
0.000000000303959
 43
0.0000000001
 40
0.0
 40
0.0
 40
0.0
 40
0.0
 40
0.25
 40
0.25
 40
0.5
 40
0.5
 40
0.625
 40
0.625
 40
0.75
 40
0.75
 40
0.875
 40
0.875
 40
1.0
 40
1.0
 40
1.0
 40
1.0
 10
112.3969303354
 20
127.211445454603
 30
0.0
 10
112.3969303354
 20
124.4583917935654
 30
0.0
 10
111.8410834759055
 20
121.7097787574411
 30
0.0
 10
109.756043561085
 20
116.695987887457
 30
0.0
 10
108.1985674895428
 20
114.3723007059926
 30
0.0
 10
105.3151387321881
 20
111.4920797122827
 30
0.0
 10
104.2453581767875
 20
110.6118572434416
 30
0.0
 10
101.9769389337155
 20
109.0970293835952
 30
0.0
 10
100.7791339683874
 20
108.4598872702538
 30
0.0
 10
98.2605230077152
 20
107.41822317642
 30
0.0
 10
96.93457872260929
 20
107.0150557030381
 30
0.0
 10
94.26686002617755
 20
106.48450114743
 30
0.0
 10
92.91207035879474
 20
106.3500000000007
 30
0.0
 10
91.53575419467298
 20
106.35
 30
0.0
  0
SPLINE
  5
E3
330
E0
100
AcDbEntity
  8
410288038_WALL_S
  6
Continuous
 62
     7
100
AcDbSpline
210
0.0
220
0.0
230
1.0
 70
     8
 71
     3
 72
    18
 73
    14
 74
     0
 42
0.0000000003039639
 43
0.0000000001
 40
0.0
 40
0.0
 40
0.0
 40
0.0
 40
0.2500000000000002
 40
0.2500000000000002
 40
0.5000000000000004
 40
0.5000000000000004
 40
0.6250000000000003
 40
0.6250000000000003
 40
0.7500000000000002
 40
0.7500000000000002
 40
0.8750000000000001
 40
0.8750000000000001
 40
1.0
 40
1.0
 40
1.0
 40
1.0
 10
91.53575419467298
 20
106.35
 30
0.0
 10
88.78364475468027
 20
106.3500039479021
 30
0.0
 10
86.03668245974913
 20
106.9080621569534
 30
0.0
 10
81.0228557815023
 20
108.9878120595133
 30
0.0
 10
78.69927914623489
 20
110.5455862689255
 30
0.0
 10
75.81951971862688
 20
113.4282525361743
 30
0.0
 10
74.94080301683667
 20
114.4983159535345
 30
0.0
 10
73.4258122055227
 20
116.7683990892389
 30
0.0
 10
72.78649198335977
 20
117.965514573391
 30
0.0
 10
71.7427135400779
 20
120.4831115798405
 30
0.0
 10
71.34027816772426
 20
121.8100666346697
 30
0.0
 10
70.80959191035907
 20
124.4793793048952
 30
0.0
 10
70.674578053946
 20
125.8347058087979
 30
0.0
 10
70.67457805394601
 20
127.2114454546023
 30
0.0
  0
LINE
  5
E4
330
E0
100
AcDbEntity
  8
410288038_WALL_S
  6
Continuous
 62
     7
100
AcDbLine
 10
70.6745780539
 20
127.2114454546
 30
0.0
 11
70.6745780539
 21
263.040560291
 31
0.0
  0
LINE
  5
E5
330
E0
100
AcDbEntity
  8
410288038_WALL_S
  6
Continuous
 62
     7
100
AcDbLine
 10
112.3969303354
 20
263.040560291
 30
0.0
 11
112.3969303354
 21
127.2114454546
 31
0.0
  0
LINE
  5
E6
330
E0
100
AcDbEntity
  8
$DDT_AUDIT_GENERATED_(8E)
  6
Continuous
 62
     7
100
AcDbLine
 10
51.5478807463
 20
271.0405604104
 30
0.0
 11
131.523627643
 21
271.0405604104
 31
0.0
  0
LINE
  5
E7
330
E0
100
AcDbEntity
  8
$DDT_AUDIT_GENERATED_(8E)
  6
Continuous
 62
     7
100
AcDbLine
 10
130.5236031606
 20
263.040560291
 30
0.0
 11
52.5479052288
 21
263.040560291
 31
0.0
  0
LINE
  5
E8
330
E0
100
AcDbEntity
  8
$DDT_AUDIT_GENERATED_(8E)
  6
Continuous
 62
     7
100
AcDbLine
 10
131.523627643
 20
264.040560291
 30
0.0
 11
131.523627643
 21
271.0405604104
 31
0.0
  0
LINE
  5
E9
330
E0
100
AcDbEntity
  8
$DDT_AUDIT_GENERATED_(8E)
  6
Continuous
 62
     7
100
AcDbLine
 10
51.5478807463
 20
271.0405604104
 30
0.0
 11
51.5478807463
 21
264.040560291
 31
0.0
  0
ARC
  5
EA
330
E0
100
AcDbEntity
  8
$DDT_AUDIT_GENERATED_(8E)
  6
Continuous
 62
     7
100
AcDbCircle
 10
52.5475740093
 20
264.0402284904
 30
0.0
 40
0.9996682542517069
100
AcDbArc
 50
179.9809829157
 51
270.0189837752
  0
ARC
  5
EB
330
E0
100
AcDbEntity
  8
$DDT_AUDIT_GENERATED_(8E)
  6
Continuous
 62
     7
100
AcDbCircle
 10
130.52393438
 20
264.0402284904
 30
0.0
 40
0.9996682542516957
100
AcDbArc
 50
269.9810162248
 51
0.0190170843
  0
ENDBLK
  5
ED
330
E0
100
AcDbEntity
  8
0
100
AcDbBlockEnd
  0
ENDSEC
  0
SECTION
  2
ENTITIES
  0
INSERT
  5
5F
330
1F
100
AcDbEntity
  8
Default
100
AcDbBlockReference
  2
SEANNOT_GROUP
 10
0.0
 20
0.0
 30
0.0
  0
INSERT
  5
66
330
1F
100
AcDbEntity
  8
Default
100
AcDbBlockReference
  2
SEANNOT_GROUP1
 10
0.0
 20
0.0
 30
0.0
  0
INSERT
  5
6C
330
1F
100
AcDbEntity
  8
Default
100
AcDbBlockReference
  2
SEANNOT_GROUP2
 10
0.0
 20
0.0
 30
0.0
  0
INSERT
  5
72
330
1F
100
AcDbEntity
  8
Default
100
AcDbBlockReference
  2
SEANNOT_GROUP3
 10
0.0
 20
0.0
 30
0.0
  0
INSERT
  5
78
330
1F
100
AcDbEntity
  8
Default
100
AcDbBlockReference
  2
SEANNOT_GROUP4
 10
0.0
 20
0.0
 30
0.0
  0
INSERT
  5
7E
330
1F
100
AcDbEntity
  8
Default
100
AcDbBlockReference
  2
SE
 10
0.0
 20
0.0
 30
0.0
  0
INSERT
  5
B0
330
1F
100
AcDbEntity
  8
Default
100
AcDbBlockReference
  2
SE1
 10
0.0
 20
0.0
 30
0.0
  0
INSERT
  5
E1
330
1F
100
AcDbEntity
  8
Default
100
AcDbBlockReference
  2
SE2
 10
0.0
 20
0.0
 30
0.0
  0
TEXT
  5
EF
330
1F
100
AcDbEntity
  8
Default
  6
Continuous
 62
     7
100
AcDbText
 10
5.9362635081
 20
53.4225120485
 30
0.0
 40
10.0
  1
Grohe AG^J
  7
SEACAD_seiso_ttf
 11
5.9362635081
 21
63.4225120485
 31
0.0
100
AcDbText
 73
     3
  0
TEXT
  5
F0
330
1F
100
AcDbEntity
  8
Default
  6
Continuous
 62
     7
100
AcDbText
 10
5.9362635081
 20
37.0588756849
 30
0.0
 40
10.0
  1
 
  7
SEACAD_seiso_ttf
 11
5.9362635081
 21
47.0588756849
 31
0.0
100
AcDbText
 73
     3
  0
TEXT
  5
F1
330
1F
100
AcDbEntity
  8
Default
  6
Continuous
 62
     7
100
AcDbText
 10
5.9362635081
 20
20.6952393213
 30
0.0
 40
10.0
  1
ecn: 
  7
SEACAD_seiso_ttf
 11
5.9362635081
 21
30.6952393213
 31
0.0
100
AcDbText
 73
     3
  0
TEXT
  5
F2
330
1F
100
AcDbEntity
  8
Default
  6
Continuous
 62
     7
100
AcDbText
 10
5.9362635081
 20
4.3316029576
 30
0.0
 40
10.0
  1
unit: mm
  7
SEACAD_seiso_ttf
 11
5.9362635081
 21
14.3316029576
 31
0.0
100
AcDbText
 73
     3
  0
LINE
  5
F3
330
1F
100
AcDbEntity
  8
Default
  6
Continuous
 62
     7
100
AcDbLine
 10
0.0
 20
0.0
 30
0.0
 11
100.0
 21
0.0
 31
0.0
  0
LINE
  5
F4
330
1F
100
AcDbEntity
  8
Default
  6
Continuous
 62
     7
100
AcDbLine
 10
0.0
 20
0.0
 30
0.0
 11
0.0
 21
100.0
 31
0.0
  0
TEXT
  5
F5
330
1F
100
AcDbEntity
  8
Default
  6
Continuous
 62
     7
100
AcDbText
 10
24.3923665681
 20
-18.2375342018
 30
0.0
 40
10.0
  1
100 mm
  7
SEACAD_seiso_ttf
 11
24.3923665681
 21
-8.2375342018
 31
0.0
100
AcDbText
 73
     3
  0
TEXT
  5
F6
330
1F
100
AcDbEntity
  8
Default
  6
Continuous
 62
     7
100
AcDbText
 10
-7.6150308803
 20
24.6231930421
 30
0.0
 40
10.0
  1
100 mm
 50
90.0
  7
SEACAD_seiso_ttf
 11
-17.6150308803
 21
24.6231930421
 31
0.0
100
AcDbText
 73
     3
  0
TEXT
  5
F7
330
1F
100
AcDbEntity
  8
Default
  6
Continuous
 62
     7
100
AcDbText
 10
28.4878128572
 20
20.0907663715
 30
0.0
 40
10.0
  1
219081
  7
SEACAD_seiso_ttf
 11
28.4878128572
 21
30.0907663715
 31
0.0
100
AcDbText
 73
     3
  0
TEXT
  5
F8
330
1F
100
AcDbEntity
  8
Default
  6
Continuous
 62
     7
100
AcDbText
 10
5.9012241913
 20
36.7242780188
 30
0.0
 40
10.0
  1
13286000
  7
SEACAD_seiso_ttf
 11
5.9012241913
 21
46.7242780188
 31
0.0
100
AcDbText
 73
     3
  0
ENDSEC
  0
SECTION
  2
OBJECTS
  0
DICTIONARY
  5
C
330
0
100
AcDbDictionary
281
     1
  3
ACAD_GROUP
350
D
  3
ACAD_LAYOUT
350
1A
  3
ACAD_MLEADERSTYLE
350
FC
  3
ACAD_MLINESTYLE
350
17
  3
ACAD_PLOTSETTINGS
350
19
  3
ACAD_PLOTSTYLENAME
350
E
  3
ACAD_SCALELIST
350
3B
  3
ACAD_TABLESTYLE
350
FB
  3
ACAD_VISUALSTYLE
350
2A
  3
AcDbVariableDictionary
350
F9
  0
DICTIONARY
  5
D
102
{ACAD_REACTORS
330
C
102
}
330
C
100
AcDbDictionary
281
     1
  0
DICTIONARY
  5
1A
102
{ACAD_REACTORS
330
C
102
}
330
C
100
AcDbDictionary
281
     1
  3
Layout1
350
1E
  3
Model
350
22
  0
DICTIONARY
  5
FC
102
{ACAD_REACTORS
330
C
102
}
330
C
100
AcDbDictionary
281
     1
  0
DICTIONARY
  5
17
102
{ACAD_REACTORS
330
C
102
}
330
C
100
AcDbDictionary
281
     1
  3
Standard
350
18
  0
DICTIONARY
  5
19
102
{ACAD_REACTORS
330
C
102
}
330
C
100
AcDbDictionary
281
     1
  0
ACDBDICTIONARYWDFLT
  5
E
102
{ACAD_REACTORS
330
C
102
}
330
C
100
AcDbDictionary
281
     1
  3
Normal
350
F
100
AcDbDictionaryWithDefault
340
F
  0
DICTIONARY
  5
3B
102
{ACAD_REACTORS
330
C
102
}
330
C
100
AcDbDictionary
281
     1
  3
A0
350
3C
  3
A1
350
3D
  3
A2
350
3E
  3
A3
350
3F
  3
A4
350
40
  3
A5
350
41
  3
A6
350
42
  3
A7
350
43
  3
A8
350
44
  3
A9
350
45
  3
B0
350
46
  3
B1
350
47
  3
B2
350
48
  3
B3
350
49
  3
B4
350
4A
  3
B5
350
4B
  3
B6
350
4C
  3
B7
350
4D
  3
B8
350
4E
  3
B9
350
4F
  3
C0
350
50
  3
C1
350
51
  3
C2
350
52
  3
C3
350
53
  3
C4
350
54
  3
C5
350
55
  3
C6
350
56
  3
C7
350
57
  3
C8
350
58
  3
C9
350
59
  3
D0
350
5A
  3
D1
350
5B
  3
D2
350
5C
  0
DICTIONARY
  5
FB
102
{ACAD_REACTORS
330
C
102
}
330
C
100
AcDbDictionary
281
     1
  0
DICTIONARY
  5
2A
102
{ACAD_REACTORS
330
C
102
}
330
C
100
AcDbDictionary
281
     1
  3
2dWireframe
350
2F
  3
3D Hidden
350
31
  3
3dWireframe
350
30
  3
Basic
350
32
  3
Brighten
350
36
  3
ColorChange
350
3A
  3
Conceptual
350
34
  3
Dim
350
35
  3
Facepattern
350
39
  3
Flat
350
2B
  3
FlatWithEdges
350
2C
  3
Gouraud
350
2D
  3
GouraudWithEdges
350
2E
  3
Linepattern
350
38
  3
Realistic
350
33
  3
Thicken
350
37
  0
DICTIONARY
  5
F9
102
{ACAD_REACTORS
330
C
102
}
330
C
100
AcDbDictionary
281
     1
  3
CANNOSCALE
350
FA
  3
PSOLHEIGHT
350
FE
  3
PSOLWIDTH
350
FD
  0
LAYOUT
  5
1E
102
{ACAD_REACTORS
330
1A
102
}
330
1A
100
AcDbPlotSettings
  1

  2
none_device
  4

  6

 40
0.0
 41
0.0
 42
0.0
 43
0.0
 44
0.0
 45
0.0
 46
0.0
 47
0.0
 48
0.0
 49
0.0
140
0.0
141
0.0
142
1.0
143
1.0
 70
   688
 72
     0
 73
     0
 74
     5
  7

 75
    16
147
1.0
148
0.0
149
0.0
100
AcDbLayout
  1
Layout1
 70
     1
 71
     1
 10
0.0
 20
0.0
 11
1682.0
 21
2378.0
 12
0.0
 22
0.0
 32
0.0
 14
0.0
 24
0.0
 34
0.0
 15
1682.0
 25
2378.0
 35
0.0
146
0.0
 13
0.0
 23
0.0
 33
0.0
 16
1.0
 26
0.0
 36
0.0
 17
0.0
 27
1.0
 37
0.0
 76
     0
330
1B
  0
LAYOUT
  5
22
102
{ACAD_REACTORS
330
1A
102
}
330
1A
100
AcDbPlotSettings
  1

  2
none_device
  4

  6

 40
0.0
 41
0.0
 42
0.0
 43
0.0
 44
0.0
 45
0.0
 46
0.0
 47
0.0
 48
0.0
 49
0.0
140
0.0
141
0.0
142
1.0
143
1.0
 70
  1712
 72
     0
 73
     0
 74
     0
  7

 75
     0
147
1.0
148
0.0
149
0.0
100
AcDbLayout
  1
Model
 70
     1
 71
     0
 10
0.0
 20
0.0
 11
1682.0
 21
2378.0
 12
0.0
 22
0.0
 32
0.0
 14
0.0
 24
0.0
 34
0.0
 15
1682.0
 25
2378.0
 35
0.0
146
0.0
 13
0.0
 23
0.0
 33
0.0
 16
1.0
 26
0.0
 36
0.0
 17
0.0
 27
1.0
 37
0.0
 76
     0
330
1F
331
29
  0
MLINESTYLE
  5
18
102
{ACAD_REACTORS
330
17
102
}
330
17
100
AcDbMlineStyle
  2
Standard
 70
     0
  3

 62
   256
 51
90.0
 52
90.0
 71
     2
 49
0.5
 62
   256
  6
BYLAYER
 49
-0.5
 62
   256
  6
BYLAYER
  0
ACDBPLACEHOLDER
  5
F
102
{ACAD_REACTORS
330
E
102
}
330
E
  0
SCALE
  5
3C
102
{ACAD_REACTORS
330
3B
102
}
330
3B
100
AcDbScale
 70
     0
300
1:1
140
1.0
141
1.0
290
     1
  0
SCALE
  5
3D
102
{ACAD_REACTORS
330
3B
102
}
330
3B
100
AcDbScale
 70
     0
300
1:2
140
1.0
141
2.0
290
     0
  0
SCALE
  5
3E
102
{ACAD_REACTORS
330
3B
102
}
330
3B
100
AcDbScale
 70
     0
300
1:4
140
1.0
141
4.0
290
     0
  0
SCALE
  5
3F
102
{ACAD_REACTORS
330
3B
102
}
330
3B
100
AcDbScale
 70
     0
300
1:5
140
1.0
141
5.0
290
     0
  0
SCALE
  5
40
102
{ACAD_REACTORS
330
3B
102
}
330
3B
100
AcDbScale
 70
     0
300
1:8
140
1.0
141
8.0
290
     0
  0
SCALE
  5
41
102
{ACAD_REACTORS
330
3B
102
}
330
3B
100
AcDbScale
 70
     0
300
1:10
140
1.0
141
10.0
290
     0
  0
SCALE
  5
42
102
{ACAD_REACTORS
330
3B
102
}
330
3B
100
AcDbScale
 70
     0
300
1:16
140
1.0
141
16.0
290
     0
  0
SCALE
  5
43
102
{ACAD_REACTORS
330
3B
102
}
330
3B
100
AcDbScale
 70
     0
300
1:20
140
1.0
141
20.0
290
     0
  0
SCALE
  5
44
102
{ACAD_REACTORS
330
3B
102
}
330
3B
100
AcDbScale
 70
     0
300
1:30
140
1.0
141
30.0
290
     0
  0
SCALE
  5
45
102
{ACAD_REACTORS
330
3B
102
}
330
3B
100
AcDbScale
 70
     0
300
1:40
140
1.0
141
40.0
290
     0
  0
SCALE
  5
46
102
{ACAD_REACTORS
330
3B
102
}
330
3B
100
AcDbScale
 70
     0
300
1:50
140
1.0
141
50.0
290
     0
  0
SCALE
  5
47
102
{ACAD_REACTORS
330
3B
102
}
330
3B
100
AcDbScale
 70
     0
300
1:100
140
1.0
141
100.0
290
     0
  0
SCALE
  5
48
102
{ACAD_REACTORS
330
3B
102
}
330
3B
100
AcDbScale
 70
     0
300
2:1
140
2.0
141
1.0
290
     0
  0
SCALE
  5
49
102
{ACAD_REACTORS
330
3B
102
}
330
3B
100
AcDbScale
 70
     0
300
4:1
140
4.0
141
1.0
290
     0
  0
SCALE
  5
4A
102
{ACAD_REACTORS
330
3B
102
}
330
3B
100
AcDbScale
 70
     0
300
8:1
140
8.0
141
1.0
290
     0
  0
SCALE
  5
4B
102
{ACAD_REACTORS
330
3B
102
}
330
3B
100
AcDbScale
 70
     0
300
10:1
140
10.0
141
1.0
290
     0
  0
SCALE
  5
4C
102
{ACAD_REACTORS
330
3B
102
}
330
3B
100
AcDbScale
 70
     0
300
100:1
140
100.0
141
1.0
290
     0
  0
SCALE
  5
4D
102
{ACAD_REACTORS
330
3B
102
}
330
3B
100
AcDbScale
 70
     0
300
1/128" = 1'-0"
140
0.0078125
141
12.0
290
     0
  0
SCALE
  5
4E
102
{ACAD_REACTORS
330
3B
102
}
330
3B
100
AcDbScale
 70
     0
300
1/64" = 1'-0"
140
0.015625
141
12.0
290
     0
  0
SCALE
  5
4F
102
{ACAD_REACTORS
330
3B
102
}
330
3B
100
AcDbScale
 70
     0
300
1/32" = 1'-0"
140
0.03125
141
12.0
290
     0
  0
SCALE
  5
50
102
{ACAD_REACTORS
330
3B
102
}
330
3B
100
AcDbScale
 70
     0
300
1/16" = 1'-0"
140
0.0625
141
12.0
290
     0
  0
SCALE
  5
51
102
{ACAD_REACTORS
330
3B
102
}
330
3B
100
AcDbScale
 70
     0
300
3/32" = 1'-0"
140
0.09375
141
12.0
290
     0
  0
SCALE
  5
52
102
{ACAD_REACTORS
330
3B
102
}
330
3B
100
AcDbScale
 70
     0
300
1/8" = 1'-0"
140
0.125
141
12.0
290
     0
  0
SCALE
  5
53
102
{ACAD_REACTORS
330
3B
102
}
330
3B
100
AcDbScale
 70
     0
300
3/16" = 1'-0"
140
0.1875
141
12.0
290
     0
  0
SCALE
  5
54
102
{ACAD_REACTORS
330
3B
102
}
330
3B
100
AcDbScale
 70
     0
300
1/4" = 1'-0"
140
0.25
141
12.0
290
     0
  0
SCALE
  5
55
102
{ACAD_REACTORS
330
3B
102
}
330
3B
100
AcDbScale
 70
     0
300
3/8" = 1'-0"
140
0.375
141
12.0
290
     0
  0
SCALE
  5
56
102
{ACAD_REACTORS
330
3B
102
}
330
3B
100
AcDbScale
 70
     0
300
1/2" = 1'-0"
140
0.5
141
12.0
290
     0
  0
SCALE
  5
57
102
{ACAD_REACTORS
330
3B
102
}
330
3B
100
AcDbScale
 70
     0
300
3/4" = 1'-0"
140
0.75
141
12.0
290
     0
  0
SCALE
  5
58
102
{ACAD_REACTORS
330
3B
102
}
330
3B
100
AcDbScale
 70
     0
300
1" = 1'-0"
140
1.0
141
12.0
290
     0
  0
SCALE
  5
59
102
{ACAD_REACTORS
330
3B
102
}
330
3B
100
AcDbScale
 70
     0
300
1-1/2" = 1'-0"
140
1.5
141
12.0
290
     0
  0
SCALE
  5
5A
102
{ACAD_REACTORS
330
3B
102
}
330
3B
100
AcDbScale
 70
     0
300
3" = 1'-0"
140
3.0
141
12.0
290
     0
  0
SCALE
  5
5B
102
{ACAD_REACTORS
330
3B
102
}
330
3B
100
AcDbScale
 70
     0
300
6" = 1'-0"
140
6.0
141
12.0
290
     0
  0
SCALE
  5
5C
102
{ACAD_REACTORS
330
3B
102
}
330
3B
100
AcDbScale
 70
     0
300
1'-0" = 1'-0"
140
12.0
141
12.0
290
     0
  0
VISUALSTYLE
  5
2F
102
{ACAD_REACTORS
330
2A
102
}
330
2A
100
AcDbVisualStyle
  2
2dWireframe
 70
     4
 71
     0
 72
     2
 73
     0
 90
        0
 40
-0.6
 41
-30.0
 62
     5
 63
     7
 74
     1
 91
        4
 64
     7
 65
   257
 75
     1
175
     1
 42
1.0
 92
        0
 66
   257
 43
1.0
 76
     1
 77
     6
 78
     2
 67
     7
 79
     5
170
     0
171
     0
290
     0
174
     0
 93
        1
 44
0.0
173
     0
291
     0
 45
0.0
1001
ACAD
1000
AcDbSavedByObjectVersion
1070
     0
  0
VISUALSTYLE
  5
31
102
{ACAD_REACTORS
330
2A
102
}
330
2A
100
AcDbVisualStyle
  2
3D Hidden
 70
     6
 71
     1
 72
     2
 73
     2
 90
        0
 40
-0.6
 41
-30.0
 62
     5
 63
     7
 74
     2
 91
        2
 64
     7
 65
   257
 75
     2
175
     1
 42
40.0
 92
        0
 66
   257
 43
1.0
 76
     1
 77
     6
 78
     2
 67
     7
 79
     3
170
     0
171
     0
290
     0
174
     0
 93
        1
 44
0.0
173
     0
291
     0
 45
0.0
1001
ACAD
1000
AcDbSavedByObjectVersion
1070
     0
  0
VISUALSTYLE
  5
30
102
{ACAD_REACTORS
330
2A
102
}
330
2A
100
AcDbVisualStyle
  2
3dWireframe
 70
     5
 71
     0
 72
     2
 73
     0
 90
        0
 40
-0.6
 41
-30.0
 62
     5
 63
     7
 74
     1
 91
        4
 64
     7
 65
   257
 75
     1
175
     1
 42
1.0
 92
        0
 66
   257
 43
1.0
 76
     1
 77
     6
 78
     2
 67
     7
 79
     5
170
     0
171
     0
290
     0
174
     0
 93
        1
 44
0.0
173
     0
291
     0
 45
0.0
1001
ACAD
1000
AcDbSavedByObjectVersion
1070
     0
  0
VISUALSTYLE
  5
32
102
{ACAD_REACTORS
330
2A
102
}
330
2A
100
AcDbVisualStyle
  2
Basic
 70
     7
 71
     1
 72
     0
 73
     1
 90
        0
 40
-0.6
 41
-30.0
 62
     5
 63
     7
 74
     0
 91
        4
 64
     7
 65
   257
 75
     1
175
     1
 42
1.0
 92
        8
 66
     7
 43
1.0
 76
     1
 77
     6
 78
     2
 67
     7
 79
     5
170
     0
171
     0
290
     0
174
     0
 93
        1
 44
0.0
173
     0
291
     1
 45
0.0
1001
ACAD
1000
AcDbSavedByObjectVersion
1070
     0
  0
VISUALSTYLE
  5
36
102
{ACAD_REACTORS
330
2A
102
}
330
2A
100
AcDbVisualStyle
  2
Brighten
 70
    12
 71
     2
 72
     2
 73
     0
 90
        0
 40
-0.6
 41
-30.0
 62
     5
 63
     7
 74
     1
 91
        4
 64
     7
 65
   257
 75
     1
175
     1
 42
1.0
 92
        8
 66
     7
 43
1.0
 76
     1
 77
     6
 78
     2
 67
     7
 79
     5
170
     0
171
     0
290
     0
174
     0
 93
        1
 44
50.0
173
     0
291
     1
 45
0.0
1001
ACAD
1000
AcDbSavedByObjectVersion
1070
     0
  0
VISUALSTYLE
  5
3A
102
{ACAD_REACTORS
330
2A
102
}
330
2A
100
AcDbVisualStyle
  2
ColorChange
 70
    16
 71
     2
 72
     2
 73
     3
 90
        0
 40
-0.6
 41
-30.0
 62
     5
 63
     8
 74
     1
 91
        4
 64
     7
 65
   257
 75
     1
175
     1
 42
1.0
 92
        8
 66
     8
 43
1.0
 76
     1
 77
     6
 78
     2
 67
     7
 79
     5
170
     0
171
     0
290
     0
174
     0
 93
        1
 44
0.0
173
     0
291
     1
 45
0.0
1001
ACAD
1000
AcDbSavedByObjectVersion
1070
     0
  0
VISUALSTYLE
  5
34
102
{ACAD_REACTORS
330
2A
102
}
330
2A
100
AcDbVisualStyle
  2
Conceptual
 70
     9
 71
     3
 72
     2
 73
     0
 90
        0
 40
-0.6
 41
-30.0
 62
     5
 63
     7
 74
     2
 91
        2
 64
     7
 65
   257
 75
     1
175
     1
 42
40.0
 92
        8
 66
     7
 43
1.0
 76
     1
 77
     6
 78
     2
 67
     7
 79
     3
170
     0
171
     0
290
     0
174
     0
 93
        1
 44
0.0
173
     0
291
     0
 45
0.0
1001
ACAD
1000
AcDbSavedByObjectVersion
1070
     0
  0
VISUALSTYLE
  5
35
102
{ACAD_REACTORS
330
2A
102
}
330
2A
100
AcDbVisualStyle
  2
Dim
 70
    11
 71
     2
 72
     2
 73
     0
 90
        0
 40
-0.6
 41
-30.0
 62
     5
 63
     7
 74
     1
 91
        4
 64
     7
 65
   257
 75
     1
175
     1
 42
1.0
 92
        8
 66
     7
 43
1.0
 76
     1
 77
     6
 78
     2
 67
     7
 79
     5
170
     0
171
     0
290
     0
174
     0
 93
        1
 44
-50.0
173
     0
291
     1
 45
0.0
1001
ACAD
1000
AcDbSavedByObjectVersion
1070
     0
  0
VISUALSTYLE
  5
39
102
{ACAD_REACTORS
330
2A
102
}
330
2A
100
AcDbVisualStyle
  2
Facepattern
 70
    15
 71
     2
 72
     2
 73
     0
 90
        0
 40
-0.6
 41
-30.0
 62
     5
 63
     7
 74
     1
 91
        4
 64
     7
 65
   257
 75
     1
175
     1
 42
1.0
 92
        8
 66
     7
 43
1.0
 76
     1
 77
     6
 78
     2
 67
     7
 79
     5
170
     0
171
     0
290
     0
174
     0
 93
        1
 44
0.0
173
     0
291
     1
 45
0.0
1001
ACAD
1000
AcDbSavedByObjectVersion
1070
     0
  0
VISUALSTYLE
  5
2B
102
{ACAD_REACTORS
330
2A
102
}
330
2A
100
AcDbVisualStyle
  2
Flat
 70
     0
 71
     2
 72
     1
 73
     1
 90
        2
 40
-0.6
 41
30.0
 62
     5
 63
     7
 74
     0
 91
        4
 64
     7
 65
   257
 75
     1
175
     1
 42
1.0
 92
        8
 66
     7
 43
1.0
 76
     1
 77
     6
 78
     2
 67
     7
 79
     5
170
     0
171
     0
290
     0
174
     0
 93
       13
 44
0.0
173
     0
291
     1
 45
0.0
1001
ACAD
1000
AcDbSavedByObjectVersion
1070
     0
  0
VISUALSTYLE
  5
2C
102
{ACAD_REACTORS
330
2A
102
}
330
2A
100
AcDbVisualStyle
  2
FlatWithEdges
 70
     1
 71
     2
 72
     1
 73
     1
 90
        2
 40
-0.6
 41
30.0
 62
     5
 63
     7
 74
     1
 91
        4
 64
     7
 65
   257
 75
     1
175
     1
 42
1.0
 92
        0
 66
   257
 43
1.0
 76
     1
 77
     6
 78
     2
 67
     7
 79
     5
170
     0
171
     0
290
     0
174
     0
 93
       13
 44
0.0
173
     0
291
     1
 45
0.0
1001
ACAD
1000
AcDbSavedByObjectVersion
1070
     0
  0
VISUALSTYLE
  5
2D
102
{ACAD_REACTORS
330
2A
102
}
330
2A
100
AcDbVisualStyle
  2
Gouraud
 70
     2
 71
     2
 72
     2
 73
     1
 90
        2
 40
-0.6
 41
30.0
 62
     5
 63
     7
 74
     0
 91
        4
 64
     7
 65
   257
 75
     1
175
     1
 42
1.0
 92
        0
 66
     7
 43
1.0
 76
     1
 77
     6
 78
     2
 67
     7
 79
     5
170
     0
171
     0
290
     0
174
     0
 93
       13
 44
0.0
173
     0
291
     1
 45
0.0
1001
ACAD
1000
AcDbSavedByObjectVersion
1070
     0
  0
VISUALSTYLE
  5
2E
102
{ACAD_REACTORS
330
2A
102
}
330
2A
100
AcDbVisualStyle
  2
GouraudWithEdges
 70
     3
 71
     2
 72
     2
 73
     1
 90
        2
 40
-0.6
 41
30.0
 62
     5
 63
     7
 74
     1
 91
        4
 64
     7
 65
   257
 75
     1
175
     1
 42
1.0
 92
        0
 66
   257
 43
1.0
 76
     1
 77
     6
 78
     2
 67
     7
 79
     5
170
     0
171
     0
290
     0
174
     0
 93
       13
 44
0.0
173
     0
291
     1
 45
0.0
1001
ACAD
1000
AcDbSavedByObjectVersion
1070
     0
  0
VISUALSTYLE
  5
38
102
{ACAD_REACTORS
330
2A
102
}
330
2A
100
AcDbVisualStyle
  2
Linepattern
 70
    14
 71
     2
 72
     2
 73
     0
 90
        0
 40
-0.6
 41
-30.0
 62
     5
 63
     7
 74
     1
 91
        4
 64
     7
 65
   257
 75
     7
175
     7
 42
1.0
 92
        8
 66
     7
 43
1.0
 76
     1
 77
     6
 78
     2
 67
     7
 79
     5
170
     0
171
     0
290
     0
174
     0
 93
        1
 44
0.0
173
     0
291
     1
 45
0.0
1001
ACAD
1000
AcDbSavedByObjectVersion
1070
     0
  0
VISUALSTYLE
  5
33
102
{ACAD_REACTORS
330
2A
102
}
330
2A
100
AcDbVisualStyle
  2
Realistic
 70
     8
 71
     2
 72
     2
 73
     0
 90
        0
 40
-0.6
 41
-30.0
 62
     5
 63
     7
 74
     1
 91
        0
 64
     7
 65
   257
 75
     1
175
     1
 42
1.0
 92
        8
 66
     8
 43
1.0
 76
     1
 77
     6
 78
     2
 67
     7
 79
     5
170
     0
171
     0
290
     0
174
     0
 93
       13
 44
0.0
173
     0
291
     0
 45
0.0
1001
ACAD
1000
AcDbSavedByObjectVersion
1070
     0
  0
VISUALSTYLE
  5
37
102
{ACAD_REACTORS
330
2A
102
}
330
2A
100
AcDbVisualStyle
  2
Thicken
 70
    13
 71
     2
 72
     2
 73
     0
 90
        0
 40
-0.6
 41
-30.0
 62
     5
 63
     7
 74
     1
 91
        4
 64
     7
 65
   257
 75
     1
175
     1
 42
1.0
 92
       12
 66
     7
 43
1.0
 76
     1
 77
     6
 78
     2
 67
     7
 79
     5
170
     0
171
     0
290
     0
174
     0
 93
        1
 44
0.0
173
     0
291
     1
 45
0.0
1001
ACAD
1000
AcDbSavedByObjectVersion
1070
     0
  0
DICTIONARYVAR
  5
FA
102
{ACAD_REACTORS
330
F9
102
}
330
F9
100
DictionaryVariables
280
     0
  1
1:1
  0
DICTIONARYVAR
  5
FE
102
{ACAD_REACTORS
330
F9
102
}
330
F9
100
DictionaryVariables
280
     0
  1
80.000000
  0
DICTIONARYVAR
  5
FD
102
{ACAD_REACTORS
330
F9
102
}
330
F9
100
DictionaryVariables
280
     0
  1
5.000000
  0
ENDSEC
  0
EOF
