  0
SECTION
  2
HEADER
  9
$ACADVER
  1
AC1015
  9
$ACADMAINTVER
 70
     6
  9
$DWGCODEPAGE
  3
ANSI_1252
  9
$INSBASE
 10
0.0
 20
0.0
 30
0.0
  9
$EXTMIN
 10
0.0
 20
0.0
 30
0.0
  9
$EXTMAX
 10
1682.0
 20
2378.0
 30
0.0
  9
$LIMMIN
 10
0.0
 20
0.0
  9
$LIMMAX
 10
1682.0
 20
2378.0
  9
$ORTHOMODE
 70
     0
  9
$REGENMODE
 70
     1
  9
$FILLMODE
 70
     1
  9
$QTEXTMODE
 70
     0
  9
$MIRRTEXT
 70
     1
  9
$LTSCALE
 40
1.0
  9
$ATTMODE
 70
     1
  9
$TEXTSIZE
 40
2.5
  9
$TRACEWID
 40
1.0
  9
$TEXTSTYLE
  7
Standard
  9
$CLAYER
  8
0
  9
$CELTYPE
  6
ByLayer
  9
$CECOLOR
 62
   256
  9
$CELTSCALE
 40
1.0
  9
$DISPSILH
 70
     0
  9
$DIMSCALE
 40
1.0
  9
$DIMASZ
 40
2.5
  9
$DIMEXO
 40
0.625
  9
$DIMDLI
 40
3.75
  9
$DIMRND
 40
0.0
  9
$DIMDLE
 40
0.0
  9
$DIMEXE
 40
1.25
  9
$DIMTP
 40
0.0
  9
$DIMTM
 40
0.0
  9
$DIMTXT
 40
2.5
  9
$DIMCEN
 40
2.5
  9
$DIMTSZ
 40
0.0
  9
$DIMTOL
 70
     0
  9
$DIMLIM
 70
     0
  9
$DIMTIH
 70
     0
  9
$DIMTOH
 70
     0
  9
$DIMSE1
 70
     0
  9
$DIMSE2
 70
     0
  9
$DIMTAD
 70
     1
  9
$DIMZIN
 70
     8
  9
$DIMBLK
  1

  9
$DIMASO
 70
     1
  9
$DIMSHO
 70
     1
  9
$DIMPOST
  1

  9
$DIMAPOST
  1

  9
$DIMALT
 70
     0
  9
$DIMALTD
 70
     3
  9
$DIMALTF
 40
0.0393700787
  9
$DIMLFAC
 40
1.0
  9
$DIMTOFL
 70
     1
  9
$DIMTVP
 40
0.0
  9
$DIMTIX
 70
     0
  9
$DIMSOXD
 70
     0
  9
$DIMSAH
 70
     0
  9
$DIMBLK1
  1

  9
$DIMBLK2
  1

  9
$DIMSTYLE
  2
ISO-25
  9
$DIMCLRD
 70
     0
  9
$DIMCLRE
 70
     0
  9
$DIMCLRT
 70
     0
  9
$DIMTFAC
 40
1.0
  9
$DIMGAP
 40
0.625
  9
$DIMJUST
 70
     0
  9
$DIMSD1
 70
     0
  9
$DIMSD2
 70
     0
  9
$DIMTOLJ
 70
     0
  9
$DIMTZIN
 70
     8
  9
$DIMALTZ
 70
     0
  9
$DIMALTTZ
 70
     0
  9
$DIMUPT
 70
     0
  9
$DIMDEC
 70
     2
  9
$DIMTDEC
 70
     2
  9
$DIMALTU
 70
     2
  9
$DIMALTTD
 70
     3
  9
$DIMTXSTY
  7
Standard
  9
$DIMAUNIT
 70
     0
  9
$DIMADEC
 70
     0
  9
$DIMALTRND
 40
0.0
  9
$DIMAZIN
 70
     0
  9
$DIMDSEP
 70
    44
  9
$DIMATFIT
 70
     3
  9
$DIMFRAC
 70
     0
  9
$DIMLDRBLK
  1

  9
$DIMLUNIT
 70
     2
  9
$DIMLWD
 70
    -2
  9
$DIMLWE
 70
    -2
  9
$DIMTMOVE
 70
     0
  9
$LUNITS
 70
     2
  9
$LUPREC
 70
     4
  9
$SKETCHINC
 40
1.0
  9
$FILLETRAD
 40
10.0
  9
$AUNITS
 70
     0
  9
$AUPREC
 70
     0
  9
$MENU
  1
.
  9
$ELEVATION
 40
0.0
  9
$PELEVATION
 40
0.0
  9
$THICKNESS
 40
0.0
  9
$LIMCHECK
 70
     0
  9
$CHAMFERA
 40
10.0
  9
$CHAMFERB
 40
10.0
  9
$CHAMFERC
 40
20.0
  9
$CHAMFERD
 40
0.0
  9
$SKPOLY
 70
     0
  9
$TDCREATE
 40
2455545.660508727
  9
$TDUCREATE
 40
2455545.61884206
  9
$TDUPDATE
 40
2455545.660508738
  9
$TDUUPDATE
 40
2455545.618842072
  9
$TDINDWG
 40
0.0000000116
  9
$TDUSRTIMER
 40
0.0000000116
  9
$USRTIMER
 70
     1
  9
$ANGBASE
 50
0.0
  9
$ANGDIR
 70
     0
  9
$PDMODE
 70
     0
  9
$PDSIZE
 40
0.0
  9
$PLINEWID
 40
0.0
  9
$SPLFRAME
 70
     0
  9
$SPLINETYPE
 70
     6
  9
$SPLINESEGS
 70
     8
  9
$HANDSEED
  5
1B8
  9
$SURFTAB1
 70
     6
  9
$SURFTAB2
 70
     6
  9
$SURFTYPE
 70
     6
  9
$SURFU
 70
     6
  9
$SURFV
 70
     6
  9
$UCSBASE
  2

  9
$UCSNAME
  2

  9
$UCSORG
 10
0.0
 20
0.0
 30
0.0
  9
$UCSXDIR
 10
1.0
 20
0.0
 30
0.0
  9
$UCSYDIR
 10
0.0
 20
1.0
 30
0.0
  9
$UCSORTHOREF
  2

  9
$UCSORTHOVIEW
 70
     0
  9
$UCSORGTOP
 10
0.0
 20
0.0
 30
0.0
  9
$UCSORGBOTTOM
 10
0.0
 20
0.0
 30
0.0
  9
$UCSORGLEFT
 10
0.0
 20
0.0
 30
0.0
  9
$UCSORGRIGHT
 10
0.0
 20
0.0
 30
0.0
  9
$UCSORGFRONT
 10
0.0
 20
0.0
 30
0.0
  9
$UCSORGBACK
 10
0.0
 20
0.0
 30
0.0
  9
$PUCSBASE
  2

  9
$PUCSNAME
  2

  9
$PUCSORG
 10
0.0
 20
0.0
 30
0.0
  9
$PUCSXDIR
 10
1.0
 20
0.0
 30
0.0
  9
$PUCSYDIR
 10
0.0
 20
1.0
 30
0.0
  9
$PUCSORTHOREF
  2

  9
$PUCSORTHOVIEW
 70
     0
  9
$PUCSORGTOP
 10
0.0
 20
0.0
 30
0.0
  9
$PUCSORGBOTTOM
 10
0.0
 20
0.0
 30
0.0
  9
$PUCSORGLEFT
 10
0.0
 20
0.0
 30
0.0
  9
$PUCSORGRIGHT
 10
0.0
 20
0.0
 30
0.0
  9
$PUCSORGFRONT
 10
0.0
 20
0.0
 30
0.0
  9
$PUCSORGBACK
 10
0.0
 20
0.0
 30
0.0
  9
$USERI1
 70
     0
  9
$USERI2
 70
     0
  9
$USERI3
 70
     0
  9
$USERI4
 70
     0
  9
$USERI5
 70
     0
  9
$USERR1
 40
0.0
  9
$USERR2
 40
0.0
  9
$USERR3
 40
0.0
  9
$USERR4
 40
0.0
  9
$USERR5
 40
0.0
  9
$WORLDVIEW
 70
     1
  9
$SHADEDGE
 70
     3
  9
$SHADEDIF
 70
    70
  9
$TILEMODE
 70
     1
  9
$MAXACTVP
 70
    64
  9
$PINSBASE
 10
0.0
 20
0.0
 30
0.0
  9
$PLIMCHECK
 70
     0
  9
$PEXTMIN
 10
0.0
 20
0.0
 30
0.0
  9
$PEXTMAX
 10
1682.0
 20
2378.0
 30
0.0
  9
$PLIMMIN
 10
0.0
 20
0.0
  9
$PLIMMAX
 10
1682.0
 20
2378.0
  9
$UNITMODE
 70
     0
  9
$VISRETAIN
 70
     1
  9
$PLINEGEN
 70
     0
  9
$PSLTSCALE
 70
     1
  9
$TREEDEPTH
 70
  3020
  9
$CMLSTYLE
  2
Standard
  9
$CMLJUST
 70
     0
  9
$CMLSCALE
 40
20.0
  9
$PROXYGRAPHICS
 70
     1
  9
$MEASUREMENT
 70
     1
  9
$CELWEIGHT
370
    -1
  9
$ENDCAPS
280
     0
  9
$JOINSTYLE
280
     0
  9
$LWDISPLAY
290
     0
  9
$INSUNITS
 70
     4
  9
$HYPERLINKBASE
  1

  9
$STYLESHEET
  1

  9
$XEDIT
290
     1
  9
$CEPSNTYPE
380
     0
  9
$PSTYLEMODE
290
     1
  9
$FINGERPRINTGUID
  2
{E24A999E-B619-45B8-9C5D-67B7785C77B6}
  9
$VERSIONGUID
  2
{FAEB1C32-E019-11D5-929B-00C0DF256EC4}
  9
$EXTNAMES
290
     1
  9
$PSVPSCALE
 40
0.0
  9
$OLESTARTUP
290
     0
  0
ENDSEC
  0
SECTION
  2
CLASSES
  0
CLASS
  1
ACDBDICTIONARYWDFLT
  2
AcDbDictionaryWithDefault
  3
ObjectDBX Classes
 90
        0
280
     0
281
     0
  0
CLASS
  1
VISUALSTYLE
  2
AcDbVisualStyle
  3
ObjectDBX Classes
 90
     4095
280
     0
281
     0
  0
CLASS
  1
SCALE
  2
AcDbScale
  3
ObjectDBX Classes
 90
     1153
280
     0
281
     0
  0
CLASS
  1
DICTIONARYVAR
  2
AcDbDictionaryVar
  3
ObjectDBX Classes
 90
        0
280
     0
281
     0
  0
CLASS
  1
ACDBPLACEHOLDER
  2
AcDbPlaceHolder
  3
ObjectDBX Classes
 90
        0
280
     0
281
     0
  0
CLASS
  1
LAYOUT
  2
AcDbLayout
  3
ObjectDBX Classes
 90
        0
280
     0
281
     0
  0
ENDSEC
  0
SECTION
  2
TABLES
  0
TABLE
  2
VPORT
  5
8
330
0
100
AcDbSymbolTable
 70
     1
  0
VPORT
  5
29
330
8
100
AcDbSymbolTableRecord
100
AcDbViewportTableRecord
  2
*Active
 70
     0
 10
0.0
 20
0.0
 11
1.0
 21
1.0
 12
344.1869158879
 22
148.5
 13
0.0
 23
0.0
 14
10.0
 24
10.0
 15
10.0
 25
10.0
 16
0.0
 26
0.0
 36
1.0
 17
0.0
 27
0.0
 37
0.0
 40
297.0
 41
1.9729729729
 42
50.0
 43
0.0
 44
0.0
 50
0.0
 51
0.0
 71
     0
 72
   100
 73
     1
 74
     3
 75
     0
 76
     0
 77
     0
 78
     0
281
     0
 65
     1
110
0.0
120
0.0
130
0.0
111
1.0
121
0.0
131
0.0
112
0.0
122
1.0
132
0.0
 79
     0
146
0.0
  0
ENDTAB
  0
TABLE
  2
LTYPE
  5
5
330
0
100
AcDbSymbolTable
 70
     2
  0
LTYPE
  5
14
330
5
100
AcDbSymbolTableRecord
100
AcDbLinetypeTableRecord
  2
ByBlock
 70
     0
  3

 72
    65
 73
     0
 40
0.0
  0
LTYPE
  5
15
330
5
100
AcDbSymbolTableRecord
100
AcDbLinetypeTableRecord
  2
ByLayer
 70
     0
  3

 72
    65
 73
     0
 40
0.0
  0
LTYPE
  5
16
330
5
100
AcDbSymbolTableRecord
100
AcDbLinetypeTableRecord
  2
Continuous
 70
     0
  3
Solid line
 72
    65
 73
     0
 40
0.0
  0
LTYPE
  5
60
330
5
100
AcDbSymbolTableRecord
100
AcDbLinetypeTableRecord
  2
CENTER2
 70
     0
  3
Center (.5x) ___ _ ___ _ ___ _ ___ _ ___ _ ___
 72
    65
 73
     4
 40
28.575
 49
19.05
 74
     4
 75
     0
340
0
 46
0.0
 50
0.0
 44
0.0
 45
0.0
 49
-3.175
 74
     4
 75
     0
340
0
 46
0.0
 50
0.0
 44
0.0
 45
0.0
 49
3.175
 74
     4
 75
     0
340
0
 46
0.0
 50
0.0
 44
0.0
 45
0.0
 49
-3.175
 74
     4
 75
     0
340
0
 46
0.0
 50
0.0
 44
0.0
 45
0.0
  0
ENDTAB
  0
TABLE
  2
LAYER
  5
2
330
0
100
AcDbSymbolTable
 70
     8
  0
LAYER
  5
10
330
2
100
AcDbSymbolTableRecord
100
AcDbLayerTableRecord
  2
0
 70
     0
 62
     7
  6
Continuous
370
    -3
390
F
  0
LAYER
  5
5D
330
2
100
AcDbSymbolTableRecord
100
AcDbLayerTableRecord
  2
Default
 70
     0
 62
     7
  6
Continuous
370
    -3
390
F
  0
LAYER
  5
77
330
2
100
AcDbSymbolTableRecord
100
AcDbLayerTableRecord
  2
14086500_ESC_-_A
 70
     0
 62
     7
  6
Continuous
370
    -3
390
F
  0
LAYER
  5
AC
330
2
100
AcDbSymbolTableRecord
100
AcDbLayerTableRecord
  2
T14085010__SLEEV
 70
     0
 62
     7
  6
Continuous
370
    -3
390
F
  0
LAYER
  5
B3
330
2
100
AcDbSymbolTableRecord
100
AcDbLayerTableRecord
  2
14086900_KENSING
 70
     0
 62
     7
  6
Continuous
370
    -3
390
F
  0
LAYER
  5
B6
330
2
100
AcDbSymbolTableRecord
100
AcDbLayerTableRecord
  2
12086000_CAP_-_P
 70
     0
 62
     7
  6
Continuous
370
    -3
390
F
  0
LAYER
  5
CA
330
2
100
AcDbSymbolTableRecord
100
AcDbLayerTableRecord
  2
14088300_LEVER_H
 70
     0
 62
     7
  6
Continuous
370
    -3
390
F
  0
LAYER
  5
133
330
2
100
AcDbSymbolTableRecord
100
AcDbLayerTableRecord
  2
T02083008_49437_
 70
     0
 62
     7
  6
Continuous
370
    -3
390
F
  0
ENDTAB
  0
TABLE
  2
STYLE
  5
3
330
0
100
AcDbSymbolTable
 70
     2
  0
STYLE
  5
11
330
3
100
AcDbSymbolTableRecord
100
AcDbTextStyleTableRecord
  2
Standard
 70
     0
 40
0.0
 41
1.0
 50
0.0
 71
     0
 42
2.5
  3
txt
  4

  0
STYLE
  5
1A7
330
3
100
AcDbSymbolTableRecord
100
AcDbTextStyleTableRecord
  2
SEACAD_seiso_ttf
 70
     0
 40
0.0
 41
1.0
 50
0.0
 71
     0
 42
0.2
  3
seiso.ttf
  4

  0
ENDTAB
  0
TABLE
  2
VIEW
  5
6
330
0
100
AcDbSymbolTable
 70
     0
  0
ENDTAB
  0
TABLE
  2
UCS
  5
7
330
0
100
AcDbSymbolTable
 70
     0
  0
ENDTAB
  0
TABLE
  2
APPID
  5
9
330
0
100
AcDbSymbolTable
 70
     1
  0
APPID
  5
12
330
9
100
AcDbSymbolTableRecord
100
AcDbRegAppTableRecord
  2
ACAD
 70
     0
  0
ENDTAB
  0
TABLE
  2
DIMSTYLE
  5
A
330
0
100
AcDbSymbolTable
 70
     1
100
AcDbDimStyleTable
  0
DIMSTYLE
105
27
330
A
100
AcDbSymbolTableRecord
100
AcDbDimStyleTableRecord
  2
ISO-25
 70
     0
 41
2.5
 42
0.625
 43
3.75
 44
1.25
 73
     0
 74
     0
 77
     1
 78
     8
140
2.5
141
2.5
143
0.0393700787
147
0.625
171
     3
172
     1
271
     2
272
     2
274
     3
278
    44
283
     0
284
     8
340
11
  0
ENDTAB
  0
TABLE
  2
BLOCK_RECORD
  5
1
330
0
100
AcDbSymbolTable
 70
     7
  0
BLOCK_RECORD
  5
1F
330
1
100
AcDbSymbolTableRecord
100
AcDbBlockTableRecord
  2
*Model_Space
340
22
  0
BLOCK_RECORD
  5
1B
330
1
100
AcDbSymbolTableRecord
100
AcDbBlockTableRecord
  2
*Paper_Space
340
1E
  0
BLOCK_RECORD
  5
5E
330
1
100
AcDbSymbolTableRecord
100
AcDbBlockTableRecord
  2
SEANNOT_GROUP
340
0
102
{BLKREFS
331
5F
102
}
  0
BLOCK_RECORD
  5
65
330
1
100
AcDbSymbolTableRecord
100
AcDbBlockTableRecord
  2
SEANNOT_GROUP1
340
0
102
{BLKREFS
331
66
102
}
  0
BLOCK_RECORD
  5
6F
330
1
100
AcDbSymbolTableRecord
100
AcDbBlockTableRecord
  2
SEANNOT_GROUP2
340
0
102
{BLKREFS
331
70
102
}
  0
BLOCK_RECORD
  5
75
330
1
100
AcDbSymbolTableRecord
100
AcDbBlockTableRecord
  2
SE
340
0
102
{BLKREFS
331
76
102
}
  0
BLOCK_RECORD
  5
D7
330
1
100
AcDbSymbolTableRecord
100
AcDbBlockTableRecord
  2
SE1
340
0
102
{BLKREFS
331
D8
102
}
  0
BLOCK_RECORD
  5
161
330
1
100
AcDbSymbolTableRecord
100
AcDbBlockTableRecord
  2
SE2
340
0
102
{BLKREFS
331
162
102
}
  0
ENDTAB
  0
ENDSEC
  0
SECTION
  2
BLOCKS
  0
BLOCK
  5
20
330
1F
100
AcDbEntity
  8
0
100
AcDbBlockBegin
  2
*Model_Space
 70
     0
 10
0.0
 20
0.0
 30
0.0
  3
*Model_Space
  1

  0
ENDBLK
  5
21
330
1F
100
AcDbEntity
  8
0
100
AcDbBlockEnd
  0
BLOCK
  5
1C
330
1B
100
AcDbEntity
 67
     1
  8
0
100
AcDbBlockBegin
  2
*Paper_Space
 70
     0
 10
0.0
 20
0.0
 30
0.0
  3
*Paper_Space
  1

  0
ENDBLK
  5
1D
330
1B
100
AcDbEntity
 67
     1
  8
0
100
AcDbBlockEnd
  0
BLOCK
  5
63
330
5E
100
AcDbEntity
  8
0
100
AcDbBlockBegin
  2
SEANNOT_GROUP
 70
     0
 10
0.0
 20
0.0
 30
0.0
  3
SEANNOT_GROUP
  1

  0
LINE
  5
61
330
5E
100
AcDbEntity
  8
Default
  6
CENTER2
 62
     7
100
AcDbLine
 10
206.5784076382
 20
167.1154569913
 30
0.0
 11
166.5784085323
 21
167.1154569913
 31
0.0
  0
LINE
  5
62
330
5E
100
AcDbEntity
  8
Default
  6
CENTER2
 62
     7
100
AcDbLine
 10
186.5784080853
 20
187.1154565443
 30
0.0
 11
186.5784080853
 21
147.1154574384
 31
0.0
  0
ENDBLK
  5
64
330
5E
100
AcDbEntity
  8
0
100
AcDbBlockEnd
  0
BLOCK
  5
6D
330
65
100
AcDbEntity
  8
0
100
AcDbBlockBegin
  2
SEANNOT_GROUP1
 70
     0
 10
0.0
 20
0.0
 30
0.0
  3
SEANNOT_GROUP1
  1

  0
LINE
  5
67
330
65
100
AcDbEntity
  8
Default
  6
CENTER2
 62
     7
100
AcDbLine
 10
121.2223791576
 20
167.1154569913
 30
0.0
 11
81.2223800517
 21
167.1154569913
 31
0.0
  0
LINE
  5
68
330
65
100
AcDbEntity
  8
Default
  6
CENTER2
 62
     7
100
AcDbLine
 10
101.2223796047
 20
187.1154565443
 30
0.0
 11
101.2223796047
 21
147.1154574384
 31
0.0
  0
LINE
  5
69
330
65
100
AcDbEntity
  8
Default
  6
CENTER2
 62
     7
100
AcDbLine
 10
126.2223790459
 20
167.1154569913
 30
0.0
 11
118.5575260702
 21
167.1154569913
 31
0.0
  0
LINE
  5
6A
330
65
100
AcDbEntity
  8
Default
  6
CENTER2
 62
     7
100
AcDbLine
 10
101.2223796047
 20
192.1154564326
 30
0.0
 11
101.2223796047
 21
184.4506034569
 31
0.0
  0
LINE
  5
6B
330
65
100
AcDbEntity
  8
Default
  6
CENTER2
 62
     7
100
AcDbLine
 10
76.2223801635
 20
167.1154569913
 30
0.0
 11
83.8872331391
 21
167.1154569913
 31
0.0
  0
LINE
  5
6C
330
65
100
AcDbEntity
  8
Default
  6
CENTER2
 62
     7
100
AcDbLine
 10
101.2223796047
 20
142.1154575501
 30
0.0
 11
101.2223796047
 21
149.7803105258
 31
0.0
  0
ENDBLK
  5
6E
330
65
100
AcDbEntity
  8
0
100
AcDbBlockEnd
  0
BLOCK
  5
73
330
6F
100
AcDbEntity
  8
0
100
AcDbBlockBegin
  2
SEANNOT_GROUP2
 70
     0
 10
0.0
 20
0.0
 30
0.0
  3
SEANNOT_GROUP2
  1

  0
LINE
  5
71
330
6F
100
AcDbEntity
  8
Default
  6
CENTER2
 62
     7
100
AcDbLine
 10
121.2223791576
 20
92.1106057477
 30
0.0
 11
81.2223800517
 21
92.1106057477
 31
0.0
  0
LINE
  5
72
330
6F
100
AcDbEntity
  8
Default
  6
CENTER2
 62
     7
100
AcDbLine
 10
101.2223796047
 20
112.1106053007
 30
0.0
 11
101.2223796047
 21
72.1106061948
 31
0.0
  0
ENDBLK
  5
74
330
6F
100
AcDbEntity
  8
0
100
AcDbBlockEnd
  0
BLOCK
  5
D5
330
75
100
AcDbEntity
  8
0
100
AcDbBlockBegin
  2
SE
 70
     0
 10
0.0
 20
0.0
 30
0.0
  3
SE
  1

  0
ELLIPSE
  5
78
330
75
100
AcDbEntity
  8
14086500_ESC_-_A
  6
Continuous
 62
     7
100
AcDbEllipse
 10
78.036253587
 20
173.3281607334
 30
0.0
 11
0.4880358840482595
 21
-0.1087243113623172
 31
0.0
210
0.0
220
0.0
230
1.0
 40
0.2681301623
 41
3.141592653589749
 42
3.276593555423918
  0
ELLIPSE
  5
79
330
75
100
AcDbEntity
  8
14086500_ESC_-_A
  6
Continuous
 62
     7
100
AcDbEllipse
 10
78.036253587
 20
160.9027532493
 30
0.0
 11
0.4770136292346627
 21
0.1498599263458607
 31
0.0
210
0.0
220
0.0
230
0.9999999999999998
 40
0.2681301622
 41
3.141592653589851
 42
3.276694918251804
  0
ELLIPSE
  5
7A
330
75
100
AcDbEntity
  8
14086500_ESC_-_A
  6
Continuous
 62
     7
100
AcDbEllipse
 10
78.036253587
 20
160.9027532493
 30
0.0
 11
0.4880358840176971
 21
0.1087243114999414
 31
0.0
210
0.0
220
0.0
230
1.0
 40
0.2681301606
 41
3.006126008981693
 42
3.141592653589793
  0
ELLIPSE
  5
7B
330
75
100
AcDbEntity
  8
14086500_ESC_-_A
  6
Continuous
 62
     7
100
AcDbEllipse
 10
84.248957329
 20
184.088879267
 30
0.0
 11
0.3682893178630249
 21
-0.338175957672892
 31
0.0
210
0.0
220
0.0
230
1.0
 40
0.2681301623
 41
3.141592653589916
 42
3.276588741634631
  0
ELLIPSE
  5
7C
330
75
100
AcDbEntity
  8
14086500_ESC_-_A
  6
Continuous
 62
     7
100
AcDbEllipse
 10
84.248957329
 20
184.088879267
 30
0.0
 11
0.3381759577995372
 21
-0.3682893177467048
 31
0.0
210
0.0
220
0.0
230
1.0
 40
0.2681301606
 41
3.009775824897988
 42
3.141592653589793
  0
ELLIPSE
  5
7D
330
75
100
AcDbEntity
  8
14086500_ESC_-_A
  6
Continuous
 62
     7
100
AcDbEllipse
 10
84.248957329
 20
150.1420347157
 30
0.0
 11
0.338175957695714
 21
0.368289317842066
 31
0.0
210
0.0
220
0.0
230
1.0
 40
0.2681301622
 41
3.141592653589793
 42
3.276689154121402
  0
ELLIPSE
  5
7E
330
75
100
AcDbEntity
  8
14086500_ESC_-_A
  6
Continuous
 62
     7
100
AcDbEllipse
 10
84.248957329
 20
150.1420347157
 30
0.0
 11
0.3682893177677019
 21
0.3381759577767638
 31
0.0
210
0.0
220
0.0
230
1.0
 40
0.2681301606
 41
3.006125716121659
 42
3.141592653589793
  0
ELLIPSE
  5
7F
330
75
100
AcDbEntity
  8
14086500_ESC_-_A
  6
Continuous
 62
     7
100
AcDbEllipse
 10
95.0096758626
 20
190.3015830091
 30
0.0
 11
0.1498599263754022
 21
-0.4770136292253646
 31
0.0
210
0.0
220
0.0
230
0.9999999999999999
 40
0.2681301623
 41
3.14159265358983
 42
3.276573545277925
  0
ELLIPSE
  5
80
330
75
100
AcDbEntity
  8
14086500_ESC_-_A
  6
Continuous
 62
     7
100
AcDbEllipse
 10
95.0096758626
 20
190.301583009
 30
0.0
 11
0.1087243115301586
 21
-0.4880358840108831
 31
0.0
210
0.0
220
0.0
230
1.0
 40
0.2681301606
 41
3.006208535341305
 42
3.141592653589793
  0
ELLIPSE
  5
81
330
75
100
AcDbEntity
  8
14086500_ESC_-_A
  6
Continuous
 62
     7
100
AcDbEllipse
 10
95.0096758626
 20
143.9293309736
 30
0.0
 11
0.1087243113925516
 21
0.4880358840415356
 31
0.0
210
0.0
220
0.0
230
0.9999999999999999
 40
0.2681301622
 41
3.141592653589833
 42
3.276693788519782
  0
ELLIPSE
  5
82
330
75
100
AcDbEntity
  8
14086500_ESC_-_A
  6
Continuous
 62
     7
100
AcDbEllipse
 10
107.4350833467
 20
190.301583009
 30
0.0
 11
-0.1087243113623276
 21
-0.4880358840482525
 31
0.0
210
0.0
220
0.0
230
1.0
 40
0.2681301623
 41
3.141592653574096
 42
3.276593555442153
  0
ELLIPSE
  5
83
330
75
100
AcDbEntity
  8
14086500_ESC_-_A
  6
Continuous
 62
     7
100
AcDbEllipse
 10
107.4350833467
 20
190.301583009
 30
0.0
 11
-0.1498599262113321
 21
-0.4770136292768929
 31
0.0
210
0.0
220
0.0
230
1.0
 40
0.2681301606
 41
3.006208225841716
 42
3.141592653589917
  0
ELLIPSE
  5
84
330
75
100
AcDbEntity
  8
14086500_ESC_-_A
  6
Continuous
 62
     7
100
AcDbEllipse
 10
107.4350833467
 20
143.9293309736
 30
0.0
 11
-0.1498599263458442
 21
0.4770136292346974
 31
0.0
210
0.0
220
0.0
230
1.0
 40
0.2681301622
 41
3.141592653589749
 42
3.27669165106258
  0
ELLIPSE
  5
85
330
75
100
AcDbEntity
  8
14086500_ESC_-_A
  6
Continuous
 62
     7
100
AcDbEllipse
 10
107.4350833467
 20
143.9293309736
 30
0.0
 11
-0.108724311499951
 21
0.4880358840176624
 31
0.0
210
0.0
220
0.0
230
0.9999999999999998
 40
0.2681301606
 41
3.006126008981396
 42
3.1415926535898
  0
ELLIPSE
  5
86
330
75
100
AcDbEntity
  8
14086500_ESC_-_A
  6
Continuous
 62
     7
100
AcDbEllipse
 10
118.1958018803
 20
184.088879267
 30
0.0
 11
-0.3381759576729024
 21
-0.3682893178630145
 31
0.0
210
0.0
220
0.0
230
1.0
 40
0.2681301623
 41
3.141592653589793
 42
3.276594708808005
  0
ELLIPSE
  5
87
330
75
100
AcDbEntity
  8
14086500_ESC_-_A
  6
Continuous
 62
     7
100
AcDbEllipse
 10
118.1958018803
 20
184.088879267
 30
0.0
 11
-0.3682893177466979
 21
-0.3381759577995407
 31
0.0
210
0.0
220
0.0
230
1.0
 40
0.2681301606
 41
3.009779914430152
 42
3.141592653589793
  0
ELLIPSE
  5
88
330
75
100
AcDbEntity
  8
14086500_ESC_-_A
  6
Continuous
 62
     7
100
AcDbEllipse
 10
118.1958018803
 20
150.1420347157
 30
0.0
 11
-0.368289317842111
 21
0.3381759576957313
 31
0.0
210
0.0
220
0.0
230
1.0
 40
0.2681301622
 41
3.141592653589757
 42
3.276694918252109
  0
ELLIPSE
  5
89
330
75
100
AcDbEntity
  8
14086500_ESC_-_A
  6
Continuous
 62
     7
100
AcDbEllipse
 10
118.1958018803
 20
150.1420347157
 30
0.0
 11
-0.3381759577767672
 21
0.3682893177676949
 31
0.0
210
0.0
220
0.0
230
1.0
 40
0.2681301606
 41
3.006129252767862
 42
3.141592653589793
  0
ELLIPSE
  5
8A
330
75
100
AcDbEntity
  8
14086500_ESC_-_A
  6
Continuous
 62
     7
100
AcDbEllipse
 10
124.4085056224
 20
173.3281607334
 30
0.0
 11
-0.4770136292253542
 21
-0.1498599263753874
 31
0.0
210
0.0
220
0.0
230
1.0
 40
0.2681301623
 41
3.141592653589793
 42
3.276571203191303
  0
ELLIPSE
  5
8B
330
75
100
AcDbEntity
  8
14086500_ESC_-_A
  6
Continuous
 62
     7
100
AcDbEllipse
 10
124.4085056224
 20
173.3281607334
 30
0.0
 11
-0.4880358840108762
 21
-0.108724311530202
 31
0.0
210
0.0
220
0.0
230
1.0
 40
0.2681301606
 41
3.006208535341083
 42
3.141592653589633
  0
ELLIPSE
  5
8C
330
75
100
AcDbEntity
  8
14086500_ESC_-_A
  6
Continuous
 62
     7
100
AcDbEllipse
 10
124.4085056224
 20
160.9027532493
 30
0.0
 11
-0.4880358840415461
 21
0.1087243113925525
 31
0.0
210
0.0
220
0.0
230
1.0
 40
0.2681301622
 41
3.141592653589719
 42
3.276693788537186
  0
ELLIPSE
  5
8D
330
75
100
AcDbEntity
  8
14086500_ESC_-_A
  6
Continuous
 62
     7
100
AcDbEllipse
 10
124.4085056224
 20
160.9027532493
 30
0.0
 11
-0.477013629267612
 21
0.1498599262408778
 31
0.0
210
0.0
220
0.0
230
1.0
 40
0.2681301606
 41
3.00612571612243
 42
3.141592653589793
  0
ARC
  5
8E
330
75
100
AcDbEntity
  8
14086500_ESC_-_A
  6
Continuous
 62
     7
100
AcDbCircle
 10
104.6752197744
 20
173.0959515957
 30
0.0
 40
31.21987017912506
100
AcDbArc
 50
250.9074114917
 51
251.7180515094
  0
ARC
  5
8F
330
75
100
AcDbEntity
  8
14086500_ESC_-_A
  6
Continuous
 62
     7
100
AcDbCircle
 10
104.6752197744
 20
173.0959515957
 30
0.0
 40
31.21987017912506
100
AcDbArc
 50
228.3372930207
 51
229.1465005353
  0
ARC
  5
90
330
75
100
AcDbEntity
  8
14086500_ESC_-_A
  6
Continuous
 62
     7
100
AcDbCircle
 10
78.036253587
 20
173.3281607334
 30
0.0
 40
0.4999999999999993
100
AcDbArc
 50
162.3608518936
 51
167.4407776132
  0
ARC
  5
91
330
75
100
AcDbEntity
  8
14086500_ESC_-_A
  6
Continuous
 62
     7
100
AcDbCircle
 10
78.036253587
 20
160.9027532493
 30
0.0
 40
0.4999999999999793
100
AcDbArc
 50
192.5592224063
 51
197.4407776096
  0
ARC
  5
92
330
75
100
AcDbEntity
  8
14086500_ESC_-_A
  6
Continuous
 62
     7
100
AcDbCircle
 10
84.248957329
 20
184.088879267
 30
0.0
 40
0.4999999999988411
100
AcDbArc
 50
132.5592224094
 51
137.4407776132
  0
ARC
  5
93
330
75
100
AcDbEntity
  8
14086500_ESC_-_A
  6
Continuous
 62
     7
100
AcDbCircle
 10
84.248957329
 20
150.1420347157
 30
0.0
 40
0.5000000000000024
100
AcDbArc
 50
222.5592224063
 51
227.4407776096
  0
ARC
  5
94
330
75
100
AcDbEntity
  8
14086500_ESC_-_A
  6
Continuous
 62
     7
100
AcDbCircle
 10
95.0096758626
 20
190.3015830091
 30
0.0
 40
0.4999999999988412
100
AcDbArc
 50
102.5592224094
 51
107.4407776132
  0
ARC
  5
95
330
75
100
AcDbEntity
  8
14086500_ESC_-_A
  6
Continuous
 62
     7
100
AcDbCircle
 10
95.0096758626
 20
143.9293309736
 30
0.0
 40
0.4999999999999993
100
AcDbArc
 50
252.4124137808
 51
257.4407776096
  0
ARC
  5
96
330
75
100
AcDbEntity
  8
14086500_ESC_-_A
  6
Continuous
 62
     7
100
AcDbCircle
 10
107.4350833467
 20
190.301583009
 30
0.0
 40
0.4999999999999991
100
AcDbArc
 50
72.5592224065
 51
77.4407776098
  0
ARC
  5
97
330
75
100
AcDbEntity
  8
14086500_ESC_-_A
  6
Continuous
 62
     7
100
AcDbCircle
 10
107.4350833467
 20
143.9293309736
 30
0.0
 40
0.499999999999977
100
AcDbArc
 50
282.5592224063
 51
287.4407776096
  0
ARC
  5
98
330
75
100
AcDbEntity
  8
14086500_ESC_-_A
  6
Continuous
 62
     7
100
AcDbCircle
 10
118.1958018803
 20
184.088879267
 30
0.0
 40
0.500000000000002
100
AcDbArc
 50
42.5592224065
 51
47.4407776098
  0
ARC
  5
99
330
75
100
AcDbEntity
  8
14086500_ESC_-_A
  6
Continuous
 62
     7
100
AcDbCircle
 10
118.1958018803
 20
150.1420347157
 30
0.0
 40
0.5000000000000071
100
AcDbArc
 50
312.5592224063
 51
317.4407776096
  0
ARC
  5
9A
330
75
100
AcDbEntity
  8
14086500_ESC_-_A
  6
Continuous
 62
     7
100
AcDbCircle
 10
124.4085056224
 20
173.3281607334
 30
0.0
 40
0.4999999999999967
100
AcDbArc
 50
12.5592224065
 51
17.4407776098
  0
ARC
  5
9B
330
75
100
AcDbEntity
  8
14086500_ESC_-_A
  6
Continuous
 62
     7
100
AcDbCircle
 10
124.4085056224
 20
160.9027532493
 30
0.0
 40
0.5000000000000073
100
AcDbArc
 50
342.5592224063
 51
347.4407776096
  0
ARC
  5
9C
330
75
100
AcDbEntity
  8
14086500_ESC_-_A
  6
Continuous
 62
     7
100
AcDbCircle
 10
94.8221274475
 20
167.1150019743
 30
0.0
 40
30.72605033082736
100
AcDbArc
 50
348.1642996399
 51
11.8372103325
  0
ARC
  5
9D
330
75
100
AcDbEntity
  8
14086500_ESC_-_A
  6
Continuous
 62
     7
100
AcDbCircle
 10
95.6778162238
 20
170.3160872409
 30
0.0
 40
30.72780768701961
100
AcDbArc
 50
318.1649859759
 51
341.8365601343
  0
ARC
  5
9E
330
75
100
AcDbEntity
  8
14086500_ESC_-_A
  6
Continuous
 62
     7
100
AcDbCircle
 10
95.6572589241
 20
163.9061954739
 30
0.0
 40
30.75022717031305
100
AcDbArc
 50
18.1666922135
 51
41.8223961562
  0
ARC
  5
9F
330
75
100
AcDbEntity
  8
14086500_ESC_-_A
  6
Continuous
 62
     7
100
AcDbCircle
 10
98.0211543074
 20
172.6592342938
 30
0.0
 40
30.72743395849896
100
AcDbArc
 50
288.1648370966
 51
288.9410589127
  0
ARC
  5
A0
330
75
100
AcDbEntity
  8
14086500_ESC_-_A
  6
Continuous
 62
     7
100
AcDbCircle
 10
98.0211543074
 20
172.6592342938
 30
0.0
 40
30.72743395849896
100
AcDbArc
 50
290.5906124585
 51
311.8367061581
  0
ARC
  5
A1
330
75
100
AcDbEntity
  8
14086500_ESC_-_A
  6
Continuous
 62
     7
100
AcDbCircle
 10
98.0217500996
 20
161.5708946034
 30
0.0
 40
30.72780638891277
100
AcDbArc
 50
48.1650175472
 51
69.4357683579
  0
ARC
  5
A2
330
75
100
AcDbEntity
  8
14086500_ESC_-_A
  6
Continuous
 62
     7
100
AcDbCircle
 10
98.0217500996
 20
161.5708946034
 30
0.0
 40
30.72780638891277
100
AcDbArc
 50
71.0513992053
 51
71.8365233987
  0
ARC
  5
A3
330
75
100
AcDbEntity
  8
14086500_ESC_-_A
  6
Continuous
 62
     7
100
AcDbCircle
 10
101.2219248898
 20
173.5157096232
 30
0.0
 40
30.72605085747509
100
AcDbArc
 50
258.16429927
 51
281.837247083
  0
ARC
  5
A4
330
75
100
AcDbEntity
  8
14086500_ESC_-_A
  6
Continuous
 62
     7
100
AcDbCircle
 10
101.222834471
 20
160.7152050668
 30
0.0
 40
30.72605007225842
100
AcDbArc
 50
78.1643310338
 51
101.8372101465
  0
ARC
  5
A5
330
75
100
AcDbEntity
  8
14086500_ESC_-_A
  6
Continuous
 62
     7
100
AcDbCircle
 10
104.4235448071
 20
172.6608837702
 30
0.0
 40
30.72880998134305
100
AcDbArc
 50
228.1653149402
 51
249.4353464994
  0
ARC
  5
A6
330
75
100
AcDbEntity
  8
14086500_ESC_-_A
  6
Continuous
 62
     7
100
AcDbCircle
 10
104.4235448071
 20
172.6608837702
 30
0.0
 40
30.72880998134305
100
AcDbArc
 50
251.0509405862
 51
251.8361124998
  0
ARC
  5
A7
330
75
100
AcDbEntity
  8
14086500_ESC_-_A
  6
Continuous
 62
     7
100
AcDbCircle
 10
104.4317553687
 20
161.5501398492
 30
0.0
 40
30.75044867509996
100
AcDbArc
 50
108.1667809703
 51
108.9427872686
  0
ARC
  5
A8
330
75
100
AcDbEntity
  8
14086500_ESC_-_A
  6
Continuous
 62
     7
100
AcDbCircle
 10
104.4317553687
 20
161.5501398492
 30
0.0
 40
30.75044867509996
100
AcDbArc
 50
110.5906260232
 51
131.8223096091
  0
ARC
  5
A9
330
75
100
AcDbEntity
  8
14086500_ESC_-_A
  6
Continuous
 62
     7
100
AcDbCircle
 10
106.7664883994
 20
170.3168746072
 30
0.0
 40
30.72780768702138
100
AcDbArc
 50
198.1649859759
 51
221.8365601343
  0
ARC
  5
AA
330
75
100
AcDbEntity
  8
14086500_ESC_-_A
  6
Continuous
 62
     7
100
AcDbCircle
 10
106.7678061257
 20
163.9142917654
 30
0.0
 40
30.72880974368483
100
AcDbArc
 50
138.1653463099
 51
161.8361123084
  0
ARC
  5
AB
330
75
100
AcDbEntity
  8
14086500_ESC_-_A
  6
Continuous
 62
     7
100
AcDbCircle
 10
107.6226320039
 20
167.1159115556
 30
0.0
 40
30.72605059891698
100
AcDbArc
 50
168.164330664
 51
191.837246897
  0
ARC
  5
AD
330
75
100
AcDbEntity
  8
T14085010__SLEEV
  6
Continuous
 62
     7
100
AcDbCircle
 10
101.2223796047
 20
167.1154569913
 30
0.0
 40
17.94999999999999
100
AcDbArc
 50
0.0
 51
71.6835438207
  0
ARC
  5
AE
330
75
100
AcDbEntity
  8
T14085010__SLEEV
  6
Continuous
 62
     7
100
AcDbCircle
 10
101.2223796047
 20
167.1154569913
 30
0.0
 40
17.94999999999999
100
AcDbArc
 50
108.3164561793
 51
251.6835438207
  0
ARC
  5
AF
330
75
100
AcDbEntity
  8
T14085010__SLEEV
  6
Continuous
 62
     7
100
AcDbCircle
 10
101.2223796047
 20
167.1154569913
 30
0.0
 40
17.94999999999999
100
AcDbArc
 50
288.3164561793
 51
360.0
  0
ARC
  5
B0
330
75
100
AcDbEntity
  8
T14085010__SLEEV
  6
Continuous
 62
     7
100
AcDbCircle
 10
101.2223796047
 20
167.1154569913
 30
0.0
 40
18.01446922828351
100
AcDbArc
 50
0.0
 51
71.698017263
  0
ARC
  5
B1
330
75
100
AcDbEntity
  8
T14085010__SLEEV
  6
Continuous
 62
     7
100
AcDbCircle
 10
101.2223796047
 20
167.1154569913
 30
0.0
 40
18.01446922828351
100
AcDbArc
 50
108.301982737
 51
251.698017263
  0
ARC
  5
B2
330
75
100
AcDbEntity
  8
T14085010__SLEEV
  6
Continuous
 62
     7
100
AcDbCircle
 10
101.2223796047
 20
167.1154569913
 30
0.0
 40
18.01446922828351
100
AcDbArc
 50
288.301982737
 51
360.0
  0
CIRCLE
  5
B4
330
75
100
AcDbEntity
  8
14086900_KENSING
  6
Continuous
 62
     7
100
AcDbCircle
 10
101.2223796047
 20
167.1154569913
 30
0.0
 40
8.75
  0
CIRCLE
  5
B5
330
75
100
AcDbEntity
  8
14086900_KENSING
  6
Continuous
 62
     7
100
AcDbCircle
 10
101.2223796047
 20
167.1154569913
 30
0.0
 40
13.83514646558062
  0
LINE
  5
B7
330
75
100
AcDbEntity
  8
12086000_CAP_-_P
  6
Continuous
 62
     7
100
AcDbLine
 10
96.1588972134
 20
167.1154569913
 30
0.0
 11
92.9357340888
 21
167.1154569913
 31
0.0
  0
LINE
  5
B8
330
75
100
AcDbEntity
  8
12086000_CAP_-_P
  6
Continuous
 62
     7
100
AcDbLine
 10
106.1251860869
 20
167.1154569913
 30
0.0
 11
106.285861996
 21
167.1154569913
 31
0.0
  0
LINE
  5
B9
330
75
100
AcDbEntity
  8
12086000_CAP_-_P
  6
Continuous
 62
     7
100
AcDbLine
 10
103.6737828458
 20
162.8695020279
 30
0.0
 11
103.7541208003
 21
162.7303526089
 31
0.0
  0
LINE
  5
BA
330
75
100
AcDbEntity
  8
12086000_CAP_-_P
  6
Continuous
 62
     7
100
AcDbLine
 10
98.7709763635
 20
162.8695020279
 30
0.0
 11
98.690638409
 21
162.7303526089
 31
0.0
  0
LINE
  5
BB
330
75
100
AcDbEntity
  8
12086000_CAP_-_P
  6
Continuous
 62
     7
100
AcDbLine
 10
96.3195731224
 20
167.1154569913
 30
0.0
 11
96.1588972134
 21
167.1154569913
 31
0.0
  0
LINE
  5
BC
330
75
100
AcDbEntity
  8
12086000_CAP_-_P
  6
Continuous
 62
     7
100
AcDbLine
 10
98.7709763635
 20
171.3614119548
 30
0.0
 11
98.690638409
 21
171.5005613738
 31
0.0
  0
LINE
  5
BD
330
75
100
AcDbEntity
  8
12086000_CAP_-_P
  6
Continuous
 62
     7
100
AcDbLine
 10
103.6737828458
 20
171.3614119548
 30
0.0
 11
103.7541208003
 21
171.5005613738
 31
0.0
  0
LINE
  5
BE
330
75
100
AcDbEntity
  8
12086000_CAP_-_P
  6
Continuous
 62
     7
100
AcDbLine
 10
97.0790568467
 20
159.9390114624
 30
0.0
 11
98.690638409
 21
162.7303526089
 31
0.0
  0
LINE
  5
BF
330
75
100
AcDbEntity
  8
12086000_CAP_-_P
  6
Continuous
 62
     7
100
AcDbLine
 10
105.3657023626
 20
159.9390114624
 30
0.0
 11
103.7541208003
 21
162.7303526089
 31
0.0
  0
LINE
  5
C0
330
75
100
AcDbEntity
  8
12086000_CAP_-_P
  6
Continuous
 62
     7
100
AcDbLine
 10
109.5090251205
 20
167.1154569913
 30
0.0
 11
106.285861996
 21
167.1154569913
 31
0.0
  0
LINE
  5
C1
330
75
100
AcDbEntity
  8
12086000_CAP_-_P
  6
Continuous
 62
     7
100
AcDbLine
 10
97.0790568467
 20
174.2919025203
 30
0.0
 11
98.690638409
 21
171.5005613738
 31
0.0
  0
LINE
  5
C2
330
75
100
AcDbEntity
  8
12086000_CAP_-_P
  6
Continuous
 62
     7
100
AcDbLine
 10
105.3657023626
 20
174.2919025203
 30
0.0
 11
103.7541208003
 21
171.5005613738
 31
0.0
  0
LINE
  5
C3
330
75
100
AcDbEntity
  8
12086000_CAP_-_P
  6
Continuous
 62
     7
100
AcDbLine
 10
97.0790568467
 20
174.2919025203
 30
0.0
 11
96.8891111912
 21
174.6208980463
 31
0.0
  0
LINE
  5
C4
330
75
100
AcDbEntity
  8
12086000_CAP_-_P
  6
Continuous
 62
     7
100
AcDbLine
 10
105.5556480181
 20
174.6208980463
 30
0.0
 11
105.3657023626
 21
174.2919025203
 31
0.0
  0
LINE
  5
C5
330
75
100
AcDbEntity
  8
12086000_CAP_-_P
  6
Continuous
 62
     7
100
AcDbLine
 10
92.9357340888
 20
167.1154569913
 30
0.0
 11
92.5558427778
 21
167.1154569913
 31
0.0
  0
LINE
  5
C6
330
75
100
AcDbEntity
  8
12086000_CAP_-_P
  6
Continuous
 62
     7
100
AcDbLine
 10
109.8889164316
 20
167.1154569913
 30
0.0
 11
109.5090251205
 21
167.1154569913
 31
0.0
  0
LINE
  5
C7
330
75
100
AcDbEntity
  8
12086000_CAP_-_P
  6
Continuous
 62
     7
100
AcDbLine
 10
97.0790568467
 20
159.9390114624
 30
0.0
 11
96.8891111912
 21
159.6100159364
 31
0.0
  0
LINE
  5
C8
330
75
100
AcDbEntity
  8
12086000_CAP_-_P
  6
Continuous
 62
     7
100
AcDbLine
 10
105.5556480181
 20
159.6100159364
 30
0.0
 11
105.3657023626
 21
159.9390114624
 31
0.0
  0
CIRCLE
  5
C9
330
75
100
AcDbEntity
  8
12086000_CAP_-_P
  6
Continuous
 62
     7
100
AcDbCircle
 10
101.2223796047
 20
167.1154569913
 30
0.0
 40
8.691196303513935
  0
ARC
  5
CB
330
75
100
AcDbEntity
  8
14088300_LEVER_H
  6
Continuous
 62
     7
100
AcDbCircle
 10
127.2304608053
 20
155.2250238289
 30
0.0
 40
21.00808120065041
100
AcDbArc
 50
182.7293194031
 51
209.5009463347
  0
ARC
  5
CC
330
75
100
AcDbEntity
  8
14088300_LEVER_H
  6
Continuous
 62
     7
100
AcDbCircle
 10
75.214298404
 20
155.2250238289
 30
0.0
 40
21.00808120065042
100
AcDbArc
 50
330.4990536653
 51
357.2706805969
  0
ARC
  5
CD
330
75
100
AcDbEntity
  8
14088300_LEVER_H
  6
Continuous
 62
     7
100
AcDbCircle
 10
108.2027762075
 20
144.4592629752
 30
0.0
 40
0.8540867594113132
100
AcDbArc
 50
274.9218299871
 51
29.5009463347
  0
ARC
  5
CE
330
75
100
AcDbEntity
  8
14088300_LEVER_H
  6
Continuous
 62
     7
100
AcDbCircle
 10
94.2419830019
 20
144.4592629752
 30
0.0
 40
0.8540867594113913
100
AcDbArc
 50
150.4990536653
 51
265.0781700129
  0
ARC
  5
CF
330
75
100
AcDbEntity
  8
14088300_LEVER_H
  6
Continuous
 62
     7
100
AcDbCircle
 10
101.2223796047
 20
225.5191575292
 30
0.0
 40
82.21398131339791
100
AcDbArc
 50
265.0781700129
 51
274.9218299871
  0
ARC
  5
D0
330
75
100
AcDbEntity
  8
14088300_LEVER_H
  6
Continuous
 62
     7
100
AcDbCircle
 10
75.214298404
 20
179.0058901538
 30
0.0
 40
21.00808120065041
100
AcDbArc
 50
2.7293194031
 51
29.5009463347
  0
ARC
  5
D1
330
75
100
AcDbEntity
  8
14088300_LEVER_H
  6
Continuous
 62
     7
100
AcDbCircle
 10
127.2304608053
 20
179.0058901538
 30
0.0
 40
21.00808120065042
100
AcDbArc
 50
150.4990536653
 51
177.2706805969
  0
ARC
  5
D2
330
75
100
AcDbEntity
  8
14088300_LEVER_H
  6
Continuous
 62
     7
100
AcDbCircle
 10
94.2419830019
 20
189.7716510075
 30
0.0
 40
0.8540867594113132
100
AcDbArc
 50
94.9218299871
 51
209.5009463347
  0
ARC
  5
D3
330
75
100
AcDbEntity
  8
14088300_LEVER_H
  6
Continuous
 62
     7
100
AcDbCircle
 10
108.2027762075
 20
189.7716510075
 30
0.0
 40
0.8540867594113913
100
AcDbArc
 50
330.4990536653
 51
85.0781700129
  0
ARC
  5
D4
330
75
100
AcDbEntity
  8
14088300_LEVER_H
  6
Continuous
 62
     7
100
AcDbCircle
 10
101.2223796047
 20
108.7117564535
 30
0.0
 40
82.21398131339791
100
AcDbArc
 50
85.0781700129
 51
94.9218299871
  0
ENDBLK
  5
D6
330
75
100
AcDbEntity
  8
0
100
AcDbBlockEnd
  0
BLOCK
  5
15F
330
D7
100
AcDbEntity
  8
0
100
AcDbBlockBegin
  2
SE1
 70
     0
 10
0.0
 20
0.0
 30
0.0
  3
SE1
  1

  0
ELLIPSE
  5
D9
330
D7
100
AcDbEntity
  8
14086500_ESC_-_A
  6
Continuous
 62
     7
100
AcDbEllipse
 10
194.9364506029
 20
172.0307685153
 30
0.0
 11
0.4992788341902314
 21
0.02684484549493084
 31
0.0
210
0.0
220
0.0
230
1.0
 40
0.0419101289
 41
-0.9086975886029593
 42
-0.1717285067539507
  0
ELLIPSE
  5
DA
330
D7
100
AcDbEntity
  8
14086500_ESC_-_A
  6
Continuous
 62
     7
100
AcDbEllipse
 10
194.9364506029
 20
172.0307685152
 30
0.0
 11
0.1024515158663895
 21
0.4893911389643284
 31
0.0
210
0.0
220
0.0
230
1.0
 40
0.6074514323
 41
4.838876897593325
 42
5.249663460704568
  0
ELLIPSE
  5
DB
330
D7
100
AcDbEntity
  8
14086500_ESC_-_A
  6
Continuous
 62
     7
100
AcDbEllipse
 10
194.9364506029
 20
172.0307685152
 30
0.0
 11
0.4989909245924299
 21
-0.03174991613224577
 31
0.0
210
0.0
220
0.0
230
1.0
 40
0.5351353963
 41
0.2035116941968327
 42
0.9404807760622538
  0
ELLIPSE
  5
DC
330
D7
100
AcDbEntity
  8
14086500_ESC_-_A
  6
Continuous
 62
     7
100
AcDbEllipse
 10
194.9364506029
 20
162.2001454674
 30
0.0
 11
0.4992788341895809
 21
-0.02684484550700104
 31
0.0
210
0.0
220
0.0
230
1.0
 40
0.041910129
 41
0.1717285067549636
 42
0.9086975885636076
  0
SPLINE
  5
DD
330
D7
100
AcDbEntity
  8
14086500_ESC_-_A
  6
Continuous
 62
     7
100
AcDbSpline
210
0.0
220
0.0
230
1.0
 70
     8
 71
     3
 72
    12
 73
     8
 74
     0
 42
0.0000000382540496
 43
0.0000000001
 40
0.0
 40
0.0
 40
0.0
 40
0.0
 40
0.2824437173005783
 40
0.4998525743834674
 40
0.7497968989681801
 40
0.895575798467425
 40
1.0
 40
1.0
 40
1.0
 40
1.0
 10
195.2442813405544
 20
162.0031427791215
 30
0.0
 10
195.2703058701712
 20
162.01667945407
 30
0.0
 10
195.3163625792316
 20
162.0406358794216
 30
0.0
 10
195.3692616182339
 20
162.083725727983
 30
0.0
 10
195.4018740454221
 20
162.1216311724724
 30
0.0
 10
195.4202601274194
 20
162.1541403260719
 30
0.0
 10
195.426128516602
 20
162.1704600704583
 30
0.0
 10
195.4285777342662
 20
162.1772712421414
 30
0.0
  0
ELLIPSE
  5
DE
330
D7
100
AcDbEntity
  8
14086500_ESC_-_A
  6
Continuous
 62
     7
100
AcDbEllipse
 10
194.9364506029
 20
162.2001454675
 30
0.0
 11
0.1024515157995557
 21
-0.4893911389783899
 31
0.0
210
0.0
220
0.0
230
1.0
 40
0.6074514323
 41
1.03352184655801
 42
1.444308409669159
  0
ELLIPSE
  5
DF
330
D7
100
AcDbEntity
  8
14086500_ESC_-_A
  6
Continuous
 62
     7
100
AcDbEllipse
 10
194.9364506029
 20
180.5443378095
 30
0.0
 11
0.4990839800177605
 21
0.03025195679022021
 31
0.0
210
0.0
220
0.0
230
1.0
 40
0.4625449236
 41
0.1414453183254218
 42
0.8784144001223594
  0
ELLIPSE
  5
E0
330
D7
100
AcDbEntity
  8
14086500_ESC_-_A
  6
Continuous
 62
     7
100
AcDbEllipse
 10
194.9364506032
 20
180.5443378093
 30
0.0
 11
0.2482370377312731
 21
0.4340257746937199
 31
0.0
210
0.0
220
0.0
230
0.9999999999999999
 40
0.44468531
 41
5.416920475323536
 42
5.827707040190816
  0
ELLIPSE
  5
E1
330
D7
100
AcDbEntity
  8
14086500_ESC_-_A
  6
Continuous
 62
     7
100
AcDbEllipse
 10
194.9364506029
 20
180.5443378095
 30
0.0
 11
0.4966711329367942
 21
-0.05760022315306514
 31
0.0
210
0.0
220
0.0
230
0.9999999999999999
 40
0.8849715677
 41
0.2717494412619836
 42
1.008718523127499
  0
ELLIPSE
  5
E2
330
D7
100
AcDbEntity
  8
14086500_ESC_-_A
  6
Continuous
 62
     7
100
AcDbEllipse
 10
194.9364506029
 20
153.6865761731
 30
0.0
 11
0.4990839800060078
 21
-0.03025195698422821
 31
0.0
210
0.0
220
0.0
230
0.9999999999999999
 40
0.4625449215
 41
5.404770907934415
 42
6.141739989033894
  0
ELLIPSE
  5
E3
330
D7
100
AcDbEntity
  8
14086500_ESC_-_A
  6
Continuous
 62
     7
100
AcDbEllipse
 10
194.9364506029
 20
153.6865761732
 30
0.0
 11
0.4966711330008158
 21
0.05760022260087837
 31
0.0
210
0.0
220
0.0
230
1.0
 40
0.8849715666
 41
5.274466785104299
 42
6.011435866901146
  0
ELLIPSE
  5
E4
330
D7
100
AcDbEntity
  8
14086500_ESC_-_A
  6
Continuous
 62
     7
100
AcDbEllipse
 10
194.9364506032
 20
153.6865761734
 30
0.0
 11
0.2482370368482364
 21
-0.4340257751985366
 31
0.0
210
0.0
220
0.0
230
1.0
 40
0.4446853126
 41
0.4554782696494309
 42
0.8662648327608188
  0
ELLIPSE
  5
E5
330
D7
100
AcDbEntity
  8
14086500_ESC_-_A
  6
Continuous
 62
     7
100
AcDbEllipse
 10
194.9364506029
 20
185.4596493333
 30
0.0
 11
0.3078307376626847
 21
0.3940053768031783
 31
0.0
210
0.0
220
0.0
230
0.9999999999999998
 40
0.1627661206
 41
5.872398744068133
 42
6.283185307179568
  0
ELLIPSE
  5
E6
330
D7
100
AcDbEntity
  8
14086500_ESC_-_A
  6
Continuous
 62
     7
100
AcDbEllipse
 10
194.9364506029
 20
185.4596493333
 30
0.0
 11
-0.3078307384370028
 21
-0.3940053761985959
 31
0.0
210
0.0
220
0.0
230
1.0
 40
0.9976803202
 41
2.404623573684391
 42
3.141592655549973
  0
ARC
  5
E7
330
D7
100
AcDbEntity
  8
14086500_ESC_-_A
  6
Continuous
 62
     7
100
AcDbCircle
 10
195.0343771227
 20
185.4553659397
 30
0.0
 40
0.4042665624045574
100
AcDbArc
 50
12.8125744054
 51
58.7199000607
  0
ELLIPSE
  5
E8
330
D7
100
AcDbEntity
  8
14086500_ESC_-_A
  6
Continuous
 62
     7
100
AcDbEllipse
 10
194.9364506029
 20
148.7712646494
 30
0.0
 11
0.4975067087162645
 21
-0.04987058032857386
 31
0.0
210
0.0
220
0.0
230
1.0
 40
0.8430614377
 41
5.461050119839078
 42
6.198019201704346
  0
ELLIPSE
  5
E9
330
D7
100
AcDbEntity
  8
14086500_ESC_-_A
  6
Continuous
 62
     7
100
AcDbEllipse
 10
194.9364506029
 20
148.7712646494
 30
0.0
 11
0.3078307376626656
 21
-0.3940053768035773
 31
0.0
210
0.0
220
0.0
230
1.0
 40
0.9976803202
 41
0.0
 42
0.7369690818661566
  0
ELLIPSE
  5
EA
330
D7
100
AcDbEntity
  8
14086500_ESC_-_A
  6
Continuous
 62
     7
100
AcDbEllipse
 10
194.9364506029
 20
148.7712646494
 30
0.0
 11
-0.3078307376693668
 21
0.3940053767979221
 31
0.0
210
0.0
220
0.0
230
1.0
 40
0.1627661207
 41
3.141592653589793
 42
3.552379216698361
  0
LINE
  5
EB
330
D7
100
AcDbEntity
  8
14086500_ESC_-_A
  6
Continuous
 62
     7
100
AcDbLine
 10
188.2285261731
 20
142.8959506012
 30
0.0
 11
189.0468888486
 21
143.5353255968
 31
0.0
  0
ARC
  5
EC
330
D7
100
AcDbEntity
  8
14086500_ESC_-_A
  6
Continuous
 62
     7
100
AcDbCircle
 10
193.9328541655
 20
150.2136545278
 30
0.0
 40
2.138044066566057
100
AcDbArc
 50
314.3929682931
 51
318.6112902929
  0
LINE
  5
ED
330
D7
100
AcDbEntity
  8
14086500_ESC_-_A
  6
Continuous
 62
     7
100
AcDbLine
 10
195.3474236026
 20
148.4578428395
 30
0.0
 11
195.2442813406
 21
148.3772592726
 31
0.0
  0
LINE
  5
EE
330
D7
100
AcDbEntity
  8
14086500_ESC_-_A
  6
Continuous
 62
     7
100
AcDbLine
 10
189.0468888486
 20
143.5881123081
 30
0.0
 11
195.2442813406
 21
148.4300459839
 31
0.0
  0
LINE
  5
EF
330
D7
100
AcDbEntity
  8
14086500_ESC_-_A
  6
Continuous
 62
     7
100
AcDbLine
 10
195.2442813406
 20
148.3772592726
 30
0.0
 11
189.0468888484
 21
143.5353255967
 31
0.0
  0
ARC
  5
F0
330
D7
100
AcDbEntity
  8
14086500_ESC_-_A
  6
Continuous
 62
     7
100
AcDbCircle
 10
193.9328541641
 20
184.0172594535
 30
0.0
 40
2.138044068508233
100
AcDbArc
 50
41.388709709
 51
45.607031705
  0
LINE
  5
F1
330
D7
100
AcDbEntity
  8
14086500_ESC_-_A
  6
Continuous
 62
     7
100
AcDbLine
 10
195.2442813406
 20
185.8536547101
 30
0.0
 11
195.3474236026
 21
185.7730711432
 31
0.0
  0
LINE
  5
F2
330
D7
100
AcDbEntity
  8
14086500_ESC_-_A
  6
Continuous
 62
     7
100
AcDbLine
 10
189.0468888486
 20
190.6955883859
 30
0.0
 11
195.2442813406
 21
185.8536547101
 31
0.0
  0
LINE
  5
F3
330
D7
100
AcDbEntity
  8
14086500_ESC_-_A
  6
Continuous
 62
     7
100
AcDbLine
 10
195.2442813406
 20
185.8008679988
 30
0.0
 11
189.0468888484
 21
190.6428016747
 31
0.0
  0
ARC
  5
F4
330
D7
100
AcDbEntity
  8
14086500_ESC_-_A
  6
Continuous
 62
     7
100
AcDbCircle
 10
167.7126039036
 20
151.1549897527
 30
0.0
 40
27.82573673783204
100
AcDbArc
 50
354.9092126049
 51
5.0907873951
  0
ARC
  5
F5
330
D7
100
AcDbEntity
  8
14086500_ESC_-_A
  6
Continuous
 62
     7
100
AcDbCircle
 10
166.787293451
 20
150.887701746
 30
0.0
 40
28.56291707072341
100
AcDbArc
 50
355.0639622841
 51
4.9360377153
  0
LINE
  5
F6
330
D7
100
AcDbEntity
  8
14086500_ESC_-_A
  6
Continuous
 62
     7
100
AcDbLine
 10
189.0468888486
 20
149.9450320273
 30
0.0
 11
195.2442813409
 21
153.489573485
 31
0.0
  0
LINE
  5
F7
330
D7
100
AcDbEntity
  8
14086500_ESC_-_A
  6
Continuous
 62
     7
100
AcDbLine
 10
195.2442813406
 20
153.3453575077
 30
0.0
 11
189.0468888484
 21
149.8008160497
 31
0.0
  0
ARC
  5
F8
330
D7
100
AcDbEntity
  8
14086500_ESC_-_A
  6
Continuous
 62
     7
100
AcDbCircle
 10
167.5921714205
 20
183.07592423
 30
0.0
 40
27.94569619978261
100
AcDbArc
 50
354.9311225912
 51
5.0688774088
  0
ARC
  5
F9
330
D7
100
AcDbEntity
  8
14086500_ESC_-_A
  6
Continuous
 62
     7
100
AcDbCircle
 10
166.8659534674
 20
183.3432122368
 30
0.0
 40
28.48454957903093
100
AcDbArc
 50
355.0503482835
 51
4.9496517176
  0
LINE
  5
FA
330
D7
100
AcDbEntity
  8
14086500_ESC_-_A
  6
Continuous
 62
     7
100
AcDbLine
 10
195.2442813406
 20
180.7413404978
 30
0.0
 11
189.0468888484
 21
184.285881955
 31
0.0
  0
LINE
  5
FB
330
D7
100
AcDbEntity
  8
14086500_ESC_-_A
  6
Continuous
 62
     7
100
AcDbLine
 10
189.0468888486
 20
184.4300979325
 30
0.0
 11
195.2442813406
 21
180.8855564754
 31
0.0
  0
ARC
  5
FC
330
D7
100
AcDbEntity
  8
14086500_ESC_-_A
  6
Continuous
 62
     7
100
AcDbCircle
 10
111.7764985888
 20
157.9006769347
 30
0.0
 40
83.76132522965663
100
AcDbArc
 50
357.0733821731
 51
2.9266178269
  0
ARC
  5
FD
330
D7
100
AcDbEntity
  8
14086500_ESC_-_A
  6
Continuous
 62
     7
100
AcDbCircle
 10
110.6858485739
 20
157.746358129
 30
0.0
 40
84.66551108636098
100
AcDbArc
 50
357.1180866516
 51
2.8819133526
  0
LINE
  5
FE
330
D7
100
AcDbEntity
  8
14086500_ESC_-_A
  6
Continuous
 62
     7
100
AcDbLine
 10
189.0468888486
 20
160.9027532493
 30
0.0
 11
195.2442813406
 21
162.2001454675
 31
0.0
  0
LINE
  5
FF
330
D7
100
AcDbEntity
  8
14086500_ESC_-_A
  6
Continuous
 62
     7
100
AcDbLine
 10
195.2442813406
 20
162.0031427791
 30
0.0
 11
189.0468888485
 21
160.7057505609
 31
0.0
  0
ARC
  5
100
330
D7
100
AcDbEntity
  8
14086500_ESC_-_A
  6
Continuous
 62
     7
100
AcDbCircle
 10
111.8135462362
 20
176.330237048
 30
0.0
 40
83.72432592319814
100
AcDbArc
 50
357.0720877206
 51
2.9279122794
  0
ARC
  5
101
330
D7
100
AcDbEntity
  8
14086500_ESC_-_A
  6
Continuous
 62
     7
100
AcDbCircle
 10
109.7199635744
 20
176.484555851
 30
0.0
 40
85.63018828018049
100
AcDbArc
 50
357.1505801365
 51
2.8494198631
  0
LINE
  5
102
330
D7
100
AcDbEntity
  8
14086500_ESC_-_A
  6
Continuous
 62
     7
100
AcDbLine
 10
195.2442813406
 20
172.0307685152
 30
0.0
 11
189.0468888484
 21
173.3281607328
 31
0.0
  0
LINE
  5
103
330
D7
100
AcDbEntity
  8
14086500_ESC_-_A
  6
Continuous
 62
     7
100
AcDbLine
 10
189.0468888486
 20
173.5251634218
 30
0.0
 11
195.2442813406
 21
172.2277712036
 31
0.0
  0
ARC
  5
104
330
D7
100
AcDbEntity
  8
14086500_ESC_-_A
  6
Continuous
 62
     7
100
AcDbCircle
 10
83.9849598344
 20
167.1154569913
 30
0.0
 40
111.5529723902482
100
AcDbArc
 50
357.4628224979
 51
2.5371775021
  0
ARC
  5
105
330
D7
100
AcDbEntity
  8
14086500_ESC_-_A
  6
Continuous
 62
     7
100
AcDbCircle
 10
81.186681365
 20
167.1154569912
 30
0.0
 40
114.1634635054238
100
AcDbArc
 50
357.532365614
 51
2.4676343862
  0
LINE
  5
106
330
D7
100
AcDbEntity
  8
14086500_ESC_-_A
  6
Continuous
 62
     7
100
AcDbLine
 10
195.5784080853
 20
149.3266280625
 30
0.0
 11
195.5784080853
 21
184.9042859201
 31
0.0
  0
LINE
  5
107
330
D7
100
AcDbEntity
  8
14086500_ESC_-_A
  6
Continuous
 62
     7
100
AcDbLine
 10
186.5784080853
 20
143.230491129
 30
0.0
 11
186.5784080853
 21
191.0004228537
 31
0.0
  0
ARC
  5
108
330
D7
100
AcDbEntity
  8
14086500_ESC_-_A
  6
Continuous
 62
     7
100
AcDbCircle
 10
187.9113353976
 20
143.2968294072
 30
0.0
 40
0.5109111197782529
100
AcDbArc
 50
255.6087466067
 51
304.0268173584
  0
SPLINE
  5
109
330
D7
100
AcDbEntity
  8
14086500_ESC_-_A
  6
Continuous
 62
     7
100
AcDbSpline
210
0.0
220
0.0
230
1.0
 70
     8
 71
     3
 72
    11
 73
     7
 74
     0
 42
0.0000000072345265
 43
0.0000000001
 40
0.0
 40
0.0
 40
0.0
 40
0.0
 40
0.2051486469278047
 40
0.4688826578724968
 40
0.7339678073655219
 40
1.0
 40
1.0
 40
1.0
 40
1.0
 10
188.9644174453779
 20
190.7566323557258
 30
0.0
 10
188.8247567441042
 20
190.8634329164077
 30
0.0
 10
188.5571878295543
 20
191.0668235431355
 30
0.0
 10
188.2111533002164
 20
191.2896394313847
 30
0.0
 10
187.9275131025816
 20
191.4279479814311
 30
0.0
 10
187.8359225243413
 20
191.4304553786016
 30
0.0
 10
187.7843525141954
 20
191.428963873535
 30
0.0
  0
SPLINE
  5
10A
330
D7
100
AcDbEntity
  8
14086500_ESC_-_A
  6
Continuous
 62
     7
100
AcDbSpline
210
0.0
220
0.0
230
1.0
 70
     8
 71
     3
 72
    11
 73
     7
 74
     0
 42
0.0000000247801638
 43
0.0000000001
 40
0.0
 40
0.0
 40
0.0
 40
0.0
 40
0.2500000000034359
 40
0.5000000000046961
 40
0.7500000000102633
 40
1.0
 40
1.0
 40
1.0
 40
1.0
 10
195.347423602637
 20
148.4578428394632
 30
0.0
 10
195.3752275748053
 20
148.4819086327146
 30
0.0
 10
195.4218483704476
 20
148.5235162088051
 30
0.0
 10
195.479859219808
 20
148.6080378095417
 30
0.0
 10
195.520720336284
 20
148.7020565778517
 30
0.0
 10
195.5312503788422
 20
148.7636504669806
 30
0.0
 10
195.5368960153996
 20
148.7999870884646
 30
0.0
  0
SPLINE
  5
10B
330
D7
100
AcDbEntity
  8
14086500_ESC_-_A
  6
Continuous
 62
     7
100
AcDbSpline
210
0.0
220
0.0
230
1.0
 70
     8
 71
     3
 72
    11
 73
     7
 74
     0
 42
0.0000000247801638
 43
0.0000000001
 40
0.0
 40
0.0
 40
0.0
 40
0.0
 40
0.2499999999898355
 40
0.4999999999954099
 40
0.7499999999966636
 40
1.0
 40
1.0
 40
1.0
 40
1.0
 10
195.5368960154676
 20
185.4309268935712
 30
0.0
 10
195.5312503789457
 20
185.4672635151212
 30
0.0
 10
195.5207203364443
 20
185.5288574043643
 30
0.0
 10
195.4798592199772
 20
185.6228761728629
 30
0.0
 10
195.4218483705631
 20
185.7073977737679
 30
0.0
 10
195.3752275748485
 20
185.749005349932
 30
0.0
 10
195.3474236026369
 20
185.7730711432247
 30
0.0
  0
ARC
  5
10C
330
D7
100
AcDbEntity
  8
14086500_ESC_-_A
  6
Continuous
 62
     7
100
AcDbCircle
 10
185.1299519257
 20
149.8852630206
 30
0.0
 40
10.46337943180476
100
AcDbArc
 50
354.0460456875
 51
356.9395498828
  0
ARC
  5
10D
330
D7
100
AcDbEntity
  8
14086500_ESC_-_A
  6
Continuous
 62
     7
100
AcDbCircle
 10
185.1299519257
 20
184.3456509621
 30
0.0
 40
10.46337943180474
100
AcDbArc
 50
3.0604501172
 51
5.9540153014
  0
ARC
  5
10E
330
D7
100
AcDbEntity
  8
14086500_ESC_-_A
  6
Continuous
 62
     7
100
AcDbCircle
 10
189.8913919211
 20
150.6423830296
 30
0.0
 40
8.118620784498187
100
AcDbArc
 50
245.9162061553
 51
254.9565097292
  0
ARC
  5
10F
330
D7
100
AcDbEntity
  8
14086500_ESC_-_A
  6
Continuous
 62
     7
100
AcDbCircle
 10
189.8913919211
 20
183.5885309531
 30
0.0
 40
8.11862078449818
100
AcDbArc
 50
105.0434749544
 51
114.0837938447
  0
LINE
  5
110
330
D7
100
AcDbEntity
  8
T14085010__SLEEV
  6
Continuous
 62
     7
100
AcDbLine
 10
233.9784080853
 20
176.8656601413
 30
0.0
 11
233.9784080853
 21
157.3652538414
 31
0.0
  0
LINE
  5
111
330
D7
100
AcDbEntity
  8
T14085010__SLEEV
  6
Continuous
 62
     7
100
AcDbLine
 10
196.5718371878
 20
185.0654569913
 30
0.0
 11
196.5718371878
 21
149.1654569913
 31
0.0
  0
CIRCLE
  5
112
330
D7
100
AcDbEntity
  8
T14085010__SLEEV
  6
Continuous
 62
     7
100
AcDbCircle
 10
214.3784080853
 20
167.1154569913
 30
0.0
 40
3.30000000000003
  0
LINE
  5
113
330
D7
100
AcDbEntity
  8
T14085010__SLEEV
  6
Continuous
 62
     7
100
AcDbLine
 10
233.0661851027
 20
156.5438845786
 30
0.0
 11
233.9784080853
 21
157.3652538414
 31
0.0
  0
LINE
  5
114
330
D7
100
AcDbEntity
  8
T14085010__SLEEV
  6
Continuous
 62
     7
100
AcDbLine
 10
233.9784080853
 20
176.8656601413
 30
0.0
 11
233.0661851027
 21
177.6870294041
 31
0.0
  0
ARC
  5
115
330
D7
100
AcDbEntity
  8
T14085010__SLEEV
  6
Continuous
 62
     7
100
AcDbCircle
 10
232.7316197995
 20
177.3154569913
 30
0.0
 40
0.5000000000000012
100
AcDbArc
 50
48.0
 51
100.2120265005
  0
ARC
  5
116
330
D7
100
AcDbEntity
  8
T14085010__SLEEV
  6
Continuous
 62
     7
100
AcDbCircle
 10
232.7316197995
 20
156.9154569913
 30
0.0
 40
0.5000000000000006
100
AcDbArc
 50
259.7879734995
 51
312.0
  0
ARC
  5
117
330
D7
100
AcDbEntity
  8
T14085010__SLEEV
  6
Continuous
 62
     7
100
AcDbCircle
 10
223.7784080853
 20
227.0154569913
 30
0.0
 40
50.0
100
AcDbArc
 50
237.0346722594
 51
280.2120265005
  0
ARC
  5
118
330
D7
100
AcDbEntity
  8
T14085010__SLEEV
  6
Continuous
 62
     7
100
AcDbCircle
 10
223.7784080853
 20
107.2154569913
 30
0.0
 40
50.0
100
AcDbArc
 50
79.7879734995
 51
122.9653277406
  0
ARC
  5
119
330
D7
100
AcDbEntity
  8
T14085010__SLEEV
  6
Continuous
 62
     7
100
AcDbCircle
 10
196.2784080853
 20
184.4299262196
 30
0.0
 40
0.7000000000000017
100
AcDbArc
 50
65.2168920114
 51
180.0
  0
ARC
  5
11A
330
D7
100
AcDbEntity
  8
T14085010__SLEEV
  6
Continuous
 62
     7
100
AcDbCircle
 10
196.2784080853
 20
149.8009877631
 30
0.0
 40
0.6999999999999993
100
AcDbArc
 50
180.0
 51
294.7831079886
  0
LINE
  5
11B
330
D7
100
AcDbEntity
  8
14086900_KENSING
  6
Continuous
 62
     7
100
AcDbLine
 10
251.4821399246
 20
180.885599931
 30
0.0
 11
251.4821399246
 21
153.3453140517
 31
0.0
  0
LINE
  5
11C
330
D7
100
AcDbEntity
  8
14086900_KENSING
  6
Continuous
 62
     7
100
AcDbLine
 10
252.6808894125
 20
153.7441129075
 30
0.0
 11
252.6808894125
 21
180.4868010752
 31
0.0
  0
LINE
  5
11D
330
D7
100
AcDbEntity
  8
14086900_KENSING
  6
Continuous
 62
     7
100
AcDbLine
 10
254.8333617403
 20
157.9543821123
 30
0.0
 11
254.8333617403
 21
176.2765318704
 31
0.0
  0
SPLINE
  5
11E
330
D7
100
AcDbEntity
  8
14086900_KENSING
  6
Continuous
 62
     7
100
AcDbSpline
210
0.0
220
0.0
230
1.0
 70
     8
 71
     3
 72
     8
 73
     4
 74
     0
 42
0.0000000175036472
 43
0.0000000001
 40
0.2760670720789187
 40
0.2760670720789187
 40
0.2760670720789187
 40
0.2760670720789187
 40
0.2778174368004068
 40
0.2778174368004068
 40
0.2778174368004068
 40
0.2778174368004068
 10
237.4676992112993
 20
177.3038664801619
 30
0.0
 10
237.4674842248896
 20
177.3039519319817
 30
0.0
 10
237.4673807561332
 20
177.3039904418232
 30
0.0
 10
237.4673887831913
 20
177.3039820665194
 30
0.0
  0
ARC
  5
11F
330
D7
100
AcDbEntity
  8
14086900_KENSING
  6
Continuous
 62
     7
100
AcDbCircle
 10
251.8367969329
 20
179.9506034569
 30
0.0
 40
0.9999999999999957
100
AcDbArc
 50
32.4251674377
 51
110.7724246819
  0
ARC
  5
120
330
D7
100
AcDbEntity
  8
14086900_KENSING
  6
Continuous
 62
     7
100
AcDbCircle
 10
251.8367969329
 20
154.2803105258
 30
0.0
 40
1.000000000000004
100
AcDbArc
 50
249.2275753181
 51
327.5748325623
  0
ARC
  5
121
330
D7
100
AcDbEntity
  8
14086900_KENSING
  6
Continuous
 62
     7
100
AcDbCircle
 10
234.4784080853
 20
176.4596045386
 30
0.0
 40
0.4999999999999966
100
AcDbArc
 50
95.1765129594
 51
180.0
  0
ARC
  5
122
330
D7
100
AcDbEntity
  8
14086900_KENSING
  6
Continuous
 62
     7
100
AcDbCircle
 10
234.4784080853
 20
157.7713094441
 30
0.0
 40
0.5000000000000004
100
AcDbArc
 50
180.0
 51
264.8234870406
  0
ARC
  5
123
330
D7
100
AcDbEntity
  8
14086900_KENSING
  6
Continuous
 62
     7
100
AcDbCircle
 10
231.2654091718
 20
167.3479889941
 30
0.0
 40
25.37101177561874
100
AcDbArc
 50
327.5748325623
 51
338.2689886123
  0
ARC
  5
124
330
D7
100
AcDbEntity
  8
14086900_KENSING
  6
Continuous
 62
     7
100
AcDbCircle
 10
231.2654091718
 20
166.8829249886
 30
0.0
 40
25.37101177561876
100
AcDbArc
 50
21.7310113877
 51
32.4251674377
  0
ARC
  5
125
330
D7
100
AcDbEntity
  8
14086900_KENSING
  6
Continuous
 62
     7
100
AcDbCircle
 10
254.5546820474
 20
176.1654569913
 30
0.0
 40
0.2999999999999947
100
AcDbArc
 50
0.0
 51
21.7310113877
  0
ARC
  5
126
330
D7
100
AcDbEntity
  8
14086900_KENSING
  6
Continuous
 62
     7
100
AcDbCircle
 10
254.5546820474
 20
158.0654569913
 30
0.0
 40
0.3000000000000097
100
AcDbArc
 50
338.2689886123
 51
0.0
  0
LINE
  5
127
330
D7
100
AcDbEntity
  8
14086900_KENSING
  6
Continuous
 62
     7
100
AcDbLine
 10
254.8546820474
 20
158.0654569913
 30
0.0
 11
254.8546820474
 21
176.1654569913
 31
0.0
  0
SPLINE
  5
128
330
D7
100
AcDbEntity
  8
14086900_KENSING
  6
Continuous
 62
     7
100
AcDbSpline
210
0.0
220
0.0
230
1.0
 70
     8
 71
     3
 72
    18
 73
    14
 74
     0
 42
0.0000000022616794
 43
0.0000000001
 40
0.0
 40
0.0
 40
0.0
 40
0.0
 40
0.0009179506656194
 40
0.0029314642817154
 40
0.0041728783601462
 40
0.0053865976949347
 40
0.0072447980042966
 40
0.0112638555547487
 40
0.019341247130481
 40
0.0449203600004686
 40
0.0691624658937242
 40
0.0924321356414327
 40
0.0953500536426487
 40
0.0953500536426487
 40
0.0953500536426487
 40
0.0953500536426487
 10
248.3112423255867
 20
179.7743605611903
 30
0.0
 10
248.305580202747
 20
179.7727493586609
 30
0.0
 10
248.2902241059306
 20
179.7683923048065
 30
0.0
 10
248.2688413716465
 20
179.7575970796863
 30
0.0
 10
248.2528248316157
 20
179.7486291309822
 30
0.0
 10
248.2430856315115
 20
179.7425333987466
 30
0.0
 10
248.2341408931083
 20
179.7365774782348
 30
0.0
 10
248.225823248592
 20
179.7306348645967
 30
0.0
 10
248.2094741628234
 20
179.718588575233
 30
0.0
 10
248.1726983379426
 20
179.6903588828089
 30
0.0
 10
248.0931007674449
 20
179.6293926539565
 30
0.0
 10
248.0171963274277
 20
179.5718400557128
 30
0.0
 10
247.9721017550806
 20
179.5379443135377
 30
0.0
 10
247.967007287085
 20
179.5341184856477
 30
0.0
  0
SPLINE
  5
129
330
D7
100
AcDbEntity
  8
14086900_KENSING
  6
Continuous
 62
     7
100
AcDbSpline
210
0.0
220
0.0
230
1.0
 70
     8
 71
     3
 72
    26
 73
    22
 74
     0
 42
0.0000000017704104
 43
0.0000000001
 40
0.0479710522064718
 40
0.0479710522064718
 40
0.0479710522064718
 40
0.0479710522064718
 40
0.0649425725955174
 40
0.0965062746646374
 40
0.1390913913229496
 40
0.1861460257052456
 40
0.2351602261937695
 40
0.2855754969532913
 40
0.3371355857155614
 40
0.3895652964933756
 40
0.4425171381132544
 40
0.4955652354018197
 40
0.5487178412839601
 40
0.6066143659137179
 40
0.6648861077852793
 40
0.7231859530052119
 40
0.7810693688238849
 40
0.8382090745500719
 40
0.8943592669752309
 40
0.949381755515399
 40
1.0
 40
1.0
 40
1.0
 40
1.0
 10
248.2110304239309
 20
179.718231494514
 30
0.0
 10
248.2109870893504
 20
179.7181874437372
 30
0.0
 10
248.2064650093161
 20
179.7145070580389
 30
0.0
 10
248.1850642083783
 20
179.6975729485389
 30
0.0
 10
248.136139579577
 20
179.659694768809
 30
0.0
 10
248.0541705365735
 20
179.5973268119891
 30
0.0
 10
247.9402312551434
 20
179.5120423343847
 30
0.0
 10
247.7955280193061
 20
179.4054894080177
 30
0.0
 10
247.6207830693175
 20
179.2789966946644
 30
0.0
 10
247.416973155918
 20
179.1341293248507
 30
0.0
 10
247.1860125959088
 20
178.9731683927739
 30
0.0
 10
246.9288232872561
 20
178.7976773625023
 30
0.0
 10
246.6419172292259
 20
178.6066080898494
 30
0.0
 10
246.3244565965778
 20
178.4023474213198
 30
0.0
 10
245.97494162124
 20
178.1873790518258
 30
0.0
 10
245.6038824979149
 20
177.9713438355596
 30
0.0
 10
245.2150221277462
 20
177.7591739571666
 30
0.0
 10
244.8111798252666
 20
177.5549707993751
 30
0.0
 10
244.3997109689815
 20
177.364566320257
 30
0.0
 10
243.9789165522383
 20
177.1882238143529
 30
0.0
 10
243.7201165909593
 20
177.0943111958009
 30
0.0
 10
243.5730072891228
 20
177.0413288238514
 30
0.0
  0
ARC
  5
12A
330
D7
100
AcDbEntity
  8
14086900_KENSING
  6
Continuous
 62
     7
100
AcDbCircle
 10
240.8330011145
 20
184.4410383958
 30
0.0
 40
7.890711982176072
100
AcDbArc
 50
244.7869425447
 51
290.3188674908
  0
ARC
  5
12B
330
D7
100
AcDbEntity
  8
14086900_KENSING
  6
Continuous
 62
     7
100
AcDbCircle
 10
228.6162364783
 20
241.167896902
 30
0.0
 40
64.4732880231175
100
AcDbArc
 50
275.1765129594
 51
277.8929092358
  0
ARC
  5
12C
330
D7
100
AcDbEntity
  8
14086900_KENSING
  6
Continuous
 62
     7
100
AcDbCircle
 10
228.6162364783
 20
241.167896902
 30
0.0
 40
64.4732880231175
100
AcDbArc
 50
287.7866268774
 51
290.7724246819
  0
ARC
  5
12D
330
D7
100
AcDbEntity
  8
14086900_KENSING
  6
Continuous
 62
     7
100
AcDbCircle
 10
228.6162364783
 20
93.0630170807
 30
0.0
 40
64.4732880231175
100
AcDbArc
 50
69.2275753181
 51
72.2098660659
  0
ARC
  5
12E
330
D7
100
AcDbEntity
  8
14086900_KENSING
  6
Continuous
 62
     7
100
AcDbCircle
 10
228.6162364783
 20
93.0630170807
 30
0.0
 40
64.47328802311748
100
AcDbArc
 50
82.1071152585
 51
84.8234870406
  0
ARC
  5
12F
330
D7
100
AcDbEntity
  8
14086900_KENSING
  6
Continuous
 62
     7
100
AcDbCircle
 10
240.8225737797
 20
149.8599441234
 30
0.0
 40
7.823572835490353
100
AcDbArc
 50
71.2124816631
 51
115.3914074242
  0
SPLINE
  5
130
330
D7
100
AcDbEntity
  8
14086900_KENSING
  6
Continuous
 62
     7
100
AcDbSpline
210
0.0
220
0.0
230
1.0
 70
     8
 71
     3
 72
    27
 73
    23
 74
     0
 42
0.0000000016978373
 43
0.0000000001
 40
0.0
 40
0.0
 40
0.0
 40
0.0
 40
0.0260582174239768
 40
0.07604507931991
 40
0.1268733900451954
 40
0.1789806033085892
 40
0.2323824606090665
 40
0.2870032175706305
 40
0.3426655627617655
 40
0.3990961357730117
 40
0.455946317228811
 40
0.5127978646810701
 40
0.5676280877532995
 40
0.6204980545835015
 40
0.6731427370439337
 40
0.7250773860795721
 40
0.7759786134679694
 40
0.8256419831851818
 40
0.8739748341097933
 40
0.9209260404594992
 40
0.9434040836778851
 40
0.9553182206776512
 40
0.9553182206776512
 40
0.9553182206776512
 40
0.9553182206776512
 10
243.3422294514249
 20
157.2666726325361
 30
0.0
 10
243.421471872565
 20
157.240784363118
 30
0.0
 10
243.6177886265669
 20
157.1762543136932
 30
0.0
 10
243.9700066529786
 20
157.0457477507048
 30
0.0
 10
244.3692963260064
 20
156.8797233632665
 30
0.0
 10
244.7669513207573
 20
156.6971174090641
 30
0.0
 10
245.1570727320343
 20
156.5016964773017
 30
0.0
 10
245.5381916424193
 20
156.2959146657493
 30
0.0
 10
245.9067450278405
 20
156.0835447257079
 30
0.0
 10
246.2593758225279
 20
155.8687629739383
 30
0.0
 10
246.5922015575659
 20
155.656450864179
 30
0.0
 10
246.8996228528983
 20
155.4530640829108
 30
0.0
 10
247.1739381194962
 20
155.2665716560527
 30
0.0
 10
247.415291371832
 20
155.0984548721924
 30
0.0
 10
247.6260719182972
 20
154.948414908733
 30
0.0
 10
247.8068276165786
 20
154.8171505949871
 30
0.0
 10
247.9557319830327
 20
154.7070041387966
 30
0.0
 10
248.0719628231183
 20
154.6195211414354
 30
0.0
 10
248.1550180508092
 20
154.5559540859122
 30
0.0
 10
248.1976728592707
 20
154.5226823834858
 30
0.0
 10
248.2118495812808
 20
154.5114435449608
 30
0.0
 10
248.215244497097
 20
154.508687406503
 30
0.0
 10
248.2151399710376
 20
154.5087807217303
 30
0.0
  0
SPLINE
  5
131
330
D7
100
AcDbEntity
  8
14086900_KENSING
  6
Continuous
 62
     7
100
AcDbSpline
210
0.0
220
0.0
230
1.0
 70
     8
 71
     3
 72
    13
 73
     9
 74
     0
 42
0.0000000028243154
 43
0.0000000001
 40
0.0294807874528072
 40
0.0294807874528072
 40
0.0294807874528072
 40
0.0294807874528072
 40
0.0361444437007847
 40
0.0512876533846644
 40
0.0722270825407638
 40
0.0958719063770847
 40
0.120508129861106
 40
0.1229313269655816
 40
0.1229313269655816
 40
0.1229313269655816
 40
0.1229313269655816
 10
237.6505020757989
 20
156.9599432411592
 30
0.0
 10
237.6504784289481
 20
156.9599304361784
 30
0.0
 10
237.6539695273565
 20
156.9616745068165
 30
0.0
 10
237.6738907367025
 20
156.9710627705536
 30
0.0
 10
237.7242280358091
 20
156.9934027573819
 30
0.0
 10
237.8121399361789
 20
157.0301783650408
 30
0.0
 10
237.8988335567625
 20
157.0642568310907
 30
0.0
 10
237.9515104973216
 20
157.0841664317399
 30
0.0
 10
237.9562790002675
 20
157.0859628551206
 30
0.0
  0
SPLINE
  5
132
330
D7
100
AcDbEntity
  8
14086900_KENSING
  6
Continuous
 62
     7
100
AcDbSpline
210
0.0
220
0.0
230
1.0
 70
     8
 71
     3
 72
    18
 73
    14
 74
     0
 42
0.0000000023308149
 43
0.0000000001
 40
0.907088101355141
 40
0.907088101355141
 40
0.907088101355141
 40
0.907088101355141
 40
0.9241053038075413
 40
0.9477812755061836
 40
0.9709940824229967
 40
0.9825736394355146
 40
0.9888453348161529
 40
0.9922443995975027
 40
0.9945207046692709
 40
0.995561485413476
 40
0.9966442040852563
 40
0.9991594565279447
 40
1.0
 40
1.0
 40
1.0
 40
1.0
 10
247.987833578091
 20
154.6817585879101
 30
0.0
 10
248.016444626205
 20
154.660236158174
 30
0.0
 10
248.0791035588324
 20
154.6128187649524
 30
0.0
 10
248.1547591661915
 20
154.5548516441102
 30
0.0
 10
248.1987086381921
 20
154.5208381013975
 30
0.0
 10
248.2165328552958
 20
154.5070912353975
 30
0.0
 10
248.2240494826811
 20
154.5013597943526
 30
0.0
 10
248.2297679293364
 20
154.49713070651
 30
0.0
 10
248.2360439091572
 20
154.4926215710892
 30
0.0
 10
248.2466630848423
 20
154.4855174951293
 30
0.0
 10
248.2655200779562
 20
154.4742927351307
 30
0.0
 10
248.2899297425444
 20
154.4609831527944
 30
0.0
 10
248.3080157792286
 20
154.4567789861382
 30
0.0
 10
248.3133372958176
 20
154.4555335073453
 30
0.0
  0
CIRCLE
  5
134
330
D7
100
AcDbEntity
  8
T02083008_49437_
  6
Continuous
 62
     7
100
AcDbCircle
 10
214.3784080853
 20
167.1154569913
 30
0.0
 40
3.0
  0
LINE
  5
135
330
D7
100
AcDbEntity
  8
T02083008_49437_
  6
Continuous
 62
     7
100
AcDbLine
 10
216.1104588928
 20
167.1154569913
 30
0.0
 11
215.2444334891
 21
165.6154569913
 31
0.0
  0
LINE
  5
136
330
D7
100
AcDbEntity
  8
T02083008_49437_
  6
Continuous
 62
     7
100
AcDbLine
 10
215.2444334891
 20
165.6154569913
 30
0.0
 11
213.5123826815
 21
165.6154569913
 31
0.0
  0
LINE
  5
137
330
D7
100
AcDbEntity
  8
T02083008_49437_
  6
Continuous
 62
     7
100
AcDbLine
 10
213.5123826815
 20
165.6154569913
 30
0.0
 11
212.6463572777
 21
167.1154569913
 31
0.0
  0
LINE
  5
138
330
D7
100
AcDbEntity
  8
T02083008_49437_
  6
Continuous
 62
     7
100
AcDbLine
 10
212.6463572777
 20
167.1154569913
 30
0.0
 11
213.5123826815
 21
168.6154569913
 31
0.0
  0
LINE
  5
139
330
D7
100
AcDbEntity
  8
T02083008_49437_
  6
Continuous
 62
     7
100
AcDbLine
 10
213.5123826815
 20
168.6154569913
 30
0.0
 11
215.2444334891
 21
168.6154569913
 31
0.0
  0
LINE
  5
13A
330
D7
100
AcDbEntity
  8
T02083008_49437_
  6
Continuous
 62
     7
100
AcDbLine
 10
215.2444334891
 20
168.6154569913
 30
0.0
 11
216.1104588928
 21
167.1154569913
 31
0.0
  0
ARC
  5
13B
330
D7
100
AcDbEntity
  8
T02083008_49437_
  6
Continuous
 62
     7
100
AcDbCircle
 10
214.3784080853
 20
167.1154569913
 30
0.0
 40
2.3865
100
AcDbArc
 50
255.0
 51
195.0
  0
LINE
  5
13C
330
D7
100
AcDbEntity
  8
12086000_CAP_-_P
  6
Continuous
 62
     7
100
AcDbLine
 10
256.2006815164
 20
167.1154569913
 30
0.0
 11
256.2006815164
 21
162.7303526089
 31
0.0
  0
LINE
  5
13D
330
D7
100
AcDbEntity
  8
12086000_CAP_-_P
  6
Continuous
 62
     7
100
AcDbLine
 10
256.2006815164
 20
167.1154569913
 30
0.0
 11
255.3919033639
 21
167.1154569913
 31
0.0
  0
ARC
  5
13E
330
D7
100
AcDbEntity
  8
12086000_CAP_-_P
  6
Continuous
 62
     7
100
AcDbCircle
 10
255.7204342476
 20
162.8695020279
 30
0.0
 40
0.4999999999999727
100
AcDbArc
 50
343.8412997469
 51
0.0
  0
LINE
  5
13F
330
D7
100
AcDbEntity
  8
12086000_CAP_-_P
  6
Continuous
 62
     7
100
AcDbLine
 10
256.2204342476
 20
162.8695020279
 30
0.0
 11
256.2204342476
 21
167.1154569913
 31
0.0
  0
LINE
  5
140
330
D7
100
AcDbEntity
  8
12086000_CAP_-_P
  6
Continuous
 62
     7
100
AcDbLine
 10
256.2204342476
 20
167.1154569913
 30
0.0
 11
256.2006815164
 21
167.1154569913
 31
0.0
  0
LINE
  5
141
330
D7
100
AcDbEntity
  8
12086000_CAP_-_P
  6
Continuous
 62
     7
100
AcDbLine
 10
256.2006815164
 20
171.5005613738
 30
0.0
 11
256.2006815164
 21
167.1154569913
 31
0.0
  0
LINE
  5
142
330
D7
100
AcDbEntity
  8
12086000_CAP_-_P
  6
Continuous
 62
     7
100
AcDbLine
 10
256.2204342476
 20
167.1154569913
 30
0.0
 11
256.2204342476
 21
171.3614119548
 31
0.0
  0
ARC
  5
143
330
D7
100
AcDbEntity
  8
12086000_CAP_-_P
  6
Continuous
 62
     7
100
AcDbCircle
 10
255.7204342476
 20
171.3614119548
 30
0.0
 40
0.4999999999999588
100
AcDbArc
 50
0.0
 51
16.1587002531
  0
LINE
  5
144
330
D7
100
AcDbEntity
  8
12086000_CAP_-_P
  6
Continuous
 62
     7
100
AcDbLine
 10
255.3919033639
 20
159.9390114624
 30
0.0
 11
256.2006815164
 21
162.7303526089
 31
0.0
  0
LINE
  5
145
330
D7
100
AcDbEntity
  8
12086000_CAP_-_P
  6
Continuous
 62
     7
100
AcDbLine
 10
255.3919033639
 20
159.9390114624
 30
0.0
 11
255.063077573
 21
158.8041329332
 31
0.0
  0
ARC
  5
146
330
D7
100
AcDbEntity
  8
12086000_CAP_-_P
  6
Continuous
 62
     7
100
AcDbCircle
 10
276.3105765129
 20
170.8681775188
 30
0.0
 40
21.72693536284584
100
AcDbArc
 50
188.7501019643
 51
189.9461218938
  0
ARC
  5
147
330
D7
100
AcDbEntity
  8
12086000_CAP_-_P
  6
Continuous
 62
     7
100
AcDbCircle
 10
276.3105765129
 20
170.8681775188
 30
0.0
 40
21.72693536284584
100
AcDbArc
 50
170.0538781062
 51
170.6754312715
  0
ARC
  5
148
330
D7
100
AcDbEntity
  8
12086000_CAP_-_P
  6
Continuous
 62
     7
100
AcDbCircle
 10
276.3219299136
 20
163.3627364639
 30
0.0
 40
21.73811821726185
100
AcDbArc
 50
189.3064467464
 51
189.9409532762
  0
ARC
  5
149
330
D7
100
AcDbEntity
  8
12086000_CAP_-_P
  6
Continuous
 62
     7
100
AcDbCircle
 10
276.3219299136
 20
163.3627364639
 30
0.0
 40
21.73811821726185
100
AcDbArc
 50
170.0590467238
 51
171.2306064555
  0
ELLIPSE
  5
14A
330
D7
100
AcDbEntity
  8
12086000_CAP_-_P
  6
Continuous
 62
     7
100
AcDbEllipse
 10
257.4190120811
 20
167.0253207869
 30
0.0
 11
-1.254388576734891
 21
-8.125142776909193
 31
0.0
210
0.0
220
0.0
230
1.0
 40
0.2454388674
 41
4.739176827185095
 42
5.808556981312089
  0
LINE
  5
14B
330
D7
100
AcDbEntity
  8
12086000_CAP_-_P
  6
Continuous
 62
     7
100
AcDbLine
 10
255.3919033639
 20
174.2919025203
 30
0.0
 11
256.2006815164
 21
171.5005613738
 31
0.0
  0
ELLIPSE
  5
14C
330
D7
100
AcDbEntity
  8
12086000_CAP_-_P
  6
Continuous
 62
     7
100
AcDbEllipse
 10
257.4190120811
 20
167.2055931958
 30
0.0
 11
-1.254388576734863
 21
8.125142776909202
 31
0.0
210
0.0
220
0.0
230
0.9999999999999999
 40
0.2454388674
 41
0.4746283258674487
 42
1.544008479994429
  0
LINE
  5
14D
330
D7
100
AcDbEntity
  8
12086000_CAP_-_P
  6
Continuous
 62
     7
100
AcDbLine
 10
255.063077573
 20
175.4267810495
 30
0.0
 11
255.3919033639
 21
174.2919025203
 31
0.0
  0
ARC
  5
14E
330
D7
100
AcDbEntity
  8
12086000_CAP_-_P
  6
Continuous
 62
     7
100
AcDbCircle
 10
254.9248106553
 20
174.1251470657
 30
0.0
 40
0.4959667126230736
100
AcDbArc
 50
19.646929831
 51
91.6899913655
  0
LINE
  5
14F
330
D7
100
AcDbEntity
  8
12086000_CAP_-_P
  6
Continuous
 62
     7
100
AcDbLine
 10
255.3919033639
 20
167.1154569913
 30
0.0
 11
254.9101837851
 21
167.1154569913
 31
0.0
  0
ARC
  5
150
330
D7
100
AcDbEntity
  8
12086000_CAP_-_P
  6
Continuous
 62
     7
100
AcDbCircle
 10
254.9248106553
 20
160.1057669169
 30
0.0
 40
0.495966712623618
100
AcDbArc
 50
268.3100086345
 51
340.3530701689
  0
ARC
  5
151
330
D7
100
AcDbEntity
  8
12086000_CAP_-_P
  6
Continuous
 62
     7
100
AcDbCircle
 10
254.5828303042
 20
175.2876316305
 30
0.0
 40
0.4999999999999999
100
AcDbArc
 50
16.1587002531
 51
57.0638911212
  0
ARC
  5
152
330
D7
100
AcDbEntity
  8
12086000_CAP_-_P
  6
Continuous
 62
     7
100
AcDbCircle
 10
254.5828303042
 20
158.9432823522
 30
0.0
 40
0.499999999999997
100
AcDbArc
 50
302.9361088789
 51
343.8412997469
  0
ARC
  5
153
330
D7
100
AcDbEntity
  8
14088300_LEVER_H
  6
Continuous
 62
     7
100
AcDbCircle
 10
268.9657991222
 20
155.2250238289
 30
0.0
 40
21.00808120065041
100
AcDbArc
 50
181.4771124554
 51
209.5009463347
  0
ARC
  5
154
330
D7
100
AcDbEntity
  8
14088300_LEVER_H
  6
Continuous
 62
     7
100
AcDbCircle
 10
216.9496367209
 20
155.2250238289
 30
0.0
 40
21.00808120065042
100
AcDbArc
 50
330.4990536653
 51
360.0
  0
LINE
  5
155
330
D7
100
AcDbEntity
  8
14088300_LEVER_H
  6
Continuous
 62
     7
100
AcDbLine
 10
237.9577179215
 20
157.0843962477
 30
0.0
 11
237.9577179215
 21
155.2250238289
 31
0.0
  0
ARC
  5
156
330
D7
100
AcDbEntity
  8
14088300_LEVER_H
  6
Continuous
 62
     7
100
AcDbCircle
 10
249.9381145243
 20
144.4592629752
 30
0.0
 40
0.8540867594113136
100
AcDbArc
 50
274.9218299871
 51
29.5009463347
  0
ARC
  5
157
330
D7
100
AcDbEntity
  8
14088300_LEVER_H
  6
Continuous
 62
     7
100
AcDbCircle
 10
235.9773213187
 20
144.4592629752
 30
0.0
 40
0.8540867594113882
100
AcDbArc
 50
150.4990536653
 51
265.0781700129
  0
ARC
  5
158
330
D7
100
AcDbEntity
  8
14088300_LEVER_H
  6
Continuous
 62
     7
100
AcDbCircle
 10
242.9577179215
 20
225.5191575292
 30
0.0
 40
82.21398131339791
100
AcDbArc
 50
265.0781700129
 51
274.9218299871
  0
ARC
  5
159
330
D7
100
AcDbEntity
  8
14088300_LEVER_H
  6
Continuous
 62
     7
100
AcDbCircle
 10
216.9496367209
 20
179.0058901538
 30
0.0
 40
21.00808120065041
100
AcDbArc
 50
0.0
 51
29.5009463347
  0
ARC
  5
15A
330
D7
100
AcDbEntity
  8
14088300_LEVER_H
  6
Continuous
 62
     7
100
AcDbCircle
 10
268.9657991222
 20
179.0058901538
 30
0.0
 40
21.00808120065042
100
AcDbArc
 50
150.4990536653
 51
178.5670144099
  0
LINE
  5
15B
330
D7
100
AcDbEntity
  8
14088300_LEVER_H
  6
Continuous
 62
     7
100
AcDbLine
 10
237.9577179215
 20
179.0058901538
 30
0.0
 11
237.9577179215
 21
177.147798721
 31
0.0
  0
ARC
  5
15C
330
D7
100
AcDbEntity
  8
14088300_LEVER_H
  6
Continuous
 62
     7
100
AcDbCircle
 10
235.9773213187
 20
189.7716510075
 30
0.0
 40
0.8540867594113131
100
AcDbArc
 50
94.9218299871
 51
209.5009463347
  0
ARC
  5
15D
330
D7
100
AcDbEntity
  8
14088300_LEVER_H
  6
Continuous
 62
     7
100
AcDbCircle
 10
249.9381145243
 20
189.7716510075
 30
0.0
 40
0.8540867594113882
100
AcDbArc
 50
330.4990536653
 51
85.0781700129
  0
ARC
  5
15E
330
D7
100
AcDbEntity
  8
14088300_LEVER_H
  6
Continuous
 62
     7
100
AcDbCircle
 10
242.9577179215
 20
108.7117564535
 30
0.0
 40
82.21398131339791
100
AcDbArc
 50
85.0781700129
 51
94.9218299871
  0
ENDBLK
  5
160
330
D7
100
AcDbEntity
  8
0
100
AcDbBlockEnd
  0
BLOCK
  5
1A5
330
161
100
AcDbEntity
  8
0
100
AcDbBlockBegin
  2
SE2
 70
     0
 10
0.0
 20
0.0
 30
0.0
  3
SE2
  1

  0
LINE
  5
163
330
161
100
AcDbEntity
  8
14086500_ESC_-_A
  6
Continuous
 62
     7
100
AcDbLine
 10
125.3683213685
 20
90.366329232
 30
0.0
 11
124.8025109992
 21
89.6421249844
 31
0.0
  0
LINE
  5
164
330
161
100
AcDbEntity
  8
14086500_ESC_-_A
  6
Continuous
 62
     7
100
AcDbLine
 10
124.8025109992
 20
89.6421249844
 30
0.0
 11
119.9605773234
 21
83.4447324924
 31
0.0
  0
LINE
  5
165
330
161
100
AcDbEntity
  8
14086500_ESC_-_A
  6
Continuous
 62
     7
100
AcDbLine
 10
119.9077906121
 20
83.4447324925
 30
0.0
 11
124.749724288
 21
89.6421249846
 31
0.0
  0
LINE
  5
166
330
161
100
AcDbEntity
  8
14086500_ESC_-_A
  6
Continuous
 62
     7
100
AcDbLine
 10
119.8799937565
 20
83.3415902304
 30
0.0
 11
119.9605773234
 21
83.4447324924
 31
0.0
  0
LINE
  5
167
330
161
100
AcDbEntity
  8
14086500_ESC_-_A
  6
Continuous
 62
     7
100
AcDbLine
 10
118.5370205459
 20
89.6421249844
 30
0.0
 11
114.9924790882
 21
83.4447324923
 31
0.0
  0
LINE
  5
168
330
161
100
AcDbEntity
  8
14086500_ESC_-_A
  6
Continuous
 62
     7
100
AcDbLine
 10
114.8482631112
 20
83.4447324924
 30
0.0
 11
118.3928045683
 21
89.6421249847
 31
0.0
  0
LINE
  5
169
330
161
100
AcDbEntity
  8
14086500_ESC_-_A
  6
Continuous
 62
     7
100
AcDbLine
 10
107.6320860351
 20
89.6421249844
 30
0.0
 11
106.3346938169
 21
83.4447324925
 31
0.0
  0
LINE
  5
16A
330
161
100
AcDbEntity
  8
14086500_ESC_-_A
  6
Continuous
 62
     7
100
AcDbLine
 10
106.1376911285
 20
83.4447324924
 30
0.0
 11
107.4350833461
 21
89.6421249847
 31
0.0
  0
LINE
  5
16B
330
161
100
AcDbEntity
  8
14086500_ESC_-_A
  6
Continuous
 62
     7
100
AcDbLine
 10
95.0096758626
 20
89.6421249844
 30
0.0
 11
96.3070680809
 21
83.4447324925
 31
0.0
  0
LINE
  5
16C
330
161
100
AcDbEntity
  8
14086500_ESC_-_A
  6
Continuous
 62
     7
100
AcDbLine
 10
96.1100653924
 20
83.4447324925
 30
0.0
 11
94.8126731742
 21
89.6421249846
 31
0.0
  0
LINE
  5
16D
330
161
100
AcDbEntity
  8
14086500_ESC_-_A
  6
Continuous
 62
     7
100
AcDbLine
 10
87.452280121
 20
83.4447324924
 30
0.0
 11
83.907738663
 21
89.6421249847
 31
0.0
  0
LINE
  5
16E
330
161
100
AcDbEntity
  8
14086500_ESC_-_A
  6
Continuous
 62
     7
100
AcDbLine
 10
84.0519546406
 20
89.6421249844
 30
0.0
 11
87.596496099
 21
83.4447324924
 31
0.0
  0
LINE
  5
16F
330
161
100
AcDbEntity
  8
14086500_ESC_-_A
  6
Continuous
 62
     7
100
AcDbLine
 10
82.4841818859
 20
83.4447324924
 30
0.0
 11
77.64224821
 21
89.6421249847
 31
0.0
  0
LINE
  5
170
330
161
100
AcDbEntity
  8
14086500_ESC_-_A
  6
Continuous
 62
     7
100
AcDbLine
 10
77.6950349214
 20
89.6421249844
 30
0.0
 11
82.5369685972
 21
83.4447324925
 31
0.0
  0
LINE
  5
171
330
161
100
AcDbEntity
  8
14086500_ESC_-_A
  6
Continuous
 62
     7
100
AcDbLine
 10
82.5647654528
 20
83.3415902304
 30
0.0
 11
82.4841818859
 21
83.4447324924
 31
0.0
  0
LINE
  5
172
330
161
100
AcDbEntity
  8
14086500_ESC_-_A
  6
Continuous
 62
     7
100
AcDbLine
 10
119.0112085335
 20
83.1106057477
 30
0.0
 11
83.4335506759
 21
83.1106057477
 31
0.0
  0
LINE
  5
173
330
161
100
AcDbEntity
  8
14086500_ESC_-_A
  6
Continuous
 62
     7
100
AcDbLine
 10
125.107345467
 20
92.1106057477
 30
0.0
 11
77.3374137423
 21
92.1106057477
 31
0.0
  0
SPLINE
  5
174
330
161
100
AcDbEntity
  8
14086500_ESC_-_A
  6
Continuous
 62
     7
100
AcDbSpline
210
0.0
220
0.0
230
1.0
 70
     8
 71
     3
 72
    13
 73
     9
 74
     0
 42
0.0000000183512478
 43
0.0000000001
 40
0.0
 40
0.0
 40
0.0
 40
0.0
 40
0.1557626341636379
 40
0.3721907972446586
 40
0.6151354511857714
 40
0.7833429414330324
 40
0.9031682776043647
 40
1.0
 40
1.0
 40
1.0
 40
1.0
 10
125.393710933886
 20
90.402844299884
 30
0.0
 10
125.4066999222856
 20
90.4201821796372
 30
0.0
 10
125.4329153354195
 20
90.45563726445293
 30
0.0
 10
125.4757318522681
 20
90.52049317069167
 30
0.0
 10
125.5165033150952
 20
90.59693644434526
 30
0.0
 10
125.5457876440215
 20
90.68930570830686
 30
0.0
 10
125.5567435836811
 20
90.79697073494297
 30
0.0
 10
125.543187609046
 20
90.86712745100284
 30
0.0
 10
125.5358864868529
 20
90.90466131881253
 30
0.0
  0
SPLINE
  5
175
330
161
100
AcDbEntity
  8
14086500_ESC_-_A
  6
Continuous
 62
     7
100
AcDbSpline
210
0.0
220
0.0
230
1.0
 70
     8
 71
     3
 72
    11
 73
     7
 74
     0
 42
0.0000000247801638
 43
0.0000000001
 40
0.0
 40
0.0
 40
0.0
 40
0.0
 40
0.2499999999897193
 40
0.4999999999953089
 40
0.749999999996537
 40
1.0
 40
1.0
 40
1.0
 40
1.0
 10
119.537849507348
 20
83.15211781758845
 30
0.0
 10
119.5741861288516
 20
83.15776345413533
 30
0.0
 10
119.6357800180144
 20
83.16829349667668
 30
0.0
 10
119.7297987863804
 20
83.20915461315005
 30
0.0
 10
119.8143203871669
 20
83.26716546252635
 30
0.0
 10
119.8559279632793
 20
83.31378625819013
 30
0.0
 10
119.879993756543
 20
83.3415902303713
 30
0.0
  0
SPLINE
  5
176
330
161
100
AcDbEntity
  8
14086500_ESC_-_A
  6
Continuous
 62
     7
100
AcDbSpline
210
0.0
220
0.0
230
1.0
 70
     8
 71
     3
 72
    11
 73
     7
 74
     0
 42
0.0000000073498198
 43
0.0000000001
 40
0.0
 40
0.0
 40
0.0
 40
0.0
 40
0.2686118678297939
 40
0.5363155802414553
 40
0.8027143439603688
 40
1.0
 40
1.0
 40
1.0
 40
1.0
 10
76.90887272247096
 20
90.90466131881331
 30
0.0
 10
76.90743427707336
 20
90.8530253800831
 30
0.0
 10
76.90999321507894
 20
90.76134639521946
 30
0.0
 10
77.04837575995593
 20
90.47768806649289
 30
0.0
 10
77.26761904871123
 20
90.1367687888895
 30
0.0
 10
77.46670274602229
 20
89.8747741348322
 30
0.0
 10
77.56823801450413
 20
89.74192207651485
 30
0.0
  0
SPLINE
  5
177
330
161
100
AcDbEntity
  8
14086500_ESC_-_A
  6
Continuous
 62
     7
100
AcDbSpline
210
0.0
220
0.0
230
1.0
 70
     8
 71
     3
 72
    11
 73
     7
 74
     0
 42
0.0000000247801638
 43
0.0000000001
 40
0.0
 40
0.0
 40
0.0
 40
0.0
 40
0.2500000000034289
 40
0.5000000000046386
 40
0.7500000000102102
 40
1.0
 40
1.0
 40
1.0
 40
1.0
 10
82.5647654527814
 20
83.34159023037145
 30
0.0
 10
82.58883124603277
 20
83.31378625820314
 30
0.0
 10
82.6304388221233
 20
83.26716546256083
 30
0.0
 10
82.71496042285985
 20
83.20915461320045
 30
0.0
 10
82.80897919116991
 20
83.1682934967244
 30
0.0
 10
82.87057308029885
 20
83.15776345416623
 30
0.0
 10
82.9069097017828
 20
83.15211781760881
 30
0.0
  0
ARC
  5
178
330
161
100
AcDbEntity
  8
14086500_ESC_-_A
  6
Continuous
 62
     7
100
AcDbCircle
 10
83.9921856339
 20
93.5590619073
 30
0.0
 40
10.46337943180476
100
AcDbArc
 50
264.0456604366
 51
266.9395498828
  0
ARC
  5
179
330
161
100
AcDbEntity
  8
14086500_ESC_-_A
  6
Continuous
 62
     7
100
AcDbCircle
 10
118.4525735754
 20
93.5590619073
 30
0.0
 40
10.46337943180474
100
AcDbArc
 50
273.0604501172
 51
275.9544550496
  0
ARC
  5
17A
330
161
100
AcDbEntity
  8
14086500_ESC_-_A
  6
Continuous
 62
     7
100
AcDbCircle
 10
84.7493056429
 20
88.7976219119
 30
0.0
 40
8.118620784498185
100
AcDbArc
 50
155.9162061553
 51
164.9597034921
  0
ARC
  5
17B
330
161
100
AcDbEntity
  8
14086500_ESC_-_A
  6
Continuous
 62
     7
100
AcDbCircle
 10
117.6954535664
 20
88.7976219119
 30
0.0
 40
8.11862078449818
100
AcDbArc
 50
15.0451855086
 51
24.0837938447
  0
LINE
  5
17C
330
161
100
AcDbEntity
  8
T14085010__SLEEV
  6
Continuous
 62
     7
100
AcDbLine
 10
91.4721764547
 20
44.7106057477
 30
0.0
 11
110.9725827546
 21
44.7106057477
 31
0.0
  0
LINE
  5
17D
330
161
100
AcDbEntity
  8
T14085010__SLEEV
  6
Continuous
 62
     7
100
AcDbLine
 10
83.2723796047
 20
82.1171766452
 30
0.0
 11
119.1723796047
 21
82.1171766452
 31
0.0
  0
ARC
  5
17E
330
161
100
AcDbEntity
  8
T14085010__SLEEV
  6
Continuous
 62
     7
100
AcDbCircle
 10
81.7006050863
 20
62.6575975434
 30
0.0
 40
9.393886280463718
100
AcDbArc
 50
349.9030100076
 51
31.8196153061
  0
LINE
  5
17F
330
161
100
AcDbEntity
  8
T14085010__SLEEV
  6
Continuous
 62
     7
100
AcDbLine
 10
90.6508071919
 20
45.6228287303
 30
0.0
 11
91.4721764547
 21
44.7106057477
 31
0.0
  0
LINE
  5
180
330
161
100
AcDbEntity
  8
T14085010__SLEEV
  6
Continuous
 62
     7
100
AcDbLine
 10
110.9725827546
 20
44.7106057477
 30
0.0
 11
111.7939520174
 21
45.6228287303
 31
0.0
  0
ARC
  5
181
330
161
100
AcDbEntity
  8
T14085010__SLEEV
  6
Continuous
 62
     7
100
AcDbCircle
 10
111.4223796047
 20
45.9573940335
 30
0.0
 40
0.5000000000000044
100
AcDbArc
 50
318.0
 51
10.2120265005
  0
ARC
  5
182
330
161
100
AcDbEntity
  8
T14085010__SLEEV
  6
Continuous
 62
     7
100
AcDbCircle
 10
91.0223796047
 20
45.9573940335
 30
0.0
 40
0.5000000000000019
100
AcDbArc
 50
169.7879734995
 51
222.0
  0
ARC
  5
183
330
161
100
AcDbEntity
  8
T14085010__SLEEV
  6
Continuous
 62
     7
100
AcDbCircle
 10
161.1223796047
 20
54.9106057477
 30
0.0
 40
49.99999999999999
100
AcDbArc
 50
147.0346722594
 51
190.2120265005
  0
ARC
  5
184
330
161
100
AcDbEntity
  8
T14085010__SLEEV
  6
Continuous
 62
     7
100
AcDbCircle
 10
41.3223796047
 20
54.9106057477
 30
0.0
 40
50.00000000000001
100
AcDbArc
 50
349.7879734995
 51
7.0160568329
  0
ARC
  5
185
330
161
100
AcDbEntity
  8
T14085010__SLEEV
  6
Continuous
 62
     7
100
AcDbCircle
 10
41.3223796047
 20
54.9106057477
 30
0.0
 40
50.0
100
AcDbArc
 50
14.7015761459
 51
32.9653277406
  0
ARC
  5
186
330
161
100
AcDbEntity
  8
T14085010__SLEEV
  6
Continuous
 62
     7
100
AcDbCircle
 10
118.5368488329
 20
82.4106057477
 30
0.0
 40
0.7000000000000001
100
AcDbArc
 50
335.2168920114
 51
90.0
  0
ARC
  5
187
330
161
100
AcDbEntity
  8
T14085010__SLEEV
  6
Continuous
 62
     7
100
AcDbCircle
 10
83.9079103764
 20
82.4106057477
 30
0.0
 40
0.6999999999999993
100
AcDbArc
 50
90.0
 51
204.7831079886
  0
ARC
  5
188
330
161
100
AcDbEntity
  8
14086900_KENSING
  6
Continuous
 62
     7
100
AcDbCircle
 10
114.0575260702
 20
26.8522169001
 30
0.0
 40
0.9999999999999957
100
AcDbArc
 50
302.4251674377
 51
20.7724246819
  0
ARC
  5
189
330
161
100
AcDbEntity
  8
14086900_KENSING
  6
Continuous
 62
     7
100
AcDbCircle
 10
88.3872331391
 20
26.8522169001
 30
0.0
 40
1.000000000000002
100
AcDbArc
 50
159.2275753181
 51
237.5748325623
  0
ARC
  5
18A
330
161
100
AcDbEntity
  8
14086900_KENSING
  6
Continuous
 62
     7
100
AcDbCircle
 10
110.5665271519
 20
44.2106057477
 30
0.0
 40
0.4999999999999966
100
AcDbArc
 50
5.1765129594
 51
90.0
  0
ARC
  5
18B
330
161
100
AcDbEntity
  8
14086900_KENSING
  6
Continuous
 62
     7
100
AcDbCircle
 10
91.8782320574
 20
44.2106057477
 30
0.0
 40
0.5000000000000004
100
AcDbArc
 50
90.0
 51
174.8234870406
  0
ARC
  5
18C
330
161
100
AcDbEntity
  8
14086900_KENSING
  6
Continuous
 62
     7
100
AcDbCircle
 10
101.4549116074
 20
47.4236046612
 30
0.0
 40
25.37101177561874
100
AcDbArc
 50
237.5748325623
 51
248.2689886123
  0
ARC
  5
18D
330
161
100
AcDbEntity
  8
14086900_KENSING
  6
Continuous
 62
     7
100
AcDbCircle
 10
100.9898476019
 20
47.4236046612
 30
0.0
 40
25.37101177561876
100
AcDbArc
 50
291.7310113877
 51
302.4251674377
  0
ARC
  5
18E
330
161
100
AcDbEntity
  8
14086900_KENSING
  6
Continuous
 62
     7
100
AcDbCircle
 10
110.2723796047
 20
24.1343317857
 30
0.0
 40
0.2999999999999947
100
AcDbArc
 50
270.0
 51
291.7310113877
  0
ARC
  5
18F
330
161
100
AcDbEntity
  8
14086900_KENSING
  6
Continuous
 62
     7
100
AcDbCircle
 10
92.1723796047
 20
24.1343317857
 30
0.0
 40
0.300000000000009
100
AcDbArc
 50
248.2689886123
 51
270.0
  0
LINE
  5
190
330
161
100
AcDbEntity
  8
14086900_KENSING
  6
Continuous
 62
     7
100
AcDbLine
 10
92.1723796047
 20
23.8343317857
 30
0.0
 11
110.2723796047
 21
23.8343317857
 31
0.0
  0
ARC
  5
191
330
161
100
AcDbEntity
  8
14086900_KENSING
  6
Continuous
 62
     7
100
AcDbCircle
 10
175.2748195153
 20
50.0727773547
 30
0.0
 40
64.4732880231175
100
AcDbArc
 50
185.1765129594
 51
200.7724246819
  0
ARC
  5
192
330
161
100
AcDbEntity
  8
14086900_KENSING
  6
Continuous
 62
     7
100
AcDbCircle
 10
27.1699396941
 20
50.0727773547
 30
0.0
 40
64.47328802311746
100
AcDbArc
 50
339.2275753181
 51
354.8234870406
  0
LINE
  5
193
330
161
100
AcDbEntity
  8
12086000_CAP_-_P
  6
Continuous
 62
     7
100
AcDbLine
 10
96.1588972134
 20
22.4883323166
 30
0.0
 11
92.9357340888
 21
23.2971104691
 31
0.0
  0
ELLIPSE
  5
194
330
161
100
AcDbEntity
  8
12086000_CAP_-_P
  6
Continuous
 62
     7
100
AcDbEllipse
 10
106.1251860869
 20
22.9685795854
 30
0.0
 11
0.5773502691896251
 21
-6.301197496007834E-15
 31
0.0
210
0.0
220
0.0
230
1.0
 40
0.8660254038
 41
4.712388980384699
 42
4.994411502644104
  0
ELLIPSE
  5
195
330
161
100
AcDbEntity
  8
12086000_CAP_-_P
  6
Continuous
 62
     7
100
AcDbEllipse
 10
96.3195731224
 20
22.9685795854
 30
0.0
 11
-0.5773502691896191
 21
4.080751446757542E-15
 31
0.0
210
0.0
220
0.0
230
1.0
 40
0.8660254038
 41
1.288773804535495
 42
1.570796326794903
  0
LINE
  5
196
330
161
100
AcDbEntity
  8
12086000_CAP_-_P
  6
Continuous
 62
     7
100
AcDbLine
 10
96.3195731224
 20
22.4685795854
 30
0.0
 11
98.7709763635
 21
22.4685795854
 31
0.0
  0
ELLIPSE
  5
197
330
161
100
AcDbEntity
  8
12086000_CAP_-_P
  6
Continuous
 62
     7
100
AcDbEllipse
 10
98.7709763635
 20
22.9685795854
 30
0.0
 11
-8.196568423990414E-14
 21
-0.5000000000007221
 31
0.0
210
0.0
220
0.0
230
1.0
 40
0.5773502692
 41
6.001162784920473
 42
6.283185307179586
  0
LINE
  5
198
330
161
100
AcDbEntity
  8
12086000_CAP_-_P
  6
Continuous
 62
     7
100
AcDbLine
 10
98.7709763635
 20
22.4685795854
 30
0.0
 11
103.6737828458
 21
22.4685795854
 31
0.0
  0
ELLIPSE
  5
199
330
161
100
AcDbEntity
  8
12086000_CAP_-_P
  6
Continuous
 62
     7
100
AcDbEllipse
 10
103.6737828458
 20
22.9685795854
 30
0.0
 11
1.053844511655910E-13
 21
-0.5000000000007776
 31
0.0
210
0.0
220
0.0
230
1.0
 40
0.5773502692
 41
0.0000000000000288
 42
0.2820225222590604
  0
LINE
  5
19A
330
161
100
AcDbEntity
  8
12086000_CAP_-_P
  6
Continuous
 62
     7
100
AcDbLine
 10
103.6737828458
 20
22.4685795854
 30
0.0
 11
106.1251860869
 21
22.4685795854
 31
0.0
  0
LINE
  5
19B
330
161
100
AcDbEntity
  8
12086000_CAP_-_P
  6
Continuous
 62
     7
100
AcDbLine
 10
109.5090251205
 20
23.2971104691
 30
0.0
 11
106.285861996
 21
22.4883323166
 31
0.0
  0
LINE
  5
19C
330
161
100
AcDbEntity
  8
12086000_CAP_-_P
  6
Continuous
 62
     7
100
AcDbLine
 10
97.0790568467
 20
23.2971104691
 30
0.0
 11
98.690638409
 21
22.4883323166
 31
0.0
  0
LINE
  5
19D
330
161
100
AcDbEntity
  8
12086000_CAP_-_P
  6
Continuous
 62
     7
100
AcDbLine
 10
105.3657023626
 20
23.2971104691
 30
0.0
 11
103.7541208003
 21
22.4883323166
 31
0.0
  0
SPLINE
  5
19E
330
161
100
AcDbEntity
  8
12086000_CAP_-_P
  6
Continuous
 62
     7
100
AcDbSpline
210
0.0
220
0.0
230
1.0
 70
     8
 71
     3
 72
    10
 73
     6
 74
     0
 42
0.0000000183253848
 43
0.0000000001
 40
0.0
 40
0.0
 40
0.0
 40
0.0
 40
0.5
 40
0.5
 40
1.0
 40
1.0
 40
1.0
 40
1.0
 10
97.07905684671961
 20
23.29711046909633
 30
0.0
 10
97.02527188389047
 20
23.32410265111553
 30
0.0
 10
96.97758416296277
 20
23.38641791094014
 30
0.0
 10
96.90919146958474
 20
23.5603113451353
 30
0.0
 10
96.89006515718913
 20
23.66952470254149
 30
0.0
 10
96.88911119121218
 20
23.77883004788794
 30
0.0
  0
SPLINE
  5
19F
330
161
100
AcDbEntity
  8
12086000_CAP_-_P
  6
Continuous
 62
     7
100
AcDbSpline
210
0.0
220
0.0
230
1.0
 70
     8
 71
     3
 72
    10
 73
     6
 74
     0
 42
0.0000000183253848
 43
0.0000000001
 40
0.0
 40
0.0
 40
0.0
 40
0.0
 40
0.5
 40
0.5
 40
1.0
 40
1.0
 40
1.0
 40
1.0
 10
105.555648018111
 20
23.778830047888
 30
0.0
 10
105.5546940521541
 20
23.66952470254157
 30
0.0
 10
105.5355677397385
 20
23.56031134513536
 30
0.0
 10
105.4671750463605
 20
23.38641791094019
 30
0.0
 10
105.4194873254332
 20
23.32410265111552
 30
0.0
 10
105.365702362604
 20
23.29711046909631
 30
0.0
  0
SPLINE
  5
1A0
330
161
100
AcDbEntity
  8
12086000_CAP_-_P
  6
Continuous
 62
     7
100
AcDbSpline
210
0.0
220
0.0
230
1.0
 70
     8
 71
     3
 72
    10
 73
     6
 74
     0
 42
0.0000000149005003
 43
0.0000000001
 40
0.0
 40
0.0
 40
0.0
 40
0.0
 40
0.5
 40
0.5
 40
1.0
 40
1.0
 40
1.0
 40
1.0
 10
92.9357340887773
 20
23.29711046909638
 30
0.0
 10
92.82816416311903
 20
23.32410265111561
 30
0.0
 10
92.73278872126345
 20
23.3864179109402
 30
0.0
 10
92.59600333450727
 20
23.56031134513536
 30
0.0
 10
92.55775070966236
 20
23.66952470254155
 30
0.0
 10
92.55584277776231
 20
23.77883004788801
 30
0.0
  0
SPLINE
  5
1A1
330
161
100
AcDbEntity
  8
12086000_CAP_-_P
  6
Continuous
 62
     7
100
AcDbSpline
210
0.0
220
0.0
230
1.0
 70
     8
 71
     3
 72
    10
 73
     6
 74
     0
 42
0.0000000149005003
 43
0.0000000001
 40
0.0
 40
0.0
 40
0.0
 40
0.0
 40
0.5
 40
0.5
 40
1.0
 40
1.0
 40
1.0
 40
1.0
 10
109.8889164315614
 20
23.77883004788812
 30
0.0
 10
109.8870084996614
 20
23.66952470254169
 30
0.0
 10
109.8487558748165
 20
23.56031134513549
 30
0.0
 10
109.7119704880603
 20
23.38641791094032
 30
0.0
 10
109.6165950462047
 20
23.32410265111556
 30
0.0
 10
109.5090251205464
 20
23.29711046909636
 30
0.0
  0
LINE
  5
1A2
330
161
100
AcDbEntity
  8
12086000_CAP_-_P
  6
Continuous
 62
     7
100
AcDbLine
 10
92.5548739913
 20
23.8343317857
 30
0.0
 11
92.5558427778
 21
23.7788300479
 31
0.0
  0
LINE
  5
1A3
330
161
100
AcDbEntity
  8
12086000_CAP_-_P
  6
Continuous
 62
     7
100
AcDbLine
 10
109.8889164316
 20
23.7788300479
 30
0.0
 11
109.889885218
 21
23.8343317857
 31
0.0
  0
CIRCLE
  5
1A4
330
161
100
AcDbEntity
  8
14088300_LEVER_H
  6
Continuous
 62
     7
100
AcDbCircle
 10
101.2223796047
 20
35.7312959115
 30
0.0
 40
7.834483362212076
  0
ENDBLK
  5
1A6
330
161
100
AcDbEntity
  8
0
100
AcDbBlockEnd
  0
ENDSEC
  0
SECTION
  2
ENTITIES
  0
INSERT
  5
5F
330
1F
100
AcDbEntity
  8
Default
100
AcDbBlockReference
  2
SEANNOT_GROUP
 10
0.0
 20
0.0
 30
0.0
  0
INSERT
  5
66
330
1F
100
AcDbEntity
  8
Default
100
AcDbBlockReference
  2
SEANNOT_GROUP1
 10
0.0
 20
0.0
 30
0.0
  0
INSERT
  5
70
330
1F
100
AcDbEntity
  8
Default
100
AcDbBlockReference
  2
SEANNOT_GROUP2
 10
0.0
 20
0.0
 30
0.0
  0
INSERT
  5
76
330
1F
100
AcDbEntity
  8
Default
100
AcDbBlockReference
  2
SE
 10
0.0
 20
0.0
 30
0.0
  0
INSERT
  5
D8
330
1F
100
AcDbEntity
  8
Default
100
AcDbBlockReference
  2
SE1
 10
0.0
 20
0.0
 30
0.0
  0
INSERT
  5
162
330
1F
100
AcDbEntity
  8
Default
100
AcDbBlockReference
  2
SE2
 10
0.0
 20
0.0
 30
0.0
  0
TEXT
  5
1A8
330
1F
100
AcDbEntity
  8
Default
  6
Continuous
 62
     7
100
AcDbText
 10
5.9362635081
 20
53.4225120485
 30
0.0
 40
10.0
  1
Grohe AG^J
  7
SEACAD_seiso_ttf
 11
5.9362635081
 21
63.4225120485
 31
0.0
100
AcDbText
 73
     3
  0
TEXT
  5
1A9
330
1F
100
AcDbEntity
  8
Default
  6
Continuous
 62
     7
100
AcDbText
 10
5.9362635081
 20
37.0588756849
 30
0.0
 40
10.0
  1
 
  7
SEACAD_seiso_ttf
 11
5.9362635081
 21
47.0588756849
 31
0.0
100
AcDbText
 73
     3
  0
TEXT
  5
1AA
330
1F
100
AcDbEntity
  8
Default
  6
Continuous
 62
     7
100
AcDbText
 10
5.9362635081
 20
20.6952393213
 30
0.0
 40
10.0
  1
ecn: 
  7
SEACAD_seiso_ttf
 11
5.9362635081
 21
30.6952393213
 31
0.0
100
AcDbText
 73
     3
  0
TEXT
  5
1AB
330
1F
100
AcDbEntity
  8
Default
  6
Continuous
 62
     7
100
AcDbText
 10
5.9362635081
 20
4.3316029576
 30
0.0
 40
10.0
  1
unit: mm
  7
SEACAD_seiso_ttf
 11
5.9362635081
 21
14.3316029576
 31
0.0
100
AcDbText
 73
     3
  0
LINE
  5
1AC
330
1F
100
AcDbEntity
  8
Default
  6
Continuous
 62
     7
100
AcDbLine
 10
0.0
 20
0.0
 30
0.0
 11
100.0
 21
0.0
 31
0.0
  0
LINE
  5
1AD
330
1F
100
AcDbEntity
  8
Default
  6
Continuous
 62
     7
100
AcDbLine
 10
0.0
 20
0.0
 30
0.0
 11
0.0
 21
100.0
 31
0.0
  0
TEXT
  5
1AE
330
1F
100
AcDbEntity
  8
Default
  6
Continuous
 62
     7
100
AcDbText
 10
24.3923665681
 20
-18.2375342018
 30
0.0
 40
10.0
  1
100 mm
  7
SEACAD_seiso_ttf
 11
24.3923665681
 21
-8.2375342018
 31
0.0
100
AcDbText
 73
     3
  0
TEXT
  5
1AF
330
1F
100
AcDbEntity
  8
Default
  6
Continuous
 62
     7
100
AcDbText
 10
-7.6150308803
 20
24.6231930421
 30
0.0
 40
10.0
  1
100 mm
 50
90.0
  7
SEACAD_seiso_ttf
 11
-17.6150308803
 21
24.6231930421
 31
0.0
100
AcDbText
 73
     3
  0
TEXT
  5
1B0
330
1F
100
AcDbEntity
  8
Default
  6
Continuous
 62
     7
100
AcDbText
 10
28.4878128572
 20
20.0907663715
 30
0.0
 40
10.0
  1
201846
  7
SEACAD_seiso_ttf
 11
28.4878128572
 21
30.0907663715
 31
0.0
100
AcDbText
 73
     3
  0
TEXT
  5
1B1
330
1F
100
AcDbEntity
  8
Default
  6
Continuous
 62
     7
100
AcDbText
 10
5.9012241913
 20
36.7242780188
 30
0.0
 40
10.0
  1
40226000
  7
SEACAD_seiso_ttf
 11
5.9012241913
 21
46.7242780188
 31
0.0
100
AcDbText
 73
     3
  0
ENDSEC
  0
SECTION
  2
OBJECTS
  0
DICTIONARY
  5
C
330
0
100
AcDbDictionary
281
     1
  3
ACAD_GROUP
350
D
  3
ACAD_LAYOUT
350
1A
  3
ACAD_MLEADERSTYLE
350
1B5
  3
ACAD_MLINESTYLE
350
17
  3
ACAD_PLOTSETTINGS
350
19
  3
ACAD_PLOTSTYLENAME
350
E
  3
ACAD_SCALELIST
350
3B
  3
ACAD_TABLESTYLE
350
1B4
  3
ACAD_VISUALSTYLE
350
2A
  3
AcDbVariableDictionary
350
1B2
  0
DICTIONARY
  5
D
102
{ACAD_REACTORS
330
C
102
}
330
C
100
AcDbDictionary
281
     1
  0
DICTIONARY
  5
1A
102
{ACAD_REACTORS
330
C
102
}
330
C
100
AcDbDictionary
281
     1
  3
Layout1
350
1E
  3
Model
350
22
  0
DICTIONARY
  5
1B5
102
{ACAD_REACTORS
330
C
102
}
330
C
100
AcDbDictionary
281
     1
  0
DICTIONARY
  5
17
102
{ACAD_REACTORS
330
C
102
}
330
C
100
AcDbDictionary
281
     1
  3
Standard
350
18
  0
DICTIONARY
  5
19
102
{ACAD_REACTORS
330
C
102
}
330
C
100
AcDbDictionary
281
     1
  0
ACDBDICTIONARYWDFLT
  5
E
102
{ACAD_REACTORS
330
C
102
}
330
C
100
AcDbDictionary
281
     1
  3
Normal
350
F
100
AcDbDictionaryWithDefault
340
F
  0
DICTIONARY
  5
3B
102
{ACAD_REACTORS
330
C
102
}
330
C
100
AcDbDictionary
281
     1
  3
A0
350
3C
  3
A1
350
3D
  3
A2
350
3E
  3
A3
350
3F
  3
A4
350
40
  3
A5
350
41
  3
A6
350
42
  3
A7
350
43
  3
A8
350
44
  3
A9
350
45
  3
B0
350
46
  3
B1
350
47
  3
B2
350
48
  3
B3
350
49
  3
B4
350
4A
  3
B5
350
4B
  3
B6
350
4C
  3
B7
350
4D
  3
B8
350
4E
  3
B9
350
4F
  3
C0
350
50
  3
C1
350
51
  3
C2
350
52
  3
C3
350
53
  3
C4
350
54
  3
C5
350
55
  3
C6
350
56
  3
C7
350
57
  3
C8
350
58
  3
C9
350
59
  3
D0
350
5A
  3
D1
350
5B
  3
D2
350
5C
  0
DICTIONARY
  5
1B4
102
{ACAD_REACTORS
330
C
102
}
330
C
100
AcDbDictionary
281
     1
  0
DICTIONARY
  5
2A
102
{ACAD_REACTORS
330
C
102
}
330
C
100
AcDbDictionary
281
     1
  3
2dWireframe
350
2F
  3
3D Hidden
350
31
  3
3dWireframe
350
30
  3
Basic
350
32
  3
Brighten
350
36
  3
ColorChange
350
3A
  3
Conceptual
350
34
  3
Dim
350
35
  3
Facepattern
350
39
  3
Flat
350
2B
  3
FlatWithEdges
350
2C
  3
Gouraud
350
2D
  3
GouraudWithEdges
350
2E
  3
Linepattern
350
38
  3
Realistic
350
33
  3
Thicken
350
37
  0
DICTIONARY
  5
1B2
102
{ACAD_REACTORS
330
C
102
}
330
C
100
AcDbDictionary
281
     1
  3
CANNOSCALE
350
1B3
  3
PSOLHEIGHT
350
1B7
  3
PSOLWIDTH
350
1B6
  0
LAYOUT
  5
1E
102
{ACAD_REACTORS
330
1A
102
}
330
1A
100
AcDbPlotSettings
  1

  2
none_device
  4

  6

 40
0.0
 41
0.0
 42
0.0
 43
0.0
 44
0.0
 45
0.0
 46
0.0
 47
0.0
 48
0.0
 49
0.0
140
0.0
141
0.0
142
1.0
143
1.0
 70
   688
 72
     0
 73
     0
 74
     5
  7

 75
    16
147
1.0
148
0.0
149
0.0
100
AcDbLayout
  1
Layout1
 70
     1
 71
     1
 10
0.0
 20
0.0
 11
1682.0
 21
2378.0
 12
0.0
 22
0.0
 32
0.0
 14
0.0
 24
0.0
 34
0.0
 15
1682.0
 25
2378.0
 35
0.0
146
0.0
 13
0.0
 23
0.0
 33
0.0
 16
1.0
 26
0.0
 36
0.0
 17
0.0
 27
1.0
 37
0.0
 76
     0
330
1B
  0
LAYOUT
  5
22
102
{ACAD_REACTORS
330
1A
102
}
330
1A
100
AcDbPlotSettings
  1

  2
none_device
  4

  6

 40
0.0
 41
0.0
 42
0.0
 43
0.0
 44
0.0
 45
0.0
 46
0.0
 47
0.0
 48
0.0
 49
0.0
140
0.0
141
0.0
142
1.0
143
1.0
 70
  1712
 72
     0
 73
     0
 74
     0
  7

 75
     0
147
1.0
148
0.0
149
0.0
100
AcDbLayout
  1
Model
 70
     1
 71
     0
 10
0.0
 20
0.0
 11
1682.0
 21
2378.0
 12
0.0
 22
0.0
 32
0.0
 14
0.0
 24
0.0
 34
0.0
 15
1682.0
 25
2378.0
 35
0.0
146
0.0
 13
0.0
 23
0.0
 33
0.0
 16
1.0
 26
0.0
 36
0.0
 17
0.0
 27
1.0
 37
0.0
 76
     0
330
1F
331
29
  0
MLINESTYLE
  5
18
102
{ACAD_REACTORS
330
17
102
}
330
17
100
AcDbMlineStyle
  2
Standard
 70
     0
  3

 62
   256
 51
90.0
 52
90.0
 71
     2
 49
0.5
 62
   256
  6
BYLAYER
 49
-0.5
 62
   256
  6
BYLAYER
  0
ACDBPLACEHOLDER
  5
F
102
{ACAD_REACTORS
330
E
102
}
330
E
  0
SCALE
  5
3C
102
{ACAD_REACTORS
330
3B
102
}
330
3B
100
AcDbScale
 70
     0
300
1:1
140
1.0
141
1.0
290
     1
  0
SCALE
  5
3D
102
{ACAD_REACTORS
330
3B
102
}
330
3B
100
AcDbScale
 70
     0
300
1:2
140
1.0
141
2.0
290
     0
  0
SCALE
  5
3E
102
{ACAD_REACTORS
330
3B
102
}
330
3B
100
AcDbScale
 70
     0
300
1:4
140
1.0
141
4.0
290
     0
  0
SCALE
  5
3F
102
{ACAD_REACTORS
330
3B
102
}
330
3B
100
AcDbScale
 70
     0
300
1:5
140
1.0
141
5.0
290
     0
  0
SCALE
  5
40
102
{ACAD_REACTORS
330
3B
102
}
330
3B
100
AcDbScale
 70
     0
300
1:8
140
1.0
141
8.0
290
     0
  0
SCALE
  5
41
102
{ACAD_REACTORS
330
3B
102
}
330
3B
100
AcDbScale
 70
     0
300
1:10
140
1.0
141
10.0
290
     0
  0
SCALE
  5
42
102
{ACAD_REACTORS
330
3B
102
}
330
3B
100
AcDbScale
 70
     0
300
1:16
140
1.0
141
16.0
290
     0
  0
SCALE
  5
43
102
{ACAD_REACTORS
330
3B
102
}
330
3B
100
AcDbScale
 70
     0
300
1:20
140
1.0
141
20.0
290
     0
  0
SCALE
  5
44
102
{ACAD_REACTORS
330
3B
102
}
330
3B
100
AcDbScale
 70
     0
300
1:30
140
1.0
141
30.0
290
     0
  0
SCALE
  5
45
102
{ACAD_REACTORS
330
3B
102
}
330
3B
100
AcDbScale
 70
     0
300
1:40
140
1.0
141
40.0
290
     0
  0
SCALE
  5
46
102
{ACAD_REACTORS
330
3B
102
}
330
3B
100
AcDbScale
 70
     0
300
1:50
140
1.0
141
50.0
290
     0
  0
SCALE
  5
47
102
{ACAD_REACTORS
330
3B
102
}
330
3B
100
AcDbScale
 70
     0
300
1:100
140
1.0
141
100.0
290
     0
  0
SCALE
  5
48
102
{ACAD_REACTORS
330
3B
102
}
330
3B
100
AcDbScale
 70
     0
300
2:1
140
2.0
141
1.0
290
     0
  0
SCALE
  5
49
102
{ACAD_REACTORS
330
3B
102
}
330
3B
100
AcDbScale
 70
     0
300
4:1
140
4.0
141
1.0
290
     0
  0
SCALE
  5
4A
102
{ACAD_REACTORS
330
3B
102
}
330
3B
100
AcDbScale
 70
     0
300
8:1
140
8.0
141
1.0
290
     0
  0
SCALE
  5
4B
102
{ACAD_REACTORS
330
3B
102
}
330
3B
100
AcDbScale
 70
     0
300
10:1
140
10.0
141
1.0
290
     0
  0
SCALE
  5
4C
102
{ACAD_REACTORS
330
3B
102
}
330
3B
100
AcDbScale
 70
     0
300
100:1
140
100.0
141
1.0
290
     0
  0
SCALE
  5
4D
102
{ACAD_REACTORS
330
3B
102
}
330
3B
100
AcDbScale
 70
     0
300
1/128" = 1'-0"
140
0.0078125
141
12.0
290
     0
  0
SCALE
  5
4E
102
{ACAD_REACTORS
330
3B
102
}
330
3B
100
AcDbScale
 70
     0
300
1/64" = 1'-0"
140
0.015625
141
12.0
290
     0
  0
SCALE
  5
4F
102
{ACAD_REACTORS
330
3B
102
}
330
3B
100
AcDbScale
 70
     0
300
1/32" = 1'-0"
140
0.03125
141
12.0
290
     0
  0
SCALE
  5
50
102
{ACAD_REACTORS
330
3B
102
}
330
3B
100
AcDbScale
 70
     0
300
1/16" = 1'-0"
140
0.0625
141
12.0
290
     0
  0
SCALE
  5
51
102
{ACAD_REACTORS
330
3B
102
}
330
3B
100
AcDbScale
 70
     0
300
3/32" = 1'-0"
140
0.09375
141
12.0
290
     0
  0
SCALE
  5
52
102
{ACAD_REACTORS
330
3B
102
}
330
3B
100
AcDbScale
 70
     0
300
1/8" = 1'-0"
140
0.125
141
12.0
290
     0
  0
SCALE
  5
53
102
{ACAD_REACTORS
330
3B
102
}
330
3B
100
AcDbScale
 70
     0
300
3/16" = 1'-0"
140
0.1875
141
12.0
290
     0
  0
SCALE
  5
54
102
{ACAD_REACTORS
330
3B
102
}
330
3B
100
AcDbScale
 70
     0
300
1/4" = 1'-0"
140
0.25
141
12.0
290
     0
  0
SCALE
  5
55
102
{ACAD_REACTORS
330
3B
102
}
330
3B
100
AcDbScale
 70
     0
300
3/8" = 1'-0"
140
0.375
141
12.0
290
     0
  0
SCALE
  5
56
102
{ACAD_REACTORS
330
3B
102
}
330
3B
100
AcDbScale
 70
     0
300
1/2" = 1'-0"
140
0.5
141
12.0
290
     0
  0
SCALE
  5
57
102
{ACAD_REACTORS
330
3B
102
}
330
3B
100
AcDbScale
 70
     0
300
3/4" = 1'-0"
140
0.75
141
12.0
290
     0
  0
SCALE
  5
58
102
{ACAD_REACTORS
330
3B
102
}
330
3B
100
AcDbScale
 70
     0
300
1" = 1'-0"
140
1.0
141
12.0
290
     0
  0
SCALE
  5
59
102
{ACAD_REACTORS
330
3B
102
}
330
3B
100
AcDbScale
 70
     0
300
1-1/2" = 1'-0"
140
1.5
141
12.0
290
     0
  0
SCALE
  5
5A
102
{ACAD_REACTORS
330
3B
102
}
330
3B
100
AcDbScale
 70
     0
300
3" = 1'-0"
140
3.0
141
12.0
290
     0
  0
SCALE
  5
5B
102
{ACAD_REACTORS
330
3B
102
}
330
3B
100
AcDbScale
 70
     0
300
6" = 1'-0"
140
6.0
141
12.0
290
     0
  0
SCALE
  5
5C
102
{ACAD_REACTORS
330
3B
102
}
330
3B
100
AcDbScale
 70
     0
300
1'-0" = 1'-0"
140
12.0
141
12.0
290
     0
  0
VISUALSTYLE
  5
2F
102
{ACAD_REACTORS
330
2A
102
}
330
2A
100
AcDbVisualStyle
  2
2dWireframe
 70
     4
 71
     0
 72
     2
 73
     0
 90
        0
 40
-0.6
 41
-30.0
 62
     5
 63
     7
 74
     1
 91
        4
 64
     7
 65
   257
 75
     1
175
     1
 42
1.0
 92
        0
 66
   257
 43
1.0
 76
     1
 77
     6
 78
     2
 67
     7
 79
     5
170
     0
171
     0
290
     0
174
     0
 93
        1
 44
0.0
173
     0
291
     0
 45
0.0
1001
ACAD
1000
AcDbSavedByObjectVersion
1070
     0
  0
VISUALSTYLE
  5
31
102
{ACAD_REACTORS
330
2A
102
}
330
2A
100
AcDbVisualStyle
  2
3D Hidden
 70
     6
 71
     1
 72
     2
 73
     2
 90
        0
 40
-0.6
 41
-30.0
 62
     5
 63
     7
 74
     2
 91
        2
 64
     7
 65
   257
 75
     2
175
     1
 42
40.0
 92
        0
 66
   257
 43
1.0
 76
     1
 77
     6
 78
     2
 67
     7
 79
     3
170
     0
171
     0
290
     0
174
     0
 93
        1
 44
0.0
173
     0
291
     0
 45
0.0
1001
ACAD
1000
AcDbSavedByObjectVersion
1070
     0
  0
VISUALSTYLE
  5
30
102
{ACAD_REACTORS
330
2A
102
}
330
2A
100
AcDbVisualStyle
  2
3dWireframe
 70
     5
 71
     0
 72
     2
 73
     0
 90
        0
 40
-0.6
 41
-30.0
 62
     5
 63
     7
 74
     1
 91
        4
 64
     7
 65
   257
 75
     1
175
     1
 42
1.0
 92
        0
 66
   257
 43
1.0
 76
     1
 77
     6
 78
     2
 67
     7
 79
     5
170
     0
171
     0
290
     0
174
     0
 93
        1
 44
0.0
173
     0
291
     0
 45
0.0
1001
ACAD
1000
AcDbSavedByObjectVersion
1070
     0
  0
VISUALSTYLE
  5
32
102
{ACAD_REACTORS
330
2A
102
}
330
2A
100
AcDbVisualStyle
  2
Basic
 70
     7
 71
     1
 72
     0
 73
     1
 90
        0
 40
-0.6
 41
-30.0
 62
     5
 63
     7
 74
     0
 91
        4
 64
     7
 65
   257
 75
     1
175
     1
 42
1.0
 92
        8
 66
     7
 43
1.0
 76
     1
 77
     6
 78
     2
 67
     7
 79
     5
170
     0
171
     0
290
     0
174
     0
 93
        1
 44
0.0
173
     0
291
     1
 45
0.0
1001
ACAD
1000
AcDbSavedByObjectVersion
1070
     0
  0
VISUALSTYLE
  5
36
102
{ACAD_REACTORS
330
2A
102
}
330
2A
100
AcDbVisualStyle
  2
Brighten
 70
    12
 71
     2
 72
     2
 73
     0
 90
        0
 40
-0.6
 41
-30.0
 62
     5
 63
     7
 74
     1
 91
        4
 64
     7
 65
   257
 75
     1
175
     1
 42
1.0
 92
        8
 66
     7
 43
1.0
 76
     1
 77
     6
 78
     2
 67
     7
 79
     5
170
     0
171
     0
290
     0
174
     0
 93
        1
 44
50.0
173
     0
291
     1
 45
0.0
1001
ACAD
1000
AcDbSavedByObjectVersion
1070
     0
  0
VISUALSTYLE
  5
3A
102
{ACAD_REACTORS
330
2A
102
}
330
2A
100
AcDbVisualStyle
  2
ColorChange
 70
    16
 71
     2
 72
     2
 73
     3
 90
        0
 40
-0.6
 41
-30.0
 62
     5
 63
     8
 74
     1
 91
        4
 64
     7
 65
   257
 75
     1
175
     1
 42
1.0
 92
        8
 66
     8
 43
1.0
 76
     1
 77
     6
 78
     2
 67
     7
 79
     5
170
     0
171
     0
290
     0
174
     0
 93
        1
 44
0.0
173
     0
291
     1
 45
0.0
1001
ACAD
1000
AcDbSavedByObjectVersion
1070
     0
  0
VISUALSTYLE
  5
34
102
{ACAD_REACTORS
330
2A
102
}
330
2A
100
AcDbVisualStyle
  2
Conceptual
 70
     9
 71
     3
 72
     2
 73
     0
 90
        0
 40
-0.6
 41
-30.0
 62
     5
 63
     7
 74
     2
 91
        2
 64
     7
 65
   257
 75
     1
175
     1
 42
40.0
 92
        8
 66
     7
 43
1.0
 76
     1
 77
     6
 78
     2
 67
     7
 79
     3
170
     0
171
     0
290
     0
174
     0
 93
        1
 44
0.0
173
     0
291
     0
 45
0.0
1001
ACAD
1000
AcDbSavedByObjectVersion
1070
     0
  0
VISUALSTYLE
  5
35
102
{ACAD_REACTORS
330
2A
102
}
330
2A
100
AcDbVisualStyle
  2
Dim
 70
    11
 71
     2
 72
     2
 73
     0
 90
        0
 40
-0.6
 41
-30.0
 62
     5
 63
     7
 74
     1
 91
        4
 64
     7
 65
   257
 75
     1
175
     1
 42
1.0
 92
        8
 66
     7
 43
1.0
 76
     1
 77
     6
 78
     2
 67
     7
 79
     5
170
     0
171
     0
290
     0
174
     0
 93
        1
 44
-50.0
173
     0
291
     1
 45
0.0
1001
ACAD
1000
AcDbSavedByObjectVersion
1070
     0
  0
VISUALSTYLE
  5
39
102
{ACAD_REACTORS
330
2A
102
}
330
2A
100
AcDbVisualStyle
  2
Facepattern
 70
    15
 71
     2
 72
     2
 73
     0
 90
        0
 40
-0.6
 41
-30.0
 62
     5
 63
     7
 74
     1
 91
        4
 64
     7
 65
   257
 75
     1
175
     1
 42
1.0
 92
        8
 66
     7
 43
1.0
 76
     1
 77
     6
 78
     2
 67
     7
 79
     5
170
     0
171
     0
290
     0
174
     0
 93
        1
 44
0.0
173
     0
291
     1
 45
0.0
1001
ACAD
1000
AcDbSavedByObjectVersion
1070
     0
  0
VISUALSTYLE
  5
2B
102
{ACAD_REACTORS
330
2A
102
}
330
2A
100
AcDbVisualStyle
  2
Flat
 70
     0
 71
     2
 72
     1
 73
     1
 90
        2
 40
-0.6
 41
30.0
 62
     5
 63
     7
 74
     0
 91
        4
 64
     7
 65
   257
 75
     1
175
     1
 42
1.0
 92
        8
 66
     7
 43
1.0
 76
     1
 77
     6
 78
     2
 67
     7
 79
     5
170
     0
171
     0
290
     0
174
     0
 93
       13
 44
0.0
173
     0
291
     1
 45
0.0
1001
ACAD
1000
AcDbSavedByObjectVersion
1070
     0
  0
VISUALSTYLE
  5
2C
102
{ACAD_REACTORS
330
2A
102
}
330
2A
100
AcDbVisualStyle
  2
FlatWithEdges
 70
     1
 71
     2
 72
     1
 73
     1
 90
        2
 40
-0.6
 41
30.0
 62
     5
 63
     7
 74
     1
 91
        4
 64
     7
 65
   257
 75
     1
175
     1
 42
1.0
 92
        0
 66
   257
 43
1.0
 76
     1
 77
     6
 78
     2
 67
     7
 79
     5
170
     0
171
     0
290
     0
174
     0
 93
       13
 44
0.0
173
     0
291
     1
 45
0.0
1001
ACAD
1000
AcDbSavedByObjectVersion
1070
     0
  0
VISUALSTYLE
  5
2D
102
{ACAD_REACTORS
330
2A
102
}
330
2A
100
AcDbVisualStyle
  2
Gouraud
 70
     2
 71
     2
 72
     2
 73
     1
 90
        2
 40
-0.6
 41
30.0
 62
     5
 63
     7
 74
     0
 91
        4
 64
     7
 65
   257
 75
     1
175
     1
 42
1.0
 92
        0
 66
     7
 43
1.0
 76
     1
 77
     6
 78
     2
 67
     7
 79
     5
170
     0
171
     0
290
     0
174
     0
 93
       13
 44
0.0
173
     0
291
     1
 45
0.0
1001
ACAD
1000
AcDbSavedByObjectVersion
1070
     0
  0
VISUALSTYLE
  5
2E
102
{ACAD_REACTORS
330
2A
102
}
330
2A
100
AcDbVisualStyle
  2
GouraudWithEdges
 70
     3
 71
     2
 72
     2
 73
     1
 90
        2
 40
-0.6
 41
30.0
 62
     5
 63
     7
 74
     1
 91
        4
 64
     7
 65
   257
 75
     1
175
     1
 42
1.0
 92
        0
 66
   257
 43
1.0
 76
     1
 77
     6
 78
     2
 67
     7
 79
     5
170
     0
171
     0
290
     0
174
     0
 93
       13
 44
0.0
173
     0
291
     1
 45
0.0
1001
ACAD
1000
AcDbSavedByObjectVersion
1070
     0
  0
VISUALSTYLE
  5
38
102
{ACAD_REACTORS
330
2A
102
}
330
2A
100
AcDbVisualStyle
  2
Linepattern
 70
    14
 71
     2
 72
     2
 73
     0
 90
        0
 40
-0.6
 41
-30.0
 62
     5
 63
     7
 74
     1
 91
        4
 64
     7
 65
   257
 75
     7
175
     7
 42
1.0
 92
        8
 66
     7
 43
1.0
 76
     1
 77
     6
 78
     2
 67
     7
 79
     5
170
     0
171
     0
290
     0
174
     0
 93
        1
 44
0.0
173
     0
291
     1
 45
0.0
1001
ACAD
1000
AcDbSavedByObjectVersion
1070
     0
  0
VISUALSTYLE
  5
33
102
{ACAD_REACTORS
330
2A
102
}
330
2A
100
AcDbVisualStyle
  2
Realistic
 70
     8
 71
     2
 72
     2
 73
     0
 90
        0
 40
-0.6
 41
-30.0
 62
     5
 63
     7
 74
     1
 91
        0
 64
     7
 65
   257
 75
     1
175
     1
 42
1.0
 92
        8
 66
     8
 43
1.0
 76
     1
 77
     6
 78
     2
 67
     7
 79
     5
170
     0
171
     0
290
     0
174
     0
 93
       13
 44
0.0
173
     0
291
     0
 45
0.0
1001
ACAD
1000
AcDbSavedByObjectVersion
1070
     0
  0
VISUALSTYLE
  5
37
102
{ACAD_REACTORS
330
2A
102
}
330
2A
100
AcDbVisualStyle
  2
Thicken
 70
    13
 71
     2
 72
     2
 73
     0
 90
        0
 40
-0.6
 41
-30.0
 62
     5
 63
     7
 74
     1
 91
        4
 64
     7
 65
   257
 75
     1
175
     1
 42
1.0
 92
       12
 66
     7
 43
1.0
 76
     1
 77
     6
 78
     2
 67
     7
 79
     5
170
     0
171
     0
290
     0
174
     0
 93
        1
 44
0.0
173
     0
291
     1
 45
0.0
1001
ACAD
1000
AcDbSavedByObjectVersion
1070
     0
  0
DICTIONARYVAR
  5
1B3
102
{ACAD_REACTORS
330
1B2
102
}
330
1B2
100
DictionaryVariables
280
     0
  1
1:1
  0
DICTIONARYVAR
  5
1B7
102
{ACAD_REACTORS
330
1B2
102
}
330
1B2
100
DictionaryVariables
280
     0
  1
80.000000
  0
DICTIONARYVAR
  5
1B6
102
{ACAD_REACTORS
330
1B2
102
}
330
1B2
100
DictionaryVariables
280
     0
  1
5.000000
  0
ENDSEC
  0
EOF
