  0
SECTION
  2
HEADER
  9
$ACADVER
  1
AC1015
  9
$ACADMAINTVER
 70
     6
  9
$DWGCODEPAGE
  3
ANSI_1252
  9
$INSBASE
 10
0.0
 20
0.0
 30
0.0
  9
$EXTMIN
 10
0.0
 20
0.0
 30
0.0
  9
$EXTMAX
 10
1682.0
 20
2378.0
 30
0.0
  9
$LIMMIN
 10
0.0
 20
0.0
  9
$LIMMAX
 10
1682.0
 20
2378.0
  9
$ORTHOMODE
 70
     0
  9
$REGENMODE
 70
     1
  9
$FILLMODE
 70
     1
  9
$QTEXTMODE
 70
     0
  9
$MIRRTEXT
 70
     1
  9
$LTSCALE
 40
1.0
  9
$ATTMODE
 70
     1
  9
$TEXTSIZE
 40
2.5
  9
$TRACEWID
 40
1.0
  9
$TEXTSTYLE
  7
Standard
  9
$CLAYER
  8
0
  9
$CELTYPE
  6
ByLayer
  9
$CECOLOR
 62
   256
  9
$CELTSCALE
 40
1.0
  9
$DISPSILH
 70
     0
  9
$DIMSCALE
 40
1.0
  9
$DIMASZ
 40
2.5
  9
$DIMEXO
 40
0.625
  9
$DIMDLI
 40
3.75
  9
$DIMRND
 40
0.0
  9
$DIMDLE
 40
0.0
  9
$DIMEXE
 40
1.25
  9
$DIMTP
 40
0.0
  9
$DIMTM
 40
0.0
  9
$DIMTXT
 40
2.5
  9
$DIMCEN
 40
2.5
  9
$DIMTSZ
 40
0.0
  9
$DIMTOL
 70
     0
  9
$DIMLIM
 70
     0
  9
$DIMTIH
 70
     0
  9
$DIMTOH
 70
     0
  9
$DIMSE1
 70
     0
  9
$DIMSE2
 70
     0
  9
$DIMTAD
 70
     1
  9
$DIMZIN
 70
     8
  9
$DIMBLK
  1

  9
$DIMASO
 70
     1
  9
$DIMSHO
 70
     1
  9
$DIMPOST
  1

  9
$DIMAPOST
  1

  9
$DIMALT
 70
     0
  9
$DIMALTD
 70
     3
  9
$DIMALTF
 40
0.0393700787
  9
$DIMLFAC
 40
1.0
  9
$DIMTOFL
 70
     1
  9
$DIMTVP
 40
0.0
  9
$DIMTIX
 70
     0
  9
$DIMSOXD
 70
     0
  9
$DIMSAH
 70
     0
  9
$DIMBLK1
  1

  9
$DIMBLK2
  1

  9
$DIMSTYLE
  2
ISO-25
  9
$DIMCLRD
 70
     0
  9
$DIMCLRE
 70
     0
  9
$DIMCLRT
 70
     0
  9
$DIMTFAC
 40
1.0
  9
$DIMGAP
 40
0.625
  9
$DIMJUST
 70
     0
  9
$DIMSD1
 70
     0
  9
$DIMSD2
 70
     0
  9
$DIMTOLJ
 70
     0
  9
$DIMTZIN
 70
     8
  9
$DIMALTZ
 70
     0
  9
$DIMALTTZ
 70
     0
  9
$DIMUPT
 70
     0
  9
$DIMDEC
 70
     2
  9
$DIMTDEC
 70
     2
  9
$DIMALTU
 70
     2
  9
$DIMALTTD
 70
     3
  9
$DIMTXSTY
  7
Standard
  9
$DIMAUNIT
 70
     0
  9
$DIMADEC
 70
     0
  9
$DIMALTRND
 40
0.0
  9
$DIMAZIN
 70
     0
  9
$DIMDSEP
 70
    44
  9
$DIMATFIT
 70
     3
  9
$DIMFRAC
 70
     0
  9
$DIMLDRBLK
  1

  9
$DIMLUNIT
 70
     2
  9
$DIMLWD
 70
    -2
  9
$DIMLWE
 70
    -2
  9
$DIMTMOVE
 70
     0
  9
$LUNITS
 70
     2
  9
$LUPREC
 70
     4
  9
$SKETCHINC
 40
1.0
  9
$FILLETRAD
 40
10.0
  9
$AUNITS
 70
     0
  9
$AUPREC
 70
     0
  9
$MENU
  1
.
  9
$ELEVATION
 40
0.0
  9
$PELEVATION
 40
0.0
  9
$THICKNESS
 40
0.0
  9
$LIMCHECK
 70
     0
  9
$CHAMFERA
 40
10.0
  9
$CHAMFERB
 40
10.0
  9
$CHAMFERC
 40
20.0
  9
$CHAMFERD
 40
0.0
  9
$SKPOLY
 70
     0
  9
$TDCREATE
 40
2455545.609531018
  9
$TDUCREATE
 40
2455545.567864352
  9
$TDUPDATE
 40
2455545.60953103
  9
$TDUUPDATE
 40
2455545.567864364
  9
$TDINDWG
 40
0.0000000116
  9
$TDUSRTIMER
 40
0.0000000116
  9
$USRTIMER
 70
     1
  9
$ANGBASE
 50
0.0
  9
$ANGDIR
 70
     0
  9
$PDMODE
 70
     0
  9
$PDSIZE
 40
0.0
  9
$PLINEWID
 40
0.0
  9
$SPLFRAME
 70
     0
  9
$SPLINETYPE
 70
     6
  9
$SPLINESEGS
 70
     8
  9
$HANDSEED
  5
2AB
  9
$SURFTAB1
 70
     6
  9
$SURFTAB2
 70
     6
  9
$SURFTYPE
 70
     6
  9
$SURFU
 70
     6
  9
$SURFV
 70
     6
  9
$UCSBASE
  2

  9
$UCSNAME
  2

  9
$UCSORG
 10
0.0
 20
0.0
 30
0.0
  9
$UCSXDIR
 10
1.0
 20
0.0
 30
0.0
  9
$UCSYDIR
 10
0.0
 20
1.0
 30
0.0
  9
$UCSORTHOREF
  2

  9
$UCSORTHOVIEW
 70
     0
  9
$UCSORGTOP
 10
0.0
 20
0.0
 30
0.0
  9
$UCSORGBOTTOM
 10
0.0
 20
0.0
 30
0.0
  9
$UCSORGLEFT
 10
0.0
 20
0.0
 30
0.0
  9
$UCSORGRIGHT
 10
0.0
 20
0.0
 30
0.0
  9
$UCSORGFRONT
 10
0.0
 20
0.0
 30
0.0
  9
$UCSORGBACK
 10
0.0
 20
0.0
 30
0.0
  9
$PUCSBASE
  2

  9
$PUCSNAME
  2

  9
$PUCSORG
 10
0.0
 20
0.0
 30
0.0
  9
$PUCSXDIR
 10
1.0
 20
0.0
 30
0.0
  9
$PUCSYDIR
 10
0.0
 20
1.0
 30
0.0
  9
$PUCSORTHOREF
  2

  9
$PUCSORTHOVIEW
 70
     0
  9
$PUCSORGTOP
 10
0.0
 20
0.0
 30
0.0
  9
$PUCSORGBOTTOM
 10
0.0
 20
0.0
 30
0.0
  9
$PUCSORGLEFT
 10
0.0
 20
0.0
 30
0.0
  9
$PUCSORGRIGHT
 10
0.0
 20
0.0
 30
0.0
  9
$PUCSORGFRONT
 10
0.0
 20
0.0
 30
0.0
  9
$PUCSORGBACK
 10
0.0
 20
0.0
 30
0.0
  9
$USERI1
 70
     0
  9
$USERI2
 70
     0
  9
$USERI3
 70
     0
  9
$USERI4
 70
     0
  9
$USERI5
 70
     0
  9
$USERR1
 40
0.0
  9
$USERR2
 40
0.0
  9
$USERR3
 40
0.0
  9
$USERR4
 40
0.0
  9
$USERR5
 40
0.0
  9
$WORLDVIEW
 70
     1
  9
$SHADEDGE
 70
     3
  9
$SHADEDIF
 70
    70
  9
$TILEMODE
 70
     1
  9
$MAXACTVP
 70
    64
  9
$PINSBASE
 10
0.0
 20
0.0
 30
0.0
  9
$PLIMCHECK
 70
     0
  9
$PEXTMIN
 10
0.0
 20
0.0
 30
0.0
  9
$PEXTMAX
 10
1682.0
 20
2378.0
 30
0.0
  9
$PLIMMIN
 10
0.0
 20
0.0
  9
$PLIMMAX
 10
1682.0
 20
2378.0
  9
$UNITMODE
 70
     0
  9
$VISRETAIN
 70
     1
  9
$PLINEGEN
 70
     0
  9
$PSLTSCALE
 70
     1
  9
$TREEDEPTH
 70
  3020
  9
$CMLSTYLE
  2
Standard
  9
$CMLJUST
 70
     0
  9
$CMLSCALE
 40
20.0
  9
$PROXYGRAPHICS
 70
     1
  9
$MEASUREMENT
 70
     1
  9
$CELWEIGHT
370
    -1
  9
$ENDCAPS
280
     0
  9
$JOINSTYLE
280
     0
  9
$LWDISPLAY
290
     0
  9
$INSUNITS
 70
     4
  9
$HYPERLINKBASE
  1

  9
$STYLESHEET
  1

  9
$XEDIT
290
     1
  9
$CEPSNTYPE
380
     0
  9
$PSTYLEMODE
290
     1
  9
$FINGERPRINTGUID
  2
{96BC4110-065C-4071-8E69-E78E297FF887}
  9
$VERSIONGUID
  2
{FAEB1C32-E019-11D5-929B-00C0DF256EC4}
  9
$EXTNAMES
290
     1
  9
$PSVPSCALE
 40
0.0
  9
$OLESTARTUP
290
     0
  0
ENDSEC
  0
SECTION
  2
CLASSES
  0
CLASS
  1
ACDBDICTIONARYWDFLT
  2
AcDbDictionaryWithDefault
  3
ObjectDBX Classes
 90
        0
280
     0
281
     0
  0
CLASS
  1
VISUALSTYLE
  2
AcDbVisualStyle
  3
ObjectDBX Classes
 90
     4095
280
     0
281
     0
  0
CLASS
  1
SCALE
  2
AcDbScale
  3
ObjectDBX Classes
 90
     1153
280
     0
281
     0
  0
CLASS
  1
DICTIONARYVAR
  2
AcDbDictionaryVar
  3
ObjectDBX Classes
 90
        0
280
     0
281
     0
  0
CLASS
  1
ACDBPLACEHOLDER
  2
AcDbPlaceHolder
  3
ObjectDBX Classes
 90
        0
280
     0
281
     0
  0
CLASS
  1
LAYOUT
  2
AcDbLayout
  3
ObjectDBX Classes
 90
        0
280
     0
281
     0
  0
ENDSEC
  0
SECTION
  2
TABLES
  0
TABLE
  2
VPORT
  5
8
330
0
100
AcDbSymbolTable
 70
     1
  0
VPORT
  5
29
330
8
100
AcDbSymbolTableRecord
100
AcDbViewportTableRecord
  2
*Active
 70
     0
 10
0.0
 20
0.0
 11
1.0
 21
1.0
 12
344.1869158879
 22
148.5
 13
0.0
 23
0.0
 14
10.0
 24
10.0
 15
10.0
 25
10.0
 16
0.0
 26
0.0
 36
1.0
 17
0.0
 27
0.0
 37
0.0
 40
297.0
 41
1.9729729729
 42
50.0
 43
0.0
 44
0.0
 50
0.0
 51
0.0
 71
     0
 72
   100
 73
     1
 74
     3
 75
     0
 76
     0
 77
     0
 78
     0
281
     0
 65
     1
110
0.0
120
0.0
130
0.0
111
1.0
121
0.0
131
0.0
112
0.0
122
1.0
132
0.0
 79
     0
146
0.0
  0
ENDTAB
  0
TABLE
  2
LTYPE
  5
5
330
0
100
AcDbSymbolTable
 70
     2
  0
LTYPE
  5
14
330
5
100
AcDbSymbolTableRecord
100
AcDbLinetypeTableRecord
  2
ByBlock
 70
     0
  3

 72
    65
 73
     0
 40
0.0
  0
LTYPE
  5
15
330
5
100
AcDbSymbolTableRecord
100
AcDbLinetypeTableRecord
  2
ByLayer
 70
     0
  3

 72
    65
 73
     0
 40
0.0
  0
LTYPE
  5
16
330
5
100
AcDbSymbolTableRecord
100
AcDbLinetypeTableRecord
  2
Continuous
 70
     0
  3
Solid line
 72
    65
 73
     0
 40
0.0
  0
LTYPE
  5
60
330
5
100
AcDbSymbolTableRecord
100
AcDbLinetypeTableRecord
  2
CENTER2
 70
     0
  3
Center (.5x) ___ _ ___ _ ___ _ ___ _ ___ _ ___
 72
    65
 73
     4
 40
28.575
 49
19.05
 74
     4
 75
     0
340
0
 46
0.0
 50
0.0
 44
0.0
 45
0.0
 49
-3.175
 74
     4
 75
     0
340
0
 46
0.0
 50
0.0
 44
0.0
 45
0.0
 49
3.175
 74
     4
 75
     0
340
0
 46
0.0
 50
0.0
 44
0.0
 45
0.0
 49
-3.175
 74
     4
 75
     0
340
0
 46
0.0
 50
0.0
 44
0.0
 45
0.0
  0
ENDTAB
  0
TABLE
  2
LAYER
  5
2
330
0
100
AcDbSymbolTable
 70
    16
  0
LAYER
  5
10
330
2
100
AcDbSymbolTableRecord
100
AcDbLayerTableRecord
  2
0
 70
     0
 62
     7
  6
Continuous
370
    -3
390
F
  0
LAYER
  5
5D
330
2
100
AcDbSymbolTableRecord
100
AcDbLayerTableRecord
  2
Default
 70
     0
 62
     7
  6
Continuous
370
    -3
390
F
  0
LAYER
  5
87
330
2
100
AcDbSymbolTableRecord
100
AcDbLayerTableRecord
  2
$DDT_AUDIT_GENERATED_(87)
 70
     0
 62
     7
  6
Continuous
370
    -3
390
F
  0
LAYER
  5
96
330
2
100
AcDbSymbolTableRecord
100
AcDbLayerTableRecord
  2
$DDT_AUDIT_GENERATED_(96)
 70
     0
 62
     7
  6
Continuous
370
    -3
390
F
  0
LAYER
  5
A1
330
2
100
AcDbSymbolTableRecord
100
AcDbLayerTableRecord
  2
$DDT_AUDIT_GENERATED_(A1)
 70
     0
 62
     7
  6
Continuous
370
    -3
390
F
  0
LAYER
  5
A7
330
2
100
AcDbSymbolTableRecord
100
AcDbLayerTableRecord
  2
09421031_AUSL_RO
 70
     0
 62
     7
  6
Continuous
370
    -3
390
F
  0
LAYER
  5
B1
330
2
100
AcDbSymbolTableRecord
100
AcDbLayerTableRecord
  2
$DDT_AUDIT_GENERATED_(B1)
 70
     0
 62
     7
  6
Continuous
370
    -3
390
F
  0
LAYER
  5
BC
330
2
100
AcDbSymbolTableRecord
100
AcDbLayerTableRecord
  2
$DDT_AUDIT_GENERATED_(BC)
 70
     0
 62
     7
  6
Continuous
370
    -3
390
F
  0
LAYER
  5
195
330
2
100
AcDbSymbolTableRecord
100
AcDbLayerTableRecord
  2
$DDT_AUDIT_GENERATED_(195)
 70
     0
 62
     7
  6
Continuous
370
    -3
390
F
  0
LAYER
  5
197
330
2
100
AcDbSymbolTableRecord
100
AcDbLayerTableRecord
  2
$DDT_AUDIT_GENERATED_(197)
 70
     0
 62
     7
  6
Continuous
370
    -3
390
F
  0
LAYER
  5
1B0
330
2
100
AcDbSymbolTableRecord
100
AcDbLayerTableRecord
  2
$DDT_AUDIT_GENERATED_(1B0)
 70
     0
 62
     7
  6
Continuous
370
    -3
390
F
  0
LAYER
  5
1BD
330
2
100
AcDbSymbolTableRecord
100
AcDbLayerTableRecord
  2
$DDT_AUDIT_GENERATED_(1BD)
 70
     0
 62
     7
  6
Continuous
370
    -3
390
F
  0
LAYER
  5
1D8
330
2
100
AcDbSymbolTableRecord
100
AcDbLayerTableRecord
  2
$DDT_AUDIT_GENERATED_(1D8)
 70
     0
 62
     7
  6
Continuous
370
    -3
390
F
  0
LAYER
  5
1DB
330
2
100
AcDbSymbolTableRecord
100
AcDbLayerTableRecord
  2
$DDT_AUDIT_GENERATED_(1DB)
 70
     0
 62
     7
  6
Continuous
370
    -3
390
F
  0
LAYER
  5
1E3
330
2
100
AcDbSymbolTableRecord
100
AcDbLayerTableRecord
  2
$DDT_AUDIT_GENERATED_(1E3)
 70
     0
 62
     7
  6
Continuous
370
    -3
390
F
  0
LAYER
  5
1EA
330
2
100
AcDbSymbolTableRecord
100
AcDbLayerTableRecord
  2
09422131_NIPPEL_
 70
     0
 62
     7
  6
Continuous
370
    -3
390
F
  0
ENDTAB
  0
TABLE
  2
STYLE
  5
3
330
0
100
AcDbSymbolTable
 70
     2
  0
STYLE
  5
11
330
3
100
AcDbSymbolTableRecord
100
AcDbTextStyleTableRecord
  2
Standard
 70
     0
 40
0.0
 41
1.0
 50
0.0
 71
     0
 42
2.5
  3
txt
  4

  0
STYLE
  5
29A
330
3
100
AcDbSymbolTableRecord
100
AcDbTextStyleTableRecord
  2
SEACAD_seiso_ttf
 70
     0
 40
0.0
 41
1.0
 50
0.0
 71
     0
 42
0.2
  3
seiso.ttf
  4

  0
ENDTAB
  0
TABLE
  2
VIEW
  5
6
330
0
100
AcDbSymbolTable
 70
     0
  0
ENDTAB
  0
TABLE
  2
UCS
  5
7
330
0
100
AcDbSymbolTable
 70
     0
  0
ENDTAB
  0
TABLE
  2
APPID
  5
9
330
0
100
AcDbSymbolTable
 70
     1
  0
APPID
  5
12
330
9
100
AcDbSymbolTableRecord
100
AcDbRegAppTableRecord
  2
ACAD
 70
     0
  0
ENDTAB
  0
TABLE
  2
DIMSTYLE
  5
A
330
0
100
AcDbSymbolTable
 70
     1
100
AcDbDimStyleTable
  0
DIMSTYLE
105
27
330
A
100
AcDbSymbolTableRecord
100
AcDbDimStyleTableRecord
  2
ISO-25
 70
     0
 41
2.5
 42
0.625
 43
3.75
 44
1.25
 73
     0
 74
     0
 77
     1
 78
     8
140
2.5
141
2.5
143
0.0393700787
147
0.625
171
     3
172
     1
271
     2
272
     2
274
     3
278
    44
283
     0
284
     8
340
11
  0
ENDTAB
  0
TABLE
  2
BLOCK_RECORD
  5
1
330
0
100
AcDbSymbolTable
 70
     9
  0
BLOCK_RECORD
  5
1F
330
1
100
AcDbSymbolTableRecord
100
AcDbBlockTableRecord
  2
*Model_Space
340
22
  0
BLOCK_RECORD
  5
1B
330
1
100
AcDbSymbolTableRecord
100
AcDbBlockTableRecord
  2
*Paper_Space
340
1E
  0
BLOCK_RECORD
  5
5E
330
1
100
AcDbSymbolTableRecord
100
AcDbBlockTableRecord
  2
SEANNOT_GROUP
340
0
102
{BLKREFS
331
5F
102
}
  0
BLOCK_RECORD
  5
69
330
1
100
AcDbSymbolTableRecord
100
AcDbBlockTableRecord
  2
SEANNOT_GROUP1
340
0
102
{BLKREFS
331
6A
102
}
  0
BLOCK_RECORD
  5
73
330
1
100
AcDbSymbolTableRecord
100
AcDbBlockTableRecord
  2
SEANNOT_GROUP2
340
0
102
{BLKREFS
331
74
102
}
  0
BLOCK_RECORD
  5
79
330
1
100
AcDbSymbolTableRecord
100
AcDbBlockTableRecord
  2
SEANNOT_GROUP3
340
0
102
{BLKREFS
331
7A
102
}
  0
BLOCK_RECORD
  5
7F
330
1
100
AcDbSymbolTableRecord
100
AcDbBlockTableRecord
  2
SEANNOT_GROUP4
340
0
102
{BLKREFS
331
80
102
}
  0
BLOCK_RECORD
  5
85
330
1
100
AcDbSymbolTableRecord
100
AcDbBlockTableRecord
  2
SE
340
0
102
{BLKREFS
331
86
102
}
  0
BLOCK_RECORD
  5
16E
330
1
100
AcDbSymbolTableRecord
100
AcDbBlockTableRecord
  2
SE1
340
0
102
{BLKREFS
331
16F
102
}
  0
BLOCK_RECORD
  5
20A
330
1
100
AcDbSymbolTableRecord
100
AcDbBlockTableRecord
  2
SE2
340
0
102
{BLKREFS
331
20B
102
}
  0
ENDTAB
  0
ENDSEC
  0
SECTION
  2
BLOCKS
  0
BLOCK
  5
20
330
1F
100
AcDbEntity
  8
0
100
AcDbBlockBegin
  2
*Model_Space
 70
     0
 10
0.0
 20
0.0
 30
0.0
  3
*Model_Space
  1

  0
ENDBLK
  5
21
330
1F
100
AcDbEntity
  8
0
100
AcDbBlockEnd
  0
BLOCK
  5
1C
330
1B
100
AcDbEntity
 67
     1
  8
0
100
AcDbBlockBegin
  2
*Paper_Space
 70
     0
 10
0.0
 20
0.0
 30
0.0
  3
*Paper_Space
  1

  0
ENDBLK
  5
1D
330
1B
100
AcDbEntity
 67
     1
  8
0
100
AcDbBlockEnd
  0
BLOCK
  5
67
330
5E
100
AcDbEntity
  8
0
100
AcDbBlockBegin
  2
SEANNOT_GROUP
 70
     0
 10
0.0
 20
0.0
 30
0.0
  3
SEANNOT_GROUP
  1

  0
LINE
  5
61
330
5E
100
AcDbEntity
  8
Default
  6
CENTER2
 62
     7
100
AcDbLine
 10
211.349999553
 20
665.2983110734
 30
0.0
 11
171.350000447
 21
665.2983110734
 31
0.0
  0
LINE
  5
62
330
5E
100
AcDbEntity
  8
Default
  6
CENTER2
 62
     7
100
AcDbLine
 10
191.35
 20
685.2983106264
 30
0.0
 11
191.35
 21
645.2983115205
 31
0.0
  0
LINE
  5
63
330
5E
100
AcDbEntity
  8
Default
  6
CENTER2
 62
     7
100
AcDbLine
 10
216.3499994412
 20
665.2983110734
 30
0.0
 11
229.85
 21
665.2983110734
 31
0.0
  0
LINE
  5
64
330
5E
100
AcDbEntity
  8
Default
  6
CENTER2
 62
     7
100
AcDbLine
 10
191.35
 20
690.2983105146
 30
0.0
 11
191.35
 21
703.7983110734
 31
0.0
  0
LINE
  5
65
330
5E
100
AcDbEntity
  8
Default
  6
CENTER2
 62
     7
100
AcDbLine
 10
166.3500005588
 20
665.2983110734
 30
0.0
 11
152.85
 21
665.2983110734
 31
0.0
  0
LINE
  5
66
330
5E
100
AcDbEntity
  8
Default
  6
CENTER2
 62
     7
100
AcDbLine
 10
191.35
 20
640.2983116322
 30
0.0
 11
191.35
 21
626.7983110734
 31
0.0
  0
ENDBLK
  5
68
330
5E
100
AcDbEntity
  8
0
100
AcDbBlockEnd
  0
BLOCK
  5
71
330
69
100
AcDbEntity
  8
0
100
AcDbBlockBegin
  2
SEANNOT_GROUP1
 70
     0
 10
0.0
 20
0.0
 30
0.0
  3
SEANNOT_GROUP1
  1

  0
LINE
  5
6B
330
69
100
AcDbEntity
  8
Default
  6
CENTER2
 62
     7
100
AcDbLine
 10
61.349999553
 20
665.2983110734
 30
0.0
 11
21.350000447
 21
665.2983110734
 31
0.0
  0
LINE
  5
6C
330
69
100
AcDbEntity
  8
Default
  6
CENTER2
 62
     7
100
AcDbLine
 10
41.35
 20
685.2983106264
 30
0.0
 11
41.35
 21
645.2983115205
 31
0.0
  0
LINE
  5
6D
330
69
100
AcDbEntity
  8
Default
  6
CENTER2
 62
     7
100
AcDbLine
 10
66.3499994412
 20
665.2983110734
 30
0.0
 11
79.85
 21
665.2983110734
 31
0.0
  0
LINE
  5
6E
330
69
100
AcDbEntity
  8
Default
  6
CENTER2
 62
     7
100
AcDbLine
 10
41.35
 20
690.2983105146
 30
0.0
 11
41.35
 21
703.7983110734
 31
0.0
  0
LINE
  5
6F
330
69
100
AcDbEntity
  8
Default
  6
CENTER2
 62
     7
100
AcDbLine
 10
16.3500005588
 20
665.2983110734
 30
0.0
 11
2.85
 21
665.2983110734
 31
0.0
  0
LINE
  5
70
330
69
100
AcDbEntity
  8
Default
  6
CENTER2
 62
     7
100
AcDbLine
 10
41.35
 20
640.2983116322
 30
0.0
 11
41.35
 21
626.7983110734
 31
0.0
  0
ENDBLK
  5
72
330
69
100
AcDbEntity
  8
0
100
AcDbBlockEnd
  0
BLOCK
  5
77
330
73
100
AcDbEntity
  8
0
100
AcDbBlockBegin
  2
SEANNOT_GROUP2
 70
     0
 10
0.0
 20
0.0
 30
0.0
  3
SEANNOT_GROUP2
  1

  0
LINE
  5
75
330
73
100
AcDbEntity
  8
Default
  6
CENTER2
 62
     7
100
AcDbLine
 10
61.349999553
 20
389.4348182661
 30
0.0
 11
21.350000447
 21
389.4348182661
 31
0.0
  0
LINE
  5
76
330
73
100
AcDbEntity
  8
Default
  6
CENTER2
 62
     7
100
AcDbLine
 10
41.35
 20
409.4348178191
 30
0.0
 11
41.35
 21
369.4348187132
 31
0.0
  0
ENDBLK
  5
78
330
73
100
AcDbEntity
  8
0
100
AcDbBlockEnd
  0
BLOCK
  5
7D
330
79
100
AcDbEntity
  8
0
100
AcDbBlockBegin
  2
SEANNOT_GROUP3
 70
     0
 10
0.0
 20
0.0
 30
0.0
  3
SEANNOT_GROUP3
  1

  0
LINE
  5
7B
330
79
100
AcDbEntity
  8
Default
  6
CENTER2
 62
     7
100
AcDbLine
 10
211.349999553
 20
389.4348182661
 30
0.0
 11
171.350000447
 21
389.4348182661
 31
0.0
  0
LINE
  5
7C
330
79
100
AcDbEntity
  8
Default
  6
CENTER2
 62
     7
100
AcDbLine
 10
191.35
 20
409.4348178191
 30
0.0
 11
191.35
 21
369.4348187132
 31
0.0
  0
ENDBLK
  5
7E
330
79
100
AcDbEntity
  8
0
100
AcDbBlockEnd
  0
BLOCK
  5
83
330
7F
100
AcDbEntity
  8
0
100
AcDbBlockBegin
  2
SEANNOT_GROUP4
 70
     0
 10
0.0
 20
0.0
 30
0.0
  3
SEANNOT_GROUP4
  1

  0
LINE
  5
81
330
7F
100
AcDbEntity
  8
Default
  6
CENTER2
 62
     7
100
AcDbLine
 10
328.8707239882
 20
665.2983110734
 30
0.0
 11
288.8707248823
 21
665.2983110734
 31
0.0
  0
LINE
  5
82
330
7F
100
AcDbEntity
  8
Default
  6
CENTER2
 62
     7
100
AcDbLine
 10
308.8707244353
 20
685.2983106264
 30
0.0
 11
308.8707244353
 21
645.2983115205
 31
0.0
  0
ENDBLK
  5
84
330
7F
100
AcDbEntity
  8
0
100
AcDbBlockEnd
  0
BLOCK
  5
16C
330
85
100
AcDbEntity
  8
0
100
AcDbBlockBegin
  2
SE
 70
     0
 10
0.0
 20
0.0
 30
0.0
  3
SE
  1

  0
ARC
  5
88
330
85
100
AcDbEntity
  8
$DDT_AUDIT_GENERATED_(87)
  6
Continuous
 62
     7
100
AcDbCircle
 10
93.7056194584
 20
2103.6611113852
 30
0.0
 40
1461.871710927743
100
AcDbArc
 50
272.4187513844
 51
274.7699472573
  0
ARC
  5
89
330
85
100
AcDbEntity
  8
$DDT_AUDIT_GENERATED_(87)
  6
Continuous
 62
     7
100
AcDbCircle
 10
155.7172641143
 20
635.0980983759
 30
0.0
 40
7.999999999999964
100
AcDbArc
 50
92.2695229441
 51
151.2545158688
  0
ARC
  5
8A
330
85
100
AcDbEntity
  8
$DDT_AUDIT_GENERATED_(87)
  6
Continuous
 62
     7
100
AcDbCircle
 10
116.5502983219
 20
656.5770668429
 30
0.0
 40
36.66987015397395
100
AcDbArc
 50
295.7700729271
 51
331.2610213666
  0
ARC
  5
8B
330
85
100
AcDbEntity
  8
$DDT_AUDIT_GENERATED_(87)
  6
Continuous
 62
     7
100
AcDbCircle
 10
76.982735889
 20
635.0980983697
 30
0.0
 40
8.000000000000027
100
AcDbArc
 50
28.7454841399
 51
87.7304770641
  0
ARC
  5
8C
330
85
100
AcDbEntity
  8
$DDT_AUDIT_GENERATED_(87)
  6
Continuous
 62
     7
100
AcDbCircle
 10
144.8476140728
 20
2196.8408987891
 30
0.0
 40
1555.216683462164
100
AcDbArc
 50
265.3006717029
 51
267.5106764463
  0
ARC
  5
8D
330
85
100
AcDbEntity
  8
$DDT_AUDIT_GENERATED_(87)
  6
Continuous
 62
     7
100
AcDbCircle
 10
117.0995914815
 20
-472.4409248793
 30
0.0
 40
1157.6057329743
100
AcDbArc
 50
86.9667341728
 51
95.3281943531
  0
ARC
  5
8E
330
85
100
AcDbEntity
  8
$DDT_AUDIT_GENERATED_(87)
  6
Continuous
 62
     7
100
AcDbCircle
 10
119.1836477372
 20
-399.4437098091
 30
0.0
 40
1084.595929090622
100
AcDbArc
 50
84.5022638577
 51
90.149694895
  0
ARC
  5
8F
330
85
100
AcDbEntity
  8
$DDT_AUDIT_GENERATED_(87)
  6
Continuous
 62
     7
100
AcDbCircle
 10
116.1697420884
 20
656.6019413872
 30
0.0
 40
36.69940417239638
100
AcDbArc
 50
208.757985924
 51
244.2299915901
  0
ARC
  5
90
330
85
100
AcDbEntity
  8
$DDT_AUDIT_GENERATED_(87)
  6
Continuous
 62
     7
100
AcDbCircle
 10
9.621923188
 20
679.687251318
 30
0.0
 40
0.4701084122425759
100
AcDbArc
 50
114.319924189
 51
182.6547921167
  0
ARC
  5
91
330
85
100
AcDbEntity
  8
$DDT_AUDIT_GENERATED_(87)
  6
Continuous
 62
     7
100
AcDbCircle
 10
18.1501696812
 20
655.8237384604
 30
0.0
 40
8.999992027246112
100
AcDbArc
 50
180.000508136
 51
265.4241572525
  0
ARC
  5
92
330
85
100
AcDbEntity
  8
$DDT_AUDIT_GENERATED_(87)
  6
Continuous
 62
     7
100
AcDbCircle
 10
223.0940570374
 20
679.6630614248
 30
0.0
 40
0.498258729955147
100
AcDbArc
 50
1.4620193715
 51
75.4397893259
  0
ARC
  5
93
330
85
100
AcDbEntity
  8
$DDT_AUDIT_GENERATED_(87)
  6
Continuous
 62
     7
100
AcDbCircle
 10
214.5728951595
 20
655.7924718288
 30
0.0
 40
8.966702141782168
100
AcDbArc
 50
275.5137411163
 51
0.1975524125
  0
LINE
  5
94
330
85
100
AcDbEntity
  8
$DDT_AUDIT_GENERATED_(87)
  6
Continuous
 62
     7
100
AcDbLine
 10
223.5475929229
 20
655.8227115008
 30
0.0
 11
223.5475928464
 21
679.6659423206
 31
0.0
  0
LINE
  5
95
330
85
100
AcDbEntity
  8
$DDT_AUDIT_GENERATED_(87)
  6
Continuous
 62
     7
100
AcDbLine
 10
9.1501130446
 20
679.6661092079
 30
0.0
 11
9.1501131226
 21
655.8217857647
 31
0.0
  0
ARC
  5
97
330
85
100
AcDbEntity
  8
$DDT_AUDIT_GENERATED_(96)
  6
Continuous
 62
     7
100
AcDbCircle
 10
140.466443187
 20
633.2966065936
 30
0.0
 40
7.984673414745564
100
AcDbArc
 50
135.3343213702
 51
179.8983758638
  0
ARC
  5
98
330
85
100
AcDbEntity
  8
$DDT_AUDIT_GENERATED_(96)
  6
Continuous
 62
     7
100
AcDbCircle
 10
92.2332114729
 20
633.2964610755
 30
0.0
 40
7.985026580187437
100
AcDbArc
 50
0.1026642955
 51
44.6646408872
  0
SPLINE
  5
99
330
85
100
AcDbEntity
  8
$DDT_AUDIT_GENERATED_(96)
  6
Continuous
 62
     7
100
AcDbSpline
210
0.0
220
0.0
230
1.0
 70
     8
 71
     3
 72
     8
 73
     4
 74
     0
 42
0.0000000000594807
 43
0.0000000001
 40
0.0
 40
0.0
 40
0.0
 40
0.0
 40
0.1833356693560149
 40
0.1833356693560149
 40
0.1833356693560149
 40
0.1833356693560149
 10
100.2182252345289
 20
633.310768877829
 30
0.0
 10
100.2284544176127
 20
623.0541280761171
 30
0.0
 10
100.2524432513978
 20
612.7796990376966
 30
0.0
 10
100.2494310736513
 20
602.4881033465255
 30
0.0
  0
SPLINE
  5
9A
330
85
100
AcDbEntity
  8
$DDT_AUDIT_GENERATED_(96)
  6
Continuous
 62
     7
100
AcDbSpline
210
0.0
220
0.0
230
1.0
 70
     8
 71
     3
 72
    30
 73
    26
 74
     0
 42
0.000000000059022
 43
0.0000000001
 40
0.3262746953024491
 40
0.3262746953024491
 40
0.3262746953024491
 40
0.3262746953024491
 40
0.3437499999999993
 40
0.3437499999999993
 40
0.3749999999999992
 40
0.3749999999999992
 40
0.4062499999999992
 40
0.4062499999999992
 40
0.4374999999999992
 40
0.4374999999999992
 40
0.4687499999999992
 40
0.4687499999999992
 40
0.4999999999999992
 40
0.4999999999999992
 40
0.5312499999999992
 40
0.5312499999999992
 40
0.5624999999999992
 40
0.5624999999999992
 40
0.5937499999999991
 40
0.5937499999999991
 40
0.6249999999999991
 40
0.6249999999999991
 40
0.656249999999999
 40
0.656249999999999
 40
0.6729662537695943
 40
0.6729662537695943
 40
0.6729662537695943
 40
0.6729662537695943
 10
100.1801366391099
 20
578.3863585831032
 30
0.0
 10
100.1796390474827
 20
577.4029230606216
 30
0.0
 10
100.1854273412316
 20
576.4196711740939
 30
0.0
 10
100.2467706122726
 20
573.6812518355118
 30
0.0
 10
100.3407979924573
 20
571.9153516888184
 30
0.0
 10
101.2029132758208
 20
568.4841471421884
 30
0.0
 10
101.9564938701389
 20
566.884854261277
 30
0.0
 10
103.9799076244897
 20
563.9876625905639
 30
0.0
 10
105.2215269184057
 20
562.7180221811152
 30
0.0
 10
108.0337437244067
 20
560.591528269292
 30
0.0
 10
109.5868289507224
 20
559.7476843079634
 30
0.0
 10
112.9226266213972
 20
558.5843006447593
 30
0.0
 10
114.6423394056275
 20
558.2845210866556
 30
0.0
 10
118.1949646762576
 20
558.3006662329606
 30
0.0
 10
119.9186492782067
 20
558.6165640194966
 30
0.0
 10
123.2606858820082
 20
559.8176684734797
 30
0.0
 10
124.7965223198471
 20
560.6702204760528
 30
0.0
 10
127.605515624423
 20
562.8357879516537
 30
0.0
 10
128.8170566077248
 20
564.0985820287591
 30
0.0
 10
130.8162953987873
 20
567.0195462204592
 30
0.0
 10
131.5474819237963
 20
568.6187770018572
 30
0.0
 10
132.3733572306671
 20
572.0421992641524
 30
0.0
 10
132.4592958021675
 20
573.819736038686
 30
0.0
 10
132.5148837198885
 20
576.5113040397777
 30
0.0
 10
132.520238913373
 20
577.4496307114006
 30
0.0
 10
132.5198513246088
 20
578.3879744989559
 30
0.0
  0
SPLINE
  5
9B
330
85
100
AcDbEntity
  8
$DDT_AUDIT_GENERATED_(96)
  6
Continuous
 62
     7
100
AcDbSpline
210
0.0
220
0.0
230
1.0
 70
     8
 71
     3
 72
     8
 73
     4
 74
     0
 42
0.0000000000596195
 43
0.0000000001
 40
0.8161427870125725
 40
0.8161427870125725
 40
0.8161427870125725
 40
0.8161427870125725
 40
1.0
 40
1.0
 40
1.0
 40
1.0
 10
132.4506113099822
 20
602.4723561833487
 30
0.0
 10
132.4475803122921
 20
612.7689379157168
 30
0.0
 10
132.471547567979
 20
623.0489578398334
 30
0.0
 10
132.4817823318809
 20
633.3107688079753
 30
0.0
  0
SPLINE
  5
9C
330
85
100
AcDbEntity
  8
$DDT_AUDIT_GENERATED_(96)
  6
Continuous
 62
     7
100
AcDbSpline
210
0.0
220
0.0
230
1.0
 70
     8
 71
     3
 72
    38
 73
    34
 74
     0
 42
0.0000000000594566
 43
0.0000000001
 40
0.0
 40
0.0
 40
0.0
 40
0.0
 40
0.2499999999999998
 40
0.2499999999999998
 40
0.3125
 40
0.3125
 40
0.34375
 40
0.34375
 40
0.3749999999999999
 40
0.3749999999999999
 40
0.4062499999999999
 40
0.4062499999999999
 40
0.4374999999999999
 40
0.4374999999999999
 40
0.4687499999999999
 40
0.4687499999999999
 40
0.4999999999999999
 40
0.4999999999999999
 40
0.5312499999999999
 40
0.5312499999999999
 40
0.5624999999999999
 40
0.5624999999999999
 40
0.5937499999999998
 40
0.5937499999999998
 40
0.6249999999999998
 40
0.6249999999999998
 40
0.6562499999999998
 40
0.6562499999999998
 40
0.6874999999999998
 40
0.6874999999999998
 40
0.7499999999999996
 40
0.7499999999999996
 40
1.0
 40
1.0
 40
1.0
 40
1.0
 10
132.4815462200039
 20
633.4090773160507
 30
0.0
 10
132.4675161740068
 20
619.4482645718822
 30
0.0
 10
132.4280377566234
 20
605.4574155434838
 30
0.0
 10
132.4767032787927
 20
587.9185835090746
 30
0.0
 10
132.4977637822979
 20
584.4082873287491
 30
0.0
 10
132.5196854231311
 20
579.1387948390889
 30
0.0
 10
132.532542725487
 20
577.3799002112332
 30
0.0
 10
132.4462992579479
 20
573.8693630517976
 30
0.0
 10
132.343490055735
 20
572.1118546427664
 30
0.0
 10
131.4572531385124
 20
568.6881207690456
 30
0.0
 10
130.6956282761923
 20
567.1008207942638
 30
0.0
 10
128.6612559775024
 20
564.2204144235989
 30
0.0
 10
127.417525358459
 20
562.960044373823
 30
0.0
 10
124.6049843225451
 20
560.8507106399001
 30
0.0
 10
123.0552451501836
 20
560.0153039576969
 30
0.0
 10
119.7241154264206
 20
558.8642790869305
 30
0.0
 10
118.0088065184391
 20
558.5699831706806
 30
0.0
 10
114.469443488435
 20
558.5961026463264
 30
0.0
 10
112.7487900850744
 20
558.9170182674543
 30
0.0
 10
109.4214574863574
 20
560.1219197126275
 30
0.0
 10
107.8913140811299
 20
560.9741406173403
 30
0.0
 10
105.0907130636178
 20
563.1376411135876
 30
0.0
 10
103.8835993785315
 20
564.3978219525394
 30
0.0
 10
101.8923561137503
 20
567.3075758315172
 30
0.0
 10
101.1608503042897
 20
568.906137450105
 30
0.0
 10
100.3326637320515
 20
572.316125354146
 30
0.0
 10
100.2427420624098
 20
574.0921481918259
 30
0.0
 10
100.1685161334923
 20
577.5902576331998
 30
0.0
 10
100.1807774279252
 20
579.3400444106001
 30
0.0
 10
100.2036685199492
 20
584.5884253161486
 30
0.0
 10
100.2239563494407
 20
588.0871018470505
 30
0.0
 10
100.271498485174
 20
605.567476654328
 30
0.0
 10
100.2324331024489
 20
619.5055026956553
 30
0.0
 10
100.2184613406253
 20
633.4090764707818
 30
0.0
  0
ARC
  5
9D
330
85
100
AcDbEntity
  8
$DDT_AUDIT_GENERATED_(96)
  6
Continuous
 62
     7
100
AcDbCircle
 10
116.3504762001
 20
657.4770186036
 30
0.0
 40
26.97643720485066
100
AcDbArc
 50
0.0
 51
231.596204551
  0
ARC
  5
9E
330
85
100
AcDbEntity
  8
$DDT_AUDIT_GENERATED_(96)
  6
Continuous
 62
     7
100
AcDbCircle
 10
116.3504762001
 20
657.4770186036
 30
0.0
 40
26.97643720485066
100
AcDbArc
 50
308.4432183139
 51
0.0
  0
LINE
  5
9F
330
85
100
AcDbEntity
  8
$DDT_AUDIT_GENERATED_(96)
  6
Continuous
 62
     7
100
AcDbLine
 10
100.1820722162
 20
578.7070582642
 30
0.0
 11
100.1820722127
 21
578.386363868
 31
0.0
  0
LINE
  5
A0
330
85
100
AcDbEntity
  8
$DDT_AUDIT_GENERATED_(96)
  6
Continuous
 62
     7
100
AcDbLine
 10
132.5179190592
 20
578.3879698551
 30
0.0
 11
132.5179190627
 21
578.7068544132
 31
0.0
  0
ARC
  5
A2
330
85
100
AcDbEntity
  8
$DDT_AUDIT_GENERATED_(A1)
  6
Continuous
 62
     7
100
AcDbCircle
 10
41.35
 20
665.2983110734
 30
0.0
 40
35.0
100
AcDbArc
 50
156.9256097489
 51
321.4442812413
  0
ARC
  5
A3
330
85
100
AcDbEntity
  8
$DDT_AUDIT_GENERATED_(A1)
  6
Continuous
 62
     7
100
AcDbCircle
 10
41.35
 20
665.2983110734
 30
0.0
 40
35.0
100
AcDbArc
 50
32.9623035476
 51
154.827803656
  0
ARC
  5
A4
330
85
100
AcDbEntity
  8
$DDT_AUDIT_GENERATED_(A1)
  6
Continuous
 62
     7
100
AcDbCircle
 10
191.35
 20
665.2983110734
 30
0.0
 40
35.0
100
AcDbArc
 50
218.5903399218
 51
0.0
  0
ARC
  5
A5
330
85
100
AcDbEntity
  8
$DDT_AUDIT_GENERATED_(A1)
  6
Continuous
 62
     7
100
AcDbCircle
 10
191.35
 20
665.2983110734
 30
0.0
 40
35.0
100
AcDbArc
 50
25.1416943433
 51
147.0863243819
  0
ARC
  5
A6
330
85
100
AcDbEntity
  8
$DDT_AUDIT_GENERATED_(A1)
  6
Continuous
 62
     7
100
AcDbCircle
 10
191.35
 20
665.2983110734
 30
0.0
 40
35.0
100
AcDbArc
 50
0.0
 51
22.8914030996
  0
ARC
  5
A8
330
85
100
AcDbEntity
  8
09421031_AUSL_RO
  6
Continuous
 62
     7
100
AcDbCircle
 10
116.35
 20
536.3983110734
 30
0.0
 40
12.0
100
AcDbArc
 50
0.0
 51
180.0
  0
LINE
  5
A9
330
85
100
AcDbEntity
  8
09421031_AUSL_RO
  6
Continuous
 62
     7
100
AcDbLine
 10
104.35
 20
536.3983110734
 30
0.0
 11
104.35
 21
495.0807199568
 31
0.0
  0
LINE
  5
AA
330
85
100
AcDbEntity
  8
09421031_AUSL_RO
  6
Continuous
 62
     7
100
AcDbLine
 10
128.35
 20
495.0807199568
 30
0.0
 11
128.35
 21
536.3983110734
 31
0.0
  0
LINE
  5
AB
330
85
100
AcDbEntity
  8
09421031_AUSL_RO
  6
Continuous
 62
     7
100
AcDbLine
 10
104.35
 20
563.7449781594
 30
0.0
 11
104.35
 21
536.3983110734
 31
0.0
  0
LINE
  5
AC
330
85
100
AcDbEntity
  8
09421031_AUSL_RO
  6
Continuous
 62
     7
100
AcDbLine
 10
128.35
 20
536.3983110734
 30
0.0
 11
128.35
 21
563.7236423058
 31
0.0
  0
LINE
  5
AD
330
85
100
AcDbEntity
  8
09421031_AUSL_RO
  6
Continuous
 62
     7
100
AcDbLine
 10
104.35
 20
495.0807199568
 30
0.0
 11
104.35
 21
492.2226744426
 31
0.0
  0
LINE
  5
AE
330
85
100
AcDbEntity
  8
09421031_AUSL_RO
  6
Continuous
 62
     7
100
AcDbLine
 10
128.35
 20
492.2226744426
 30
0.0
 11
128.35
 21
495.0807199568
 31
0.0
  0
SPLINE
  5
AF
330
85
100
AcDbEntity
  8
09421031_AUSL_RO
  6
Continuous
 62
     7
100
AcDbSpline
210
0.0
220
0.0
230
1.0
 70
     8
 71
     3
 72
    12
 73
     8
 74
     0
 42
0.000000003066549
 43
0.0000000001
 40
0.0
 40
0.0
 40
0.0
 40
0.0
 40
0.0978597080578587
 40
0.2434820531990477
 40
0.3876799462400963
 40
0.5431975649170872
 40
0.5710717939425288
 40
0.5710717939425288
 40
0.5710717939425288
 40
0.5710717939425288
 10
104.3705564872736
 20
492.2142036622377
 30
0.0
 10
104.3691747785033
 20
492.0828060013841
 30
0.0
 10
104.3685786050398
 20
491.8065680482263
 30
0.0
 10
104.5420593699168
 20
491.3648388894379
 30
0.0
 10
104.8081134060158
 20
490.9737716713028
 30
0.0
 10
105.0359691870326
 20
490.7562840269007
 30
0.0
 10
105.1668562342506
 20
490.6527667196156
 30
0.0
 10
105.1868257530823
 20
490.6374116103628
 30
0.0
  0
SPLINE
  5
B0
330
85
100
AcDbEntity
  8
09421031_AUSL_RO
  6
Continuous
 62
     7
100
AcDbSpline
210
0.0
220
0.0
230
1.0
 70
     8
 71
     3
 72
    12
 73
     8
 74
     0
 42
0.0000000029775254
 43
0.0000000001
 40
0.5302635336211001
 40
0.5302635336211001
 40
0.5302635336211001
 40
0.5302635336211001
 40
0.5406812791810036
 40
0.697720947107952
 40
0.8451350904040495
 40
0.989388303543994
 40
1.0
 40
1.0
 40
1.0
 40
1.0
 10
127.7424543788901
 20
490.836857298525
 30
0.0
 10
127.7495743623424
 20
490.843842159678
 30
0.0
 10
127.8637885953181
 20
490.9572811750132
 30
0.0
 10
128.0713598918575
 20
491.2068967369217
 30
0.0
 10
128.2788662909157
 20
491.6630332642082
 30
0.0
 10
128.3716569823952
 20
492.0438248165514
 30
0.0
 10
128.3466784215966
 20
492.2170573358405
 30
0.0
 10
128.3446765259633
 20
492.2308491301762
 30
0.0
  0
ELLIPSE
  5
B2
330
85
100
AcDbEntity
  8
$DDT_AUDIT_GENERATED_(B1)
  6
Continuous
 62
     7
100
AcDbEllipse
 10
116.35
 20
474.0882141608
 30
0.0
 11
-10.5
 21
0.0
 31
0.0
210
0.0
220
0.0
230
1.0
 40
0.1736481777
 41
0.0
 42
0.7305796395331968
  0
ELLIPSE
  5
B3
330
85
100
AcDbEntity
  8
$DDT_AUDIT_GENERATED_(B1)
  6
Continuous
 62
     7
100
AcDbEllipse
 10
116.35
 20
474.0882141608
 30
0.0
 11
-10.5
 21
0.0
 31
0.0
210
0.0
220
0.0
230
1.0
 40
0.1736481777
 41
2.411013014056596
 42
6.283185307179586
  0
ELLIPSE
  5
B4
330
85
100
AcDbEntity
  8
$DDT_AUDIT_GENERATED_(B1)
  6
Continuous
 62
     7
100
AcDbEllipse
 10
116.35
 20
474.0882141608
 30
0.0
 11
10.05
 21
0.0
 31
0.0
210
0.0
220
0.0
230
1.0
 40
0.1736481777
 41
5.739952595214232
 42
6.283185307179586
  0
ELLIPSE
  5
B5
330
85
100
AcDbEntity
  8
$DDT_AUDIT_GENERATED_(B1)
  6
Continuous
 62
     7
100
AcDbEllipse
 10
116.35
 20
474.0882141608
 30
0.0
 11
10.05
 21
0.0
 31
0.0
210
0.0
220
0.0
230
1.0
 40
0.1736481777
 41
0.0
 42
3.684825365555144
  0
ELLIPSE
  5
B6
330
85
100
AcDbEntity
  8
$DDT_AUDIT_GENERATED_(B1)
  6
Continuous
 62
     7
100
AcDbEllipse
 10
116.35
 20
490.682224799
 30
0.0
 11
-11.49999999999999
 21
0.0
 31
0.0
210
0.0
220
0.0
230
1.0
 40
0.1736481777
 41
3.141592653589793
 42
6.283185307179586
  0
ELLIPSE
  5
B7
330
85
100
AcDbEntity
  8
$DDT_AUDIT_GENERATED_(B1)
  6
Continuous
 62
     7
100
AcDbEllipse
 10
116.35
 20
490.829945962
 30
0.0
 11
11.35
 21
0.0
 31
0.0
210
0.0
220
0.0
230
1.0
 40
0.1736481777
 41
0.1404782903734103
 42
2.973052716194956
  0
ARC
  5
B8
330
85
100
AcDbEntity
  8
$DDT_AUDIT_GENERATED_(B1)
  6
Continuous
 62
     7
100
AcDbCircle
 10
120.7343367536
 20
479.5483607149
 30
0.0
 40
15.86457451530623
100
AcDbArc
 50
179.2893799017
 51
200.6488075384
  0
ARC
  5
B9
330
85
100
AcDbEntity
  8
$DDT_AUDIT_GENERATED_(B1)
  6
Continuous
 62
     7
100
AcDbCircle
 10
111.7850115472
 20
479.5551503295
 30
0.0
 40
16.04512879236182
100
AcDbArc
 50
339.5549783979
 51
0.6785480013
  0
LINE
  5
BA
330
85
100
AcDbEntity
  8
$DDT_AUDIT_GENERATED_(B1)
  6
Continuous
 62
     7
100
AcDbLine
 10
127.85
 20
479.7455039928
 30
0.0
 11
127.85
 21
490.682224799
 31
0.0
  0
LINE
  5
BB
330
85
100
AcDbEntity
  8
$DDT_AUDIT_GENERATED_(B1)
  6
Continuous
 62
     7
100
AcDbLine
 10
104.85
 20
490.682224799
 30
0.0
 11
104.85
 21
479.7455039928
 31
0.0
  0
ELLIPSE
  5
BD
330
85
100
AcDbEntity
  8
$DDT_AUDIT_GENERATED_(BC)
  6
Continuous
 62
     7
100
AcDbEllipse
 10
116.35
 20
473.6450506719
 30
0.0
 11
-9.0
 21
0.0
 31
0.0
210
0.0
220
0.0
230
1.0
 40
0.1736481777
 41
0.0
 42
6.283185307179586
  0
ELLIPSE
  5
BE
330
85
100
AcDbEntity
  8
$DDT_AUDIT_GENERATED_(BC)
  6
Continuous
 62
     7
100
AcDbEllipse
 10
116.35
 20
473.6450506719
 30
0.0
 11
-5.249999999999998
 21
0.0
 31
0.0
210
0.0
220
0.0
230
1.0
 40
0.1736481777
 41
0.0
 42
6.283185307179586
  0
ELLIPSE
  5
BF
330
85
100
AcDbEntity
  8
$DDT_AUDIT_GENERATED_(BC)
  6
Continuous
 62
     7
100
AcDbEllipse
 10
116.35
 20
473.6450506719
 30
0.0
 11
-6.249999999999999
 21
0.0
 31
0.0
210
0.0
220
0.0
230
1.0
 40
0.1736481777
 41
0.0
 42
6.283185307179586
  0
ELLIPSE
  5
C0
330
85
100
AcDbEntity
  8
$DDT_AUDIT_GENERATED_(BC)
  6
Continuous
 62
     7
100
AcDbEllipse
 10
116.35
 20
473.6450506719
 30
0.0
 11
2.750000000000002
 21
0.0
 31
0.0
210
0.0
220
0.0
230
1.0
 40
0.1736481777
 41
0.0
 42
6.283185307179586
  0
ELLIPSE
  5
C1
330
85
100
AcDbEntity
  8
$DDT_AUDIT_GENERATED_(BC)
  6
Continuous
 62
     7
100
AcDbEllipse
 10
116.35
 20
473.6450506719
 30
0.0
 11
2.150000000000001
 21
0.0
 31
0.0
210
0.0
220
0.0
230
1.0
 40
0.1736481777
 41
0.0
 42
6.283185307179586
  0
ELLIPSE
  5
C2
330
85
100
AcDbEntity
  8
$DDT_AUDIT_GENERATED_(BC)
  6
Continuous
 62
     7
100
AcDbEllipse
 10
116.35
 20
473.8420122225
 30
0.0
 11
0.5196299438963559
 21
0.0
 31
0.0
210
0.0
220
0.0
230
1.0
 40
0.1736481777
 41
0.0
 42
6.283185307179586
  0
ELLIPSE
  5
C3
330
85
100
AcDbEntity
  8
$DDT_AUDIT_GENERATED_(BC)
  6
Continuous
 62
     7
100
AcDbEllipse
 10
116.35
 20
473.6450506719
 30
0.0
 11
-8.699999999999996
 21
0.0
 31
0.0
210
0.0
220
0.0
230
1.0
 40
0.1736481777
 41
0.0
 42
6.283185307179586
  0
ARC
  5
C4
330
85
100
AcDbEntity
  8
$DDT_AUDIT_GENERATED_(BC)
  6
Continuous
 62
     7
100
AcDbCircle
 10
124.5931231208
 20
473.8420122225
 30
0.0
 40
0.2568762259796863
100
AcDbArc
 50
356.1238526717
 51
3.8761473283
  0
ARC
  5
C5
330
85
100
AcDbEntity
  8
$DDT_AUDIT_GENERATED_(BC)
  6
Continuous
 62
     7
100
AcDbCircle
 10
122.4107635132
 20
473.8420122225
 30
0.0
 40
0.1892348465220819
100
AcDbArc
 50
0.0
 51
5.2650577286
  0
ELLIPSE
  5
C6
330
85
100
AcDbEntity
  8
$DDT_AUDIT_GENERATED_(BC)
  6
Continuous
 62
     7
100
AcDbEllipse
 10
116.35
 20
473.8420122225
 30
0.0
 11
8.500000000025574
 21
1.193489751472043E-12
 31
0.0
210
0.0
220
0.0
230
1.0
 40
0.1736481777
 41
0.0117649772879987
 42
0.1119139221627852
  0
LINE
  5
C7
330
85
100
AcDbEntity
  8
$DDT_AUDIT_GENERATED_(BC)
  6
Continuous
 62
     7
100
AcDbLine
 10
122.6
 20
473.8246474048
 30
0.0
 11
124.8494117444
 21
473.8246474048
 31
0.0
  0
LINE
  5
C8
330
85
100
AcDbEntity
  8
$DDT_AUDIT_GENERATED_(BC)
  6
Continuous
 62
     7
100
AcDbLine
 10
122.5991999488
 20
473.8593770403
 30
0.0
 11
124.8494117444
 21
473.8593770403
 31
0.0
  0
LINE
  5
C9
330
85
100
AcDbEntity
  8
$DDT_AUDIT_GENERATED_(BC)
  6
Continuous
 62
     7
100
AcDbLine
 10
122.5991999488
 20
473.8593770403
 30
0.0
 11
122.5991999488
 21
474.1148031709
 31
0.0
  0
LINE
  5
CA
330
85
100
AcDbEntity
  8
$DDT_AUDIT_GENERATED_(BC)
  6
Continuous
 62
     7
100
AcDbLine
 10
115.4987985257
 20
473.7427154433
 30
0.0
 11
115.8303700561
 21
473.8424413724
 31
0.0
  0
LINE
  5
CB
330
85
100
AcDbEntity
  8
$DDT_AUDIT_GENERATED_(BC)
  6
Continuous
 62
     7
100
AcDbLine
 10
115.0657858239
 20
473.7861274877
 30
0.0
 11
115.7961373794
 21
474.0057934747
 31
0.0
  0
ELLIPSE
  5
CC
330
85
100
AcDbEntity
  8
$DDT_AUDIT_GENERATED_(BC)
  6
Continuous
 62
     7
100
AcDbEllipse
 10
116.35
 20
474.0855532429
 30
0.0
 11
-2.150000000004525
 21
-8.326672684688674E-14
 31
0.0
210
0.0
220
0.0
230
1.0
 40
0.1736481777
 41
0.9306548427467052
 42
1.163740259644986
  0
LINE
  5
CD
330
85
100
AcDbEntity
  8
$DDT_AUDIT_GENERATED_(BC)
  6
Continuous
 62
     7
100
AcDbLine
 10
115.0657858239
 20
473.9444764271
 30
0.0
 11
115.0657858239
 21
473.7861274877
 31
0.0
  0
ELLIPSE
  5
CE
330
85
100
AcDbEntity
  8
$DDT_AUDIT_GENERATED_(BC)
  6
Continuous
 62
     7
100
AcDbEllipse
 10
116.3500005217
 20
473.8420121982
 30
0.0
 11
8.49999947797207
 21
2.426353562512418E-8
 31
0.0
210
0.0
220
0.0
230
1.0
 40
0.1736481824
 41
-0.2735643738992373
 42
-0.2500344185753942
  0
ELLIPSE
  5
CF
330
85
100
AcDbEntity
  8
$DDT_AUDIT_GENERATED_(BC)
  6
Continuous
 62
     7
100
AcDbEllipse
 10
116.35
 20
473.8420122225
 30
0.0
 11
8.500000000003602
 21
-6.661338147750939E-13
 31
0.0
210
0.0
220
0.0
230
1.0
 40
0.1736481777
 41
6.033150896668591
 42
6.271420329891304
  0
LINE
  5
D0
330
85
100
AcDbEntity
  8
$DDT_AUDIT_GENERATED_(BC)
  6
Continuous
 62
     7
100
AcDbLine
 10
124.5856832166
 20
473.4767924147
 30
0.0
 11
124.5856832166
 21
473.8246474048
 31
0.0
  0
LINE
  5
D1
330
85
100
AcDbEntity
  8
$DDT_AUDIT_GENERATED_(BC)
  6
Continuous
 62
     7
100
AcDbLine
 10
122.5676297074
 20
473.534735438
 30
0.0
 11
124.5339194076
 21
473.4432461628
 31
0.0
  0
LINE
  5
D2
330
85
100
AcDbEntity
  8
$DDT_AUDIT_GENERATED_(BC)
  6
Continuous
 62
     7
100
AcDbLine
 10
122.5849913848
 20
473.5698823829
 30
0.0
 11
124.5856832166
 21
473.4767924147
 31
0.0
  0
ELLIPSE
  5
D3
330
85
100
AcDbEntity
  8
$DDT_AUDIT_GENERATED_(BC)
  6
Continuous
 62
     7
100
AcDbEllipse
 10
116.3500004085
 20
473.8420121815
 30
0.0
 11
8.499999587243689
 21
3.663641612305923E-8
 31
0.0
210
0.0
220
0.0
230
1.0
 40
0.1736481801
 41
-0.5353637659774817
 42
-0.5118338107483966
  0
ELLIPSE
  5
D4
330
85
100
AcDbEntity
  8
$DDT_AUDIT_GENERATED_(BC)
  6
Continuous
 62
     7
100
AcDbEllipse
 10
116.35
 20
473.8420122225
 30
0.0
 11
8.500000000029045
 21
-2.303712776097200E-12
 31
0.0
210
0.0
220
0.0
230
1.0
 40
0.1736481777
 41
-0.5118337983092713
 42
-0.2735643650867363
  0
LINE
  5
D5
330
85
100
AcDbEntity
  8
$DDT_AUDIT_GENERATED_(BC)
  6
Continuous
 62
     7
100
AcDbLine
 10
123.7607064878
 20
473.1190969155
 30
0.0
 11
123.7607064878
 21
473.4792229009
 31
0.0
  0
LINE
  5
D6
330
85
100
AcDbEntity
  8
$DDT_AUDIT_GENERATED_(BC)
  6
Continuous
 62
     7
100
AcDbLine
 10
122.1496025895
 20
473.2405171325
 30
0.0
 11
123.6607064878
 21
473.0890201689
 31
0.0
  0
LINE
  5
D7
330
85
100
AcDbEntity
  8
$DDT_AUDIT_GENERATED_(BC)
  6
Continuous
 62
     7
100
AcDbLine
 10
122.2220341526
 20
473.2733577755
 30
0.0
 11
123.7607064878
 21
473.1190969155
 31
0.0
  0
ELLIPSE
  5
D8
330
85
100
AcDbEntity
  8
$DDT_AUDIT_GENERATED_(BC)
  6
Continuous
 62
     7
100
AcDbEllipse
 10
116.3500003347
 20
473.8420121645
 30
0.0
 11
8.499999644988939
 21
4.231004435695240E-8
 31
0.0
210
0.0
220
0.0
230
1.0
 40
0.1736481777
 41
-0.7971631558008827
 42
-0.7736332005695319
  0
ELLIPSE
  5
D9
330
85
100
AcDbEntity
  8
$DDT_AUDIT_GENERATED_(BC)
  6
Continuous
 62
     7
100
AcDbEllipse
 10
116.35
 20
473.8420122225
 30
0.0
 11
8.499999999984048
 21
2.137179322403426E-12
 31
0.0
210
0.0
220
0.0
230
1.0
 40
0.1736481777
 41
-0.7736331861100991
 42
-0.5353637528868589
  0
LINE
  5
DA
330
85
100
AcDbEntity
  8
$DDT_AUDIT_GENERATED_(BC)
  6
Continuous
 62
     7
100
AcDbLine
 10
122.4307023586
 20
472.8106668998
 30
0.0
 11
122.4307023586
 21
473.2123352441
 31
0.0
  0
LINE
  5
DB
330
85
100
AcDbEntity
  8
$DDT_AUDIT_GENERATED_(BC)
  6
Continuous
 62
     7
100
AcDbLine
 10
121.2378659735
 20
472.9686856428
 30
0.0
 11
122.2892810024
 21
472.786109339
 31
0.0
  0
LINE
  5
DC
330
85
100
AcDbEntity
  8
$DDT_AUDIT_GENERATED_(BC)
  6
Continuous
 62
     7
100
AcDbLine
 10
121.3609855062
 20
472.9964212819
 30
0.0
 11
122.4307023586
 21
472.8106668998
 31
0.0
  0
ELLIPSE
  5
DD
330
85
100
AcDbEntity
  8
$DDT_AUDIT_GENERATED_(BC)
  6
Continuous
 62
     7
100
AcDbEllipse
 10
116.350000236
 20
473.8420121516
 30
0.0
 11
8.499999705048431
 21
3.655259428470004E-8
 31
0.0
210
0.0
220
0.0
230
1.0
 40
0.1736481753
 41
-1.058962541579163
 42
-1.035432586349787
  0
ELLIPSE
  5
DE
330
85
100
AcDbEntity
  8
$DDT_AUDIT_GENERATED_(BC)
  6
Continuous
 62
     7
100
AcDbEllipse
 10
116.35
 20
473.8420122225
 30
0.0
 11
8.500000000013618
 21
-1.498801083243961E-12
 31
0.0
210
0.0
220
0.0
230
1.0
 40
0.1736481777
 41
-1.035432573907755
 42
-0.7971631406850523
  0
LINE
  5
DF
330
85
100
AcDbEntity
  8
$DDT_AUDIT_GENERATED_(BC)
  6
Continuous
 62
     7
100
AcDbLine
 10
120.6863084126
 20
472.5725213635
 30
0.0
 11
120.6863084126
 21
472.8634616064
 31
0.0
  0
LINE
  5
E0
330
85
100
AcDbEntity
  8
$DDT_AUDIT_GENERATED_(BC)
  6
Continuous
 62
     7
100
AcDbLine
 10
119.8708042992
 20
472.7483391984
 30
0.0
 11
120.5131033318
 21
472.5551565457
 31
0.0
  0
LINE
  5
E1
330
85
100
AcDbEntity
  8
$DDT_AUDIT_GENERATED_(BC)
  6
Continuous
 62
     7
100
AcDbLine
 10
120.0348965537
 20
472.7684448578
 30
0.0
 11
120.6863084126
 21
472.5725213635
 31
0.0
  0
ELLIPSE
  5
E2
330
85
100
AcDbEntity
  8
$DDT_AUDIT_GENERATED_(BC)
  6
Continuous
 62
     7
100
AcDbEllipse
 10
116.350000117
 20
473.8420121468
 30
0.0
 11
8.49999975884918
 21
2.021169343002782E-8
 31
0.0
210
0.0
220
0.0
230
1.0
 40
0.1736481737
 41
-1.32076192366188
 42
-1.29723196845996
  0
ELLIPSE
  5
E3
330
85
100
AcDbEntity
  8
$DDT_AUDIT_GENERATED_(BC)
  6
Continuous
 62
     7
100
AcDbEllipse
 10
116.35
 20
473.8420122225
 30
0.0
 11
8.499999999987223
 21
1.304512053934559E-12
 31
0.0
210
0.0
220
0.0
230
1.0
 40
0.1736481777
 41
-1.297231961708318
 42
-1.058962528485046
  0
LINE
  5
E4
330
85
100
AcDbEntity
  8
$DDT_AUDIT_GENERATED_(BC)
  6
Continuous
 62
     7
100
AcDbLine
 10
118.6464022142
 20
472.4208895312
 30
0.0
 11
118.6464022142
 21
472.6356626742
 31
0.0
  0
LINE
  5
E5
330
85
100
AcDbEntity
  8
$DDT_AUDIT_GENERATED_(BC)
  6
Continuous
 62
     7
100
AcDbLine
 10
118.1538145546
 20
472.6059327649
 30
0.0
 11
118.453217049
 21
472.4119008401
 31
0.0
  0
LINE
  5
E6
330
85
100
AcDbEntity
  8
$DDT_AUDIT_GENERATED_(BC)
  6
Continuous
 62
     7
100
AcDbLine
 10
118.3445653356
 20
472.6164990923
 30
0.0
 11
118.6464022142
 21
472.4208895312
 31
0.0
  0
ARC
  5
E7
330
85
100
AcDbEntity
  8
$DDT_AUDIT_GENERATED_(BC)
  6
Continuous
 62
     7
100
AcDbCircle
 10
116.35
 20
521.3122663372
 30
0.0
 40
48.94626362829068
100
AcDbArc
 50
269.8829413828
 51
270.1170586172
  0
ELLIPSE
  5
E8
330
85
100
AcDbEntity
  8
$DDT_AUDIT_GENERATED_(BC)
  6
Continuous
 62
     7
100
AcDbEllipse
 10
116.35
 20
473.8420122225
 30
0.0
 11
8.500000000005757
 21
-3.330669073875470E-13
 31
0.0
210
0.0
220
0.0
230
1.0
 40
0.1736481777
 41
4.724153957672952
 42
4.962423390895783
  0
LINE
  5
E9
330
85
100
AcDbEntity
  8
$DDT_AUDIT_GENERATED_(BC)
  6
Continuous
 62
     7
100
AcDbLine
 10
116.25
 20
472.5598884889
 30
0.0
 11
116.25
 21
472.3661048619
 31
0.0
  0
LINE
  5
EA
330
85
100
AcDbEntity
  8
$DDT_AUDIT_GENERATED_(BC)
  6
Continuous
 62
     7
100
AcDbLine
 10
116.45
 20
472.5598884889
 30
0.0
 11
116.45
 21
472.3661048619
 31
0.0
  0
ELLIPSE
  5
EB
330
85
100
AcDbEntity
  8
$DDT_AUDIT_GENERATED_(BC)
  6
Continuous
 62
     7
100
AcDbEllipse
 10
116.3499998779
 20
473.8420121433
 30
0.0
 11
-8.49999974828463
 21
2.114630692773289E-8
 31
0.0
210
0.0
220
0.0
230
1.0
 40
0.1736481735
 41
1.297231968753015
 42
1.320761923982311
  0
ELLIPSE
  5
EC
330
85
100
AcDbEntity
  8
$DDT_AUDIT_GENERATED_(BC)
  6
Continuous
 62
     7
100
AcDbEllipse
 10
116.35
 20
473.8420122225
 30
0.0
 11
-8.50000000000618
 21
-2.775557561562891E-13
 31
0.0
210
0.0
220
0.0
230
1.0
 40
0.1736481777
 41
1.320761916283791
 42
1.559031349506613
  0
LINE
  5
ED
330
85
100
AcDbEntity
  8
$DDT_AUDIT_GENERATED_(BC)
  6
Continuous
 62
     7
100
AcDbLine
 10
114.0535977858
 20
472.4208895312
 30
0.0
 11
114.0535977858
 21
472.6356626742
 31
0.0
  0
LINE
  5
EE
330
85
100
AcDbEntity
  8
$DDT_AUDIT_GENERATED_(BC)
  6
Continuous
 62
     7
100
AcDbLine
 10
114.3554346644
 20
472.6164990923
 30
0.0
 11
114.0535977858
 21
472.4208895312
 31
0.0
  0
LINE
  5
EF
330
85
100
AcDbEntity
  8
$DDT_AUDIT_GENERATED_(BC)
  6
Continuous
 62
     7
100
AcDbLine
 10
114.5461854454
 20
472.6059327649
 30
0.0
 11
114.246782951
 21
472.4119008401
 31
0.0
  0
ELLIPSE
  5
F0
330
85
100
AcDbEntity
  8
$DDT_AUDIT_GENERATED_(BC)
  6
Continuous
 62
     7
100
AcDbEllipse
 10
116.3499997817
 20
473.8420121568
 30
0.0
 11
-8.499999727091037
 21
3.386191327336974E-8
 31
0.0
210
0.0
220
0.0
230
1.0
 40
0.1736481754
 41
1.035432585411682
 42
1.058962540592398
  0
ELLIPSE
  5
F1
330
85
100
AcDbEntity
  8
$DDT_AUDIT_GENERATED_(BC)
  6
Continuous
 62
     7
100
AcDbEllipse
 10
116.35
 20
473.8420122225
 30
0.0
 11
-8.500000000018295
 21
-2.192690473634684E-12
 31
0.0
210
0.0
220
0.0
230
1.0
 40
0.1736481777
 41
1.058962528484202
 42
1.297231961706717
  0
LINE
  5
F2
330
85
100
AcDbEntity
  8
$DDT_AUDIT_GENERATED_(BC)
  6
Continuous
 62
     7
100
AcDbLine
 10
112.0136915874
 20
472.5725213635
 30
0.0
 11
112.0136915874
 21
472.8634616064
 31
0.0
  0
LINE
  5
F3
330
85
100
AcDbEntity
  8
$DDT_AUDIT_GENERATED_(BC)
  6
Continuous
 62
     7
100
AcDbLine
 10
112.6651034463
 20
472.7684448578
 30
0.0
 11
112.0136915874
 21
472.5725213635
 31
0.0
  0
LINE
  5
F4
330
85
100
AcDbEntity
  8
$DDT_AUDIT_GENERATED_(BC)
  6
Continuous
 62
     7
100
AcDbLine
 10
112.8291957008
 20
472.7483391984
 30
0.0
 11
112.1868966682
 21
472.5551565457
 31
0.0
  0
ELLIPSE
  5
F5
330
85
100
AcDbEntity
  8
$DDT_AUDIT_GENERATED_(BC)
  6
Continuous
 62
     7
100
AcDbEllipse
 10
116.3499996662
 20
473.8420121646
 30
0.0
 11
-8.499999645918365
 21
4.227201921835899E-8
 31
0.0
210
0.0
220
0.0
230
1.0
 40
0.1736481777
 41
0.7736332005345955
 42
0.797163155764226
  0
ELLIPSE
  5
F6
330
85
100
AcDbEntity
  8
$DDT_AUDIT_GENERATED_(BC)
  6
Continuous
 62
     7
100
AcDbEllipse
 10
116.35
 20
473.8420122225
 30
0.0
 11
-8.500000000010788
 21
-1.137978600240785E-12
 31
0.0
210
0.0
220
0.0
230
1.0
 40
0.1736481777
 41
0.7971631406851576
 42
1.035432573907905
  0
LINE
  5
F7
330
85
100
AcDbEntity
  8
$DDT_AUDIT_GENERATED_(BC)
  6
Continuous
 62
     7
100
AcDbLine
 10
110.2692976414
 20
472.8106668998
 30
0.0
 11
110.2692976414
 21
473.2123352441
 31
0.0
  0
LINE
  5
F8
330
85
100
AcDbEntity
  8
$DDT_AUDIT_GENERATED_(BC)
  6
Continuous
 62
     7
100
AcDbLine
 10
111.3390144938
 20
472.9964212819
 30
0.0
 11
110.2692976414
 21
472.8106668998
 31
0.0
  0
LINE
  5
F9
330
85
100
AcDbEntity
  8
$DDT_AUDIT_GENERATED_(BC)
  6
Continuous
 62
     7
100
AcDbLine
 10
111.4621340265
 20
472.9686856428
 30
0.0
 11
110.4107189976
 21
472.786109339
 31
0.0
  0
ELLIPSE
  5
FA
330
85
100
AcDbEntity
  8
$DDT_AUDIT_GENERATED_(BC)
  6
Continuous
 62
     7
100
AcDbEllipse
 10
116.3499995913
 20
473.8420121817
 30
0.0
 11
-8.499999587044897
 21
3.647476765067381E-8
 31
0.0
210
0.0
220
0.0
230
1.0
 40
0.1736481801
 41
0.5118338107510778
 42
0.5353637659804766
  0
ELLIPSE
  5
FB
330
85
100
AcDbEntity
  8
$DDT_AUDIT_GENERATED_(BC)
  6
Continuous
 62
     7
100
AcDbEllipse
 10
116.35
 20
473.8420122225
 30
0.0
 11
-8.500000000020526
 21
-1.776356839400250E-12
 31
0.0
210
0.0
220
0.0
230
1.0
 40
0.1736481777
 41
0.5353637528858047
 42
0.7736331861084188
  0
LINE
  5
FC
330
85
100
AcDbEntity
  8
$DDT_AUDIT_GENERATED_(BC)
  6
Continuous
 62
     7
100
AcDbLine
 10
108.9392935122
 20
473.1190969155
 30
0.0
 11
108.9392935122
 21
473.4792229009
 31
0.0
  0
LINE
  5
FD
330
85
100
AcDbEntity
  8
$DDT_AUDIT_GENERATED_(BC)
  6
Continuous
 62
     7
100
AcDbLine
 10
110.4779658474
 20
473.2733577755
 30
0.0
 11
108.9392935122
 21
473.1190969155
 31
0.0
  0
LINE
  5
FE
330
85
100
AcDbEntity
  8
$DDT_AUDIT_GENERATED_(BC)
  6
Continuous
 62
     7
100
AcDbLine
 10
110.5503974105
 20
473.2405171325
 30
0.0
 11
109.0392935122
 21
473.0890201689
 31
0.0
  0
ELLIPSE
  5
FF
330
85
100
AcDbEntity
  8
$DDT_AUDIT_GENERATED_(BC)
  6
Continuous
 62
     7
100
AcDbEllipse
 10
116.3499995444
 20
473.8420122012
 30
0.0
 11
-8.499999544165826
 21
2.119782127607550E-8
 31
0.0
210
0.0
220
0.0
230
1.0
 40
0.1736481818
 41
0.2500344175541589
 42
0.2735643727830989
  0
ELLIPSE
  5
100
330
85
100
AcDbEntity
  8
$DDT_AUDIT_GENERATED_(BC)
  6
Continuous
 62
     7
100
AcDbEllipse
 10
116.35
 20
473.8420122225
 30
0.0
 11
-8.500000000026265
 21
-2.109423746787797E-12
 31
0.0
210
0.0
220
0.0
230
1.0
 40
0.1736481777
 41
0.2735643650868064
 42
0.5118337983093788
  0
LINE
  5
101
330
85
100
AcDbEntity
  8
$DDT_AUDIT_GENERATED_(BC)
  6
Continuous
 62
     7
100
AcDbLine
 10
108.1143167834
 20
473.4767924147
 30
0.0
 11
108.1143167834
 21
473.8246474048
 31
0.0
  0
LINE
  5
102
330
85
100
AcDbEntity
  8
$DDT_AUDIT_GENERATED_(BC)
  6
Continuous
 62
     7
100
AcDbLine
 10
110.1150086152
 20
473.5698823829
 30
0.0
 11
108.1143167834
 21
473.4767924147
 31
0.0
  0
LINE
  5
103
330
85
100
AcDbEntity
  8
$DDT_AUDIT_GENERATED_(BC)
  6
Continuous
 62
     7
100
AcDbLine
 10
110.1323702926
 20
473.534735438
 30
0.0
 11
108.1660805924
 21
473.4432461628
 31
0.0
  0
ARC
  5
104
330
85
100
AcDbEntity
  8
$DDT_AUDIT_GENERATED_(BC)
  6
Continuous
 62
     7
100
AcDbCircle
 10
108.1068768792
 20
473.8420122225
 30
0.0
 40
0.2568762259793072
100
AcDbArc
 50
176.1238526717
 51
183.8761473283
  0
ELLIPSE
  5
105
330
85
100
AcDbEntity
  8
$DDT_AUDIT_GENERATED_(BC)
  6
Continuous
 62
     7
100
AcDbEllipse
 10
116.35
 20
473.8420122225
 30
0.0
 11
-8.50000000003029
 21
-1.304512053934559E-12
 31
0.0
210
0.0
220
0.0
230
1.0
 40
0.1736481777
 41
0.011764977288112
 42
0.2500344105105875
  0
ARC
  5
106
330
85
100
AcDbEntity
  8
$DDT_AUDIT_GENERATED_(BC)
  6
Continuous
 62
     7
100
AcDbCircle
 10
110.2892364868
 20
473.8420122225
 30
0.0
 40
0.1892348465220835
100
AcDbArc
 50
174.7349422714
 51
180.0
  0
LINE
  5
107
330
85
100
AcDbEntity
  8
$DDT_AUDIT_GENERATED_(BC)
  6
Continuous
 62
     7
100
AcDbLine
 10
110.1008000512
 20
473.8593770403
 30
0.0
 11
110.1008000512
 21
474.1148031709
 31
0.0
  0
LINE
  5
108
330
85
100
AcDbEntity
  8
$DDT_AUDIT_GENERATED_(BC)
  6
Continuous
 62
     7
100
AcDbLine
 10
110.1008000512
 20
473.8593770403
 30
0.0
 11
107.8505882556
 21
473.8593770403
 31
0.0
  0
LINE
  5
109
330
85
100
AcDbEntity
  8
$DDT_AUDIT_GENERATED_(BC)
  6
Continuous
 62
     7
100
AcDbLine
 10
110.1
 20
473.8246474048
 30
0.0
 11
107.8505882556
 21
473.8246474048
 31
0.0
  0
ELLIPSE
  5
10A
330
85
100
AcDbEntity
  8
$DDT_AUDIT_GENERATED_(BC)
  6
Continuous
 62
     7
100
AcDbEllipse
 10
116.35
 20
473.8420122225
 30
0.0
 11
-8.500000000026468
 21
1.193489751472043E-12
 31
0.0
210
0.0
220
0.0
230
1.0
 40
0.1736481777
 41
6.171271385016794
 42
6.271420329891314
  0
ELLIPSE
  5
10B
330
85
100
AcDbEntity
  8
$DDT_AUDIT_GENERATED_(BC)
  6
Continuous
 62
     7
100
AcDbEllipse
 10
116.3500000557
 20
473.8420122199
 30
0.0
 11
-6.250000055695035
 21
2.600614168457582E-9
 31
0.0
210
0.0
220
0.0
230
1.0
 40
0.173648177
 41
-0.277800069245818
 42
-0.2457987039026914
  0
LINE
  5
10C
330
85
100
AcDbEntity
  8
$DDT_AUDIT_GENERATED_(BC)
  6
Continuous
 62
     7
100
AcDbLine
 10
110.3396182803
 20
474.1396459885
 30
0.0
 11
110.3396182803
 21
474.4245368187
 31
0.0
  0
LINE
  5
10D
330
85
100
AcDbEntity
  8
$DDT_AUDIT_GENERATED_(BC)
  6
Continuous
 62
     7
100
AcDbLine
 10
110.3396182803
 20
474.1396459885
 30
0.0
 11
108.3356241029
 21
474.232889611
 31
0.0
  0
LINE
  5
10E
330
85
100
AcDbEntity
  8
$DDT_AUDIT_GENERATED_(BC)
  6
Continuous
 62
     7
100
AcDbLine
 10
110.2878544713
 20
474.1060997366
 30
0.0
 11
108.2593352129
 21
474.2004844839
 31
0.0
  0
ELLIPSE
  5
10F
330
85
100
AcDbEntity
  8
$DDT_AUDIT_GENERATED_(BC)
  6
Continuous
 62
     7
100
AcDbEllipse
 10
116.3500000279
 20
473.8420122197
 30
0.0
 11
-6.250000028195966
 21
2.554206846028251E-9
 31
0.0
210
0.0
220
0.0
230
1.0
 40
0.1736481774
 41
-0.5395994571147051
 42
-0.5075980917065577
  0
LINE
  5
110
330
85
100
AcDbEntity
  8
$DDT_AUDIT_GENERATED_(BC)
  6
Continuous
 62
     7
100
AcDbLine
 10
110.988034091
 20
474.3996316873
 30
0.0
 11
110.988034091
 21
474.7485502705
 31
0.0
  0
LINE
  5
111
330
85
100
AcDbEntity
  8
$DDT_AUDIT_GENERATED_(BC)
  6
Continuous
 62
     7
100
AcDbLine
 10
110.988034091
 20
474.3996316873
 30
0.0
 11
109.4152542599
 21
474.5573120223
 31
0.0
  0
LINE
  5
112
330
85
100
AcDbEntity
  8
$DDT_AUDIT_GENERATED_(BC)
  6
Continuous
 62
     7
100
AcDbLine
 10
110.888034091
 20
474.3695549407
 30
0.0
 11
109.2955709252
 21
474.5292086446
 31
0.0
  0
ELLIPSE
  5
113
330
85
100
AcDbEntity
  8
$DDT_AUDIT_GENERATED_(BC)
  6
Continuous
 62
     7
100
AcDbEllipse
 10
116.350000004
 20
473.8420122218
 30
0.0
 11
-6.250000004211257
 21
5.007660952571769E-10
 31
0.0
210
0.0
220
0.0
230
1.0
 40
0.1736481777
 41
-0.8013988458966992
 42
-0.7693974804204089
  0
LINE
  5
114
330
85
100
AcDbEntity
  8
$DDT_AUDIT_GENERATED_(BC)
  6
Continuous
 62
     7
100
AcDbLine
 10
112.0018590173
 20
474.6216165412
 30
0.0
 11
112.0018590173
 21
474.9535754748
 31
0.0
  0
LINE
  5
115
330
85
100
AcDbEntity
  8
$DDT_AUDIT_GENERATED_(BC)
  6
Continuous
 62
     7
100
AcDbLine
 10
112.0018590173
 20
474.6216165412
 30
0.0
 11
110.8691656715
 21
474.8183066766
 31
0.0
  0
LINE
  5
116
330
85
100
AcDbEntity
  8
$DDT_AUDIT_GENERATED_(BC)
  6
Continuous
 62
     7
100
AcDbLine
 10
111.8604376611
 20
474.5970589804
 30
0.0
 11
110.7146502495
 21
474.7960228764
 31
0.0
  0
ELLIPSE
  5
117
330
85
100
AcDbEntity
  8
$DDT_AUDIT_GENERATED_(BC)
  6
Continuous
 62
     7
100
AcDbEllipse
 10
116.3500000293
 20
473.8420122137
 30
0.0
 11
-6.250000036580331
 21
4.538508457940793E-9
 31
0.0
210
0.0
220
0.0
230
1.0
 40
0.1736481781
 41
-1.063198231711967
 42
-1.031196866371133
  0
LINE
  5
118
330
85
100
AcDbEntity
  8
$DDT_AUDIT_GENERATED_(BC)
  6
Continuous
 62
     7
100
AcDbLine
 10
113.312002566
 20
474.7904726491
 30
0.0
 11
113.312002566
 21
475.0606888485
 31
0.0
  0
LINE
  5
119
330
85
100
AcDbEntity
  8
$DDT_AUDIT_GENERATED_(BC)
  6
Continuous
 62
     7
100
AcDbLine
 10
113.312002566
 20
474.7904726491
 30
0.0
 11
112.5905578895
 21
475.0074597366
 31
0.0
  0
LINE
  5
11A
330
85
100
AcDbEntity
  8
$DDT_AUDIT_GENERATED_(BC)
  6
Continuous
 62
     7
100
AcDbLine
 10
113.1387974852
 20
474.7731078313
 30
0.0
 11
112.4108197642
 21
474.992059846
 31
0.0
  0
ELLIPSE
  5
11B
330
85
100
AcDbEntity
  8
$DDT_AUDIT_GENERATED_(BC)
  6
Continuous
 62
     7
100
AcDbEllipse
 10
116.3500000147
 20
473.842012213
 30
0.0
 11
-6.25000003029681
 21
2.548933286661281E-9
 31
0.0
210
0.0
220
0.0
230
1.0
 40
0.1736481784
 41
-1.32499762046144
 42
-1.292996255116201
  0
LINE
  5
11C
330
85
100
AcDbEntity
  8
$DDT_AUDIT_GENERATED_(BC)
  6
Continuous
 62
     7
100
AcDbLine
 10
114.8291806192
 20
474.8946927463
 30
0.0
 11
114.8291806192
 21
475.1325285882
 31
0.0
  0
LINE
  5
11D
330
85
100
AcDbEntity
  8
$DDT_AUDIT_GENERATED_(BC)
  6
Continuous
 62
     7
100
AcDbLine
 10
114.8291806192
 20
474.8946927463
 30
0.0
 11
114.4807361728
 21
475.1205069859
 31
0.0
  0
LINE
  5
11E
330
85
100
AcDbEntity
  8
$DDT_AUDIT_GENERATED_(BC)
  6
Continuous
 62
     7
100
AcDbLine
 10
114.635995454
 20
474.8857040552
 30
0.0
 11
114.2858032122
 21
475.1126509778
 31
0.0
  0
ARC
  5
11F
330
85
100
AcDbEntity
  8
$DDT_AUDIT_GENERATED_(BC)
  6
Continuous
 62
     7
100
AcDbCircle
 10
116.35
 20
438.9394661976
 30
0.0
 40
35.98784714392363
100
AcDbArc
 50
89.8407911065
 51
90.1592088935
  0
LINE
  5
120
330
85
100
AcDbEntity
  8
$DDT_AUDIT_GENERATED_(BC)
  6
Continuous
 62
     7
100
AcDbLine
 10
116.45
 20
474.9271744055
 30
0.0
 11
116.45
 21
475.1556900165
 31
0.0
  0
LINE
  5
121
330
85
100
AcDbEntity
  8
$DDT_AUDIT_GENERATED_(BC)
  6
Continuous
 62
     7
100
AcDbLine
 10
116.25
 20
474.9271744055
 30
0.0
 11
116.25
 21
475.1556900165
 31
0.0
  0
ELLIPSE
  5
122
330
85
100
AcDbEntity
  8
$DDT_AUDIT_GENERATED_(BC)
  6
Continuous
 62
     7
100
AcDbEllipse
 10
116.3499999847
 20
473.8420122126
 30
0.0
 11
6.250000031593798
 21
2.652239539102652E-9
 31
0.0
210
0.0
220
0.0
230
1.0
 40
0.1736481784
 41
1.292996255069051
 42
1.324997620408079
  0
LINE
  5
123
330
85
100
AcDbEntity
  8
$DDT_AUDIT_GENERATED_(BC)
  6
Continuous
 62
     7
100
AcDbLine
 10
118.064004546
 20
474.8857040552
 30
0.0
 11
118.4141967878
 21
475.1126509778
 31
0.0
  0
LINE
  5
124
330
85
100
AcDbEntity
  8
$DDT_AUDIT_GENERATED_(BC)
  6
Continuous
 62
     7
100
AcDbLine
 10
117.8708193808
 20
474.8946927463
 30
0.0
 11
118.2192638272
 21
475.1205069859
 31
0.0
  0
LINE
  5
125
330
85
100
AcDbEntity
  8
$DDT_AUDIT_GENERATED_(BC)
  6
Continuous
 62
     7
100
AcDbLine
 10
117.8708193808
 20
474.8946927463
 30
0.0
 11
117.8708193808
 21
475.1325285882
 31
0.0
  0
ELLIPSE
  5
126
330
85
100
AcDbEntity
  8
$DDT_AUDIT_GENERATED_(BC)
  6
Continuous
 62
     7
100
AcDbEllipse
 10
116.349999964
 20
473.8420122117
 30
0.0
 11
6.250000045017843
 21
5.579287032375646E-9
 31
0.0
210
0.0
220
0.0
230
1.0
 40
0.1736481782
 41
1.031196865899084
 42
1.063198231205202
  0
LINE
  5
127
330
85
100
AcDbEntity
  8
$DDT_AUDIT_GENERATED_(BC)
  6
Continuous
 62
     7
100
AcDbLine
 10
119.5612025148
 20
474.7731078313
 30
0.0
 11
120.2891802358
 21
474.992059846
 31
0.0
  0
LINE
  5
128
330
85
100
AcDbEntity
  8
$DDT_AUDIT_GENERATED_(BC)
  6
Continuous
 62
     7
100
AcDbLine
 10
119.387997434
 20
474.7904726491
 30
0.0
 11
120.1094421105
 21
475.0074597366
 31
0.0
  0
LINE
  5
129
330
85
100
AcDbEntity
  8
$DDT_AUDIT_GENERATED_(BC)
  6
Continuous
 62
     7
100
AcDbLine
 10
119.387997434
 20
474.7904726491
 30
0.0
 11
119.387997434
 21
475.0606888485
 31
0.0
  0
ELLIPSE
  5
12A
330
85
100
AcDbEntity
  8
$DDT_AUDIT_GENERATED_(BC)
  6
Continuous
 62
     7
100
AcDbEllipse
 10
116.3499999598
 20
473.8420122156
 30
0.0
 11
6.250000042627946
 21
5.086736587500695E-9
 31
0.0
210
0.0
220
0.0
230
1.0
 40
0.1736481777
 41
0.7693974783100681
 42
0.8013988436551978
  0
LINE
  5
12B
330
85
100
AcDbEntity
  8
$DDT_AUDIT_GENERATED_(BC)
  6
Continuous
 62
     7
100
AcDbLine
 10
120.8395623389
 20
474.5970589804
 30
0.0
 11
121.9853497505
 21
474.7960228764
 31
0.0
  0
LINE
  5
12C
330
85
100
AcDbEntity
  8
$DDT_AUDIT_GENERATED_(BC)
  6
Continuous
 62
     7
100
AcDbLine
 10
120.6981409827
 20
474.6216165412
 30
0.0
 11
121.8308343285
 21
474.8183066766
 31
0.0
  0
LINE
  5
12D
330
85
100
AcDbEntity
  8
$DDT_AUDIT_GENERATED_(BC)
  6
Continuous
 62
     7
100
AcDbLine
 10
120.6981409827
 20
474.6216165412
 30
0.0
 11
120.6981409827
 21
474.9535754748
 31
0.0
  0
ELLIPSE
  5
12E
330
85
100
AcDbEntity
  8
$DDT_AUDIT_GENERATED_(BC)
  6
Continuous
 62
     7
100
AcDbEllipse
 10
116.3499999727
 20
473.8420122198
 30
0.0
 11
6.2500000275415
 21
2.399414000819888E-9
 31
0.0
210
0.0
220
0.0
230
1.0
 40
0.1736481774
 41
0.5075980917361581
 42
0.5395994571462117
  0
LINE
  5
12F
330
85
100
AcDbEntity
  8
$DDT_AUDIT_GENERATED_(BC)
  6
Continuous
 62
     7
100
AcDbLine
 10
121.811965909
 20
474.3695549407
 30
0.0
 11
123.4044290748
 21
474.5292086446
 31
0.0
  0
LINE
  5
130
330
85
100
AcDbEntity
  8
$DDT_AUDIT_GENERATED_(BC)
  6
Continuous
 62
     7
100
AcDbLine
 10
121.711965909
 20
474.3996316873
 30
0.0
 11
123.2847457401
 21
474.5573120223
 31
0.0
  0
LINE
  5
131
330
85
100
AcDbEntity
  8
$DDT_AUDIT_GENERATED_(BC)
  6
Continuous
 62
     7
100
AcDbLine
 10
121.711965909
 20
474.3996316873
 30
0.0
 11
121.711965909
 21
474.7485502705
 31
0.0
  0
ELLIPSE
  5
132
330
85
100
AcDbEntity
  8
$DDT_AUDIT_GENERATED_(BC)
  6
Continuous
 62
     7
100
AcDbEllipse
 10
116.3499999443
 20
473.8420122199
 30
0.0
 11
6.250000055724928
 21
2.602001947238364E-9
 31
0.0
210
0.0
220
0.0
230
1.0
 40
0.173648177
 41
0.2457987039021308
 42
0.2778000692451726
  0
LINE
  5
133
330
85
100
AcDbEntity
  8
$DDT_AUDIT_GENERATED_(BC)
  6
Continuous
 62
     7
100
AcDbLine
 10
122.4121455287
 20
474.1060997366
 30
0.0
 11
124.4406647871
 21
474.2004844839
 31
0.0
  0
LINE
  5
134
330
85
100
AcDbEntity
  8
$DDT_AUDIT_GENERATED_(BC)
  6
Continuous
 62
     7
100
AcDbLine
 10
122.3603817197
 20
474.1396459885
 30
0.0
 11
124.3643758971
 21
474.232889611
 31
0.0
  0
LINE
  5
135
330
85
100
AcDbEntity
  8
$DDT_AUDIT_GENERATED_(BC)
  6
Continuous
 62
     7
100
AcDbLine
 10
122.3603817197
 20
474.1396459885
 30
0.0
 11
122.3603817197
 21
474.4245368187
 31
0.0
  0
ELLIPSE
  5
136
330
85
100
AcDbEntity
  8
$DDT_AUDIT_GENERATED_(BC)
  6
Continuous
 62
     7
100
AcDbEllipse
 10
116.35
 20
473.8420122225
 30
0.0
 11
-2.75000000000365
 21
-7.049916206369743E-12
 31
0.0
210
0.0
220
0.0
230
1.0
 40
0.1736481777
 41
3.14159265358979
 42
3.205272045846367
  0
LINE
  5
137
330
85
100
AcDbEntity
  8
$DDT_AUDIT_GENERATED_(BC)
  6
Continuous
 62
     7
100
AcDbLine
 10
119.0944261695
 20
474.0820673867
 30
0.0
 11
119.0944261695
 21
473.8724006536
 31
0.0
  0
LINE
  5
138
330
85
100
AcDbEntity
  8
$DDT_AUDIT_GENERATED_(BC)
  6
Continuous
 62
     7
100
AcDbLine
 10
119.1
 20
473.8116237914
 30
0.0
 11
121.511620601
 21
473.8116237914
 31
0.0
  0
LINE
  5
139
330
85
100
AcDbEntity
  8
$DDT_AUDIT_GENERATED_(BC)
  6
Continuous
 62
     7
100
AcDbLine
 10
119.0944261695
 20
473.8724006536
 30
0.0
 11
121.4341270414
 21
473.8724006536
 31
0.0
  0
ELLIPSE
  5
13A
330
85
100
AcDbEntity
  8
$DDT_AUDIT_GENERATED_(BC)
  6
Continuous
 62
     7
100
AcDbEllipse
 10
116.3500000009
 20
473.8420122224
 30
0.0
 11
5.249999999073396
 21
8.704148513061227E-11
 31
0.0
210
0.0
220
0.0
230
1.0
 40
0.1736481777
 41
-0.55693828490947
 42
-0.4902592663801162
  0
LINE
  5
13B
330
85
100
AcDbEntity
  8
$DDT_AUDIT_GENERATED_(BC)
  6
Continuous
 62
     7
100
AcDbLine
 10
119.0302855699
 20
473.5382084515
 30
0.0
 11
120.8066067604
 21
473.3601219102
 31
0.0
  0
LINE
  5
13C
330
85
100
AcDbEntity
  8
$DDT_AUDIT_GENERATED_(BC)
  6
Continuous
 62
     7
100
AcDbLine
 10
119.089058604
 20
473.6024951881
 30
0.0
 11
120.9816067604
 21
473.4127562168
 31
0.0
  0
LINE
  5
13D
330
85
100
AcDbEntity
  8
$DDT_AUDIT_GENERATED_(BC)
  6
Continuous
 62
     7
100
AcDbLine
 10
120.9816067604
 20
473.8116237914
 30
0.0
 11
120.9816067604
 21
473.4127562168
 31
0.0
  0
ELLIPSE
  5
13E
330
85
100
AcDbEntity
  8
$DDT_AUDIT_GENERATED_(BC)
  6
Continuous
 62
     7
100
AcDbEllipse
 10
116.3499999996
 20
473.8420122226
 30
0.0
 11
5.250000000489538
 21
-5.936917624183025E-11
 31
0.0
210
0.0
220
0.0
230
1.0
 40
0.1736481777
 41
-1.0805370604212
 42
-1.013858041903606
  0
LINE
  5
13F
330
85
100
AcDbEntity
  8
$DDT_AUDIT_GENERATED_(BC)
  6
Continuous
 62
     7
100
AcDbLine
 10
118.0505425886
 20
473.2697674745
 30
0.0
 11
118.8219868157
 21
473.0377421489
 31
0.0
  0
LINE
  5
140
330
85
100
AcDbEntity
  8
$DDT_AUDIT_GENERATED_(BC)
  6
Continuous
 62
     7
100
AcDbLine
 10
118.3166869189
 20
473.311273643
 30
0.0
 11
119.125095707
 21
473.06813058
 31
0.0
  0
LINE
  5
141
330
85
100
AcDbEntity
  8
$DDT_AUDIT_GENERATED_(BC)
  6
Continuous
 62
     7
100
AcDbLine
 10
119.125095707
 20
473.5287031832
 30
0.0
 11
119.125095707
 21
473.06813058
 31
0.0
  0
ARC
  5
142
330
85
100
AcDbEntity
  8
$DDT_AUDIT_GENERATED_(BC)
  6
Continuous
 62
     7
100
AcDbCircle
 10
116.35
 20
503.1476098591
 30
0.0
 40
30.21725070590842
100
AcDbArc
 50
269.6681757198
 51
270.3318242802
  0
LINE
  5
143
330
85
100
AcDbEntity
  8
$DDT_AUDIT_GENERATED_(BC)
  6
Continuous
 62
     7
100
AcDbLine
 10
116.175
 20
473.1684860688
 30
0.0
 11
116.175
 21
472.9308659044
 31
0.0
  0
LINE
  5
144
330
85
100
AcDbEntity
  8
$DDT_AUDIT_GENERATED_(BC)
  6
Continuous
 62
     7
100
AcDbLine
 10
116.525
 20
473.1684860688
 30
0.0
 11
116.525
 21
472.9308659044
 31
0.0
  0
ELLIPSE
  5
145
330
85
100
AcDbEntity
  8
$DDT_AUDIT_GENERATED_(BC)
  6
Continuous
 62
     7
100
AcDbEllipse
 10
116.3499999982
 20
473.842012222
 30
0.0
 11
-5.249999997799487
 21
2.747246874434950E-10
 31
0.0
210
0.0
220
0.0
230
1.0
 40
0.1736481776
 41
1.013858042078991
 42
1.080537060623931
  0
LINE
  5
146
330
85
100
AcDbEntity
  8
$DDT_AUDIT_GENERATED_(BC)
  6
Continuous
 62
     7
100
AcDbLine
 10
114.3833130811
 20
473.311273643
 30
0.0
 11
113.574904293
 21
473.06813058
 31
0.0
  0
LINE
  5
147
330
85
100
AcDbEntity
  8
$DDT_AUDIT_GENERATED_(BC)
  6
Continuous
 62
     7
100
AcDbLine
 10
114.6494574114
 20
473.2697674745
 30
0.0
 11
113.8780131843
 21
473.0377421489
 31
0.0
  0
LINE
  5
148
330
85
100
AcDbEntity
  8
$DDT_AUDIT_GENERATED_(BC)
  6
Continuous
 62
     7
100
AcDbLine
 10
113.574904293
 20
473.5287031832
 30
0.0
 11
113.574904293
 21
473.06813058
 31
0.0
  0
ELLIPSE
  5
149
330
85
100
AcDbEntity
  8
$DDT_AUDIT_GENERATED_(BC)
  6
Continuous
 62
     7
100
AcDbEllipse
 10
116.3499999991
 20
473.8420122224
 30
0.0
 11
-5.249999999088053
 21
8.579248422790897E-11
 31
0.0
210
0.0
220
0.0
230
1.0
 40
0.1736481777
 41
0.4902592663796661
 42
0.556938284908883
  0
LINE
  5
14A
330
85
100
AcDbEntity
  8
$DDT_AUDIT_GENERATED_(BC)
  6
Continuous
 62
     7
100
AcDbLine
 10
113.610941396
 20
473.6024951881
 30
0.0
 11
111.7183932396
 21
473.4127562168
 31
0.0
  0
LINE
  5
14B
330
85
100
AcDbEntity
  8
$DDT_AUDIT_GENERATED_(BC)
  6
Continuous
 62
     7
100
AcDbLine
 10
113.6697144301
 20
473.5382084515
 30
0.0
 11
111.8933932396
 21
473.3601219102
 31
0.0
  0
LINE
  5
14C
330
85
100
AcDbEntity
  8
$DDT_AUDIT_GENERATED_(BC)
  6
Continuous
 62
     7
100
AcDbLine
 10
111.7183932396
 20
473.8116237914
 30
0.0
 11
111.7183932396
 21
473.4127562168
 31
0.0
  0
LINE
  5
14D
330
85
100
AcDbEntity
  8
$DDT_AUDIT_GENERATED_(BC)
  6
Continuous
 62
     7
100
AcDbLine
 10
113.6055738305
 20
474.0820673867
 30
0.0
 11
113.6055738305
 21
473.8724006536
 31
0.0
  0
ELLIPSE
  5
14E
330
85
100
AcDbEntity
  8
$DDT_AUDIT_GENERATED_(BC)
  6
Continuous
 62
     7
100
AcDbEllipse
 10
116.35
 20
473.8420122225
 30
0.0
 11
2.750000000002601
 21
0.0
 31
0.0
210
0.0
220
0.0
230
1.0
 40
0.1736481777
 41
3.077913261332822
 42
3.141592653589793
  0
LINE
  5
14F
330
85
100
AcDbEntity
  8
$DDT_AUDIT_GENERATED_(BC)
  6
Continuous
 62
     7
100
AcDbLine
 10
113.6055738305
 20
473.8724006536
 30
0.0
 11
111.2658729586
 21
473.8724006536
 31
0.0
  0
LINE
  5
150
330
85
100
AcDbEntity
  8
$DDT_AUDIT_GENERATED_(BC)
  6
Continuous
 62
     7
100
AcDbLine
 10
113.6
 20
473.8116237914
 30
0.0
 11
111.188379399
 21
473.8116237914
 31
0.0
  0
LINE
  5
151
330
85
100
AcDbEntity
  8
$DDT_AUDIT_GENERATED_(BC)
  6
Continuous
 62
     7
100
AcDbLine
 10
114.0607572184
 20
474.4654692624
 30
0.0
 11
114.0607572184
 21
474.1066116774
 31
0.0
  0
ELLIPSE
  5
152
330
85
100
AcDbEntity
  8
$DDT_AUDIT_GENERATED_(BC)
  6
Continuous
 62
     7
100
AcDbEllipse
 10
116.35
 20
473.8420122225
 30
0.0
 11
-2.750000000036766
 21
-4.718447854656915E-13
 31
0.0
210
0.0
220
0.0
230
1.0
 40
0.1736481777
 41
-0.5872781678514905
 42
-0.4599193833384136
  0
LINE
  5
153
330
85
100
AcDbEntity
  8
$DDT_AUDIT_GENERATED_(BC)
  6
Continuous
 62
     7
100
AcDbLine
 10
114.0607572184
 20
474.1066116774
 30
0.0
 11
112.4938558151
 21
474.2637026657
 31
0.0
  0
LINE
  5
154
330
85
100
AcDbEntity
  8
$DDT_AUDIT_GENERATED_(BC)
  6
Continuous
 62
     7
100
AcDbLine
 10
113.8857572184
 20
474.0539773708
 30
0.0
 11
112.261088977
 21
474.216859821
 31
0.0
  0
LINE
  5
155
330
85
100
AcDbEntity
  8
$DDT_AUDIT_GENERATED_(BC)
  6
Continuous
 62
     7
100
AcDbLine
 10
115.1293413609
 20
474.5317196325
 30
0.0
 11
115.1293413609
 21
474.2699234909
 31
0.0
  0
ELLIPSE
  5
156
330
85
100
AcDbEntity
  8
$DDT_AUDIT_GENERATED_(BC)
  6
Continuous
 62
     7
100
AcDbEllipse
 10
116.35
 20
473.8420122225
 30
0.0
 11
-2.750000000003693
 21
5.273559366969494E-13
 31
0.0
210
0.0
220
0.0
230
1.0
 40
0.1736481777
 41
-1.110876943453031
 42
-0.9835181589391464
  0
LINE
  5
157
330
85
100
AcDbEntity
  8
$DDT_AUDIT_GENERATED_(BC)
  6
Continuous
 62
     7
100
AcDbLine
 10
115.1293413609
 20
474.2699234909
 30
0.0
 11
114.3940605903
 21
474.4910720253
 31
0.0
  0
LINE
  5
158
330
85
100
AcDbEntity
  8
$DDT_AUDIT_GENERATED_(BC)
  6
Continuous
 62
     7
100
AcDbLine
 10
114.8262324696
 20
474.2395350598
 30
0.0
 11
114.0719253274
 21
474.4664061078
 31
0.0
  0
ARC
  5
159
330
85
100
AcDbEntity
  8
$DDT_AUDIT_GENERATED_(BC)
  6
Continuous
 62
     7
100
AcDbCircle
 10
116.35
 20
458.5140564073
 30
0.0
 40
15.80548925698565
100
AcDbArc
 50
89.3656022836
 51
90.6343977164
  0
LINE
  5
15A
330
85
100
AcDbEntity
  8
$DDT_AUDIT_GENERATED_(BC)
  6
Continuous
 62
     7
100
AcDbLine
 10
116.525
 20
474.3185768256
 30
0.0
 11
116.525
 21
474.5561969901
 31
0.0
  0
LINE
  5
15B
330
85
100
AcDbEntity
  8
$DDT_AUDIT_GENERATED_(BC)
  6
Continuous
 62
     7
100
AcDbLine
 10
116.175
 20
474.3185768256
 30
0.0
 11
116.175
 21
474.5561969901
 31
0.0
  0
ELLIPSE
  5
15C
330
85
100
AcDbEntity
  8
$DDT_AUDIT_GENERATED_(BC)
  6
Continuous
 62
     7
100
AcDbEllipse
 10
116.35
 20
473.8420122225
 30
0.0
 11
2.749999999997764
 21
-2.498001805406602E-13
 31
0.0
210
0.0
220
0.0
230
1.0
 40
0.1736481777
 41
0.9835181589399209
 42
1.110876943454031
  0
LINE
  5
15D
330
85
100
AcDbEntity
  8
$DDT_AUDIT_GENERATED_(BC)
  6
Continuous
 62
     7
100
AcDbLine
 10
117.5706586391
 20
474.5317196325
 30
0.0
 11
117.5706586391
 21
474.2699234909
 31
0.0
  0
LINE
  5
15E
330
85
100
AcDbEntity
  8
$DDT_AUDIT_GENERATED_(BC)
  6
Continuous
 62
     7
100
AcDbLine
 10
117.8737675304
 20
474.2395350598
 30
0.0
 11
118.6280746726
 21
474.4664061078
 31
0.0
  0
LINE
  5
15F
330
85
100
AcDbEntity
  8
$DDT_AUDIT_GENERATED_(BC)
  6
Continuous
 62
     7
100
AcDbLine
 10
117.5706586391
 20
474.2699234909
 30
0.0
 11
118.3059394097
 21
474.4910720253
 31
0.0
  0
ELLIPSE
  5
160
330
85
100
AcDbEntity
  8
$DDT_AUDIT_GENERATED_(BC)
  6
Continuous
 62
     7
100
AcDbEllipse
 10
116.3500000001
 20
473.8420122225
 30
0.0
 11
2.749999999924615
 21
-4.329869796038111E-12
 31
0.0
210
0.0
220
0.0
230
1.0
 40
0.1736481777
 41
0.4599193833473788
 42
0.5872781678634049
  0
LINE
  5
161
330
85
100
AcDbEntity
  8
$DDT_AUDIT_GENERATED_(BC)
  6
Continuous
 62
     7
100
AcDbLine
 10
118.6392427816
 20
474.4654692624
 30
0.0
 11
118.6392427816
 21
474.1066116774
 31
0.0
  0
LINE
  5
162
330
85
100
AcDbEntity
  8
$DDT_AUDIT_GENERATED_(BC)
  6
Continuous
 62
     7
100
AcDbLine
 10
118.8142427816
 20
474.0539773708
 30
0.0
 11
120.438911023
 21
474.216859821
 31
0.0
  0
LINE
  5
163
330
85
100
AcDbEntity
  8
$DDT_AUDIT_GENERATED_(BC)
  6
Continuous
 62
     7
100
AcDbLine
 10
118.6392427816
 20
474.1066116774
 30
0.0
 11
120.2061441849
 21
474.2637026657
 31
0.0
  0
LINE
  5
164
330
85
100
AcDbEntity
  8
$DDT_AUDIT_GENERATED_(BC)
  6
Continuous
 62
     7
100
AcDbLine
 10
107.35
 20
474.8648409543
 30
0.0
 11
107.35
 21
473.6450506719
 31
0.0
  0
LINE
  5
165
330
85
100
AcDbEntity
  8
$DDT_AUDIT_GENERATED_(BC)
  6
Continuous
 62
     7
100
AcDbLine
 10
125.35
 20
473.6450506719
 30
0.0
 11
125.35
 21
474.8648409543
 31
0.0
  0
LINE
  5
166
330
85
100
AcDbEntity
  8
$DDT_AUDIT_GENERATED_(BC)
  6
Continuous
 62
     7
100
AcDbLine
 10
110.1
 20
473.8420122225
 30
0.0
 11
110.1
 21
473.6450506719
 31
0.0
  0
LINE
  5
167
330
85
100
AcDbEntity
  8
$DDT_AUDIT_GENERATED_(BC)
  6
Continuous
 62
     7
100
AcDbLine
 10
122.6
 20
473.6450506719
 30
0.0
 11
122.6
 21
473.8420122225
 31
0.0
  0
LINE
  5
168
330
85
100
AcDbEntity
  8
$DDT_AUDIT_GENERATED_(BC)
  6
Continuous
 62
     7
100
AcDbLine
 10
113.6
 20
473.8420122225
 30
0.0
 11
113.6
 21
473.6450506719
 31
0.0
  0
LINE
  5
169
330
85
100
AcDbEntity
  8
$DDT_AUDIT_GENERATED_(BC)
  6
Continuous
 62
     7
100
AcDbLine
 10
119.1
 20
473.6450506719
 30
0.0
 11
119.1
 21
473.8420122225
 31
0.0
  0
LINE
  5
16A
330
85
100
AcDbEntity
  8
$DDT_AUDIT_GENERATED_(BC)
  6
Continuous
 62
     7
100
AcDbLine
 10
115.8303700561
 20
474.0073260828
 30
0.0
 11
115.8303700561
 21
473.8420122225
 31
0.0
  0
LINE
  5
16B
330
85
100
AcDbEntity
  8
$DDT_AUDIT_GENERATED_(BC)
  6
Continuous
 62
     7
100
AcDbLine
 10
116.8696299439
 20
473.8420122225
 30
0.0
 11
116.8696299439
 21
474.0073260828
 31
0.0
  0
ENDBLK
  5
16D
330
85
100
AcDbEntity
  8
0
100
AcDbBlockEnd
  0
BLOCK
  5
208
330
16E
100
AcDbEntity
  8
0
100
AcDbBlockBegin
  2
SE1
 70
     0
 10
0.0
 20
0.0
 30
0.0
  3
SE1
  1

  0
SPLINE
  5
170
330
16E
100
AcDbEntity
  8
$DDT_AUDIT_GENERATED_(87)
  6
Continuous
 62
     7
100
AcDbSpline
210
0.0
220
0.0
230
1.0
 70
     8
 71
     3
 72
     8
 73
     4
 74
     0
 42
0.0000000017869322
 43
0.0000000001
 40
0.0
 40
0.0
 40
0.0
 40
0.0
 40
0.3491840540057934
 40
0.3491840540057934
 40
0.3491840540057934
 40
0.3491840540057934
 10
388.8409626349857
 20
628.8234800978223
 30
0.0
 10
388.8409626349857
 20
628.8234841013186
 30
0.0
 10
388.8409665457837
 20
629.5130311953513
 30
0.0
 10
388.84085096779
 20
630.77757800996
 30
0.0
  0
LINE
  5
171
330
16E
100
AcDbEntity
  8
$DDT_AUDIT_GENERATED_(87)
  6
Continuous
 62
     7
100
AcDbLine
 10
352.4303676819
 20
652.0847635844
 30
0.0
 11
352.4303676819
 21
653.2542082413
 31
0.0
  0
ARC
  5
172
330
16E
100
AcDbEntity
  8
$DDT_AUDIT_GENERATED_(87)
  6
Continuous
 62
     7
100
AcDbCircle
 10
-1851.6824351285
 20
645.7091409522
 30
0.0
 40
2240.523749720317
100
AcDbArc
 50
359.9377205256
 51
0.1630407897
  0
LINE
  5
173
330
16E
100
AcDbEntity
  8
$DDT_AUDIT_GENERATED_(87)
  6
Continuous
 62
     7
100
AcDbLine
 10
352.4303676819
 20
643.273732705
 30
0.0
 11
352.4303676819
 21
652.0847635844
 31
0.0
  0
SPLINE
  5
174
330
16E
100
AcDbEntity
  8
$DDT_AUDIT_GENERATED_(87)
  6
Continuous
 62
     7
100
AcDbSpline
210
0.0
220
0.0
230
1.0
 70
     8
 71
     3
 72
    18
 73
    14
 74
     0
 42
0.0000000006920262
 43
0.0000000001
 40
0.0
 40
0.0
 40
0.0
 40
0.0
 40
0.2499999999999997
 40
0.2499999999999997
 40
0.3749999999999997
 40
0.3749999999999997
 40
0.4999999999999997
 40
0.4999999999999997
 40
0.7499999999999998
 40
0.7499999999999998
 40
0.8749999999999999
 40
0.8749999999999999
 40
1.0
 40
1.0
 40
1.0
 40
1.0
 10
388.8399909693295
 20
643.2737327049864
 30
0.0
 10
388.8403187582005
 20
641.0786058659459
 30
0.0
 10
388.8406490758246
 20
639.0832425068119
 30
0.0
 10
388.8410518033792
 20
636.4117441100134
 30
0.0
 10
388.8411717414564
 20
635.5728086174053
 30
0.0
 10
388.8413620251075
 20
634.0499799600087
 30
0.0
 10
388.8414331075898
 20
633.3595839969532
 30
0.0
 10
388.8415679565912
 20
631.4901314136847
 30
0.0
 10
388.8415479309821
 20
630.5064036512663
 30
0.0
 10
388.8413935261605
 20
629.5139924120002
 30
0.0
 10
388.8413225812116
 20
629.260202290146
 30
0.0
 10
388.8411561978892
 20
628.9147706242179
 30
0.0
 10
388.8410588504088
 20
628.823514819937
 30
0.0
 10
388.8409626349857
 20
628.8234800978223
 30
0.0
  0
ARC
  5
175
330
16E
100
AcDbEntity
  8
$DDT_AUDIT_GENERATED_(87)
  6
Continuous
 62
     7
100
AcDbCircle
 10
379.840962659
 20
628.8234800815
 30
0.0
 40
8.99999997600084
100
AcDbArc
 50
303.0801948017
 51
0.0
  0
SPLINE
  5
176
330
16E
100
AcDbEntity
  8
$DDT_AUDIT_GENERATED_(87)
  6
Continuous
 62
     7
100
AcDbSpline
210
0.0
220
0.0
230
1.0
 70
     8
 71
     3
 72
    28
 73
    24
 74
     0
 42
0.0000000000460656
 43
0.0000000001
 40
0.52775289702581
 40
0.52775289702581
 40
0.52775289702581
 40
0.52775289702581
 40
0.5312500000000021
 40
0.5312500000000021
 40
0.5468750000000022
 40
0.5468750000000022
 40
0.5625000000000022
 40
0.5625000000000022
 40
0.5781250000000023
 40
0.5781250000000023
 40
0.5937500000000023
 40
0.5937500000000023
 40
0.6093750000000024
 40
0.6093750000000024
 40
0.6250000000000024
 40
0.6250000000000024
 40
0.6406250000000026
 40
0.6406250000000026
 40
0.6562500000000027
 40
0.6562500000000027
 40
0.6718750000000027
 40
0.6718750000000027
 40
0.6845421656237001
 40
0.6845421656237001
 40
0.6845421656237001
 40
0.6845421656237001
 10
353.4349535960558
 20
681.3572116890927
 30
0.0
 10
353.5078679428964
 20
681.3292356106981
 30
0.0
 10
353.5898582602455
 20
681.3013290623938
 30
0.0
 10
354.0913573352012
 20
681.1495495785999
 30
0.0
 10
354.6912862474698
 20
681.0285255684838
 30
0.0
 10
356.3246111367337
 20
680.7993029731313
 30
0.0
 10
357.3205665694512
 20
680.6964118840677
 30
0.0
 10
359.5658153571797
 20
680.5080277212971
 30
0.0
 10
360.8093973813693
 20
680.4233868368627
 30
0.0
 10
363.4833445910403
 20
680.2876965847055
 30
0.0
 10
364.964264981134
 20
680.2377697280525
 30
0.0
 10
367.9615163221346
 20
680.1764441763178
 30
0.0
 10
369.5025353770783
 20
680.1623429720839
 30
0.0
 10
372.588054332195
 20
680.1634173420417
 30
0.0
 10
374.081956955558
 20
680.1865731902233
 30
0.0
 10
376.9789427666616
 20
680.2740528047476
 30
0.0
 10
378.3825542314177
 20
680.3328215089068
 30
0.0
 10
381.0184974203607
 20
680.4665424371561
 30
0.0
 10
382.2723150186241
 20
680.5428266457907
 30
0.0
 10
384.5087140120989
 20
680.7278327190494
 30
0.0
 10
385.3841674675131
 20
680.8347699945554
 30
0.0
 10
386.6032422178289
 20
681.0481633353807
 30
0.0
 10
387.0031925942316
 20
681.146668485552
 30
0.0
 10
387.3215786067968
 20
681.2454982995732
 30
0.0
  0
SPLINE
  5
177
330
16E
100
AcDbEntity
  8
$DDT_AUDIT_GENERATED_(87)
  6
Continuous
 62
     7
100
AcDbSpline
210
0.0
220
0.0
230
1.0
 70
     8
 71
     3
 72
    14
 73
    10
 74
     0
 42
0.000000001496597
 43
0.0000000001
 40
0.0740381507603144
 40
0.0740381507603144
 40
0.0740381507603144
 40
0.0740381507603144
 40
0.2499999999999992
 40
0.2499999999999992
 40
0.4999999999999984
 40
0.4999999999999984
 40
0.5624999999999983
 40
0.5624999999999983
 40
0.5712908926235047
 40
0.5712908926235047
 40
0.5712908926235047
 40
0.5712908926235047
 10
388.8416409674157
 20
684.5961753010931
 30
0.0
 10
388.8417531146341
 20
684.5128409458698
 30
0.0
 10
388.840230056573
 20
684.3290659645547
 30
0.0
 10
388.8218046318528
 20
683.6247436136704
 30
0.0
 10
388.8119575769762
 20
682.9764793517561
 30
0.0
 10
388.6923683883933
 20
681.875585182682
 30
0.0
 10
388.6639877829066
 20
681.6416218726976
 30
0.0
 10
388.6022732679871
 20
681.3608517571221
 30
0.0
 10
388.594122384528
 20
681.3259990026585
 30
0.0
 10
388.5850576419647
 20
681.2909283685583
 30
0.0
  0
SPLINE
  5
178
330
16E
100
AcDbEntity
  8
$DDT_AUDIT_GENERATED_(87)
  6
Continuous
 62
     7
100
AcDbSpline
210
0.0
220
0.0
230
1.0
 70
     8
 71
     3
 72
    10
 73
     6
 74
     0
 42
0.000000000855589
 43
0.0000000001
 40
0.965064597622881
 40
0.965064597622881
 40
0.965064597622881
 40
0.965064597622881
 40
0.96875
 40
0.96875
 40
1.0
 40
1.0
 40
1.0
 40
1.0
 10
352.4302584983384
 20
681.3632701857724
 30
0.0
 10
352.4302213391591
 20
681.3780070960046
 30
0.0
 10
352.4303676818633
 20
681.3927230193871
 30
0.0
 10
352.4303676818633
 20
681.5320191545529
 30
0.0
 10
352.4303676818633
 20
681.653466297576
 30
0.0
 10
352.4303676818633
 20
681.7715893129363
 30
0.0
  0
ARC
  5
179
330
16E
100
AcDbEntity
  8
$DDT_AUDIT_GENERATED_(87)
  6
Continuous
 62
     7
100
AcDbCircle
 10
388.3409626358
 20
684.6485225717
 30
0.0
 40
0.4999999992310641
100
AcDbArc
 50
0.0
 51
89.7428982071
  0
LINE
  5
17A
330
16E
100
AcDbEntity
  8
$DDT_AUDIT_GENERATED_(87)
  6
Continuous
 62
     7
100
AcDbLine
 10
352.4303676819
 20
682.5226428378
 30
0.0
 11
352.4303676819
 21
684.6917733802
 31
0.0
  0
SPLINE
  5
17B
330
16E
100
AcDbEntity
  8
$DDT_AUDIT_GENERATED_(87)
  6
Continuous
 62
     7
100
AcDbSpline
210
0.0
220
0.0
230
1.0
 70
     8
 71
     3
 72
    26
 73
    22
 74
     0
 42
0.0000000064741449
 43
0.0000000001
 40
0.0
 40
0.0
 40
0.0
 40
0.0
 40
0.0625000000000014
 40
0.0625000000000014
 40
0.1250000000000028
 40
0.1250000000000028
 40
0.2500000000000019
 40
0.2500000000000019
 40
0.3750000000000009
 40
0.3750000000000009
 40
0.5
 40
0.5
 40
0.6249999999999991
 40
0.6249999999999991
 40
0.7499999999999981
 40
0.7499999999999981
 40
0.8749999999999972
 40
0.8749999999999972
 40
0.9374999999999986
 40
0.9374999999999986
 40
1.0
 40
1.0
 40
1.0
 40
1.0
 10
352.4303676818633
 20
682.5226428378244
 30
0.0
 10
352.4303676818633
 20
682.5785803687075
 30
0.0
 10
352.4433507322101
 20
682.6170309989013
 30
0.0
 10
352.4758542501472
 20
682.6786429042239
 30
0.0
 10
352.496240615003
 20
682.7009419098466
 30
0.0
 10
352.5607333563059
 20
682.75067603381
 30
0.0
 10
352.6082598760652
 20
682.761293263174
 30
0.0
 10
352.6927389750996
 20
682.7577087920899
 30
0.0
 10
352.7300235690318
 20
682.7431242120549
 30
0.0
 10
352.7820123482612
 20
682.700413793793
 30
0.0
 10
352.7964766535617
 20
682.6724163576285
 30
0.0
 10
352.7962461759096
 20
682.6090732203677
 30
0.0
 10
352.7816291453236
 20
682.5737333301466
 30
0.0
 10
352.7295727341545
 20
682.4902803599999
 30
0.0
 10
352.6923487120407
 20
682.4419762905103
 30
0.0
 10
352.6081054836724
 20
682.3203032997467
 30
0.0
 10
352.5607637519732
 20
682.247301064892
 30
0.0
 10
352.4965308204313
 20
682.1046886151478
 30
0.0
 10
352.4762514163516
 20
682.0516247971461
 30
0.0
 10
352.4436392577005
 20
681.9284006545428
 30
0.0
 10
352.4303676818641
 20
681.8592372119974
 30
0.0
 10
352.4303676818633
 20
681.7715893129363
 30
0.0
  0
ARC
  5
17C
330
16E
100
AcDbEntity
  8
$DDT_AUDIT_GENERATED_(87)
  6
Continuous
 62
     7
100
AcDbCircle
 10
363.239330164
 20
655.0128156167
 30
0.0
 40
10.77236327282601
100
AcDbArc
 50
179.4695301417
 51
200.9688849563
  0
ARC
  5
17D
330
16E
100
AcDbEntity
  8
$DDT_AUDIT_GENERATED_(87)
  6
Continuous
 62
     7
100
AcDbCircle
 10
359.5362934316
 20
653.1766271224
 30
0.0
 40
7.106349244954693
100
AcDbArc
 50
179.3744806467
 51
206.5684086857
  0
LINE
  5
17E
330
16E
100
AcDbEntity
  8
$DDT_AUDIT_GENERATED_(87)
  6
Continuous
 62
     7
100
AcDbLine
 10
353.1803676819
 20
651.1578079299
 30
0.0
 11
353.1803676819
 21
649.9981986657
 31
0.0
  0
SPLINE
  5
17F
330
16E
100
AcDbEntity
  8
$DDT_AUDIT_GENERATED_(87)
  6
Continuous
 62
     7
100
AcDbSpline
210
0.0
220
0.0
230
1.0
 70
     8
 71
     3
 72
    18
 73
    14
 74
     0
 42
0.0000000003714001
 43
0.0000000001
 40
0.0
 40
0.0
 40
0.0
 40
0.0
 40
0.2500000000000002
 40
0.2500000000000002
 40
0.3750000000000002
 40
0.3750000000000002
 40
0.5000000000000002
 40
0.5000000000000002
 40
0.6250000000000001
 40
0.6250000000000001
 40
0.7500000000000001
 40
0.7500000000000001
 40
0.9826625908203921
 40
0.9826625908203921
 40
0.9826625908203921
 40
0.9826625908203921
 10
352.4674285849528
 20
655.1125495313306
 30
0.0
 10
352.5331860503986
 20
657.3062731535024
 30
0.0
 10
352.6784323165489
 20
659.8665017018885
 30
0.0
 10
352.7669834389222
 20
663.7941939402951
 30
0.0
 10
352.7769001828578
 20
665.1356937958304
 30
0.0
 10
352.7517459065192
 20
667.7662598786067
 30
0.0
 10
352.7171820002824
 20
669.0678066861974
 30
0.0
 10
352.6232274353729
 20
671.6408232800372
 30
0.0
 10
352.5653902666591
 20
672.8790148439832
 30
0.0
 10
352.4720092816169
 20
675.21392658365
 30
0.0
 10
352.439573608013
 20
676.3236264631372
 30
0.0
 10
352.4199079812012
 20
679.1134193277007
 30
0.0
 10
352.4289057089147
 20
680.5709672561158
 30
0.0
 10
352.4302152118702
 20
681.5586617318884
 30
0.0
  0
LINE
  5
180
330
16E
100
AcDbEntity
  8
$DDT_AUDIT_GENERATED_(87)
  6
Continuous
 62
     7
100
AcDbLine
 10
352.4303676819
 20
682.5226428378
 30
0.0
 11
352.4303676819
 21
682.0026914505
 31
0.0
  0
LINE
  5
181
330
16E
100
AcDbEntity
  8
$DDT_AUDIT_GENERATED_(87)
  6
Continuous
 62
     7
100
AcDbLine
 10
352.4303676819
 20
677.8262447024
 30
0.0
 11
352.4303676819
 21
675.8234863135
 31
0.0
  0
LINE
  5
182
330
16E
100
AcDbEntity
  8
$DDT_AUDIT_GENERATED_(87)
  6
Continuous
 62
     7
100
AcDbLine
 10
352.4303676819
 20
654.7648507175
 30
0.0
 11
352.4303676819
 21
653.2542082413
 31
0.0
  0
LINE
  5
183
330
16E
100
AcDbEntity
  8
$DDT_AUDIT_GENERATED_(87)
  6
Continuous
 62
     7
100
AcDbLine
 10
352.4303676819
 20
628.8659780444
 30
0.0
 11
352.4303676819
 21
643.273732705
 31
0.0
  0
ARC
  5
184
330
16E
100
AcDbEntity
  8
$DDT_AUDIT_GENERATED_(87)
  6
Continuous
 62
     7
100
AcDbCircle
 10
362.4259441587
 20
628.8746155391
 30
0.0
 40
9.995580208769308
100
AcDbArc
 50
180.0495110879
 51
185.726187858
  0
SPLINE
  5
185
330
16E
100
AcDbEntity
  8
$DDT_AUDIT_GENERATED_(87)
  6
Continuous
 62
     7
100
AcDbSpline
210
0.0
220
0.0
230
1.0
 70
     8
 71
     3
 72
     8
 73
     4
 74
     0
 42
0.0000000021132202
 43
0.0000000001
 40
0.0
 40
0.0
 40
0.0
 40
0.0
 40
0.0365067713412131
 40
0.0365067713412131
 40
0.0365067713412131
 40
0.0365067713412131
 10
388.8409626349857
 20
630.5483110734332
 30
0.0
 10
388.8409626349857
 20
630.5483110734332
 30
0.0
 10
388.8409642889739
 20
630.6063580443433
 30
0.0
 10
388.8409635439818
 20
630.721065295268
 30
0.0
  0
SPLINE
  5
186
330
16E
100
AcDbEntity
  8
$DDT_AUDIT_GENERATED_(87)
  6
Continuous
 62
     7
100
AcDbSpline
210
0.0
220
0.0
230
1.0
 70
     8
 71
     3
 72
    30
 73
    26
 74
     0
 42
0.0000000001511589
 43
0.0000000001
 40
0.1425480359607079
 40
0.1425480359607079
 40
0.1425480359607079
 40
0.1425480359607079
 40
0.1875000000000001
 40
0.1875000000000001
 40
0.2500000000000001
 40
0.2500000000000001
 40
0.3125000000000001
 40
0.3125000000000001
 40
0.3750000000000001
 40
0.3750000000000001
 40
0.4375000000000001
 40
0.4375000000000001
 40
0.5
 40
0.5
 40
0.5625
 40
0.5625
 40
0.6250000000000001
 40
0.6250000000000001
 40
0.6875000000000001
 40
0.6875000000000001
 40
0.7500000000000001
 40
0.7500000000000001
 40
0.8125000000000002
 40
0.8125000000000002
 40
0.8580763555916976
 40
0.8580763555916976
 40
0.8580763555916976
 40
0.8580763555916976
 10
388.8415363700164
 20
633.1379611801685
 30
0.0
 10
388.841535765643
 20
633.671183126333
 30
0.0
 10
388.841511074029
 20
634.2804969365501
 30
0.0
 10
388.8413933759019
 20
635.9176938614834
 30
0.0
 10
388.8412754660373
 20
637.0262725413743
 30
0.0
 10
388.8409787807141
 20
639.4478869724858
 30
0.0
 10
388.8408000701527
 20
640.7692080947938
 30
0.0
 10
388.8404203581709
 20
643.6381417626184
 30
0.0
 10
388.8402230082817
 20
645.165896076421
 30
0.0
 10
388.8398751701224
 20
648.3241009099817
 30
0.0
 10
388.839722604155
 20
649.9777703135283
 30
0.0
 10
388.839511901975
 20
653.3658281702499
 30
0.0
 10
388.8394555970578
 20
655.068832802056
 30
0.0
 10
388.8394548361496
 20
658.4923130224543
 30
0.0
 10
388.839512114592
 20
660.230944248951
 30
0.0
 10
388.8397210711473
 20
663.5974489825754
 30
0.0
 10
388.8398712515294
 20
665.2336933293043
 30
0.0
 10
388.8402205561775
 20
668.4116521425286
 30
0.0
 10
388.8404191807285
 20
669.9492239977847
 30
0.0
 10
388.8407956524318
 20
672.7943903149513
 30
0.0
 10
388.8409751984183
 20
674.1204560839992
 30
0.0
 10
388.8412757907289
 20
676.5720494988116
 30
0.0
 10
388.841391611011
 20
677.6610919916443
 30
0.0
 10
388.8415106738706
 20
679.3057780846575
 30
0.0
 10
388.8415359566314
 20
679.930731836501
 30
0.0
 10
388.8415362425207
 20
680.474124045149
 30
0.0
  0
ARC
  5
187
330
16E
100
AcDbEntity
  8
$DDT_AUDIT_GENERATED_(87)
  6
Continuous
 62
     7
100
AcDbCircle
 10
382.5418257145
 20
631.0561498896
 30
0.0
 40
10.02089750903322
100
AcDbArc
 50
255.5736875103
 51
282.7491896888
  0
ARC
  5
188
330
16E
100
AcDbEntity
  8
$DDT_AUDIT_GENERATED_(87)
  6
Continuous
 62
     7
100
AcDbCircle
 10
358.8730191696
 20
630.8111093647
 30
0.0
 40
9.639534519552056
100
AcDbArc
 50
253.183939355
 51
272.2205587865
  0
ARC
  5
189
330
16E
100
AcDbEntity
  8
$DDT_AUDIT_GENERATED_(87)
  6
Continuous
 62
     7
100
AcDbCircle
 10
370.4361457112
 20
588.3405168427
 30
0.0
 40
34.37706538909401
100
AcDbArc
 50
74.7335623577
 51
104.4857161335
  0
ELLIPSE
  5
18A
330
16E
100
AcDbEntity
  8
$DDT_AUDIT_GENERATED_(87)
  6
Continuous
 62
     7
100
AcDbEllipse
 10
379.8414697755
 20
621.8846205041
 30
0.0
 11
0.1313451462535177
 21
0.4824401025574424
 31
0.0
210
0.0
220
0.0
230
0.9999999999999998
 40
0.6565487087
 41
3.104423174603716
 42
3.534682129177252
  0
LINE
  5
18B
330
16E
100
AcDbEntity
  8
$DDT_AUDIT_GENERATED_(87)
  6
Continuous
 62
     7
100
AcDbLine
 10
388.343204845
 20
685.1476700828
 30
0.0
 11
352.9304260442
 21
685.1912323543
 31
0.0
  0
ARC
  5
18C
330
16E
100
AcDbEntity
  8
$DDT_AUDIT_GENERATED_(87)
  6
Continuous
 62
     7
100
AcDbCircle
 10
347.6158647927
 20
681.6980902923
 30
0.0
 40
4.815420551041477
100
AcDbArc
 50
356.0269219716
 51
1.1185844256
  0
ARC
  5
18D
330
16E
100
AcDbEntity
  8
$DDT_AUDIT_GENERATED_(87)
  6
Continuous
 62
     7
100
AcDbCircle
 10
352.9303676818
 20
684.6916955005
 30
0.0
 40
0.4999999999612384
100
AcDbArc
 50
90.4503595528
 51
179.6025098723
  0
ARC
  5
18E
330
16E
100
AcDbEntity
  8
$DDT_AUDIT_GENERATED_(87)
  6
Continuous
 62
     7
100
AcDbCircle
 10
361.4303676814
 20
628.8234800896
 30
0.0
 40
8.999999999485508
100
AcDbArc
 50
185.8806197588
 51
233.8165856323
  0
LINE
  5
18F
330
16E
100
AcDbEntity
  8
$DDT_AUDIT_GENERATED_(87)
  6
Continuous
 62
     7
100
AcDbLine
 10
388.8415364713
 20
680.4706166462
 30
0.0
 11
388.8415364713
 21
684.5657219864
 31
0.0
  0
LINE
  5
190
330
16E
100
AcDbEntity
  8
$DDT_AUDIT_GENERATED_(87)
  6
Continuous
 62
     7
100
AcDbLine
 10
388.8415364713
 20
631.2826886277
 30
0.0
 11
388.8415364713
 21
633.2109785333
 31
0.0
  0
ARC
  5
191
330
16E
100
AcDbEntity
  8
$DDT_AUDIT_GENERATED_(87)
  6
Continuous
 62
     7
100
AcDbCircle
 10
358.7543621465
 20
631.7762679317
 30
0.0
 40
10.63489070894999
100
AcDbArc
 50
273.4886623729
 51
285.2985361438
  0
LINE
  5
192
330
16E
100
AcDbEntity
  8
$DDT_AUDIT_GENERATED_(87)
  6
Continuous
 62
     7
100
AcDbLine
 10
379.355265639
 20
621.4938785319
 30
0.0
 11
379.6965685223
 21
621.4015738404
 31
0.0
  0
LINE
  5
193
330
16E
100
AcDbEntity
  8
$DDT_AUDIT_GENERATED_(87)
  6
Continuous
 62
     7
100
AcDbLine
 10
361.5605781377
 20
621.5099035192
 30
0.0
 11
361.9664060099
 21
621.6098606004
 31
0.0
  0
LINE
  5
194
330
16E
100
AcDbEntity
  8
$DDT_AUDIT_GENERATED_(87)
  6
Continuous
 62
     7
100
AcDbLine
 10
379.7036281361
 20
621.4136780728
 30
0.0
 11
379.9048480435
 21
621.3548562612
 31
0.0
  0
LINE
  5
196
330
16E
100
AcDbEntity
  8
$DDT_AUDIT_GENERATED_(195)
  6
Continuous
 62
     7
100
AcDbLine
 10
363.0803676819
 20
592.6483110734
 30
0.0
 11
363.0803676819
 21
592.5983110734
 31
0.0
  0
ARC
  5
198
330
16E
100
AcDbEntity
  8
$DDT_AUDIT_GENERATED_(197)
  6
Continuous
 62
     7
100
AcDbCircle
 10
421.5303676819
 20
656.7983110734
 30
0.0
 40
26.0
100
AcDbArc
 50
270.0
 51
292.6883090572
  0
ARC
  5
199
330
16E
100
AcDbEntity
  8
$DDT_AUDIT_GENERATED_(197)
  6
Continuous
 62
     7
100
AcDbCircle
 10
421.5303676819
 20
656.7983110734
 30
0.0
 40
26.0
100
AcDbArc
 50
67.392656016
 51
90.0
  0
LINE
  5
19A
330
16E
100
AcDbEntity
  8
$DDT_AUDIT_GENERATED_(197)
  6
Continuous
 62
     7
100
AcDbLine
 10
421.5303676819
 20
682.7983110734
 30
0.0
 11
388.8415364713
 21
682.7983110734
 31
0.0
  0
LINE
  5
19B
330
16E
100
AcDbEntity
  8
$DDT_AUDIT_GENERATED_(197)
  6
Continuous
 62
     7
100
AcDbLine
 10
387.9303676819
 20
630.7983110734
 30
0.0
 11
421.5303676819
 21
630.7983110734
 31
0.0
  0
LINE
  5
19C
330
16E
100
AcDbEntity
  8
$DDT_AUDIT_GENERATED_(197)
  6
Continuous
 62
     7
100
AcDbLine
 10
387.4303676819
 20
631.2983110734
 30
0.0
 11
387.9303676819
 21
630.7983110734
 31
0.0
  0
ARC
  5
19D
330
16E
100
AcDbEntity
  8
$DDT_AUDIT_GENERATED_(96)
  6
Continuous
 62
     7
100
AcDbCircle
 10
-441.6590952538
 20
522.3801212671
 30
0.0
 40
916.7563429486316
100
AcDbArc
 50
7.3333801412
 51
10.0991678969
  0
ARC
  5
19E
330
16E
100
AcDbEntity
  8
$DDT_AUDIT_GENERATED_(96)
  6
Continuous
 62
     7
100
AcDbCircle
 10
-238.1381906696
 20
550.000004352
 30
0.0
 40
711.376128652426
100
AcDbArc
 50
6.7382332953
 51
7.2193282626
  0
ARC
  5
19F
330
16E
100
AcDbEntity
  8
$DDT_AUDIT_GENERATED_(96)
  6
Continuous
 62
     7
100
AcDbCircle
 10
-46.9694099972
 20
568.8194580797
 30
0.0
 40
519.3331551682617
100
AcDbArc
 50
358.9240182491
 51
7.1509689386
  0
ARC
  5
1A0
330
16E
100
AcDbEntity
  8
$DDT_AUDIT_GENERATED_(96)
  6
Continuous
 62
     7
100
AcDbCircle
 10
-115.927264716
 20
562.5563423624
 30
0.0
 40
584.2988428079026
100
AcDbArc
 50
359.6630988091
 51
6.9151696689
  0
ARC
  5
1A1
330
16E
100
AcDbEntity
  8
$DDT_AUDIT_GENERATED_(96)
  6
Continuous
 62
     7
100
AcDbCircle
 10
445.9431978179
 20
600.465262071
 30
0.0
 40
30.50784007853997
100
AcDbArc
 50
83.8398296052
 51
98.2397281548
  0
LINE
  5
1A2
330
16E
100
AcDbEntity
  8
$DDT_AUDIT_GENERATED_(96)
  6
Continuous
 62
     7
100
AcDbLine
 10
431.5236473028
 20
630.6799059681
 30
0.0
 11
431.5236473028
 21
684.2683763209
 31
0.0
  0
LINE
  5
1A3
330
16E
100
AcDbEntity
  8
$DDT_AUDIT_GENERATED_(96)
  6
Continuous
 62
     7
100
AcDbLine
 10
469.4707264872
 20
558.292557521
 30
0.0
 11
471.8359029938
 21
558.5829604844
 31
0.0
  0
SPLINE
  5
1A4
330
16E
100
AcDbEntity
  8
$DDT_AUDIT_GENERATED_(96)
  6
Continuous
 62
     7
100
AcDbSpline
210
0.0
220
0.0
230
1.0
 70
     8
 71
     3
 72
    29
 73
    25
 74
     0
 42
0.0000000001442037
 43
0.0000000001
 40
0.0
 40
0.0
 40
0.0
 40
0.0
 40
0.0269720262715001
 40
0.1271572289077324
 40
0.2176836785237215
 40
0.2992705549149971
 40
0.3726849448147209
 40
0.4386918374025231
 40
0.5090551016688672
 40
0.5701100737468817
 40
0.6219938629004199
 40
0.6648448962761446
 40
0.6991545247555213
 40
0.7299343160601294
 40
0.7558857692471342
 40
0.7803474897846924
 40
0.8058642685803233
 40
0.8338640696959849
 40
0.85419074509723
 40
0.8765458972998039
 40
0.9017002142558797
 40
0.9311427377874879
 40
0.9664526214352153
 40
1.0
 40
1.0
 40
1.0
 40
1.0
 10
464.0780209872691
 20
628.3188241666821
 30
0.0
 10
464.1503654863187
 20
627.6368591985001
 30
0.0
 10
464.4414823384807
 20
624.8879585936861
 30
0.0
 10
464.9328439550369
 20
619.7276003550265
 30
0.0
 10
465.4867712438929
 20
613.5064612685343
 30
0.0
 10
465.9408660203717
 20
607.8382014814881
 30
0.0
 10
466.3068051329954
 20
602.7452934752614
 30
0.0
 10
466.6155438431296
 20
597.9054125348564
 30
0.0
 10
466.8716545346802
 20
593.3493128077342
 30
0.0
 10
467.069848345434
 20
589.116888616901
 30
0.0
 10
467.1967858945709
 20
585.5180320344786
 30
0.0
 10
467.2589420992376
 20
582.5357157135156
 30
0.0
 10
467.2594253540552
 20
580.0405151936064
 30
0.0
 10
467.2112360817686
 20
577.936523363687
 30
0.0
 10
467.1369249359538
 20
576.0612636402847
 30
0.0
 10
467.0806144637763
 20
574.306987023846
 30
0.0
 10
467.0716630930493
 20
572.5043002638172
 30
0.0
 10
467.1131407628046
 20
570.7977396018929
 30
0.0
 10
467.1913564177925
 20
569.165641519937
 30
0.0
 10
467.2923000782241
 20
567.601307356681
 30
0.0
 10
467.4402575309232
 20
565.8264111087925
 30
0.0
 10
467.6671892739805
 20
563.7708989451763
 30
0.0
 10
467.9799715120607
 20
561.4728019506273
 30
0.0
 10
468.2183812516301
 20
560.0162496837783
 30
0.0
 10
468.3578420353055
 20
559.1747513921019
 30
0.0
  0
ARC
  5
1A5
330
16E
100
AcDbEntity
  8
$DDT_AUDIT_GENERATED_(96)
  6
Continuous
 62
     7
100
AcDbCircle
 10
469.3190425382
 20
559.2462838098
 30
0.0
 40
0.9526047883093126
100
AcDbArc
 50
195.1861512923
 51
279.0849794122
  0
ARC
  5
1A6
330
16E
100
AcDbEntity
  8
$DDT_AUDIT_GENERATED_(96)
  6
Continuous
 62
     7
100
AcDbCircle
 10
460.4002473038
 20
683.0494494355
 30
0.0
 40
0.4999999999772993
100
AcDbArc
 50
10.0407726949
 51
87.4902356446
  0
ARC
  5
1A7
330
16E
100
AcDbEntity
  8
$DDT_AUDIT_GENERATED_(96)
  6
Continuous
 62
     7
100
AcDbCircle
 10
471.7773989311
 20
559.073930961
 30
0.0
 40
0.4924673998033196
100
AcDbArc
 50
276.4792816672
 51
343.5002452559
  0
ARC
  5
1A8
330
16E
100
AcDbEntity
  8
$DDT_AUDIT_GENERATED_(96)
  6
Continuous
 62
     7
100
AcDbCircle
 10
461.0998363847
 20
628.0121182695
 30
0.0
 40
2.999999999998988
100
AcDbArc
 50
5.8675867708
 51
91.0141130528
  0
LINE
  5
1A9
330
16E
100
AcDbEntity
  8
$DDT_AUDIT_GENERATED_(96)
  6
Continuous
 62
     7
100
AcDbLine
 10
449.1735210468
 20
630.7961554536
 30
0.0
 11
461.0453968021
 21
631.0116242841
 31
0.0
  0
LINE
  5
1AA
330
16E
100
AcDbEntity
  8
$DDT_AUDIT_GENERATED_(96)
  6
Continuous
 62
     7
100
AcDbLine
 10
431.7273149247
 20
630.4795152101
 30
0.0
 11
441.5709607208
 21
630.6581726431
 31
0.0
  0
LINE
  5
1AB
330
16E
100
AcDbEntity
  8
$DDT_AUDIT_GENERATED_(96)
  6
Continuous
 62
     7
100
AcDbLine
 10
460.4215537608
 20
683.5490226608
 30
0.0
 11
431.7311056741
 21
684.4720345944
 31
0.0
  0
ARC
  5
1AC
330
16E
100
AcDbEntity
  8
$DDT_AUDIT_GENERATED_(96)
  6
Continuous
 62
     7
100
AcDbCircle
 10
441.8440463896
 20
629.2415577472
 30
0.0
 40
1.440182209634005
100
AcDbArc
 50
95.4641854323
 51
99.9124471403
  0
ARC
  5
1AD
330
16E
100
AcDbEntity
  8
$DDT_AUDIT_GENERATED_(96)
  6
Continuous
 62
     7
100
AcDbCircle
 10
441.5655290405
 20
630.8627632209
 30
0.0
 40
0.20486284531129
100
AcDbArc
 50
280.5998368578
 51
285.5813543264
  0
ARC
  5
1AE
330
16E
100
AcDbEntity
  8
$DDT_AUDIT_GENERATED_(96)
  6
Continuous
 62
     7
100
AcDbCircle
 10
431.7236473427
 20
630.6796037275
 30
0.0
 40
0.1999987112533075
100
AcDbArc
 50
179.9297146285
 51
271.0127768573
  0
ARC
  5
1AF
330
16E
100
AcDbEntity
  8
$DDT_AUDIT_GENERATED_(96)
  6
Continuous
 62
     7
100
AcDbCircle
 10
431.7236473717
 20
684.2720218849
 30
0.0
 40
0.1999983915428533
100
AcDbArc
 50
88.5852975087
 51
180.0858767549
  0
LINE
  5
1B1
330
16E
100
AcDbEntity
  8
$DDT_AUDIT_GENERATED_(1B0)
  6
Continuous
 62
     7
100
AcDbLine
 10
335.1803676819
 20
678.5183110734
 30
0.0
 11
334.6764954076
 21
678.5183110734
 31
0.0
  0
LINE
  5
1B2
330
16E
100
AcDbEntity
  8
$DDT_AUDIT_GENERATED_(1B0)
  6
Continuous
 62
     7
100
AcDbLine
 10
334.6764954076
 20
652.0783110734
 30
0.0
 11
335.1803676819
 21
652.0783110734
 31
0.0
  0
LINE
  5
1B3
330
16E
100
AcDbEntity
  8
$DDT_AUDIT_GENERATED_(1B0)
  6
Continuous
 62
     7
100
AcDbLine
 10
334.6764954076
 20
677.3483110734
 30
0.0
 11
335.1803676819
 21
677.3483110734
 31
0.0
  0
LINE
  5
1B4
330
16E
100
AcDbEntity
  8
$DDT_AUDIT_GENERATED_(1B0)
  6
Continuous
 62
     7
100
AcDbLine
 10
334.6764954076
 20
653.2483110734
 30
0.0
 11
335.1803676819
 21
653.2483110734
 31
0.0
  0
LINE
  5
1B5
330
16E
100
AcDbEntity
  8
$DDT_AUDIT_GENERATED_(A1)
  6
Continuous
 62
     7
100
AcDbLine
 10
308.8707244353
 20
700.2983110734
 30
0.0
 11
308.8707244353
 21
630.2983110734
 31
0.0
  0
LINE
  5
1B6
330
16E
100
AcDbEntity
  8
$DDT_AUDIT_GENERATED_(A1)
  6
Continuous
 62
     7
100
AcDbLine
 10
308.8707244353
 20
630.2983110734
 30
0.0
 11
331.6536694992
 21
630.2983110734
 31
0.0
  0
LINE
  5
1B7
330
16E
100
AcDbEntity
  8
$DDT_AUDIT_GENERATED_(A1)
  6
Continuous
 62
     7
100
AcDbLine
 10
331.6536694992
 20
700.2983110734
 30
0.0
 11
308.8707244353
 21
700.2983110734
 31
0.0
  0
ARC
  5
1B8
330
16E
100
AcDbEntity
  8
$DDT_AUDIT_GENERATED_(A1)
  6
Continuous
 62
     7
100
AcDbCircle
 10
-115.1292755647
 20
665.2983110734
 30
0.0
 40
450.0000000000001
100
AcDbArc
 50
1.6834648908
 51
4.2242740157
  0
ARC
  5
1B9
330
16E
100
AcDbEntity
  8
$DDT_AUDIT_GENERATED_(A1)
  6
Continuous
 62
     7
100
AcDbCircle
 10
-115.1292755647
 20
665.2983110734
 30
0.0
 40
450.0000000000002
100
AcDbArc
 50
355.7757259843
 51
358.3165351092
  0
ARC
  5
1BA
330
16E
100
AcDbEntity
  8
$DDT_AUDIT_GENERATED_(A1)
  6
Continuous
 62
     7
100
AcDbCircle
 10
331.6536694992
 20
632.2983110734
 30
0.0
 40
1.999999999999995
100
AcDbArc
 50
270.0
 51
355.7757259844
  0
ARC
  5
1BB
330
16E
100
AcDbEntity
  8
$DDT_AUDIT_GENERATED_(A1)
  6
Continuous
 62
     7
100
AcDbCircle
 10
331.6536694992
 20
698.2983110734
 30
0.0
 40
2.000000000000141
100
AcDbArc
 50
4.2242740156
 51
90.0
  0
LINE
  5
1BC
330
16E
100
AcDbEntity
  8
$DDT_AUDIT_GENERATED_(A1)
  6
Continuous
 62
     7
100
AcDbLine
 10
334.6807906969
 20
652.2398110734
 30
0.0
 11
334.6807906969
 21
678.3568110734
 31
0.0
  0
LINE
  5
1BE
330
16E
100
AcDbEntity
  8
$DDT_AUDIT_GENERATED_(1BD)
  6
Continuous
 62
     7
100
AcDbLine
 10
348.6803676819
 20
680.2983110734
 30
0.0
 11
348.6803676819
 21
678.2109698471
 31
0.0
  0
LINE
  5
1BF
330
16E
100
AcDbEntity
  8
$DDT_AUDIT_GENERATED_(1BD)
  6
Continuous
 62
     7
100
AcDbLine
 10
352.1803676819
 20
650.7983110734
 30
0.0
 11
352.1803676819
 21
679.7983110734
 31
0.0
  0
LINE
  5
1C0
330
16E
100
AcDbEntity
  8
$DDT_AUDIT_GENERATED_(1BD)
  6
Continuous
 62
     7
100
AcDbLine
 10
335.1803676819
 20
650.7983110734
 30
0.0
 11
335.1803676819
 21
679.7983110734
 31
0.0
  0
LINE
  5
1C1
330
16E
100
AcDbEntity
  8
$DDT_AUDIT_GENERATED_(1BD)
  6
Continuous
 62
     7
100
AcDbLine
 10
338.6803676819
 20
680.2983110734
 30
0.0
 11
338.6803676819
 21
678.2109698471
 31
0.0
  0
LINE
  5
1C2
330
16E
100
AcDbEntity
  8
$DDT_AUDIT_GENERATED_(1BD)
  6
Continuous
 62
     7
100
AcDbLine
 10
338.6803676819
 20
667.3856522998
 30
0.0
 11
338.6803676819
 21
663.2109698471
 31
0.0
  0
LINE
  5
1C3
330
16E
100
AcDbEntity
  8
$DDT_AUDIT_GENERATED_(1BD)
  6
Continuous
 62
     7
100
AcDbLine
 10
338.6803676819
 20
652.3856522998
 30
0.0
 11
338.6803676819
 21
650.2983110734
 31
0.0
  0
LINE
  5
1C4
330
16E
100
AcDbEntity
  8
$DDT_AUDIT_GENERATED_(1BD)
  6
Continuous
 62
     7
100
AcDbLine
 10
338.6803676819
 20
680.2983110734
 30
0.0
 11
335.8846399905
 21
680.2983110734
 31
0.0
  0
LINE
  5
1C5
330
16E
100
AcDbEntity
  8
$DDT_AUDIT_GENERATED_(1BD)
  6
Continuous
 62
     7
100
AcDbLine
 10
338.6803676819
 20
650.2983110734
 30
0.0
 11
335.8846399905
 21
650.2983110734
 31
0.0
  0
ARC
  5
1C6
330
16E
100
AcDbEntity
  8
$DDT_AUDIT_GENERATED_(1BD)
  6
Continuous
 62
     7
100
AcDbCircle
 10
342.458927201
 20
657.7983110734
 30
0.0
 40
6.601089837288676
100
AcDbArc
 50
124.9187681796
 51
235.0812318204
  0
ARC
  5
1C7
330
16E
100
AcDbEntity
  8
$DDT_AUDIT_GENERATED_(1BD)
  6
Continuous
 62
     7
100
AcDbCircle
 10
342.4589073995
 20
672.7983110734
 30
0.0
 40
6.601078502639208
100
AcDbArc
 50
124.9186272504
 51
235.0813727496
  0
LINE
  5
1C8
330
16E
100
AcDbEntity
  8
$DDT_AUDIT_GENERATED_(1BD)
  6
Continuous
 62
     7
100
AcDbLine
 10
348.6803676819
 20
667.3856522998
 30
0.0
 11
348.6803676819
 21
663.2109698471
 31
0.0
  0
LINE
  5
1C9
330
16E
100
AcDbEntity
  8
$DDT_AUDIT_GENERATED_(1BD)
  6
Continuous
 62
     7
100
AcDbLine
 10
348.6803676819
 20
652.3856522998
 30
0.0
 11
348.6803676819
 21
650.2983110734
 31
0.0
  0
LINE
  5
1CA
330
16E
100
AcDbEntity
  8
$DDT_AUDIT_GENERATED_(1BD)
  6
Continuous
 62
     7
100
AcDbLine
 10
338.6803676819
 20
678.2109698471
 30
0.0
 11
348.6803676819
 21
678.2109698471
 31
0.0
  0
ARC
  5
1CB
330
16E
100
AcDbEntity
  8
$DDT_AUDIT_GENERATED_(1BD)
  6
Continuous
 62
     7
100
AcDbCircle
 10
344.9018279642
 20
672.7983110734
 30
0.0
 40
6.601078502639201
100
AcDbArc
 50
304.9186272504
 51
55.0813727496
  0
LINE
  5
1CC
330
16E
100
AcDbEntity
  8
$DDT_AUDIT_GENERATED_(1BD)
  6
Continuous
 62
     7
100
AcDbLine
 10
348.6803676819
 20
667.3856522998
 30
0.0
 11
338.6803676819
 21
667.3856522998
 31
0.0
  0
LINE
  5
1CD
330
16E
100
AcDbEntity
  8
$DDT_AUDIT_GENERATED_(1BD)
  6
Continuous
 62
     7
100
AcDbLine
 10
338.6803676819
 20
663.2109698471
 30
0.0
 11
348.6803676819
 21
663.2109698471
 31
0.0
  0
ARC
  5
1CE
330
16E
100
AcDbEntity
  8
$DDT_AUDIT_GENERATED_(1BD)
  6
Continuous
 62
     7
100
AcDbCircle
 10
344.9018081627
 20
657.7983110734
 30
0.0
 40
6.601089837288668
100
AcDbArc
 50
304.9187681796
 51
55.0812318205
  0
LINE
  5
1CF
330
16E
100
AcDbEntity
  8
$DDT_AUDIT_GENERATED_(1BD)
  6
Continuous
 62
     7
100
AcDbLine
 10
348.6803676819
 20
652.3856522998
 30
0.0
 11
338.6803676819
 21
652.3856522998
 31
0.0
  0
LINE
  5
1D0
330
16E
100
AcDbEntity
  8
$DDT_AUDIT_GENERATED_(1BD)
  6
Continuous
 62
     7
100
AcDbLine
 10
338.6803676819
 20
650.2983110734
 30
0.0
 11
348.6803676819
 21
650.2983110734
 31
0.0
  0
LINE
  5
1D1
330
16E
100
AcDbEntity
  8
$DDT_AUDIT_GENERATED_(1BD)
  6
Continuous
 62
     7
100
AcDbLine
 10
351.4760953732
 20
650.2983110734
 30
0.0
 11
348.6803676819
 21
650.2983110734
 31
0.0
  0
LINE
  5
1D2
330
16E
100
AcDbEntity
  8
$DDT_AUDIT_GENERATED_(1BD)
  6
Continuous
 62
     7
100
AcDbLine
 10
348.6803676819
 20
680.2983110734
 30
0.0
 11
351.4760953732
 21
680.2983110734
 31
0.0
  0
LINE
  5
1D3
330
16E
100
AcDbEntity
  8
$DDT_AUDIT_GENERATED_(1BD)
  6
Continuous
 62
     7
100
AcDbLine
 10
348.6803676819
 20
680.2983110734
 30
0.0
 11
338.6803676819
 21
680.2983110734
 31
0.0
  0
ARC
  5
1D4
330
16E
100
AcDbEntity
  8
$DDT_AUDIT_GENERATED_(1BD)
  6
Continuous
 62
     7
100
AcDbCircle
 10
346.0446664837
 20
671.901908677
 30
0.0
 40
10.0
100
AcDbArc
 50
52.1519040322
 51
57.1662986992
  0
ARC
  5
1D5
330
16E
100
AcDbEntity
  8
$DDT_AUDIT_GENERATED_(1BD)
  6
Continuous
 62
     7
100
AcDbCircle
 10
346.0446664837
 20
658.6947134699
 30
0.0
 40
10.0
100
AcDbArc
 50
302.8411398915
 51
307.8480959678
  0
ARC
  5
1D6
330
16E
100
AcDbEntity
  8
$DDT_AUDIT_GENERATED_(1BD)
  6
Continuous
 62
     7
100
AcDbCircle
 10
341.3160688801
 20
671.901908677
 30
0.0
 40
10.0
100
AcDbArc
 50
122.8411398915
 51
127.8480959678
  0
ARC
  5
1D7
330
16E
100
AcDbEntity
  8
$DDT_AUDIT_GENERATED_(1BD)
  6
Continuous
 62
     7
100
AcDbCircle
 10
341.3160688801
 20
658.6947134699
 30
0.0
 40
10.0
100
AcDbArc
 50
232.1519040322
 51
237.1662986992
  0
LINE
  5
1D9
330
16E
100
AcDbEntity
  8
$DDT_AUDIT_GENERATED_(1D8)
  6
Continuous
 62
     7
100
AcDbLine
 10
352.460015527
 20
675.7983110734
 30
0.0
 11
352.1803676819
 21
675.7983110734
 31
0.0
  0
LINE
  5
1DA
330
16E
100
AcDbEntity
  8
$DDT_AUDIT_GENERATED_(1D8)
  6
Continuous
 62
     7
100
AcDbLine
 10
352.1803676819
 20
654.7983110734
 30
0.0
 11
352.4798789775
 21
654.7983110734
 31
0.0
  0
LINE
  5
1DC
330
16E
100
AcDbEntity
  8
$DDT_AUDIT_GENERATED_(1DB)
  6
Continuous
 62
     7
100
AcDbLine
 10
383.9303676819
 20
588.2983110734
 30
0.0
 11
356.9303676819
 21
588.2983110734
 31
0.0
  0
LINE
  5
1DD
330
16E
100
AcDbEntity
  8
$DDT_AUDIT_GENERATED_(1DB)
  6
Continuous
 62
     7
100
AcDbLine
 10
367.5303676819
 20
591.0983110734
 30
0.0
 11
356.9303676819
 21
591.0983110734
 31
0.0
  0
LINE
  5
1DE
330
16E
100
AcDbEntity
  8
$DDT_AUDIT_GENERATED_(1DB)
  6
Continuous
 62
     7
100
AcDbLine
 10
367.5303676819
 20
592.6483110734
 30
0.0
 11
367.5303676819
 21
591.0983110734
 31
0.0
  0
LINE
  5
1DF
330
16E
100
AcDbEntity
  8
$DDT_AUDIT_GENERATED_(1DB)
  6
Continuous
 62
     7
100
AcDbLine
 10
367.5303676819
 20
592.6483110734
 30
0.0
 11
356.9303676819
 21
592.6483110734
 31
0.0
  0
LINE
  5
1E0
330
16E
100
AcDbEntity
  8
$DDT_AUDIT_GENERATED_(1DB)
  6
Continuous
 62
     7
100
AcDbLine
 10
383.9303676819
 20
588.2983110734
 30
0.0
 11
383.9303676819
 21
621.1286762551
 31
0.0
  0
LINE
  5
1E1
330
16E
100
AcDbEntity
  8
$DDT_AUDIT_GENERATED_(1DB)
  6
Continuous
 62
     7
100
AcDbLine
 10
356.9303676819
 20
591.0983110734
 30
0.0
 11
356.9303676819
 21
588.2983110734
 31
0.0
  0
LINE
  5
1E2
330
16E
100
AcDbEntity
  8
$DDT_AUDIT_GENERATED_(1DB)
  6
Continuous
 62
     7
100
AcDbLine
 10
356.9303676819
 20
621.3607092123
 30
0.0
 11
356.9303676819
 21
592.6483110734
 31
0.0
  0
LINE
  5
1E4
330
16E
100
AcDbEntity
  8
$DDT_AUDIT_GENERATED_(1E3)
  6
Continuous
 62
     7
100
AcDbLine
 10
366.9327200567
 20
591.0983110734
 30
0.0
 11
356.9303676819
 21
591.0983110734
 31
0.0
  0
LINE
  5
1E5
330
16E
100
AcDbEntity
  8
$DDT_AUDIT_GENERATED_(1E3)
  6
Continuous
 62
     7
100
AcDbLine
 10
366.9327200567
 20
592.5983110734
 30
0.0
 11
356.9303676819
 21
592.5983110734
 31
0.0
  0
LINE
  5
1E6
330
16E
100
AcDbEntity
  8
$DDT_AUDIT_GENERATED_(1E3)
  6
Continuous
 62
     7
100
AcDbLine
 10
367.4327200567
 20
592.5983110734
 30
0.0
 11
366.9327200567
 21
592.5983110734
 31
0.0
  0
LINE
  5
1E7
330
16E
100
AcDbEntity
  8
$DDT_AUDIT_GENERATED_(1E3)
  6
Continuous
 62
     7
100
AcDbLine
 10
366.9327200567
 20
591.0983110734
 30
0.0
 11
366.9327200567
 21
592.5983110734
 31
0.0
  0
LINE
  5
1E8
330
16E
100
AcDbEntity
  8
$DDT_AUDIT_GENERATED_(1E3)
  6
Continuous
 62
     7
100
AcDbLine
 10
367.4327200567
 20
591.0983110734
 30
0.0
 11
367.4327200567
 21
592.5983110734
 31
0.0
  0
LINE
  5
1E9
330
16E
100
AcDbEntity
  8
$DDT_AUDIT_GENERATED_(1E3)
  6
Continuous
 62
     7
100
AcDbLine
 10
356.9303676819
 20
592.5983110734
 30
0.0
 11
356.9303676819
 21
591.0983110734
 31
0.0
  0
LINE
  5
1EB
330
16E
100
AcDbEntity
  8
09422131_NIPPEL_
  6
Continuous
 62
     7
100
AcDbLine
 10
358.4303676819
 20
584.3983110734
 30
0.0
 11
382.4303676819
 21
584.3983110734
 31
0.0
  0
ARC
  5
1EC
330
16E
100
AcDbEntity
  8
09422131_NIPPEL_
  6
Continuous
 62
     7
100
AcDbCircle
 10
361.9201613697
 20
587.9790009534
 30
0.0
 40
4.999999999999999
100
AcDbArc
 50
178.5756936574
 51
225.7365382089
  0
ARC
  5
1ED
330
16E
100
AcDbEntity
  8
09422131_NIPPEL_
  6
Continuous
 62
     7
100
AcDbCircle
 10
378.940573994
 20
587.9790009534
 30
0.0
 40
5.00000000000001
100
AcDbArc
 50
314.2634617911
 51
1.4243063426
  0
ARC
  5
1EE
330
16E
100
AcDbEntity
  8
09422131_NIPPEL_
  6
Continuous
 62
     7
100
AcDbCircle
 10
383.7390909623
 20
588.0983110734
 30
0.0
 40
0.1999999999999966
100
AcDbArc
 50
1.4243063426
 51
90.0
  0
ARC
  5
1EF
330
16E
100
AcDbEntity
  8
09422131_NIPPEL_
  6
Continuous
 62
     7
100
AcDbCircle
 10
357.1216444014
 20
588.0983110734
 30
0.0
 40
0.2000000000000057
100
AcDbArc
 50
90.0
 51
178.5756936574
  0
LINE
  5
1F0
330
16E
100
AcDbEntity
  8
09421031_AUSL_RO
  6
Continuous
 62
     7
100
AcDbLine
 10
382.4303676819
 20
584.3983110734
 30
0.0
 11
358.4303676819
 21
584.3983110734
 31
0.0
  0
LINE
  5
1F1
330
16E
100
AcDbEntity
  8
09421031_AUSL_RO
  6
Continuous
 62
     7
100
AcDbLine
 10
410.4303676819
 20
524.3983110734
 30
0.0
 11
528.4303676819
 21
524.3983110734
 31
0.0
  0
LINE
  5
1F2
330
16E
100
AcDbEntity
  8
09421031_AUSL_RO
  6
Continuous
 62
     7
100
AcDbLine
 10
528.4303676819
 20
548.3983110734
 30
0.0
 11
410.4303676819
 21
548.3983110734
 31
0.0
  0
ARC
  5
1F3
330
16E
100
AcDbEntity
  8
09421031_AUSL_RO
  6
Continuous
 62
     7
100
AcDbCircle
 10
528.4303676819
 20
486.3983110734
 30
0.0
 40
37.99999999999998
100
AcDbArc
 50
10.0
 51
90.0
  0
ARC
  5
1F4
330
16E
100
AcDbEntity
  8
09421031_AUSL_RO
  6
Continuous
 62
     7
100
AcDbCircle
 10
528.4303676819
 20
486.3983110734
 30
0.0
 40
62.00000000000001
100
AcDbArc
 50
10.0
 51
90.0
  0
ARC
  5
1F5
330
16E
100
AcDbEntity
  8
09421031_AUSL_RO
  6
Continuous
 62
     7
100
AcDbCircle
 10
410.4303676819
 20
576.3983110734
 30
0.0
 40
28.00000000000001
100
AcDbArc
 50
180.0
 51
270.0
  0
ARC
  5
1F6
330
16E
100
AcDbEntity
  8
09421031_AUSL_RO
  6
Continuous
 62
     7
100
AcDbCircle
 10
410.4303676819
 20
576.3983110734
 30
0.0
 40
52.00000000000001
100
AcDbArc
 50
180.0
 51
270.0
  0
LINE
  5
1F7
330
16E
100
AcDbEntity
  8
09421031_AUSL_RO
  6
Continuous
 62
     7
100
AcDbLine
 10
358.4303676819
 20
584.3983110734
 30
0.0
 11
358.4303676819
 21
576.3983110734
 31
0.0
  0
LINE
  5
1F8
330
16E
100
AcDbEntity
  8
09421031_AUSL_RO
  6
Continuous
 62
     7
100
AcDbLine
 10
382.4303676819
 20
576.3983110734
 30
0.0
 11
382.4303676819
 21
584.3983110734
 31
0.0
  0
LINE
  5
1F9
330
16E
100
AcDbEntity
  8
09421031_AUSL_RO
  6
Continuous
 62
     7
100
AcDbLine
 10
565.8530622963
 20
492.9969418248
 30
0.0
 11
566.3570128326
 21
490.1388963106
 31
0.0
  0
LINE
  5
1FA
330
16E
100
AcDbEntity
  8
09421031_AUSL_RO
  6
Continuous
 62
     7
100
AcDbLine
 10
589.9923989049
 20
494.3064525746
 30
0.0
 11
589.4884483686
 21
497.1644980888
 31
0.0
  0
ARC
  5
1FB
330
16E
100
AcDbEntity
  8
09421031_AUSL_RO
  6
Continuous
 62
     7
100
AcDbCircle
 10
588.5151872753
 20
494.0459803081
 30
0.0
 40
1.50000000000025
100
AcDbArc
 50
299.4712206345
 51
10.0
  0
ARC
  5
1FC
330
16E
100
AcDbEntity
  8
09421031_AUSL_RO
  6
Continuous
 62
     7
100
AcDbCircle
 10
567.8342244621
 20
490.3993685771
 30
0.0
 40
1.499999999999992
100
AcDbArc
 50
190.0
 51
260.5287793655
  0
LINE
  5
1FD
330
16E
100
AcDbEntity
  8
$DDT_AUDIT_GENERATED_(B1)
  6
Continuous
 62
     7
100
AcDbLine
 10
591.7127819036
 20
475.9115200263
 30
0.0
 11
571.0318190904
 21
472.2649082953
 31
0.0
  0
LINE
  5
1FE
330
16E
100
AcDbEntity
  8
$DDT_AUDIT_GENERATED_(B1)
  6
Continuous
 62
     7
100
AcDbLine
 10
567.24271348
 20
488.8590391455
 30
0.0
 11
589.5978494733
 21
492.8008527785
 31
0.0
  0
ARC
  5
1FF
330
16E
100
AcDbEntity
  8
$DDT_AUDIT_GENERATED_(B1)
  6
Continuous
 62
     7
100
AcDbCircle
 10
585.7912103035
 20
480.7005689699
 30
0.0
 40
16.99999999999979
100
AcDbArc
 50
190.0
 51
209.7499227956
  0
ARC
  5
200
330
16E
100
AcDbEntity
  8
$DDT_AUDIT_GENERATED_(B1)
  6
Continuous
 62
     7
100
AcDbCircle
 10
574.9583250204
 20
478.7904390156
 30
0.0
 40
16.99999999999982
100
AcDbArc
 50
350.2500772044
 51
10.0
  0
LINE
  5
201
330
16E
100
AcDbEntity
  8
$DDT_AUDIT_GENERATED_(B1)
  6
Continuous
 62
     7
100
AcDbLine
 10
591.7000568216
 20
481.7424580359
 30
0.0
 11
589.7716178629
 21
492.6791788422
 31
0.0
  0
LINE
  5
202
330
16E
100
AcDbEntity
  8
$DDT_AUDIT_GENERATED_(B1)
  6
Continuous
 62
     7
100
AcDbLine
 10
567.1210395437
 20
488.6852707559
 30
0.0
 11
569.0494785023
 21
477.7485499496
 31
0.0
  0
ARC
  5
203
330
16E
100
AcDbEntity
  8
$DDT_AUDIT_GENERATED_(B1)
  6
Continuous
 62
     7
100
AcDbCircle
 10
589.6238967
 20
492.6531316156
 30
0.0
 40
0.1500000000000037
100
AcDbArc
 50
10.0
 51
100.0
  0
ARC
  5
204
330
16E
100
AcDbEntity
  8
$DDT_AUDIT_GENERATED_(B1)
  6
Continuous
 62
     7
100
AcDbCircle
 10
567.2687607066
 20
488.7113179825
 30
0.0
 40
0.1500000000000085
100
AcDbArc
 50
100.0
 51
190.0
  0
LINE
  5
205
330
16E
100
AcDbEntity
  8
$DDT_AUDIT_GENERATED_(BC)
  6
Continuous
 62
     7
100
AcDbLine
 10
572.5871723998
 20
472.0822170729
 30
0.0
 11
590.313711954
 21
475.2078842709
 31
0.0
  0
LINE
  5
206
330
16E
100
AcDbEntity
  8
$DDT_AUDIT_GENERATED_(BC)
  6
Continuous
 62
     7
100
AcDbLine
 10
572.5090307199
 20
472.5253805618
 30
0.0
 11
572.5871723998
 21
472.0822170729
 31
0.0
  0
LINE
  5
207
330
16E
100
AcDbEntity
  8
$DDT_AUDIT_GENERATED_(BC)
  6
Continuous
 62
     7
100
AcDbLine
 10
590.313711954
 20
475.2078842709
 30
0.0
 11
590.2355702741
 21
475.6510477598
 31
0.0
  0
ENDBLK
  5
209
330
16E
100
AcDbEntity
  8
0
100
AcDbBlockEnd
  0
BLOCK
  5
298
330
20A
100
AcDbEntity
  8
0
100
AcDbBlockBegin
  2
SE2
 70
     0
 10
0.0
 20
0.0
 30
0.0
  3
SE2
  1

  0
SPLINE
  5
20C
330
20A
100
AcDbEntity
  8
$DDT_AUDIT_GENERATED_(87)
  6
Continuous
 62
     7
100
AcDbSpline
210
0.0
220
0.0
230
1.0
 70
     8
 71
     3
 72
    44
 73
    40
 74
     0
 42
0.0000000000650786
 43
0.0000000001
 40
0.0
 40
0.0
 40
0.0
 40
0.0
 40
0.2499999999999992
 40
0.2499999999999992
 40
0.4999999999999984
 40
0.4999999999999984
 40
0.5624999999999983
 40
0.5624999999999983
 40
0.5781249999999983
 40
0.5781249999999983
 40
0.5937499999999982
 40
0.5937499999999982
 40
0.6093749999999982
 40
0.6093749999999982
 40
0.6249999999999981
 40
0.6249999999999981
 40
0.6562499999999984
 40
0.6562499999999984
 40
0.6874999999999987
 40
0.6874999999999987
 40
0.7187499999999989
 40
0.7187499999999989
 40
0.7499999999999991
 40
0.7499999999999991
 40
0.7812499999999992
 40
0.7812499999999992
 40
0.8124999999999993
 40
0.8124999999999993
 40
0.8437499999999994
 40
0.8437499999999994
 40
0.8749999999999996
 40
0.8749999999999996
 40
0.9062499999999998
 40
0.9062499999999998
 40
0.9374999999999999
 40
0.9374999999999999
 40
0.96875
 40
0.96875
 40
1.0
 40
1.0
 40
1.0
 40
1.0
 10
116.350000009205
 20
309.4645800663956
 30
0.0
 10
103.5917851486867
 20
309.4635857843961
 30
0.0
 10
90.8357298696311
 20
309.4621100472618
 30
0.0
 10
65.33318509749678
 20
309.4837380695284
 30
0.0
 10
52.58998838172929
 20
309.4935851244051
 30
0.0
 10
36.68064903337459
 20
309.6131743129879
 30
0.0
 10
33.4996469130871
 20
309.6415549184746
 30
0.0
 10
29.52530698748892
 20
309.7091855273877
 30
0.0
 10
28.73074122875985
 20
309.7244203085238
 30
0.0
 10
27.14280090775823
 20
309.7624961279369
 30
0.0
 10
26.3467287500963
 20
309.7659290938736
 30
0.0
 10
24.77239687962193
 20
309.9014717938584
 30
0.0
 10
23.99769413995503
 20
310.0564141319151
 30
0.0
 10
22.45489185857444
 20
310.410811270631
 30
0.0
 10
21.68684363356638
 20
310.61154132196
 30
0.0
 10
19.40212954119125
 20
311.3502818842919
 30
0.0
 10
17.91994804791377
 20
312.0194024207597
 30
0.0
 10
15.29942153234068
 20
313.846778659542
 30
0.0
 10
14.17030020679061
 20
315.0533426262201
 30
0.0
 10
12.2724511610324
 20
317.6517420731378
 30
0.0
 10
11.46419788732048
 20
319.0714879899675
 30
0.0
 10
10.12282516373955
 20
321.9999640441826
 30
0.0
 10
9.57157769553152
 20
323.5434353987339
 30
0.0
 10
9.071907683440628
 20
326.740874525042
 30
0.0
 10
9.110757337388197
 20
328.3841216333309
 30
0.0
 10
9.471141099305108
 20
331.5914731727317
 30
0.0
 10
9.843152502334668
 20
333.193703782108
 30
0.0
 10
11.04717238380776
 20
336.1833776255748
 30
0.0
 10
11.87529914653188
 20
337.5493557308441
 30
0.0
 10
13.86121136706575
 20
340.0934800572083
 30
0.0
 10
15.00076178268306
 20
341.2525530582112
 30
0.0
 10
17.5376143441924
 20
343.2287201565331
 30
0.0
 10
18.97005740159835
 20
344.0313381364393
 30
0.0
 10
21.95528138938679
 20
345.1686954996725
 30
0.0
 10
23.55024629733363
 20
345.5255922157414
 30
0.0
 10
26.74046290393384
 20
345.885697092164
 30
0.0
 10
28.34031512499446
 20
345.8751750195179
 30
0.0
 10
31.53973800063584
 20
345.8751750195179
 30
0.0
 10
33.13968739816814
 20
345.8751750195179
 30
0.0
 10
34.7398875610867
 20
345.8751750195179
 30
0.0
  0
LINE
  5
20D
330
20A
100
AcDbEntity
  8
$DDT_AUDIT_GENERATED_(87)
  6
Continuous
 62
     7
100
AcDbLine
 10
178.3275121978
 20
345.8751750195
 30
0.0
 11
187.0622375367
 21
345.8751750195
 31
0.0
  0
LINE
  5
20E
330
20A
100
AcDbEntity
  8
$DDT_AUDIT_GENERATED_(87)
  6
Continuous
 62
     7
100
AcDbLine
 10
45.6377624327
 20
345.8751750195
 30
0.0
 11
178.3275121978
 21
345.8751750195
 31
0.0
  0
ARC
  5
20F
330
20A
100
AcDbEntity
  8
$DDT_AUDIT_GENERATED_(87)
  6
Continuous
 62
     7
100
AcDbCircle
 10
40.1888249969
 20
384.2082591201
 30
0.0
 40
38.71842269309786
100
AcDbArc
 50
261.9097693919
 51
278.0902306081
  0
SPLINE
  5
210
330
20A
100
AcDbEntity
  8
$DDT_AUDIT_GENERATED_(87)
  6
Continuous
 62
     7
100
AcDbSpline
210
0.0
220
0.0
230
1.0
 70
     8
 71
     3
 72
    36
 73
    32
 74
     0
 42
0.0000000000651189
 43
0.0000000001
 40
0.0
 40
0.0
 40
0.0
 40
0.0
 40
0.0312500000000001
 40
0.0312500000000001
 40
0.0625000000000003
 40
0.0625000000000003
 40
0.0937500000000004
 40
0.0937500000000004
 40
0.1250000000000006
 40
0.1250000000000006
 40
0.1562500000000007
 40
0.1562500000000007
 40
0.1875000000000008
 40
0.1875000000000008
 40
0.218750000000001
 40
0.218750000000001
 40
0.2500000000000011
 40
0.2500000000000011
 40
0.2812500000000012
 40
0.2812500000000012
 40
0.3125000000000014
 40
0.3125000000000014
 40
0.3437500000000016
 40
0.3437500000000016
 40
0.3750000000000017
 40
0.3750000000000017
 40
0.4062500000000018
 40
0.4062500000000018
 40
0.4218750000000018
 40
0.4218750000000018
 40
0.4340730514620869
 40
0.4340730514620869
 40
0.4340730514620869
 40
0.4340730514620869
 10
197.9601124843658
 20
345.8751750195179
 30
0.0
 10
199.5460573172753
 20
345.8751750195179
 30
0.0
 10
201.1317676829521
 20
345.8751750195179
 30
0.0
 10
204.3026937981087
 20
345.8751750195179
 30
0.0
 10
205.8919538989164
 20
345.9342535100711
 30
0.0
 10
209.0403739616114
 20
345.6074414903155
 30
0.0
 10
210.6249660865996
 20
345.229992196262
 30
0.0
 10
213.6033744444196
 20
344.0937405828446
 30
0.0
 10
215.0158059795332
 20
343.3212432656163
 30
0.0
 10
217.5730356252222
 20
341.3703322372132
 30
0.0
 10
218.7013264768895
 20
340.241074180562
 30
0.0
 10
220.7068372091937
 20
337.7254046223565
 30
0.0
 10
221.5560433375146
 20
336.3597449613058
 30
0.0
 10
222.7857120825843
 20
333.4259493690663
 30
0.0
 10
223.1798687006755
 20
331.8333762877227
 30
0.0
 10
223.5763472043086
 20
328.6632004376081
 30
0.0
 10
223.6285002873624
 20
327.0514101994438
 30
0.0
 10
223.2456121430951
 20
323.8489143428649
 30
0.0
 10
222.7795022376235
 20
322.3359096812938
 30
0.0
 10
221.490319778376
 20
319.4245891196445
 30
0.0
 10
220.6802824759645
 20
318.0209478949848
 30
0.0
 10
218.7736427323088
 20
315.4696129529559
 30
0.0
 10
217.6205655110356
 20
314.3143315683574
 30
0.0
 10
215.0631784947958
 20
312.446945962745
 30
0.0
 10
213.6463356905062
 20
311.6970804967266
 30
0.0
 10
210.6639957748761
 20
310.5424668513792
 30
0.0
 10
209.1283885145092
 20
310.1255121970208
 30
0.0
 10
206.7448263244484
 20
309.7871681670713
 30
0.0
 10
205.9442515676585
 20
309.7645632848962
 30
0.0
 10
204.5229019040879
 20
309.7256304801568
 30
0.0
 10
203.8996894424906
 20
309.7119950785181
 30
0.0
 10
203.2764236079286
 20
309.7000842576633
 30
0.0
  0
SPLINE
  5
211
330
20A
100
AcDbEntity
  8
$DDT_AUDIT_GENERATED_(87)
  6
Continuous
 62
     7
100
AcDbSpline
210
0.0
220
0.0
230
1.0
 70
     8
 71
     3
 72
    10
 73
     6
 74
     0
 42
0.0000000000650854
 43
0.0000000001
 40
0.5230340597365082
 40
0.5230340597365082
 40
0.5230340597365082
 40
0.5230340597365082
 40
0.7500000000000008
 40
0.7500000000000008
 40
1.0
 40
1.0
 40
1.0
 40
1.0
 10
189.6328805562843
 20
309.5603932099796
 30
0.0
 10
178.024443963237
 20
309.4900045397275
 30
0.0
 10
166.4027797416288
 20
309.4830759452987
 30
0.0
 10
141.9749234010494
 20
309.4635174050439
 30
0.0
 10
129.1651763552234
 20
309.4645800663956
 30
0.0
 10
116.350000009205
 20
309.4645800663956
 30
0.0
  0
ARC
  5
212
330
20A
100
AcDbEntity
  8
$DDT_AUDIT_GENERATED_(87)
  6
Continuous
 62
     7
100
AcDbCircle
 10
192.5111750105
 20
384.2086823408
 30
0.0
 40
38.71884170711589
100
AcDbArc
 50
261.9098574738
 51
278.0901425262
  0
ARC
  5
213
330
20A
100
AcDbEntity
  8
$DDT_AUDIT_GENERATED_(87)
  6
Continuous
 62
     7
100
AcDbCircle
 10
208.1513835618
 20
312.388847982
 30
0.0
 40
33.55457792423958
100
AcDbArc
 50
93.8643204892
 51
94.0287479016
  0
ARC
  5
214
330
20A
100
AcDbEntity
  8
$DDT_AUDIT_GENERATED_(87)
  6
Continuous
 62
     7
100
AcDbCircle
 10
201.4625109436
 20
274.3252431646
 30
0.0
 40
71.63560248519693
100
AcDbArc
 50
84.1158676144
 51
87.5564949026
  0
ARC
  5
215
330
20A
100
AcDbEntity
  8
$DDT_AUDIT_GENERATED_(197)
  6
Continuous
 62
     7
100
AcDbCircle
 10
116.349999992
 20
276.7751750195
 30
0.0
 40
26.0
100
AcDbArc
 50
180.0
 51
202.661185091
  0
ARC
  5
216
330
20A
100
AcDbEntity
  8
$DDT_AUDIT_GENERATED_(197)
  6
Continuous
 62
     7
100
AcDbCircle
 10
116.349999992
 20
276.7751750195
 30
0.0
 40
26.00000000000001
100
AcDbArc
 50
337.3783153452
 51
0.0
  0
LINE
  5
217
330
20A
100
AcDbEntity
  8
$DDT_AUDIT_GENERATED_(197)
  6
Continuous
 62
     7
100
AcDbLine
 10
142.349999992
 20
276.7751750195
 30
0.0
 11
142.349999992
 21
309.467104906
 31
0.0
  0
LINE
  5
218
330
20A
100
AcDbEntity
  8
$DDT_AUDIT_GENERATED_(197)
  6
Continuous
 62
     7
100
AcDbLine
 10
90.349999992
 20
309.4672483041
 30
0.0
 11
90.349999992
 21
276.7751750195
 31
0.0
  0
SPLINE
  5
219
330
20A
100
AcDbEntity
  8
$DDT_AUDIT_GENERATED_(96)
  6
Continuous
 62
     7
100
AcDbSpline
210
0.0
220
0.0
230
1.0
 70
     8
 71
     3
 72
    10
 73
     6
 74
     0
 42
0.0000000019146376
 43
0.0000000001
 40
0.672966274106211
 40
0.672966274106211
 40
0.672966274106211
 40
0.672966274106211
 40
0.687499999999999
 40
0.687499999999999
 40
0.7029488994507118
 40
0.7029488994507118
 40
0.7029488994507118
 40
0.7029488994507118
 10
132.5198513231942
 20
229.1388468008609
 30
0.0
 10
132.5195143271174
 20
229.1568933464413
 30
0.0
 10
132.5148362528616
 20
229.1773760425535
 30
0.0
 10
132.5074487803652
 20
229.2299362466258
 30
0.0
 10
132.5033508987196
 20
229.2604132548666
 30
0.0
 10
132.4991958951785
 20
229.293865151001
 30
0.0
  0
SPLINE
  5
21A
330
20A
100
AcDbEntity
  8
$DDT_AUDIT_GENERATED_(96)
  6
Continuous
 62
     7
100
AcDbSpline
210
0.0
220
0.0
230
1.0
 70
     8
 71
     3
 72
    10
 73
     6
 74
     0
 42
0.0000000001459247
 43
0.0000000001
 40
0.0
 40
0.0
 40
0.0
 40
0.0
 40
0.0625000000000001
 40
0.0625000000000001
 40
0.0787790908108744
 40
0.0787790908108744
 40
0.0787790908108744
 40
0.0787790908108744
 10
134.4166395582215
 20
230.7071352501649
 30
0.0
 10
136.2019118771771
 20
230.936647293509
 30
0.0
 10
137.6693591914218
 20
231.2004010389898
 30
0.0
 10
139.1550623712451
 20
231.5785813654294
 30
0.0
 10
139.4417346122292
 20
231.6593137558739
 30
0.0
 10
139.7058923914001
 20
231.7419496426813
 30
0.0
  0
SPLINE
  5
21B
330
20A
100
AcDbEntity
  8
$DDT_AUDIT_GENERATED_(96)
  6
Continuous
 62
     7
100
AcDbSpline
210
0.0
220
0.0
230
1.0
 70
     8
 71
     3
 72
    30
 73
    26
 74
     0
 42
0.0000000001088994
 43
0.0000000001
 40
0.2332163135814063
 40
0.2332163135814063
 40
0.2332163135814063
 40
0.2332163135814063
 40
0.2500000000000004
 40
0.2500000000000004
 40
0.2812500000000005
 40
0.2812500000000005
 40
0.3125000000000005
 40
0.3125000000000005
 40
0.3437500000000006
 40
0.3437500000000006
 40
0.3750000000000006
 40
0.3750000000000006
 40
0.4375000000000006
 40
0.4375000000000006
 40
0.5000000000000007
 40
0.5000000000000007
 40
0.6250000000000008
 40
0.6250000000000008
 40
0.6562500000000008
 40
0.6562500000000008
 40
0.6875000000000009
 40
0.6875000000000009
 40
0.7500000000000007
 40
0.7500000000000007
 40
0.7719887960545497
 40
0.7719887960545497
 40
0.7719887960545497
 40
0.7719887960545497
 10
140.6689125596899
 20
234.432012766543
 30
0.0
 10
140.4627851221922
 20
234.53383792085
 30
0.0
 10
140.2324175614023
 20
234.6349145391578
 30
0.0
 10
139.5070023392084
 20
234.9204155024489
 30
0.0
 10
138.9546711967604
 20
235.1025740153817
 30
0.0
 10
137.6836273977183
 20
235.4584005927361
 30
0.0
 10
136.962835881152
 20
235.6320142185871
 30
0.0
 10
135.3946858159484
 20
235.9575828394055
 30
0.0
 10
134.5419311460126
 20
236.1109948162663
 30
0.0
 10
132.6943291374055
 20
236.397280176184
 30
0.0
 10
131.6915482781709
 20
236.53131105472
 30
0.0
 10
128.5407901188172
 20
236.8930087639884
 30
0.0
 10
126.2680452374286
 20
237.0811025911253
 30
0.0
 10
121.4021147977839
 20
237.3435355549186
 30
0.0
 10
118.9186183476836
 20
237.4121979946302
 30
0.0
 10
111.3053047121991
 20
237.4138986981951
 30
0.0
 10
106.2684621104358
 20
237.1337450733394
 30
0.0
 10
101.043289487074
 20
236.5356530266432
 30
0.0
 10
100.0377556152954
 20
236.4018857315717
 30
0.0
 10
98.17307318528415
 20
236.1136743806779
 30
0.0
 10
97.31735876519474
 20
235.959830433737
 30
0.0
 10
94.96636870275566
 20
235.4724825651244
 30
0.0
 10
93.67345031575019
 20
235.1088316992384
 30
0.0
 10
92.39502349720473
 20
234.6065880881286
 30
0.0
 10
92.10199459365933
 20
234.4736653713765
 30
0.0
 10
91.85118396950324
 20
234.3397452910202
 30
0.0
  0
SPLINE
  5
21C
330
20A
100
AcDbEntity
  8
$DDT_AUDIT_GENERATED_(96)
  6
Continuous
 62
     7
100
AcDbSpline
210
0.0
220
0.0
230
1.0
 70
     8
 71
     3
 72
    10
 73
     6
 74
     0
 42
0.0000000001422823
 43
0.0000000001
 40
0.9284895113429977
 40
0.9284895113429977
 40
0.9284895113429977
 40
0.9284895113429977
 40
0.9375000000000001
 40
0.9375000000000001
 40
1.0
 40
1.0
 40
1.0
 40
1.0
 10
93.35107594597505
 20
231.635180491917
 30
0.0
 10
93.50779066259607
 20
231.5905462479975
 30
0.0
 10
93.67148599638779
 20
231.5464642300164
 30
0.0
 10
95.02577575350033
 20
231.2010136495146
 30
0.0
 10
96.49831949169021
 20
230.9366184601711
 30
0.0
 10
98.28336789976905
 20
230.7071352112029
 30
0.0
  0
SPLINE
  5
21D
330
20A
100
AcDbEntity
  8
$DDT_AUDIT_GENERATED_(96)
  6
Continuous
 62
     7
100
AcDbSpline
210
0.0
220
0.0
230
1.0
 70
     8
 71
     3
 72
    10
 73
     6
 74
     0
 42
0.000000000382482
 43
0.0000000001
 40
0.346596301971464
 40
0.346596301971464
 40
0.346596301971464
 40
0.346596301971464
 40
0.3749999999999973
 40
0.3749999999999973
 40
0.3858989352272704
 40
0.3858989352272704
 40
0.3858989352272704
 40
0.3858989352272704
 10
100.7114563299611
 20
225.9629821604927
 30
0.0
 10
100.7497949474322
 20
225.9404190455135
 30
0.0
 10
100.8438478090549
 20
225.9259623444955
 30
0.0
 10
101.3413158773667
 20
225.9177344178896
 30
0.0
 10
101.517201355014
 20
225.916671248468
 30
0.0
 10
101.7317020078437
 20
225.9166894337231
 30
0.0
  0
SPLINE
  5
21E
330
20A
100
AcDbEntity
  8
$DDT_AUDIT_GENERATED_(96)
  6
Continuous
 62
     7
100
AcDbSpline
210
0.0
220
0.0
230
1.0
 70
     8
 71
     3
 72
    10
 73
     6
 74
     0
 42
0.0000000003719104
 43
0.0000000001
 40
0.6102308182844444
 40
0.6102308182844444
 40
0.6102308182844444
 40
0.6102308182844444
 40
0.6249999999999992
 40
0.6249999999999992
 40
0.6484063004227498
 40
0.6484063004227498
 40
0.6484063004227498
 40
0.6484063004227498
 10
130.9639588833172
 20
225.916690638057
 30
0.0
 10
131.2557258877362
 20
225.9166524933241
 30
0.0
 10
131.4792512502833
 20
225.918655473918
 30
0.0
 10
131.87074718345
 20
225.9297306124118
 30
0.0
 10
131.9510654679005
 20
225.9420618341873
 30
0.0
 10
131.9849540156652
 20
225.9598136241428
 30
0.0
  0
SPLINE
  5
21F
330
20A
100
AcDbEntity
  8
$DDT_AUDIT_GENERATED_(96)
  6
Continuous
 62
     7
100
AcDbSpline
210
0.0
220
0.0
230
1.0
 70
     8
 71
     3
 72
    12
 73
     8
 74
     0
 42
0.0000000008442708
 43
0.0000000001
 40
0.0144507963622386
 40
0.0144507963622386
 40
0.0144507963622386
 40
0.0144507963622386
 40
0.2499999999999998
 40
0.2499999999999998
 40
0.3125
 40
0.3125
 40
0.3254704436396714
 40
0.3254704436396714
 40
0.3254704436396714
 40
0.3254704436396714
 10
132.478878249613
 20
230.1962121636097
 30
0.0
 10
132.4632142043733
 20
228.689297949568
 30
0.0
 10
132.4302881743857
 20
227.5668571826392
 30
0.0
 10
132.4767032787927
 20
226.7862909087049
 30
0.0
 10
132.4977637822979
 20
226.6584776625803
 30
0.0
 10
132.5154110991938
 20
226.5501857915369
 30
0.0
 10
132.519400102578
 20
226.5332476274002
 30
0.0
 10
132.5199458022961
 20
226.5178953262412
 30
0.0
  0
SPLINE
  5
220
330
20A
100
AcDbEntity
  8
$DDT_AUDIT_GENERATED_(96)
  6
Continuous
 62
     7
100
AcDbSpline
210
0.0
220
0.0
230
1.0
 70
     8
 71
     3
 72
    12
 73
     8
 74
     0
 42
0.000000000846389
 43
0.0000000001
 40
0.6733196278923121
 40
0.6733196278923121
 40
0.6733196278923121
 40
0.6733196278923121
 40
0.6874999999999998
 40
0.6874999999999998
 40
0.7499999999999996
 40
0.7499999999999996
 40
0.9860920372405312
 40
0.9860920372405312
 40
0.9860920372405312
 40
0.9860920372405312
 10
100.1802058198197
 20
226.5179007981012
 30
0.0
 10
100.1805293522789
 20
226.534614116492
 30
0.0
 10
100.1849453471028
 20
226.5532086469994
 30
0.0
 10
100.2036685199492
 20
226.6645304220911
 30
0.0
 10
100.2239563494407
 20
226.793112199951
 30
0.0
 10
100.2693825995635
 20
227.5775869487811
 30
0.0
 10
100.2365410473565
 20
228.701516276556
 30
0.0
 10
100.2210085574513
 20
230.2077266097733
 30
0.0
  0
ELLIPSE
  5
221
330
20A
100
AcDbEntity
  8
$DDT_AUDIT_GENERATED_(96)
  6
Continuous
 62
     7
100
AcDbEllipse
 10
98.2833678998
 20
231.203173326
 30
0.0
 11
0.06371154273334886
 21
0.4959242274002601
 31
0.0
210
0.0
220
0.0
230
1.0
 40
0.7092804786
 41
3.110045347111325
 42
3.320777652157569
  0
ARC
  5
222
330
20A
100
AcDbEntity
  8
$DDT_AUDIT_GENERATED_(96)
  6
Continuous
 62
     7
100
AcDbCircle
 10
116.3495044019
 20
-23657.4888102477
 30
0.0
 40
23924.08025986534
100
AcDbArc
 50
89.9353563116
 51
89.9353569837
  0
LINE
  5
223
330
20A
100
AcDbEntity
  8
$DDT_AUDIT_GENERATED_(96)
  6
Continuous
 62
     7
100
AcDbLine
 10
143.1420853023
 20
266.7818953985
 30
0.0
 11
89.5582250657
 21
266.7818953985
 31
0.0
  0
LINE
  5
224
330
20A
100
AcDbEntity
  8
$DDT_AUDIT_GENERATED_(96)
  6
Continuous
 62
     7
100
AcDbLine
 10
101.7693669559
 20
225.9166892038
 30
0.0
 11
130.8949762034
 21
225.9166892038
 31
0.0
  0
LINE
  5
225
330
20A
100
AcDbEntity
  8
$DDT_AUDIT_GENERATED_(96)
  6
Continuous
 62
     7
100
AcDbLine
 10
100.1820722127
 20
229.1374539464
 30
0.0
 11
100.1820722163
 21
226.5201219039
 31
0.0
  0
LINE
  5
226
330
20A
100
AcDbEntity
  8
$DDT_AUDIT_GENERATED_(96)
  6
Continuous
 62
     7
100
AcDbLine
 10
132.5179190627
 20
226.5406644976
 30
0.0
 11
132.5179190592
 21
229.1379113534
 31
0.0
  0
SPLINE
  5
227
330
20A
100
AcDbEntity
  8
$DDT_AUDIT_GENERATED_(96)
  6
Continuous
 62
     7
100
AcDbSpline
210
0.0
220
0.0
230
1.0
 70
     8
 71
     3
 72
    14
 73
    10
 74
     0
 42
0.0000000026232622
 43
0.0000000001
 40
0.0
 40
0.0
 40
0.0
 40
0.0
 40
0.1068010080410867
 40
0.2374073972614148
 40
0.3826998953525056
 40
0.5574029541839897
 40
0.7514898240542441
 40
0.9441059593198887
 40
1.0
 40
1.0
 40
1.0
 40
1.0
 10
90.30407089609497
 20
233.70050627644
 30
0.0
 10
90.3132340096363
 20
233.5733613280952
 30
0.0
 10
90.33297433241913
 20
233.3364755382788
 30
0.0
 10
90.54850546295728
 20
232.9853431329329
 30
0.0
 10
90.87747995020769
 20
232.6619352130006
 30
0.0
 10
91.36916488877308
 20
232.3426346907852
 30
0.0
 10
92.04806854363429
 20
232.0337604423181
 30
0.0
 10
92.70266048591428
 20
231.7963554449039
 30
0.0
 10
93.11921400452923
 20
231.6846020795192
 30
0.0
 10
93.22918323674236
 20
231.6552675273048
 30
0.0
  0
SPLINE
  5
228
330
20A
100
AcDbEntity
  8
$DDT_AUDIT_GENERATED_(96)
  6
Continuous
 62
     7
100
AcDbSpline
210
0.0
220
0.0
230
1.0
 70
     8
 71
     3
 72
    14
 73
    10
 74
     0
 42
0.000000002904554
 43
0.0000000001
 40
0.0
 40
0.0
 40
0.0
 40
0.0
 40
0.0963585997945307
 40
0.2988830990633656
 40
0.5048346099935035
 40
0.6907944268116304
 40
0.8414726949113014
 40
0.9766228296494085
 40
1.0
 40
1.0
 40
1.0
 40
1.0
 10
139.8374772535645
 20
231.7664469112591
 30
0.0
 10
139.999227125788
 20
231.815137430011
 30
0.0
 10
140.4236015227946
 20
231.9441885822004
 30
0.0
 10
141.0494395072501
 20
232.2042189201461
 30
0.0
 10
141.6359155199434
 20
232.5243336983619
 30
0.0
 10
142.0544261212403
 20
232.8655954966412
 30
0.0
 10
142.304470080517
 20
233.2258616366096
 30
0.0
 10
142.4231574194931
 20
233.5355900916145
 30
0.0
 10
142.4015838200846
 20
233.6826626702289
 30
0.0
 10
142.3978070838135
 20
233.7080269097372
 30
0.0
  0
SPLINE
  5
229
330
20A
100
AcDbEntity
  8
$DDT_AUDIT_GENERATED_(96)
  6
Continuous
 62
     7
100
AcDbSpline
210
0.0
220
0.0
230
1.0
 70
     8
 71
     3
 72
    13
 73
     9
 74
     0
 42
0.0000000040991923
 43
0.0000000001
 40
0.0
 40
0.0
 40
0.0
 40
0.0
 40
0.08684912959609
 40
0.2744736964727336
 40
0.4609784339399372
 40
0.6184965594857313
 40
0.7518488566306799
 40
0.7949060986523487
 40
0.7949060986523487
 40
0.7949060986523487
 40
0.7949060986523487
 10
98.43653387138762
 20
230.6746815496166
 30
0.0
 10
98.57113161495425
 20
230.656939578073
 30
0.0
 10
98.93156200676096
 20
230.609028932399
 30
0.0
 10
99.45777421917921
 20
230.5096196689821
 30
0.0
 10
99.92537432663057
 20
230.3960069331328
 30
0.0
 10
100.2048718218384
 20
230.2966570532343
 30
0.0
 10
100.30062432233
 20
230.2446195786553
 30
0.0
 10
100.3135040385535
 20
230.2335755255971
 30
0.0
 10
100.3138886710169
 20
230.2332330096486
 30
0.0
  0
LINE
  5
22A
330
20A
100
AcDbEntity
  8
$DDT_AUDIT_GENERATED_(96)
  6
Continuous
 62
     7
100
AcDbLine
 10
98.2081444269
 20
230.706065603
 30
0.0
 11
98.4365338714
 21
230.6746815496
 31
0.0
  0
SPLINE
  5
22B
330
20A
100
AcDbEntity
  8
$DDT_AUDIT_GENERATED_(96)
  6
Continuous
 62
     7
100
AcDbSpline
210
0.0
220
0.0
230
1.0
 70
     8
 71
     3
 72
    14
 73
    10
 74
     0
 42
0.0000000036549455
 43
0.0000000001
 40
0.1921769269121546
 40
0.1921769269121546
 40
0.1921769269121546
 40
0.1921769269121546
 40
0.2360690923165824
 40
0.3468137294244394
 40
0.4834715768595215
 40
0.639653805870929
 40
0.8063058971025058
 40
0.9809380289755252
 40
1.0
 40
1.0
 40
1.0
 40
1.0
 10
132.3851332025856
 20
230.2329561085622
 30
0.0
 10
132.3855266100043
 20
230.2332873299972
 30
0.0
 10
132.3989575694341
 20
230.2447179655427
 30
0.0
 10
132.4853794870133
 20
230.2913860862487
 30
0.0
 10
132.724097954234
 20
230.3795131504487
 30
0.0
 10
133.1277978401219
 20
230.4851048498883
 30
0.0
 10
133.6998058419542
 20
230.5950269446783
 30
0.0
 10
134.2007119332465
 20
230.674804380565
 30
0.0
 10
134.4970331292124
 20
230.7086429993728
 30
0.0
 10
134.5309773549339
 20
230.7125114647622
 30
0.0
  0
ARC
  5
22C
330
20A
100
AcDbEntity
  8
$DDT_AUDIT_GENERATED_(96)
  6
Continuous
 62
     7
100
AcDbCircle
 10
132.0247223014
 20
226.4549262111
 30
0.0
 40
0.4731976841152751
100
AcDbArc
 50
287.8257716884
 51
344.1148976979
  0
ARC
  5
22D
330
20A
100
AcDbEntity
  8
$DDT_AUDIT_GENERATED_(96)
  6
Continuous
 62
     7
100
AcDbCircle
 10
100.6769589472
 20
226.455331904
 30
0.0
 40
0.4741627620522658
100
AcDbArc
 50
196.4866838395
 51
246.4293665834
  0
LINE
  5
22E
330
20A
100
AcDbEntity
  8
$DDT_AUDIT_GENERATED_(96)
  6
Continuous
 62
     7
100
AcDbLine
 10
89.3568379241
 20
266.5754892165
 30
0.0
 11
90.2897438447
 21
233.6920394284
 31
0.0
  0
LINE
  5
22F
330
20A
100
AcDbEntity
  8
$DDT_AUDIT_GENERATED_(96)
  6
Continuous
 62
     7
100
AcDbLine
 10
142.4102655253
 20
233.6921175074
 30
0.0
 11
143.3431684671
 21
266.5754622963
 31
0.0
  0
ARC
  5
230
330
20A
100
AcDbEntity
  8
$DDT_AUDIT_GENERATED_(96)
  6
Continuous
 62
     7
100
AcDbCircle
 10
143.142992693
 20
266.5818952355
 30
0.0
 40
0.2000002678962384
100
AcDbArc
 50
358.2523346581
 51
90.1591698579
  0
ARC
  5
231
330
20A
100
AcDbEntity
  8
$DDT_AUDIT_GENERATED_(96)
  6
Continuous
 62
     7
100
AcDbCircle
 10
89.5569101968
 20
266.5818952849
 30
0.0
 40
0.2000001592903351
100
AcDbArc
 50
89.9010128034
 51
182.0161924011
  0
LINE
  5
232
330
20A
100
AcDbEntity
  8
$DDT_AUDIT_GENERATED_(1B0)
  6
Continuous
 62
     7
100
AcDbLine
 10
30.35
 20
364.1251750195
 30
0.0
 11
28.13
 21
363.2506937637
 31
0.0
  0
LINE
  5
233
330
20A
100
AcDbEntity
  8
$DDT_AUDIT_GENERATED_(1B0)
  6
Continuous
 62
     7
100
AcDbLine
 10
52.35
 20
364.1251750195
 30
0.0
 11
54.57
 21
363.2506937637
 31
0.0
  0
LINE
  5
234
330
20A
100
AcDbEntity
  8
$DDT_AUDIT_GENERATED_(1B0)
  6
Continuous
 62
     7
100
AcDbLine
 10
54.57
 20
363.1251750195
 30
0.0
 11
54.57
 21
363.2506937637
 31
0.0
  0
LINE
  5
235
330
20A
100
AcDbEntity
  8
$DDT_AUDIT_GENERATED_(1B0)
  6
Continuous
 62
     7
100
AcDbLine
 10
28.13
 20
363.2506937637
 30
0.0
 11
28.13
 21
363.1251750195
 31
0.0
  0
LINE
  5
236
330
20A
100
AcDbEntity
  8
$DDT_AUDIT_GENERATED_(1B0)
  6
Continuous
 62
     7
100
AcDbLine
 10
53.4
 20
363.7115690201
 30
0.0
 11
53.4
 21
363.1251750195
 31
0.0
  0
LINE
  5
237
330
20A
100
AcDbEntity
  8
$DDT_AUDIT_GENERATED_(1B0)
  6
Continuous
 62
     7
100
AcDbLine
 10
29.3
 20
363.7115690201
 30
0.0
 11
29.3
 21
363.1251750195
 31
0.0
  0
LINE
  5
238
330
20A
100
AcDbEntity
  8
$DDT_AUDIT_GENERATED_(A1)
  6
Continuous
 62
     7
100
AcDbLine
 10
76.35
 20
389.4348182661
 30
0.0
 11
6.35
 21
389.4348182661
 31
0.0
  0
LINE
  5
239
330
20A
100
AcDbEntity
  8
$DDT_AUDIT_GENERATED_(A1)
  6
Continuous
 62
     7
100
AcDbLine
 10
6.35
 20
389.4348182661
 30
0.0
 11
6.35
 21
366.6518732022
 31
0.0
  0
LINE
  5
23A
330
20A
100
AcDbEntity
  8
$DDT_AUDIT_GENERATED_(A1)
  6
Continuous
 62
     7
100
AcDbLine
 10
76.35
 20
366.6518732022
 30
0.0
 11
76.35
 21
389.4348182661
 31
0.0
  0
ARC
  5
23B
330
20A
100
AcDbEntity
  8
$DDT_AUDIT_GENERATED_(A1)
  6
Continuous
 62
     7
100
AcDbCircle
 10
41.35
 20
813.4348182661
 30
0.0
 40
450.0000000000001
100
AcDbArc
 50
271.6665978934
 51
274.2242740157
  0
ARC
  5
23C
330
20A
100
AcDbEntity
  8
$DDT_AUDIT_GENERATED_(A1)
  6
Continuous
 62
     7
100
AcDbCircle
 10
41.35
 20
813.4348182661
 30
0.0
 40
450.0000000000002
100
AcDbArc
 50
265.7757259843
 51
268.3334021066
  0
ARC
  5
23D
330
20A
100
AcDbEntity
  8
$DDT_AUDIT_GENERATED_(A1)
  6
Continuous
 62
     7
100
AcDbCircle
 10
8.35
 20
366.6518732022
 30
0.0
 40
2.000000000000002
100
AcDbArc
 50
180.0
 51
265.7757259844
  0
ARC
  5
23E
330
20A
100
AcDbEntity
  8
$DDT_AUDIT_GENERATED_(A1)
  6
Continuous
 62
     7
100
AcDbCircle
 10
74.35
 20
366.6518732022
 30
0.0
 40
2.000000000000142
100
AcDbArc
 50
274.2242740156
 51
0.0
  0
ARC
  5
23F
330
20A
100
AcDbEntity
  8
$DDT_AUDIT_GENERATED_(A1)
  6
Continuous
 62
     7
100
AcDbCircle
 10
28.2915
 20
364.6247520045
 30
0.0
 40
1.000000000000043
100
AcDbArc
 50
268.3334021067
 51
270.0
  0
ARC
  5
240
330
20A
100
AcDbEntity
  8
$DDT_AUDIT_GENERATED_(A1)
  6
Continuous
 62
     7
100
AcDbCircle
 10
54.4085
 20
364.6247520045
 30
0.0
 40
1.000000000000001
100
AcDbArc
 50
270.0
 51
271.6665978933
  0
LINE
  5
241
330
20A
100
AcDbEntity
  8
$DDT_AUDIT_GENERATED_(A1)
  6
Continuous
 62
     7
100
AcDbLine
 10
28.2915
 20
363.6247520045
 30
0.0
 11
29.079602166
 21
363.6247520045
 31
0.0
  0
LINE
  5
242
330
20A
100
AcDbEntity
  8
$DDT_AUDIT_GENERATED_(A1)
  6
Continuous
 62
     7
100
AcDbLine
 10
53.620397834
 20
363.6247520045
 30
0.0
 11
54.4085
 21
363.6247520045
 31
0.0
  0
LINE
  5
243
330
20A
100
AcDbEntity
  8
$DDT_AUDIT_GENERATED_(1B0)
  6
Continuous
 62
     7
100
AcDbLine
 10
180.35
 20
364.1251750195
 30
0.0
 11
178.13
 21
363.2506937637
 31
0.0
  0
LINE
  5
244
330
20A
100
AcDbEntity
  8
$DDT_AUDIT_GENERATED_(1B0)
  6
Continuous
 62
     7
100
AcDbLine
 10
202.35
 20
364.1251750195
 30
0.0
 11
204.57
 21
363.2506937637
 31
0.0
  0
LINE
  5
245
330
20A
100
AcDbEntity
  8
$DDT_AUDIT_GENERATED_(1B0)
  6
Continuous
 62
     7
100
AcDbLine
 10
204.57
 20
363.1251750195
 30
0.0
 11
204.57
 21
363.2506937637
 31
0.0
  0
LINE
  5
246
330
20A
100
AcDbEntity
  8
$DDT_AUDIT_GENERATED_(1B0)
  6
Continuous
 62
     7
100
AcDbLine
 10
178.13
 20
363.2506937637
 30
0.0
 11
178.13
 21
363.1251750195
 31
0.0
  0
LINE
  5
247
330
20A
100
AcDbEntity
  8
$DDT_AUDIT_GENERATED_(1B0)
  6
Continuous
 62
     7
100
AcDbLine
 10
203.4
 20
363.7115690201
 30
0.0
 11
203.4
 21
363.1251750195
 31
0.0
  0
LINE
  5
248
330
20A
100
AcDbEntity
  8
$DDT_AUDIT_GENERATED_(1B0)
  6
Continuous
 62
     7
100
AcDbLine
 10
179.3
 20
363.7115690201
 30
0.0
 11
179.3
 21
363.1251750195
 31
0.0
  0
LINE
  5
249
330
20A
100
AcDbEntity
  8
$DDT_AUDIT_GENERATED_(A1)
  6
Continuous
 62
     7
100
AcDbLine
 10
226.35
 20
389.4348182661
 30
0.0
 11
156.35
 21
389.4348182661
 31
0.0
  0
LINE
  5
24A
330
20A
100
AcDbEntity
  8
$DDT_AUDIT_GENERATED_(A1)
  6
Continuous
 62
     7
100
AcDbLine
 10
156.35
 20
389.4348182661
 30
0.0
 11
156.35
 21
366.6518732022
 31
0.0
  0
LINE
  5
24B
330
20A
100
AcDbEntity
  8
$DDT_AUDIT_GENERATED_(A1)
  6
Continuous
 62
     7
100
AcDbLine
 10
226.35
 20
366.6518732022
 30
0.0
 11
226.35
 21
389.4348182661
 31
0.0
  0
ARC
  5
24C
330
20A
100
AcDbEntity
  8
$DDT_AUDIT_GENERATED_(A1)
  6
Continuous
 62
     7
100
AcDbCircle
 10
191.35
 20
813.4348182661
 30
0.0
 40
450.0000000000001
100
AcDbArc
 50
271.6665978934
 51
274.2242740157
  0
ARC
  5
24D
330
20A
100
AcDbEntity
  8
$DDT_AUDIT_GENERATED_(A1)
  6
Continuous
 62
     7
100
AcDbCircle
 10
191.35
 20
813.4348182661
 30
0.0
 40
450.0000000000002
100
AcDbArc
 50
265.7757259843
 51
268.3334021066
  0
ARC
  5
24E
330
20A
100
AcDbEntity
  8
$DDT_AUDIT_GENERATED_(A1)
  6
Continuous
 62
     7
100
AcDbCircle
 10
158.35
 20
366.6518732022
 30
0.0
 40
2.000000000000002
100
AcDbArc
 50
180.0
 51
265.7757259844
  0
ARC
  5
24F
330
20A
100
AcDbEntity
  8
$DDT_AUDIT_GENERATED_(A1)
  6
Continuous
 62
     7
100
AcDbCircle
 10
224.35
 20
366.6518732022
 30
0.0
 40
2.000000000000141
100
AcDbArc
 50
274.2242740156
 51
0.0
  0
ARC
  5
250
330
20A
100
AcDbEntity
  8
$DDT_AUDIT_GENERATED_(A1)
  6
Continuous
 62
     7
100
AcDbCircle
 10
178.2915
 20
364.6247520045
 30
0.0
 40
1.000000000000043
100
AcDbArc
 50
268.3334021067
 51
270.0
  0
ARC
  5
251
330
20A
100
AcDbEntity
  8
$DDT_AUDIT_GENERATED_(A1)
  6
Continuous
 62
     7
100
AcDbCircle
 10
204.4085
 20
364.6247520045
 30
0.0
 40
1.000000000000001
100
AcDbArc
 50
270.0
 51
271.6665978933
  0
LINE
  5
252
330
20A
100
AcDbEntity
  8
$DDT_AUDIT_GENERATED_(A1)
  6
Continuous
 62
     7
100
AcDbLine
 10
178.2915
 20
363.6247520045
 30
0.0
 11
179.079602166
 21
363.6247520045
 31
0.0
  0
LINE
  5
253
330
20A
100
AcDbEntity
  8
$DDT_AUDIT_GENERATED_(A1)
  6
Continuous
 62
     7
100
AcDbLine
 10
203.620397834
 20
363.6247520045
 30
0.0
 11
204.4085
 21
363.6247520045
 31
0.0
  0
LINE
  5
254
330
20A
100
AcDbEntity
  8
$DDT_AUDIT_GENERATED_(1BD)
  6
Continuous
 62
     7
100
AcDbLine
 10
35.1
 20
349.6251750195
 30
0.0
 11
31.4846189432
 21
349.6251750195
 31
0.0
  0
LINE
  5
255
330
20A
100
AcDbEntity
  8
$DDT_AUDIT_GENERATED_(1BD)
  6
Continuous
 62
     7
100
AcDbLine
 10
26.85
 20
346.1251750195
 30
0.0
 11
55.85
 21
346.1251750195
 31
0.0
  0
LINE
  5
256
330
20A
100
AcDbEntity
  8
$DDT_AUDIT_GENERATED_(1BD)
  6
Continuous
 62
     7
100
AcDbLine
 10
26.85
 20
363.1251750195
 30
0.0
 11
55.85
 21
363.1251750195
 31
0.0
  0
LINE
  5
257
330
20A
100
AcDbEntity
  8
$DDT_AUDIT_GENERATED_(1BD)
  6
Continuous
 62
     7
100
AcDbLine
 10
35.1
 20
359.6251750195
 30
0.0
 11
31.4846189432
 21
359.6251750195
 31
0.0
  0
LINE
  5
258
330
20A
100
AcDbEntity
  8
$DDT_AUDIT_GENERATED_(1BD)
  6
Continuous
 62
     7
100
AcDbLine
 10
25.2346189432
 20
359.6251750195
 30
0.0
 11
25.1
 21
359.6251750195
 31
0.0
  0
LINE
  5
259
330
20A
100
AcDbEntity
  8
$DDT_AUDIT_GENERATED_(1BD)
  6
Continuous
 62
     7
100
AcDbLine
 10
57.4653810568
 20
359.6251750195
 30
0.0
 11
57.6
 21
359.6251750195
 31
0.0
  0
LINE
  5
25A
330
20A
100
AcDbEntity
  8
$DDT_AUDIT_GENERATED_(1BD)
  6
Continuous
 62
     7
100
AcDbLine
 10
51.2153810568
 20
359.6251750195
 30
0.0
 11
47.6
 21
359.6251750195
 31
0.0
  0
SPLINE
  5
25B
330
20A
100
AcDbEntity
  8
$DDT_AUDIT_GENERATED_(1BD)
  6
Continuous
 62
     7
100
AcDbSpline
210
0.0
220
0.0
230
1.0
 70
     8
 71
     3
 72
    14
 73
    10
 74
     0
 42
0.0000000006968854
 43
0.0000000001
 40
0.0
 40
0.0
 40
0.0
 40
0.0
 40
0.25
 40
0.25
 40
0.5
 40
0.5
 40
0.75
 40
0.75
 40
1.0
 40
1.0
 40
1.0
 40
1.0
 10
47.60000000000003
 20
359.6251750195179
 30
0.0
 10
46.90536430274548
 20
360.602981587971
 30
0.0
 10
45.90950967757868
 20
361.2998400821519
 30
0.0
 10
43.72969354844216
 20
362.2065220340216
 30
0.0
 10
42.54194518563214
 20
362.4204691343407
 30
0.0
 10
40.16513497885435
 20
362.4213362873825
 30
0.0
 10
38.99402741406025
 20
362.2140177291135
 30
0.0
 10
36.7934639278473
 20
361.3034192331901
 30
0.0
 10
35.79387047549962
 20
360.6019044206743
 30
0.0
 10
35.10000000000002
 20
359.6251750195179
 30
0.0
  0
SPLINE
  5
25C
330
20A
100
AcDbEntity
  8
$DDT_AUDIT_GENERATED_(1BD)
  6
Continuous
 62
     7
100
AcDbSpline
210
0.0
220
0.0
230
1.0
 70
     8
 71
     3
 72
    14
 73
    10
 74
     0
 42
0.0000000011014719
 43
0.0000000001
 40
0.0
 40
0.0
 40
0.0
 40
0.0
 40
0.25
 40
0.25
 40
0.5
 40
0.5
 40
0.75
 40
0.75
 40
1.0
 40
1.0
 40
1.0
 40
1.0
 10
57.46538105676658
 20
359.6251750195179
 30
0.0
 10
57.1180632081393
 20
360.602981587971
 30
0.0
 10
56.62013589555591
 20
361.2998400821519
 30
0.0
 10
55.53022783098765
 20
362.2065220340216
 30
0.0
 10
54.93635364958264
 20
362.4204691343407
 30
0.0
 10
53.74794854619375
 20
362.4213362873825
 30
0.0
 10
53.1623947637967
 20
362.2140177291134
 30
0.0
 10
52.06211302069022
 20
361.3034192331901
 30
0.0
 10
51.56231629451638
 20
360.6019044206743
 30
0.0
 10
51.2153810567666
 20
359.6251750195179
 30
0.0
  0
SPLINE
  5
25D
330
20A
100
AcDbEntity
  8
$DDT_AUDIT_GENERATED_(1BD)
  6
Continuous
 62
     7
100
AcDbSpline
210
0.0
220
0.0
230
1.0
 70
     8
 71
     3
 72
    14
 73
    10
 74
     0
 42
0.0000000011015763
 43
0.0000000001
 40
0.0
 40
0.0
 40
0.0
 40
0.0
 40
0.25
 40
0.25
 40
0.5
 40
0.5
 40
0.75
 40
0.75
 40
1.0
 40
1.0
 40
1.0
 40
1.0
 10
31.48461894323343
 20
359.6251750195179
 30
0.0
 10
31.13807476697736
 20
360.6008034622876
 30
0.0
 10
30.63429468306195
 20
361.306782150935
 30
0.0
 10
29.53897195687505
 20
362.2124959153312
 30
0.0
 10
28.94686480513037
 20
362.4227983120212
 30
0.0
 10
27.75682080071812
 20
362.4189834738842
 30
0.0
 10
27.1653089959463
 20
362.2036842313344
 30
0.0
 10
26.07930747602505
 20
361.2984979166962
 30
0.0
 10
25.5785561194084
 20
360.5934639552243
 30
0.0
 10
25.23461894323342
 20
359.6251750195179
 30
0.0
  0
LINE
  5
25E
330
20A
100
AcDbEntity
  8
$DDT_AUDIT_GENERATED_(1BD)
  6
Continuous
 62
     7
100
AcDbLine
 10
25.2346189432
 20
349.6251750195
 30
0.0
 11
25.1
 21
349.6251750195
 31
0.0
  0
LINE
  5
25F
330
20A
100
AcDbEntity
  8
$DDT_AUDIT_GENERATED_(1BD)
  6
Continuous
 62
     7
100
AcDbLine
 10
57.4653810568
 20
349.6251750195
 30
0.0
 11
57.6
 21
349.6251750195
 31
0.0
  0
LINE
  5
260
330
20A
100
AcDbEntity
  8
$DDT_AUDIT_GENERATED_(1BD)
  6
Continuous
 62
     7
100
AcDbLine
 10
51.2153810568
 20
349.6251750195
 30
0.0
 11
47.6
 21
349.6251750195
 31
0.0
  0
LINE
  5
261
330
20A
100
AcDbEntity
  8
$DDT_AUDIT_GENERATED_(1BD)
  6
Continuous
 62
     7
100
AcDbLine
 10
31.4846189432
 20
359.6251750195
 30
0.0
 11
31.4846189432
 21
349.6251750195
 31
0.0
  0
SPLINE
  5
262
330
20A
100
AcDbEntity
  8
$DDT_AUDIT_GENERATED_(1BD)
  6
Continuous
 62
     7
100
AcDbSpline
210
0.0
220
0.0
230
1.0
 70
     8
 71
     3
 72
    14
 73
    10
 74
     0
 42
0.0000000011015763
 43
0.0000000001
 40
0.0
 40
0.0
 40
0.0
 40
0.0
 40
0.25
 40
0.25
 40
0.5
 40
0.5
 40
0.75
 40
0.75
 40
1.0
 40
1.0
 40
1.0
 40
1.0
 10
31.48461894323343
 20
349.6251750195179
 30
0.0
 10
31.13807476697736
 20
348.6495465767482
 30
0.0
 10
30.63429468306195
 20
347.9435678881007
 30
0.0
 10
29.53897195687505
 20
347.0378541237045
 30
0.0
 10
28.94686480513037
 20
346.8275517270146
 30
0.0
 10
27.75682080071812
 20
346.8313665651515
 30
0.0
 10
27.1653089959463
 20
347.0466658077013
 30
0.0
 10
26.07930747602505
 20
347.9518521223396
 30
0.0
 10
25.5785561194084
 20
348.6568860838115
 30
0.0
 10
25.23461894323342
 20
349.6251750195179
 30
0.0
  0
LINE
  5
263
330
20A
100
AcDbEntity
  8
$DDT_AUDIT_GENERATED_(1BD)
  6
Continuous
 62
     7
100
AcDbLine
 10
25.2346189432
 20
349.6251750195
 30
0.0
 11
25.2346189432
 21
359.6251750195
 31
0.0
  0
LINE
  5
264
330
20A
100
AcDbEntity
  8
$DDT_AUDIT_GENERATED_(1BD)
  6
Continuous
 62
     7
100
AcDbLine
 10
57.4653810568
 20
359.6251750195
 30
0.0
 11
57.4653810568
 21
349.6251750195
 31
0.0
  0
SPLINE
  5
265
330
20A
100
AcDbEntity
  8
$DDT_AUDIT_GENERATED_(1BD)
  6
Continuous
 62
     7
100
AcDbSpline
210
0.0
220
0.0
230
1.0
 70
     8
 71
     3
 72
    14
 73
    10
 74
     0
 42
0.0000000011014719
 43
0.0000000001
 40
0.0
 40
0.0
 40
0.0
 40
0.0
 40
0.2500000000000001
 40
0.2500000000000001
 40
0.5000000000000001
 40
0.5000000000000001
 40
0.7500000000000002
 40
0.7500000000000002
 40
1.0
 40
1.0
 40
1.0
 40
1.0
 10
57.46538105676658
 20
349.6251750195179
 30
0.0
 10
57.1180632081393
 20
348.6473684510648
 30
0.0
 10
56.6201358955559
 20
347.9505099568839
 30
0.0
 10
55.53022783098765
 20
347.0438280050142
 30
0.0
 10
54.93635364958264
 20
346.8298809046951
 30
0.0
 10
53.74794854619375
 20
346.8290137516532
 30
0.0
 10
53.1623947637967
 20
347.0363323099223
 30
0.0
 10
52.06211302069022
 20
347.9469308058457
 30
0.0
 10
51.56231629451638
 20
348.6484456183615
 30
0.0
 10
51.2153810567666
 20
349.6251750195179
 30
0.0
  0
LINE
  5
266
330
20A
100
AcDbEntity
  8
$DDT_AUDIT_GENERATED_(1BD)
  6
Continuous
 62
     7
100
AcDbLine
 10
51.2153810568
 20
349.6251750195
 30
0.0
 11
51.2153810568
 21
359.6251750195
 31
0.0
  0
LINE
  5
267
330
20A
100
AcDbEntity
  8
$DDT_AUDIT_GENERATED_(1BD)
  6
Continuous
 62
     7
100
AcDbLine
 10
47.6
 20
359.6251750195
 30
0.0
 11
47.6
 21
349.6251750195
 31
0.0
  0
SPLINE
  5
268
330
20A
100
AcDbEntity
  8
$DDT_AUDIT_GENERATED_(1BD)
  6
Continuous
 62
     7
100
AcDbSpline
210
0.0
220
0.0
230
1.0
 70
     8
 71
     3
 72
    14
 73
    10
 74
     0
 42
0.0000000006968854
 43
0.0000000001
 40
0.0
 40
0.0
 40
0.0
 40
0.0
 40
0.2499999999999999
 40
0.2499999999999999
 40
0.4999999999999999
 40
0.4999999999999999
 40
0.7499999999999999
 40
0.7499999999999999
 40
1.0
 40
1.0
 40
1.0
 40
1.0
 10
47.60000000000003
 20
349.6251750195179
 30
0.0
 10
46.90536430274548
 20
348.6473684510648
 30
0.0
 10
45.9095096775787
 20
347.9505099568839
 30
0.0
 10
43.72969354844216
 20
347.0438280050142
 30
0.0
 10
42.54194518563214
 20
346.8298809046951
 30
0.0
 10
40.16513497885435
 20
346.8290137516532
 30
0.0
 10
38.99402741406027
 20
347.0363323099223
 30
0.0
 10
36.7934639278473
 20
347.9469308058457
 30
0.0
 10
35.79387047549962
 20
348.6484456183615
 30
0.0
 10
35.10000000000002
 20
349.6251750195179
 30
0.0
  0
LINE
  5
269
330
20A
100
AcDbEntity
  8
$DDT_AUDIT_GENERATED_(1BD)
  6
Continuous
 62
     7
100
AcDbLine
 10
35.1
 20
349.6251750195
 30
0.0
 11
35.1
 21
359.6251750195
 31
0.0
  0
ARC
  5
26A
330
20A
100
AcDbEntity
  8
$DDT_AUDIT_GENERATED_(1BD)
  6
Continuous
 62
     7
100
AcDbCircle
 10
47.9535976036
 20
352.2608762177
 30
0.0
 40
9.999999999999996
100
AcDbArc
 50
322.1519040322
 51
344.7179936136
  0
ARC
  5
26B
330
20A
100
AcDbEntity
  8
$DDT_AUDIT_GENERATED_(1BD)
  6
Continuous
 62
     7
100
AcDbCircle
 10
34.7464023964
 20
352.2608762177
 30
0.0
 40
9.999999999999991
100
AcDbArc
 50
195.2820063864
 51
217.8480959678
  0
ARC
  5
26C
330
20A
100
AcDbEntity
  8
$DDT_AUDIT_GENERATED_(1BD)
  6
Continuous
 62
     7
100
AcDbCircle
 10
47.9535976036
 20
356.9894738213
 30
0.0
 40
9.999999999999993
100
AcDbArc
 50
15.2820063864
 51
37.8480959678
  0
ARC
  5
26D
330
20A
100
AcDbEntity
  8
$DDT_AUDIT_GENERATED_(1BD)
  6
Continuous
 62
     7
100
AcDbCircle
 10
34.7464023964
 20
356.9894738213
 30
0.0
 40
9.999999999999998
100
AcDbArc
 50
142.1519040322
 51
164.7179936136
  0
LINE
  5
26E
330
20A
100
AcDbEntity
  8
$DDT_AUDIT_GENERATED_(1BD)
  6
Continuous
 62
     7
100
AcDbLine
 10
57.6
 20
349.6251750195
 30
0.0
 11
57.6
 21
359.6251750195
 31
0.0
  0
LINE
  5
26F
330
20A
100
AcDbEntity
  8
$DDT_AUDIT_GENERATED_(1BD)
  6
Continuous
 62
     7
100
AcDbLine
 10
25.1
 20
359.6251750195
 30
0.0
 11
25.1
 21
349.6251750195
 31
0.0
  0
LINE
  5
270
330
20A
100
AcDbEntity
  8
$DDT_AUDIT_GENERATED_(1BD)
  6
Continuous
 62
     7
100
AcDbLine
 10
175.2346189432
 20
349.6251750195
 30
0.0
 11
175.1
 21
349.6251750195
 31
0.0
  0
LINE
  5
271
330
20A
100
AcDbEntity
  8
$DDT_AUDIT_GENERATED_(1BD)
  6
Continuous
 62
     7
100
AcDbLine
 10
176.85
 20
346.1251750195
 30
0.0
 11
205.85
 21
346.1251750195
 31
0.0
  0
LINE
  5
272
330
20A
100
AcDbEntity
  8
$DDT_AUDIT_GENERATED_(1BD)
  6
Continuous
 62
     7
100
AcDbLine
 10
176.85
 20
363.1251750195
 30
0.0
 11
205.85
 21
363.1251750195
 31
0.0
  0
LINE
  5
273
330
20A
100
AcDbEntity
  8
$DDT_AUDIT_GENERATED_(1BD)
  6
Continuous
 62
     7
100
AcDbLine
 10
175.2346189432
 20
359.6251750195
 30
0.0
 11
175.1
 21
359.6251750195
 31
0.0
  0
LINE
  5
274
330
20A
100
AcDbEntity
  8
$DDT_AUDIT_GENERATED_(1BD)
  6
Continuous
 62
     7
100
AcDbLine
 10
207.4653810568
 20
359.6251750195
 30
0.0
 11
207.6
 21
359.6251750195
 31
0.0
  0
LINE
  5
275
330
20A
100
AcDbEntity
  8
$DDT_AUDIT_GENERATED_(1BD)
  6
Continuous
 62
     7
100
AcDbLine
 10
201.2153810568
 20
359.6251750195
 30
0.0
 11
197.6
 21
359.6251750195
 31
0.0
  0
LINE
  5
276
330
20A
100
AcDbEntity
  8
$DDT_AUDIT_GENERATED_(1BD)
  6
Continuous
 62
     7
100
AcDbLine
 10
185.1
 20
359.6251750195
 30
0.0
 11
181.4846189432
 21
359.6251750195
 31
0.0
  0
SPLINE
  5
277
330
20A
100
AcDbEntity
  8
$DDT_AUDIT_GENERATED_(1BD)
  6
Continuous
 62
     7
100
AcDbSpline
210
0.0
220
0.0
230
1.0
 70
     8
 71
     3
 72
    14
 73
    10
 74
     0
 42
0.0000000011014719
 43
0.0000000001
 40
0.0
 40
0.0
 40
0.0
 40
0.0
 40
0.25
 40
0.25
 40
0.5
 40
0.5
 40
0.75
 40
0.75
 40
1.0
 40
1.0
 40
1.0
 40
1.0
 10
181.4846189432334
 20
359.6251750195179
 30
0.0
 10
181.1373010946062
 20
360.602981587971
 30
0.0
 10
180.6393737820227
 20
361.2998400821519
 30
0.0
 10
179.5494657174545
 20
362.2065220340216
 30
0.0
 10
178.9555915360495
 20
362.4204691343407
 30
0.0
 10
177.7671864326606
 20
362.4213362873825
 30
0.0
 10
177.1816326502635
 20
362.2140177291135
 30
0.0
 10
176.081350907157
 20
361.3034192331901
 30
0.0
 10
175.5815541809832
 20
360.6019044206743
 30
0.0
 10
175.2346189432334
 20
359.6251750195179
 30
0.0
  0
SPLINE
  5
278
330
20A
100
AcDbEntity
  8
$DDT_AUDIT_GENERATED_(1BD)
  6
Continuous
 62
     7
100
AcDbSpline
210
0.0
220
0.0
230
1.0
 70
     8
 71
     3
 72
    14
 73
    10
 74
     0
 42
0.0000000006968854
 43
0.0000000001
 40
0.0
 40
0.0
 40
0.0
 40
0.0
 40
0.25
 40
0.25
 40
0.5
 40
0.5
 40
0.75
 40
0.75
 40
1.0
 40
1.0
 40
1.0
 40
1.0
 10
197.6
 20
359.6251750195179
 30
0.0
 10
196.9053643027454
 20
360.602981587971
 30
0.0
 10
195.9095096775787
 20
361.2998400821519
 30
0.0
 10
193.7296935484421
 20
362.2065220340216
 30
0.0
 10
192.5419451856321
 20
362.4204691343407
 30
0.0
 10
190.1651349788543
 20
362.4213362873825
 30
0.0
 10
188.9940274140602
 20
362.2140177291135
 30
0.0
 10
186.7934639278473
 20
361.3034192331901
 30
0.0
 10
185.7938704754996
 20
360.6019044206743
 30
0.0
 10
185.1
 20
359.6251750195179
 30
0.0
  0
SPLINE
  5
279
330
20A
100
AcDbEntity
  8
$DDT_AUDIT_GENERATED_(1BD)
  6
Continuous
 62
     7
100
AcDbSpline
210
0.0
220
0.0
230
1.0
 70
     8
 71
     3
 72
    14
 73
    10
 74
     0
 42
0.0000000011015763
 43
0.0000000001
 40
0.0
 40
0.0
 40
0.0
 40
0.0
 40
0.25
 40
0.25
 40
0.5
 40
0.5
 40
0.75
 40
0.75
 40
1.0
 40
1.0
 40
1.0
 40
1.0
 10
207.4653810567666
 20
359.6251750195179
 30
0.0
 10
207.1188368805105
 20
360.6008034622876
 30
0.0
 10
206.6150567965951
 20
361.306782150935
 30
0.0
 10
205.5197340704082
 20
362.2124959153312
 30
0.0
 10
204.9276269186635
 20
362.4227983120212
 30
0.0
 10
203.7375829142512
 20
362.4189834738842
 30
0.0
 10
203.1460711094794
 20
362.2036842313344
 30
0.0
 10
202.0600695895582
 20
361.2984979166962
 30
0.0
 10
201.5593182329416
 20
360.5934639552243
 30
0.0
 10
201.2153810567666
 20
359.6251750195179
 30
0.0
  0
LINE
  5
27A
330
20A
100
AcDbEntity
  8
$DDT_AUDIT_GENERATED_(1BD)
  6
Continuous
 62
     7
100
AcDbLine
 10
207.4653810568
 20
349.6251750195
 30
0.0
 11
207.6
 21
349.6251750195
 31
0.0
  0
LINE
  5
27B
330
20A
100
AcDbEntity
  8
$DDT_AUDIT_GENERATED_(1BD)
  6
Continuous
 62
     7
100
AcDbLine
 10
201.2153810568
 20
349.6251750195
 30
0.0
 11
197.6
 21
349.6251750195
 31
0.0
  0
LINE
  5
27C
330
20A
100
AcDbEntity
  8
$DDT_AUDIT_GENERATED_(1BD)
  6
Continuous
 62
     7
100
AcDbLine
 10
185.1
 20
349.6251750195
 30
0.0
 11
181.4846189432
 21
349.6251750195
 31
0.0
  0
LINE
  5
27D
330
20A
100
AcDbEntity
  8
$DDT_AUDIT_GENERATED_(1BD)
  6
Continuous
 62
     7
100
AcDbLine
 10
207.4653810568
 20
359.6251750195
 30
0.0
 11
207.4653810568
 21
349.6251750195
 31
0.0
  0
SPLINE
  5
27E
330
20A
100
AcDbEntity
  8
$DDT_AUDIT_GENERATED_(1BD)
  6
Continuous
 62
     7
100
AcDbSpline
210
0.0
220
0.0
230
1.0
 70
     8
 71
     3
 72
    14
 73
    10
 74
     0
 42
0.0000000011015763
 43
0.0000000001
 40
0.0
 40
0.0
 40
0.0
 40
0.0
 40
0.25
 40
0.25
 40
0.5
 40
0.5
 40
0.75
 40
0.75
 40
1.0
 40
1.0
 40
1.0
 40
1.0
 10
207.4653810567666
 20
349.6251750195179
 30
0.0
 10
207.1188368805105
 20
348.6495465767482
 30
0.0
 10
206.6150567965951
 20
347.9435678881007
 30
0.0
 10
205.5197340704082
 20
347.0378541237046
 30
0.0
 10
204.9276269186635
 20
346.8275517270146
 30
0.0
 10
203.7375829142512
 20
346.8313665651516
 30
0.0
 10
203.1460711094794
 20
347.0466658077013
 30
0.0
 10
202.0600695895582
 20
347.9518521223396
 30
0.0
 10
201.5593182329416
 20
348.6568860838115
 30
0.0
 10
201.2153810567666
 20
349.6251750195179
 30
0.0
  0
LINE
  5
27F
330
20A
100
AcDbEntity
  8
$DDT_AUDIT_GENERATED_(1BD)
  6
Continuous
 62
     7
100
AcDbLine
 10
201.2153810568
 20
349.6251750195
 30
0.0
 11
201.2153810568
 21
359.6251750195
 31
0.0
  0
LINE
  5
280
330
20A
100
AcDbEntity
  8
$DDT_AUDIT_GENERATED_(1BD)
  6
Continuous
 62
     7
100
AcDbLine
 10
197.6
 20
359.6251750195
 30
0.0
 11
197.6
 21
349.6251750195
 31
0.0
  0
SPLINE
  5
281
330
20A
100
AcDbEntity
  8
$DDT_AUDIT_GENERATED_(1BD)
  6
Continuous
 62
     7
100
AcDbSpline
210
0.0
220
0.0
230
1.0
 70
     8
 71
     3
 72
    14
 73
    10
 74
     0
 42
0.0000000006968854
 43
0.0000000001
 40
0.0
 40
0.0
 40
0.0
 40
0.0
 40
0.2500000000000001
 40
0.2500000000000001
 40
0.5000000000000001
 40
0.5000000000000001
 40
0.7500000000000002
 40
0.7500000000000002
 40
1.0
 40
1.0
 40
1.0
 40
1.0
 10
197.6
 20
349.6251750195179
 30
0.0
 10
196.9053643027454
 20
348.6473684510648
 30
0.0
 10
195.9095096775787
 20
347.9505099568839
 30
0.0
 10
193.7296935484421
 20
347.0438280050142
 30
0.0
 10
192.5419451856321
 20
346.8298809046951
 30
0.0
 10
190.1651349788543
 20
346.8290137516532
 30
0.0
 10
188.9940274140602
 20
347.0363323099223
 30
0.0
 10
186.7934639278473
 20
347.9469308058457
 30
0.0
 10
185.7938704754996
 20
348.6484456183615
 30
0.0
 10
185.1
 20
349.6251750195179
 30
0.0
  0
LINE
  5
282
330
20A
100
AcDbEntity
  8
$DDT_AUDIT_GENERATED_(1BD)
  6
Continuous
 62
     7
100
AcDbLine
 10
185.1
 20
349.6251750195
 30
0.0
 11
185.1
 21
359.6251750195
 31
0.0
  0
LINE
  5
283
330
20A
100
AcDbEntity
  8
$DDT_AUDIT_GENERATED_(1BD)
  6
Continuous
 62
     7
100
AcDbLine
 10
181.4846189432
 20
359.6251750195
 30
0.0
 11
181.4846189432
 21
349.6251750195
 31
0.0
  0
SPLINE
  5
284
330
20A
100
AcDbEntity
  8
$DDT_AUDIT_GENERATED_(1BD)
  6
Continuous
 62
     7
100
AcDbSpline
210
0.0
220
0.0
230
1.0
 70
     8
 71
     3
 72
    14
 73
    10
 74
     0
 42
0.0000000011014719
 43
0.0000000001
 40
0.0
 40
0.0
 40
0.0
 40
0.0
 40
0.2499999999999999
 40
0.2499999999999999
 40
0.4999999999999999
 40
0.4999999999999999
 40
0.7499999999999999
 40
0.7499999999999999
 40
1.0
 40
1.0
 40
1.0
 40
1.0
 10
181.4846189432334
 20
349.6251750195179
 30
0.0
 10
181.1373010946061
 20
348.6473684510648
 30
0.0
 10
180.6393737820227
 20
347.9505099568839
 30
0.0
 10
179.5494657174545
 20
347.0438280050142
 30
0.0
 10
178.9555915360495
 20
346.8298809046951
 30
0.0
 10
177.7671864326606
 20
346.8290137516532
 30
0.0
 10
177.1816326502635
 20
347.0363323099223
 30
0.0
 10
176.081350907157
 20
347.9469308058457
 30
0.0
 10
175.5815541809832
 20
348.6484456183615
 30
0.0
 10
175.2346189432334
 20
349.6251750195179
 30
0.0
  0
LINE
  5
285
330
20A
100
AcDbEntity
  8
$DDT_AUDIT_GENERATED_(1BD)
  6
Continuous
 62
     7
100
AcDbLine
 10
175.2346189432
 20
349.6251750195
 30
0.0
 11
175.2346189432
 21
359.6251750195
 31
0.0
  0
ARC
  5
286
330
20A
100
AcDbEntity
  8
$DDT_AUDIT_GENERATED_(1BD)
  6
Continuous
 62
     7
100
AcDbCircle
 10
197.9535976036
 20
352.2608762177
 30
0.0
 40
9.999999999999998
100
AcDbArc
 50
322.1519040322
 51
344.7179936136
  0
ARC
  5
287
330
20A
100
AcDbEntity
  8
$DDT_AUDIT_GENERATED_(1BD)
  6
Continuous
 62
     7
100
AcDbCircle
 10
184.7464023964
 20
352.2608762177
 30
0.0
 40
9.999999999999991
100
AcDbArc
 50
195.2820063864
 51
217.8480959678
  0
ARC
  5
288
330
20A
100
AcDbEntity
  8
$DDT_AUDIT_GENERATED_(1BD)
  6
Continuous
 62
     7
100
AcDbCircle
 10
197.9535976036
 20
356.9894738213
 30
0.0
 40
9.999999999999993
100
AcDbArc
 50
15.2820063864
 51
37.8480959678
  0
ARC
  5
289
330
20A
100
AcDbEntity
  8
$DDT_AUDIT_GENERATED_(1BD)
  6
Continuous
 62
     7
100
AcDbCircle
 10
184.7464023964
 20
356.9894738213
 30
0.0
 40
9.999999999999998
100
AcDbArc
 50
142.1519040322
 51
164.7179936136
  0
LINE
  5
28A
330
20A
100
AcDbEntity
  8
$DDT_AUDIT_GENERATED_(1BD)
  6
Continuous
 62
     7
100
AcDbLine
 10
207.6
 20
349.6251750195
 30
0.0
 11
207.6
 21
359.6251750195
 31
0.0
  0
LINE
  5
28B
330
20A
100
AcDbEntity
  8
$DDT_AUDIT_GENERATED_(1BD)
  6
Continuous
 62
     7
100
AcDbLine
 10
175.1
 20
359.6251750195
 30
0.0
 11
175.1
 21
349.6251750195
 31
0.0
  0
LINE
  5
28C
330
20A
100
AcDbEntity
  8
$DDT_AUDIT_GENERATED_(1D8)
  6
Continuous
 62
     7
100
AcDbLine
 10
201.85
 20
345.8751750195
 30
0.0
 11
201.85
 21
346.1251750195
 31
0.0
  0
LINE
  5
28D
330
20A
100
AcDbEntity
  8
$DDT_AUDIT_GENERATED_(1D8)
  6
Continuous
 62
     7
100
AcDbLine
 10
180.85
 20
346.1251750195
 30
0.0
 11
180.85
 21
345.8751750195
 31
0.0
  0
LINE
  5
28E
330
20A
100
AcDbEntity
  8
$DDT_AUDIT_GENERATED_(1D8)
  6
Continuous
 62
     7
100
AcDbLine
 10
51.85
 20
345.8751750195
 30
0.0
 11
51.85
 21
346.1251750195
 31
0.0
  0
LINE
  5
28F
330
20A
100
AcDbEntity
  8
$DDT_AUDIT_GENERATED_(1D8)
  6
Continuous
 62
     7
100
AcDbLine
 10
30.85
 20
346.1251750195
 30
0.0
 11
30.85
 21
345.922965614
 31
0.0
  0
ELLIPSE
  5
290
330
20A
100
AcDbEntity
  8
09421031_AUSL_RO
  6
Continuous
 62
     7
100
AcDbEllipse
 10
116.35
 20
120.1308368327
 30
0.0
 11
-12.00000000000007
 21
2.081668171172169E-12
 31
0.0
210
0.0
220
0.0
230
1.0
 40
0.984807753
 41
0.0000000000000006
 42
3.141592653589793
  0
LINE
  5
291
330
20A
100
AcDbEntity
  8
09421031_AUSL_RO
  6
Continuous
 62
     7
100
AcDbLine
 10
104.35
 20
225.9166892038
 30
0.0
 11
104.35
 21
169.8751750195
 31
0.0
  0
LINE
  5
292
330
20A
100
AcDbEntity
  8
09421031_AUSL_RO
  6
Continuous
 62
     7
100
AcDbLine
 10
128.35
 20
169.8751750195
 30
0.0
 11
128.35
 21
225.9166892038
 31
0.0
  0
LINE
  5
293
330
20A
100
AcDbEntity
  8
09421031_AUSL_RO
  6
Continuous
 62
     7
100
AcDbLine
 10
104.35
 20
169.8751750195
 30
0.0
 11
104.35
 21
120.6347873689
 31
0.0
  0
LINE
  5
294
330
20A
100
AcDbEntity
  8
09421031_AUSL_RO
  6
Continuous
 62
     7
100
AcDbLine
 10
128.35
 20
120.6347873689
 30
0.0
 11
128.35
 21
169.8751750195
 31
0.0
  0
LINE
  5
295
330
20A
100
AcDbEntity
  8
09421031_AUSL_RO
  6
Continuous
 62
     7
100
AcDbLine
 10
104.35
 20
120.6347873689
 30
0.0
 11
104.35
 21
120.1308368327
 31
0.0
  0
LINE
  5
296
330
20A
100
AcDbEntity
  8
09421031_AUSL_RO
  6
Continuous
 62
     7
100
AcDbLine
 10
128.35
 20
120.1308368327
 30
0.0
 11
128.35
 21
120.6347873689
 31
0.0
  0
ARC
  5
297
330
20A
100
AcDbEntity
  8
$DDT_AUDIT_GENERATED_(B1)
  6
Continuous
 62
     7
100
AcDbCircle
 10
116.3408755364
 20
117.8412244734
 30
0.0
 40
11.49122447337427
100
AcDbArc
 50
184.6308702372
 51
354.4478783542
  0
ENDBLK
  5
299
330
20A
100
AcDbEntity
  8
0
100
AcDbBlockEnd
  0
ENDSEC
  0
SECTION
  2
ENTITIES
  0
INSERT
  5
5F
330
1F
100
AcDbEntity
  8
Default
100
AcDbBlockReference
  2
SEANNOT_GROUP
 10
0.0
 20
0.0
 30
0.0
  0
INSERT
  5
6A
330
1F
100
AcDbEntity
  8
Default
100
AcDbBlockReference
  2
SEANNOT_GROUP1
 10
0.0
 20
0.0
 30
0.0
  0
INSERT
  5
74
330
1F
100
AcDbEntity
  8
Default
100
AcDbBlockReference
  2
SEANNOT_GROUP2
 10
0.0
 20
0.0
 30
0.0
  0
INSERT
  5
7A
330
1F
100
AcDbEntity
  8
Default
100
AcDbBlockReference
  2
SEANNOT_GROUP3
 10
0.0
 20
0.0
 30
0.0
  0
INSERT
  5
80
330
1F
100
AcDbEntity
  8
Default
100
AcDbBlockReference
  2
SEANNOT_GROUP4
 10
0.0
 20
0.0
 30
0.0
  0
INSERT
  5
86
330
1F
100
AcDbEntity
  8
Default
100
AcDbBlockReference
  2
SE
 10
0.0
 20
0.0
 30
0.0
  0
INSERT
  5
16F
330
1F
100
AcDbEntity
  8
Default
100
AcDbBlockReference
  2
SE1
 10
0.0
 20
0.0
 30
0.0
  0
INSERT
  5
20B
330
1F
100
AcDbEntity
  8
Default
100
AcDbBlockReference
  2
SE2
 10
0.0
 20
0.0
 30
0.0
  0
TEXT
  5
29B
330
1F
100
AcDbEntity
  8
Default
  6
Continuous
 62
     7
100
AcDbText
 10
5.9362635081
 20
53.4225120485
 30
0.0
 40
10.0
  1
Grohe AG^J
  7
SEACAD_seiso_ttf
 11
5.9362635081
 21
63.4225120485
 31
0.0
100
AcDbText
 73
     3
  0
TEXT
  5
29C
330
1F
100
AcDbEntity
  8
Default
  6
Continuous
 62
     7
100
AcDbText
 10
5.9362635081
 20
37.0588756849
 30
0.0
 40
10.0
  1
 
  7
SEACAD_seiso_ttf
 11
5.9362635081
 21
47.0588756849
 31
0.0
100
AcDbText
 73
     3
  0
TEXT
  5
29D
330
1F
100
AcDbEntity
  8
Default
  6
Continuous
 62
     7
100
AcDbText
 10
5.9362635081
 20
20.6952393213
 30
0.0
 40
10.0
  1
ecn: 
  7
SEACAD_seiso_ttf
 11
5.9362635081
 21
30.6952393213
 31
0.0
100
AcDbText
 73
     3
  0
TEXT
  5
29E
330
1F
100
AcDbEntity
  8
Default
  6
Continuous
 62
     7
100
AcDbText
 10
5.9362635081
 20
4.3316029576
 30
0.0
 40
10.0
  1
unit: mm
  7
SEACAD_seiso_ttf
 11
5.9362635081
 21
14.3316029576
 31
0.0
100
AcDbText
 73
     3
  0
LINE
  5
29F
330
1F
100
AcDbEntity
  8
Default
  6
Continuous
 62
     7
100
AcDbLine
 10
0.0
 20
0.0
 30
0.0
 11
100.0
 21
0.0
 31
0.0
  0
LINE
  5
2A0
330
1F
100
AcDbEntity
  8
Default
  6
Continuous
 62
     7
100
AcDbLine
 10
0.0
 20
0.0
 30
0.0
 11
0.0
 21
100.0
 31
0.0
  0
TEXT
  5
2A1
330
1F
100
AcDbEntity
  8
Default
  6
Continuous
 62
     7
100
AcDbText
 10
24.3923665681
 20
-18.2375342018
 30
0.0
 40
10.0
  1
100 mm
  7
SEACAD_seiso_ttf
 11
24.3923665681
 21
-8.2375342018
 31
0.0
100
AcDbText
 73
     3
  0
TEXT
  5
2A2
330
1F
100
AcDbEntity
  8
Default
  6
Continuous
 62
     7
100
AcDbText
 10
-7.6150308803
 20
24.6231930421
 30
0.0
 40
10.0
  1
100 mm
 50
90.0
  7
SEACAD_seiso_ttf
 11
-17.6150308803
 21
24.6231930421
 31
0.0
100
AcDbText
 73
     3
  0
TEXT
  5
2A3
330
1F
100
AcDbEntity
  8
Default
  6
Continuous
 62
     7
100
AcDbText
 10
28.4878128572
 20
20.0907663715
 30
0.0
 40
10.0
  1
219948
  7
SEACAD_seiso_ttf
 11
28.4878128572
 21
30.0907663715
 31
0.0
100
AcDbText
 73
     3
  0
TEXT
  5
2A4
330
1F
100
AcDbEntity
  8
Default
  6
Continuous
 62
     7
100
AcDbText
 10
5.9012241913
 20
36.7242780188
 30
0.0
 40
10.0
  1
33982002
  7
SEACAD_seiso_ttf
 11
5.9012241913
 21
46.7242780188
 31
0.0
100
AcDbText
 73
     3
  0
ENDSEC
  0
SECTION
  2
OBJECTS
  0
DICTIONARY
  5
C
330
0
100
AcDbDictionary
281
     1
  3
ACAD_GROUP
350
D
  3
ACAD_LAYOUT
350
1A
  3
ACAD_MLEADERSTYLE
350
2A8
  3
ACAD_MLINESTYLE
350
17
  3
ACAD_PLOTSETTINGS
350
19
  3
ACAD_PLOTSTYLENAME
350
E
  3
ACAD_SCALELIST
350
3B
  3
ACAD_TABLESTYLE
350
2A7
  3
ACAD_VISUALSTYLE
350
2A
  3
AcDbVariableDictionary
350
2A5
  0
DICTIONARY
  5
D
102
{ACAD_REACTORS
330
C
102
}
330
C
100
AcDbDictionary
281
     1
  0
DICTIONARY
  5
1A
102
{ACAD_REACTORS
330
C
102
}
330
C
100
AcDbDictionary
281
     1
  3
Layout1
350
1E
  3
Model
350
22
  0
DICTIONARY
  5
2A8
102
{ACAD_REACTORS
330
C
102
}
330
C
100
AcDbDictionary
281
     1
  0
DICTIONARY
  5
17
102
{ACAD_REACTORS
330
C
102
}
330
C
100
AcDbDictionary
281
     1
  3
Standard
350
18
  0
DICTIONARY
  5
19
102
{ACAD_REACTORS
330
C
102
}
330
C
100
AcDbDictionary
281
     1
  0
ACDBDICTIONARYWDFLT
  5
E
102
{ACAD_REACTORS
330
C
102
}
330
C
100
AcDbDictionary
281
     1
  3
Normal
350
F
100
AcDbDictionaryWithDefault
340
F
  0
DICTIONARY
  5
3B
102
{ACAD_REACTORS
330
C
102
}
330
C
100
AcDbDictionary
281
     1
  3
A0
350
3C
  3
A1
350
3D
  3
A2
350
3E
  3
A3
350
3F
  3
A4
350
40
  3
A5
350
41
  3
A6
350
42
  3
A7
350
43
  3
A8
350
44
  3
A9
350
45
  3
B0
350
46
  3
B1
350
47
  3
B2
350
48
  3
B3
350
49
  3
B4
350
4A
  3
B5
350
4B
  3
B6
350
4C
  3
B7
350
4D
  3
B8
350
4E
  3
B9
350
4F
  3
C0
350
50
  3
C1
350
51
  3
C2
350
52
  3
C3
350
53
  3
C4
350
54
  3
C5
350
55
  3
C6
350
56
  3
C7
350
57
  3
C8
350
58
  3
C9
350
59
  3
D0
350
5A
  3
D1
350
5B
  3
D2
350
5C
  0
DICTIONARY
  5
2A7
102
{ACAD_REACTORS
330
C
102
}
330
C
100
AcDbDictionary
281
     1
  0
DICTIONARY
  5
2A
102
{ACAD_REACTORS
330
C
102
}
330
C
100
AcDbDictionary
281
     1
  3
2dWireframe
350
2F
  3
3D Hidden
350
31
  3
3dWireframe
350
30
  3
Basic
350
32
  3
Brighten
350
36
  3
ColorChange
350
3A
  3
Conceptual
350
34
  3
Dim
350
35
  3
Facepattern
350
39
  3
Flat
350
2B
  3
FlatWithEdges
350
2C
  3
Gouraud
350
2D
  3
GouraudWithEdges
350
2E
  3
Linepattern
350
38
  3
Realistic
350
33
  3
Thicken
350
37
  0
DICTIONARY
  5
2A5
102
{ACAD_REACTORS
330
C
102
}
330
C
100
AcDbDictionary
281
     1
  3
CANNOSCALE
350
2A6
  3
PSOLHEIGHT
350
2AA
  3
PSOLWIDTH
350
2A9
  0
LAYOUT
  5
1E
102
{ACAD_REACTORS
330
1A
102
}
330
1A
100
AcDbPlotSettings
  1

  2
none_device
  4

  6

 40
0.0
 41
0.0
 42
0.0
 43
0.0
 44
0.0
 45
0.0
 46
0.0
 47
0.0
 48
0.0
 49
0.0
140
0.0
141
0.0
142
1.0
143
1.0
 70
   688
 72
     0
 73
     0
 74
     5
  7

 75
    16
147
1.0
148
0.0
149
0.0
100
AcDbLayout
  1
Layout1
 70
     1
 71
     1
 10
0.0
 20
0.0
 11
1682.0
 21
2378.0
 12
0.0
 22
0.0
 32
0.0
 14
0.0
 24
0.0
 34
0.0
 15
1682.0
 25
2378.0
 35
0.0
146
0.0
 13
0.0
 23
0.0
 33
0.0
 16
1.0
 26
0.0
 36
0.0
 17
0.0
 27
1.0
 37
0.0
 76
     0
330
1B
  0
LAYOUT
  5
22
102
{ACAD_REACTORS
330
1A
102
}
330
1A
100
AcDbPlotSettings
  1

  2
none_device
  4

  6

 40
0.0
 41
0.0
 42
0.0
 43
0.0
 44
0.0
 45
0.0
 46
0.0
 47
0.0
 48
0.0
 49
0.0
140
0.0
141
0.0
142
1.0
143
1.0
 70
  1712
 72
     0
 73
     0
 74
     0
  7

 75
     0
147
1.0
148
0.0
149
0.0
100
AcDbLayout
  1
Model
 70
     1
 71
     0
 10
0.0
 20
0.0
 11
1682.0
 21
2378.0
 12
0.0
 22
0.0
 32
0.0
 14
0.0
 24
0.0
 34
0.0
 15
1682.0
 25
2378.0
 35
0.0
146
0.0
 13
0.0
 23
0.0
 33
0.0
 16
1.0
 26
0.0
 36
0.0
 17
0.0
 27
1.0
 37
0.0
 76
     0
330
1F
331
29
  0
MLINESTYLE
  5
18
102
{ACAD_REACTORS
330
17
102
}
330
17
100
AcDbMlineStyle
  2
Standard
 70
     0
  3

 62
   256
 51
90.0
 52
90.0
 71
     2
 49
0.5
 62
   256
  6
BYLAYER
 49
-0.5
 62
   256
  6
BYLAYER
  0
ACDBPLACEHOLDER
  5
F
102
{ACAD_REACTORS
330
E
102
}
330
E
  0
SCALE
  5
3C
102
{ACAD_REACTORS
330
3B
102
}
330
3B
100
AcDbScale
 70
     0
300
1:1
140
1.0
141
1.0
290
     1
  0
SCALE
  5
3D
102
{ACAD_REACTORS
330
3B
102
}
330
3B
100
AcDbScale
 70
     0
300
1:2
140
1.0
141
2.0
290
     0
  0
SCALE
  5
3E
102
{ACAD_REACTORS
330
3B
102
}
330
3B
100
AcDbScale
 70
     0
300
1:4
140
1.0
141
4.0
290
     0
  0
SCALE
  5
3F
102
{ACAD_REACTORS
330
3B
102
}
330
3B
100
AcDbScale
 70
     0
300
1:5
140
1.0
141
5.0
290
     0
  0
SCALE
  5
40
102
{ACAD_REACTORS
330
3B
102
}
330
3B
100
AcDbScale
 70
     0
300
1:8
140
1.0
141
8.0
290
     0
  0
SCALE
  5
41
102
{ACAD_REACTORS
330
3B
102
}
330
3B
100
AcDbScale
 70
     0
300
1:10
140
1.0
141
10.0
290
     0
  0
SCALE
  5
42
102
{ACAD_REACTORS
330
3B
102
}
330
3B
100
AcDbScale
 70
     0
300
1:16
140
1.0
141
16.0
290
     0
  0
SCALE
  5
43
102
{ACAD_REACTORS
330
3B
102
}
330
3B
100
AcDbScale
 70
     0
300
1:20
140
1.0
141
20.0
290
     0
  0
SCALE
  5
44
102
{ACAD_REACTORS
330
3B
102
}
330
3B
100
AcDbScale
 70
     0
300
1:30
140
1.0
141
30.0
290
     0
  0
SCALE
  5
45
102
{ACAD_REACTORS
330
3B
102
}
330
3B
100
AcDbScale
 70
     0
300
1:40
140
1.0
141
40.0
290
     0
  0
SCALE
  5
46
102
{ACAD_REACTORS
330
3B
102
}
330
3B
100
AcDbScale
 70
     0
300
1:50
140
1.0
141
50.0
290
     0
  0
SCALE
  5
47
102
{ACAD_REACTORS
330
3B
102
}
330
3B
100
AcDbScale
 70
     0
300
1:100
140
1.0
141
100.0
290
     0
  0
SCALE
  5
48
102
{ACAD_REACTORS
330
3B
102
}
330
3B
100
AcDbScale
 70
     0
300
2:1
140
2.0
141
1.0
290
     0
  0
SCALE
  5
49
102
{ACAD_REACTORS
330
3B
102
}
330
3B
100
AcDbScale
 70
     0
300
4:1
140
4.0
141
1.0
290
     0
  0
SCALE
  5
4A
102
{ACAD_REACTORS
330
3B
102
}
330
3B
100
AcDbScale
 70
     0
300
8:1
140
8.0
141
1.0
290
     0
  0
SCALE
  5
4B
102
{ACAD_REACTORS
330
3B
102
}
330
3B
100
AcDbScale
 70
     0
300
10:1
140
10.0
141
1.0
290
     0
  0
SCALE
  5
4C
102
{ACAD_REACTORS
330
3B
102
}
330
3B
100
AcDbScale
 70
     0
300
100:1
140
100.0
141
1.0
290
     0
  0
SCALE
  5
4D
102
{ACAD_REACTORS
330
3B
102
}
330
3B
100
AcDbScale
 70
     0
300
1/128" = 1'-0"
140
0.0078125
141
12.0
290
     0
  0
SCALE
  5
4E
102
{ACAD_REACTORS
330
3B
102
}
330
3B
100
AcDbScale
 70
     0
300
1/64" = 1'-0"
140
0.015625
141
12.0
290
     0
  0
SCALE
  5
4F
102
{ACAD_REACTORS
330
3B
102
}
330
3B
100
AcDbScale
 70
     0
300
1/32" = 1'-0"
140
0.03125
141
12.0
290
     0
  0
SCALE
  5
50
102
{ACAD_REACTORS
330
3B
102
}
330
3B
100
AcDbScale
 70
     0
300
1/16" = 1'-0"
140
0.0625
141
12.0
290
     0
  0
SCALE
  5
51
102
{ACAD_REACTORS
330
3B
102
}
330
3B
100
AcDbScale
 70
     0
300
3/32" = 1'-0"
140
0.09375
141
12.0
290
     0
  0
SCALE
  5
52
102
{ACAD_REACTORS
330
3B
102
}
330
3B
100
AcDbScale
 70
     0
300
1/8" = 1'-0"
140
0.125
141
12.0
290
     0
  0
SCALE
  5
53
102
{ACAD_REACTORS
330
3B
102
}
330
3B
100
AcDbScale
 70
     0
300
3/16" = 1'-0"
140
0.1875
141
12.0
290
     0
  0
SCALE
  5
54
102
{ACAD_REACTORS
330
3B
102
}
330
3B
100
AcDbScale
 70
     0
300
1/4" = 1'-0"
140
0.25
141
12.0
290
     0
  0
SCALE
  5
55
102
{ACAD_REACTORS
330
3B
102
}
330
3B
100
AcDbScale
 70
     0
300
3/8" = 1'-0"
140
0.375
141
12.0
290
     0
  0
SCALE
  5
56
102
{ACAD_REACTORS
330
3B
102
}
330
3B
100
AcDbScale
 70
     0
300
1/2" = 1'-0"
140
0.5
141
12.0
290
     0
  0
SCALE
  5
57
102
{ACAD_REACTORS
330
3B
102
}
330
3B
100
AcDbScale
 70
     0
300
3/4" = 1'-0"
140
0.75
141
12.0
290
     0
  0
SCALE
  5
58
102
{ACAD_REACTORS
330
3B
102
}
330
3B
100
AcDbScale
 70
     0
300
1" = 1'-0"
140
1.0
141
12.0
290
     0
  0
SCALE
  5
59
102
{ACAD_REACTORS
330
3B
102
}
330
3B
100
AcDbScale
 70
     0
300
1-1/2" = 1'-0"
140
1.5
141
12.0
290
     0
  0
SCALE
  5
5A
102
{ACAD_REACTORS
330
3B
102
}
330
3B
100
AcDbScale
 70
     0
300
3" = 1'-0"
140
3.0
141
12.0
290
     0
  0
SCALE
  5
5B
102
{ACAD_REACTORS
330
3B
102
}
330
3B
100
AcDbScale
 70
     0
300
6" = 1'-0"
140
6.0
141
12.0
290
     0
  0
SCALE
  5
5C
102
{ACAD_REACTORS
330
3B
102
}
330
3B
100
AcDbScale
 70
     0
300
1'-0" = 1'-0"
140
12.0
141
12.0
290
     0
  0
VISUALSTYLE
  5
2F
102
{ACAD_REACTORS
330
2A
102
}
330
2A
100
AcDbVisualStyle
  2
2dWireframe
 70
     4
 71
     0
 72
     2
 73
     0
 90
        0
 40
-0.6
 41
-30.0
 62
     5
 63
     7
 74
     1
 91
        4
 64
     7
 65
   257
 75
     1
175
     1
 42
1.0
 92
        0
 66
   257
 43
1.0
 76
     1
 77
     6
 78
     2
 67
     7
 79
     5
170
     0
171
     0
290
     0
174
     0
 93
        1
 44
0.0
173
     0
291
     0
 45
0.0
1001
ACAD
1000
AcDbSavedByObjectVersion
1070
     0
  0
VISUALSTYLE
  5
31
102
{ACAD_REACTORS
330
2A
102
}
330
2A
100
AcDbVisualStyle
  2
3D Hidden
 70
     6
 71
     1
 72
     2
 73
     2
 90
        0
 40
-0.6
 41
-30.0
 62
     5
 63
     7
 74
     2
 91
        2
 64
     7
 65
   257
 75
     2
175
     1
 42
40.0
 92
        0
 66
   257
 43
1.0
 76
     1
 77
     6
 78
     2
 67
     7
 79
     3
170
     0
171
     0
290
     0
174
     0
 93
        1
 44
0.0
173
     0
291
     0
 45
0.0
1001
ACAD
1000
AcDbSavedByObjectVersion
1070
     0
  0
VISUALSTYLE
  5
30
102
{ACAD_REACTORS
330
2A
102
}
330
2A
100
AcDbVisualStyle
  2
3dWireframe
 70
     5
 71
     0
 72
     2
 73
     0
 90
        0
 40
-0.6
 41
-30.0
 62
     5
 63
     7
 74
     1
 91
        4
 64
     7
 65
   257
 75
     1
175
     1
 42
1.0
 92
        0
 66
   257
 43
1.0
 76
     1
 77
     6
 78
     2
 67
     7
 79
     5
170
     0
171
     0
290
     0
174
     0
 93
        1
 44
0.0
173
     0
291
     0
 45
0.0
1001
ACAD
1000
AcDbSavedByObjectVersion
1070
     0
  0
VISUALSTYLE
  5
32
102
{ACAD_REACTORS
330
2A
102
}
330
2A
100
AcDbVisualStyle
  2
Basic
 70
     7
 71
     1
 72
     0
 73
     1
 90
        0
 40
-0.6
 41
-30.0
 62
     5
 63
     7
 74
     0
 91
        4
 64
     7
 65
   257
 75
     1
175
     1
 42
1.0
 92
        8
 66
     7
 43
1.0
 76
     1
 77
     6
 78
     2
 67
     7
 79
     5
170
     0
171
     0
290
     0
174
     0
 93
        1
 44
0.0
173
     0
291
     1
 45
0.0
1001
ACAD
1000
AcDbSavedByObjectVersion
1070
     0
  0
VISUALSTYLE
  5
36
102
{ACAD_REACTORS
330
2A
102
}
330
2A
100
AcDbVisualStyle
  2
Brighten
 70
    12
 71
     2
 72
     2
 73
     0
 90
        0
 40
-0.6
 41
-30.0
 62
     5
 63
     7
 74
     1
 91
        4
 64
     7
 65
   257
 75
     1
175
     1
 42
1.0
 92
        8
 66
     7
 43
1.0
 76
     1
 77
     6
 78
     2
 67
     7
 79
     5
170
     0
171
     0
290
     0
174
     0
 93
        1
 44
50.0
173
     0
291
     1
 45
0.0
1001
ACAD
1000
AcDbSavedByObjectVersion
1070
     0
  0
VISUALSTYLE
  5
3A
102
{ACAD_REACTORS
330
2A
102
}
330
2A
100
AcDbVisualStyle
  2
ColorChange
 70
    16
 71
     2
 72
     2
 73
     3
 90
        0
 40
-0.6
 41
-30.0
 62
     5
 63
     8
 74
     1
 91
        4
 64
     7
 65
   257
 75
     1
175
     1
 42
1.0
 92
        8
 66
     8
 43
1.0
 76
     1
 77
     6
 78
     2
 67
     7
 79
     5
170
     0
171
     0
290
     0
174
     0
 93
        1
 44
0.0
173
     0
291
     1
 45
0.0
1001
ACAD
1000
AcDbSavedByObjectVersion
1070
     0
  0
VISUALSTYLE
  5
34
102
{ACAD_REACTORS
330
2A
102
}
330
2A
100
AcDbVisualStyle
  2
Conceptual
 70
     9
 71
     3
 72
     2
 73
     0
 90
        0
 40
-0.6
 41
-30.0
 62
     5
 63
     7
 74
     2
 91
        2
 64
     7
 65
   257
 75
     1
175
     1
 42
40.0
 92
        8
 66
     7
 43
1.0
 76
     1
 77
     6
 78
     2
 67
     7
 79
     3
170
     0
171
     0
290
     0
174
     0
 93
        1
 44
0.0
173
     0
291
     0
 45
0.0
1001
ACAD
1000
AcDbSavedByObjectVersion
1070
     0
  0
VISUALSTYLE
  5
35
102
{ACAD_REACTORS
330
2A
102
}
330
2A
100
AcDbVisualStyle
  2
Dim
 70
    11
 71
     2
 72
     2
 73
     0
 90
        0
 40
-0.6
 41
-30.0
 62
     5
 63
     7
 74
     1
 91
        4
 64
     7
 65
   257
 75
     1
175
     1
 42
1.0
 92
        8
 66
     7
 43
1.0
 76
     1
 77
     6
 78
     2
 67
     7
 79
     5
170
     0
171
     0
290
     0
174
     0
 93
        1
 44
-50.0
173
     0
291
     1
 45
0.0
1001
ACAD
1000
AcDbSavedByObjectVersion
1070
     0
  0
VISUALSTYLE
  5
39
102
{ACAD_REACTORS
330
2A
102
}
330
2A
100
AcDbVisualStyle
  2
Facepattern
 70
    15
 71
     2
 72
     2
 73
     0
 90
        0
 40
-0.6
 41
-30.0
 62
     5
 63
     7
 74
     1
 91
        4
 64
     7
 65
   257
 75
     1
175
     1
 42
1.0
 92
        8
 66
     7
 43
1.0
 76
     1
 77
     6
 78
     2
 67
     7
 79
     5
170
     0
171
     0
290
     0
174
     0
 93
        1
 44
0.0
173
     0
291
     1
 45
0.0
1001
ACAD
1000
AcDbSavedByObjectVersion
1070
     0
  0
VISUALSTYLE
  5
2B
102
{ACAD_REACTORS
330
2A
102
}
330
2A
100
AcDbVisualStyle
  2
Flat
 70
     0
 71
     2
 72
     1
 73
     1
 90
        2
 40
-0.6
 41
30.0
 62
     5
 63
     7
 74
     0
 91
        4
 64
     7
 65
   257
 75
     1
175
     1
 42
1.0
 92
        8
 66
     7
 43
1.0
 76
     1
 77
     6
 78
     2
 67
     7
 79
     5
170
     0
171
     0
290
     0
174
     0
 93
       13
 44
0.0
173
     0
291
     1
 45
0.0
1001
ACAD
1000
AcDbSavedByObjectVersion
1070
     0
  0
VISUALSTYLE
  5
2C
102
{ACAD_REACTORS
330
2A
102
}
330
2A
100
AcDbVisualStyle
  2
FlatWithEdges
 70
     1
 71
     2
 72
     1
 73
     1
 90
        2
 40
-0.6
 41
30.0
 62
     5
 63
     7
 74
     1
 91
        4
 64
     7
 65
   257
 75
     1
175
     1
 42
1.0
 92
        0
 66
   257
 43
1.0
 76
     1
 77
     6
 78
     2
 67
     7
 79
     5
170
     0
171
     0
290
     0
174
     0
 93
       13
 44
0.0
173
     0
291
     1
 45
0.0
1001
ACAD
1000
AcDbSavedByObjectVersion
1070
     0
  0
VISUALSTYLE
  5
2D
102
{ACAD_REACTORS
330
2A
102
}
330
2A
100
AcDbVisualStyle
  2
Gouraud
 70
     2
 71
     2
 72
     2
 73
     1
 90
        2
 40
-0.6
 41
30.0
 62
     5
 63
     7
 74
     0
 91
        4
 64
     7
 65
   257
 75
     1
175
     1
 42
1.0
 92
        0
 66
     7
 43
1.0
 76
     1
 77
     6
 78
     2
 67
     7
 79
     5
170
     0
171
     0
290
     0
174
     0
 93
       13
 44
0.0
173
     0
291
     1
 45
0.0
1001
ACAD
1000
AcDbSavedByObjectVersion
1070
     0
  0
VISUALSTYLE
  5
2E
102
{ACAD_REACTORS
330
2A
102
}
330
2A
100
AcDbVisualStyle
  2
GouraudWithEdges
 70
     3
 71
     2
 72
     2
 73
     1
 90
        2
 40
-0.6
 41
30.0
 62
     5
 63
     7
 74
     1
 91
        4
 64
     7
 65
   257
 75
     1
175
     1
 42
1.0
 92
        0
 66
   257
 43
1.0
 76
     1
 77
     6
 78
     2
 67
     7
 79
     5
170
     0
171
     0
290
     0
174
     0
 93
       13
 44
0.0
173
     0
291
     1
 45
0.0
1001
ACAD
1000
AcDbSavedByObjectVersion
1070
     0
  0
VISUALSTYLE
  5
38
102
{ACAD_REACTORS
330
2A
102
}
330
2A
100
AcDbVisualStyle
  2
Linepattern
 70
    14
 71
     2
 72
     2
 73
     0
 90
        0
 40
-0.6
 41
-30.0
 62
     5
 63
     7
 74
     1
 91
        4
 64
     7
 65
   257
 75
     7
175
     7
 42
1.0
 92
        8
 66
     7
 43
1.0
 76
     1
 77
     6
 78
     2
 67
     7
 79
     5
170
     0
171
     0
290
     0
174
     0
 93
        1
 44
0.0
173
     0
291
     1
 45
0.0
1001
ACAD
1000
AcDbSavedByObjectVersion
1070
     0
  0
VISUALSTYLE
  5
33
102
{ACAD_REACTORS
330
2A
102
}
330
2A
100
AcDbVisualStyle
  2
Realistic
 70
     8
 71
     2
 72
     2
 73
     0
 90
        0
 40
-0.6
 41
-30.0
 62
     5
 63
     7
 74
     1
 91
        0
 64
     7
 65
   257
 75
     1
175
     1
 42
1.0
 92
        8
 66
     8
 43
1.0
 76
     1
 77
     6
 78
     2
 67
     7
 79
     5
170
     0
171
     0
290
     0
174
     0
 93
       13
 44
0.0
173
     0
291
     0
 45
0.0
1001
ACAD
1000
AcDbSavedByObjectVersion
1070
     0
  0
VISUALSTYLE
  5
37
102
{ACAD_REACTORS
330
2A
102
}
330
2A
100
AcDbVisualStyle
  2
Thicken
 70
    13
 71
     2
 72
     2
 73
     0
 90
        0
 40
-0.6
 41
-30.0
 62
     5
 63
     7
 74
     1
 91
        4
 64
     7
 65
   257
 75
     1
175
     1
 42
1.0
 92
       12
 66
     7
 43
1.0
 76
     1
 77
     6
 78
     2
 67
     7
 79
     5
170
     0
171
     0
290
     0
174
     0
 93
        1
 44
0.0
173
     0
291
     1
 45
0.0
1001
ACAD
1000
AcDbSavedByObjectVersion
1070
     0
  0
DICTIONARYVAR
  5
2A6
102
{ACAD_REACTORS
330
2A5
102
}
330
2A5
100
DictionaryVariables
280
     0
  1
1:1
  0
DICTIONARYVAR
  5
2AA
102
{ACAD_REACTORS
330
2A5
102
}
330
2A5
100
DictionaryVariables
280
     0
  1
80.000000
  0
DICTIONARYVAR
  5
2A9
102
{ACAD_REACTORS
330
2A5
102
}
330
2A5
100
DictionaryVariables
280
     0
  1
5.000000
  0
ENDSEC
  0
EOF
