  0
SECTION
  2
HEADER
  9
$ACADVER
  1
AC1015
  9
$ACADMAINTVER
 70
     6
  9
$DWGCODEPAGE
  3
ANSI_1252
  9
$INSBASE
 10
0.0
 20
0.0
 30
0.0
  9
$EXTMIN
 10
0.0
 20
0.0
 30
0.0
  9
$EXTMAX
 10
1682.0
 20
2378.0
 30
0.0
  9
$LIMMIN
 10
0.0
 20
0.0
  9
$LIMMAX
 10
1682.0
 20
2378.0
  9
$ORTHOMODE
 70
     0
  9
$REGENMODE
 70
     1
  9
$FILLMODE
 70
     1
  9
$QTEXTMODE
 70
     0
  9
$MIRRTEXT
 70
     1
  9
$LTSCALE
 40
1.0
  9
$ATTMODE
 70
     1
  9
$TEXTSIZE
 40
2.5
  9
$TRACEWID
 40
1.0
  9
$TEXTSTYLE
  7
Standard
  9
$CLAYER
  8
0
  9
$CELTYPE
  6
ByLayer
  9
$CECOLOR
 62
   256
  9
$CELTSCALE
 40
1.0
  9
$DISPSILH
 70
     0
  9
$DIMSCALE
 40
1.0
  9
$DIMASZ
 40
2.5
  9
$DIMEXO
 40
0.625
  9
$DIMDLI
 40
3.75
  9
$DIMRND
 40
0.0
  9
$DIMDLE
 40
0.0
  9
$DIMEXE
 40
1.25
  9
$DIMTP
 40
0.0
  9
$DIMTM
 40
0.0
  9
$DIMTXT
 40
2.5
  9
$DIMCEN
 40
2.5
  9
$DIMTSZ
 40
0.0
  9
$DIMTOL
 70
     0
  9
$DIMLIM
 70
     0
  9
$DIMTIH
 70
     0
  9
$DIMTOH
 70
     0
  9
$DIMSE1
 70
     0
  9
$DIMSE2
 70
     0
  9
$DIMTAD
 70
     1
  9
$DIMZIN
 70
     8
  9
$DIMBLK
  1

  9
$DIMASO
 70
     1
  9
$DIMSHO
 70
     1
  9
$DIMPOST
  1

  9
$DIMAPOST
  1

  9
$DIMALT
 70
     0
  9
$DIMALTD
 70
     3
  9
$DIMALTF
 40
0.0393700787
  9
$DIMLFAC
 40
1.0
  9
$DIMTOFL
 70
     1
  9
$DIMTVP
 40
0.0
  9
$DIMTIX
 70
     0
  9
$DIMSOXD
 70
     0
  9
$DIMSAH
 70
     0
  9
$DIMBLK1
  1

  9
$DIMBLK2
  1

  9
$DIMSTYLE
  2
ISO-25
  9
$DIMCLRD
 70
     0
  9
$DIMCLRE
 70
     0
  9
$DIMCLRT
 70
     0
  9
$DIMTFAC
 40
1.0
  9
$DIMGAP
 40
0.625
  9
$DIMJUST
 70
     0
  9
$DIMSD1
 70
     0
  9
$DIMSD2
 70
     0
  9
$DIMTOLJ
 70
     0
  9
$DIMTZIN
 70
     8
  9
$DIMALTZ
 70
     0
  9
$DIMALTTZ
 70
     0
  9
$DIMUPT
 70
     0
  9
$DIMDEC
 70
     2
  9
$DIMTDEC
 70
     2
  9
$DIMALTU
 70
     2
  9
$DIMALTTD
 70
     3
  9
$DIMTXSTY
  7
Standard
  9
$DIMAUNIT
 70
     0
  9
$DIMADEC
 70
     0
  9
$DIMALTRND
 40
0.0
  9
$DIMAZIN
 70
     0
  9
$DIMDSEP
 70
    44
  9
$DIMATFIT
 70
     3
  9
$DIMFRAC
 70
     0
  9
$DIMLDRBLK
  1

  9
$DIMLUNIT
 70
     2
  9
$DIMLWD
 70
    -2
  9
$DIMLWE
 70
    -2
  9
$DIMTMOVE
 70
     0
  9
$LUNITS
 70
     2
  9
$LUPREC
 70
     4
  9
$SKETCHINC
 40
1.0
  9
$FILLETRAD
 40
10.0
  9
$AUNITS
 70
     0
  9
$AUPREC
 70
     0
  9
$MENU
  1
.
  9
$ELEVATION
 40
0.0
  9
$PELEVATION
 40
0.0
  9
$THICKNESS
 40
0.0
  9
$LIMCHECK
 70
     0
  9
$CHAMFERA
 40
10.0
  9
$CHAMFERB
 40
10.0
  9
$CHAMFERC
 40
20.0
  9
$CHAMFERD
 40
0.0
  9
$SKPOLY
 70
     0
  9
$TDCREATE
 40
2455544.565605324
  9
$TDUCREATE
 40
2455544.523938657
  9
$TDUPDATE
 40
2455544.565605336
  9
$TDUUPDATE
 40
2455544.523938669
  9
$TDINDWG
 40
0.0000000116
  9
$TDUSRTIMER
 40
0.0000000116
  9
$USRTIMER
 70
     1
  9
$ANGBASE
 50
0.0
  9
$ANGDIR
 70
     0
  9
$PDMODE
 70
     0
  9
$PDSIZE
 40
0.0
  9
$PLINEWID
 40
0.0
  9
$SPLFRAME
 70
     0
  9
$SPLINETYPE
 70
     6
  9
$SPLINESEGS
 70
     8
  9
$HANDSEED
  5
176
  9
$SURFTAB1
 70
     6
  9
$SURFTAB2
 70
     6
  9
$SURFTYPE
 70
     6
  9
$SURFU
 70
     6
  9
$SURFV
 70
     6
  9
$UCSBASE
  2

  9
$UCSNAME
  2

  9
$UCSORG
 10
0.0
 20
0.0
 30
0.0
  9
$UCSXDIR
 10
1.0
 20
0.0
 30
0.0
  9
$UCSYDIR
 10
0.0
 20
1.0
 30
0.0
  9
$UCSORTHOREF
  2

  9
$UCSORTHOVIEW
 70
     0
  9
$UCSORGTOP
 10
0.0
 20
0.0
 30
0.0
  9
$UCSORGBOTTOM
 10
0.0
 20
0.0
 30
0.0
  9
$UCSORGLEFT
 10
0.0
 20
0.0
 30
0.0
  9
$UCSORGRIGHT
 10
0.0
 20
0.0
 30
0.0
  9
$UCSORGFRONT
 10
0.0
 20
0.0
 30
0.0
  9
$UCSORGBACK
 10
0.0
 20
0.0
 30
0.0
  9
$PUCSBASE
  2

  9
$PUCSNAME
  2

  9
$PUCSORG
 10
0.0
 20
0.0
 30
0.0
  9
$PUCSXDIR
 10
1.0
 20
0.0
 30
0.0
  9
$PUCSYDIR
 10
0.0
 20
1.0
 30
0.0
  9
$PUCSORTHOREF
  2

  9
$PUCSORTHOVIEW
 70
     0
  9
$PUCSORGTOP
 10
0.0
 20
0.0
 30
0.0
  9
$PUCSORGBOTTOM
 10
0.0
 20
0.0
 30
0.0
  9
$PUCSORGLEFT
 10
0.0
 20
0.0
 30
0.0
  9
$PUCSORGRIGHT
 10
0.0
 20
0.0
 30
0.0
  9
$PUCSORGFRONT
 10
0.0
 20
0.0
 30
0.0
  9
$PUCSORGBACK
 10
0.0
 20
0.0
 30
0.0
  9
$USERI1
 70
     0
  9
$USERI2
 70
     0
  9
$USERI3
 70
     0
  9
$USERI4
 70
     0
  9
$USERI5
 70
     0
  9
$USERR1
 40
0.0
  9
$USERR2
 40
0.0
  9
$USERR3
 40
0.0
  9
$USERR4
 40
0.0
  9
$USERR5
 40
0.0
  9
$WORLDVIEW
 70
     1
  9
$SHADEDGE
 70
     3
  9
$SHADEDIF
 70
    70
  9
$TILEMODE
 70
     1
  9
$MAXACTVP
 70
    64
  9
$PINSBASE
 10
0.0
 20
0.0
 30
0.0
  9
$PLIMCHECK
 70
     0
  9
$PEXTMIN
 10
0.0
 20
0.0
 30
0.0
  9
$PEXTMAX
 10
1682.0
 20
2378.0
 30
0.0
  9
$PLIMMIN
 10
0.0
 20
0.0
  9
$PLIMMAX
 10
1682.0
 20
2378.0
  9
$UNITMODE
 70
     0
  9
$VISRETAIN
 70
     1
  9
$PLINEGEN
 70
     0
  9
$PSLTSCALE
 70
     1
  9
$TREEDEPTH
 70
  3020
  9
$CMLSTYLE
  2
Standard
  9
$CMLJUST
 70
     0
  9
$CMLSCALE
 40
20.0
  9
$PROXYGRAPHICS
 70
     1
  9
$MEASUREMENT
 70
     1
  9
$CELWEIGHT
370
    -1
  9
$ENDCAPS
280
     0
  9
$JOINSTYLE
280
     0
  9
$LWDISPLAY
290
     0
  9
$INSUNITS
 70
     4
  9
$HYPERLINKBASE
  1

  9
$STYLESHEET
  1

  9
$XEDIT
290
     1
  9
$CEPSNTYPE
380
     0
  9
$PSTYLEMODE
290
     1
  9
$FINGERPRINTGUID
  2
{8ED1877C-D469-4C81-A785-73A97BA45831}
  9
$VERSIONGUID
  2
{FAEB1C32-E019-11D5-929B-00C0DF256EC4}
  9
$EXTNAMES
290
     1
  9
$PSVPSCALE
 40
0.0
  9
$OLESTARTUP
290
     0
  0
ENDSEC
  0
SECTION
  2
CLASSES
  0
CLASS
  1
ACDBDICTIONARYWDFLT
  2
AcDbDictionaryWithDefault
  3
ObjectDBX Classes
 90
        0
280
     0
281
     0
  0
CLASS
  1
VISUALSTYLE
  2
AcDbVisualStyle
  3
ObjectDBX Classes
 90
     4095
280
     0
281
     0
  0
CLASS
  1
SCALE
  2
AcDbScale
  3
ObjectDBX Classes
 90
     1153
280
     0
281
     0
  0
CLASS
  1
DICTIONARYVAR
  2
AcDbDictionaryVar
  3
ObjectDBX Classes
 90
        0
280
     0
281
     0
  0
CLASS
  1
ACDBPLACEHOLDER
  2
AcDbPlaceHolder
  3
ObjectDBX Classes
 90
        0
280
     0
281
     0
  0
CLASS
  1
LAYOUT
  2
AcDbLayout
  3
ObjectDBX Classes
 90
        0
280
     0
281
     0
  0
ENDSEC
  0
SECTION
  2
TABLES
  0
TABLE
  2
VPORT
  5
8
330
0
100
AcDbSymbolTable
 70
     1
  0
VPORT
  5
29
330
8
100
AcDbSymbolTableRecord
100
AcDbViewportTableRecord
  2
*Active
 70
     0
 10
0.0
 20
0.0
 11
1.0
 21
1.0
 12
344.1869158879
 22
148.5
 13
0.0
 23
0.0
 14
10.0
 24
10.0
 15
10.0
 25
10.0
 16
0.0
 26
0.0
 36
1.0
 17
0.0
 27
0.0
 37
0.0
 40
297.0
 41
1.9729729729
 42
50.0
 43
0.0
 44
0.0
 50
0.0
 51
0.0
 71
     0
 72
   100
 73
     1
 74
     3
 75
     0
 76
     0
 77
     0
 78
     0
281
     0
 65
     1
110
0.0
120
0.0
130
0.0
111
1.0
121
0.0
131
0.0
112
0.0
122
1.0
132
0.0
 79
     0
146
0.0
  0
ENDTAB
  0
TABLE
  2
LTYPE
  5
5
330
0
100
AcDbSymbolTable
 70
     2
  0
LTYPE
  5
14
330
5
100
AcDbSymbolTableRecord
100
AcDbLinetypeTableRecord
  2
ByBlock
 70
     0
  3

 72
    65
 73
     0
 40
0.0
  0
LTYPE
  5
15
330
5
100
AcDbSymbolTableRecord
100
AcDbLinetypeTableRecord
  2
ByLayer
 70
     0
  3

 72
    65
 73
     0
 40
0.0
  0
LTYPE
  5
16
330
5
100
AcDbSymbolTableRecord
100
AcDbLinetypeTableRecord
  2
Continuous
 70
     0
  3
Solid line
 72
    65
 73
     0
 40
0.0
  0
LTYPE
  5
60
330
5
100
AcDbSymbolTableRecord
100
AcDbLinetypeTableRecord
  2
CENTER2
 70
     0
  3
Center (.5x) ___ _ ___ _ ___ _ ___ _ ___ _ ___
 72
    65
 73
     4
 40
28.575
 49
19.05
 74
     4
 75
     0
340
0
 46
0.0
 50
0.0
 44
0.0
 45
0.0
 49
-3.175
 74
     4
 75
     0
340
0
 46
0.0
 50
0.0
 44
0.0
 45
0.0
 49
3.175
 74
     4
 75
     0
340
0
 46
0.0
 50
0.0
 44
0.0
 45
0.0
 49
-3.175
 74
     4
 75
     0
340
0
 46
0.0
 50
0.0
 44
0.0
 45
0.0
  0
ENDTAB
  0
TABLE
  2
LAYER
  5
2
330
0
100
AcDbSymbolTable
 70
     5
  0
LAYER
  5
10
330
2
100
AcDbSymbolTableRecord
100
AcDbLayerTableRecord
  2
0
 70
     0
 62
     7
  6
Continuous
370
    -3
390
F
  0
LAYER
  5
5D
330
2
100
AcDbSymbolTableRecord
100
AcDbLayerTableRecord
  2
Default
 70
     0
 62
     7
  6
Continuous
370
    -3
390
F
  0
LAYER
  5
7B
330
2
100
AcDbSymbolTableRecord
100
AcDbLayerTableRecord
  2
19031000_INST_FE
 70
     0
 62
     7
  6
Continuous
370
    -3
390
F
  0
LAYER
  5
BC
330
2
100
AcDbSymbolTableRecord
100
AcDbLayerTableRecord
  2
09893038_ROSETTE
 70
     0
 62
     7
  6
Continuous
370
    -3
390
F
  0
LAYER
  5
103
330
2
100
AcDbSymbolTableRecord
100
AcDbLayerTableRecord
  2
05066038_HUELSE_
 70
     0
 62
     7
  6
Continuous
370
    -3
390
F
  0
ENDTAB
  0
TABLE
  2
STYLE
  5
3
330
0
100
AcDbSymbolTable
 70
     2
  0
STYLE
  5
11
330
3
100
AcDbSymbolTableRecord
100
AcDbTextStyleTableRecord
  2
Standard
 70
     0
 40
0.0
 41
1.0
 50
0.0
 71
     0
 42
2.5
  3
txt
  4

  0
STYLE
  5
165
330
3
100
AcDbSymbolTableRecord
100
AcDbTextStyleTableRecord
  2
SEACAD_seiso_ttf
 70
     0
 40
0.0
 41
1.0
 50
0.0
 71
     0
 42
0.2
  3
seiso.ttf
  4

  0
ENDTAB
  0
TABLE
  2
VIEW
  5
6
330
0
100
AcDbSymbolTable
 70
     0
  0
ENDTAB
  0
TABLE
  2
UCS
  5
7
330
0
100
AcDbSymbolTable
 70
     0
  0
ENDTAB
  0
TABLE
  2
APPID
  5
9
330
0
100
AcDbSymbolTable
 70
     1
  0
APPID
  5
12
330
9
100
AcDbSymbolTableRecord
100
AcDbRegAppTableRecord
  2
ACAD
 70
     0
  0
ENDTAB
  0
TABLE
  2
DIMSTYLE
  5
A
330
0
100
AcDbSymbolTable
 70
     1
100
AcDbDimStyleTable
  0
DIMSTYLE
105
27
330
A
100
AcDbSymbolTableRecord
100
AcDbDimStyleTableRecord
  2
ISO-25
 70
     0
 41
2.5
 42
0.625
 43
3.75
 44
1.25
 73
     0
 74
     0
 77
     1
 78
     8
140
2.5
141
2.5
143
0.0393700787
147
0.625
171
     3
172
     1
271
     2
272
     2
274
     3
278
    44
283
     0
284
     8
340
11
  0
ENDTAB
  0
TABLE
  2
BLOCK_RECORD
  5
1
330
0
100
AcDbSymbolTable
 70
     7
  0
BLOCK_RECORD
  5
1F
330
1
100
AcDbSymbolTableRecord
100
AcDbBlockTableRecord
  2
*Model_Space
340
22
  0
BLOCK_RECORD
  5
1B
330
1
100
AcDbSymbolTableRecord
100
AcDbBlockTableRecord
  2
*Paper_Space
340
1E
  0
BLOCK_RECORD
  5
5E
330
1
100
AcDbSymbolTableRecord
100
AcDbBlockTableRecord
  2
SEANNOT_GROUP
340
0
102
{BLKREFS
331
5F
102
}
  0
BLOCK_RECORD
  5
6B
330
1
100
AcDbSymbolTableRecord
100
AcDbBlockTableRecord
  2
SEANNOT_GROUP1
340
0
102
{BLKREFS
331
6C
102
}
  0
BLOCK_RECORD
  5
73
330
1
100
AcDbSymbolTableRecord
100
AcDbBlockTableRecord
  2
SEANNOT_GROUP2
340
0
102
{BLKREFS
331
74
102
}
  0
BLOCK_RECORD
  5
79
330
1
100
AcDbSymbolTableRecord
100
AcDbBlockTableRecord
  2
SE
340
0
102
{BLKREFS
331
7A
102
}
  0
BLOCK_RECORD
  5
C7
330
1
100
AcDbSymbolTableRecord
100
AcDbBlockTableRecord
  2
SE1
340
0
102
{BLKREFS
331
C8
102
}
  0
BLOCK_RECORD
  5
117
330
1
100
AcDbSymbolTableRecord
100
AcDbBlockTableRecord
  2
SE2
340
0
102
{BLKREFS
331
118
102
}
  0
ENDTAB
  0
ENDSEC
  0
SECTION
  2
BLOCKS
  0
BLOCK
  5
20
330
1F
100
AcDbEntity
  8
0
100
AcDbBlockBegin
  2
*Model_Space
 70
     0
 10
0.0
 20
0.0
 30
0.0
  3
*Model_Space
  1

  0
ENDBLK
  5
21
330
1F
100
AcDbEntity
  8
0
100
AcDbBlockEnd
  0
BLOCK
  5
1C
330
1B
100
AcDbEntity
 67
     1
  8
0
100
AcDbBlockBegin
  2
*Paper_Space
 70
     0
 10
0.0
 20
0.0
 30
0.0
  3
*Paper_Space
  1

  0
ENDBLK
  5
1D
330
1B
100
AcDbEntity
 67
     1
  8
0
100
AcDbBlockEnd
  0
BLOCK
  5
67
330
5E
100
AcDbEntity
  8
0
100
AcDbBlockBegin
  2
SEANNOT_GROUP
 70
     0
 10
0.0
 20
0.0
 30
0.0
  3
SEANNOT_GROUP
  1

  0
LINE
  5
61
330
5E
100
AcDbEntity
  8
Default
  6
CENTER2
 62
     7
100
AcDbLine
 10
110.2857787302
 20
205.5331019843
 30
0.0
 11
70.2857796243
 21
205.5331019843
 31
0.0
  0
LINE
  5
62
330
5E
100
AcDbEntity
  8
Default
  6
CENTER2
 62
     7
100
AcDbLine
 10
90.2857791772
 20
225.5331015372
 30
0.0
 11
90.2857791772
 21
185.5331024313
 31
0.0
  0
LINE
  5
63
330
5E
100
AcDbEntity
  8
Default
  6
CENTER2
 62
     7
100
AcDbLine
 10
115.2857786184
 20
205.5331019843
 30
0.0
 11
123.7857791772
 21
205.5331019843
 31
0.0
  0
LINE
  5
64
330
5E
100
AcDbEntity
  8
Default
  6
CENTER2
 62
     7
100
AcDbLine
 10
90.2857791772
 20
230.5331014255
 30
0.0
 11
90.2857791772
 21
239.0331019843
 31
0.0
  0
LINE
  5
65
330
5E
100
AcDbEntity
  8
Default
  6
CENTER2
 62
     7
100
AcDbLine
 10
65.285779736
 20
205.5331019843
 30
0.0
 11
56.7857791772
 21
205.5331019843
 31
0.0
  0
LINE
  5
66
330
5E
100
AcDbEntity
  8
Default
  6
CENTER2
 62
     7
100
AcDbLine
 10
90.2857791772
 20
180.5331025431
 30
0.0
 11
90.2857791772
 21
172.0331019843
 31
0.0
  0
ENDBLK
  5
68
330
5E
100
AcDbEntity
  8
0
100
AcDbBlockEnd
  0
BLOCK
  5
6F
330
6B
100
AcDbEntity
  8
0
100
AcDbBlockBegin
  2
SEANNOT_GROUP1
 70
     0
 10
0.0
 20
0.0
 30
0.0
  3
SEANNOT_GROUP1
  1

  0
LINE
  5
6D
330
6B
100
AcDbEntity
  8
Default
  6
CENTER2
 62
     7
100
AcDbLine
 10
180.4797075044
 20
205.5331019843
 30
0.0
 11
140.4797083985
 21
205.5331019843
 31
0.0
  0
LINE
  5
6E
330
6B
100
AcDbEntity
  8
Default
  6
CENTER2
 62
     7
100
AcDbLine
 10
160.4797079514
 20
225.5331015372
 30
0.0
 11
160.4797079514
 21
185.5331024313
 31
0.0
  0
ENDBLK
  5
70
330
6B
100
AcDbEntity
  8
0
100
AcDbBlockEnd
  0
BLOCK
  5
77
330
73
100
AcDbEntity
  8
0
100
AcDbBlockBegin
  2
SEANNOT_GROUP2
 70
     0
 10
0.0
 20
0.0
 30
0.0
  3
SEANNOT_GROUP2
  1

  0
LINE
  5
75
330
73
100
AcDbEntity
  8
Default
  6
CENTER2
 62
     7
100
AcDbLine
 10
110.2857787302
 20
133.67949731
 30
0.0
 11
70.2857796243
 21
133.67949731
 31
0.0
  0
LINE
  5
76
330
73
100
AcDbEntity
  8
Default
  6
CENTER2
 62
     7
100
AcDbLine
 10
90.2857791772
 20
153.679496863
 30
0.0
 11
90.2857791772
 21
113.679497757
 31
0.0
  0
ENDBLK
  5
78
330
73
100
AcDbEntity
  8
0
100
AcDbBlockEnd
  0
BLOCK
  5
C5
330
79
100
AcDbEntity
  8
0
100
AcDbBlockBegin
  2
SE
 70
     0
 10
0.0
 20
0.0
 30
0.0
  3
SE
  1

  0
CIRCLE
  5
7C
330
79
100
AcDbEntity
  8
19031000_INST_FE
  6
Continuous
 62
     7
100
AcDbCircle
 10
90.2857791772
 20
205.5331019843
 30
0.0
 40
11.9999999999996
  0
CIRCLE
  5
7D
330
79
100
AcDbEntity
  8
19031000_INST_FE
  6
Continuous
 62
     7
100
AcDbCircle
 10
90.2857791772
 20
205.5331019843
 30
0.0
 40
11.24999999999996
  0
CIRCLE
  5
7E
330
79
100
AcDbEntity
  8
19031000_INST_FE
  6
Continuous
 62
     7
100
AcDbCircle
 10
90.2857791772
 20
205.5331019843
 30
0.0
 40
9.999999999999883
  0
CIRCLE
  5
7F
330
79
100
AcDbEntity
  8
19031000_INST_FE
  6
Continuous
 62
     7
100
AcDbCircle
 10
90.2857791772
 20
205.5331019843
 30
0.0
 40
7.1499999999996
  0
CIRCLE
  5
80
330
79
100
AcDbEntity
  8
19031000_INST_FE
  6
Continuous
 62
     7
100
AcDbCircle
 10
90.2857791772
 20
205.5331019843
 30
0.0
 40
6.85685762608894
  0
SPLINE
  5
81
330
79
100
AcDbEntity
  8
19031000_INST_FE
  6
Continuous
 62
     7
100
AcDbSpline
210
0.0
220
0.0
230
1.0
 70
     8
 71
     3
 72
    16
 73
    12
 74
     0
 42
0.0000000005740639
 43
0.0000000001
 40
0.3468006990562279
 40
0.3468006990562279
 40
0.3468006990562279
 40
0.3468006990562279
 40
0.3749999999999999
 40
0.3749999999999999
 40
0.4999999999999999
 40
0.4999999999999999
 40
0.6249999999999999
 40
0.6249999999999999
 40
0.7499999999999998
 40
0.7499999999999998
 40
0.8466222161538229
 40
0.8466222161538229
 40
0.8466222161538229
 40
0.8466222161538229
 10
94.6384545818569
 20
191.9000602101793
 30
0.0
 10
94.63913154809141
 20
191.9000835870445
 30
0.0
 10
94.61717901093758
 20
191.8999248018916
 30
0.0
 10
94.37018417062576
 20
191.8979481282824
 30
0.0
 10
93.71271747933498
 20
191.8924729268478
 30
0.0
 10
91.84661556185007
 20
191.8831898209964
 30
0.0
 10
90.63725037006392
 20
191.8803565454654
 30
0.0
 10
88.39000676532436
 20
191.8839215729117
 30
0.0
 10
87.35797762154888
 20
191.8898002587748
 30
0.0
 10
86.20060138929826
 20
191.8977786380372
 30
0.0
 10
85.93570010058646
 20
191.8999747794482
 30
0.0
 10
85.9332017780926
 20
191.9000581902739
 30
0.0
  0
LINE
  5
82
330
79
100
AcDbEntity
  8
19031000_INST_FE
  6
Continuous
 62
     7
100
AcDbLine
 10
84.7607791772
 20
190.4642482483
 30
0.0
 11
95.8107791772
 21
190.4642482483
 31
0.0
  0
LINE
  5
83
330
79
100
AcDbEntity
  8
19031000_INST_FE
  6
Continuous
 62
     7
100
AcDbLine
 10
84.7414550719
 20
182.4221618055
 30
0.0
 11
95.8301032826
 21
182.4221618055
 31
0.0
  0
LINE
  5
84
330
79
100
AcDbEntity
  8
19031000_INST_FE
  6
Continuous
 62
     7
100
AcDbLine
 10
86.2419645412
 20
181.5558422595
 30
0.0
 11
94.3295938132
 21
181.5558422595
 31
0.0
  0
SPLINE
  5
85
330
79
100
AcDbEntity
  8
19031000_INST_FE
  6
Continuous
 62
     7
100
AcDbSpline
210
0.0
220
0.0
230
1.0
 70
     8
 71
     3
 72
    16
 73
    12
 74
     0
 42
0.0000000005740504
 43
0.0000000001
 40
0.3468072349847285
 40
0.3468072349847285
 40
0.3468072349847285
 40
0.3468072349847285
 40
0.3749999999999999
 40
0.3749999999999999
 40
0.4999999999999999
 40
0.4999999999999999
 40
0.6249999999999999
 40
0.6249999999999999
 40
0.7499999999999998
 40
0.7499999999999998
 40
0.8466157401683391
 40
0.8466157401683391
 40
0.8466157401683391
 40
0.8466157401683391
 10
94.63845504892402
 20
219.1661437421186
 30
0.0
 10
94.63912137067446
 20
219.166120455095
 30
0.0
 10
94.61716847341812
 20
219.1662792509622
 30
0.0
 10
94.37018417062576
 20
219.1682558402408
 30
0.0
 10
93.71271747933498
 20
219.1737310416754
 30
0.0
 10
91.84661556185007
 20
219.1830141475268
 30
0.0
 10
90.63725037006392
 20
219.1858474230578
 30
0.0
 10
88.39000676532437
 20
219.1822823956115
 30
0.0
 10
87.3579776215489
 20
219.1764037097483
 30
0.0
 10
86.20063520879438
 20
219.1684255636208
 30
0.0
 10
85.93573561103088
 20
219.1662294834681
 30
0.0
 10
85.93320228396986
 20
219.1661457950492
 30
0.0
  0
LINE
  5
86
330
79
100
AcDbEntity
  8
19031000_INST_FE
  6
Continuous
 62
     7
100
AcDbLine
 10
84.7607791772
 20
220.6019557203
 30
0.0
 11
95.8107791772
 21
220.6019557203
 31
0.0
  0
LINE
  5
87
330
79
100
AcDbEntity
  8
19031000_INST_FE
  6
Continuous
 62
     7
100
AcDbLine
 10
84.7414550719
 20
228.644042163
 30
0.0
 11
95.8301032826
 21
228.644042163
 31
0.0
  0
LINE
  5
88
330
79
100
AcDbEntity
  8
19031000_INST_FE
  6
Continuous
 62
     7
100
AcDbLine
 10
86.2419645412
 20
229.510361709
 30
0.0
 11
94.3295938132
 21
229.510361709
 31
0.0
  0
SPLINE
  5
89
330
79
100
AcDbEntity
  8
19031000_INST_FE
  6
Continuous
 62
     7
100
AcDbSpline
210
0.0
220
0.0
230
1.0
 70
     8
 71
     3
 72
    16
 73
    12
 74
     0
 42
0.0000000005745692
 43
0.0000000001
 40
0.1534187551369532
 40
0.1534187551369532
 40
0.1534187551369532
 40
0.1534187551369532
 40
0.2500000000000001
 40
0.2500000000000001
 40
0.3750000000000001
 40
0.3750000000000001
 40
0.5000000000000001
 40
0.5000000000000001
 40
0.6250000000000001
 40
0.6250000000000001
 40
0.6536343779285967
 40
0.6536343779285967
 40
0.6536343779285967
 40
0.6536343779285967
 10
76.65272997445527
 20
201.181332690492
 30
0.0
 10
76.6526385254867
 20
201.1851144097835
 30
0.0
 10
76.65042894081083
 20
201.4522069334871
 30
0.0
 10
76.64256077908034
 20
202.5927211092704
 30
0.0
 10
76.63664524950643
 20
203.6191679429979
 30
0.0
 10
76.63301150692432
 20
205.8875217636282
 30
0.0
 10
76.63585213789263
 20
207.0900275993502
 30
0.0
 10
76.64513888140397
 20
208.9586989020894
 30
0.0
 10
76.65062763022367
 20
209.6177635980687
 30
0.0
 10
76.65259866254937
 20
209.8640926517391
 30
0.0
 10
76.65275883432395
 20
209.8863161105089
 30
0.0
 10
76.65273359539492
 20
209.8854895597109
 30
0.0
  0
LINE
  5
8A
330
79
100
AcDbEntity
  8
19031000_INST_FE
  6
Continuous
 62
     7
100
AcDbLine
 10
75.2169254412
 20
211.0581019843
 30
0.0
 11
75.2169254412
 21
200.0081019843
 31
0.0
  0
LINE
  5
8B
330
79
100
AcDbEntity
  8
19031000_INST_FE
  6
Continuous
 62
     7
100
AcDbLine
 10
67.1748389985
 20
211.0774260896
 30
0.0
 11
67.1748389985
 21
199.9887778789
 31
0.0
  0
LINE
  5
8C
330
79
100
AcDbEntity
  8
19031000_INST_FE
  6
Continuous
 62
     7
100
AcDbLine
 10
66.3085194525
 20
209.5769166203
 30
0.0
 11
66.3085194525
 21
201.4892873483
 31
0.0
  0
ARC
  5
8D
330
79
100
AcDbEntity
  8
19031000_INST_FE
  6
Continuous
 62
     7
100
AcDbCircle
 10
-406.4094231424
 20
205.5332167317
 30
0.0
 40
510.3468054912768
100
AcDbArc
 50
359.5114107875
 51
0.4886307858
  0
LINE
  5
8E
330
79
100
AcDbEntity
  8
19031000_INST_FE
  6
Continuous
 62
     7
100
AcDbLine
 10
105.3546329132
 20
211.0581019843
 30
0.0
 11
105.3546329132
 21
200.0081019843
 31
0.0
  0
LINE
  5
8F
330
79
100
AcDbEntity
  8
19031000_INST_FE
  6
Continuous
 62
     7
100
AcDbLine
 10
113.396719356
 20
211.0774260896
 30
0.0
 11
113.396719356
 21
199.9887778789
 31
0.0
  0
LINE
  5
90
330
79
100
AcDbEntity
  8
19031000_INST_FE
  6
Continuous
 62
     7
100
AcDbLine
 10
114.263038902
 20
209.5769166203
 30
0.0
 11
114.263038902
 21
201.4892873483
 31
0.0
  0
ARC
  5
91
330
79
100
AcDbEntity
  8
19031000_INST_FE
  6
Continuous
 62
     7
100
AcDbCircle
 10
90.2857791772
 20
205.5331019843
 30
0.0
 40
14.31142295044901
100
AcDbArc
 50
287.709707193
 51
342.3380647362
  0
ARC
  5
92
330
79
100
AcDbEntity
  8
19031000_INST_FE
  6
Continuous
 62
     7
100
AcDbCircle
 10
90.2857791772
 20
205.5331019843
 30
0.0
 40
14.311422950449
100
AcDbArc
 50
197.6620929475
 51
252.3456361932
  0
ARC
  5
93
330
79
100
AcDbEntity
  8
19031000_INST_FE
  6
Continuous
 62
     7
100
AcDbCircle
 10
90.2857791772
 20
205.5331019843
 30
0.0
 40
14.31142295044901
100
AcDbArc
 50
107.655294467
 51
162.33947607
  0
ARC
  5
94
330
79
100
AcDbEntity
  8
19031000_INST_FE
  6
Continuous
 62
     7
100
AcDbCircle
 10
90.2857791772
 20
205.5331019843
 30
0.0
 40
14.31142295044901
100
AcDbArc
 50
17.6601796499
 51
72.2922324779
  0
LINE
  5
95
330
79
100
AcDbEntity
  8
19031000_INST_FE
  6
Continuous
 62
     7
100
AcDbLine
 10
95.2875278222
 20
190.4642482483
 30
0.0
 11
95.2875278222
 21
190.9642482483
 31
0.0
  0
LINE
  5
96
330
79
100
AcDbEntity
  8
19031000_INST_FE
  6
Continuous
 62
     7
100
AcDbLine
 10
85.2840305323
 20
190.9642482483
 30
0.0
 11
85.2840305323
 21
190.4642482483
 31
0.0
  0
ARC
  5
97
330
79
100
AcDbEntity
  8
19031000_INST_FE
  6
Continuous
 62
     7
100
AcDbCircle
 10
102.7364257507
 20
186.4598232533
 30
0.0
 40
8.000000000000007
100
AcDbArc
 50
149.9633988343
 51
210.3119494985
  0
ARC
  5
98
330
79
100
AcDbEntity
  8
19031000_INST_FE
  6
Continuous
 62
     7
100
AcDbCircle
 10
77.8351326038
 20
186.4598232533
 30
0.0
 40
8.000000000000016
100
AcDbArc
 50
329.6880505015
 51
30.0366011657
  0
LINE
  5
99
330
79
100
AcDbEntity
  8
19031000_INST_FE
  6
Continuous
 62
     7
100
AcDbLine
 10
84.7414550719
 20
182.4221618055
 30
0.0
 11
86.2419645412
 21
181.5558422595
 31
0.0
  0
LINE
  5
9A
330
79
100
AcDbEntity
  8
19031000_INST_FE
  6
Continuous
 62
     7
100
AcDbLine
 10
94.3295938132
 20
181.5558422595
 30
0.0
 11
95.8301032826
 21
182.4221618055
 31
0.0
  0
ARC
  5
9B
330
79
100
AcDbEntity
  8
19031000_INST_FE
  6
Continuous
 62
     7
100
AcDbCircle
 10
90.2857791772
 20
175.4182480085
 30
0.0
 40
7.349999999999999
100
AcDbArc
 50
123.379284517
 51
0.0
  0
ARC
  5
9C
330
79
100
AcDbEntity
  8
19031000_INST_FE
  6
Continuous
 62
     7
100
AcDbCircle
 10
90.2857791772
 20
175.4182480085
 30
0.0
 40
7.349999999999999
100
AcDbArc
 50
0.0
 51
56.620715483
  0
ARC
  5
9D
330
79
100
AcDbEntity
  8
19031000_INST_FE
  6
Continuous
 62
     7
100
AcDbCircle
 10
94.2875278222
 20
190.964249703
 30
0.0
 40
1.000000000000531
100
AcDbArc
 50
0.0
 51
69.4296845947
  0
ARC
  5
9E
330
79
100
AcDbEntity
  8
19031000_INST_FE
  6
Continuous
 62
     7
100
AcDbCircle
 10
86.2840305323
 20
190.964249703
 30
0.0
 40
1.00000000000053
100
AcDbArc
 50
109.8103311642
 51
180.0000833481
  0
LINE
  5
9F
330
79
100
AcDbEntity
  8
19031000_INST_FE
  6
Continuous
 62
     7
100
AcDbLine
 10
95.2875278222
 20
220.1019557203
 30
0.0
 11
95.2875278222
 21
220.6019557203
 31
0.0
  0
LINE
  5
A0
330
79
100
AcDbEntity
  8
19031000_INST_FE
  6
Continuous
 62
     7
100
AcDbLine
 10
85.2840305323
 20
220.6019557203
 30
0.0
 11
85.2840305323
 21
220.1019557203
 31
0.0
  0
ARC
  5
A1
330
79
100
AcDbEntity
  8
19031000_INST_FE
  6
Continuous
 62
     7
100
AcDbCircle
 10
102.7364257507
 20
224.6063807152
 30
0.0
 40
8.000000000000016
100
AcDbArc
 50
149.6880505015
 51
210.0366011657
  0
ARC
  5
A2
330
79
100
AcDbEntity
  8
19031000_INST_FE
  6
Continuous
 62
     7
100
AcDbCircle
 10
77.8351326038
 20
224.6063807152
 30
0.0
 40
8.000000000000007
100
AcDbArc
 50
329.9633988343
 51
30.3119494985
  0
LINE
  5
A3
330
79
100
AcDbEntity
  8
19031000_INST_FE
  6
Continuous
 62
     7
100
AcDbLine
 10
95.8301032826
 20
228.644042163
 30
0.0
 11
94.3295938132
 21
229.510361709
 31
0.0
  0
LINE
  5
A4
330
79
100
AcDbEntity
  8
19031000_INST_FE
  6
Continuous
 62
     7
100
AcDbLine
 10
86.2419645412
 20
229.510361709
 30
0.0
 11
84.7414550719
 21
228.644042163
 31
0.0
  0
ARC
  5
A5
330
79
100
AcDbEntity
  8
19031000_INST_FE
  6
Continuous
 62
     7
100
AcDbCircle
 10
90.2857791772
 20
235.64795596
 30
0.0
 40
7.349999999999998
100
AcDbArc
 50
303.379284517
 51
0.0
  0
ARC
  5
A6
330
79
100
AcDbEntity
  8
19031000_INST_FE
  6
Continuous
 62
     7
100
AcDbCircle
 10
90.2857791772
 20
235.64795596
 30
0.0
 40
7.349999999999999
100
AcDbArc
 50
0.0
 51
236.620715483
  0
ARC
  5
A7
330
79
100
AcDbEntity
  8
19031000_INST_FE
  6
Continuous
 62
     7
100
AcDbCircle
 10
94.2875278222
 20
220.1019542656
 30
0.0
 40
1.00000000000053
100
AcDbArc
 50
290.6009288373
 51
0.0
  0
ARC
  5
A8
330
79
100
AcDbEntity
  8
19031000_INST_FE
  6
Continuous
 62
     7
100
AcDbCircle
 10
86.2840305323
 20
220.1019542656
 30
0.0
 40
1.000000000000531
100
AcDbArc
 50
179.9999166519
 51
250.1203169282
  0
LINE
  5
A9
330
79
100
AcDbEntity
  8
19031000_INST_FE
  6
Continuous
 62
     7
100
AcDbLine
 10
75.2169254412
 20
200.5313533393
 30
0.0
 11
75.7169254412
 21
200.5313533393
 31
0.0
  0
LINE
  5
AA
330
79
100
AcDbEntity
  8
19031000_INST_FE
  6
Continuous
 62
     7
100
AcDbLine
 10
75.7169254412
 20
210.5348506292
 30
0.0
 11
75.2169254412
 21
210.5348506292
 31
0.0
  0
ARC
  5
AB
330
79
100
AcDbEntity
  8
19031000_INST_FE
  6
Continuous
 62
     7
100
AcDbCircle
 10
71.2125004463
 20
193.0824554108
 30
0.0
 40
8.000000000000007
100
AcDbArc
 50
59.9633988343
 51
120.3119494985
  0
ARC
  5
AC
330
79
100
AcDbEntity
  8
19031000_INST_FE
  6
Continuous
 62
     7
100
AcDbCircle
 10
71.2125004463
 20
217.9837485577
 30
0.0
 40
8.000000000000014
100
AcDbArc
 50
239.6880505015
 51
300.0366011657
  0
LINE
  5
AD
330
79
100
AcDbEntity
  8
19031000_INST_FE
  6
Continuous
 62
     7
100
AcDbLine
 10
67.1748389985
 20
211.0774260896
 30
0.0
 11
66.3085194525
 21
209.5769166203
 31
0.0
  0
LINE
  5
AE
330
79
100
AcDbEntity
  8
19031000_INST_FE
  6
Continuous
 62
     7
100
AcDbLine
 10
66.3085194525
 20
201.4892873483
 30
0.0
 11
67.1748389985
 21
199.9887778789
 31
0.0
  0
ARC
  5
AF
330
79
100
AcDbEntity
  8
19031000_INST_FE
  6
Continuous
 62
     7
100
AcDbCircle
 10
60.1709252015
 20
205.5331019843
 30
0.0
 40
7.35
100
AcDbArc
 50
33.379284517
 51
326.620715483
  0
ARC
  5
B0
330
79
100
AcDbEntity
  8
19031000_INST_FE
  6
Continuous
 62
     7
100
AcDbCircle
 10
75.7169268959
 20
201.5313533393
 30
0.0
 40
1.000000000000531
100
AcDbArc
 50
269.9999166519
 51
340.0370508461
  0
ARC
  5
B1
330
79
100
AcDbEntity
  8
19031000_INST_FE
  6
Continuous
 62
     7
100
AcDbCircle
 10
75.7169268959
 20
209.5348506292
 30
0.0
 40
1.000000000000529
100
AcDbArc
 50
19.8879932451
 51
90.0000833481
  0
LINE
  5
B2
330
79
100
AcDbEntity
  8
19031000_INST_FE
  6
Continuous
 62
     7
100
AcDbLine
 10
104.8546329132
 20
200.5313533393
 30
0.0
 11
105.3546329132
 21
200.5313533393
 31
0.0
  0
LINE
  5
B3
330
79
100
AcDbEntity
  8
19031000_INST_FE
  6
Continuous
 62
     7
100
AcDbLine
 10
105.3546329132
 20
210.5348506292
 30
0.0
 11
104.8546329132
 21
210.5348506292
 31
0.0
  0
ARC
  5
B4
330
79
100
AcDbEntity
  8
19031000_INST_FE
  6
Continuous
 62
     7
100
AcDbCircle
 10
109.3590579082
 20
193.0824554108
 30
0.0
 40
8.000000000000014
100
AcDbArc
 50
59.6880505015
 51
120.0366011657
  0
ARC
  5
B5
330
79
100
AcDbEntity
  8
19031000_INST_FE
  6
Continuous
 62
     7
100
AcDbCircle
 10
109.3590579082
 20
217.9837485577
 30
0.0
 40
8.000000000000007
100
AcDbArc
 50
239.9633988343
 51
300.3119494985
  0
LINE
  5
B6
330
79
100
AcDbEntity
  8
19031000_INST_FE
  6
Continuous
 62
     7
100
AcDbLine
 10
113.396719356
 20
199.9887778789
 30
0.0
 11
114.263038902
 21
201.4892873483
 31
0.0
  0
LINE
  5
B7
330
79
100
AcDbEntity
  8
19031000_INST_FE
  6
Continuous
 62
     7
100
AcDbLine
 10
114.263038902
 20
209.5769166203
 30
0.0
 11
113.396719356
 21
211.0774260896
 31
0.0
  0
ARC
  5
B8
330
79
100
AcDbEntity
  8
19031000_INST_FE
  6
Continuous
 62
     7
100
AcDbCircle
 10
120.400633153
 20
205.5331019843
 30
0.0
 40
7.349999999999998
100
AcDbArc
 50
213.379284517
 51
0.0
  0
ARC
  5
B9
330
79
100
AcDbEntity
  8
19031000_INST_FE
  6
Continuous
 62
     7
100
AcDbCircle
 10
120.400633153
 20
205.5331019843
 30
0.0
 40
7.349999999999995
100
AcDbArc
 50
0.0
 51
146.620715483
  0
ARC
  5
BA
330
79
100
AcDbEntity
  8
19031000_INST_FE
  6
Continuous
 62
     7
100
AcDbCircle
 10
104.8546314585
 20
201.5313533393
 30
0.0
 40
1.000000000000529
100
AcDbArc
 50
199.9055311779
 51
270.0000833481
  0
ARC
  5
BB
330
79
100
AcDbEntity
  8
19031000_INST_FE
  6
Continuous
 62
     7
100
AcDbCircle
 10
104.8546314585
 20
209.5348506292
 30
0.0
 40
1.000000000000531
100
AcDbArc
 50
89.9999166519
 51
160.0524258852
  0
ARC
  5
BD
330
79
100
AcDbEntity
  8
09893038_ROSETTE
  6
Continuous
 62
     7
100
AcDbCircle
 10
90.2857791772
 20
205.5331019843
 30
0.0
 40
30.0
100
AcDbArc
 50
14.0440928537
 51
75.9559071463
  0
ARC
  5
BE
330
79
100
AcDbEntity
  8
09893038_ROSETTE
  6
Continuous
 62
     7
100
AcDbCircle
 10
90.2857791772
 20
205.5331019843
 30
0.0
 40
30.0
100
AcDbArc
 50
104.0440928537
 51
165.9559071463
  0
ARC
  5
BF
330
79
100
AcDbEntity
  8
09893038_ROSETTE
  6
Continuous
 62
     7
100
AcDbCircle
 10
90.2857791772
 20
205.5331019843
 30
0.0
 40
30.0
100
AcDbArc
 50
194.0440928537
 51
255.9559071463
  0
ARC
  5
C0
330
79
100
AcDbEntity
  8
09893038_ROSETTE
  6
Continuous
 62
     7
100
AcDbCircle
 10
90.2857791772
 20
205.5331019843
 30
0.0
 40
30.0
100
AcDbArc
 50
284.0440928537
 51
345.9559071463
  0
ARC
  5
C1
330
79
100
AcDbEntity
  8
09893038_ROSETTE
  6
Continuous
 62
     7
100
AcDbCircle
 10
90.2857791772
 20
205.5331019843
 30
0.0
 40
26.75
100
AcDbArc
 50
13.2205486604
 51
76.7794513396
  0
ARC
  5
C2
330
79
100
AcDbEntity
  8
09893038_ROSETTE
  6
Continuous
 62
     7
100
AcDbCircle
 10
90.2857791772
 20
205.5331019843
 30
0.0
 40
26.75
100
AcDbArc
 50
103.2205486604
 51
166.7794513396
  0
ARC
  5
C3
330
79
100
AcDbEntity
  8
09893038_ROSETTE
  6
Continuous
 62
     7
100
AcDbCircle
 10
90.2857791772
 20
205.5331019843
 30
0.0
 40
26.75
100
AcDbArc
 50
193.2205486604
 51
256.7794513396
  0
ARC
  5
C4
330
79
100
AcDbEntity
  8
09893038_ROSETTE
  6
Continuous
 62
     7
100
AcDbCircle
 10
90.2857791772
 20
205.5331019843
 30
0.0
 40
26.75
100
AcDbArc
 50
283.2205486604
 51
346.7794513396
  0
ENDBLK
  5
C6
330
79
100
AcDbEntity
  8
0
100
AcDbBlockEnd
  0
BLOCK
  5
115
330
C7
100
AcDbEntity
  8
0
100
AcDbBlockBegin
  2
SE1
 70
     0
 10
0.0
 20
0.0
 30
0.0
  3
SE1
  1

  0
LINE
  5
C9
330
C7
100
AcDbEntity
  8
19031000_INST_FE
  6
Continuous
 62
     7
100
AcDbLine
 10
205.9797079514
 20
194.1556113996
 30
0.0
 11
205.9797079514
 21
216.9105925689
 31
0.0
  0
LINE
  5
CA
330
C7
100
AcDbEntity
  8
19031000_INST_FE
  6
Continuous
 62
     7
100
AcDbLine
 10
222.0797079514
 20
193.5331019843
 30
0.0
 11
222.0797079514
 21
217.5331019843
 31
0.0
  0
LINE
  5
CB
330
C7
100
AcDbEntity
  8
19031000_INST_FE
  6
Continuous
 62
     7
100
AcDbLine
 10
224.4797079514
 20
196.2831019843
 30
0.0
 11
224.4797079514
 21
214.7831019843
 31
0.0
  0
LINE
  5
CC
330
C7
100
AcDbEntity
  8
19031000_INST_FE
  6
Continuous
 62
     7
100
AcDbLine
 10
224.482871458
 20
195.5331019843
 30
0.0
 11
224.482871458
 21
215.5331019843
 31
0.0
  0
LINE
  5
CD
330
C7
100
AcDbEntity
  8
19031000_INST_FE
  6
Continuous
 62
     7
100
AcDbLine
 10
226.482871458
 20
195.5331019843
 30
0.0
 11
226.482871458
 21
215.5331019843
 31
0.0
  0
LINE
  5
CE
330
C7
100
AcDbEntity
  8
19031000_INST_FE
  6
Continuous
 62
     7
100
AcDbLine
 10
227.482871458
 20
198.3831019843
 30
0.0
 11
227.482871458
 21
212.6831019843
 31
0.0
  0
ARC
  5
CF
330
C7
100
AcDbEntity
  8
19031000_INST_FE
  6
Continuous
 62
     7
100
AcDbCircle
 10
214.0795232678
 20
-329.2312728091
 30
0.0
 40
521.1314306645301
100
AcDbArc
 50
89.5165025119
 51
90.4835421696
  0
LINE
  5
D0
330
C7
100
AcDbEntity
  8
19031000_INST_FE
  6
Continuous
 62
     7
100
AcDbLine
 10
208.5547079514
 20
190.4642482483
 30
0.0
 11
219.6047079514
 21
190.4642482483
 31
0.0
  0
LINE
  5
D1
330
C7
100
AcDbEntity
  8
19031000_INST_FE
  6
Continuous
 62
     7
100
AcDbLine
 10
208.5353838461
 20
182.4221618055
 30
0.0
 11
219.6240320568
 21
182.4221618055
 31
0.0
  0
LINE
  5
D2
330
C7
100
AcDbEntity
  8
19031000_INST_FE
  6
Continuous
 62
     7
100
AcDbLine
 10
210.0358933154
 20
181.5558422595
 30
0.0
 11
218.1235225875
 21
181.5558422595
 31
0.0
  0
SPLINE
  5
D3
330
C7
100
AcDbEntity
  8
19031000_INST_FE
  6
Continuous
 62
     7
100
AcDbSpline
210
0.0
220
0.0
230
1.0
 70
     8
 71
     3
 72
     8
 73
     4
 74
     0
 42
0.0000000012206963
 43
0.0000000001
 40
0.0
 40
0.0
 40
0.0
 40
0.0
 40
0.0964753943001603
 40
0.0964753943001603
 40
0.0964753943001603
 40
0.0964753943001603
 10
210.4718673394176
 20
219.1783786521806
 30
0.0
 10
209.9572279038739
 20
219.1820059717872
 30
0.0
 10
209.6845913749753
 20
219.1844845348844
 30
0.0
 10
209.6815628610842
 20
219.1846026437651
 30
0.0
  0
SPLINE
  5
D4
330
C7
100
AcDbEntity
  8
19031000_INST_FE
  6
Continuous
 62
     7
100
AcDbSpline
210
0.0
220
0.0
230
1.0
 70
     8
 71
     3
 72
    14
 73
    10
 74
     0
 42
0.0000000005036233
 43
0.0000000001
 40
0.5967084737416064
 40
0.5967084737416064
 40
0.5967084737416064
 40
0.5967084737416064
 40
0.6249999999999999
 40
0.6249999999999999
 40
0.7499999999999998
 40
0.7499999999999998
 40
0.8749999999999998
 40
0.8749999999999998
 40
1.0
 40
1.0
 40
1.0
 40
1.0
 10
218.4770515599265
 20
219.1845984318826
 30
0.0
 10
218.4783132302248
 20
219.1846353402121
 30
0.0
 10
218.4562842776496
 20
219.1844683496051
 30
0.0
 10
218.2054432428353
 20
219.1822823956115
 30
0.0
 10
217.5369232364601
 20
219.1764037097483
 30
0.0
 10
215.630136426349
 20
219.1674037328949
 30
0.0
 10
214.4305286165
 20
219.1650497881132
 30
0.0
 10
212.1815044181899
 20
219.1682303100494
 30
0.0
 10
211.1386687545309
 20
219.1736788532929
 30
0.0
 10
210.4718673394176
 20
219.1783786521806
 30
0.0
  0
LINE
  5
D5
330
C7
100
AcDbEntity
  8
19031000_INST_FE
  6
Continuous
 62
     7
100
AcDbLine
 10
208.5547079514
 20
220.6019557203
 30
0.0
 11
219.6047079514
 21
220.6019557203
 31
0.0
  0
LINE
  5
D6
330
C7
100
AcDbEntity
  8
19031000_INST_FE
  6
Continuous
 62
     7
100
AcDbLine
 10
208.5353838461
 20
228.644042163
 30
0.0
 11
219.6240320568
 21
228.644042163
 31
0.0
  0
LINE
  5
D7
330
C7
100
AcDbEntity
  8
19031000_INST_FE
  6
Continuous
 62
     7
100
AcDbLine
 10
210.0358933154
 20
229.510361709
 30
0.0
 11
218.1235225875
 21
229.510361709
 31
0.0
  0
LINE
  5
D8
330
C7
100
AcDbEntity
  8
19031000_INST_FE
  6
Continuous
 62
     7
100
AcDbLine
 10
205.4797079514
 20
199.0331019843
 30
0.0
 11
205.9797079514
 21
199.0331019843
 31
0.0
  0
LINE
  5
D9
330
C7
100
AcDbEntity
  8
19031000_INST_FE
  6
Continuous
 62
     7
100
AcDbLine
 10
205.9797079514
 20
212.0331019843
 30
0.0
 11
205.4797079514
 21
212.0331019843
 31
0.0
  0
ARC
  5
DA
330
C7
100
AcDbEntity
  8
19031000_INST_FE
  6
Continuous
 62
     7
100
AcDbCircle
 10
206.9797079514
 20
194.1556113996
 30
0.0
 40
1.000000000000001
100
AcDbArc
 50
180.0
 51
239.5262937129
  0
ARC
  5
DB
330
C7
100
AcDbEntity
  8
19031000_INST_FE
  6
Continuous
 62
     7
100
AcDbCircle
 10
206.9797079514
 20
216.9105925689
 30
0.0
 40
0.9999999999999877
100
AcDbArc
 50
120.4737062871
 51
180.0
  0
ARC
  5
DC
330
C7
100
AcDbEntity
  8
19031000_INST_FE
  6
Continuous
 62
     7
100
AcDbCircle
 10
214.0797087857
 20
204.8445249347
 30
0.0
 40
15.0
100
AcDbArc
 50
107.0035845389
 51
120.4737074688
  0
ARC
  5
DD
330
C7
100
AcDbEntity
  8
19031000_INST_FE
  6
Continuous
 62
     7
100
AcDbCircle
 10
214.0797087857
 20
204.8445249347
 30
0.0
 40
14.99999956990471
100
AcDbArc
 50
57.7690500958
 51
72.9846009219
  0
ARC
  5
DE
330
C7
100
AcDbEntity
  8
19031000_INST_FE
  6
Continuous
 62
     7
100
AcDbCircle
 10
214.0797087857
 20
206.2216790338
 30
0.0
 40
15.0
100
AcDbArc
 50
287.0156005821
 51
302.2309499042
  0
ARC
  5
DF
330
C7
100
AcDbEntity
  8
19031000_INST_FE
  6
Continuous
 62
     7
100
AcDbCircle
 10
214.0797087857
 20
206.2216790338
 30
0.0
 40
15.0
100
AcDbArc
 50
239.5262925312
 51
252.9965607843
  0
LINE
  5
E0
330
C7
100
AcDbEntity
  8
19031000_INST_FE
  6
Continuous
 62
     7
100
AcDbLine
 10
222.0797079514
 20
194.2831019843
 30
0.0
 11
222.4797079514
 21
194.2831019843
 31
0.0
  0
LINE
  5
E1
330
C7
100
AcDbEntity
  8
19031000_INST_FE
  6
Continuous
 62
     7
100
AcDbLine
 10
222.4797079514
 20
216.7831019843
 30
0.0
 11
222.0797079514
 21
216.7831019843
 31
0.0
  0
ARC
  5
E2
330
C7
100
AcDbEntity
  8
19031000_INST_FE
  6
Continuous
 62
     7
100
AcDbCircle
 10
222.4797079514
 20
196.2831019843
 30
0.0
 40
2.000000000000113
100
AcDbArc
 50
270.0
 51
360.0
  0
ARC
  5
E3
330
C7
100
AcDbEntity
  8
19031000_INST_FE
  6
Continuous
 62
     7
100
AcDbCircle
 10
222.4797079514
 20
214.7831019843
 30
0.0
 40
2.000000000000113
100
AcDbArc
 50
0.0
 51
90.0
  0
LINE
  5
E4
330
C7
100
AcDbEntity
  8
19031000_INST_FE
  6
Continuous
 62
     7
100
AcDbLine
 10
224.482871458
 20
215.5331019843
 30
0.0
 11
224.4797079514
 21
214.7831019843
 31
0.0
  0
LINE
  5
E5
330
C7
100
AcDbEntity
  8
19031000_INST_FE
  6
Continuous
 62
     7
100
AcDbLine
 10
224.4797079514
 20
196.2831019843
 30
0.0
 11
224.482871458
 21
195.5331019843
 31
0.0
  0
LINE
  5
E6
330
C7
100
AcDbEntity
  8
19031000_INST_FE
  6
Continuous
 62
     7
100
AcDbLine
 10
224.482871458
 20
195.5331019843
 30
0.0
 11
226.482871458
 21
195.5331019843
 31
0.0
  0
LINE
  5
E7
330
C7
100
AcDbEntity
  8
19031000_INST_FE
  6
Continuous
 62
     7
100
AcDbLine
 10
226.482871458
 20
215.5331019843
 30
0.0
 11
224.482871458
 21
215.5331019843
 31
0.0
  0
ARC
  5
E8
330
C7
100
AcDbEntity
  8
19031000_INST_FE
  6
Continuous
 62
     7
100
AcDbCircle
 10
203.4359511938
 20
205.2201792699
 30
0.0
 40
25.00000000000619
100
AcDbArc
 50
337.2020196208
 51
344.1283633035
  0
ARC
  5
E9
330
C7
100
AcDbEntity
  8
19031000_INST_FE
  6
Continuous
 62
     7
100
AcDbCircle
 10
203.4359511938
 20
205.8460246986
 30
0.0
 40
25.00000000000619
100
AcDbArc
 50
15.8716366965
 51
22.7979803792
  0
ARC
  5
EA
330
C7
100
AcDbEntity
  8
19031000_INST_FE
  6
Continuous
 62
     7
100
AcDbCircle
 10
227.1326539726
 20
199.033102405
 30
0.0
 40
0.4999999527109202
100
AcDbArc
 50
314.4619175151
 51
340.5287807261
  0
ARC
  5
EB
330
C7
100
AcDbEntity
  8
19031000_INST_FE
  6
Continuous
 62
     7
100
AcDbCircle
 10
227.1326539726
 20
212.0331015635
 30
0.0
 40
0.4999999527109206
100
AcDbArc
 50
19.4712192739
 51
45.5380824849
  0
ARC
  5
EC
330
C7
100
AcDbEntity
  8
19031000_INST_FE
  6
Continuous
 62
     7
100
AcDbCircle
 10
208.7478774628
 20
205.5331019843
 30
0.0
 40
19.9999999999883
100
AcDbArc
 50
340.528780726
 51
0.0
  0
ARC
  5
ED
330
C7
100
AcDbEntity
  8
19031000_INST_FE
  6
Continuous
 62
     7
100
AcDbCircle
 10
208.7478774628
 20
205.5331019843
 30
0.0
 40
19.99999999998782
100
AcDbArc
 50
0.0
 51
19.471219274
  0
LINE
  5
EE
330
C7
100
AcDbEntity
  8
19031000_INST_FE
  6
Continuous
 62
     7
100
AcDbLine
 10
219.0814565964
 20
190.4642482483
 30
0.0
 11
219.0814565964
 21
190.9642482483
 31
0.0
  0
LINE
  5
EF
330
C7
100
AcDbEntity
  8
19031000_INST_FE
  6
Continuous
 62
     7
100
AcDbLine
 10
209.0779593065
 20
190.9642482483
 30
0.0
 11
209.0779593065
 21
190.4642482483
 31
0.0
  0
ARC
  5
F0
330
C7
100
AcDbEntity
  8
19031000_INST_FE
  6
Continuous
 62
     7
100
AcDbCircle
 10
226.5303545249
 20
186.4598232533
 30
0.0
 40
8.000000000000009
100
AcDbArc
 50
149.9633988343
 51
210.3119494985
  0
ARC
  5
F1
330
C7
100
AcDbEntity
  8
19031000_INST_FE
  6
Continuous
 62
     7
100
AcDbCircle
 10
201.629061378
 20
186.4598232533
 30
0.0
 40
8.000000000000014
100
AcDbArc
 50
329.6880505015
 51
30.0366011657
  0
LINE
  5
F2
330
C7
100
AcDbEntity
  8
19031000_INST_FE
  6
Continuous
 62
     7
100
AcDbLine
 10
208.5353838461
 20
182.4221618055
 30
0.0
 11
210.0358933154
 21
181.5558422595
 31
0.0
  0
LINE
  5
F3
330
C7
100
AcDbEntity
  8
19031000_INST_FE
  6
Continuous
 62
     7
100
AcDbLine
 10
218.1235225875
 20
181.5558422595
 30
0.0
 11
219.6240320568
 21
182.4221618055
 31
0.0
  0
ARC
  5
F4
330
C7
100
AcDbEntity
  8
19031000_INST_FE
  6
Continuous
 62
     7
100
AcDbCircle
 10
214.0797079514
 20
175.4182480085
 30
0.0
 40
7.35
100
AcDbArc
 50
123.379284517
 51
0.0
  0
ARC
  5
F5
330
C7
100
AcDbEntity
  8
19031000_INST_FE
  6
Continuous
 62
     7
100
AcDbCircle
 10
214.0797079514
 20
175.4182480085
 30
0.0
 40
7.349999999999999
100
AcDbArc
 50
0.0
 51
56.620715483
  0
ARC
  5
F6
330
C7
100
AcDbEntity
  8
19031000_INST_FE
  6
Continuous
 62
     7
100
AcDbCircle
 10
218.0814565964
 20
190.964249703
 30
0.0
 40
1.000000000000532
100
AcDbArc
 50
0.0
 51
67.1307341631
  0
ARC
  5
F7
330
C7
100
AcDbEntity
  8
19031000_INST_FE
  6
Continuous
 62
     7
100
AcDbCircle
 10
210.0779593065
 20
190.964249703
 30
0.0
 40
1.00000000000053
100
AcDbArc
 50
112.6254082782
 51
180.0000833481
  0
LINE
  5
F8
330
C7
100
AcDbEntity
  8
19031000_INST_FE
  6
Continuous
 62
     7
100
AcDbLine
 10
219.0814565964
 20
220.1019557203
 30
0.0
 11
219.0814565964
 21
220.6019557203
 31
0.0
  0
LINE
  5
F9
330
C7
100
AcDbEntity
  8
19031000_INST_FE
  6
Continuous
 62
     7
100
AcDbLine
 10
209.0779593065
 20
220.6019557203
 30
0.0
 11
209.0779593065
 21
220.1019557203
 31
0.0
  0
ARC
  5
FA
330
C7
100
AcDbEntity
  8
19031000_INST_FE
  6
Continuous
 62
     7
100
AcDbCircle
 10
226.5303545249
 20
224.6063807152
 30
0.0
 40
8.000000000000014
100
AcDbArc
 50
149.6880505015
 51
210.0366011657
  0
ARC
  5
FB
330
C7
100
AcDbEntity
  8
19031000_INST_FE
  6
Continuous
 62
     7
100
AcDbCircle
 10
201.629061378
 20
224.6063807152
 30
0.0
 40
8.000000000000007
100
AcDbArc
 50
329.9633988343
 51
30.3119494985
  0
LINE
  5
FC
330
C7
100
AcDbEntity
  8
19031000_INST_FE
  6
Continuous
 62
     7
100
AcDbLine
 10
219.6240320568
 20
228.644042163
 30
0.0
 11
218.1235225875
 21
229.510361709
 31
0.0
  0
LINE
  5
FD
330
C7
100
AcDbEntity
  8
19031000_INST_FE
  6
Continuous
 62
     7
100
AcDbLine
 10
210.0358933154
 20
229.510361709
 30
0.0
 11
208.5353838461
 21
228.644042163
 31
0.0
  0
ARC
  5
FE
330
C7
100
AcDbEntity
  8
19031000_INST_FE
  6
Continuous
 62
     7
100
AcDbCircle
 10
214.0797079514
 20
235.64795596
 30
0.0
 40
7.349999999999997
100
AcDbArc
 50
303.379284517
 51
0.0
  0
ARC
  5
FF
330
C7
100
AcDbEntity
  8
19031000_INST_FE
  6
Continuous
 62
     7
100
AcDbCircle
 10
214.0797079514
 20
235.64795596
 30
0.0
 40
7.349999999999999
100
AcDbArc
 50
0.0
 51
236.620715483
  0
ARC
  5
100
330
C7
100
AcDbEntity
  8
19031000_INST_FE
  6
Continuous
 62
     7
100
AcDbCircle
 10
218.0814565964
 20
220.1019542656
 30
0.0
 40
1.00000000000053
100
AcDbArc
 50
292.8134344305
 51
0.0
  0
ARC
  5
101
330
C7
100
AcDbEntity
  8
19031000_INST_FE
  6
Continuous
 62
     7
100
AcDbCircle
 10
210.0779593065
 20
220.1019542656
 30
0.0
 40
1.000000000000532
100
AcDbArc
 50
179.9999166519
 51
247.295924197
  0
CIRCLE
  5
102
330
C7
100
AcDbEntity
  8
19031000_INST_FE
  6
Continuous
 62
     7
100
AcDbCircle
 10
214.0797079514
 20
205.5331019843
 30
0.0
 40
7.349999999999999
  0
LINE
  5
104
330
C7
100
AcDbEntity
  8
05066038_HUELSE_
  6
Continuous
 62
     7
100
AcDbLine
 10
203.4797079514
 20
192.5331019843
 30
0.0
 11
203.4797079514
 21
218.5331019843
 31
0.0
  0
LINE
  5
105
330
C7
100
AcDbEntity
  8
05066038_HUELSE_
  6
Continuous
 62
     7
100
AcDbLine
 10
205.4797079514
 20
216.5331019843
 30
0.0
 11
205.4797079514
 21
194.5331019843
 31
0.0
  0
LINE
  5
106
330
C7
100
AcDbEntity
  8
05066038_HUELSE_
  6
Continuous
 62
     7
100
AcDbLine
 10
203.4797079514
 20
192.5331019843
 30
0.0
 11
205.4797079514
 21
194.5331019843
 31
0.0
  0
LINE
  5
107
330
C7
100
AcDbEntity
  8
05066038_HUELSE_
  6
Continuous
 62
     7
100
AcDbLine
 10
205.4797079514
 20
216.5331019843
 30
0.0
 11
203.4797079514
 21
218.5331019843
 31
0.0
  0
LINE
  5
108
330
C7
100
AcDbEntity
  8
09893038_ROSETTE
  6
Continuous
 62
     7
100
AcDbLine
 10
164.4797079514
 20
233.5331019843
 30
0.0
 11
164.4797079514
 21
177.5331019843
 31
0.0
  0
LINE
  5
109
330
C7
100
AcDbEntity
  8
09893038_ROSETTE
  6
Continuous
 62
     7
100
AcDbLine
 10
160.4797079514
 20
177.5331019843
 30
0.0
 11
160.4797079514
 21
233.5331019843
 31
0.0
  0
LINE
  5
10A
330
C7
100
AcDbEntity
  8
09893038_ROSETTE
  6
Continuous
 62
     7
100
AcDbLine
 10
169.8797079514
 20
188.3777180714
 30
0.0
 11
169.8797079514
 21
222.6884858971
 31
0.0
  0
ARC
  5
10B
330
C7
100
AcDbEntity
  8
09893038_ROSETTE
  6
Continuous
 62
     7
100
AcDbCircle
 10
162.4797079514
 20
177.5331019843
 30
0.0
 40
1.999999999999995
100
AcDbArc
 50
180.0
 51
0.0
  0
ARC
  5
10C
330
C7
100
AcDbEntity
  8
09893038_ROSETTE
  6
Continuous
 62
     7
100
AcDbCircle
 10
162.4797079514
 20
233.5331019843
 30
0.0
 40
2.000000000000002
100
AcDbArc
 50
0.0
 51
180.0
  0
ARC
  5
10D
330
C7
100
AcDbEntity
  8
09893038_ROSETTE
  6
Continuous
 62
     7
100
AcDbCircle
 10
166.4797079514
 20
180.7831019843
 30
0.0
 40
1.999999999999999
100
AcDbArc
 50
233.1301023542
 51
345.0
  0
ARC
  5
10E
330
C7
100
AcDbEntity
  8
09893038_ROSETTE
  6
Continuous
 62
     7
100
AcDbCircle
 10
166.4797079514
 20
230.2831019843
 30
0.0
 40
2.0
100
AcDbArc
 50
15.0
 51
126.8698976458
  0
ARC
  5
10F
330
C7
100
AcDbEntity
  8
09893038_ROSETTE
  6
Continuous
 62
     7
100
AcDbCircle
 10
164.9797079514
 20
178.7831019843
 30
0.0
 40
0.5000000000000004
100
AcDbArc
 50
53.1301023542
 51
180.0
  0
ARC
  5
110
330
C7
100
AcDbEntity
  8
09893038_ROSETTE
  6
Continuous
 62
     7
100
AcDbCircle
 10
164.9797079514
 20
232.2831019843
 30
0.0
 40
0.5000000000000004
100
AcDbArc
 50
180.0
 51
306.8698976458
  0
LINE
  5
111
330
C7
100
AcDbEntity
  8
09893038_ROSETTE
  6
Continuous
 62
     7
100
AcDbLine
 10
168.411559604
 20
180.2654638941
 30
0.0
 11
169.1982244772
 21
183.2013371694
 31
0.0
  0
LINE
  5
112
330
C7
100
AcDbEntity
  8
09893038_ROSETTE
  6
Continuous
 62
     7
100
AcDbLine
 10
169.1982244772
 20
227.8648667991
 30
0.0
 11
168.411559604
 21
230.8007400745
 31
0.0
  0
ARC
  5
113
330
C7
100
AcDbEntity
  8
09893038_ROSETTE
  6
Continuous
 62
     7
100
AcDbCircle
 10
149.8797079514
 20
188.3777180714
 30
0.0
 40
20.0
100
AcDbArc
 50
345.0
 51
360.0
  0
ARC
  5
114
330
C7
100
AcDbEntity
  8
09893038_ROSETTE
  6
Continuous
 62
     7
100
AcDbCircle
 10
149.8797079514
 20
222.6884858971
 30
0.0
 40
20.0
100
AcDbArc
 50
0.0
 51
15.0
  0
ENDBLK
  5
116
330
C7
100
AcDbEntity
  8
0
100
AcDbBlockEnd
  0
BLOCK
  5
163
330
117
100
AcDbEntity
  8
0
100
AcDbBlockBegin
  2
SE2
 70
     0
 10
0.0
 20
0.0
 30
0.0
  3
SE2
  1

  0
LINE
  5
119
330
117
100
AcDbEntity
  8
19031000_INST_FE
  6
Continuous
 62
     7
100
AcDbLine
 10
78.9082885926
 20
88.17949731
 30
0.0
 11
101.6632697619
 21
88.17949731
 31
0.0
  0
LINE
  5
11A
330
117
100
AcDbEntity
  8
19031000_INST_FE
  6
Continuous
 62
     7
100
AcDbLine
 10
78.2857791772
 20
72.07949731
 30
0.0
 11
102.2857791772
 21
72.07949731
 31
0.0
  0
LINE
  5
11B
330
117
100
AcDbEntity
  8
19031000_INST_FE
  6
Continuous
 62
     7
100
AcDbLine
 10
81.0357791772
 20
69.67949731
 30
0.0
 11
99.5357791772
 21
69.67949731
 31
0.0
  0
LINE
  5
11C
330
117
100
AcDbEntity
  8
19031000_INST_FE
  6
Continuous
 62
     7
100
AcDbLine
 10
80.2857791772
 20
69.6763338035
 30
0.0
 11
100.2857791772
 21
69.6763338035
 31
0.0
  0
LINE
  5
11D
330
117
100
AcDbEntity
  8
19031000_INST_FE
  6
Continuous
 62
     7
100
AcDbLine
 10
80.2857791772
 20
67.6763338035
 30
0.0
 11
100.2857791772
 21
67.6763338035
 31
0.0
  0
LINE
  5
11E
330
117
100
AcDbEntity
  8
19031000_INST_FE
  6
Continuous
 62
     7
100
AcDbLine
 10
83.1357791772
 20
66.6763338035
 30
0.0
 11
97.4357791772
 21
66.6763338035
 31
0.0
  0
ARC
  5
11F
330
117
100
AcDbEntity
  8
19031000_INST_FE
  6
Continuous
 62
     7
100
AcDbCircle
 10
-444.4828213431
 20
80.0796451422
 30
0.0
 40
521.1356568921129
100
AcDbArc
 50
359.5164423202
 51
0.4835426073
  0
LINE
  5
120
330
117
100
AcDbEntity
  8
19031000_INST_FE
  6
Continuous
 62
     7
100
AcDbLine
 10
75.2169254412
 20
85.60449731
 30
0.0
 11
75.2169254412
 21
74.55449731
 31
0.0
  0
LINE
  5
121
330
117
100
AcDbEntity
  8
19031000_INST_FE
  6
Continuous
 62
     7
100
AcDbLine
 10
67.1748389985
 20
85.6238214153
 30
0.0
 11
67.1748389985
 21
74.5351732047
 31
0.0
  0
LINE
  5
122
330
117
100
AcDbEntity
  8
19031000_INST_FE
  6
Continuous
 62
     7
100
AcDbLine
 10
66.3085194525
 20
84.123311946
 30
0.0
 11
66.3085194525
 21
76.035682674
 31
0.0
  0
SPLINE
  5
123
330
117
100
AcDbEntity
  8
19031000_INST_FE
  6
Continuous
 62
     7
100
AcDbSpline
210
0.0
220
0.0
230
1.0
 70
     8
 71
     3
 72
    16
 73
    12
 74
     0
 42
0.0000000005685451
 43
0.0000000001
 40
0.4033796080828563
 40
0.4033796080828563
 40
0.4033796080828563
 40
0.4033796080828563
 40
0.5000000000000001
 40
0.5000000000000001
 40
0.6250000000000001
 40
0.6250000000000001
 40
0.7500000000000001
 40
0.7500000000000001
 40
0.875
 40
0.875
 40
0.9035860337684685
 40
0.9035860337684685
 40
0.9035860337684685
 40
0.9035860337684685
 10
103.9372806520264
 20
75.68151030460172
 30
0.0
 10
103.9371640680508
 20
75.68469701826702
 30
0.0
 10
103.9346520000192
 20
75.96163150178087
 30
0.0
 10
103.9264194730728
 20
77.1292874461913
 30
0.0
 10
103.9209307242531
 20
78.17503897085754
 30
0.0
 10
103.9177233816773
 20
80.4228290425504
 30
0.0
 10
103.9200680251443
 20
81.62449101124996
 30
0.0
 10
103.9290304610718
 20
83.5287763870319
 30
0.0
 10
103.9349250867552
 20
84.20122030106539
 30
0.0
 10
103.9371414586385
 20
84.45565748076233
 30
0.0
 10
103.9373144060095
 20
84.47852273980745
 30
0.0
 10
103.9372795705995
 20
84.47764645397024
 30
0.0
  0
LINE
  5
124
330
117
100
AcDbEntity
  8
19031000_INST_FE
  6
Continuous
 62
     7
100
AcDbLine
 10
105.3546329132
 20
85.60449731
 30
0.0
 11
105.3546329132
 21
74.55449731
 31
0.0
  0
LINE
  5
125
330
117
100
AcDbEntity
  8
19031000_INST_FE
  6
Continuous
 62
     7
100
AcDbLine
 10
113.396719356
 20
85.6238214153
 30
0.0
 11
113.396719356
 21
74.5351732047
 31
0.0
  0
LINE
  5
126
330
117
100
AcDbEntity
  8
19031000_INST_FE
  6
Continuous
 62
     7
100
AcDbLine
 10
114.263038902
 20
84.123311946
 30
0.0
 11
114.263038902
 21
76.035682674
 31
0.0
  0
LINE
  5
127
330
117
100
AcDbEntity
  8
19031000_INST_FE
  6
Continuous
 62
     7
100
AcDbLine
 10
83.7857791772
 20
88.67949731
 30
0.0
 11
83.7857791772
 21
88.17949731
 31
0.0
  0
LINE
  5
128
330
117
100
AcDbEntity
  8
19031000_INST_FE
  6
Continuous
 62
     7
100
AcDbLine
 10
96.7857791772
 20
88.17949731
 30
0.0
 11
96.7857791772
 21
88.67949731
 31
0.0
  0
ARC
  5
129
330
117
100
AcDbEntity
  8
19031000_INST_FE
  6
Continuous
 62
     7
100
AcDbCircle
 10
78.9082885926
 20
87.17949731
 30
0.0
 40
1.000000000000001
100
AcDbArc
 50
90.0
 51
149.5262937129
  0
ARC
  5
12A
330
117
100
AcDbEntity
  8
19031000_INST_FE
  6
Continuous
 62
     7
100
AcDbCircle
 10
101.6632697619
 20
87.17949731
 30
0.0
 40
0.9999999999999877
100
AcDbArc
 50
30.4737062871
 51
90.0
  0
ARC
  5
12B
330
117
100
AcDbEntity
  8
19031000_INST_FE
  6
Continuous
 62
     7
100
AcDbCircle
 10
89.5972021277
 20
80.0794964757
 30
0.0
 40
15.0
100
AcDbArc
 50
17.0010528316
 51
30.4737074688
  0
ARC
  5
12C
330
117
100
AcDbEntity
  8
19031000_INST_FE
  6
Continuous
 62
     7
100
AcDbCircle
 10
89.5972021277
 20
80.0794964757
 30
0.0
 40
14.99999956990471
100
AcDbArc
 50
327.7690500958
 51
342.9493420422
  0
ARC
  5
12D
330
117
100
AcDbEntity
  8
19031000_INST_FE
  6
Continuous
 62
     7
100
AcDbCircle
 10
90.9743562268
 20
80.0794964757
 30
0.0
 40
15.0
100
AcDbArc
 50
197.0510214192
 51
212.2309499042
  0
ARC
  5
12E
330
117
100
AcDbEntity
  8
19031000_INST_FE
  6
Continuous
 62
     7
100
AcDbCircle
 10
90.9743562268
 20
80.0794964757
 30
0.0
 40
15.0
100
AcDbArc
 50
149.5262925312
 51
162.9990810852
  0
LINE
  5
12F
330
117
100
AcDbEntity
  8
19031000_INST_FE
  6
Continuous
 62
     7
100
AcDbLine
 10
79.0357791772
 20
72.07949731
 30
0.0
 11
79.0357791772
 21
71.67949731
 31
0.0
  0
LINE
  5
130
330
117
100
AcDbEntity
  8
19031000_INST_FE
  6
Continuous
 62
     7
100
AcDbLine
 10
101.5357791772
 20
71.67949731
 30
0.0
 11
101.5357791772
 21
72.07949731
 31
0.0
  0
ARC
  5
131
330
117
100
AcDbEntity
  8
19031000_INST_FE
  6
Continuous
 62
     7
100
AcDbCircle
 10
81.0357791772
 20
71.67949731
 30
0.0
 40
2.000000000000113
100
AcDbArc
 50
180.0
 51
270.0
  0
ARC
  5
132
330
117
100
AcDbEntity
  8
19031000_INST_FE
  6
Continuous
 62
     7
100
AcDbCircle
 10
99.5357791772
 20
71.67949731
 30
0.0
 40
2.000000000000113
100
AcDbArc
 50
270.0
 51
0.0
  0
LINE
  5
133
330
117
100
AcDbEntity
  8
19031000_INST_FE
  6
Continuous
 62
     7
100
AcDbLine
 10
100.2857791772
 20
69.6763338035
 30
0.0
 11
99.5357791772
 21
69.67949731
 31
0.0
  0
LINE
  5
134
330
117
100
AcDbEntity
  8
19031000_INST_FE
  6
Continuous
 62
     7
100
AcDbLine
 10
81.0357791772
 20
69.67949731
 30
0.0
 11
80.2857791772
 21
69.6763338035
 31
0.0
  0
LINE
  5
135
330
117
100
AcDbEntity
  8
19031000_INST_FE
  6
Continuous
 62
     7
100
AcDbLine
 10
80.2857791772
 20
69.6763338035
 30
0.0
 11
80.2857791772
 21
67.6763338035
 31
0.0
  0
LINE
  5
136
330
117
100
AcDbEntity
  8
19031000_INST_FE
  6
Continuous
 62
     7
100
AcDbLine
 10
100.2857791772
 20
67.6763338035
 30
0.0
 11
100.2857791772
 21
69.6763338035
 31
0.0
  0
ARC
  5
137
330
117
100
AcDbEntity
  8
19031000_INST_FE
  6
Continuous
 62
     7
100
AcDbCircle
 10
89.9728564629
 20
90.7232540676
 30
0.0
 40
25.00000000000619
100
AcDbArc
 50
247.2020196208
 51
254.1283633035
  0
ARC
  5
138
330
117
100
AcDbEntity
  8
19031000_INST_FE
  6
Continuous
 62
     7
100
AcDbCircle
 10
90.5987018916
 20
90.7232540676
 30
0.0
 40
25.00000000000619
100
AcDbArc
 50
285.8716366965
 51
292.7979803792
  0
ARC
  5
139
330
117
100
AcDbEntity
  8
19031000_INST_FE
  6
Continuous
 62
     7
100
AcDbCircle
 10
83.785779598
 20
67.0265512889
 30
0.0
 40
0.4999999527109202
100
AcDbArc
 50
224.4619175151
 51
250.5287807261
  0
ARC
  5
13A
330
117
100
AcDbEntity
  8
19031000_INST_FE
  6
Continuous
 62
     7
100
AcDbCircle
 10
96.7857787565
 20
67.0265512889
 30
0.0
 40
0.4999999527109206
100
AcDbArc
 50
289.4712192739
 51
315.5380824849
  0
ARC
  5
13B
330
117
100
AcDbEntity
  8
19031000_INST_FE
  6
Continuous
 62
     7
100
AcDbCircle
 10
90.2857791772
 20
85.4113277987
 30
0.0
 40
19.9999999999879
100
AcDbArc
 50
250.528780726
 51
270.0
  0
ARC
  5
13C
330
117
100
AcDbEntity
  8
19031000_INST_FE
  6
Continuous
 62
     7
100
AcDbCircle
 10
90.2857791772
 20
85.4113277987
 30
0.0
 40
19.99999999998782
100
AcDbArc
 50
270.0
 51
289.471219274
  0
CIRCLE
  5
13D
330
117
100
AcDbEntity
  8
19031000_INST_FE
  6
Continuous
 62
     7
100
AcDbCircle
 10
90.2857791772
 20
80.07949731
 30
0.0
 40
7.349999999999999
  0
LINE
  5
13E
330
117
100
AcDbEntity
  8
19031000_INST_FE
  6
Continuous
 62
     7
100
AcDbLine
 10
75.2169254412
 20
75.077748665
 30
0.0
 11
75.7169254412
 21
75.077748665
 31
0.0
  0
LINE
  5
13F
330
117
100
AcDbEntity
  8
19031000_INST_FE
  6
Continuous
 62
     7
100
AcDbLine
 10
75.7169254412
 20
85.081245955
 30
0.0
 11
75.2169254412
 21
85.081245955
 31
0.0
  0
ARC
  5
140
330
117
100
AcDbEntity
  8
19031000_INST_FE
  6
Continuous
 62
     7
100
AcDbCircle
 10
71.2125004463
 20
67.6288507366
 30
0.0
 40
8.000000000000007
100
AcDbArc
 50
59.9633988343
 51
120.3119494985
  0
ARC
  5
141
330
117
100
AcDbEntity
  8
19031000_INST_FE
  6
Continuous
 62
     7
100
AcDbCircle
 10
71.2125004463
 20
92.5301438834
 30
0.0
 40
8.000000000000014
100
AcDbArc
 50
239.6880505015
 51
300.0366011657
  0
LINE
  5
142
330
117
100
AcDbEntity
  8
19031000_INST_FE
  6
Continuous
 62
     7
100
AcDbLine
 10
67.1748389985
 20
85.6238214153
 30
0.0
 11
66.3085194525
 21
84.123311946
 31
0.0
  0
LINE
  5
143
330
117
100
AcDbEntity
  8
19031000_INST_FE
  6
Continuous
 62
     7
100
AcDbLine
 10
66.3085194525
 20
76.035682674
 30
0.0
 11
67.1748389985
 21
74.5351732047
 31
0.0
  0
ARC
  5
144
330
117
100
AcDbEntity
  8
19031000_INST_FE
  6
Continuous
 62
     7
100
AcDbCircle
 10
60.1709252015
 20
80.07949731
 30
0.0
 40
7.35
100
AcDbArc
 50
33.379284517
 51
270.0
  0
ARC
  5
145
330
117
100
AcDbEntity
  8
19031000_INST_FE
  6
Continuous
 62
     7
100
AcDbCircle
 10
60.1709252015
 20
80.07949731
 30
0.0
 40
7.349999999999999
100
AcDbArc
 50
270.0
 51
326.620715483
  0
ARC
  5
146
330
117
100
AcDbEntity
  8
19031000_INST_FE
  6
Continuous
 62
     7
100
AcDbCircle
 10
75.7169268959
 20
76.077748665
 30
0.0
 40
1.000000000000532
100
AcDbArc
 50
269.9999166519
 51
336.6441653297
  0
ARC
  5
147
330
117
100
AcDbEntity
  8
19031000_INST_FE
  6
Continuous
 62
     7
100
AcDbCircle
 10
75.7169268959
 20
84.081245955
 30
0.0
 40
1.00000000000053
100
AcDbArc
 50
22.585767148
 51
90.0000833481
  0
LINE
  5
148
330
117
100
AcDbEntity
  8
19031000_INST_FE
  6
Continuous
 62
     7
100
AcDbLine
 10
104.8546329132
 20
75.077748665
 30
0.0
 11
105.3546329132
 21
75.077748665
 31
0.0
  0
LINE
  5
149
330
117
100
AcDbEntity
  8
19031000_INST_FE
  6
Continuous
 62
     7
100
AcDbLine
 10
105.3546329132
 20
85.081245955
 30
0.0
 11
104.8546329132
 21
85.081245955
 31
0.0
  0
ARC
  5
14A
330
117
100
AcDbEntity
  8
19031000_INST_FE
  6
Continuous
 62
     7
100
AcDbCircle
 10
109.3590579082
 20
67.6288507366
 30
0.0
 40
8.000000000000014
100
AcDbArc
 50
59.6880505015
 51
120.0366011657
  0
ARC
  5
14B
330
117
100
AcDbEntity
  8
19031000_INST_FE
  6
Continuous
 62
     7
100
AcDbCircle
 10
109.3590579082
 20
92.5301438834
 30
0.0
 40
8.000000000000007
100
AcDbArc
 50
239.9633988343
 51
300.3119494985
  0
LINE
  5
14C
330
117
100
AcDbEntity
  8
19031000_INST_FE
  6
Continuous
 62
     7
100
AcDbLine
 10
113.396719356
 20
74.5351732047
 30
0.0
 11
114.263038902
 21
76.035682674
 31
0.0
  0
LINE
  5
14D
330
117
100
AcDbEntity
  8
19031000_INST_FE
  6
Continuous
 62
     7
100
AcDbLine
 10
114.263038902
 20
84.123311946
 30
0.0
 11
113.396719356
 21
85.6238214153
 31
0.0
  0
ARC
  5
14E
330
117
100
AcDbEntity
  8
19031000_INST_FE
  6
Continuous
 62
     7
100
AcDbCircle
 10
120.400633153
 20
80.07949731
 30
0.0
 40
7.349999999999997
100
AcDbArc
 50
213.379284517
 51
270.0
  0
ARC
  5
14F
330
117
100
AcDbEntity
  8
19031000_INST_FE
  6
Continuous
 62
     7
100
AcDbCircle
 10
120.400633153
 20
80.07949731
 30
0.0
 40
7.349999999999999
100
AcDbArc
 50
270.0
 51
146.620715483
  0
ARC
  5
150
330
117
100
AcDbEntity
  8
19031000_INST_FE
  6
Continuous
 62
     7
100
AcDbCircle
 10
104.8546314585
 20
76.077748665
 30
0.0
 40
1.000000000000529
100
AcDbArc
 50
203.3834003149
 51
270.0000833481
  0
ARC
  5
151
330
117
100
AcDbEntity
  8
19031000_INST_FE
  6
Continuous
 62
     7
100
AcDbCircle
 10
104.8546314585
 20
84.081245955
 30
0.0
 40
1.000000000000532
100
AcDbArc
 50
89.9999166519
 51
157.3307447541
  0
LINE
  5
152
330
117
100
AcDbEntity
  8
05066038_HUELSE_
  6
Continuous
 62
     7
100
AcDbLine
 10
77.2857791772
 20
90.67949731
 30
0.0
 11
103.2857791772
 21
90.67949731
 31
0.0
  0
LINE
  5
153
330
117
100
AcDbEntity
  8
05066038_HUELSE_
  6
Continuous
 62
     7
100
AcDbLine
 10
79.2857791772
 20
88.67949731
 30
0.0
 11
101.2857791772
 21
88.67949731
 31
0.0
  0
LINE
  5
154
330
117
100
AcDbEntity
  8
05066038_HUELSE_
  6
Continuous
 62
     7
100
AcDbLine
 10
77.2857791772
 20
90.67949731
 30
0.0
 11
79.2857791772
 21
88.67949731
 31
0.0
  0
LINE
  5
155
330
117
100
AcDbEntity
  8
05066038_HUELSE_
  6
Continuous
 62
     7
100
AcDbLine
 10
101.2857791772
 20
88.67949731
 30
0.0
 11
103.2857791772
 21
90.67949731
 31
0.0
  0
LINE
  5
156
330
117
100
AcDbEntity
  8
09893038_ROSETTE
  6
Continuous
 62
     7
100
AcDbLine
 10
62.2857791772
 20
129.67949731
 30
0.0
 11
118.2857791772
 21
129.67949731
 31
0.0
  0
LINE
  5
157
330
117
100
AcDbEntity
  8
09893038_ROSETTE
  6
Continuous
 62
     7
100
AcDbLine
 10
62.2857791772
 20
133.67949731
 30
0.0
 11
118.2857791772
 21
133.67949731
 31
0.0
  0
LINE
  5
158
330
117
100
AcDbEntity
  8
09893038_ROSETTE
  6
Continuous
 62
     7
100
AcDbLine
 10
73.1303952644
 20
124.27949731
 30
0.0
 11
107.4411630901
 21
124.27949731
 31
0.0
  0
ARC
  5
159
330
117
100
AcDbEntity
  8
09893038_ROSETTE
  6
Continuous
 62
     7
100
AcDbCircle
 10
62.2857791772
 20
131.67949731
 30
0.0
 40
1.999999999999995
100
AcDbArc
 50
90.0
 51
270.0
  0
ARC
  5
15A
330
117
100
AcDbEntity
  8
09893038_ROSETTE
  6
Continuous
 62
     7
100
AcDbCircle
 10
118.2857791772
 20
131.67949731
 30
0.0
 40
2.000000000000002
100
AcDbArc
 50
270.0
 51
90.0
  0
ARC
  5
15B
330
117
100
AcDbEntity
  8
09893038_ROSETTE
  6
Continuous
 62
     7
100
AcDbCircle
 10
65.5357791772
 20
127.67949731
 30
0.0
 40
1.999999999999999
100
AcDbArc
 50
143.1301023542
 51
255.0
  0
ARC
  5
15C
330
117
100
AcDbEntity
  8
09893038_ROSETTE
  6
Continuous
 62
     7
100
AcDbCircle
 10
115.0357791772
 20
127.67949731
 30
0.0
 40
2.0
100
AcDbArc
 50
285.0
 51
36.8698976458
  0
ARC
  5
15D
330
117
100
AcDbEntity
  8
09893038_ROSETTE
  6
Continuous
 62
     7
100
AcDbCircle
 10
63.5357791772
 20
129.17949731
 30
0.0
 40
0.5000000000000004
100
AcDbArc
 50
323.1301023542
 51
90.0
  0
ARC
  5
15E
330
117
100
AcDbEntity
  8
09893038_ROSETTE
  6
Continuous
 62
     7
100
AcDbCircle
 10
117.0357791772
 20
129.17949731
 30
0.0
 40
0.5000000000000004
100
AcDbArc
 50
90.0
 51
216.8698976458
  0
LINE
  5
15F
330
117
100
AcDbEntity
  8
09893038_ROSETTE
  6
Continuous
 62
     7
100
AcDbLine
 10
65.018141087
 20
125.7476456574
 30
0.0
 11
67.9540143624
 21
124.9609807842
 31
0.0
  0
LINE
  5
160
330
117
100
AcDbEntity
  8
09893038_ROSETTE
  6
Continuous
 62
     7
100
AcDbLine
 10
112.6175439921
 20
124.9609807842
 30
0.0
 11
115.5534172674
 21
125.7476456574
 31
0.0
  0
ARC
  5
161
330
117
100
AcDbEntity
  8
09893038_ROSETTE
  6
Continuous
 62
     7
100
AcDbCircle
 10
73.1303952644
 20
144.27949731
 30
0.0
 40
20.0
100
AcDbArc
 50
255.0
 51
270.0
  0
ARC
  5
162
330
117
100
AcDbEntity
  8
09893038_ROSETTE
  6
Continuous
 62
     7
100
AcDbCircle
 10
107.4411630901
 20
144.27949731
 30
0.0
 40
20.0
100
AcDbArc
 50
270.0
 51
285.0
  0
ENDBLK
  5
164
330
117
100
AcDbEntity
  8
0
100
AcDbBlockEnd
  0
ENDSEC
  0
SECTION
  2
ENTITIES
  0
INSERT
  5
5F
330
1F
100
AcDbEntity
  8
Default
100
AcDbBlockReference
  2
SEANNOT_GROUP
 10
0.0
 20
0.0
 30
0.0
  0
LINE
  5
69
330
1F
100
AcDbEntity
  8
Default
  6
Continuous
 62
     7
100
AcDbLine
 10
203.4797079514
 20
218.5331019843
 30
0.0
 11
169.8797079514
 21
218.5331019843
 31
0.0
  0
LINE
  5
6A
330
1F
100
AcDbEntity
  8
Default
  6
Continuous
 62
     7
100
AcDbLine
 10
203.4797079514
 20
192.5331019843
 30
0.0
 11
169.8797079514
 21
192.5331019843
 31
0.0
  0
INSERT
  5
6C
330
1F
100
AcDbEntity
  8
Default
100
AcDbBlockReference
  2
SEANNOT_GROUP1
 10
0.0
 20
0.0
 30
0.0
  0
LINE
  5
71
330
1F
100
AcDbEntity
  8
Default
  6
Continuous
 62
     7
100
AcDbLine
 10
103.2857791772
 20
90.67949731
 30
0.0
 11
103.2857791772
 21
124.27949731
 31
0.0
  0
LINE
  5
72
330
1F
100
AcDbEntity
  8
Default
  6
Continuous
 62
     7
100
AcDbLine
 10
77.2857791772
 20
90.67949731
 30
0.0
 11
77.2857791772
 21
124.27949731
 31
0.0
  0
INSERT
  5
74
330
1F
100
AcDbEntity
  8
Default
100
AcDbBlockReference
  2
SEANNOT_GROUP2
 10
0.0
 20
0.0
 30
0.0
  0
INSERT
  5
7A
330
1F
100
AcDbEntity
  8
Default
100
AcDbBlockReference
  2
SE
 10
0.0
 20
0.0
 30
0.0
  0
INSERT
  5
C8
330
1F
100
AcDbEntity
  8
Default
100
AcDbBlockReference
  2
SE1
 10
0.0
 20
0.0
 30
0.0
  0
INSERT
  5
118
330
1F
100
AcDbEntity
  8
Default
100
AcDbBlockReference
  2
SE2
 10
0.0
 20
0.0
 30
0.0
  0
TEXT
  5
166
330
1F
100
AcDbEntity
  8
Default
  6
Continuous
 62
     7
100
AcDbText
 10
5.9362635081
 20
53.4225120485
 30
0.0
 40
10.0
  1
Grohe AG^J
  7
SEACAD_seiso_ttf
 11
5.9362635081
 21
63.4225120485
 31
0.0
100
AcDbText
 73
     3
  0
TEXT
  5
167
330
1F
100
AcDbEntity
  8
Default
  6
Continuous
 62
     7
100
AcDbText
 10
5.9362635081
 20
37.0588756849
 30
0.0
 40
10.0
  1
 
  7
SEACAD_seiso_ttf
 11
5.9362635081
 21
47.0588756849
 31
0.0
100
AcDbText
 73
     3
  0
TEXT
  5
168
330
1F
100
AcDbEntity
  8
Default
  6
Continuous
 62
     7
100
AcDbText
 10
5.9362635081
 20
20.6952393213
 30
0.0
 40
10.0
  1
ecn: 
  7
SEACAD_seiso_ttf
 11
5.9362635081
 21
30.6952393213
 31
0.0
100
AcDbText
 73
     3
  0
TEXT
  5
169
330
1F
100
AcDbEntity
  8
Default
  6
Continuous
 62
     7
100
AcDbText
 10
5.9362635081
 20
4.3316029576
 30
0.0
 40
10.0
  1
unit: mm
  7
SEACAD_seiso_ttf
 11
5.9362635081
 21
14.3316029576
 31
0.0
100
AcDbText
 73
     3
  0
LINE
  5
16A
330
1F
100
AcDbEntity
  8
Default
  6
Continuous
 62
     7
100
AcDbLine
 10
0.0
 20
0.0
 30
0.0
 11
100.0
 21
0.0
 31
0.0
  0
LINE
  5
16B
330
1F
100
AcDbEntity
  8
Default
  6
Continuous
 62
     7
100
AcDbLine
 10
0.0
 20
0.0
 30
0.0
 11
0.0
 21
100.0
 31
0.0
  0
TEXT
  5
16C
330
1F
100
AcDbEntity
  8
Default
  6
Continuous
 62
     7
100
AcDbText
 10
24.3923665681
 20
-18.2375342018
 30
0.0
 40
10.0
  1
100 mm
  7
SEACAD_seiso_ttf
 11
24.3923665681
 21
-8.2375342018
 31
0.0
100
AcDbText
 73
     3
  0
TEXT
  5
16D
330
1F
100
AcDbEntity
  8
Default
  6
Continuous
 62
     7
100
AcDbText
 10
-7.6150308803
 20
24.6231930421
 30
0.0
 40
10.0
  1
100 mm
 50
90.0
  7
SEACAD_seiso_ttf
 11
-17.6150308803
 21
24.6231930421
 31
0.0
100
AcDbText
 73
     3
  0
TEXT
  5
16E
330
1F
100
AcDbEntity
  8
Default
  6
Continuous
 62
     7
100
AcDbText
 10
28.4878128572
 20
20.0907663715
 30
0.0
 40
10.0
  1
30243
  7
SEACAD_seiso_ttf
 11
28.4878128572
 21
30.0907663715
 31
0.0
100
AcDbText
 73
     3
  0
TEXT
  5
16F
330
1F
100
AcDbEntity
  8
Default
  6
Continuous
 62
     7
100
AcDbText
 10
5.9012241913
 20
36.7242780188
 30
0.0
 40
10.0
  1
19031000
  7
SEACAD_seiso_ttf
 11
5.9012241913
 21
46.7242780188
 31
0.0
100
AcDbText
 73
     3
  0
ENDSEC
  0
SECTION
  2
OBJECTS
  0
DICTIONARY
  5
C
330
0
100
AcDbDictionary
281
     1
  3
ACAD_GROUP
350
D
  3
ACAD_LAYOUT
350
1A
  3
ACAD_MLEADERSTYLE
350
173
  3
ACAD_MLINESTYLE
350
17
  3
ACAD_PLOTSETTINGS
350
19
  3
ACAD_PLOTSTYLENAME
350
E
  3
ACAD_SCALELIST
350
3B
  3
ACAD_TABLESTYLE
350
172
  3
ACAD_VISUALSTYLE
350
2A
  3
AcDbVariableDictionary
350
170
  0
DICTIONARY
  5
D
102
{ACAD_REACTORS
330
C
102
}
330
C
100
AcDbDictionary
281
     1
  0
DICTIONARY
  5
1A
102
{ACAD_REACTORS
330
C
102
}
330
C
100
AcDbDictionary
281
     1
  3
Layout1
350
1E
  3
Model
350
22
  0
DICTIONARY
  5
173
102
{ACAD_REACTORS
330
C
102
}
330
C
100
AcDbDictionary
281
     1
  0
DICTIONARY
  5
17
102
{ACAD_REACTORS
330
C
102
}
330
C
100
AcDbDictionary
281
     1
  3
Standard
350
18
  0
DICTIONARY
  5
19
102
{ACAD_REACTORS
330
C
102
}
330
C
100
AcDbDictionary
281
     1
  0
ACDBDICTIONARYWDFLT
  5
E
102
{ACAD_REACTORS
330
C
102
}
330
C
100
AcDbDictionary
281
     1
  3
Normal
350
F
100
AcDbDictionaryWithDefault
340
F
  0
DICTIONARY
  5
3B
102
{ACAD_REACTORS
330
C
102
}
330
C
100
AcDbDictionary
281
     1
  3
A0
350
3C
  3
A1
350
3D
  3
A2
350
3E
  3
A3
350
3F
  3
A4
350
40
  3
A5
350
41
  3
A6
350
42
  3
A7
350
43
  3
A8
350
44
  3
A9
350
45
  3
B0
350
46
  3
B1
350
47
  3
B2
350
48
  3
B3
350
49
  3
B4
350
4A
  3
B5
350
4B
  3
B6
350
4C
  3
B7
350
4D
  3
B8
350
4E
  3
B9
350
4F
  3
C0
350
50
  3
C1
350
51
  3
C2
350
52
  3
C3
350
53
  3
C4
350
54
  3
C5
350
55
  3
C6
350
56
  3
C7
350
57
  3
C8
350
58
  3
C9
350
59
  3
D0
350
5A
  3
D1
350
5B
  3
D2
350
5C
  0
DICTIONARY
  5
172
102
{ACAD_REACTORS
330
C
102
}
330
C
100
AcDbDictionary
281
     1
  0
DICTIONARY
  5
2A
102
{ACAD_REACTORS
330
C
102
}
330
C
100
AcDbDictionary
281
     1
  3
2dWireframe
350
2F
  3
3D Hidden
350
31
  3
3dWireframe
350
30
  3
Basic
350
32
  3
Brighten
350
36
  3
ColorChange
350
3A
  3
Conceptual
350
34
  3
Dim
350
35
  3
Facepattern
350
39
  3
Flat
350
2B
  3
FlatWithEdges
350
2C
  3
Gouraud
350
2D
  3
GouraudWithEdges
350
2E
  3
Linepattern
350
38
  3
Realistic
350
33
  3
Thicken
350
37
  0
DICTIONARY
  5
170
102
{ACAD_REACTORS
330
C
102
}
330
C
100
AcDbDictionary
281
     1
  3
CANNOSCALE
350
171
  3
PSOLHEIGHT
350
175
  3
PSOLWIDTH
350
174
  0
LAYOUT
  5
1E
102
{ACAD_REACTORS
330
1A
102
}
330
1A
100
AcDbPlotSettings
  1

  2
none_device
  4

  6

 40
0.0
 41
0.0
 42
0.0
 43
0.0
 44
0.0
 45
0.0
 46
0.0
 47
0.0
 48
0.0
 49
0.0
140
0.0
141
0.0
142
1.0
143
1.0
 70
   688
 72
     0
 73
     0
 74
     5
  7

 75
    16
147
1.0
148
0.0
149
0.0
100
AcDbLayout
  1
Layout1
 70
     1
 71
     1
 10
0.0
 20
0.0
 11
1682.0
 21
2378.0
 12
0.0
 22
0.0
 32
0.0
 14
0.0
 24
0.0
 34
0.0
 15
1682.0
 25
2378.0
 35
0.0
146
0.0
 13
0.0
 23
0.0
 33
0.0
 16
1.0
 26
0.0
 36
0.0
 17
0.0
 27
1.0
 37
0.0
 76
     0
330
1B
  0
LAYOUT
  5
22
102
{ACAD_REACTORS
330
1A
102
}
330
1A
100
AcDbPlotSettings
  1

  2
none_device
  4

  6

 40
0.0
 41
0.0
 42
0.0
 43
0.0
 44
0.0
 45
0.0
 46
0.0
 47
0.0
 48
0.0
 49
0.0
140
0.0
141
0.0
142
1.0
143
1.0
 70
  1712
 72
     0
 73
     0
 74
     0
  7

 75
     0
147
1.0
148
0.0
149
0.0
100
AcDbLayout
  1
Model
 70
     1
 71
     0
 10
0.0
 20
0.0
 11
1682.0
 21
2378.0
 12
0.0
 22
0.0
 32
0.0
 14
0.0
 24
0.0
 34
0.0
 15
1682.0
 25
2378.0
 35
0.0
146
0.0
 13
0.0
 23
0.0
 33
0.0
 16
1.0
 26
0.0
 36
0.0
 17
0.0
 27
1.0
 37
0.0
 76
     0
330
1F
331
29
  0
MLINESTYLE
  5
18
102
{ACAD_REACTORS
330
17
102
}
330
17
100
AcDbMlineStyle
  2
Standard
 70
     0
  3

 62
   256
 51
90.0
 52
90.0
 71
     2
 49
0.5
 62
   256
  6
BYLAYER
 49
-0.5
 62
   256
  6
BYLAYER
  0
ACDBPLACEHOLDER
  5
F
102
{ACAD_REACTORS
330
E
102
}
330
E
  0
SCALE
  5
3C
102
{ACAD_REACTORS
330
3B
102
}
330
3B
100
AcDbScale
 70
     0
300
1:1
140
1.0
141
1.0
290
     1
  0
SCALE
  5
3D
102
{ACAD_REACTORS
330
3B
102
}
330
3B
100
AcDbScale
 70
     0
300
1:2
140
1.0
141
2.0
290
     0
  0
SCALE
  5
3E
102
{ACAD_REACTORS
330
3B
102
}
330
3B
100
AcDbScale
 70
     0
300
1:4
140
1.0
141
4.0
290
     0
  0
SCALE
  5
3F
102
{ACAD_REACTORS
330
3B
102
}
330
3B
100
AcDbScale
 70
     0
300
1:5
140
1.0
141
5.0
290
     0
  0
SCALE
  5
40
102
{ACAD_REACTORS
330
3B
102
}
330
3B
100
AcDbScale
 70
     0
300
1:8
140
1.0
141
8.0
290
     0
  0
SCALE
  5
41
102
{ACAD_REACTORS
330
3B
102
}
330
3B
100
AcDbScale
 70
     0
300
1:10
140
1.0
141
10.0
290
     0
  0
SCALE
  5
42
102
{ACAD_REACTORS
330
3B
102
}
330
3B
100
AcDbScale
 70
     0
300
1:16
140
1.0
141
16.0
290
     0
  0
SCALE
  5
43
102
{ACAD_REACTORS
330
3B
102
}
330
3B
100
AcDbScale
 70
     0
300
1:20
140
1.0
141
20.0
290
     0
  0
SCALE
  5
44
102
{ACAD_REACTORS
330
3B
102
}
330
3B
100
AcDbScale
 70
     0
300
1:30
140
1.0
141
30.0
290
     0
  0
SCALE
  5
45
102
{ACAD_REACTORS
330
3B
102
}
330
3B
100
AcDbScale
 70
     0
300
1:40
140
1.0
141
40.0
290
     0
  0
SCALE
  5
46
102
{ACAD_REACTORS
330
3B
102
}
330
3B
100
AcDbScale
 70
     0
300
1:50
140
1.0
141
50.0
290
     0
  0
SCALE
  5
47
102
{ACAD_REACTORS
330
3B
102
}
330
3B
100
AcDbScale
 70
     0
300
1:100
140
1.0
141
100.0
290
     0
  0
SCALE
  5
48
102
{ACAD_REACTORS
330
3B
102
}
330
3B
100
AcDbScale
 70
     0
300
2:1
140
2.0
141
1.0
290
     0
  0
SCALE
  5
49
102
{ACAD_REACTORS
330
3B
102
}
330
3B
100
AcDbScale
 70
     0
300
4:1
140
4.0
141
1.0
290
     0
  0
SCALE
  5
4A
102
{ACAD_REACTORS
330
3B
102
}
330
3B
100
AcDbScale
 70
     0
300
8:1
140
8.0
141
1.0
290
     0
  0
SCALE
  5
4B
102
{ACAD_REACTORS
330
3B
102
}
330
3B
100
AcDbScale
 70
     0
300
10:1
140
10.0
141
1.0
290
     0
  0
SCALE
  5
4C
102
{ACAD_REACTORS
330
3B
102
}
330
3B
100
AcDbScale
 70
     0
300
100:1
140
100.0
141
1.0
290
     0
  0
SCALE
  5
4D
102
{ACAD_REACTORS
330
3B
102
}
330
3B
100
AcDbScale
 70
     0
300
1/128" = 1'-0"
140
0.0078125
141
12.0
290
     0
  0
SCALE
  5
4E
102
{ACAD_REACTORS
330
3B
102
}
330
3B
100
AcDbScale
 70
     0
300
1/64" = 1'-0"
140
0.015625
141
12.0
290
     0
  0
SCALE
  5
4F
102
{ACAD_REACTORS
330
3B
102
}
330
3B
100
AcDbScale
 70
     0
300
1/32" = 1'-0"
140
0.03125
141
12.0
290
     0
  0
SCALE
  5
50
102
{ACAD_REACTORS
330
3B
102
}
330
3B
100
AcDbScale
 70
     0
300
1/16" = 1'-0"
140
0.0625
141
12.0
290
     0
  0
SCALE
  5
51
102
{ACAD_REACTORS
330
3B
102
}
330
3B
100
AcDbScale
 70
     0
300
3/32" = 1'-0"
140
0.09375
141
12.0
290
     0
  0
SCALE
  5
52
102
{ACAD_REACTORS
330
3B
102
}
330
3B
100
AcDbScale
 70
     0
300
1/8" = 1'-0"
140
0.125
141
12.0
290
     0
  0
SCALE
  5
53
102
{ACAD_REACTORS
330
3B
102
}
330
3B
100
AcDbScale
 70
     0
300
3/16" = 1'-0"
140
0.1875
141
12.0
290
     0
  0
SCALE
  5
54
102
{ACAD_REACTORS
330
3B
102
}
330
3B
100
AcDbScale
 70
     0
300
1/4" = 1'-0"
140
0.25
141
12.0
290
     0
  0
SCALE
  5
55
102
{ACAD_REACTORS
330
3B
102
}
330
3B
100
AcDbScale
 70
     0
300
3/8" = 1'-0"
140
0.375
141
12.0
290
     0
  0
SCALE
  5
56
102
{ACAD_REACTORS
330
3B
102
}
330
3B
100
AcDbScale
 70
     0
300
1/2" = 1'-0"
140
0.5
141
12.0
290
     0
  0
SCALE
  5
57
102
{ACAD_REACTORS
330
3B
102
}
330
3B
100
AcDbScale
 70
     0
300
3/4" = 1'-0"
140
0.75
141
12.0
290
     0
  0
SCALE
  5
58
102
{ACAD_REACTORS
330
3B
102
}
330
3B
100
AcDbScale
 70
     0
300
1" = 1'-0"
140
1.0
141
12.0
290
     0
  0
SCALE
  5
59
102
{ACAD_REACTORS
330
3B
102
}
330
3B
100
AcDbScale
 70
     0
300
1-1/2" = 1'-0"
140
1.5
141
12.0
290
     0
  0
SCALE
  5
5A
102
{ACAD_REACTORS
330
3B
102
}
330
3B
100
AcDbScale
 70
     0
300
3" = 1'-0"
140
3.0
141
12.0
290
     0
  0
SCALE
  5
5B
102
{ACAD_REACTORS
330
3B
102
}
330
3B
100
AcDbScale
 70
     0
300
6" = 1'-0"
140
6.0
141
12.0
290
     0
  0
SCALE
  5
5C
102
{ACAD_REACTORS
330
3B
102
}
330
3B
100
AcDbScale
 70
     0
300
1'-0" = 1'-0"
140
12.0
141
12.0
290
     0
  0
VISUALSTYLE
  5
2F
102
{ACAD_REACTORS
330
2A
102
}
330
2A
100
AcDbVisualStyle
  2
2dWireframe
 70
     4
 71
     0
 72
     2
 73
     0
 90
        0
 40
-0.6
 41
-30.0
 62
     5
 63
     7
 74
     1
 91
        4
 64
     7
 65
   257
 75
     1
175
     1
 42
1.0
 92
        0
 66
   257
 43
1.0
 76
     1
 77
     6
 78
     2
 67
     7
 79
     5
170
     0
171
     0
290
     0
174
     0
 93
        1
 44
0.0
173
     0
291
     0
 45
0.0
1001
ACAD
1000
AcDbSavedByObjectVersion
1070
     0
  0
VISUALSTYLE
  5
31
102
{ACAD_REACTORS
330
2A
102
}
330
2A
100
AcDbVisualStyle
  2
3D Hidden
 70
     6
 71
     1
 72
     2
 73
     2
 90
        0
 40
-0.6
 41
-30.0
 62
     5
 63
     7
 74
     2
 91
        2
 64
     7
 65
   257
 75
     2
175
     1
 42
40.0
 92
        0
 66
   257
 43
1.0
 76
     1
 77
     6
 78
     2
 67
     7
 79
     3
170
     0
171
     0
290
     0
174
     0
 93
        1
 44
0.0
173
     0
291
     0
 45
0.0
1001
ACAD
1000
AcDbSavedByObjectVersion
1070
     0
  0
VISUALSTYLE
  5
30
102
{ACAD_REACTORS
330
2A
102
}
330
2A
100
AcDbVisualStyle
  2
3dWireframe
 70
     5
 71
     0
 72
     2
 73
     0
 90
        0
 40
-0.6
 41
-30.0
 62
     5
 63
     7
 74
     1
 91
        4
 64
     7
 65
   257
 75
     1
175
     1
 42
1.0
 92
        0
 66
   257
 43
1.0
 76
     1
 77
     6
 78
     2
 67
     7
 79
     5
170
     0
171
     0
290
     0
174
     0
 93
        1
 44
0.0
173
     0
291
     0
 45
0.0
1001
ACAD
1000
AcDbSavedByObjectVersion
1070
     0
  0
VISUALSTYLE
  5
32
102
{ACAD_REACTORS
330
2A
102
}
330
2A
100
AcDbVisualStyle
  2
Basic
 70
     7
 71
     1
 72
     0
 73
     1
 90
        0
 40
-0.6
 41
-30.0
 62
     5
 63
     7
 74
     0
 91
        4
 64
     7
 65
   257
 75
     1
175
     1
 42
1.0
 92
        8
 66
     7
 43
1.0
 76
     1
 77
     6
 78
     2
 67
     7
 79
     5
170
     0
171
     0
290
     0
174
     0
 93
        1
 44
0.0
173
     0
291
     1
 45
0.0
1001
ACAD
1000
AcDbSavedByObjectVersion
1070
     0
  0
VISUALSTYLE
  5
36
102
{ACAD_REACTORS
330
2A
102
}
330
2A
100
AcDbVisualStyle
  2
Brighten
 70
    12
 71
     2
 72
     2
 73
     0
 90
        0
 40
-0.6
 41
-30.0
 62
     5
 63
     7
 74
     1
 91
        4
 64
     7
 65
   257
 75
     1
175
     1
 42
1.0
 92
        8
 66
     7
 43
1.0
 76
     1
 77
     6
 78
     2
 67
     7
 79
     5
170
     0
171
     0
290
     0
174
     0
 93
        1
 44
50.0
173
     0
291
     1
 45
0.0
1001
ACAD
1000
AcDbSavedByObjectVersion
1070
     0
  0
VISUALSTYLE
  5
3A
102
{ACAD_REACTORS
330
2A
102
}
330
2A
100
AcDbVisualStyle
  2
ColorChange
 70
    16
 71
     2
 72
     2
 73
     3
 90
        0
 40
-0.6
 41
-30.0
 62
     5
 63
     8
 74
     1
 91
        4
 64
     7
 65
   257
 75
     1
175
     1
 42
1.0
 92
        8
 66
     8
 43
1.0
 76
     1
 77
     6
 78
     2
 67
     7
 79
     5
170
     0
171
     0
290
     0
174
     0
 93
        1
 44
0.0
173
     0
291
     1
 45
0.0
1001
ACAD
1000
AcDbSavedByObjectVersion
1070
     0
  0
VISUALSTYLE
  5
34
102
{ACAD_REACTORS
330
2A
102
}
330
2A
100
AcDbVisualStyle
  2
Conceptual
 70
     9
 71
     3
 72
     2
 73
     0
 90
        0
 40
-0.6
 41
-30.0
 62
     5
 63
     7
 74
     2
 91
        2
 64
     7
 65
   257
 75
     1
175
     1
 42
40.0
 92
        8
 66
     7
 43
1.0
 76
     1
 77
     6
 78
     2
 67
     7
 79
     3
170
     0
171
     0
290
     0
174
     0
 93
        1
 44
0.0
173
     0
291
     0
 45
0.0
1001
ACAD
1000
AcDbSavedByObjectVersion
1070
     0
  0
VISUALSTYLE
  5
35
102
{ACAD_REACTORS
330
2A
102
}
330
2A
100
AcDbVisualStyle
  2
Dim
 70
    11
 71
     2
 72
     2
 73
     0
 90
        0
 40
-0.6
 41
-30.0
 62
     5
 63
     7
 74
     1
 91
        4
 64
     7
 65
   257
 75
     1
175
     1
 42
1.0
 92
        8
 66
     7
 43
1.0
 76
     1
 77
     6
 78
     2
 67
     7
 79
     5
170
     0
171
     0
290
     0
174
     0
 93
        1
 44
-50.0
173
     0
291
     1
 45
0.0
1001
ACAD
1000
AcDbSavedByObjectVersion
1070
     0
  0
VISUALSTYLE
  5
39
102
{ACAD_REACTORS
330
2A
102
}
330
2A
100
AcDbVisualStyle
  2
Facepattern
 70
    15
 71
     2
 72
     2
 73
     0
 90
        0
 40
-0.6
 41
-30.0
 62
     5
 63
     7
 74
     1
 91
        4
 64
     7
 65
   257
 75
     1
175
     1
 42
1.0
 92
        8
 66
     7
 43
1.0
 76
     1
 77
     6
 78
     2
 67
     7
 79
     5
170
     0
171
     0
290
     0
174
     0
 93
        1
 44
0.0
173
     0
291
     1
 45
0.0
1001
ACAD
1000
AcDbSavedByObjectVersion
1070
     0
  0
VISUALSTYLE
  5
2B
102
{ACAD_REACTORS
330
2A
102
}
330
2A
100
AcDbVisualStyle
  2
Flat
 70
     0
 71
     2
 72
     1
 73
     1
 90
        2
 40
-0.6
 41
30.0
 62
     5
 63
     7
 74
     0
 91
        4
 64
     7
 65
   257
 75
     1
175
     1
 42
1.0
 92
        8
 66
     7
 43
1.0
 76
     1
 77
     6
 78
     2
 67
     7
 79
     5
170
     0
171
     0
290
     0
174
     0
 93
       13
 44
0.0
173
     0
291
     1
 45
0.0
1001
ACAD
1000
AcDbSavedByObjectVersion
1070
     0
  0
VISUALSTYLE
  5
2C
102
{ACAD_REACTORS
330
2A
102
}
330
2A
100
AcDbVisualStyle
  2
FlatWithEdges
 70
     1
 71
     2
 72
     1
 73
     1
 90
        2
 40
-0.6
 41
30.0
 62
     5
 63
     7
 74
     1
 91
        4
 64
     7
 65
   257
 75
     1
175
     1
 42
1.0
 92
        0
 66
   257
 43
1.0
 76
     1
 77
     6
 78
     2
 67
     7
 79
     5
170
     0
171
     0
290
     0
174
     0
 93
       13
 44
0.0
173
     0
291
     1
 45
0.0
1001
ACAD
1000
AcDbSavedByObjectVersion
1070
     0
  0
VISUALSTYLE
  5
2D
102
{ACAD_REACTORS
330
2A
102
}
330
2A
100
AcDbVisualStyle
  2
Gouraud
 70
     2
 71
     2
 72
     2
 73
     1
 90
        2
 40
-0.6
 41
30.0
 62
     5
 63
     7
 74
     0
 91
        4
 64
     7
 65
   257
 75
     1
175
     1
 42
1.0
 92
        0
 66
     7
 43
1.0
 76
     1
 77
     6
 78
     2
 67
     7
 79
     5
170
     0
171
     0
290
     0
174
     0
 93
       13
 44
0.0
173
     0
291
     1
 45
0.0
1001
ACAD
1000
AcDbSavedByObjectVersion
1070
     0
  0
VISUALSTYLE
  5
2E
102
{ACAD_REACTORS
330
2A
102
}
330
2A
100
AcDbVisualStyle
  2
GouraudWithEdges
 70
     3
 71
     2
 72
     2
 73
     1
 90
        2
 40
-0.6
 41
30.0
 62
     5
 63
     7
 74
     1
 91
        4
 64
     7
 65
   257
 75
     1
175
     1
 42
1.0
 92
        0
 66
   257
 43
1.0
 76
     1
 77
     6
 78
     2
 67
     7
 79
     5
170
     0
171
     0
290
     0
174
     0
 93
       13
 44
0.0
173
     0
291
     1
 45
0.0
1001
ACAD
1000
AcDbSavedByObjectVersion
1070
     0
  0
VISUALSTYLE
  5
38
102
{ACAD_REACTORS
330
2A
102
}
330
2A
100
AcDbVisualStyle
  2
Linepattern
 70
    14
 71
     2
 72
     2
 73
     0
 90
        0
 40
-0.6
 41
-30.0
 62
     5
 63
     7
 74
     1
 91
        4
 64
     7
 65
   257
 75
     7
175
     7
 42
1.0
 92
        8
 66
     7
 43
1.0
 76
     1
 77
     6
 78
     2
 67
     7
 79
     5
170
     0
171
     0
290
     0
174
     0
 93
        1
 44
0.0
173
     0
291
     1
 45
0.0
1001
ACAD
1000
AcDbSavedByObjectVersion
1070
     0
  0
VISUALSTYLE
  5
33
102
{ACAD_REACTORS
330
2A
102
}
330
2A
100
AcDbVisualStyle
  2
Realistic
 70
     8
 71
     2
 72
     2
 73
     0
 90
        0
 40
-0.6
 41
-30.0
 62
     5
 63
     7
 74
     1
 91
        0
 64
     7
 65
   257
 75
     1
175
     1
 42
1.0
 92
        8
 66
     8
 43
1.0
 76
     1
 77
     6
 78
     2
 67
     7
 79
     5
170
     0
171
     0
290
     0
174
     0
 93
       13
 44
0.0
173
     0
291
     0
 45
0.0
1001
ACAD
1000
AcDbSavedByObjectVersion
1070
     0
  0
VISUALSTYLE
  5
37
102
{ACAD_REACTORS
330
2A
102
}
330
2A
100
AcDbVisualStyle
  2
Thicken
 70
    13
 71
     2
 72
     2
 73
     0
 90
        0
 40
-0.6
 41
-30.0
 62
     5
 63
     7
 74
     1
 91
        4
 64
     7
 65
   257
 75
     1
175
     1
 42
1.0
 92
       12
 66
     7
 43
1.0
 76
     1
 77
     6
 78
     2
 67
     7
 79
     5
170
     0
171
     0
290
     0
174
     0
 93
        1
 44
0.0
173
     0
291
     1
 45
0.0
1001
ACAD
1000
AcDbSavedByObjectVersion
1070
     0
  0
DICTIONARYVAR
  5
171
102
{ACAD_REACTORS
330
170
102
}
330
170
100
DictionaryVariables
280
     0
  1
1:1
  0
DICTIONARYVAR
  5
175
102
{ACAD_REACTORS
330
170
102
}
330
170
100
DictionaryVariables
280
     0
  1
80.000000
  0
DICTIONARYVAR
  5
174
102
{ACAD_REACTORS
330
170
102
}
330
170
100
DictionaryVariables
280
     0
  1
5.000000
  0
ENDSEC
  0
EOF
