  0
SECTION
  2
HEADER
  9
$ACADVER
  1
AC1015
  9
$ACADMAINTVER
 70
     6
  9
$DWGCODEPAGE
  3
ANSI_1252
  9
$INSBASE
 10
0.0
 20
0.0
 30
0.0
  9
$EXTMIN
 10
0.0
 20
0.0
 30
0.0
  9
$EXTMAX
 10
1682.0
 20
2378.0
 30
0.0
  9
$LIMMIN
 10
0.0
 20
0.0
  9
$LIMMAX
 10
1682.0
 20
2378.0
  9
$ORTHOMODE
 70
     0
  9
$REGENMODE
 70
     1
  9
$FILLMODE
 70
     1
  9
$QTEXTMODE
 70
     0
  9
$MIRRTEXT
 70
     1
  9
$LTSCALE
 40
1.0
  9
$ATTMODE
 70
     1
  9
$TEXTSIZE
 40
2.5
  9
$TRACEWID
 40
1.0
  9
$TEXTSTYLE
  7
Standard
  9
$CLAYER
  8
0
  9
$CELTYPE
  6
ByLayer
  9
$CECOLOR
 62
   256
  9
$CELTSCALE
 40
1.0
  9
$DISPSILH
 70
     0
  9
$DIMSCALE
 40
1.0
  9
$DIMASZ
 40
2.5
  9
$DIMEXO
 40
0.625
  9
$DIMDLI
 40
3.75
  9
$DIMRND
 40
0.0
  9
$DIMDLE
 40
0.0
  9
$DIMEXE
 40
1.25
  9
$DIMTP
 40
0.0
  9
$DIMTM
 40
0.0
  9
$DIMTXT
 40
2.5
  9
$DIMCEN
 40
2.5
  9
$DIMTSZ
 40
0.0
  9
$DIMTOL
 70
     0
  9
$DIMLIM
 70
     0
  9
$DIMTIH
 70
     0
  9
$DIMTOH
 70
     0
  9
$DIMSE1
 70
     0
  9
$DIMSE2
 70
     0
  9
$DIMTAD
 70
     1
  9
$DIMZIN
 70
     8
  9
$DIMBLK
  1

  9
$DIMASO
 70
     1
  9
$DIMSHO
 70
     1
  9
$DIMPOST
  1

  9
$DIMAPOST
  1

  9
$DIMALT
 70
     0
  9
$DIMALTD
 70
     3
  9
$DIMALTF
 40
0.0393700787
  9
$DIMLFAC
 40
1.0
  9
$DIMTOFL
 70
     1
  9
$DIMTVP
 40
0.0
  9
$DIMTIX
 70
     0
  9
$DIMSOXD
 70
     0
  9
$DIMSAH
 70
     0
  9
$DIMBLK1
  1

  9
$DIMBLK2
  1

  9
$DIMSTYLE
  2
ISO-25
  9
$DIMCLRD
 70
     0
  9
$DIMCLRE
 70
     0
  9
$DIMCLRT
 70
     0
  9
$DIMTFAC
 40
1.0
  9
$DIMGAP
 40
0.625
  9
$DIMJUST
 70
     0
  9
$DIMSD1
 70
     0
  9
$DIMSD2
 70
     0
  9
$DIMTOLJ
 70
     0
  9
$DIMTZIN
 70
     8
  9
$DIMALTZ
 70
     0
  9
$DIMALTTZ
 70
     0
  9
$DIMUPT
 70
     0
  9
$DIMDEC
 70
     2
  9
$DIMTDEC
 70
     2
  9
$DIMALTU
 70
     2
  9
$DIMALTTD
 70
     3
  9
$DIMTXSTY
  7
Standard
  9
$DIMAUNIT
 70
     0
  9
$DIMADEC
 70
     0
  9
$DIMALTRND
 40
0.0
  9
$DIMAZIN
 70
     0
  9
$DIMDSEP
 70
    44
  9
$DIMATFIT
 70
     3
  9
$DIMFRAC
 70
     0
  9
$DIMLDRBLK
  1

  9
$DIMLUNIT
 70
     2
  9
$DIMLWD
 70
    -2
  9
$DIMLWE
 70
    -2
  9
$DIMTMOVE
 70
     0
  9
$LUNITS
 70
     2
  9
$LUPREC
 70
     4
  9
$SKETCHINC
 40
1.0
  9
$FILLETRAD
 40
10.0
  9
$AUNITS
 70
     0
  9
$AUPREC
 70
     0
  9
$MENU
  1
.
  9
$ELEVATION
 40
0.0
  9
$PELEVATION
 40
0.0
  9
$THICKNESS
 40
0.0
  9
$LIMCHECK
 70
     0
  9
$CHAMFERA
 40
10.0
  9
$CHAMFERB
 40
10.0
  9
$CHAMFERC
 40
20.0
  9
$CHAMFERD
 40
0.0
  9
$SKPOLY
 70
     0
  9
$TDCREATE
 40
2455538.706392963
  9
$TDUCREATE
 40
2455538.664726296
  9
$TDUPDATE
 40
2455538.706392975
  9
$TDUUPDATE
 40
2455538.664726308
  9
$TDINDWG
 40
0.0000000116
  9
$TDUSRTIMER
 40
0.0000000116
  9
$USRTIMER
 70
     1
  9
$ANGBASE
 50
0.0
  9
$ANGDIR
 70
     0
  9
$PDMODE
 70
     0
  9
$PDSIZE
 40
0.0
  9
$PLINEWID
 40
0.0
  9
$SPLFRAME
 70
     0
  9
$SPLINETYPE
 70
     6
  9
$SPLINESEGS
 70
     8
  9
$HANDSEED
  5
32E
  9
$SURFTAB1
 70
     6
  9
$SURFTAB2
 70
     6
  9
$SURFTYPE
 70
     6
  9
$SURFU
 70
     6
  9
$SURFV
 70
     6
  9
$UCSBASE
  2

  9
$UCSNAME
  2

  9
$UCSORG
 10
0.0
 20
0.0
 30
0.0
  9
$UCSXDIR
 10
1.0
 20
0.0
 30
0.0
  9
$UCSYDIR
 10
0.0
 20
1.0
 30
0.0
  9
$UCSORTHOREF
  2

  9
$UCSORTHOVIEW
 70
     0
  9
$UCSORGTOP
 10
0.0
 20
0.0
 30
0.0
  9
$UCSORGBOTTOM
 10
0.0
 20
0.0
 30
0.0
  9
$UCSORGLEFT
 10
0.0
 20
0.0
 30
0.0
  9
$UCSORGRIGHT
 10
0.0
 20
0.0
 30
0.0
  9
$UCSORGFRONT
 10
0.0
 20
0.0
 30
0.0
  9
$UCSORGBACK
 10
0.0
 20
0.0
 30
0.0
  9
$PUCSBASE
  2

  9
$PUCSNAME
  2

  9
$PUCSORG
 10
0.0
 20
0.0
 30
0.0
  9
$PUCSXDIR
 10
1.0
 20
0.0
 30
0.0
  9
$PUCSYDIR
 10
0.0
 20
1.0
 30
0.0
  9
$PUCSORTHOREF
  2

  9
$PUCSORTHOVIEW
 70
     0
  9
$PUCSORGTOP
 10
0.0
 20
0.0
 30
0.0
  9
$PUCSORGBOTTOM
 10
0.0
 20
0.0
 30
0.0
  9
$PUCSORGLEFT
 10
0.0
 20
0.0
 30
0.0
  9
$PUCSORGRIGHT
 10
0.0
 20
0.0
 30
0.0
  9
$PUCSORGFRONT
 10
0.0
 20
0.0
 30
0.0
  9
$PUCSORGBACK
 10
0.0
 20
0.0
 30
0.0
  9
$USERI1
 70
     0
  9
$USERI2
 70
     0
  9
$USERI3
 70
     0
  9
$USERI4
 70
     0
  9
$USERI5
 70
     0
  9
$USERR1
 40
0.0
  9
$USERR2
 40
0.0
  9
$USERR3
 40
0.0
  9
$USERR4
 40
0.0
  9
$USERR5
 40
0.0
  9
$WORLDVIEW
 70
     1
  9
$SHADEDGE
 70
     3
  9
$SHADEDIF
 70
    70
  9
$TILEMODE
 70
     1
  9
$MAXACTVP
 70
    64
  9
$PINSBASE
 10
0.0
 20
0.0
 30
0.0
  9
$PLIMCHECK
 70
     0
  9
$PEXTMIN
 10
0.0
 20
0.0
 30
0.0
  9
$PEXTMAX
 10
1682.0
 20
2378.0
 30
0.0
  9
$PLIMMIN
 10
0.0
 20
0.0
  9
$PLIMMAX
 10
1682.0
 20
2378.0
  9
$UNITMODE
 70
     0
  9
$VISRETAIN
 70
     1
  9
$PLINEGEN
 70
     0
  9
$PSLTSCALE
 70
     1
  9
$TREEDEPTH
 70
  3020
  9
$CMLSTYLE
  2
Standard
  9
$CMLJUST
 70
     0
  9
$CMLSCALE
 40
20.0
  9
$PROXYGRAPHICS
 70
     1
  9
$MEASUREMENT
 70
     1
  9
$CELWEIGHT
370
    -1
  9
$ENDCAPS
280
     0
  9
$JOINSTYLE
280
     0
  9
$LWDISPLAY
290
     0
  9
$INSUNITS
 70
     4
  9
$HYPERLINKBASE
  1

  9
$STYLESHEET
  1

  9
$XEDIT
290
     1
  9
$CEPSNTYPE
380
     0
  9
$PSTYLEMODE
290
     1
  9
$FINGERPRINTGUID
  2
{71C71DE3-1D8E-4D56-BD43-1A8A8B6C27F9}
  9
$VERSIONGUID
  2
{FAEB1C32-E019-11D5-929B-00C0DF256EC4}
  9
$EXTNAMES
290
     1
  9
$PSVPSCALE
 40
0.0
  9
$OLESTARTUP
290
     0
  0
ENDSEC
  0
SECTION
  2
CLASSES
  0
CLASS
  1
ACDBDICTIONARYWDFLT
  2
AcDbDictionaryWithDefault
  3
ObjectDBX Classes
 90
        0
280
     0
281
     0
  0
CLASS
  1
VISUALSTYLE
  2
AcDbVisualStyle
  3
ObjectDBX Classes
 90
     4095
280
     0
281
     0
  0
CLASS
  1
SCALE
  2
AcDbScale
  3
ObjectDBX Classes
 90
     1153
280
     0
281
     0
  0
CLASS
  1
DICTIONARYVAR
  2
AcDbDictionaryVar
  3
ObjectDBX Classes
 90
        0
280
     0
281
     0
  0
CLASS
  1
ACDBPLACEHOLDER
  2
AcDbPlaceHolder
  3
ObjectDBX Classes
 90
        0
280
     0
281
     0
  0
CLASS
  1
LAYOUT
  2
AcDbLayout
  3
ObjectDBX Classes
 90
        0
280
     0
281
     0
  0
ENDSEC
  0
SECTION
  2
TABLES
  0
TABLE
  2
VPORT
  5
8
330
0
100
AcDbSymbolTable
 70
     1
  0
VPORT
  5
29
330
8
100
AcDbSymbolTableRecord
100
AcDbViewportTableRecord
  2
*Active
 70
     0
 10
0.0
 20
0.0
 11
1.0
 21
1.0
 12
344.1869158879
 22
148.5
 13
0.0
 23
0.0
 14
10.0
 24
10.0
 15
10.0
 25
10.0
 16
0.0
 26
0.0
 36
1.0
 17
0.0
 27
0.0
 37
0.0
 40
297.0
 41
1.9729729729
 42
50.0
 43
0.0
 44
0.0
 50
0.0
 51
0.0
 71
     0
 72
   100
 73
     1
 74
     3
 75
     0
 76
     0
 77
     0
 78
     0
281
     0
 65
     1
110
0.0
120
0.0
130
0.0
111
1.0
121
0.0
131
0.0
112
0.0
122
1.0
132
0.0
 79
     0
146
0.0
  0
ENDTAB
  0
TABLE
  2
LTYPE
  5
5
330
0
100
AcDbSymbolTable
 70
     2
  0
LTYPE
  5
14
330
5
100
AcDbSymbolTableRecord
100
AcDbLinetypeTableRecord
  2
ByBlock
 70
     0
  3

 72
    65
 73
     0
 40
0.0
  0
LTYPE
  5
15
330
5
100
AcDbSymbolTableRecord
100
AcDbLinetypeTableRecord
  2
ByLayer
 70
     0
  3

 72
    65
 73
     0
 40
0.0
  0
LTYPE
  5
16
330
5
100
AcDbSymbolTableRecord
100
AcDbLinetypeTableRecord
  2
Continuous
 70
     0
  3
Solid line
 72
    65
 73
     0
 40
0.0
  0
LTYPE
  5
60
330
5
100
AcDbSymbolTableRecord
100
AcDbLinetypeTableRecord
  2
CENTER2
 70
     0
  3
Center (.5x) ___ _ ___ _ ___ _ ___ _ ___ _ ___
 72
    65
 73
     4
 40
28.575
 49
19.05
 74
     4
 75
     0
340
0
 46
0.0
 50
0.0
 44
0.0
 45
0.0
 49
-3.175
 74
     4
 75
     0
340
0
 46
0.0
 50
0.0
 44
0.0
 45
0.0
 49
3.175
 74
     4
 75
     0
340
0
 46
0.0
 50
0.0
 44
0.0
 45
0.0
 49
-3.175
 74
     4
 75
     0
340
0
 46
0.0
 50
0.0
 44
0.0
 45
0.0
  0
ENDTAB
  0
TABLE
  2
LAYER
  5
2
330
0
100
AcDbSymbolTable
 70
    16
  0
LAYER
  5
10
330
2
100
AcDbSymbolTableRecord
100
AcDbLayerTableRecord
  2
0
 70
     0
 62
     7
  6
Continuous
370
    -3
390
F
  0
LAYER
  5
5D
330
2
100
AcDbSymbolTableRecord
100
AcDbLayerTableRecord
  2
Default
 70
     0
 62
     7
  6
Continuous
370
    -3
390
F
  0
LAYER
  5
87
330
2
100
AcDbSymbolTableRecord
100
AcDbLayerTableRecord
  2
$DDT_AUDIT_GENERATED_(87)
 70
     0
 62
     7
  6
Continuous
370
    -3
390
F
  0
LAYER
  5
AD
330
2
100
AcDbSymbolTableRecord
100
AcDbLayerTableRecord
  2
$DDT_AUDIT_GENERATED_(AD)
 70
     0
 62
     7
  6
Continuous
370
    -3
390
F
  0
LAYER
  5
BA
330
2
100
AcDbSymbolTableRecord
100
AcDbLayerTableRecord
  2
$DDT_AUDIT_GENERATED_(BA)
 70
     0
 62
     7
  6
Continuous
370
    -3
390
F
  0
LAYER
  5
F4
330
2
100
AcDbSymbolTableRecord
100
AcDbLayerTableRecord
  2
$DDT_AUDIT_GENERATED_(F4)
 70
     0
 62
     7
  6
Continuous
370
    -3
390
F
  0
LAYER
  5
102
330
2
100
AcDbSymbolTableRecord
100
AcDbLayerTableRecord
  2
$DDT_AUDIT_GENERATED_(102)
 70
     0
 62
     7
  6
Continuous
370
    -3
390
F
  0
LAYER
  5
10F
330
2
100
AcDbSymbolTableRecord
100
AcDbLayerTableRecord
  2
$DDT_AUDIT_GENERATED_(10F)
 70
     0
 62
     7
  6
Continuous
370
    -3
390
F
  0
LAYER
  5
11E
330
2
100
AcDbSymbolTableRecord
100
AcDbLayerTableRecord
  2
$DDT_AUDIT_GENERATED_(11E)
 70
     0
 62
     7
  6
Continuous
370
    -3
390
F
  0
LAYER
  5
12E
330
2
100
AcDbSymbolTableRecord
100
AcDbLayerTableRecord
  2
$DDT_AUDIT_GENERATED_(12E)
 70
     0
 62
     7
  6
Continuous
370
    -3
390
F
  0
LAYER
  5
15F
330
2
100
AcDbSymbolTableRecord
100
AcDbLayerTableRecord
  2
$DDT_AUDIT_GENERATED_(15F)
 70
     0
 62
     7
  6
Continuous
370
    -3
390
F
  0
LAYER
  5
210
330
2
100
AcDbSymbolTableRecord
100
AcDbLayerTableRecord
  2
$DDT_AUDIT_GENERATED_(210)
 70
     0
 62
     7
  6
Continuous
370
    -3
390
F
  0
LAYER
  5
21B
330
2
100
AcDbSymbolTableRecord
100
AcDbLayerTableRecord
  2
$DDT_AUDIT_GENERATED_(21B)
 70
     0
 62
     7
  6
Continuous
370
    -3
390
F
  0
LAYER
  5
254
330
2
100
AcDbSymbolTableRecord
100
AcDbLayerTableRecord
  2
$DDT_AUDIT_GENERATED_(254)
 70
     0
 62
     7
  6
Continuous
370
    -3
390
F
  0
LAYER
  5
26F
330
2
100
AcDbSymbolTableRecord
100
AcDbLayerTableRecord
  2
$DDT_AUDIT_GENERATED_(26F)
 70
     0
 62
     7
  6
Continuous
370
    -3
390
F
  0
LAYER
  5
2E3
330
2
100
AcDbSymbolTableRecord
100
AcDbLayerTableRecord
  2
$DDT_AUDIT_GENERATED_(2E3)
 70
     0
 62
     7
  6
Continuous
370
    -3
390
F
  0
ENDTAB
  0
TABLE
  2
STYLE
  5
3
330
0
100
AcDbSymbolTable
 70
     2
  0
STYLE
  5
11
330
3
100
AcDbSymbolTableRecord
100
AcDbTextStyleTableRecord
  2
Standard
 70
     0
 40
0.0
 41
1.0
 50
0.0
 71
     0
 42
2.5
  3
txt
  4

  0
STYLE
  5
31D
330
3
100
AcDbSymbolTableRecord
100
AcDbTextStyleTableRecord
  2
SEACAD_seiso_ttf
 70
     0
 40
0.0
 41
1.0
 50
0.0
 71
     0
 42
0.2
  3
seiso.ttf
  4

  0
ENDTAB
  0
TABLE
  2
VIEW
  5
6
330
0
100
AcDbSymbolTable
 70
     0
  0
ENDTAB
  0
TABLE
  2
UCS
  5
7
330
0
100
AcDbSymbolTable
 70
     0
  0
ENDTAB
  0
TABLE
  2
APPID
  5
9
330
0
100
AcDbSymbolTable
 70
     1
  0
APPID
  5
12
330
9
100
AcDbSymbolTableRecord
100
AcDbRegAppTableRecord
  2
ACAD
 70
     0
  0
ENDTAB
  0
TABLE
  2
DIMSTYLE
  5
A
330
0
100
AcDbSymbolTable
 70
     1
100
AcDbDimStyleTable
  0
DIMSTYLE
105
27
330
A
100
AcDbSymbolTableRecord
100
AcDbDimStyleTableRecord
  2
ISO-25
 70
     0
 41
2.5
 42
0.625
 43
3.75
 44
1.25
 73
     0
 74
     0
 77
     1
 78
     8
140
2.5
141
2.5
143
0.0393700787
147
0.625
171
     3
172
     1
271
     2
272
     2
274
     3
278
    44
283
     0
284
     8
340
11
  0
ENDTAB
  0
TABLE
  2
BLOCK_RECORD
  5
1
330
0
100
AcDbSymbolTable
 70
     9
  0
BLOCK_RECORD
  5
1F
330
1
100
AcDbSymbolTableRecord
100
AcDbBlockTableRecord
  2
*Model_Space
340
22
  0
BLOCK_RECORD
  5
1B
330
1
100
AcDbSymbolTableRecord
100
AcDbBlockTableRecord
  2
*Paper_Space
340
1E
  0
BLOCK_RECORD
  5
5E
330
1
100
AcDbSymbolTableRecord
100
AcDbBlockTableRecord
  2
SEANNOT_GROUP
340
0
102
{BLKREFS
331
5F
102
}
  0
BLOCK_RECORD
  5
65
330
1
100
AcDbSymbolTableRecord
100
AcDbBlockTableRecord
  2
SEANNOT_GROUP1
340
0
102
{BLKREFS
331
66
102
}
  0
BLOCK_RECORD
  5
6B
330
1
100
AcDbSymbolTableRecord
100
AcDbBlockTableRecord
  2
SEANNOT_GROUP2
340
0
102
{BLKREFS
331
6C
102
}
  0
BLOCK_RECORD
  5
71
330
1
100
AcDbSymbolTableRecord
100
AcDbBlockTableRecord
  2
SEANNOT_GROUP3
340
0
102
{BLKREFS
331
72
102
}
  0
BLOCK_RECORD
  5
7B
330
1
100
AcDbSymbolTableRecord
100
AcDbBlockTableRecord
  2
SEANNOT_GROUP4
340
0
102
{BLKREFS
331
7C
102
}
  0
BLOCK_RECORD
  5
85
330
1
100
AcDbSymbolTableRecord
100
AcDbBlockTableRecord
  2
SE
340
0
102
{BLKREFS
331
86
102
}
  0
BLOCK_RECORD
  5
167
330
1
100
AcDbSymbolTableRecord
100
AcDbBlockTableRecord
  2
SE1
340
0
102
{BLKREFS
331
168
102
}
  0
BLOCK_RECORD
  5
276
330
1
100
AcDbSymbolTableRecord
100
AcDbBlockTableRecord
  2
SE2
340
0
102
{BLKREFS
331
277
102
}
  0
ENDTAB
  0
ENDSEC
  0
SECTION
  2
BLOCKS
  0
BLOCK
  5
20
330
1F
100
AcDbEntity
  8
0
100
AcDbBlockBegin
  2
*Model_Space
 70
     0
 10
0.0
 20
0.0
 30
0.0
  3
*Model_Space
  1

  0
ENDBLK
  5
21
330
1F
100
AcDbEntity
  8
0
100
AcDbBlockEnd
  0
BLOCK
  5
1C
330
1B
100
AcDbEntity
 67
     1
  8
0
100
AcDbBlockBegin
  2
*Paper_Space
 70
     0
 10
0.0
 20
0.0
 30
0.0
  3
*Paper_Space
  1

  0
ENDBLK
  5
1D
330
1B
100
AcDbEntity
 67
     1
  8
0
100
AcDbBlockEnd
  0
BLOCK
  5
63
330
5E
100
AcDbEntity
  8
0
100
AcDbBlockBegin
  2
SEANNOT_GROUP
 70
     0
 10
0.0
 20
0.0
 30
0.0
  3
SEANNOT_GROUP
  1

  0
LINE
  5
61
330
5E
100
AcDbEntity
  8
Default
  6
CENTER2
 62
     7
100
AcDbLine
 10
163.7419020333
 20
260.7984598337
 30
0.0
 11
123.7419029273
 21
260.7984598337
 31
0.0
  0
LINE
  5
62
330
5E
100
AcDbEntity
  8
Default
  6
CENTER2
 62
     7
100
AcDbLine
 10
143.7419024803
 20
280.7984593866
 30
0.0
 11
143.7419024803
 21
240.7984602807
 31
0.0
  0
ENDBLK
  5
64
330
5E
100
AcDbEntity
  8
0
100
AcDbBlockEnd
  0
BLOCK
  5
69
330
65
100
AcDbEntity
  8
0
100
AcDbBlockBegin
  2
SEANNOT_GROUP1
 70
     0
 10
0.0
 20
0.0
 30
0.0
  3
SEANNOT_GROUP1
  1

  0
LINE
  5
67
330
65
100
AcDbEntity
  8
Default
  6
CENTER2
 62
     7
100
AcDbLine
 10
313.7419020333
 20
260.7984598337
 30
0.0
 11
273.7419029273
 21
260.7984598337
 31
0.0
  0
LINE
  5
68
330
65
100
AcDbEntity
  8
Default
  6
CENTER2
 62
     7
100
AcDbLine
 10
293.7419024803
 20
280.7984593866
 30
0.0
 11
293.7419024803
 21
240.7984602807
 31
0.0
  0
ENDBLK
  5
6A
330
65
100
AcDbEntity
  8
0
100
AcDbBlockEnd
  0
BLOCK
  5
6F
330
6B
100
AcDbEntity
  8
0
100
AcDbBlockBegin
  2
SEANNOT_GROUP2
 70
     0
 10
0.0
 20
0.0
 30
0.0
  3
SEANNOT_GROUP2
  1

  0
LINE
  5
6D
330
6B
100
AcDbEntity
  8
Default
  6
CENTER2
 62
     7
100
AcDbLine
 10
495.9943675044
 20
443.7548592172
 30
0.0
 11
455.9943683985
 21
443.7548592172
 31
0.0
  0
LINE
  5
6E
330
6B
100
AcDbEntity
  8
Default
  6
CENTER2
 62
     7
100
AcDbLine
 10
475.9943679514
 20
463.7548587702
 30
0.0
 11
475.9943679514
 21
423.7548596642
 31
0.0
  0
ENDBLK
  5
70
330
6B
100
AcDbEntity
  8
0
100
AcDbBlockEnd
  0
BLOCK
  5
79
330
71
100
AcDbEntity
  8
0
100
AcDbBlockBegin
  2
SEANNOT_GROUP3
 70
     0
 10
0.0
 20
0.0
 30
0.0
  3
SEANNOT_GROUP3
  1

  0
LINE
  5
73
330
71
100
AcDbEntity
  8
Default
  6
CENTER2
 62
     7
100
AcDbLine
 10
163.7419020333
 20
443.7548592172
 30
0.0
 11
123.7419029273
 21
443.7548592172
 31
0.0
  0
LINE
  5
74
330
71
100
AcDbEntity
  8
Default
  6
CENTER2
 62
     7
100
AcDbLine
 10
143.7419024803
 20
463.7548587702
 30
0.0
 11
143.7419024803
 21
423.7548596642
 31
0.0
  0
LINE
  5
75
330
71
100
AcDbEntity
  8
Default
  6
CENTER2
 62
     7
100
AcDbLine
 10
168.7419019215
 20
443.7548592172
 30
0.0
 11
182.1539654997
 21
443.7548592172
 31
0.0
  0
LINE
  5
76
330
71
100
AcDbEntity
  8
Default
  6
CENTER2
 62
     7
100
AcDbLine
 10
143.7419024803
 20
468.7548586584
 30
0.0
 11
143.7419024803
 21
482.1669222366
 31
0.0
  0
LINE
  5
77
330
71
100
AcDbEntity
  8
Default
  6
CENTER2
 62
     7
100
AcDbLine
 10
118.7419030391
 20
443.7548592172
 30
0.0
 11
105.3298394609
 21
443.7548592172
 31
0.0
  0
LINE
  5
78
330
71
100
AcDbEntity
  8
Default
  6
CENTER2
 62
     7
100
AcDbLine
 10
143.7419024803
 20
418.754859776
 30
0.0
 11
143.7419024803
 21
405.3427961978
 31
0.0
  0
ENDBLK
  5
7A
330
71
100
AcDbEntity
  8
0
100
AcDbBlockEnd
  0
BLOCK
  5
83
330
7B
100
AcDbEntity
  8
0
100
AcDbBlockBegin
  2
SEANNOT_GROUP4
 70
     0
 10
0.0
 20
0.0
 30
0.0
  3
SEANNOT_GROUP4
  1

  0
LINE
  5
7D
330
7B
100
AcDbEntity
  8
Default
  6
CENTER2
 62
     7
100
AcDbLine
 10
313.7419020333
 20
443.7548592172
 30
0.0
 11
273.7419029273
 21
443.7548592172
 31
0.0
  0
LINE
  5
7E
330
7B
100
AcDbEntity
  8
Default
  6
CENTER2
 62
     7
100
AcDbLine
 10
293.7419024803
 20
463.7548587702
 30
0.0
 11
293.7419024803
 21
423.7548596642
 31
0.0
  0
LINE
  5
7F
330
7B
100
AcDbEntity
  8
Default
  6
CENTER2
 62
     7
100
AcDbLine
 10
318.7419019215
 20
443.7548592172
 30
0.0
 11
332.1539654997
 21
443.7548592172
 31
0.0
  0
LINE
  5
80
330
7B
100
AcDbEntity
  8
Default
  6
CENTER2
 62
     7
100
AcDbLine
 10
293.7419024803
 20
468.7548586584
 30
0.0
 11
293.7419024803
 21
482.1669222366
 31
0.0
  0
LINE
  5
81
330
7B
100
AcDbEntity
  8
Default
  6
CENTER2
 62
     7
100
AcDbLine
 10
268.7419030391
 20
443.7548592172
 30
0.0
 11
255.3298394609
 21
443.7548592172
 31
0.0
  0
LINE
  5
82
330
7B
100
AcDbEntity
  8
Default
  6
CENTER2
 62
     7
100
AcDbLine
 10
293.7419024803
 20
418.754859776
 30
0.0
 11
293.7419024803
 21
405.3427961978
 31
0.0
  0
ENDBLK
  5
84
330
7B
100
AcDbEntity
  8
0
100
AcDbBlockEnd
  0
BLOCK
  5
165
330
85
100
AcDbEntity
  8
0
100
AcDbBlockBegin
  2
SE
 70
     0
 10
0.0
 20
0.0
 30
0.0
  3
SE
  1

  0
LINE
  5
88
330
85
100
AcDbEntity
  8
$DDT_AUDIT_GENERATED_(87)
  6
Continuous
 62
     7
100
AcDbLine
 10
324.7419024803
 20
467.2548592172
 30
0.0
 11
324.7419024803
 21
420.2548592172
 31
0.0
  0
LINE
  5
89
330
85
100
AcDbEntity
  8
$DDT_AUDIT_GENERATED_(87)
  6
Continuous
 62
     7
100
AcDbLine
 10
112.7419024803
 20
420.2548592172
 30
0.0
 11
112.7419024803
 21
467.2548592172
 31
0.0
  0
LINE
  5
8A
330
85
100
AcDbEntity
  8
$DDT_AUDIT_GENERATED_(87)
  6
Continuous
 62
     7
100
AcDbLine
 10
240.8414581263
 20
419.7570916582
 30
0.0
 11
239.8198239681
 21
419.7570916582
 31
0.0
  0
LINE
  5
8B
330
85
100
AcDbEntity
  8
$DDT_AUDIT_GENERATED_(87)
  6
Continuous
 62
     7
100
AcDbLine
 10
197.6639809944
 20
419.7570916582
 30
0.0
 11
196.6423468343
 21
419.7570916582
 31
0.0
  0
ARC
  5
8C
330
85
100
AcDbEntity
  8
$DDT_AUDIT_GENERATED_(87)
  6
Continuous
 62
     7
100
AcDbCircle
 10
194.534356211
 20
383.1908796839
 30
0.0
 40
39.40771652927979
100
AcDbArc
 50
92.4400183891
 51
100.4580422305
  0
SPLINE
  5
8D
330
85
100
AcDbEntity
  8
$DDT_AUDIT_GENERATED_(87)
  6
Continuous
 62
     7
100
AcDbSpline
210
0.0
220
0.0
230
1.0
 70
     8
 71
     5
 72
    12
 73
     6
 74
     0
 42
0.0000000022280405
 43
0.0000000001
 40
0.3850986914116318
 40
0.3850986914116318
 40
0.3850986914116318
 40
0.3850986914116318
 40
0.3850986914116318
 40
0.3850986914116318
 40
0.392245677562177
 40
0.392245677562177
 40
0.392245677562177
 40
0.392245677562177
 40
0.392245677562177
 40
0.392245677562177
 10
197.4912169214147
 20
421.4728182667807
 30
0.0
 10
197.4869810938239
 20
421.4775967027092
 30
0.0
 10
197.4827134783534
 20
421.4823666198503
 30
0.0
 10
197.4784139612511
 20
421.4871279683445
 30
0.0
 10
197.4740824299084
 20
421.491880698187
 30
0.0
 10
197.469718772918
 20
421.4966247592398
 30
0.0
  0
SPLINE
  5
8E
330
85
100
AcDbEntity
  8
$DDT_AUDIT_GENERATED_(87)
  6
Continuous
 62
     7
100
AcDbSpline
210
0.0
220
0.0
230
1.0
 70
     8
 71
     5
 72
    14
 73
     8
 74
     0
 42
0.0000000012298013
 43
0.0000000001
 40
0.407476577836922
 40
0.407476577836922
 40
0.407476577836922
 40
0.407476577836922
 40
0.407476577836922
 40
0.407476577836922
 40
0.4999995149733907
 40
0.7499997574866953
 40
1.0
 40
1.0
 40
1.0
 40
1.0
 40
1.0
 40
1.0
 10
197.4217522913554
 20
421.5467763985464
 30
0.0
 10
197.3616776907327
 20
421.6072173339901
 30
0.0
 10
197.1189162412189
 20
421.8253935073659
 30
0.0
 10
196.5631076686417
 20
422.1644829626129
 30
0.0
 10
195.7429952819709
 20
422.4201404704279
 30
0.0
 10
194.664413626815
 20
422.5645427230778
 30
0.0
 10
193.4909959627331
 20
422.5798026608333
 30
0.0
 10
192.8566324437039
 20
422.5628667433477
 30
0.0
  0
ARC
  5
8F
330
85
100
AcDbEntity
  8
$DDT_AUDIT_GENERATED_(87)
  6
Continuous
 62
     7
100
AcDbCircle
 10
208.5879216834
 20
464.7118548074
 30
0.0
 40
44.98900594547789
100
AcDbArc
 50
249.5328902135
 51
255.7810393859
  0
ARC
  5
90
330
85
100
AcDbEntity
  8
$DDT_AUDIT_GENERATED_(87)
  6
Continuous
 62
     7
100
AcDbCircle
 10
228.9253046122
 20
464.5284940143
 30
0.0
 40
44.80694731785288
100
AcDbArc
 50
284.2401456864
 51
290.5138493068
  0
ARC
  5
91
330
85
100
AcDbEntity
  8
$DDT_AUDIT_GENERATED_(87)
  6
Continuous
 62
     7
100
AcDbCircle
 10
242.9541911349
 20
383.2328337015
 30
0.0
 40
39.36559876050983
100
AcDbArc
 50
79.5376620693
 51
87.5642781206
  0
SPLINE
  5
92
330
85
100
AcDbEntity
  8
$DDT_AUDIT_GENERATED_(87)
  6
Continuous
 62
     7
100
AcDbSpline
210
0.0
220
0.0
230
1.0
 70
     8
 71
     6
 72
    20
 73
    13
 74
     0
 42
0.0000000004275091
 43
0.0000000001
 40
0.0
 40
0.0
 40
0.0
 40
0.0
 40
0.0
 40
0.0
 40
0.0
 40
0.142857142857
 40
0.285714285714
 40
0.4285714285710001
 40
0.5714285714289999
 40
0.714285714286
 40
0.857142857143
 40
1.0
 40
1.0
 40
1.0
 40
1.0
 40
1.0
 40
1.0
 40
1.0
 10
218.7419025102754
 20
451.4575725346386
 30
0.0
 10
219.3217403033488
 20
451.4575723215106
 30
0.0
 10
220.467869557058
 20
451.3624405842408
 30
0.0
 10
222.1612621705239
 20
450.96351635029
 30
0.0
 10
224.1786239443774
 20
450.0354860577386
 30
0.0
 10
226.5051798752035
 20
448.5677491156466
 30
0.0
 10
228.9338410546507
 20
446.4025874766364
 30
0.0
 10
231.1965572054856
 20
444.0233083680906
 30
0.0
 10
232.8385196354988
 20
441.8136974835392
 30
0.0
 10
234.1267120940085
 20
439.9796418215628
 30
0.0
 10
235.0149843823575
 20
438.5261117042702
 30
0.0
 10
235.5920405885424
 20
437.5411733096094
 30
0.0
 10
235.8744852354902
 20
437.041450300824
 30
0.0
  0
LINE
  5
93
330
85
100
AcDbEntity
  8
$DDT_AUDIT_GENERATED_(87)
  6
Continuous
 62
     7
100
AcDbLine
 10
235.8750800683
 20
398.8199722252
 30
0.0
 11
218.7419025266
 21
398.8199722252
 31
0.0
  0
LINE
  5
94
330
85
100
AcDbEntity
  8
$DDT_AUDIT_GENERATED_(87)
  6
Continuous
 62
     7
100
AcDbLine
 10
218.7419025266
 20
398.8199722252
 30
0.0
 11
201.6086531021
 21
398.8199722252
 31
0.0
  0
SPLINE
  5
95
330
85
100
AcDbEntity
  8
$DDT_AUDIT_GENERATED_(87)
  6
Continuous
 62
     7
100
AcDbSpline
210
0.0
220
0.0
230
1.0
 70
     8
 71
     3
 72
     8
 73
     4
 74
     0
 42
0.0000000031379757
 43
0.0000000001
 40
0.3255008654829384
 40
0.3255008654829384
 40
0.3255008654829384
 40
0.3255008654829384
 40
0.3282828270660824
 40
0.3282828270660824
 40
0.3282828270660824
 40
0.3282828270660824
 10
199.620160092449
 20
400.6079855989436
 30
0.0
 10
199.6196914620675
 20
400.6109128807015
 30
0.0
 10
199.6193080770898
 20
400.6138422420811
 30
0.0
 10
199.6190099788803
 20
400.6167736908318
 30
0.0
  0
LINE
  5
96
330
85
100
AcDbEntity
  8
$DDT_AUDIT_GENERATED_(87)
  6
Continuous
 62
     7
100
AcDbLine
 10
218.7419025196
 20
402.4780453972
 30
0.0
 11
218.7419026459
 21
451.4575723561
 31
0.0
  0
SPLINE
  5
97
330
85
100
AcDbEntity
  8
$DDT_AUDIT_GENERATED_(87)
  6
Continuous
 62
     7
100
AcDbSpline
210
0.0
220
0.0
230
1.0
 70
     8
 71
     3
 72
    27
 73
    23
 74
     0
 42
0.0000000004289396
 43
0.0000000001
 40
0.0
 40
0.0
 40
0.0
 40
0.0
 40
0.0322295612666253
 40
0.0658074703057957
 40
0.1010433098590821
 40
0.1572476953731423
 40
0.2183053532882713
 40
0.2838115967633489
 40
0.3503575477458838
 40
0.4256069726701512
 40
0.459444050564499
 40
0.4839669385165895
 40
0.5475055295651555
 40
0.5825914847584621
 40
0.6029472966316006
 40
0.6409410457828644
 40
0.6645886665826564
 40
0.6831322432511097
 40
0.7459992381734147
 40
0.8739429484810471
 40
0.9376079949516786
 40
1.0
 40
1.0
 40
1.0
 40
1.0
 10
218.7419025102754
 20
451.4575725346386
 30
0.0
 10
218.4816836036899
 20
451.4505857160007
 30
0.0
 10
217.9503593950511
 20
451.4363199733299
 30
0.0
 10
217.1449789525106
 20
451.3234176365006
 30
0.0
 10
216.1710196114456
 20
451.1094033173409
 30
0.0
 10
215.0278374572947
 20
450.7320559358469
 30
0.0
 10
213.7338678371773
 20
450.1460034145803
 30
0.0
 10
212.4466030641417
 20
449.4092380567083
 30
0.0
 10
211.140681290603
 20
448.5176273139965
 30
0.0
 10
210.0933153416279
 20
447.6868708860185
 30
0.0
 10
209.3288400932486
 20
447.0173137401308
 30
0.0
 10
208.6469147285813
 20
446.3890808392325
 30
0.0
 10
207.979887618883
 20
445.7294757470531
 30
0.0
 10
207.3573835972199
 20
445.0681909145188
 30
0.0
 10
206.878928773883
 20
444.5385021353039
 30
0.0
 10
206.4666769608416
 20
444.0647345470857
 30
0.0
 10
206.0717097314298
 20
443.5924990475946
 30
0.0
 10
205.5611209463115
 20
442.9659691211963
 30
0.0
 10
204.5695632772739
 20
441.6881552385126
 30
0.0
 10
203.434475268898
 20
440.0525250933286
 30
0.0
 10
202.3630371211127
 20
438.3490659710437
 30
0.0
 10
201.8591549984315
 20
437.4749383604961
 30
0.0
 10
201.609319874911
 20
437.0414505752801
 30
0.0
  0
SPLINE
  5
98
330
85
100
AcDbEntity
  8
$DDT_AUDIT_GENERATED_(87)
  6
Continuous
 62
     7
100
AcDbSpline
210
0.0
220
0.0
230
1.0
 70
     8
 71
     3
 72
    18
 73
    14
 74
     0
 42
0.0000000005376495
 43
0.0000000001
 40
0.0
 40
0.0
 40
0.0
 40
0.0
 40
0.0605185870804168
 40
0.1260989569569216
 40
0.2521556744721035
 40
0.3763715265953365
 40
0.4175209316139012
 40
0.5008480291522781
 40
0.5646661388556836
 40
0.6263394280055657
 40
0.6880209630099025
 40
0.7512638279018607
 40
0.8296832229338641
 40
0.8296832229338641
 40
0.8296832229338641
 40
0.8296832229338641
 10
201.609319874911
 20
437.0414505752801
 30
0.0
 10
201.4132344734255
 20
436.6886816478928
 30
0.0
 10
201.004727309582
 20
435.9536232593658
 30
0.0
 10
200.2309026825756
 20
434.4509896187936
 30
0.0
 10
199.3378786642497
 20
432.5284620521177
 30
0.0
 10
198.6497525711885
 20
430.7328192043787
 30
0.0
 10
198.1620692298212
 20
429.2148288544703
 30
0.0
 10
197.8516962146007
 20
428.0758372308275
 30
0.0
 10
197.5929413039451
 20
426.8381233416657
 30
0.0
 10
197.4290580021629
 20
425.7525763663883
 30
0.0
 10
197.3335880738908
 20
424.6995873324053
 30
0.0
 10
197.3078536532467
 20
423.5898494790488
 30
0.0
 10
197.3455821818047
 20
422.8436294365674
 30
0.0
 10
197.3865019082482
 20
422.443329203074
 30
0.0
  0
SPLINE
  5
99
330
85
100
AcDbEntity
  8
$DDT_AUDIT_GENERATED_(87)
  6
Continuous
 62
     7
100
AcDbSpline
210
0.0
220
0.0
230
1.0
 70
     8
 71
     5
 72
    14
 73
     8
 74
     0
 42
0.0000000012297987
 43
0.0000000001
 40
0.0
 40
0.0
 40
0.0
 40
0.0
 40
0.0
 40
0.0
 40
0.2500002425189749
 40
0.5000004850379498
 40
0.5925203274807163
 40
0.5925203274807163
 40
0.5925203274807163
 40
0.5925203274807163
 40
0.5925203274807163
 40
0.5925203274807163
 10
244.6271725168978
 20
422.5628667433477
 30
0.0
 10
243.9928089978687
 20
422.5798026608333
 30
0.0
 10
242.8193913337867
 20
422.5645427230778
 30
0.0
 10
241.7408153119644
 20
422.4201412246277
 30
0.0
 10
240.9207058587115
 20
422.1644856331616
 30
0.0
 10
240.3648974282169
 20
421.825398820459
 30
0.0
 10
240.1221360433031
 20
421.6072252188632
 30
0.0
 10
240.062062716147
 20
421.5467865066343
 30
0.0
  0
SPLINE
  5
9A
330
85
100
AcDbEntity
  8
$DDT_AUDIT_GENERATED_(87)
  6
Continuous
 62
     7
100
AcDbSpline
210
0.0
220
0.0
230
1.0
 70
     8
 71
     5
 72
    12
 73
     6
 74
     0
 42
0.0000000022280265
 43
0.0000000001
 40
0.6077512276769999
 40
0.6077512276769999
 40
0.6077512276769999
 40
0.6077512276769999
 40
0.6077512276769999
 40
0.6077512276769999
 40
0.6148948302705823
 40
0.6148948302705823
 40
0.6148948302705823
 40
0.6148948302705823
 40
0.6148948302705823
 40
0.6148948302705823
 10
240.014095635457
 20
421.4966350305459
 30
0.0
 10
240.0097339887102
 20
421.4918932304549
 30
0.0
 10
240.0054044373449
 20
421.4871427697153
 30
0.0
 10
240.0011068701127
 20
421.4823836983938
 30
0.0
 10
239.9968411745667
 20
421.4776160664247
 30
0.0
 10
239.9926072371182
 20
421.4728399235969
 30
0.0
  0
SPLINE
  5
9B
330
85
100
AcDbEntity
  8
$DDT_AUDIT_GENERATED_(87)
  6
Continuous
 62
     7
100
AcDbSpline
210
0.0
220
0.0
230
1.0
 70
     8
 71
     7
 72
    19
 73
    11
 74
     0
 42
0.0000000005362622
 43
0.0000000001
 40
0.0
 40
0.0
 40
0.0
 40
0.0
 40
0.0
 40
0.0
 40
0.0
 40
0.0
 40
0.2499641684737447
 40
0.4999761123158298
 40
0.7499880561579149
 40
0.8297001717613199
 40
0.8297001717613199
 40
0.8297001717613199
 40
0.8297001717613199
 40
0.8297001717613199
 40
0.8297001717613199
 40
0.8297001717613199
 40
0.8297001717613199
 10
235.8744852354902
 20
437.041450300824
 30
0.0
 10
236.2254567760755
 20
436.4203450437411
 30
0.0
 10
236.9092338275795
 20
435.1610867458248
 30
0.0
 10
237.8787924464912
 20
433.231201820139
 30
0.0
 10
238.8342260782707
 20
431.0251108146816
 30
0.0
 10
239.5741347751908
 20
428.8194532617011
 30
0.0
 10
240.0411411977433
 20
426.6814416944126
 30
0.0
 10
240.20531499569
 20
424.6735995082541
 30
0.0
 10
240.1749784088838
 20
423.3470390257775
 30
0.0
 10
240.1122585414523
 20
422.6195143086575
 30
0.0
 10
240.0944617660781
 20
422.4452394282001
 30
0.0
  0
SPLINE
  5
9C
330
85
100
AcDbEntity
  8
$DDT_AUDIT_GENERATED_(87)
  6
Continuous
 62
     7
100
AcDbSpline
210
0.0
220
0.0
230
1.0
 70
     8
 71
     3
 72
     8
 73
     4
 74
     0
 42
0.0000000031340474
 43
0.0000000001
 40
0.6708975057753227
 40
0.6708975057753227
 40
0.6708975057753227
 40
0.6708975057753227
 40
0.6738128723752653
 40
0.6738128723752653
 40
0.6738128723752653
 40
0.6738128723752653
 10
237.8647160391059
 20
400.616884893787
 30
0.0
 10
237.864404047636
 20
400.6138095436564
 30
0.0
 10
237.8639983016989
 20
400.6107363986815
 30
0.0
 10
237.863498843635
 20
400.6076654578031
 30
0.0
  0
LINE
  5
9D
330
85
100
AcDbEntity
  8
$DDT_AUDIT_GENERATED_(87)
  6
Continuous
 62
     7
100
AcDbLine
 10
218.7419025196
 20
402.4780453972
 30
0.0
 11
218.7419025266
 21
398.8199722252
 31
0.0
  0
ARC
  5
9E
330
85
100
AcDbEntity
  8
$DDT_AUDIT_GENERATED_(87)
  6
Continuous
 62
     7
100
AcDbCircle
 10
279.7419024803
 20
382.4282725593
 30
0.0
 40
38.42141912338524
100
AcDbArc
 50
76.4002322516
 51
103.6000669085
  0
ARC
  5
9F
330
85
100
AcDbEntity
  8
$DDT_AUDIT_GENERATED_(87)
  6
Continuous
 62
     7
100
AcDbCircle
 10
197.9213792562
 20
-1171.4678508696
 30
0.0
 40
1591.225456573151
100
AcDbArc
 50
90.046054547
 51
90.1065840634
  0
LINE
  5
A0
330
85
100
AcDbEntity
  8
$DDT_AUDIT_GENERATED_(87)
  6
Continuous
 62
     7
100
AcDbLine
 10
324.2419024803
 20
467.7548592172
 30
0.0
 11
113.2419024803
 21
467.7548592172
 31
0.0
  0
LINE
  5
A1
330
85
100
AcDbEntity
  8
$DDT_AUDIT_GENERATED_(87)
  6
Continuous
 62
     7
100
AcDbLine
 10
288.7515218629
 20
419.7548592172
 30
0.0
 11
324.2419024803
 21
419.7548592172
 31
0.0
  0
LINE
  5
A2
330
85
100
AcDbEntity
  8
$DDT_AUDIT_GENERATED_(87)
  6
Continuous
 62
     7
100
AcDbLine
 10
242.5179079126
 20
419.7548592172
 30
0.0
 11
270.7262355406
 21
419.7548592172
 31
0.0
  0
LINE
  5
A3
330
85
100
AcDbEntity
  8
$DDT_AUDIT_GENERATED_(87)
  6
Continuous
 62
     7
100
AcDbLine
 10
113.2419024803
 20
419.7548592172
 30
0.0
 11
194.9658970963
 21
419.7548592172
 31
0.0
  0
ARC
  5
A4
330
85
100
AcDbEntity
  8
$DDT_AUDIT_GENERATED_(87)
  6
Continuous
 62
     7
100
AcDbCircle
 10
239.5624257045
 20
-1171.4678508229
 30
0.0
 40
1591.225456526427
100
AcDbArc
 50
89.8934159366
 51
89.953945453
  0
LINE
  5
A5
330
85
100
AcDbEntity
  8
$DDT_AUDIT_GENERATED_(87)
  6
Continuous
 62
     7
100
AcDbLine
 10
197.3892729749
 20
422.4464889194
 30
0.0
 11
199.6191569476
 21
400.6158781531
 31
0.0
  0
LINE
  5
A6
330
85
100
AcDbEntity
  8
$DDT_AUDIT_GENERATED_(87)
  6
Continuous
 62
     7
100
AcDbLine
 10
237.8645428114
 20
400.6148482098
 30
0.0
 11
240.0945460537
 21
422.4466266265
 31
0.0
  0
ARC
  5
A7
330
85
100
AcDbEntity
  8
$DDT_AUDIT_GENERATED_(87)
  6
Continuous
 62
     7
100
AcDbCircle
 10
201.6089453121
 20
400.8199707332
 30
0.0
 40
1.99999850857606
100
AcDbArc
 50
186.148570406
 51
269.4227156477
  0
ARC
  5
A8
330
85
100
AcDbEntity
  8
$DDT_AUDIT_GENERATED_(87)
  6
Continuous
 62
     7
100
AcDbCircle
 10
235.8748431129
 20
400.8199706166
 30
0.0
 40
1.999992506581554
100
AcDbArc
 50
270.5518159044
 51
353.8200206951
  0
ARC
  5
A9
330
85
100
AcDbEntity
  8
$DDT_AUDIT_GENERATED_(87)
  6
Continuous
 62
     7
100
AcDbCircle
 10
324.2419024803
 20
467.2548592172
 30
0.0
 40
0.5000000000000004
100
AcDbArc
 50
0.0
 51
90.0
  0
ARC
  5
AA
330
85
100
AcDbEntity
  8
$DDT_AUDIT_GENERATED_(87)
  6
Continuous
 62
     7
100
AcDbCircle
 10
324.2419024803
 20
420.2548592172
 30
0.0
 40
0.5000000000000004
100
AcDbArc
 50
270.0
 51
0.0
  0
ARC
  5
AB
330
85
100
AcDbEntity
  8
$DDT_AUDIT_GENERATED_(87)
  6
Continuous
 62
     7
100
AcDbCircle
 10
113.2419024803
 20
420.2548592172
 30
0.0
 40
0.5000000000000004
100
AcDbArc
 50
180.0
 51
270.0
  0
ARC
  5
AC
330
85
100
AcDbEntity
  8
$DDT_AUDIT_GENERATED_(87)
  6
Continuous
 62
     7
100
AcDbCircle
 10
113.2419024803
 20
467.2548592172
 30
0.0
 40
0.5000000000000004
100
AcDbArc
 50
90.0
 51
180.0
  0
LINE
  5
AE
330
85
100
AcDbEntity
  8
$DDT_AUDIT_GENERATED_(AD)
  6
Continuous
 62
     7
100
AcDbLine
 10
112.7419024803
 20
467.2548592172
 30
0.0
 11
112.7419024803
 21
420.2548592172
 31
0.0
  0
LINE
  5
AF
330
85
100
AcDbEntity
  8
$DDT_AUDIT_GENERATED_(AD)
  6
Continuous
 62
     7
100
AcDbLine
 10
104.7419024803
 20
467.2548592172
 30
0.0
 11
104.7419024803
 21
420.2548592172
 31
0.0
  0
LINE
  5
B0
330
85
100
AcDbEntity
  8
$DDT_AUDIT_GENERATED_(AD)
  6
Continuous
 62
     7
100
AcDbLine
 10
105.2419024803
 20
419.7548592172
 30
0.0
 11
112.2419024803
 21
419.7548592172
 31
0.0
  0
LINE
  5
B1
330
85
100
AcDbEntity
  8
$DDT_AUDIT_GENERATED_(AD)
  6
Continuous
 62
     7
100
AcDbLine
 10
112.2419024803
 20
467.7548592172
 30
0.0
 11
105.2419024803
 21
467.7548592172
 31
0.0
  0
ARC
  5
B2
330
85
100
AcDbEntity
  8
$DDT_AUDIT_GENERATED_(AD)
  6
Continuous
 62
     7
100
AcDbCircle
 10
112.2419024803
 20
467.2548592172
 30
0.0
 40
0.5000000000000004
100
AcDbArc
 50
0.0
 51
90.0
  0
ARC
  5
B3
330
85
100
AcDbEntity
  8
$DDT_AUDIT_GENERATED_(AD)
  6
Continuous
 62
     7
100
AcDbCircle
 10
112.2419024803
 20
420.2548592172
 30
0.0
 40
0.5000000000000004
100
AcDbArc
 50
270.0
 51
0.0
  0
LINE
  5
B4
330
85
100
AcDbEntity
  8
$DDT_AUDIT_GENERATED_(AD)
  6
Continuous
 62
     7
100
AcDbLine
 10
104.2419024803
 20
463.9048592172
 30
0.0
 11
104.0419024803
 21
463.9048592172
 31
0.0
  0
LINE
  5
B5
330
85
100
AcDbEntity
  8
$DDT_AUDIT_GENERATED_(AD)
  6
Continuous
 62
     7
100
AcDbLine
 10
104.0419024803
 20
423.6048592172
 30
0.0
 11
104.2419024803
 21
423.6048592172
 31
0.0
  0
ARC
  5
B6
330
85
100
AcDbEntity
  8
$DDT_AUDIT_GENERATED_(AD)
  6
Continuous
 62
     7
100
AcDbCircle
 10
105.2419024803
 20
420.2548592172
 30
0.0
 40
0.5000000000000004
100
AcDbArc
 50
180.0
 51
270.0
  0
ARC
  5
B7
330
85
100
AcDbEntity
  8
$DDT_AUDIT_GENERATED_(AD)
  6
Continuous
 62
     7
100
AcDbCircle
 10
105.2419024803
 20
467.2548592172
 30
0.0
 40
0.5000000000000004
100
AcDbArc
 50
90.0
 51
180.0
  0
ARC
  5
B8
330
85
100
AcDbEntity
  8
$DDT_AUDIT_GENERATED_(AD)
  6
Continuous
 62
     7
100
AcDbCircle
 10
104.2419024803
 20
423.1048592172
 30
0.0
 40
0.5000000000000004
100
AcDbArc
 50
0.0
 51
90.0
  0
ARC
  5
B9
330
85
100
AcDbEntity
  8
$DDT_AUDIT_GENERATED_(AD)
  6
Continuous
 62
     7
100
AcDbCircle
 10
104.2419024803
 20
464.4048592172
 30
0.0
 40
0.5000000000000004
100
AcDbArc
 50
270.0
 51
0.0
  0
LINE
  5
BB
330
85
100
AcDbEntity
  8
$DDT_AUDIT_GENERATED_(BA)
  6
Continuous
 62
     7
100
AcDbLine
 10
52.0419043876
 20
427.1725148571
 30
0.0
 11
52.0419043876
 21
451.069232689
 31
0.0
  0
LINE
  5
BC
330
85
100
AcDbEntity
  8
$DDT_AUDIT_GENERATED_(BA)
  6
Continuous
 62
     7
100
AcDbLine
 10
52.0419043876
 20
451.069232689
 30
0.0
 11
52.0419043876
 21
460.3335541964
 31
0.0
  0
ARC
  5
BD
330
85
100
AcDbEntity
  8
$DDT_AUDIT_GENERATED_(BA)
  6
Continuous
 62
     7
100
AcDbCircle
 10
107.1560467398
 20
65.5380928595
 30
0.0
 40
400.3046126633203
100
AcDbArc
 50
90.5187827524
 51
94.2367666921
  0
SPLINE
  5
BE
330
85
100
AcDbEntity
  8
$DDT_AUDIT_GENERATED_(BA)
  6
Continuous
 62
     7
100
AcDbSpline
210
0.0
220
0.0
230
1.0
 70
     8
 71
     3
 72
    16
 73
    12
 74
     0
 42
0.0000000061741794
 43
0.0000000001
 40
0.2202976669699241
 40
0.2202976669699241
 40
0.2202976669699241
 40
0.2202976669699241
 40
0.2500000000000003
 40
0.2500000000000003
 40
0.3750000000000005
 40
0.3750000000000005
 40
0.5000000000000007
 40
0.5000000000000007
 40
0.7500000000000003
 40
0.7500000000000003
 40
0.8589030956073588
 40
0.8589030956073588
 40
0.8589030956073588
 40
0.8589030956073588
 10
76.61092444967902
 20
464.666440538255
 30
0.0
 10
76.57655966010391
 20
464.6631693217296
 30
0.0
 10
76.5435756235511
 20
464.6599424307212
 30
0.0
 10
76.37871221301737
 20
464.6433000023145
 30
0.0
 10
76.26991929774643
 20
464.6305718523889
 30
0.0
 10
76.08190884542346
 20
464.6044179502585
 30
0.0
 10
76.00432639709537
 20
464.5911765641757
 30
0.0
 10
75.80873961713017
 20
464.5501471676013
 30
0.0
 10
75.72470801912506
 20
464.5205401570025
 30
0.0
 10
75.64728649544931
 20
464.4729770998209
 30
0.0
 10
75.62968376413687
 20
464.4579454329816
 30
0.0
 10
75.61735251575155
 20
464.4422722792353
 30
0.0
  0
LINE
  5
BF
330
85
100
AcDbEntity
  8
$DDT_AUDIT_GENERATED_(BA)
  6
Continuous
 62
     7
100
AcDbLine
 10
76.0419024803
 20
466.2548592172
 30
0.0
 11
76.0419024803
 21
464.8728438152
 31
0.0
  0
SPLINE
  5
C0
330
85
100
AcDbEntity
  8
$DDT_AUDIT_GENERATED_(BA)
  6
Continuous
 62
     7
100
AcDbSpline
210
0.0
220
0.0
230
1.0
 70
     8
 71
     3
 72
    10
 73
     6
 74
     0
 42
0.0000000107271582
 43
0.0000000001
 40
0.5361106686821672
 40
0.5361106686821672
 40
0.5361106686821672
 40
0.5361106686821672
 40
0.7500000000000003
 40
0.7500000000000003
 40
0.8589310871356273
 40
0.8589310871356273
 40
0.8589310871356273
 40
0.8589310871356273
 10
75.88549114557982
 20
422.9443873828909
 30
0.0
 10
75.78509851332166
 20
422.9683722077687
 30
0.0
 10
75.71692213857773
 20
422.9941408511052
 30
0.0
 10
75.64728078939618
 20
423.0369259854583
 30
0.0
 10
75.62967411360184
 20
423.0519628846166
 30
0.0
 10
75.6173417123542
 20
423.0676415183782
 30
0.0
  0
LINE
  5
C1
330
85
100
AcDbEntity
  8
$DDT_AUDIT_GENERATED_(BA)
  6
Continuous
 62
     7
100
AcDbLine
 10
76.0419024803
 20
421.2548592172
 30
0.0
 11
76.0419024803
 21
439.9216724462
 31
0.0
  0
LINE
  5
C2
330
85
100
AcDbEntity
  8
$DDT_AUDIT_GENERATED_(BA)
  6
Continuous
 62
     7
100
AcDbLine
 10
104.0419024803
 20
465.0808421603
 30
0.0
 11
104.0419024803
 21
458.362478428
 31
0.0
  0
LINE
  5
C3
330
85
100
AcDbEntity
  8
$DDT_AUDIT_GENERATED_(BA)
  6
Continuous
 62
     7
100
AcDbLine
 10
104.0419024803
 20
445.2017326656
 30
0.0
 11
104.0419024803
 21
441.2261883889
 31
0.0
  0
LINE
  5
C4
330
85
100
AcDbEntity
  8
$DDT_AUDIT_GENERATED_(BA)
  6
Continuous
 62
     7
100
AcDbLine
 10
104.0419024803
 20
465.326594096
 30
0.0
 11
104.0419024803
 21
465.0808421603
 31
0.0
  0
LINE
  5
C5
330
85
100
AcDbEntity
  8
$DDT_AUDIT_GENERATED_(BA)
  6
Continuous
 62
     7
100
AcDbLine
 10
104.0419024803
 20
465.326406075
 30
0.0
 11
104.0419024803
 21
465.4053163333
 31
0.0
  0
LINE
  5
C6
330
85
100
AcDbEntity
  8
$DDT_AUDIT_GENERATED_(BA)
  6
Continuous
 62
     7
100
AcDbLine
 10
104.0419024803
 20
465.4053163333
 30
0.0
 11
104.0419024803
 21
467.2548592172
 31
0.0
  0
LINE
  5
C7
330
85
100
AcDbEntity
  8
$DDT_AUDIT_GENERATED_(BA)
  6
Continuous
 62
     7
100
AcDbLine
 10
104.0419024803
 20
440.8463413989
 30
0.0
 11
104.0419024803
 21
441.2261883889
 31
0.0
  0
LINE
  5
C8
330
85
100
AcDbEntity
  8
$DDT_AUDIT_GENERATED_(BA)
  6
Continuous
 62
     7
100
AcDbLine
 10
104.0419024803
 20
440.8463413989
 30
0.0
 11
104.0419024803
 21
420.2548592172
 31
0.0
  0
ARC
  5
C9
330
85
100
AcDbEntity
  8
$DDT_AUDIT_GENERATED_(BA)
  6
Continuous
 62
     7
100
AcDbCircle
 10
103.5419023791
 20
465.326406075
 30
0.0
 40
0.4999975550250955
100
AcDbArc
 50
0.0
 51
91.1862360266
  0
ELLIPSE
  5
CA
330
85
100
AcDbEntity
  8
$DDT_AUDIT_GENERATED_(BA)
  6
Continuous
 62
     7
100
AcDbEllipse
 10
75.5419024803
 20
464.8728438152
 30
0.0
 11
-0.5000000000000004
 21
1.387778780781446E-14
 31
0.0
210
0.0
220
0.0
230
1.0
 40
0.9951733831
 41
3.042171469690246
 42
3.141592653589793
  0
ARC
  5
CB
330
85
100
AcDbEntity
  8
$DDT_AUDIT_GENERATED_(BA)
  6
Continuous
 62
     7
100
AcDbCircle
 10
557.6712466533
 20
437.967127595
 30
0.0
 40
504.4830149769868
100
AcDbArc
 50
181.386251774
 51
181.3948274545
  0
SPLINE
  5
CC
330
85
100
AcDbEntity
  8
$DDT_AUDIT_GENERATED_(BA)
  6
Continuous
 62
     7
100
AcDbSpline
210
0.0
220
0.0
230
1.0
 70
     8
 71
     3
 72
    16
 73
    12
 74
     0
 42
0.0000000066575708
 43
0.0000000001
 40
0.0
 40
0.0
 40
0.0
 40
0.0
 40
0.2500000000000001
 40
0.2500000000000001
 40
0.5000000000000002
 40
0.5000000000000002
 40
0.7500000000000003
 40
0.7500000000000003
 40
0.8750000000000001
 40
0.8750000000000001
 40
1.0
 40
1.0
 40
1.0
 40
1.0
 10
53.34468404817258
 20
450.5301945441449
 30
0.0
 10
53.16379100420454
 20
450.5388377327824
 30
0.0
 10
52.99146146244254
 20
450.5589735189295
 30
0.0
 10
52.67200476450229
 20
450.6209176390197
 30
0.0
 10
52.53001166634644
 20
450.6619108622283
 30
0.0
 10
52.29321104810958
 20
450.7601001879447
 30
0.0
 10
52.200098679056
 20
450.8167720425598
 30
0.0
 10
52.10584537187835
 20
450.9081281220617
 30
0.0
 10
52.08215143592171
 20
450.9393595290805
 30
0.0
 10
52.05013700478273
 20
451.0033841935957
 30
0.0
 10
52.04190438764986
 20
451.0367492622277
 30
0.0
 10
52.04190438764986
 20
451.0692326889629
 30
0.0
  0
ARC
  5
CD
330
85
100
AcDbEntity
  8
$DDT_AUDIT_GENERATED_(BA)
  6
Continuous
 62
     7
100
AcDbCircle
 10
109.0274823183
 20
719.5316647277
 30
0.0
 40
274.6966127742265
100
AcDbArc
 50
258.3197266764
 51
268.8540496906
  0
SPLINE
  5
CE
330
85
100
AcDbEntity
  8
$DDT_AUDIT_GENERATED_(BA)
  6
Continuous
 62
     7
100
AcDbSpline
210
0.0
220
0.0
230
1.0
 70
     8
 71
     3
 72
    10
 73
     6
 74
     0
 42
0.000000027139258
 43
0.0000000001
 40
0.0
 40
0.0
 40
0.0
 40
0.0
 40
0.5000000000000001
 40
0.5000000000000001
 40
1.0
 40
1.0
 40
1.0
 40
1.0
 10
103.7016943244542
 20
445.1160092871804
 30
0.0
 10
103.802159479508
 20
445.1221498385904
 30
0.0
 10
103.8888322214887
 20
445.1339534533325
 30
0.0
 10
104.0094313978473
 20
445.1645943559491
 30
0.0
 10
104.041902480301
 20
445.18328526262
 30
0.0
 10
104.0419024803009
 20
445.2017326655717
 30
0.0
  0
ARC
  5
CF
330
85
100
AcDbEntity
  8
$DDT_AUDIT_GENERATED_(BA)
  6
Continuous
 62
     7
100
AcDbCircle
 10
88.2265920667
 20
435.0103304451
 30
0.0
 40
18.48251970770458
100
AcDbArc
 50
33.1456711026
 51
34.0305631141
  0
ARC
  5
D0
330
85
100
AcDbEntity
  8
$DDT_AUDIT_GENERATED_(BA)
  6
Continuous
 62
     7
100
AcDbCircle
 10
99.7924556287
 20
447.8454136777
 30
0.0
 40
4.767787275833415
100
AcDbArc
 50
321.6931651497
 51
325.07751157
  0
LINE
  5
D1
330
85
100
AcDbEntity
  8
$DDT_AUDIT_GENERATED_(BA)
  6
Continuous
 62
     7
100
AcDbLine
 10
53.3446206697
 20
461.8172473228
 30
0.0
 11
53.415043566
 21
461.8266316227
 31
0.0
  0
ARC
  5
D2
330
85
100
AcDbEntity
  8
$DDT_AUDIT_GENERATED_(BA)
  6
Continuous
 62
     7
100
AcDbCircle
 10
104.1081017843
 20
122.4446771264
 30
0.0
 40
343.1470489298133
100
AcDbArc
 50
96.148421461
 51
98.4953902336
  0
ARC
  5
D3
330
85
100
AcDbEntity
  8
$DDT_AUDIT_GENERATED_(BA)
  6
Continuous
 62
     7
100
AcDbCircle
 10
104.1081017843
 20
122.4446771264
 30
0.0
 40
343.1470489298133
100
AcDbArc
 50
90.0959003366
 51
95.7467540217
  0
ARC
  5
D4
330
85
100
AcDbEntity
  8
$DDT_AUDIT_GENERATED_(BA)
  6
Continuous
 62
     7
100
AcDbCircle
 10
103.557231901
 20
465.0760212621
 30
0.0
 40
0.4846945548032985
100
AcDbArc
 50
0.5698881308
 51
72.6545959901
  0
ARC
  5
D5
330
85
100
AcDbEntity
  8
$DDT_AUDIT_GENERATED_(BA)
  6
Continuous
 62
     7
100
AcDbCircle
 10
103.4587340169
 20
465.0568693326
 30
0.0
 40
0.539615833704434
100
AcDbArc
 50
63.2356955045
 51
82.0089511865
  0
ARC
  5
D6
330
85
100
AcDbEntity
  8
$DDT_AUDIT_GENERATED_(BA)
  6
Continuous
 62
     7
100
AcDbCircle
 10
104.2022827703
 20
464.6369750294
 30
0.0
 40
1.03131469985822
100
AcDbArc
 50
119.0353820477
 51
129.6803718599
  0
ARC
  5
D7
330
85
100
AcDbEntity
  8
$DDT_AUDIT_GENERATED_(BA)
  6
Continuous
 62
     7
100
AcDbCircle
 10
53.5395372965
 20
460.3323522818
 30
0.0
 40
1.497633391106455
100
AcDbArc
 50
97.4782464697
 51
179.9540176935
  0
LINE
  5
D8
330
85
100
AcDbEntity
  8
$DDT_AUDIT_GENERATED_(BA)
  6
Continuous
 62
     7
100
AcDbLine
 10
104.0419024803
 20
454.5518238626
 30
0.0
 11
104.0419024803
 21
445.2017326656
 31
0.0
  0
LINE
  5
D9
330
85
100
AcDbEntity
  8
$DDT_AUDIT_GENERATED_(BA)
  6
Continuous
 62
     7
100
AcDbLine
 10
104.0419024803
 20
457.5151351382
 30
0.0
 11
104.0419024803
 21
454.5885186958
 31
0.0
  0
LINE
  5
DA
330
85
100
AcDbEntity
  8
$DDT_AUDIT_GENERATED_(BA)
  6
Continuous
 62
     7
100
AcDbLine
 10
104.0419024803
 20
457.5151351382
 30
0.0
 11
104.0419024803
 21
458.0616137767
 31
0.0
  0
LINE
  5
DB
330
85
100
AcDbEntity
  8
$DDT_AUDIT_GENERATED_(BA)
  6
Continuous
 62
     7
100
AcDbLine
 10
104.0419024803
 20
458.362478428
 30
0.0
 11
104.0419024803
 21
458.0616137767
 31
0.0
  0
ARC
  5
DC
330
85
100
AcDbEntity
  8
$DDT_AUDIT_GENERATED_(BA)
  6
Continuous
 62
     7
100
AcDbCircle
 10
88.598477169
 20
-15889.1637973777
 30
0.0
 40
16341.20543921657
100
AcDbArc
 50
89.9695189704
 51
90.07610793
  0
ARC
  5
DD
330
85
100
AcDbEntity
  8
$DDT_AUDIT_GENERATED_(BA)
  6
Continuous
 62
     7
100
AcDbCircle
 10
97.3137583769
 20
453.0174866675
 30
0.0
 40
0.9784013350202366
100
AcDbArc
 50
268.72016647
 51
358.6934623151
  0
LINE
  5
DE
330
85
100
AcDbEntity
  8
$DDT_AUDIT_GENERATED_(BA)
  6
Continuous
 62
     7
100
AcDbLine
 10
98.2919053413
 20
460.1834627038
 30
0.0
 11
98.2919053413
 21
452.9951777393
 31
0.0
  0
SPLINE
  5
DF
330
85
100
AcDbEntity
  8
$DDT_AUDIT_GENERATED_(BA)
  6
Continuous
 62
     7
100
AcDbSpline
210
0.0
220
0.0
230
1.0
 70
     8
 71
     3
 72
    10
 73
     6
 74
     0
 42
0.0000000078670988
 43
0.0000000001
 40
0.0
 40
0.0
 40
0.0
 40
0.0
 40
0.25
 40
0.25
 40
0.4593493986265786
 40
0.4593493986265786
 40
0.4593493986265786
 40
0.4593493986265786
 10
98.29190534132387
 20
458.6617804425599
 30
0.0
 10
98.29190534132387
 20
458.7635145763539
 30
0.0
 10
98.26635626163737
 20
458.862484118033
 30
0.0
 10
98.17535152928384
 20
459.0322537140933
 30
0.0
 10
98.11728384965721
 20
459.1038721186955
 30
0.0
 10
98.04563232335654
 20
459.1664245151088
 30
0.0
  0
SPLINE
  5
E0
330
85
100
AcDbEntity
  8
$DDT_AUDIT_GENERATED_(BA)
  6
Continuous
 62
     7
100
AcDbSpline
210
0.0
220
0.0
230
1.0
 70
     8
 71
     3
 72
    10
 73
     6
 74
     0
 42
0.0000000077700905
 43
0.0000000001
 40
0.5480116626823508
 40
0.5480116626823508
 40
0.5480116626823508
 40
0.5480116626823508
 40
0.75
 40
0.75
 40
1.0
 40
1.0
 40
1.0
 40
1.0
 10
98.05206848912434
 20
460.6899049776513
 30
0.0
 10
98.120463705754
 20
460.6279031718949
 30
0.0
 10
98.17634210663772
 20
460.5571733232212
 30
0.0
 10
98.26568511666592
 20
460.3886671160992
 30
0.0
 10
98.29190534132387
 20
460.2867036147658
 30
0.0
 10
98.29190534132385
 20
460.1834627038334
 30
0.0
  0
LINE
  5
E1
330
85
100
AcDbEntity
  8
$DDT_AUDIT_GENERATED_(BA)
  6
Continuous
 62
     7
100
AcDbLine
 10
65.4419053413
 20
453.4123046833
 30
0.0
 11
65.4419053413
 21
459.8210705066
 31
0.0
  0
ARC
  5
E2
330
85
100
AcDbEntity
  8
$DDT_AUDIT_GENERATED_(BA)
  6
Continuous
 62
     7
100
AcDbCircle
 10
66.8678346197
 20
453.453547551
 30
0.0
 40
1.426525597720433
100
AcDbArc
 50
181.6567326821
 51
270.9668359385
  0
SPLINE
  5
E3
330
85
100
AcDbEntity
  8
$DDT_AUDIT_GENERATED_(BA)
  6
Continuous
 62
     7
100
AcDbSpline
210
0.0
220
0.0
230
1.0
 70
     8
 71
     3
 72
    16
 73
    12
 74
     0
 42
0.0000000050814763
 43
0.0000000001
 40
0.1977460199599964
 40
0.1977460199599964
 40
0.1977460199599964
 40
0.1977460199599964
 40
0.2500000000000036
 40
0.2500000000000036
 40
0.3750000000000053
 40
0.3750000000000053
 40
0.5000000000000071
 40
0.5000000000000071
 40
0.7500000000000036
 40
0.7500000000000036
 40
1.0
 40
1.0
 40
1.0
 40
1.0
 10
66.44508909667931
 20
459.356838919775
 30
0.0
 10
66.40691773199079
 20
459.347547797932
 30
0.0
 10
66.36927276261737
 20
459.3370837082271
 30
0.0
 10
66.24438573745981
 20
459.2978213322011
 30
0.0
 10
66.16095435413591
 20
459.2639774251145
 30
0.0
 10
66.00322735672817
 20
459.1839575135351
 30
0.0
 10
65.92907319484026
 20
459.1376042532273
 30
0.0
 10
65.72980847511167
 20
458.9855719560144
 30
0.0
 10
65.62298040709919
 20
458.8629537716841
 30
0.0
 10
65.47992008997544
 20
458.596730208172
 30
0.0
 10
65.44190534132383
 20
458.4506281999251
 30
0.0
 10
65.44190534132385
 20
458.3019270857127
 30
0.0
  0
SPLINE
  5
E4
330
85
100
AcDbEntity
  8
$DDT_AUDIT_GENERATED_(BA)
  6
Continuous
 62
     7
100
AcDbSpline
210
0.0
220
0.0
230
1.0
 70
     8
 71
     3
 72
    16
 73
    12
 74
     0
 42
0.0000000050382993
 43
0.0000000001
 40
0.0
 40
0.0
 40
0.0
 40
0.0
 40
0.2499999999999968
 40
0.2499999999999968
 40
0.3749999999999973
 40
0.3749999999999973
 40
0.4999999999999979
 40
0.4999999999999979
 40
0.7499999999999989
 40
0.7499999999999989
 40
0.8114364524027818
 40
0.8114364524027818
 40
0.8114364524027818
 40
0.8114364524027818
 10
65.44190534132385
 20
459.8210705066368
 30
0.0
 10
65.44190534132385
 20
459.9719997111882
 30
0.0
 10
65.47919345741357
 20
460.1185588164823
 30
0.0
 10
65.5873095085242
 20
460.3231495547513
 30
0.0
 10
65.63141670164693
 20
460.3876229969487
 30
0.0
 10
65.73562310818842
 20
460.5093644341561
 30
0.0
 10
65.79640633874905
 20
460.5669996100344
 30
0.0
 10
65.9960731930729
 20
460.7219624041932
 30
0.0
 10
66.15742539359634
 20
460.8053095663834
 30
0.0
 10
66.37535451658833
 20
460.875111950779
 30
0.0
 10
66.41934999999296
 20
460.8873070611313
 30
0.0
 10
66.46412492106325
 20
460.8978731347628
 30
0.0
  0
ARC
  5
E5
330
85
100
AcDbEntity
  8
$DDT_AUDIT_GENERATED_(BA)
  6
Continuous
 62
     7
100
AcDbCircle
 10
117.1811310008
 20
26.0722139856
 30
0.0
 40
440.3319202902131
100
AcDbArc
 50
95.412756291
 51
96.1856305067
  0
ARC
  5
E6
330
85
100
AcDbEntity
  8
$DDT_AUDIT_GENERATED_(BA)
  6
Continuous
 62
     7
100
AcDbCircle
 10
117.1811310008
 20
26.0722139856
 30
0.0
 40
440.3319202902131
100
AcDbArc
 50
96.4972455412
 51
98.3400740321
  0
ARC
  5
E7
330
85
100
AcDbEntity
  8
$DDT_AUDIT_GENERATED_(BA)
  6
Continuous
 62
     7
100
AcDbCircle
 10
117.1799530296
 20
861.4590781289
 30
0.0
 40
440.3530905727388
100
AcDbArc
 50
261.6604863377
 51
264.5876561677
  0
LINE
  5
E8
330
85
100
AcDbEntity
  8
$DDT_AUDIT_GENERATED_(BA)
  6
Continuous
 62
     7
100
AcDbLine
 10
103.5419024803
 20
467.7548592172
 30
0.0
 11
77.5419024803
 21
467.7548592172
 31
0.0
  0
LINE
  5
E9
330
85
100
AcDbEntity
  8
$DDT_AUDIT_GENERATED_(BA)
  6
Continuous
 62
     7
100
AcDbLine
 10
77.5419024803
 20
419.7548592172
 30
0.0
 11
103.5419024803
 21
419.7548592172
 31
0.0
  0
ARC
  5
EA
330
85
100
AcDbEntity
  8
$DDT_AUDIT_GENERATED_(BA)
  6
Continuous
 62
     7
100
AcDbCircle
 10
53.5418978495
 20
427.1733208438
 30
0.0
 40
1.499975347952979
100
AcDbArc
 50
179.943237838
 51
262.1897514979
  0
ARC
  5
EB
330
85
100
AcDbEntity
  8
$DDT_AUDIT_GENERATED_(BA)
  6
Continuous
 62
     7
100
AcDbCircle
 10
77.5419024803
 20
421.2548592172
 30
0.0
 40
1.500000000000001
100
AcDbArc
 50
180.0
 51
270.0
  0
ARC
  5
EC
330
85
100
AcDbEntity
  8
$DDT_AUDIT_GENERATED_(BA)
  6
Continuous
 62
     7
100
AcDbCircle
 10
77.5419024803
 20
466.2548592172
 30
0.0
 40
1.499999999999998
100
AcDbArc
 50
90.0
 51
180.0
  0
SPLINE
  5
ED
330
85
100
AcDbEntity
  8
$DDT_AUDIT_GENERATED_(BA)
  6
Continuous
 62
     7
100
AcDbSpline
210
0.0
220
0.0
230
1.0
 70
     8
 71
     3
 72
    12
 73
     8
 74
     0
 42
0.000000012459918
 43
0.0000000001
 40
0.5799065226074872
 40
0.5799065226074872
 40
0.5799065226074872
 40
0.5799065226074872
 40
0.6359612802528233
 40
0.7604711398766727
 40
0.8683870914114435
 40
0.9853397137787789
 40
1.0
 40
1.0
 40
1.0
 40
1.0
 10
75.8752680354301
 20
422.955301067484
 30
0.0
 10
75.87530281521818
 20
422.9552686251821
 30
0.0
 10
75.8815386856774
 20
422.9524376662813
 30
0.0
 10
75.91651684309228
 20
422.9312479267462
 30
0.0
 10
75.98648001907341
 20
422.8510607494106
 30
0.0
 10
76.03621922546577
 20
422.736833041571
 30
0.0
 10
76.03174569572218
 20
422.6854132066365
 30
0.0
 10
76.03116810944982
 20
422.6786933628546
 30
0.0
  0
ARC
  5
EE
330
85
100
AcDbEntity
  8
$DDT_AUDIT_GENERATED_(BA)
  6
Continuous
 62
     7
100
AcDbCircle
 10
103.5419024803
 20
420.2548592172
 30
0.0
 40
0.5000000000000004
100
AcDbArc
 50
270.0
 51
0.0
  0
ARC
  5
EF
330
85
100
AcDbEntity
  8
$DDT_AUDIT_GENERATED_(BA)
  6
Continuous
 62
     7
100
AcDbCircle
 10
103.5419024803
 20
467.2548592172
 30
0.0
 40
0.5000000000000004
100
AcDbArc
 50
0.0
 51
90.0
  0
SPLINE
  5
F0
330
85
100
AcDbEntity
  8
$DDT_AUDIT_GENERATED_(BA)
  6
Continuous
 62
     7
100
AcDbSpline
210
0.0
220
0.0
230
1.0
 70
     8
 71
     3
 72
    11
 73
     7
 74
     0
 42
0.0000000126197758
 43
0.0000000001
 40
0.0
 40
0.0
 40
0.0
 40
0.0
 40
0.0915920474851875
 40
0.2091511183489912
 40
0.3200504773205374
 40
0.4151859807397646
 40
0.4151859807397646
 40
0.4151859807397646
 40
0.4151859807397646
 10
76.02843262012814
 20
464.8248483140853
 30
0.0
 10
76.02138323894245
 20
464.7783525362029
 30
0.0
 10
76.0090779963063
 20
464.690852188859
 30
0.0
 10
75.93174292582233
 20
464.592695533387
 30
0.0
 10
75.88844234383185
 20
464.5609322735265
 30
0.0
 10
75.87523421351081
 20
464.5547084064335
 30
0.0
 10
75.87498559580347
 20
464.5544713015408
 30
0.0
  0
ARC
  5
F1
330
85
100
AcDbEntity
  8
$DDT_AUDIT_GENERATED_(BA)
  6
Continuous
 62
     7
100
AcDbCircle
 10
100.185141785
 20
456.0148995497
 30
0.0
 40
1.112689944788572
100
AcDbArc
 50
251.8595722343
 51
273.6029124919
  0
LINE
  5
F2
330
85
100
AcDbEntity
  8
$DDT_AUDIT_GENERATED_(BA)
  6
Continuous
 62
     7
100
AcDbLine
 10
103.5419542813
 20
454.9027675122
 30
0.0
 11
100.255094347
 21
454.9029616641
 31
0.0
  0
SPLINE
  5
F3
330
85
100
AcDbEntity
  8
$DDT_AUDIT_GENERATED_(BA)
  6
Continuous
 62
     7
100
AcDbSpline
210
0.0
220
0.0
230
1.0
 70
     8
 71
     3
 72
    14
 73
    10
 74
     0
 42
0.0000000145714922
 43
0.0000000001
 40
0.0
 40
0.0
 40
0.0
 40
0.0
 40
0.0125526020872616
 40
0.1870823440461273
 40
0.3497069635244045
 40
0.5304091611628999
 40
0.7530811407807293
 40
0.9986116626310817
 40
1.0
 40
1.0
 40
1.0
 40
1.0
 10
104.0403722582172
 20
454.5527220868807
 30
0.0
 10
104.0409187171239
 20
454.5556979811481
 30
0.0
 10
104.0478885206725
 20
454.5939515527256
 30
0.0
 10
104.019193598408
 20
454.674128578503
 30
0.0
 10
103.956158427655
 20
454.7648293589044
 30
0.0
 10
103.8553836599461
 20
454.8381803729076
 30
0.0
 10
103.7188334413822
 20
454.8871065674623
 30
0.0
 10
103.598528712488
 20
454.9071663743144
 30
0.0
 10
103.5420132548713
 20
454.9023256232638
 30
0.0
 10
103.5416452630737
 20
454.9022940691793
 30
0.0
  0
LINE
  5
F5
330
85
100
AcDbEntity
  8
$DDT_AUDIT_GENERATED_(F4)
  6
Continuous
 62
     7
100
AcDbLine
 10
66.4463527763
 20
460.3791901423
 30
0.0
 11
66.4463527763
 21
453.450986912
 31
0.0
  0
ARC
  5
F6
330
85
100
AcDbEntity
  8
$DDT_AUDIT_GENERATED_(F4)
  6
Continuous
 62
     7
100
AcDbCircle
 10
99.3474250008
 20
709.1553516075
 30
0.0
 40
255.8250053111575
100
AcDbArc
 50
262.9996556388
 51
269.4836388002
  0
LINE
  5
F7
330
85
100
AcDbEntity
  8
$DDT_AUDIT_GENERATED_(F4)
  6
Continuous
 62
     7
100
AcDbLine
 10
67.2057647798
 20
456.2079651665
 30
0.0
 11
67.2057647798
 21
463.194812573
 31
0.0
  0
LINE
  5
F8
330
85
100
AcDbEntity
  8
$DDT_AUDIT_GENERATED_(F4)
  6
Continuous
 62
     7
100
AcDbLine
 10
98.041909313
 20
461.1349638885
 30
0.0
 11
98.041909313
 21
454.2067606582
 31
0.0
  0
LINE
  5
F9
330
85
100
AcDbEntity
  8
$DDT_AUDIT_GENERATED_(F4)
  6
Continuous
 62
     7
100
AcDbLine
 10
98.041909313
 20
454.2067606582
 30
0.0
 11
98.041909313
 21
452.3528885091
 31
0.0
  0
ELLIPSE
  5
FA
330
85
100
AcDbEntity
  8
$DDT_AUDIT_GENERATED_(F4)
  6
Continuous
 62
     7
100
AcDbEllipse
 10
68.1686734696
 20
456.1034398831
 30
0.0
 11
0.8739875975606881
 21
-0.4859482269852552
 31
0.0
210
0.0
220
0.0
230
0.9999999999999999
 40
0.8343817832
 41
3.609832339440925
 42
5.146763962937268
  0
LINE
  5
FB
330
85
100
AcDbEntity
  8
$DDT_AUDIT_GENERATED_(F4)
  6
Continuous
 62
     7
100
AcDbLine
 10
66.4463527763
 20
452.0991787832
 30
0.0
 11
66.4463527763
 21
453.450986912
 31
0.0
  0
ARC
  5
FC
330
85
100
AcDbEntity
  8
$DDT_AUDIT_GENERATED_(F4)
  6
Continuous
 62
     7
100
AcDbCircle
 10
97.041909313
 20
461.1349638885
 30
0.0
 40
1.000000000000001
100
AcDbArc
 50
0.0
 51
89.4593282235
  0
ARC
  5
FD
330
85
100
AcDbEntity
  8
$DDT_AUDIT_GENERATED_(F4)
  6
Continuous
 62
     7
100
AcDbCircle
 10
72.7328212817
 20
460.3649082134
 30
0.0
 40
6.280671855518959
100
AcDbArc
 50
149.8843109525
 51
178.8661503047
  0
ARC
  5
FE
330
85
100
AcDbEntity
  8
$DDT_AUDIT_GENERATED_(F4)
  6
Continuous
 62
     7
100
AcDbCircle
 10
99.4720562571
 20
719.0079605885
 30
0.0
 40
256.8860765390871
100
AcDbArc
 50
263.0279494447
 51
269.4600669923
  0
ARC
  5
FF
330
85
100
AcDbEntity
  8
$DDT_AUDIT_GENERATED_(F4)
  6
Continuous
 62
     7
100
AcDbCircle
 10
68.1686734696
 20
463.0316431134
 30
0.0
 40
0.9999999999999981
100
AcDbArc
 50
82.9609739583
 51
90.0
  0
ARC
  5
100
330
85
100
AcDbEntity
  8
$DDT_AUDIT_GENERATED_(F4)
  6
Continuous
 62
     7
100
AcDbCircle
 10
68.1686734696
 20
463.0316431134
 30
0.0
 40
1.000000000000001
100
AcDbArc
 50
90.0
 51
150.9253836453
  0
SPLINE
  5
101
330
85
100
AcDbEntity
  8
$DDT_AUDIT_GENERATED_(F4)
  6
Continuous
 62
     7
100
AcDbSpline
210
0.0
220
0.0
230
1.0
 70
     8
 71
     3
 72
    13
 73
     9
 74
     0
 42
0.0000000049144476
 43
0.0000000001
 40
0.4886336260151464
 40
0.4886336260151464
 40
0.4886336260151464
 40
0.4886336260151464
 40
0.5214389497245598
 40
0.6141100432417267
 40
0.7186055051870388
 40
0.8205540762595417
 40
0.9304070101697346
 40
1.0
 40
1.0
 40
1.0
 40
1.0
 10
66.45240977902527
 20
458.2320188698574
 30
0.0
 10
66.44227836276687
 20
458.2260127853078
 30
0.0
 10
66.399465549769
 20
458.2018281866645
 30
0.0
 10
66.29503948404205
 20
458.1536285343653
 30
0.0
 10
66.10960155034718
 20
458.093910042649
 30
0.0
 10
65.88072641580322
 20
458.0464217332388
 30
0.0
 10
65.6486801875307
 20
458.0195197384467
 30
0.0
 10
65.50956270936653
 20
458.0195751539567
 30
0.0
 10
65.44627338088344
 20
458.0198740451311
 30
0.0
  0
LINE
  5
103
330
85
100
AcDbEntity
  8
$DDT_AUDIT_GENERATED_(102)
  6
Continuous
 62
     7
100
AcDbLine
 10
332.7419024803
 20
420.2548592172
 30
0.0
 11
332.7419024803
 21
467.2548592172
 31
0.0
  0
LINE
  5
104
330
85
100
AcDbEntity
  8
$DDT_AUDIT_GENERATED_(102)
  6
Continuous
 62
     7
100
AcDbLine
 10
324.7419024803
 20
420.2548592172
 30
0.0
 11
324.7419024803
 21
467.2548592172
 31
0.0
  0
LINE
  5
105
330
85
100
AcDbEntity
  8
$DDT_AUDIT_GENERATED_(102)
  6
Continuous
 62
     7
100
AcDbLine
 10
332.2419024803
 20
467.7548592172
 30
0.0
 11
325.2419024803
 21
467.7548592172
 31
0.0
  0
LINE
  5
106
330
85
100
AcDbEntity
  8
$DDT_AUDIT_GENERATED_(102)
  6
Continuous
 62
     7
100
AcDbLine
 10
325.2419024803
 20
419.7548592172
 30
0.0
 11
332.2419024803
 21
419.7548592172
 31
0.0
  0
ARC
  5
107
330
85
100
AcDbEntity
  8
$DDT_AUDIT_GENERATED_(102)
  6
Continuous
 62
     7
100
AcDbCircle
 10
332.2419024803
 20
467.2548592172
 30
0.0
 40
0.5000000000000004
100
AcDbArc
 50
0.0
 51
90.0
  0
ARC
  5
108
330
85
100
AcDbEntity
  8
$DDT_AUDIT_GENERATED_(102)
  6
Continuous
 62
     7
100
AcDbCircle
 10
332.2419024803
 20
420.2548592172
 30
0.0
 40
0.5000000000000004
100
AcDbArc
 50
270.0
 51
0.0
  0
ARC
  5
109
330
85
100
AcDbEntity
  8
$DDT_AUDIT_GENERATED_(102)
  6
Continuous
 62
     7
100
AcDbCircle
 10
325.2419024803
 20
420.2548592172
 30
0.0
 40
0.5000000000000004
100
AcDbArc
 50
180.0
 51
270.0
  0
ARC
  5
10A
330
85
100
AcDbEntity
  8
$DDT_AUDIT_GENERATED_(102)
  6
Continuous
 62
     7
100
AcDbCircle
 10
325.2419024803
 20
467.2548592172
 30
0.0
 40
0.5000000000000004
100
AcDbArc
 50
90.0
 51
180.0
  0
LINE
  5
10B
330
85
100
AcDbEntity
  8
$DDT_AUDIT_GENERATED_(102)
  6
Continuous
 62
     7
100
AcDbLine
 10
333.9919024803
 20
463.3048592172
 30
0.0
 11
333.2419024803
 21
463.3048592172
 31
0.0
  0
LINE
  5
10C
330
85
100
AcDbEntity
  8
$DDT_AUDIT_GENERATED_(102)
  6
Continuous
 62
     7
100
AcDbLine
 10
333.2419024803
 20
424.2048592172
 30
0.0
 11
333.9919024803
 21
424.2048592172
 31
0.0
  0
ARC
  5
10D
330
85
100
AcDbEntity
  8
$DDT_AUDIT_GENERATED_(102)
  6
Continuous
 62
     7
100
AcDbCircle
 10
333.2419024803
 20
463.8048592172
 30
0.0
 40
0.5000000000000004
100
AcDbArc
 50
180.0
 51
270.0
  0
ARC
  5
10E
330
85
100
AcDbEntity
  8
$DDT_AUDIT_GENERATED_(102)
  6
Continuous
 62
     7
100
AcDbCircle
 10
333.2419024803
 20
423.7048592172
 30
0.0
 40
0.5000000000000004
100
AcDbArc
 50
90.0
 51
180.0
  0
LINE
  5
110
330
85
100
AcDbEntity
  8
$DDT_AUDIT_GENERATED_(10F)
  6
Continuous
 62
     7
100
AcDbLine
 10
288.7419024803
 20
413.2548592172
 30
0.0
 11
270.7419024803
 21
413.2548592172
 31
0.0
  0
LINE
  5
111
330
85
100
AcDbEntity
  8
$DDT_AUDIT_GENERATED_(10F)
  6
Continuous
 62
     7
100
AcDbLine
 10
269.2619024803
 20
411.7748592172
 30
0.0
 11
290.2219024803
 21
411.7748592172
 31
0.0
  0
LINE
  5
112
330
85
100
AcDbEntity
  8
$DDT_AUDIT_GENERATED_(10F)
  6
Continuous
 62
     7
100
AcDbLine
 10
270.4619024803
 20
404.3548592172
 30
0.0
 11
289.0219024803
 21
404.3548592172
 31
0.0
  0
LINE
  5
113
330
85
100
AcDbEntity
  8
$DDT_AUDIT_GENERATED_(10F)
  6
Continuous
 62
     7
100
AcDbLine
 10
269.2619024803
 20
405.5548592172
 30
0.0
 11
290.2219024803
 21
405.5548592172
 31
0.0
  0
LINE
  5
114
330
85
100
AcDbEntity
  8
$DDT_AUDIT_GENERATED_(10F)
  6
Continuous
 62
     7
100
AcDbLine
 10
269.2619024803
 20
411.7748592172
 30
0.0
 11
269.2619024803
 21
405.5548592172
 31
0.0
  0
LINE
  5
115
330
85
100
AcDbEntity
  8
$DDT_AUDIT_GENERATED_(10F)
  6
Continuous
 62
     7
100
AcDbLine
 10
290.2219024803
 20
405.5548592172
 30
0.0
 11
290.2219024803
 21
411.7748592172
 31
0.0
  0
LINE
  5
116
330
85
100
AcDbEntity
  8
$DDT_AUDIT_GENERATED_(10F)
  6
Continuous
 62
     7
100
AcDbLine
 10
270.7419024803
 20
419.7609851772
 30
0.0
 11
270.7419024803
 21
413.2548592172
 31
0.0
  0
LINE
  5
117
330
85
100
AcDbEntity
  8
$DDT_AUDIT_GENERATED_(10F)
  6
Continuous
 62
     7
100
AcDbLine
 10
288.7419024803
 20
413.2548592172
 30
0.0
 11
288.7419024803
 21
419.7630207905
 31
0.0
  0
LINE
  5
118
330
85
100
AcDbEntity
  8
$DDT_AUDIT_GENERATED_(10F)
  6
Continuous
 62
     7
100
AcDbLine
 10
290.2219024803
 20
411.7748592172
 30
0.0
 11
288.7419024803
 21
413.2548592172
 31
0.0
  0
LINE
  5
119
330
85
100
AcDbEntity
  8
$DDT_AUDIT_GENERATED_(10F)
  6
Continuous
 62
     7
100
AcDbLine
 10
270.7419024803
 20
413.2548592172
 30
0.0
 11
269.2619024803
 21
411.7748592172
 31
0.0
  0
LINE
  5
11A
330
85
100
AcDbEntity
  8
$DDT_AUDIT_GENERATED_(10F)
  6
Continuous
 62
     7
100
AcDbLine
 10
269.2619024803
 20
405.5548592172
 30
0.0
 11
270.4619024803
 21
404.3548592172
 31
0.0
  0
LINE
  5
11B
330
85
100
AcDbEntity
  8
$DDT_AUDIT_GENERATED_(10F)
  6
Continuous
 62
     7
100
AcDbLine
 10
289.0219024803
 20
404.3548592172
 30
0.0
 11
290.2219024803
 21
405.5548592172
 31
0.0
  0
LINE
  5
11C
330
85
100
AcDbEntity
  8
$DDT_AUDIT_GENERATED_(10F)
  6
Continuous
 62
     7
100
AcDbLine
 10
289.0569024803
 20
412.9398592172
 30
0.0
 11
289.0569024803
 21
404.3898592172
 31
0.0
  0
LINE
  5
11D
330
85
100
AcDbEntity
  8
$DDT_AUDIT_GENERATED_(10F)
  6
Continuous
 62
     7
100
AcDbLine
 10
270.4269024803
 20
412.9398592172
 30
0.0
 11
270.4269024803
 21
404.3898592172
 31
0.0
  0
LINE
  5
11F
330
85
100
AcDbEntity
  8
$DDT_AUDIT_GENERATED_(11E)
  6
Continuous
 62
     7
100
AcDbLine
 10
205.9919024803
 20
386.9548592172
 30
0.0
 11
231.4919024803
 21
386.9548592172
 31
0.0
  0
LINE
  5
120
330
85
100
AcDbEntity
  8
$DDT_AUDIT_GENERATED_(11E)
  6
Continuous
 62
     7
100
AcDbLine
 10
231.7419024803
 20
387.6765470537
 30
0.0
 11
205.7419024803
 21
387.6765470537
 31
0.0
  0
LINE
  5
121
330
85
100
AcDbEntity
  8
$DDT_AUDIT_GENERATED_(11E)
  6
Continuous
 62
     7
100
AcDbLine
 10
204.7419024803
 20
398.6548592172
 30
0.0
 11
232.7419024803
 21
398.6548592172
 31
0.0
  0
LINE
  5
122
330
85
100
AcDbEntity
  8
$DDT_AUDIT_GENERATED_(11E)
  6
Continuous
 62
     7
100
AcDbLine
 10
231.7419024803
 20
387.6765470537
 30
0.0
 11
231.7419024803
 21
387.0991980854
 31
0.0
  0
LINE
  5
123
330
85
100
AcDbEntity
  8
$DDT_AUDIT_GENERATED_(11E)
  6
Continuous
 62
     7
100
AcDbLine
 10
231.7419024803
 20
391.9548592172
 30
0.0
 11
232.7419024803
 21
392.9548592172
 31
0.0
  0
LINE
  5
124
330
85
100
AcDbEntity
  8
$DDT_AUDIT_GENERATED_(11E)
  6
Continuous
 62
     7
100
AcDbLine
 10
231.7419024803
 20
391.9548592172
 30
0.0
 11
231.7419024803
 21
387.6765470537
 31
0.0
  0
LINE
  5
125
330
85
100
AcDbEntity
  8
$DDT_AUDIT_GENERATED_(11E)
  6
Continuous
 62
     7
100
AcDbLine
 10
205.7419024803
 20
387.6765470537
 30
0.0
 11
205.7419024803
 21
387.0991980854
 31
0.0
  0
LINE
  5
126
330
85
100
AcDbEntity
  8
$DDT_AUDIT_GENERATED_(11E)
  6
Continuous
 62
     7
100
AcDbLine
 10
204.7419024803
 20
392.9548592172
 30
0.0
 11
205.7419024803
 21
391.9548592172
 31
0.0
  0
LINE
  5
127
330
85
100
AcDbEntity
  8
$DDT_AUDIT_GENERATED_(11E)
  6
Continuous
 62
     7
100
AcDbLine
 10
205.7419024803
 20
391.9548592172
 30
0.0
 11
205.7419024803
 21
387.6765470537
 31
0.0
  0
LINE
  5
128
330
85
100
AcDbEntity
  8
$DDT_AUDIT_GENERATED_(11E)
  6
Continuous
 62
     7
100
AcDbLine
 10
205.7419024803
 20
387.0991967845
 30
0.0
 11
205.9919024803
 21
386.9548592172
 31
0.0
  0
LINE
  5
129
330
85
100
AcDbEntity
  8
$DDT_AUDIT_GENERATED_(11E)
  6
Continuous
 62
     7
100
AcDbLine
 10
231.4919024803
 20
386.9548592172
 30
0.0
 11
231.7419024803
 21
387.0991967845
 31
0.0
  0
LINE
  5
12A
330
85
100
AcDbEntity
  8
$DDT_AUDIT_GENERATED_(11E)
  6
Continuous
 62
     7
100
AcDbLine
 10
232.7419024803
 20
392.9548592172
 30
0.0
 11
232.7419024803
 21
398.6548592172
 31
0.0
  0
LINE
  5
12B
330
85
100
AcDbEntity
  8
$DDT_AUDIT_GENERATED_(11E)
  6
Continuous
 62
     7
100
AcDbLine
 10
204.7419024803
 20
398.6548592172
 30
0.0
 11
204.7419024803
 21
392.9548592172
 31
0.0
  0
LINE
  5
12C
330
85
100
AcDbEntity
  8
$DDT_AUDIT_GENERATED_(11E)
  6
Continuous
 62
     7
100
AcDbLine
 10
231.8919024803
 20
398.6548592172
 30
0.0
 11
231.8919024803
 21
398.8199722252
 31
0.0
  0
LINE
  5
12D
330
85
100
AcDbEntity
  8
$DDT_AUDIT_GENERATED_(11E)
  6
Continuous
 62
     7
100
AcDbLine
 10
205.5919024803
 20
398.8199722252
 30
0.0
 11
205.5919024803
 21
398.6548592172
 31
0.0
  0
LINE
  5
12F
330
85
100
AcDbEntity
  8
$DDT_AUDIT_GENERATED_(12E)
  6
Continuous
 62
     7
100
AcDbLine
 10
385.991900573
 20
460.3335001237
 30
0.0
 11
385.991900573
 21
451.0692649978
 31
0.0
  0
LINE
  5
130
330
85
100
AcDbEntity
  8
$DDT_AUDIT_GENERATED_(12E)
  6
Continuous
 62
     7
100
AcDbLine
 10
385.991900573
 20
451.0692649978
 30
0.0
 11
385.991900573
 21
427.1725992816
 31
0.0
  0
SPLINE
  5
131
330
85
100
AcDbEntity
  8
$DDT_AUDIT_GENERATED_(12E)
  6
Continuous
 62
     7
100
AcDbSpline
210
0.0
220
0.0
230
1.0
 70
     8
 71
     3
 72
    10
 73
     6
 74
     0
 42
0.0000000110867981
 43
0.0000000001
 40
0.1416334688656143
 40
0.1416334688656143
 40
0.1416334688656143
 40
0.1416334688656143
 40
0.2500000000000004
 40
0.2500000000000004
 40
0.4533722586429695
 40
0.4533722586429695
 40
0.4533722586429695
 40
0.4533722586429695
 10
362.4164171450329
 20
423.0674617051791
 30
0.0
 10
362.4042252601831
 20
423.0519724977393
 30
0.0
 10
362.3869240196896
 20
423.0371519546516
 30
0.0
 10
362.3209828539663
 20
422.996307522084
 30
0.0
 10
362.2589291188472
 20
422.9719181410333
 30
0.0
 10
362.1673279810125
 20
422.9489105350609
 30
0.0
  0
LINE
  5
132
330
85
100
AcDbEntity
  8
$DDT_AUDIT_GENERATED_(12E)
  6
Continuous
 62
     7
100
AcDbLine
 10
361.9919024803
 20
439.9197456268
 30
0.0
 11
361.9919024803
 21
421.2548592172
 31
0.0
  0
SPLINE
  5
133
330
85
100
AcDbEntity
  8
$DDT_AUDIT_GENERATED_(12E)
  6
Continuous
 62
     7
100
AcDbSpline
210
0.0
220
0.0
230
1.0
 70
     8
 71
     3
 72
    20
 73
    16
 74
     0
 42
0.0000000025051063
 43
0.0000000001
 40
0.0
 40
0.0
 40
0.0
 40
0.0
 40
0.2499999999999988
 40
0.2499999999999988
 40
0.4999999999999976
 40
0.4999999999999976
 40
0.6249999999999979
 40
0.6249999999999979
 40
0.7499999999999983
 40
0.7499999999999983
 40
0.8749999999999987
 40
0.8749999999999987
 40
0.9374999999999993
 40
0.9374999999999993
 40
1.0
 40
1.0
 40
1.0
 40
1.0
 10
361.9919024803086
 20
439.9197456268305
 30
0.0
 10
361.9919024803086
 20
440.2384186374099
 30
0.0
 10
361.9765652441201
 20
440.5573433396786
 30
0.0
 10
361.9055594961028
 20
441.1942654990909
 30
0.0
 10
361.8506560832425
 20
441.5123735505666
 30
0.0
 10
361.7186847242581
 20
441.9860622478432
 30
0.0
 10
361.666357720251
 20
442.1428404266159
 30
0.0
 10
361.5380803488811
 20
442.4485726576588
 30
0.0
 10
361.4623903266985
 20
442.597776334194
 30
0.0
 10
361.273945888461
 20
442.874863790428
 30
0.0
 10
361.1595561180272
 20
443.0071837914243
 30
0.0
 10
360.9371686238078
 20
443.1506202354864
 30
0.0
 10
360.8558941777973
 20
443.187689332914
 30
0.0
 10
360.6771579025584
 20
443.2264152342802
 30
0.0
 10
360.5831733387242
 20
443.2261631148331
 30
0.0
 10
360.4919024803086
 20
443.2058678505224
 30
0.0
  0
ARC
  5
134
330
85
100
AcDbEntity
  8
$DDT_AUDIT_GENERATED_(12E)
  6
Continuous
 62
     7
100
AcDbCircle
 10
330.8739085659
 20
65.3814387361
 30
0.0
 40
400.4601715946153
100
AcDbArc
 50
85.7643276549
 51
89.4808681373
  0
SPLINE
  5
135
330
85
100
AcDbEntity
  8
$DDT_AUDIT_GENERATED_(12E)
  6
Continuous
 62
     7
100
AcDbSpline
210
0.0
220
0.0
230
1.0
 70
     8
 71
     3
 72
    16
 73
    12
 74
     0
 42
0.0000000060506337
 43
0.0000000001
 40
0.1411424329327993
 40
0.1411424329327993
 40
0.1411424329327993
 40
0.1411424329327993
 40
0.2500000000000003
 40
0.2500000000000003
 40
0.5000000000000007
 40
0.5000000000000007
 40
0.6250000000000004
 40
0.6250000000000004
 40
0.7500000000000003
 40
0.7500000000000003
 40
0.7923889787325511
 40
0.7923889787325511
 40
0.7923889787325511
 40
0.7923889787325511
 10
362.4165962290746
 20
464.441368652507
 30
0.0
 10
362.4043947685978
 20
464.456924939364
 30
0.0
 10
362.3870395685449
 20
464.4718062398018
 30
0.0
 10
362.3111268182577
 20
464.5187936159693
 30
0.0
 10
362.2294763622072
 20
464.5481171721736
 30
0.0
 10
362.0345611411817
 20
464.5894240732499
 30
0.0
 10
361.9565642692277
 20
464.6028389140575
 30
0.0
 10
361.7686218048646
 20
464.6291221604016
 30
0.0
 10
361.657685869444
 20
464.6421273194374
 30
0.0
 10
361.4799551033723
 20
464.6600885699262
 30
0.0
 10
361.4320599211757
 20
464.6647171398553
 30
0.0
 10
361.3812263956049
 20
464.669453882477
 30
0.0
  0
LINE
  5
136
330
85
100
AcDbEntity
  8
$DDT_AUDIT_GENERATED_(12E)
  6
Continuous
 62
     7
100
AcDbLine
 10
361.9919024803
 20
464.8721689796
 30
0.0
 11
361.9919024803
 21
466.2548592172
 31
0.0
  0
LINE
  5
137
330
85
100
AcDbEntity
  8
$DDT_AUDIT_GENERATED_(12E)
  6
Continuous
 62
     7
100
AcDbLine
 10
333.9919024803
 20
445.2021355016
 30
0.0
 11
333.9919024803
 21
454.5519666513
 31
0.0
  0
LINE
  5
138
330
85
100
AcDbEntity
  8
$DDT_AUDIT_GENERATED_(12E)
  6
Continuous
 62
     7
100
AcDbLine
 10
333.9919024803
 20
465.0797761538
 30
0.0
 11
333.9919024803
 21
465.3254607606
 31
0.0
  0
LINE
  5
139
330
85
100
AcDbEntity
  8
$DDT_AUDIT_GENERATED_(12E)
  6
Continuous
 62
     7
100
AcDbLine
 10
333.9919024803
 20
441.2233913179
 30
0.0
 11
333.9919024803
 21
445.2021355016
 31
0.0
  0
LINE
  5
13A
330
85
100
AcDbEntity
  8
$DDT_AUDIT_GENERATED_(12E)
  6
Continuous
 62
     7
100
AcDbLine
 10
333.9919024803
 20
441.2233913179
 30
0.0
 11
333.9919024803
 21
440.8435917407
 31
0.0
  0
LINE
  5
13B
330
85
100
AcDbEntity
  8
$DDT_AUDIT_GENERATED_(12E)
  6
Continuous
 62
     7
100
AcDbLine
 10
333.9919024803
 20
420.2548592172
 30
0.0
 11
333.9919024803
 21
440.8435917407
 31
0.0
  0
LINE
  5
13C
330
85
100
AcDbEntity
  8
$DDT_AUDIT_GENERATED_(12E)
  6
Continuous
 62
     7
100
AcDbLine
 10
333.9919024803
 20
467.2548592172
 30
0.0
 11
333.9919024803
 21
465.4880585648
 31
0.0
  0
ARC
  5
13D
330
85
100
AcDbEntity
  8
$DDT_AUDIT_GENERATED_(12E)
  6
Continuous
 62
     7
100
AcDbCircle
 10
327.6944867943
 20
654.3231838525
 30
0.0
 40
213.6496936378581
100
AcDbArc
 50
271.823213311
 51
278.8304052583
  0
ARC
  5
13E
330
85
100
AcDbEntity
  8
$DDT_AUDIT_GENERATED_(12E)
  6
Continuous
 62
     7
100
AcDbCircle
 10
334.4919025764
 20
465.325282257
 30
0.0
 40
0.4999976787899744
100
AcDbArc
 50
88.8139031993
 51
180.0
  0
ELLIPSE
  5
13F
330
85
100
AcDbEntity
  8
$DDT_AUDIT_GENERATED_(12E)
  6
Continuous
 62
     7
100
AcDbEllipse
 10
362.4919024803
 20
422.6369116008
 30
0.0
 11
0.5000000000000004
 21
6.591949208711867E-14
 31
0.0
210
0.0
220
0.0
230
1.0
 40
0.9951738504
 41
3.029852678003381
 42
3.141592653589793
  0
ARC
  5
140
330
85
100
AcDbEntity
  8
$DDT_AUDIT_GENERATED_(12E)
  6
Continuous
 62
     7
100
AcDbCircle
 10
384.4942675879
 20
460.3322980233
 30
0.0
 40
1.497633467537805
100
AcDbArc
 50
0.0459894153
 51
82.5241964693
  0
ARC
  5
141
330
85
100
AcDbEntity
  8
$DDT_AUDIT_GENERATED_(12E)
  6
Continuous
 62
     7
100
AcDbCircle
 10
333.9230726071
 20
122.3173251323
 30
0.0
 40
343.273334754761
100
AcDbArc
 50
81.5073261926
 51
89.9036957668
  0
LINE
  5
142
330
85
100
AcDbEntity
  8
$DDT_AUDIT_GENERATED_(12E)
  6
Continuous
 62
     7
100
AcDbLine
 10
384.6186907357
 20
461.8265837045
 30
0.0
 11
384.6891209124
 21
461.8172014495
 31
0.0
  0
ARC
  5
143
330
85
100
AcDbEntity
  8
$DDT_AUDIT_GENERATED_(12E)
  6
Continuous
 62
     7
100
AcDbCircle
 10
334.4765804719
 20
465.0749561853
 30
0.0
 40
0.4847019575334094
100
AcDbArc
 50
107.3410662108
 51
179.4302304732
  0
ARC
  5
144
330
85
100
AcDbEntity
  8
$DDT_AUDIT_GENERATED_(12E)
  6
Continuous
 62
     7
100
AcDbCircle
 10
333.8317902864
 20
464.6361404822
 30
0.0
 40
1.031018296640973
100
AcDbArc
 50
50.3250345714
 51
60.9699571132
  0
ARC
  5
145
330
85
100
AcDbEntity
  8
$DDT_AUDIT_GENERATED_(12E)
  6
Continuous
 62
     7
100
AcDbCircle
 10
334.5750570517
 20
465.0558144973
 30
0.0
 40
0.5395983942388428
100
AcDbArc
 50
97.9897498167
 51
116.7588018518
  0
LINE
  5
146
330
85
100
AcDbEntity
  8
$DDT_AUDIT_GENERATED_(12E)
  6
Continuous
 62
     7
100
AcDbLine
 10
384.6187559546
 20
425.683091602
 30
0.0
 11
384.6891783854
 21
425.6924755565
 31
0.0
  0
ARC
  5
147
330
85
100
AcDbEntity
  8
$DDT_AUDIT_GENERATED_(12E)
  6
Continuous
 62
     7
100
AcDbCircle
 10
333.9237277102
 20
765.0898431383
 30
0.0
 40
343.1718649264826
100
AcDbArc
 50
275.8818816136
 51
278.4951039229
  0
ARC
  5
148
330
85
100
AcDbEntity
  8
$DDT_AUDIT_GENERATED_(12E)
  6
Continuous
 62
     7
100
AcDbCircle
 10
329.2551627331
 20
702.957593416
 30
0.0
 40
257.6564846630256
100
AcDbArc
 50
271.1641698906
 51
282.376118708
  0
SPLINE
  5
149
330
85
100
AcDbEntity
  8
$DDT_AUDIT_GENERATED_(12E)
  6
Continuous
 62
     7
100
AcDbSpline
210
0.0
220
0.0
230
1.0
 70
     8
 71
     3
 72
    10
 73
     6
 74
     0
 42
0.0000000271433543
 43
0.0000000001
 40
0.0
 40
0.0
 40
0.0
 40
0.0
 40
0.5
 40
0.5
 40
1.0
 40
1.0
 40
1.0
 40
1.0
 10
334.3320704029112
 20
445.1164477910885
 30
0.0
 10
334.2316129538954
 20
445.122587220405
 30
0.0
 10
334.1449525258436
 20
445.1343862811152
 30
0.0
 10
334.0243683386621
 20
445.1650143521961
 30
0.0
 10
333.9919024803086
 20
445.1836965909853
 30
0.0
 10
333.9919024803086
 20
445.2021355016326
 30
0.0
  0
ARC
  5
14A
330
85
100
AcDbEntity
  8
$DDT_AUDIT_GENERATED_(12E)
  6
Continuous
 62
     7
100
AcDbCircle
 10
338.2413223128
 20
447.845766579
 30
0.0
 40
4.767749106338306
100
AcDbArc
 50
214.9215540486
 51
218.3067654466
  0
ARC
  5
14B
330
85
100
AcDbEntity
  8
$DDT_AUDIT_GENERATED_(12E)
  6
Continuous
 62
     7
100
AcDbCircle
 10
349.7907083748
 20
435.0218976807
 30
0.0
 40
18.46264958985159
100
AcDbArc
 50
145.9692516215
 51
146.8553087115
  0
SPLINE
  5
14C
330
85
100
AcDbEntity
  8
$DDT_AUDIT_GENERATED_(12E)
  6
Continuous
 62
     7
100
AcDbSpline
210
0.0
220
0.0
230
1.0
 70
     8
 71
     3
 72
    16
 73
    12
 74
     0
 42
0.0000000073832528
 43
0.0000000001
 40
0.0
 40
0.0
 40
0.0
 40
0.0
 40
0.2500000000000011
 40
0.2500000000000011
 40
0.5000000000000021
 40
0.5000000000000021
 40
0.7500000000000031
 40
0.7500000000000031
 40
0.8750000000000016
 40
0.8750000000000016
 40
1.0
 40
1.0
 40
1.0
 40
1.0
 10
384.6891842909114
 20
451.2937203245087
 30
0.0
 10
384.8700871701764
 20
451.2902364246746
 30
0.0
 10
385.0424206400023
 20
451.2821245425617
 30
0.0
 10
385.3618604740894
 20
451.2569796980318
 30
0.0
 10
385.503842206398
 20
451.2402711930298
 30
0.0
 10
385.740609655989
 20
451.1998262236581
 30
0.0
 10
385.8337127974328
 20
451.1762957785986
 30
0.0
 10
385.9279583769011
 20
451.1379020100978
 30
0.0
 10
385.9516518849008
 20
451.124706274784
 30
0.0
 10
385.9836669431915
 20
451.097494939772
 30
0.0
 10
385.9919005729597
 20
451.0832300990022
 30
0.0
 10
385.9919005729597
 20
451.0692649978406
 30
0.0
  0
LINE
  5
14D
330
85
100
AcDbEntity
  8
$DDT_AUDIT_GENERATED_(12E)
  6
Continuous
 62
     7
100
AcDbLine
 10
333.9919024803
 20
458.3623356392
 30
0.0
 11
333.9919024803
 21
465.0797761538
 31
0.0
  0
LINE
  5
14E
330
85
100
AcDbEntity
  8
$DDT_AUDIT_GENERATED_(12E)
  6
Continuous
 62
     7
100
AcDbLine
 10
333.9919024803
 20
458.0616137767
 30
0.0
 11
333.9919024803
 21
457.5151351382
 31
0.0
  0
LINE
  5
14F
330
85
100
AcDbEntity
  8
$DDT_AUDIT_GENERATED_(12E)
  6
Continuous
 62
     7
100
AcDbLine
 10
333.9919024803
 20
454.5886614846
 30
0.0
 11
333.9919024803
 21
457.5151351382
 31
0.0
  0
LINE
  5
150
330
85
100
AcDbEntity
  8
$DDT_AUDIT_GENERATED_(12E)
  6
Continuous
 62
     7
100
AcDbLine
 10
333.9919024803
 20
458.0616137767
 30
0.0
 11
333.9919024803
 21
458.3623356392
 31
0.0
  0
ARC
  5
151
330
85
100
AcDbEntity
  8
$DDT_AUDIT_GENERATED_(12E)
  6
Continuous
 62
     7
100
AcDbCircle
 10
320.846156066
 20
25.8751231345
 30
0.0
 40
440.5278296855371
100
AcDbArc
 50
83.7144805035
 51
84.5884387068
  0
ARC
  5
152
330
85
100
AcDbEntity
  8
$DDT_AUDIT_GENERATED_(12E)
  6
Continuous
 62
     7
100
AcDbCircle
 10
320.8461056092
 20
861.5003813845
 30
0.0
 40
440.3950885516003
100
AcDbArc
 50
275.413180314
 51
278.3398270784
  0
LINE
  5
153
330
85
100
AcDbEntity
  8
$DDT_AUDIT_GENERATED_(12E)
  6
Continuous
 62
     7
100
AcDbLine
 10
334.4919024803
 20
419.7548592172
 30
0.0
 11
360.4919024803
 21
419.7548592172
 31
0.0
  0
LINE
  5
154
330
85
100
AcDbEntity
  8
$DDT_AUDIT_GENERATED_(12E)
  6
Continuous
 62
     7
100
AcDbLine
 10
360.4919024803
 20
467.7548592172
 30
0.0
 11
334.4919024803
 21
467.7548592172
 31
0.0
  0
ARC
  5
155
330
85
100
AcDbEntity
  8
$DDT_AUDIT_GENERATED_(12E)
  6
Continuous
 62
     7
100
AcDbCircle
 10
384.4919071156
 20
427.1733217842
 30
0.0
 40
1.499993458407417
100
AcDbArc
 50
277.810150417
 51
0.056813159
  0
ARC
  5
156
330
85
100
AcDbEntity
  8
$DDT_AUDIT_GENERATED_(12E)
  6
Continuous
 62
     7
100
AcDbCircle
 10
360.4919024803
 20
466.2548592172
 30
0.0
 40
1.500000000000001
100
AcDbArc
 50
0.0
 51
90.0
  0
ARC
  5
157
330
85
100
AcDbEntity
  8
$DDT_AUDIT_GENERATED_(12E)
  6
Continuous
 62
     7
100
AcDbCircle
 10
360.4919024803
 20
421.2548592172
 30
0.0
 40
1.500000000000001
100
AcDbArc
 50
270.0
 51
0.0
  0
SPLINE
  5
158
330
85
100
AcDbEntity
  8
$DDT_AUDIT_GENERATED_(12E)
  6
Continuous
 62
     7
100
AcDbSpline
210
0.0
220
0.0
230
1.0
 70
     8
 71
     3
 72
    11
 73
     7
 74
     0
 42
0.0000000123425016
 43
0.0000000001
 40
0.5924850860308774
 40
0.5924850860308774
 40
0.5924850860308774
 40
0.5924850860308774
 40
0.6776195629181687
 40
0.8020280816250116
 40
0.9083010515030542
 40
1.0
 40
1.0
 40
1.0
 40
1.0
 10
362.1594305280749
 20
464.553205240478
 30
0.0
 10
362.1591778678861
 20
464.5534003435772
 30
0.0
 10
362.1469313381701
 20
464.5591404832761
 30
0.0
 10
362.1011360470616
 20
464.5918272352917
 30
0.0
 10
362.0248690623553
 20
464.6932681537818
 30
0.0
 10
362.0126765360437
 20
464.7776075863477
 30
0.0
 10
362.0054535029313
 20
464.8249949093815
 30
0.0
  0
ARC
  5
159
330
85
100
AcDbEntity
  8
$DDT_AUDIT_GENERATED_(12E)
  6
Continuous
 62
     7
100
AcDbCircle
 10
334.4919024803
 20
467.2548592172
 30
0.0
 40
0.499999999999997
100
AcDbArc
 50
90.0
 51
180.0
  0
ARC
  5
15A
330
85
100
AcDbEntity
  8
$DDT_AUDIT_GENERATED_(12E)
  6
Continuous
 62
     7
100
AcDbCircle
 10
334.4919024803
 20
420.2548592172
 30
0.0
 40
0.5000000000000004
100
AcDbArc
 50
180.0
 51
270.0
  0
SPLINE
  5
15B
330
85
100
AcDbEntity
  8
$DDT_AUDIT_GENERATED_(12E)
  6
Continuous
 62
     7
100
AcDbSpline
210
0.0
220
0.0
230
1.0
 70
     8
 71
     3
 72
    12
 73
     8
 74
     0
 42
0.0000000124984966
 43
0.0000000001
 40
0.0
 40
0.0
 40
0.0
 40
0.0
 40
0.049928591085896
 40
0.1672852990596101
 40
0.2775413271267332
 40
0.3901163165218892
 40
0.4060567876992815
 40
0.4060567876992815
 40
0.4060567876992815
 40
0.4060567876992815
 10
362.008816631705
 20
422.6905768425123
 30
0.0
 10
362.0096692871656
 20
422.7156778395865
 30
0.0
 10
362.0115896203889
 20
422.7858919319892
 30
0.0
 10
362.0790722605626
 20
422.8930997504191
 30
0.0
 10
362.135345927118
 20
422.9433579842093
 30
0.0
 10
362.1582930511449
 20
422.9552683706158
 30
0.0
 10
362.159626525066
 20
422.9560228354908
 30
0.0
 10
362.1596202922929
 20
422.9560362052077
 30
0.0
  0
SPLINE
  5
15C
330
85
100
AcDbEntity
  8
$DDT_AUDIT_GENERATED_(12E)
  6
Continuous
 62
     7
100
AcDbSpline
210
0.0
220
0.0
230
1.0
 70
     8
 71
     3
 72
    13
 73
     9
 74
     0
 42
0.0000000145694296
 43
0.0000000001
 40
0.0
 40
0.0
 40
0.0
 40
0.0
 40
0.027207636647681
 40
0.2741866901590297
 40
0.5397828268894344
 40
0.7427551051300034
 40
0.9179004553668366
 40
1.0
 40
1.0
 40
1.0
 40
1.0
 10
334.4919428588609
 20
454.9015631993693
 30
0.0
 10
334.4846889377731
 20
454.9018858182356
 30
0.0
 10
334.42175035945
 20
454.9045308283771
 30
0.0
 10
334.2865198979461
 20
454.8820775276503
 30
0.0
 10
334.1396205773061
 20
454.8191186576589
 30
0.0
 10
334.0405176124096
 20
454.7226490676278
 30
0.0
 10
333.9933845251066
 20
454.625977446232
 30
0.0
 10
333.9962411449796
 20
454.5725724775845
 30
0.0
 10
333.9975440148141
 20
454.5527403019479
 30
0.0
  0
LINE
  5
15D
330
85
100
AcDbEntity
  8
$DDT_AUDIT_GENERATED_(12E)
  6
Continuous
 62
     7
100
AcDbLine
 10
337.7792813501
 20
454.9029310649
 30
0.0
 11
334.4918502044
 21
454.9028370789
 31
0.0
  0
ARC
  5
15E
330
85
100
AcDbEntity
  8
$DDT_AUDIT_GENERATED_(12E)
  6
Continuous
 62
     7
100
AcDbCircle
 10
337.8650972626
 20
455.997442274
 30
0.0
 40
1.09217231406573
100
AcDbArc
 50
265.5008592567
 51
288.8254820131
  0
ARC
  5
160
330
85
100
AcDbEntity
  8
$DDT_AUDIT_GENERATED_(15F)
  6
Continuous
 62
     7
100
AcDbCircle
 10
143.7419024803
 20
443.7548592172
 30
0.0
 40
34.91206301938993
100
AcDbArc
 50
43.427918905
 51
136.572081095
  0
ARC
  5
161
330
85
100
AcDbEntity
  8
$DDT_AUDIT_GENERATED_(15F)
  6
Continuous
 62
     7
100
AcDbCircle
 10
143.7419024803
 20
443.7548592172
 30
0.0
 40
34.91206301938993
100
AcDbArc
 50
223.427918905
 51
316.572081095
  0
ARC
  5
162
330
85
100
AcDbEntity
  8
$DDT_AUDIT_GENERATED_(15F)
  6
Continuous
 62
     7
100
AcDbCircle
 10
293.7419024803
 20
443.7548592172
 30
0.0
 40
34.91206301938993
100
AcDbArc
 50
43.427918905
 51
136.572081095
  0
ARC
  5
163
330
85
100
AcDbEntity
  8
$DDT_AUDIT_GENERATED_(15F)
  6
Continuous
 62
     7
100
AcDbCircle
 10
293.7419024803
 20
443.7548592172
 30
0.0
 40
34.91206301938993
100
AcDbArc
 50
223.427918905
 51
228.7917283498
  0
ARC
  5
164
330
85
100
AcDbEntity
  8
$DDT_AUDIT_GENERATED_(15F)
  6
Continuous
 62
     7
100
AcDbCircle
 10
293.7419024803
 20
443.7548592172
 30
0.0
 40
34.91206301938993
100
AcDbArc
 50
264.213334827
 51
316.572081095
  0
ENDBLK
  5
166
330
85
100
AcDbEntity
  8
0
100
AcDbBlockEnd
  0
BLOCK
  5
274
330
167
100
AcDbEntity
  8
0
100
AcDbBlockBegin
  2
SE1
 70
     0
 10
0.0
 20
0.0
 30
0.0
  3
SE1
  1

  0
LINE
  5
169
330
167
100
AcDbEntity
  8
$DDT_AUDIT_GENERATED_(87)
  6
Continuous
 62
     7
100
AcDbLine
 10
324.7419024803
 20
153.1189813083
 30
0.0
 11
324.7419024803
 21
129.2984598336
 31
0.0
  0
LINE
  5
16A
330
167
100
AcDbEntity
  8
$DDT_AUDIT_GENERATED_(87)
  6
Continuous
 62
     7
100
AcDbLine
 10
112.7419024803
 20
129.2984598336
 30
0.0
 11
112.7419024803
 21
153.1189813083
 31
0.0
  0
LINE
  5
16B
330
167
100
AcDbEntity
  8
$DDT_AUDIT_GENERATED_(87)
  6
Continuous
 62
     7
100
AcDbLine
 10
112.7419024803
 20
153.1189813083
 30
0.0
 11
112.7419024803
 21
192.7984598337
 31
0.0
  0
LINE
  5
16C
330
167
100
AcDbEntity
  8
$DDT_AUDIT_GENERATED_(87)
  6
Continuous
 62
     7
100
AcDbLine
 10
218.7419025103
 20
121.3602166865
 30
0.0
 11
218.7419024769
 21
146.9384905664
 31
0.0
  0
SPLINE
  5
16D
330
167
100
AcDbEntity
  8
$DDT_AUDIT_GENERATED_(87)
  6
Continuous
 62
     7
100
AcDbSpline
210
0.0
220
0.0
230
1.0
 70
     8
 71
     3
 72
    25
 73
    21
 74
     0
 42
0.0000000002697607
 43
0.0000000001
 40
0.0
 40
0.0
 40
0.0
 40
0.0
 40
0.0323747691829512
 40
0.0658264301859065
 40
0.1003815066357681
 40
0.1360640613913157
 40
0.1728959473091424
 40
0.2108970342332873
 40
0.2500854133124032
 40
0.3123038460776014
 40
0.3751158430706827
 40
0.4359040839972252
 40
0.5001402011321732
 40
0.6351829548297007
 40
0.7500790784163681
 40
0.8180333626869244
 40
0.875052244941159
 40
0.9198602429007898
 40
0.9611757314642345
 40
1.0
 40
1.0
 40
1.0
 40
1.0
 10
186.946322540701
 20
128.8765368588242
 30
0.0
 10
187.1776987592422
 20
128.9172753722442
 30
0.0
 10
187.6477762011491
 20
129.0001235067011
 30
0.0
 10
188.4135361696673
 20
129.210565361453
 30
0.0
 10
189.2373229545774
 20
129.4889422412051
 30
0.0
 10
190.1230550634865
 20
129.8441495597844
 30
0.0
 10
191.0696513108647
 20
130.2765641072344
 30
0.0
 10
192.0773428336523
 20
130.7886584298833
 30
0.0
 10
193.3447986650171
 20
131.4917843944691
 30
0.0
 10
194.8849634115877
 20
132.4318424305792
 30
0.0
 10
196.6875044517648
 20
133.6312255611835
 30
0.0
 10
198.5665899885349
 20
134.9586544376276
 30
0.0
 10
201.2319527221947
 20
136.9377540380578
 30
0.0
 10
204.5642312871329
 20
139.5639238409148
 30
0.0
 10
208.1396759640314
 20
142.3181576425468
 30
0.0
 10
211.0172356080232
 20
144.2902894971606
 30
0.0
 10
213.1931438818621
 20
145.5331027962701
 30
0.0
 10
215.1589070070258
 20
146.3445471462617
 30
0.0
 10
216.9651868199541
 20
146.8390301973123
 30
0.0
 10
218.1620659595492
 20
146.906031374978
 30
0.0
 10
218.7419024769326
 20
146.9384905663711
 30
0.0
  0
SPLINE
  5
16E
330
167
100
AcDbEntity
  8
$DDT_AUDIT_GENERATED_(87)
  6
Continuous
 62
     7
100
AcDbSpline
210
0.0
220
0.0
230
1.0
 70
     8
 71
     3
 72
    25
 73
    21
 74
     0
 42
0.0000000002698122
 43
0.0000000001
 40
0.0
 40
0.0
 40
0.0
 40
0.0
 40
0.019189527740518
 40
0.0388589519192146
 40
0.059153215648065
 40
0.0802043562611251
 40
0.1021307374656574
 40
0.1250371534398897
 40
0.1820492512361635
 40
0.2500060016999441
 40
0.3648929932554004
 40
0.4999362252528665
 40
0.5641651171293798
 40
0.6249562540885492
 40
0.6877611996775974
 40
0.7499823541529601
 40
0.8177632674920275
 40
0.8819512720085174
 40
0.9426543063498659
 40
1.0
 40
1.0
 40
1.0
 40
1.0
 10
218.7419024769326
 20
146.9384905663711
 30
0.0
 10
219.0283227924877
 20
146.9302747277239
 30
0.0
 10
219.6083262661425
 20
146.9136375867118
 30
0.0
 10
220.4837512926534
 20
146.7916220598729
 30
0.0
 10
221.3730441685954
 20
146.5995321289115
 30
0.0
 10
222.276162710338
 20
146.3305699752916
 30
0.0
 10
223.1930893887184
 20
145.9876323807663
 30
0.0
 10
224.5709751803237
 20
145.3718596330013
 30
0.0
 10
226.4666416155679
 20
144.2907416246795
 30
0.0
 10
229.3439453947254
 20
142.3180302109047
 30
0.0
 10
232.9195480852828
 20
139.5640551704857
 30
0.0
 10
236.251740954222
 20
136.9378279149965
 30
0.0
 10
238.917167568718
 20
134.9586870826746
 30
0.0
 10
240.7961920945059
 20
133.6313141124959
 30
0.0
 10
242.5988376069423
 20
132.4317862413565
 30
0.0
 10
244.4069819353332
 20
131.3284492161466
 30
0.0
 10
246.1576684819902
 20
130.3846088507069
 30
0.0
 10
247.801219266397
 20
129.6453179065232
 30
0.0
 10
249.2681875148513
 20
129.1241530070607
 30
0.0
 10
250.1223600048373
 20
128.9574903471098
 30
0.0
 10
250.5374821214097
 20
128.8765368459757
 30
0.0
  0
LINE
  5
16F
330
167
100
AcDbEntity
  8
$DDT_AUDIT_GENERATED_(87)
  6
Continuous
 62
     7
100
AcDbLine
 10
218.7419025196
 20
48.7453582278
 30
0.0
 11
218.7419026459
 21
121.3602168069
 31
0.0
  0
ARC
  5
170
330
167
100
AcDbEntity
  8
$DDT_AUDIT_GENERATED_(87)
  6
Continuous
 62
     7
100
AcDbCircle
 10
179.9963882911
 20
191.5070059977
 30
0.0
 40
2.017040409401478
100
AcDbArc
 50
108.3609957876
 51
131.4364461783
  0
LINE
  5
171
330
167
100
AcDbEntity
  8
$DDT_AUDIT_GENERATED_(87)
  6
Continuous
 62
     7
100
AcDbLine
 10
178.6615333746
 20
193.0191615337
 30
0.0
 11
178.3829285154
 21
192.7984598337
 31
0.0
  0
ARC
  5
172
330
167
100
AcDbEntity
  8
$DDT_AUDIT_GENERATED_(87)
  6
Continuous
 62
     7
100
AcDbCircle
 10
138.4694117788
 20
410.6133871687
 30
0.0
 40
221.0079178137179
100
AcDbArc
 50
280.6624877869
 51
282.324170239
  0
LINE
  5
173
330
167
100
AcDbEntity
  8
$DDT_AUDIT_GENERATED_(87)
  6
Continuous
 62
     7
100
AcDbLine
 10
112.7419024803
 20
192.7984598337
 30
0.0
 11
113.2419024803
 21
192.7984598337
 31
0.0
  0
LINE
  5
174
330
167
100
AcDbEntity
  8
$DDT_AUDIT_GENERATED_(87)
  6
Continuous
 62
     7
100
AcDbLine
 10
178.3829285154
 20
192.7984598337
 30
0.0
 11
113.2419024803
 21
192.7984598337
 31
0.0
  0
LINE
  5
175
330
167
100
AcDbEntity
  8
$DDT_AUDIT_GENERATED_(87)
  6
Continuous
 62
     7
100
AcDbLine
 10
324.7419024803
 20
192.7984598337
 30
0.0
 11
324.7419024803
 21
153.1189813083
 31
0.0
  0
ARC
  5
176
330
167
100
AcDbEntity
  8
$DDT_AUDIT_GENERATED_(87)
  6
Continuous
 62
     7
100
AcDbCircle
 10
257.4875164718
 20
191.5071795682
 30
0.0
 40
2.016844237690994
100
AcDbArc
 50
48.5624161642
 51
71.6401418699
  0
LINE
  5
177
330
167
100
AcDbEntity
  8
$DDT_AUDIT_GENERATED_(87)
  6
Continuous
 62
     7
100
AcDbLine
 10
259.1008764452
 20
192.7984598337
 30
0.0
 11
258.822271586
 21
193.0191615337
 31
0.0
  0
ARC
  5
178
330
167
100
AcDbEntity
  8
$DDT_AUDIT_GENERATED_(87)
  6
Continuous
 62
     7
100
AcDbCircle
 10
299.0143931862
 20
410.6133871888
 30
0.0
 40
221.0079178343474
100
AcDbArc
 50
257.675829761
 51
259.3375122129
  0
LINE
  5
179
330
167
100
AcDbEntity
  8
$DDT_AUDIT_GENERATED_(87)
  6
Continuous
 62
     7
100
AcDbLine
 10
324.2419024803
 20
192.7984598337
 30
0.0
 11
324.7419024803
 21
192.7984598337
 31
0.0
  0
LINE
  5
17A
330
167
100
AcDbEntity
  8
$DDT_AUDIT_GENERATED_(87)
  6
Continuous
 62
     7
100
AcDbLine
 10
324.2419024803
 20
192.7984598337
 30
0.0
 11
259.1008764452
 21
192.7984598337
 31
0.0
  0
SPLINE
  5
17B
330
167
100
AcDbEntity
  8
$DDT_AUDIT_GENERATED_(87)
  6
Continuous
 62
     7
100
AcDbSpline
210
0.0
220
0.0
230
1.0
 70
     8
 71
     3
 72
    28
 73
    24
 74
     0
 42
0.0000000005990771
 43
0.0000000001
 40
0.0082550998599895
 40
0.0082550998599895
 40
0.0082550998599895
 40
0.0082550998599895
 40
0.0681650050023807
 40
0.1225141795479438
 40
0.1637863132509471
 40
0.19247621642825
 40
0.2139248303204122
 40
0.2364305737820706
 40
0.2649680913206779
 40
0.3363732808140293
 40
0.4100763728275857
 40
0.4909162341802306
 40
0.5585458813473808
 40
0.6262912747101187
 40
0.6926272416067523
 40
0.7518907642277303
 40
0.7983108546072223
 40
0.8175891786693825
 40
0.8399411444981522
 40
0.8688158558310449
 40
0.9049121513767463
 40
0.9485256522805717
 40
0.96905761635672
 40
0.96905761635672
 40
0.96905761635672
 40
0.96905761635672
 10
185.7545123526328
 20
128.8044877541934
 30
0.0
 10
185.9747955731938
 20
128.796775148835
 30
0.0
 10
186.3486345959435
 20
128.7724042204387
 30
0.0
 10
186.9486100001099
 20
128.5781057327874
 30
0.0
 10
187.452044005032
 20
128.3679126802325
 30
0.0
 10
187.841686912946
 20
128.1833013391799
 30
0.0
 10
188.2188031676831
 20
127.9911629545421
 30
0.0
 10
188.6364582902286
 20
127.7619778796927
 30
0.0
 10
189.3452558443843
 20
127.3406537724904
 30
0.0
 10
190.3615737950736
 20
126.6496393153664
 30
0.0
 10
191.6559559988986
 20
125.6069974567544
 30
0.0
 10
192.8600219511292
 20
124.484359602179
 30
0.0
 10
193.9880414117881
 20
123.2964582549733
 30
0.0
 10
194.9062170423824
 20
122.2142663554824
 30
0.0
 10
195.6213675910856
 20
121.2831086040378
 30
0.0
 10
196.1864463366906
 20
120.4748745410411
 30
0.0
 10
196.5944870159583
 20
119.7993549510195
 30
0.0
 10
196.8899250871907
 20
119.2304449695271
 30
0.0
 10
197.0493464825162
 20
118.9133749918185
 30
0.0
 10
197.1697225903997
 20
118.671192276257
 30
0.0
 10
197.2620808642065
 20
118.4938487033624
 30
0.0
 10
197.3077565536113
 20
118.4229541148725
 30
0.0
 10
197.3203574522942
 20
118.4191601454207
 30
0.0
 10
197.3232764179773
 20
118.4209698402194
 30
0.0
  0
LINE
  5
17C
330
167
100
AcDbEntity
  8
$DDT_AUDIT_GENERATED_(87)
  6
Continuous
 62
     7
100
AcDbLine
 10
251.5144873974
 20
128.7984598337
 30
0.0
 11
324.2419024803
 21
128.7984598337
 31
0.0
  0
LINE
  5
17D
330
167
100
AcDbEntity
  8
$DDT_AUDIT_GENERATED_(87)
  6
Continuous
 62
     7
100
AcDbLine
 10
113.2419024803
 20
128.7984598337
 30
0.0
 11
185.9808342465
 21
128.7984598337
 31
0.0
  0
LINE
  5
17E
330
167
100
AcDbEntity
  8
$DDT_AUDIT_GENERATED_(87)
  6
Continuous
 62
     7
100
AcDbLine
 10
197.3321089147
 20
118.4212964429
 30
0.0
 11
199.7320185286
 21
79.1896293906
 31
0.0
  0
SPLINE
  5
17F
330
167
100
AcDbEntity
  8
$DDT_AUDIT_GENERATED_(87)
  6
Continuous
 62
     7
100
AcDbSpline
210
0.0
220
0.0
230
1.0
 70
     8
 71
     3
 72
    24
 73
    20
 74
     0
 42
0.0000000005874272
 43
0.0000000001
 40
0.0463534891292269
 40
0.0463534891292269
 40
0.0463534891292269
 40
0.0463534891292269
 40
0.0856715444092727
 40
0.1581949500956274
 40
0.2210838490098178
 40
0.2748964672492704
 40
0.3393589511424036
 40
0.4015915103964813
 40
0.4669291597001634
 40
0.5408183834077047
 40
0.6158726261226951
 40
0.6872225405833952
 40
0.7214979646658649
 40
0.7548223894493618
 40
0.7928380880183988
 40
0.8309026685994543
 40
0.877739220840952
 40
0.9338757523722944
 40
0.9917885179462302
 40
0.9917885179462302
 40
0.9917885179462302
 40
0.9917885179462302
 10
240.1563154454522
 20
118.3677897719008
 30
0.0
 10
240.1622743524595
 20
118.3603149580672
 30
0.0
 10
240.1945531924031
 20
118.384169284165
 30
0.0
 10
240.3501442485282
 20
118.7363652534695
 30
0.0
 10
240.7195776383329
 20
119.4571920702078
 30
0.0
 10
241.2625210276969
 20
120.3880277647418
 30
0.0
 10
242.0300336957372
 20
121.5096794101843
 30
0.0
 10
242.8692427311741
 20
122.5698564986518
 30
0.0
 10
243.844310931325
 20
123.6783961241229
 30
0.0
 10
244.9927204251904
 20
124.8436627950349
 30
0.0
 10
246.230329335968
 20
125.9478389270962
 30
0.0
 10
247.2774891806236
 20
126.7516166652941
 30
0.0
 10
248.0812182875626
 20
127.2963062218264
 30
0.0
 10
248.6981538670422
 20
127.6785758332442
 30
0.0
 10
249.2941761619185
 20
128.0110295953849
 30
0.0
 10
249.872969062798
 20
128.3007809110662
 30
0.0
 10
250.4811924438129
 20
128.5621399065248
 30
0.0
 10
251.131763798417
 20
128.7729139819038
 30
0.0
 10
251.5123936953382
 20
128.7975727512773
 30
0.0
 10
251.7284460069604
 20
128.8046842659935
 30
0.0
  0
LINE
  5
180
330
167
100
AcDbEntity
  8
$DDT_AUDIT_GENERATED_(87)
  6
Continuous
 62
     7
100
AcDbLine
 10
237.7517119396
 20
79.188414697
 30
0.0
 11
240.1516568231
 21
118.4206586908
 31
0.0
  0
SPLINE
  5
181
330
167
100
AcDbEntity
  8
$DDT_AUDIT_GENERATED_(87)
  6
Continuous
 62
     7
100
AcDbSpline
210
0.0
220
0.0
230
1.0
 70
     8
 71
     3
 72
     9
 73
     5
 74
     0
 42
0.0000000002525973
 43
0.0000000001
 40
0.0
 40
0.0
 40
0.0
 40
0.0
 40
0.0485054956417976
 40
0.0732553095643143
 40
0.0732553095643143
 40
0.0732553095643143
 40
0.0732553095643143
 10
199.7409713959782
 20
79.2382864246807
 30
0.0
 10
199.7823235767176
 20
78.53111884987379
 30
0.0
 10
199.8374317406211
 20
77.62501012521919
 30
0.0
 10
199.9288388958827
 20
76.67231914339942
 30
0.0
 10
199.9632233822651
 20
76.3472744583824
 30
0.0
  0
SPLINE
  5
182
330
167
100
AcDbEntity
  8
$DDT_AUDIT_GENERATED_(87)
  6
Continuous
 62
     7
100
AcDbSpline
210
0.0
220
0.0
230
1.0
 70
     8
 71
     3
 72
    26
 73
    22
 74
     0
 42
0.0000000002506997
 43
0.0000000001
 40
0.0910817127701687
 40
0.0910817127701687
 40
0.0910817127701687
 40
0.0910817127701687
 40
0.1318992810454558
 40
0.2065822559673804
 40
0.2780657713510638
 40
0.3541250558738266
 40
0.4267040686554204
 40
0.4962955485417918
 40
0.552131230528956
 40
0.603887617969882
 40
0.6524240417338009
 40
0.6984638035996452
 40
0.7426306687130415
 40
0.782638500315105
 40
0.8206659343857153
 40
0.8569538807604467
 40
0.8915446442898954
 40
0.9246774800143127
 40
0.9553195751009019
 40
0.9881901266780764
 40
1.0
 40
1.0
 40
1.0
 40
1.0
 10
200.0427316441395
 20
75.64078633861554
 30
0.0
 10
200.1072096170036
 20
75.09902176959636
 30
0.0
 10
200.3130577814493
 20
73.55348941687338
 30
0.0
 10
200.7161837193811
 20
71.11887000258162
 30
0.0
 10
201.3483463741997
 20
68.23079201647835
 30
0.0
 10
202.1286948539684
 20
65.41400509009885
 30
0.0
 10
203.0738784736733
 20
62.67296210790983
 30
0.0
 10
204.0817529483407
 20
60.2431330041512
 30
0.0
 10
205.1199491970381
 20
58.13055240418662
 30
0.0
 10
206.1573557847832
 20
56.33406359093308
 30
0.0
 10
207.2487132058249
 20
54.72464595045909
 30
0.0
 10
208.3981502014844
 20
53.28274252911688
 30
0.0
 10
209.5840658025236
 20
52.02226200951447
 30
0.0
 10
210.7890903485819
 20
50.93288043635405
 30
0.0
 10
212.008280532765
 20
50.02491755166299
 30
0.0
 10
213.2488432463006
 20
49.27709563206764
 30
0.0
 10
214.500083448316
 20
48.68890372424787
 30
0.0
 10
215.740262230399
 20
48.26196444627735
 30
0.0
 10
216.9854730776566
 20
47.98579795914271
 30
0.0
 10
218.0130513289994
 20
47.87484153561871
 30
0.0
 10
218.5695102747584
 20
47.89867508693359
 30
0.0
 10
218.7417928400741
 20
47.90675037028851
 30
0.0
  0
SPLINE
  5
183
330
167
100
AcDbEntity
  8
$DDT_AUDIT_GENERATED_(87)
  6
Continuous
 62
     7
100
AcDbSpline
210
0.0
220
0.0
230
1.0
 70
     8
 71
     3
 72
    26
 73
    22
 74
     0
 42
0.0000000002505188
 43
0.0000000001
 40
0.0
 40
0.0
 40
0.0
 40
0.0
 40
0.0214789712578469
 40
0.0556922307294042
 40
0.0892514108429407
 40
0.1222304216549164
 40
0.157291326185003
 40
0.1939744115287862
 40
0.2325345666614496
 40
0.2727766923648982
 40
0.316008760112933
 40
0.3633570279073753
 40
0.4128843502838875
 40
0.4652790363791591
 40
0.5212220587519889
 40
0.5815449666419416
 40
0.6482824980133087
 40
0.7176042513974448
 40
0.7896578931819913
 40
0.8646846362278087
 40
0.8976688785868312
 40
0.8976688785868312
 40
0.8976688785868312
 40
0.8976688785868312
 10
218.741984410913
 20
47.89656950814246
 30
0.0
 10
219.0559113306336
 20
47.89292530768895
 30
0.0
 10
219.7470249620256
 20
47.8892702447771
 30
0.0
 10
220.9530877942729
 20
48.06752630152248
 30
0.0
 10
222.2403921647822
 20
48.4124200253982
 30
0.0
 10
223.5004294159928
 20
48.91095210481559
 30
0.0
 10
224.7349663739279
 20
49.55694543548619
 30
0.0
 10
225.9606234574013
 20
50.36528716014449
 30
0.0
 10
227.1574925151881
 20
51.32917343706936
 30
0.0
 10
228.3249072042352
 20
52.4572813439967
 30
0.0
 10
229.4798456887118
 20
53.7587011406456
 30
0.0
 10
230.6034240819975
 20
55.24558637482732
 30
0.0
 10
231.6776514004566
 20
56.9150150765868
 30
0.0
 10
232.6875557194143
 20
58.75538145568179
 30
0.0
 10
233.6380614813253
 20
60.7864680789615
 30
0.0
 10
234.5427653518968
 20
63.04479292032234
 30
0.0
 10
235.3815718090046
 20
65.51753365837742
 30
0.0
 10
236.1214327099104
 20
68.18232228261215
 30
0.0
 10
236.7443562078238
 20
70.99552308225127
 30
0.0
 10
237.1380447803523
 20
73.3419709759289
 30
0.0
 10
237.3343811652438
 20
74.78464442133013
 30
0.0
 10
237.3892564404322
 20
75.22321314042718
 30
0.0
  0
SPLINE
  5
184
330
167
100
AcDbEntity
  8
$DDT_AUDIT_GENERATED_(87)
  6
Continuous
 62
     7
100
AcDbSpline
210
0.0
220
0.0
230
1.0
 70
     8
 71
     3
 72
     9
 73
     5
 74
     0
 42
0.0000000002519355
 43
0.0000000001
 40
0.9091470685155951
 40
0.9091470685155951
 40
0.9091470685155951
 40
0.9091470685155951
 40
0.9430232120043419
 40
1.0
 40
1.0
 40
1.0
 40
1.0
 10
237.4446408057308
 20
75.68011969173475
 30
0.0
 10
237.4971973453139
 20
76.12846717235388
 30
0.0
 10
237.6224266774512
 20
77.32006897142595
 30
0.0
 10
237.6948247436847
 20
78.441548363677
 30
0.0
 10
237.7462412908359
 20
79.27276268654406
 30
0.0
  0
ARC
  5
185
330
167
100
AcDbEntity
  8
$DDT_AUDIT_GENERATED_(87)
  6
Continuous
 62
     7
100
AcDbCircle
 10
324.2419024803
 20
129.2984598337
 30
0.0
 40
0.5000000000000004
100
AcDbArc
 50
270.0
 51
0.0
  0
ARC
  5
186
330
167
100
AcDbEntity
  8
$DDT_AUDIT_GENERATED_(87)
  6
Continuous
 62
     7
100
AcDbCircle
 10
113.2419024803
 20
129.2984598337
 30
0.0
 40
0.5000000000000004
100
AcDbArc
 50
180.0
 51
270.0
  0
LINE
  5
187
330
167
100
AcDbEntity
  8
$DDT_AUDIT_GENERATED_(87)
  6
Continuous
 62
     7
100
AcDbLine
 10
251.8741238052
 20
194.6984598337
 30
0.0
 11
185.6096811554
 21
194.6984598337
 31
0.0
  0
LINE
  5
188
330
167
100
AcDbEntity
  8
$DDT_AUDIT_GENERATED_(AD)
  6
Continuous
 62
     7
100
AcDbLine
 10
112.7419024803
 20
176.2984598337
 30
0.0
 11
112.7419024803
 21
129.2984598337
 31
0.0
  0
LINE
  5
189
330
167
100
AcDbEntity
  8
$DDT_AUDIT_GENERATED_(AD)
  6
Continuous
 62
     7
100
AcDbLine
 10
104.7419024803
 20
176.2984598337
 30
0.0
 11
104.7419024803
 21
129.2984598337
 31
0.0
  0
LINE
  5
18A
330
167
100
AcDbEntity
  8
$DDT_AUDIT_GENERATED_(AD)
  6
Continuous
 62
     7
100
AcDbLine
 10
105.2419024803
 20
128.7984598337
 30
0.0
 11
112.2419024803
 21
128.7984598337
 31
0.0
  0
LINE
  5
18B
330
167
100
AcDbEntity
  8
$DDT_AUDIT_GENERATED_(AD)
  6
Continuous
 62
     7
100
AcDbLine
 10
112.2419024803
 20
176.7984598337
 30
0.0
 11
105.2419024803
 21
176.7984598337
 31
0.0
  0
ARC
  5
18C
330
167
100
AcDbEntity
  8
$DDT_AUDIT_GENERATED_(AD)
  6
Continuous
 62
     7
100
AcDbCircle
 10
112.2419024803
 20
176.2984598337
 30
0.0
 40
0.5000000000000004
100
AcDbArc
 50
0.0
 51
90.0
  0
ARC
  5
18D
330
167
100
AcDbEntity
  8
$DDT_AUDIT_GENERATED_(AD)
  6
Continuous
 62
     7
100
AcDbCircle
 10
112.2419024803
 20
129.2984598337
 30
0.0
 40
0.5000000000000004
100
AcDbArc
 50
270.0
 51
0.0
  0
LINE
  5
18E
330
167
100
AcDbEntity
  8
$DDT_AUDIT_GENERATED_(AD)
  6
Continuous
 62
     7
100
AcDbLine
 10
104.2419024803
 20
172.9484598337
 30
0.0
 11
104.0419024803
 21
172.9484598337
 31
0.0
  0
LINE
  5
18F
330
167
100
AcDbEntity
  8
$DDT_AUDIT_GENERATED_(AD)
  6
Continuous
 62
     7
100
AcDbLine
 10
104.0419024803
 20
132.6484598337
 30
0.0
 11
104.2419024803
 21
132.6484598337
 31
0.0
  0
ARC
  5
190
330
167
100
AcDbEntity
  8
$DDT_AUDIT_GENERATED_(AD)
  6
Continuous
 62
     7
100
AcDbCircle
 10
105.2419024803
 20
129.2984598337
 30
0.0
 40
0.5000000000000004
100
AcDbArc
 50
180.0
 51
270.0
  0
ARC
  5
191
330
167
100
AcDbEntity
  8
$DDT_AUDIT_GENERATED_(AD)
  6
Continuous
 62
     7
100
AcDbCircle
 10
105.2419024803
 20
176.2984598337
 30
0.0
 40
0.5000000000000004
100
AcDbArc
 50
90.0
 51
180.0
  0
ARC
  5
192
330
167
100
AcDbEntity
  8
$DDT_AUDIT_GENERATED_(AD)
  6
Continuous
 62
     7
100
AcDbCircle
 10
104.2419024803
 20
132.1484598337
 30
0.0
 40
0.499999999999997
100
AcDbArc
 50
0.0
 51
90.0
  0
ARC
  5
193
330
167
100
AcDbEntity
  8
$DDT_AUDIT_GENERATED_(AD)
  6
Continuous
 62
     7
100
AcDbCircle
 10
104.2419024803
 20
173.4484598337
 30
0.0
 40
0.5000000000000004
100
AcDbArc
 50
270.0
 51
0.0
  0
LINE
  5
194
330
167
100
AcDbEntity
  8
$DDT_AUDIT_GENERATED_(BA)
  6
Continuous
 62
     7
100
AcDbLine
 10
52.0419043876
 20
129.4321387604
 30
0.0
 11
52.0419043876
 21
134.7807975318
 31
0.0
  0
LINE
  5
195
330
167
100
AcDbEntity
  8
$DDT_AUDIT_GENERATED_(BA)
  6
Continuous
 62
     7
100
AcDbLine
 10
52.0419043876
 20
134.7807975318
 30
0.0
 11
52.0419043876
 21
176.1648569158
 31
0.0
  0
LINE
  5
196
330
167
100
AcDbEntity
  8
$DDT_AUDIT_GENERATED_(BA)
  6
Continuous
 62
     7
100
AcDbLine
 10
76.0419024803
 20
145.0343934688
 30
0.0
 11
76.0419024803
 21
174.9692224217
 31
0.0
  0
SPLINE
  5
197
330
167
100
AcDbEntity
  8
$DDT_AUDIT_GENERATED_(BA)
  6
Continuous
 62
     7
100
AcDbSpline
210
0.0
220
0.0
230
1.0
 70
     8
 71
     3
 72
    20
 73
    16
 74
     0
 42
0.0000000022654248
 43
0.0000000001
 40
0.0
 40
0.0
 40
0.0
 40
0.0
 40
0.2499999999999988
 40
0.2499999999999988
 40
0.4999999999999976
 40
0.4999999999999976
 40
0.6249999999999979
 40
0.6249999999999979
 40
0.7499999999999983
 40
0.7499999999999983
 40
0.8749999999999987
 40
0.8749999999999987
 40
0.9374999999999993
 40
0.9374999999999993
 40
1.0
 40
1.0
 40
1.0
 40
1.0
 10
76.04190248030085
 20
145.0343934688094
 30
0.0
 10
76.04190248030085
 20
144.6673195270117
 30
0.0
 10
76.05723971648936
 20
144.3020421130947
 30
0.0
 10
76.1282454645066
 20
143.576136302023
 30
0.0
 10
76.18314887736693
 20
143.2154241118659
 30
0.0
 10
76.31512023635138
 20
142.6799647569933
 30
0.0
 10
76.36744724035846
 20
142.5030183161335
 30
0.0
 10
76.49572461172832
 20
142.1579937638848
 30
0.0
 10
76.5714146339109
 20
141.9896612739592
 30
0.0
 10
76.75985907214842
 20
141.6758611577132
 30
0.0
 10
76.87424884258223
 20
141.5254852137637
 30
0.0
 10
77.09663633680158
 20
141.3582522826466
 30
0.0
 10
77.17791078281208
 20
141.3139948229742
 30
0.0
 10
77.3566470580511
 20
141.263367275985
 30
0.0
 10
77.45063162188518
 20
141.2592318108122
 30
0.0
 10
77.54190248030085
 20
141.2770402094701
 30
0.0
  0
SPLINE
  5
198
330
167
100
AcDbEntity
  8
$DDT_AUDIT_GENERATED_(BA)
  6
Continuous
 62
     7
100
AcDbSpline
210
0.0
220
0.0
230
1.0
 70
     8
 71
     3
 72
    22
 73
    18
 74
     0
 42
0.0000000037667095
 43
0.0000000001
 40
0.0
 40
0.0
 40
0.0
 40
0.0
 40
0.0624999999999996
 40
0.0624999999999996
 40
0.1249999999999992
 40
0.1249999999999992
 40
0.1874999999999988
 40
0.1874999999999988
 40
0.2499999999999983
 40
0.2499999999999983
 40
0.3749999999999993
 40
0.3749999999999993
 40
0.5000000000000002
 40
0.5000000000000002
 40
0.7500000000000001
 40
0.7500000000000001
 40
1.0
 40
1.0
 40
1.0
 40
1.0
 10
77.54190248030088
 20
176.7921826935037
 30
0.0
 10
77.4505403237988
 20
176.7926474256486
 30
0.0
 10
77.35617666837388
 20
176.7838455467512
 30
0.0
 10
77.17849786834039
 20
176.7498757724092
 30
0.0
 10
77.09526981136142
 20
176.72497346709
 30
0.0
 10
76.94813735343247
 20
176.6679545774099
 30
0.0
 10
76.88200133535442
 20
176.635190041781
 30
0.0
 10
76.76476669238255
 20
176.5668988244643
 30
0.0
 10
76.7128066740875
 20
176.5310059067833
 30
0.0
 10
76.57047729928045
 20
176.4194161462813
 30
0.0
 10
76.49499834013862
 20
176.341085764393
 30
0.0
 10
76.36770390337084
 20
176.1817284818748
 30
0.0
 10
76.31570321278383
 20
176.1000687794162
 30
0.0
 10
76.18359986765016
 20
175.8497790380001
 30
0.0
 10
76.12834293373625
 20
175.6785876748047
 30
0.0
 10
76.05723191500444
 20
175.3296204705891
 30
0.0
 10
76.04190248030088
 20
175.1513920556881
 30
0.0
 10
76.04190248030088
 20
174.969222421659
 30
0.0
  0
LINE
  5
199
330
167
100
AcDbEntity
  8
$DDT_AUDIT_GENERATED_(BA)
  6
Continuous
 62
     7
100
AcDbLine
 10
104.0419024803
 20
138.8147271359
 30
0.0
 11
104.0419024803
 21
131.897321183
 31
0.0
  0
LINE
  5
19A
330
167
100
AcDbEntity
  8
$DDT_AUDIT_GENERATED_(BA)
  6
Continuous
 62
     7
100
AcDbLine
 10
104.0419024803
 20
143.2672087947
 30
0.0
 11
104.0419024803
 21
138.8147271359
 31
0.0
  0
LINE
  5
19B
330
167
100
AcDbEntity
  8
$DDT_AUDIT_GENERATED_(BA)
  6
Continuous
 62
     7
100
AcDbLine
 10
104.0419024803
 20
143.2672087947
 30
0.0
 11
104.0419024803
 21
143.6602047121
 31
0.0
  0
LINE
  5
19C
330
167
100
AcDbEntity
  8
$DDT_AUDIT_GENERATED_(BA)
  6
Continuous
 62
     7
100
AcDbLine
 10
104.0419024803
 20
176.1174310337
 30
0.0
 11
104.0419024803
 21
143.6602047121
 31
0.0
  0
LINE
  5
19D
330
167
100
AcDbEntity
  8
$DDT_AUDIT_GENERATED_(BA)
  6
Continuous
 62
     7
100
AcDbLine
 10
104.0419024803
 20
178.2591725471
 30
0.0
 11
104.0419024803
 21
176.3941095211
 31
0.0
  0
ARC
  5
19E
330
167
100
AcDbEntity
  8
$DDT_AUDIT_GENERATED_(BA)
  6
Continuous
 62
     7
100
AcDbCircle
 10
111.1916315675
 20
-102.9270479507
 30
0.0
 40
246.5115432221649
100
AcDbArc
 50
91.778284137
 51
97.8455785365
  0
ARC
  5
19F
330
167
100
AcDbEntity
  8
$DDT_AUDIT_GENERATED_(BA)
  6
Continuous
 62
     7
100
AcDbCircle
 10
95.2026621461
 20
855.1882540876
 30
0.0
 40
678.6259147091786
100
AcDbArc
 50
268.5087494836
 51
270.7040923299
  0
ARC
  5
1A0
330
167
100
AcDbEntity
  8
$DDT_AUDIT_GENERATED_(BA)
  6
Continuous
 62
     7
100
AcDbCircle
 10
103.5367326835
 20
178.2608969841
 30
0.0
 40
0.5051727400009822
100
AcDbArc
 50
359.8044170993
 51
70.9347530608
  0
ARC
  5
1A1
330
167
100
AcDbEntity
  8
$DDT_AUDIT_GENERATED_(BA)
  6
Continuous
 62
     7
100
AcDbCircle
 10
95.8260911746
 20
923.9107056531
 30
0.0
 40
797.1006980496678
100
AcDbArc
 50
270.159184347
 51
270.5547578989
  0
ARC
  5
1A2
330
167
100
AcDbEntity
  8
$DDT_AUDIT_GENERATED_(BA)
  6
Continuous
 62
     7
100
AcDbCircle
 10
103.5367490009
 20
127.3374939362
 30
0.0
 40
0.505156407772019
100
AcDbArc
 50
289.0578875758
 51
0.1950922221
  0
ARC
  5
1A3
330
167
100
AcDbEntity
  8
$DDT_AUDIT_GENERATED_(BA)
  6
Continuous
 62
     7
100
AcDbCircle
 10
103.5858928109
 20
127.3134576428
 30
0.0
 40
0.4679857169375742
100
AcDbArc
 50
264.8371230231
 51
284.3264713484
  0
ELLIPSE
  5
1A4
330
167
100
AcDbEntity
  8
$DDT_AUDIT_GENERATED_(BA)
  6
Continuous
 62
     7
100
AcDbEllipse
 10
53.5464930917
 20
128.8902307117
 30
0.0
 11
0.04654511628024445
 21
0.9989161887518189
 31
0.0
210
0.0
220
0.0
230
0.9999999999999999
 40
0.1857611217
 41
3.099359767522828
 42
3.137843482626213
  0
ARC
  5
1A5
330
167
100
AcDbEntity
  8
$DDT_AUDIT_GENERATED_(BA)
  6
Continuous
 62
     7
100
AcDbCircle
 10
95.8290838154
 20
-617.4516835698
 30
0.0
 40
796.2400470007196
100
AcDbArc
 50
89.4448575734
 51
91.9037058281
  0
ARC
  5
1A6
330
167
100
AcDbEntity
  8
$DDT_AUDIT_GENERATED_(BA)
  6
Continuous
 62
     7
100
AcDbCircle
 10
103.5860061522
 20
178.2849300103
 30
0.0
 40
0.467967722980452
100
AcDbArc
 50
75.6809264674
 51
95.1766189642
  0
ARC
  5
1A7
330
167
100
AcDbEntity
  8
$DDT_AUDIT_GENERATED_(BA)
  6
Continuous
 62
     7
100
AcDbCircle
 10
103.8716193852
 20
178.092628398
 30
0.0
 40
0.6677021746285212
100
AcDbArc
 50
104.7390363857
 51
120.3991134697
  0
ELLIPSE
  5
1A8
330
167
100
AcDbEntity
  8
$DDT_AUDIT_GENERATED_(BA)
  6
Continuous
 62
     7
100
AcDbEllipse
 10
53.4761451168
 20
176.7001120619
 30
0.0
 11
0.1416132633741129
 21
-0.9899220593746066
 31
0.0
210
0.0
220
0.0
230
1.0
 40
0.0154818287
 41
3.14009241464016
 42
3.643541846071478
  0
ELLIPSE
  5
1A9
330
167
100
AcDbEntity
  8
$DDT_AUDIT_GENERATED_(BA)
  6
Continuous
 62
     7
100
AcDbEllipse
 10
53.5464662063
 20
176.7067675292
 30
0.0
 11
0.04659948607491076
 21
-0.9989136538748229
 31
0.0
210
0.0
220
0.0
230
0.9999999999999999
 40
0.1857440897
 41
3.142821009812668
 42
3.180084934642164
  0
ARC
  5
1AA
330
167
100
AcDbEntity
  8
$DDT_AUDIT_GENERATED_(BA)
  6
Continuous
 62
     7
100
AcDbCircle
 10
111.4371168051
 20
-221.5233013927
 30
0.0
 40
360.0468786420055
100
AcDbArc
 50
91.2562000057
 51
99.2510758076
  0
SPLINE
  5
1AB
330
167
100
AcDbEntity
  8
$DDT_AUDIT_GENERATED_(BA)
  6
Continuous
 62
     7
100
AcDbSpline
210
0.0
220
0.0
230
1.0
 70
     8
 71
     3
 72
    10
 73
     6
 74
     0
 42
0.0000000244346734
 43
0.0000000001
 40
0.0
 40
0.0
 40
0.0
 40
0.0
 40
0.5
 40
0.5
 40
1.0
 40
1.0
 40
1.0
 40
1.0
 10
103.7017345576983
 20
138.6493412971537
 30
0.0
 10
103.802192006714
 20
138.6611553490714
 30
0.0
 10
103.8888524347658
 20
138.6838657762891
 30
0.0
 10
104.0094366219473
 20
138.7429400803703
 30
0.0
 10
104.0419024803009
 20
138.7790305495279
 30
0.0
 10
104.0419024803009
 20
138.8147271359302
 30
0.0
  0
ARC
  5
1AC
330
167
100
AcDbEntity
  8
$DDT_AUDIT_GENERATED_(BA)
  6
Continuous
 62
     7
100
AcDbCircle
 10
139.5022616318
 20
164.8944564194
 30
0.0
 40
44.39013186015408
100
AcDbArc
 50
215.8765375158
 51
216.244881476
  0
ARC
  5
1AD
330
167
100
AcDbEntity
  8
$DDT_AUDIT_GENERATED_(BA)
  6
Continuous
 62
     7
100
AcDbCircle
 10
100.8536635556
 20
140.6034157554
 30
0.0
 40
3.453970964134036
100
AcDbArc
 50
321.1552747251
 51
325.5458045548
  0
SPLINE
  5
1AE
330
167
100
AcDbEntity
  8
$DDT_AUDIT_GENERATED_(BA)
  6
Continuous
 62
     7
100
AcDbSpline
210
0.0
220
0.0
230
1.0
 70
     8
 71
     3
 72
    16
 73
    12
 74
     0
 42
0.0000000056957068
 43
0.0000000001
 40
0.0
 40
0.0
 40
0.0
 40
0.0
 40
0.2499999999999988
 40
0.2499999999999988
 40
0.4999999999999977
 40
0.4999999999999977
 40
0.7499999999999964
 40
0.7499999999999964
 40
0.8749999999999982
 40
0.8749999999999982
 40
1.0
 40
1.0
 40
1.0
 40
1.0
 10
53.34462066969803
 20
133.8436687107979
 30
0.0
 10
53.16371779043308
 20
133.8586875764517
 30
0.0
 10
52.99138432060718
 20
133.8936711418848
 30
0.0
 10
52.67194448652008
 20
134.0012960403422
 30
0.0
 10
52.52996275421148
 20
134.0725249132111
 30
0.0
 10
52.29319530462043
 20
134.2431666267694
 30
0.0
 10
52.20009216317661
 20
134.3416774381695
 30
0.0
 10
52.10584658370837
 20
134.5005315238667
 30
0.0
 10
52.08215307570865
 20
134.5548477116334
 30
0.0
 10
52.05013801741798
 20
134.6662191453507
 30
0.0
 10
52.0419043876498
 20
134.724269862226
 30
0.0
 10
52.0419043876498
 20
134.7807975318127
 30
0.0
  0
LINE
  5
1AF
330
167
100
AcDbEntity
  8
$DDT_AUDIT_GENERATED_(BA)
  6
Continuous
 62
     7
100
AcDbLine
 10
104.0419024803
 20
129.6975685004
 30
0.0
 11
104.0419024803
 21
127.3392139912
 31
0.0
  0
SPLINE
  5
1B0
330
167
100
AcDbEntity
  8
$DDT_AUDIT_GENERATED_(BA)
  6
Continuous
 62
     7
100
AcDbSpline
210
0.0
220
0.0
230
1.0
 70
     8
 71
     3
 72
    10
 73
     6
 74
     0
 42
0.0000000134061605
 43
0.0000000001
 40
0.0
 40
0.0
 40
0.0
 40
0.0
 40
0.5
 40
0.5
 40
1.0
 40
1.0
 40
1.0
 40
1.0
 10
103.5419678585022
 20
131.4725025945172
 30
0.0
 10
103.674100524614
 20
131.4725172773987
 30
0.0
 10
103.8032813340913
 20
131.5186203534105
 30
0.0
 10
103.9876628633684
 20
131.67530792545
 30
0.0
 10
104.0419024803009
 20
131.7852390493316
 30
0.0
 10
104.0419024803009
 20
131.8973211829561
 30
0.0
  0
ELLIPSE
  5
1B1
330
167
100
AcDbEntity
  8
$DDT_AUDIT_GENERATED_(BA)
  6
Continuous
 62
     7
100
AcDbEllipse
 10
104.0689230857
 20
124.8771707865
 30
0.0
 11
-8.68000000000016
 21
3.925790022815884E-13
 31
0.0
210
0.0
220
0.0
230
1.0
 40
0.8660254038
 41
-1.059102140712548
 42
-1.014843910026495
  0
ELLIPSE
  5
1B2
330
167
100
AcDbEntity
  8
$DDT_AUDIT_GENERATED_(BA)
  6
Continuous
 62
     7
100
AcDbEllipse
 10
104.0689230857
 20
123.0771707865
 30
0.0
 11
-8.679999999999646
 21
-1.071527611442837E-12
 31
0.0
210
0.0
220
0.0
230
1.0
 40
0.8660254038
 41
4.737957149565212
 42
5.268291055198338
  0
LINE
  5
1B3
330
167
100
AcDbEntity
  8
$DDT_AUDIT_GENERATED_(BA)
  6
Continuous
 62
     7
100
AcDbLine
 10
104.0419024803
 20
130.2184340452
 30
0.0
 11
104.0419024803
 21
130.7649628124
 31
0.0
  0
LINE
  5
1B4
330
167
100
AcDbEntity
  8
$DDT_AUDIT_GENERATED_(BA)
  6
Continuous
 62
     7
100
AcDbLine
 10
104.0419024803
 20
131.8053099143
 30
0.0
 11
104.0419024803
 21
130.7649628124
 31
0.0
  0
LINE
  5
1B5
330
167
100
AcDbEntity
  8
$DDT_AUDIT_GENERATED_(BA)
  6
Continuous
 62
     7
100
AcDbLine
 10
104.0419024803
 20
130.2184340452
 30
0.0
 11
104.0419024803
 21
129.6975685004
 31
0.0
  0
LINE
  5
1B6
330
167
100
AcDbEntity
  8
$DDT_AUDIT_GENERATED_(BA)
  6
Continuous
 62
     7
100
AcDbLine
 10
100.2545251957
 20
131.4720748096
 30
0.0
 11
100.2545335405
 21
131.4361715741
 31
0.0
  0
SPLINE
  5
1B7
330
167
100
AcDbEntity
  8
$DDT_AUDIT_GENERATED_(BA)
  6
Continuous
 62
     7
100
AcDbSpline
210
0.0
220
0.0
230
1.0
 70
     8
 71
     3
 72
    10
 73
     6
 74
     0
 42
0.0000000132625516
 43
0.0000000001
 40
0.0
 40
0.0
 40
0.0
 40
0.0
 40
0.1249999999999992
 40
0.1249999999999992
 40
0.149782994250642
 40
0.149782994250642
 40
0.149782994250642
 40
0.149782994250642
 10
99.4880312075711
 20
131.2621823135616
 30
0.0
 10
99.49572229692828
 20
131.2838995109206
 30
0.0
 10
99.52601975637873
 20
131.3039380542958
 30
0.0
 10
99.56079137072064
 20
131.3240370850589
 30
0.0
 10
99.56663987629945
 20
131.3272787143291
 30
0.0
 10
99.5725713337742
 20
131.3304454438303
 30
0.0
  0
SPLINE
  5
1B8
330
167
100
AcDbEntity
  8
$DDT_AUDIT_GENERATED_(BA)
  6
Continuous
 62
     7
100
AcDbSpline
210
0.0
220
0.0
230
1.0
 70
     8
 71
     3
 72
    10
 73
     6
 74
     0
 42
0.0000000130748871
 43
0.0000000001
 40
0.5472650986233842
 40
0.5472650986233842
 40
0.5472650986233842
 40
0.5472650986233842
 40
0.75
 40
0.75
 40
1.0
 40
1.0
 40
1.0
 40
1.0
 10
98.05192101545546
 20
130.9149680180038
 30
0.0
 10
98.12054100770024
 20
130.9405060530935
 30
0.0
 10
98.17653601265987
 20
130.969933677442
 30
0.0
 10
98.26577563179076
 20
131.0409489826867
 30
0.0
 10
98.29190534132395
 20
131.0845077318689
 30
0.0
 10
98.29190534132385
 20
131.1294530649259
 30
0.0
  0
SPLINE
  5
1B9
330
167
100
AcDbEntity
  8
$DDT_AUDIT_GENERATED_(BA)
  6
Continuous
 62
     7
100
AcDbSpline
210
0.0
220
0.0
230
1.0
 70
     8
 71
     3
 72
    10
 73
     6
 74
     0
 42
0.0000000126716827
 43
0.0000000001
 40
0.0
 40
0.0
 40
0.0
 40
0.0
 40
0.2500000000000008
 40
0.2500000000000008
 40
0.4585511769133836
 40
0.4585511769133836
 40
0.4585511769133836
 40
0.4585511769133836
 10
98.29190534132385
 20
128.4937586753422
 30
0.0
 10
98.29190534132385
 20
128.4463087346369
 30
0.0
 10
98.26626432156448
 20
128.4007454172898
 30
0.0
 10
98.17517798444288
 20
128.3237082645163
 30
0.0
 10
98.11722087646272
 20
128.291639085007
 30
0.0
 10
98.04583523626287
 20
128.2638476349156
 30
0.0
  0
LINE
  5
1BA
330
167
100
AcDbEntity
  8
$DDT_AUDIT_GENERATED_(BA)
  6
Continuous
 62
     7
100
AcDbLine
 10
98.2919053413
 20
132.6432838974
 30
0.0
 11
98.2919053413
 21
128.4937586753
 31
0.0
  0
SPLINE
  5
1BB
330
167
100
AcDbEntity
  8
$DDT_AUDIT_GENERATED_(BA)
  6
Continuous
 62
     7
100
AcDbSpline
210
0.0
220
0.0
230
1.0
 70
     8
 71
     3
 72
    14
 73
    10
 74
     0
 42
0.0000000075739556
 43
0.0000000001
 40
0.0
 40
0.0
 40
0.0
 40
0.0
 40
0.25
 40
0.25
 40
0.5
 40
0.5
 40
0.75
 40
0.75
 40
1.0
 40
1.0
 40
1.0
 40
1.0
 10
97.29190534132383
 20
133.2987404359654
 30
0.0
 10
97.4250052595297
 20
133.2988181521966
 30
0.0
 10
97.55565971713779
 20
133.2810361101169
 30
0.0
 10
97.79848935082659
 20
133.2132097853167
 30
0.0
 10
97.90944444850817
 20
133.1631497985503
 30
0.0
 10
98.09299837291442
 20
133.040773820146
 30
0.0
 10
98.16685180322422
 20
132.9674848544798
 30
0.0
 10
98.26568511666589
 20
132.8114256776818
 30
0.0
 10
98.29190534132384
 20
132.7271987527237
 30
0.0
 10
98.29190534132383
 20
132.6432838974267
 30
0.0
  0
LINE
  5
1BC
330
167
100
AcDbEntity
  8
$DDT_AUDIT_GENERATED_(BA)
  6
Continuous
 62
     7
100
AcDbLine
 10
65.4419053413
 20
128.6712736151
 30
0.0
 11
65.4419053413
 21
132.3709655952
 31
0.0
  0
SPLINE
  5
1BD
330
167
100
AcDbEntity
  8
$DDT_AUDIT_GENERATED_(BA)
  6
Continuous
 62
     7
100
AcDbSpline
210
0.0
220
0.0
230
1.0
 70
     8
 71
     3
 72
    16
 73
    12
 74
     0
 42
0.0000000068434398
 43
0.0000000001
 40
0.0
 40
0.0
 40
0.0
 40
0.0
 40
0.2499999999999987
 40
0.2499999999999987
 40
0.3749999999999968
 40
0.3749999999999968
 40
0.499999999999995
 40
0.499999999999995
 40
0.7499999999999976
 40
0.7499999999999976
 40
0.8009022228214815
 40
0.8009022228214815
 40
0.8009022228214815
 40
0.8009022228214815
 10
65.44190534132385
 20
131.3025505073025
 30
0.0
 10
65.44190534132383
 20
131.2355238815268
 30
0.0
 10
65.47908048475665
 20
131.1722544276298
 30
0.0
 10
65.58691923674562
 20
131.0859253988846
 30
0.0
 10
65.63091317512573
 20
131.0590768119831
 30
0.0
 10
65.73485250297243
 20
131.0089071054338
 30
0.0
 10
65.79550977613339
 20
130.9854281252472
 30
0.0
 10
65.99493526363034
 20
130.9227965149064
 30
0.0
 10
66.15619092064316
 20
130.8898423399131
 30
0.0
 10
66.36698053219605
 20
130.8631653998598
 30
0.0
 10
66.4033365608429
 20
130.8590787885689
 30
0.0
 10
66.44026115848133
 20
130.8554277391651
 30
0.0
  0
SPLINE
  5
1BE
330
167
100
AcDbEntity
  8
$DDT_AUDIT_GENERATED_(BA)
  6
Continuous
 62
     7
100
AcDbSpline
210
0.0
220
0.0
230
1.0
 70
     8
 71
     3
 72
    16
 73
    12
 74
     0
 42
0.0000000067273311
 43
0.0000000001
 40
0.1982072895428311
 40
0.1982072895428311
 40
0.1982072895428311
 40
0.1982072895428311
 40
0.2499999999999993
 40
0.2499999999999993
 40
0.374999999999999
 40
0.374999999999999
 40
0.4999999999999987
 40
0.4999999999999987
 40
0.7499999999999993
 40
0.7499999999999993
 40
1.0
 40
1.0
 40
1.0
 40
1.0
 10
66.4449919822144
 20
128.1937002665116
 30
0.0
 10
66.40722593473369
 20
128.1976884588894
 30
0.0
 10
66.36996833996412
 20
128.2021743019228
 30
0.0
 10
66.24550783818495
 20
128.2191131580643
 30
0.0
 10
66.16211846405936
 20
128.2337726049884
 30
0.0
 10
66.00443009660873
 20
128.2686369909306
 30
0.0
 10
65.93016044499723
 20
128.28895202679
 30
0.0
 10
65.73059120694383
 20
128.3561163384844
 30
0.0
 10
65.62347367005475
 20
128.4110027077068
 30
0.0
 10
65.48002948808676
 20
128.5327106462576
 30
0.0
 10
65.4419053413238
 20
128.6007030432732
 30
0.0
 10
65.44190534132383
 20
128.6712736150967
 30
0.0
  0
ARC
  5
1BF
330
167
100
AcDbEntity
  8
$DDT_AUDIT_GENERATED_(BA)
  6
Continuous
 62
     7
100
AcDbCircle
 10
88.5995043516
 20
9508.9962585421
 30
0.0
 40
9375.70154755669
100
AcDbArc
 50
269.8673427357
 51
270.0531200742
  0
SPLINE
  5
1C0
330
167
100
AcDbEntity
  8
$DDT_AUDIT_GENERATED_(BA)
  6
Continuous
 62
     7
100
AcDbSpline
210
0.0
220
0.0
230
1.0
 70
     8
 71
     3
 72
    16
 73
    12
 74
     0
 42
0.0000000052361899
 43
0.0000000001
 40
0.0
 40
0.0
 40
0.0
 40
0.0
 40
0.2499999999999968
 40
0.2499999999999968
 40
0.3749999999999973
 40
0.3749999999999973
 40
0.4999999999999979
 40
0.4999999999999979
 40
0.7499999999999989
 40
0.7499999999999989
 40
1.0
 40
1.0
 40
1.0
 40
1.0
 10
65.44190534132383
 20
132.3709655952376
 30
0.0
 10
65.44190534132383
 20
132.4911653743057
 30
0.0
 10
65.47919345741354
 20
132.6107748123351
 30
0.0
 10
65.58730950852417
 20
132.7811469480789
 30
0.0
 10
65.6314167016469
 20
132.8354268630042
 30
0.0
 10
65.73562310818839
 20
132.9388029912476
 30
0.0
 10
65.79640633874904
 20
132.988224075936
 30
0.0
 10
65.99607319307287
 20
133.1220038188344
 30
0.0
 10
66.15742539359631
 20
133.1952428560715
 30
0.0
 10
66.50730274628033
 20
133.2938401251749
 30
0.0
 10
66.69888358297301
 20
133.3202220083701
 30
0.0
 10
66.8919053413238
 20
133.3198408641888
 30
0.0
  0
ARC
  5
1C1
330
167
100
AcDbEntity
  8
$DDT_AUDIT_GENERATED_(BA)
  6
Continuous
 62
     7
100
AcDbCircle
 10
67.5253853445
 20
6461.4884621548
 30
0.0
 40
6329.700956072623
100
AcDbArc
 50
270.2762131346
 51
270.2784766624
  0
ARC
  5
1C2
330
167
100
AcDbEntity
  8
$DDT_AUDIT_GENERATED_(BA)
  6
Continuous
 62
     7
100
AcDbCircle
 10
95.9449099437
 20
1003.7177901398
 30
0.0
 40
876.8961422720791
100
AcDbArc
 50
267.2250119019
 51
268.0746149941
  0
LINE
  5
1C3
330
167
100
AcDbEntity
  8
$DDT_AUDIT_GENERATED_(BA)
  6
Continuous
 62
     7
100
AcDbLine
 10
53.3360075759
 20
127.9175080364
 30
0.0
 11
53.5461811914
 21
127.8897840103
 31
0.0
  0
SPLINE
  5
1C4
330
167
100
AcDbEntity
  8
$DDT_AUDIT_GENERATED_(BA)
  6
Continuous
 62
     7
100
AcDbSpline
210
0.0
220
0.0
230
1.0
 70
     8
 71
     3
 72
    12
 73
     8
 74
     0
 42
0.0000000045338979
 43
0.0000000001
 40
0.0
 40
0.0
 40
0.0
 40
0.0
 40
0.1986544027158504
 40
0.4400690970562028
 40
0.6583724701513168
 40
0.8746844653187344
 40
1.0
 40
1.0
 40
1.0
 40
1.0
 10
52.0419043876498
 20
129.4321387604774
 30
0.0
 10
52.05261637180861
 20
129.2744498763127
 30
0.0
 10
52.07935016796436
 20
128.9770307278428
 30
0.0
 10
52.29478736783266
 20
128.5259868347509
 30
0.0
 10
52.63568949559772
 20
128.1769166958526
 30
0.0
 10
53.00625946872373
 20
127.9631372736739
 30
0.0
 10
53.2384946624086
 20
127.938182481654
 30
0.0
 10
53.3378410967362
 20
127.9288880718516
 30
0.0
  0
SPLINE
  5
1C5
330
167
100
AcDbEntity
  8
$DDT_AUDIT_GENERATED_(BA)
  6
Continuous
 62
     7
100
AcDbSpline
210
0.0
220
0.0
230
1.0
 70
     8
 71
     3
 72
    12
 73
     8
 74
     0
 42
0.0000000045589096
 43
0.0000000001
 40
0.0
 40
0.0
 40
0.0
 40
0.0
 40
0.0919640212694294
 40
0.3131071723835582
 40
0.5317161370181385
 40
0.7519271040207796
 40
0.8735253195737938
 40
0.8735253195737938
 40
0.8735253195737938
 40
0.8735253195737938
 10
53.33684529736912
 20
177.6739364603157
 30
0.0
 10
53.26387843367891
 20
177.6678208445523
 30
0.0
 10
53.05101671822762
 20
177.6477258780466
 30
0.0
 10
52.68908320527299
 20
177.4596110552795
 30
0.0
 10
52.34293696580786
 20
177.1326671773483
 30
0.0
 10
52.13948407891287
 20
176.762104073047
 30
0.0
 10
52.08734256062303
 20
176.5321906140539
 30
0.0
 10
52.07364976033629
 20
176.4467619968524
 30
0.0
  0
ARC
  5
1C6
330
167
100
AcDbEntity
  8
$DDT_AUDIT_GENERATED_(BA)
  6
Continuous
 62
     7
100
AcDbCircle
 10
53.5246605879
 20
176.9748527074
 30
0.0
 40
0.7326751167960036
100
AcDbArc
 50
88.3234107079
 51
105.0074875867
  0
ARC
  5
1C7
330
167
100
AcDbEntity
  8
$DDT_AUDIT_GENERATED_(BA)
  6
Continuous
 62
     7
100
AcDbCircle
 10
94.3434817598
 20
-651.6245212758
 30
0.0
 40
830.3736645439676
100
AcDbArc
 50
91.7247167522
 51
92.8199067895
  0
SPLINE
  5
1C8
330
167
100
AcDbEntity
  8
$DDT_AUDIT_GENERATED_(BA)
  6
Continuous
 62
     7
100
AcDbSpline
210
0.0
220
0.0
230
1.0
 70
     8
 71
     3
 72
    12
 73
     8
 74
     0
 42
0.0000000130156442
 43
0.0000000001
 40
0.0
 40
0.0
 40
0.0
 40
0.0
 40
0.1047251812350532
 40
0.3563038678012719
 40
0.6122728852405326
 40
0.8342403465106628
 40
0.8625439303353034
 40
0.8625439303353034
 40
0.8625439303353034
 40
0.8625439303353034
 10
103.5419884215842
 20
131.4432850051685
 30
0.0
 10
103.5714365542899
 20
131.4415710182408
 30
0.0
 10
103.6575664927666
 20
131.4376035091798
 30
0.0
 10
103.8132100242578
 20
131.4970576204106
 30
0.0
 10
103.9520141921144
 20
131.6154742721273
 30
0.0
 10
104.015515604632
 20
131.7314687272697
 30
0.0
 10
104.0273203559598
 20
131.7892808475382
 30
0.0
 10
104.0284434565604
 20
131.7958547748563
 30
0.0
  0
LINE
  5
1C9
330
167
100
AcDbEntity
  8
$DDT_AUDIT_GENERATED_(BA)
  6
Continuous
 62
     7
100
AcDbLine
 10
100.2545333246
 20
131.4358431491
 30
0.0
 11
103.5419642508
 21
131.4360059376
 31
0.0
  0
ARC
  5
1CA
330
167
100
AcDbEntity
  8
$DDT_AUDIT_GENERATED_(BA)
  6
Continuous
 62
     7
100
AcDbCircle
 10
100.1796544057
 20
129.7021224318
 30
0.0
 40
1.737652176105625
100
AcDbArc
 50
85.8099051871
 51
110.4093589512
  0
LINE
  5
1CB
330
167
100
AcDbEntity
  8
$DDT_AUDIT_GENERATED_(F4)
  6
Continuous
 62
     7
100
AcDbLine
 10
66.4463527763
 20
132.0042740296
 30
0.0
 11
66.4463527763
 21
128.0042740296
 31
0.0
  0
LINE
  5
1CC
330
167
100
AcDbEntity
  8
$DDT_AUDIT_GENERATED_(F4)
  6
Continuous
 62
     7
100
AcDbLine
 10
66.4463527763
 20
132.0042740296
 30
0.0
 11
66.4463527763
 21
133.2599706498
 31
0.0
  0
ARC
  5
1CD
330
167
100
AcDbEntity
  8
$DDT_AUDIT_GENERATED_(F4)
  6
Continuous
 62
     7
100
AcDbCircle
 10
82.1079999096
 20
132.0129330538
 30
0.0
 40
15.66164952696514
100
AcDbArc
 50
180.0316777338
 51
197.9155016174
  0
ARC
  5
1CE
330
167
100
AcDbEntity
  8
$DDT_AUDIT_GENERATED_(F4)
  6
Continuous
 62
     7
100
AcDbCircle
 10
82.300884135
 20
128.0093784235
 30
0.0
 40
15.85453218037281
100
AcDbArc
 50
180.0184464751
 51
197.8052804975
  0
ARC
  5
1CF
330
167
100
AcDbEntity
  8
$DDT_AUDIT_GENERATED_(F4)
  6
Continuous
 62
     7
100
AcDbCircle
 10
99.4792276782
 20
-18.3399948981
 30
0.0
 40
148.2690071455799
100
AcDbArc
 50
90.9346795665
 51
102.0970974445
  0
LINE
  5
1D0
330
167
100
AcDbEntity
  8
$DDT_AUDIT_GENERATED_(F4)
  6
Continuous
 62
     7
100
AcDbLine
 10
98.041909313
 20
130.6952355021
 30
0.0
 11
98.041909313
 21
126.6952355021
 31
0.0
  0
ELLIPSE
  5
1D1
330
167
100
AcDbEntity
  8
$DDT_AUDIT_GENERATED_(F4)
  6
Continuous
 62
     7
100
AcDbEllipse
 10
68.1686734696
 20
127.4100907189
 30
0.0
 11
1.000000000000029
 21
4.504157803543962E-14
 31
0.0
210
0.0
220
0.0
230
1.0
 40
0.7964398315
 41
3.414806488588681
 42
4.952656381869423
  0
ELLIPSE
  5
1D2
330
167
100
AcDbEntity
  8
$DDT_AUDIT_GENERATED_(F4)
  6
Continuous
 62
     7
100
AcDbEllipse
 10
68.1686734696
 20
123.4100907189
 30
0.0
 11
0.9521434640251403
 21
0.3056514745820963
 31
0.0
210
0.0
220
0.0
230
1.0
 40
0.4817305471
 41
3.022030386748591
 42
3.141592653589812
  0
SPLINE
  5
1D3
330
167
100
AcDbEntity
  8
$DDT_AUDIT_GENERATED_(F4)
  6
Continuous
 62
     7
100
AcDbSpline
210
0.0
220
0.0
230
1.0
 70
     8
 71
     3
 72
    14
 73
    10
 74
     0
 42
0.0000000071103571
 43
0.0000000001
 40
0.1400958218227971
 40
0.1400958218227971
 40
0.1400958218227971
 40
0.1400958218227971
 40
0.25
 40
0.25
 40
0.5
 40
0.5
 40
0.75
 40
0.75
 40
1.0
 40
1.0
 40
1.0
 40
1.0
 10
65.67336195983981
 20
132.8581053283702
 30
0.0
 10
65.73124975422984
 20
132.8471408168324
 30
0.0
 10
65.78762309240332
 20
132.8320605944695
 30
0.0
 10
65.96451343584233
 20
132.7701504387643
 30
0.0
 10
66.07465387216932
 20
132.7076414298073
 30
0.0
 10
66.25616132571966
 20
132.5546346752683
 30
0.0
 10
66.3263854065583
 20
132.4656740884278
 30
0.0
 10
66.42212844594042
 20
132.2710575784227
 30
0.0
 10
66.44635277631025
 20
132.1687225293499
 30
0.0
 10
66.44635277631025
 20
132.0634677910386
 30
0.0
  0
LINE
  5
1D4
330
167
100
AcDbEntity
  8
$DDT_AUDIT_GENERATED_(F4)
  6
Continuous
 62
     7
100
AcDbLine
 10
98.041909313
 20
133.0600912665
 30
0.0
 11
98.041909313
 21
130.6952355021
 31
0.0
  0
ARC
  5
1D5
330
167
100
AcDbEntity
  8
$DDT_AUDIT_GENERATED_(F4)
  6
Continuous
 62
     7
100
AcDbCircle
 10
97.041909313
 20
126.6952355021
 30
0.0
 40
1.000000000000026
100
AcDbArc
 50
270.9364154005
 51
0.0
  0
ARC
  5
1D6
330
167
100
AcDbEntity
  8
$DDT_AUDIT_GENERATED_(F4)
  6
Continuous
 62
     7
100
AcDbCircle
 10
99.3233823981
 20
-21.9154193443
 30
0.0
 40
147.6213304352521
100
AcDbArc
 50
90.8790881674
 51
102.0999248343
  0
ARC
  5
1D7
330
167
100
AcDbEntity
  8
$DDT_AUDIT_GENERATED_(F4)
  6
Continuous
 62
     7
100
AcDbCircle
 10
68.1686734696
 20
123.4100907189
 30
0.0
 40
1.000000000000003
100
AcDbArc
 50
197.7973624622
 51
282.0718036089
  0
SPLINE
  5
1D8
330
167
100
AcDbEntity
  8
$DDT_AUDIT_GENERATED_(F4)
  6
Continuous
 62
     7
100
AcDbSpline
210
0.0
220
0.0
230
1.0
 70
     8
 71
     3
 72
    12
 73
     8
 74
     0
 42
0.0000000073726081
 43
0.0000000001
 40
0.106734660904328
 40
0.106734660904328
 40
0.106734660904328
 40
0.106734660904328
 40
0.2766449069405479
 40
0.4673683858036176
 40
0.6762084243057047
 40
0.916222953806342
 40
1.0
 40
1.0
 40
1.0
 40
1.0
 10
65.63777054745093
 20
132.8142567213467
 30
0.0
 10
65.73554404999246
 20
132.8027860589925
 30
0.0
 10
65.94453556816984
 20
132.7359981982474
 30
0.0
 10
66.19941468719304
 20
132.5807661780339
 30
0.0
 10
66.37728686858152
 20
132.3668315459367
 30
0.0
 10
66.44647081414698
 20
132.1874804824823
 30
0.0
 10
66.44083494316627
 20
132.0917097990935
 30
0.0
 10
66.43858176344943
 20
132.0628641225763
 30
0.0
  0
LINE
  5
1D9
330
167
100
AcDbEntity
  8
$DDT_AUDIT_GENERATED_(102)
  6
Continuous
 62
     7
100
AcDbLine
 10
332.7419024803
 20
129.2984598337
 30
0.0
 11
332.7419024803
 21
176.2984598337
 31
0.0
  0
LINE
  5
1DA
330
167
100
AcDbEntity
  8
$DDT_AUDIT_GENERATED_(102)
  6
Continuous
 62
     7
100
AcDbLine
 10
324.7419024803
 20
129.2984598337
 30
0.0
 11
324.7419024803
 21
176.2984598337
 31
0.0
  0
LINE
  5
1DB
330
167
100
AcDbEntity
  8
$DDT_AUDIT_GENERATED_(102)
  6
Continuous
 62
     7
100
AcDbLine
 10
332.2419024803
 20
176.7984598337
 30
0.0
 11
325.2419024803
 21
176.7984598337
 31
0.0
  0
LINE
  5
1DC
330
167
100
AcDbEntity
  8
$DDT_AUDIT_GENERATED_(102)
  6
Continuous
 62
     7
100
AcDbLine
 10
325.2419024803
 20
128.7984598337
 30
0.0
 11
332.2419024803
 21
128.7984598337
 31
0.0
  0
ARC
  5
1DD
330
167
100
AcDbEntity
  8
$DDT_AUDIT_GENERATED_(102)
  6
Continuous
 62
     7
100
AcDbCircle
 10
332.2419024803
 20
176.2984598337
 30
0.0
 40
0.5000000000000004
100
AcDbArc
 50
0.0
 51
90.0
  0
ARC
  5
1DE
330
167
100
AcDbEntity
  8
$DDT_AUDIT_GENERATED_(102)
  6
Continuous
 62
     7
100
AcDbCircle
 10
332.2419024803
 20
129.2984598337
 30
0.0
 40
0.5000000000000004
100
AcDbArc
 50
270.0
 51
0.0
  0
ARC
  5
1DF
330
167
100
AcDbEntity
  8
$DDT_AUDIT_GENERATED_(102)
  6
Continuous
 62
     7
100
AcDbCircle
 10
325.2419024803
 20
129.2984598337
 30
0.0
 40
0.5000000000000004
100
AcDbArc
 50
180.0
 51
270.0
  0
ARC
  5
1E0
330
167
100
AcDbEntity
  8
$DDT_AUDIT_GENERATED_(102)
  6
Continuous
 62
     7
100
AcDbCircle
 10
325.2419024803
 20
176.2984598337
 30
0.0
 40
0.5000000000000004
100
AcDbArc
 50
90.0
 51
180.0
  0
LINE
  5
1E1
330
167
100
AcDbEntity
  8
$DDT_AUDIT_GENERATED_(102)
  6
Continuous
 62
     7
100
AcDbLine
 10
333.9919024803
 20
172.3484598337
 30
0.0
 11
333.2419024803
 21
172.3484598337
 31
0.0
  0
LINE
  5
1E2
330
167
100
AcDbEntity
  8
$DDT_AUDIT_GENERATED_(102)
  6
Continuous
 62
     7
100
AcDbLine
 10
333.2419024803
 20
133.2484598337
 30
0.0
 11
333.9919024803
 21
133.2484598337
 31
0.0
  0
ARC
  5
1E3
330
167
100
AcDbEntity
  8
$DDT_AUDIT_GENERATED_(102)
  6
Continuous
 62
     7
100
AcDbCircle
 10
333.2419024803
 20
172.8484598337
 30
0.0
 40
0.5000000000000004
100
AcDbArc
 50
180.0
 51
270.0
  0
ARC
  5
1E4
330
167
100
AcDbEntity
  8
$DDT_AUDIT_GENERATED_(102)
  6
Continuous
 62
     7
100
AcDbCircle
 10
333.2419024803
 20
132.7484598337
 30
0.0
 40
0.5000000000000004
100
AcDbArc
 50
90.0
 51
180.0
  0
LINE
  5
1E5
330
167
100
AcDbEntity
  8
$DDT_AUDIT_GENERATED_(12E)
  6
Continuous
 62
     7
100
AcDbLine
 10
385.991900573
 20
176.1648569724
 30
0.0
 11
385.991900573
 21
134.7808660577
 31
0.0
  0
LINE
  5
1E6
330
167
100
AcDbEntity
  8
$DDT_AUDIT_GENERATED_(12E)
  6
Continuous
 62
     7
100
AcDbLine
 10
385.991900573
 20
134.7808660577
 30
0.0
 11
385.991900573
 21
129.4320576692
 31
0.0
  0
LINE
  5
1E7
330
167
100
AcDbEntity
  8
$DDT_AUDIT_GENERATED_(12E)
  6
Continuous
 62
     7
100
AcDbLine
 10
361.9919024803
 20
174.9692966702
 30
0.0
 11
361.9919024803
 21
145.032558186
 31
0.0
  0
SPLINE
  5
1E8
330
167
100
AcDbEntity
  8
$DDT_AUDIT_GENERATED_(12E)
  6
Continuous
 62
     7
100
AcDbSpline
210
0.0
220
0.0
230
1.0
 70
     8
 71
     3
 72
    22
 73
    18
 74
     0
 42
0.0000000022670537
 43
0.0000000001
 40
0.0
 40
0.0
 40
0.0
 40
0.0
 40
0.0625000000000009
 40
0.0625000000000009
 40
0.1250000000000019
 40
0.1250000000000019
 40
0.1875000000000028
 40
0.1875000000000028
 40
0.2500000000000038
 40
0.2500000000000038
 40
0.3750000000000028
 40
0.3750000000000028
 40
0.5000000000000018
 40
0.5000000000000018
 40
0.7500000000000009
 40
0.7500000000000009
 40
1.0
 40
1.0
 40
1.0
 40
1.0
 10
360.4919024803085
 20
141.2753322825117
 30
0.0
 10
360.5832632080168
 20
141.2575147021724
 30
0.0
 10
360.6776228762208
 20
141.2618173935598
 30
0.0
 10
360.8552941175649
 20
141.3121327143795
 30
0.0
 10
360.938518655156
 20
141.3574707380108
 30
0.0
 10
361.0856461460226
 20
141.468353649105
 30
0.0
 10
361.1517809689354
 20
141.5350526031479
 30
0.0
 10
361.2690148835312
 20
141.6767390293236
 30
0.0
 10
361.3209746879099
 20
141.752464054123
 30
0.0
 10
361.4633037801073
 20
141.9895863242316
 30
0.0
 10
361.5387860701137
 20
142.1581312011436
 30
0.0
 10
361.6660839780272
 20
142.5006748960558
 30
0.0
 10
361.7180862601746
 20
142.6761451426748
 30
0.0
 10
361.8501941733368
 20
143.2112257680467
 30
0.0
 10
361.9054560128608
 20
143.5735332213349
 30
0.0
 10
361.9765717797043
 20
144.3001322687453
 30
0.0
 10
361.9919024803086
 20
144.6655347146279
 30
0.0
 10
361.9919024803086
 20
145.0325581859779
 30
0.0
  0
SPLINE
  5
1E9
330
167
100
AcDbEntity
  8
$DDT_AUDIT_GENERATED_(12E)
  6
Continuous
 62
     7
100
AcDbSpline
210
0.0
220
0.0
230
1.0
 70
     8
 71
     3
 72
    20
 73
    16
 74
     0
 42
0.0000000037649957
 43
0.0000000001
 40
0.0
 40
0.0
 40
0.0
 40
0.0
 40
0.2500000000000002
 40
0.2500000000000002
 40
0.5000000000000004
 40
0.5000000000000004
 40
0.6250000000000003
 40
0.6250000000000003
 40
0.7500000000000002
 40
0.7500000000000002
 40
0.8750000000000001
 40
0.8750000000000001
 40
0.9375
 40
0.9375
 40
1.0
 40
1.0
 40
1.0
 40
1.0
 10
361.9919024803086
 20
174.9692966701605
 30
0.0
 10
361.9919024803086
 20
175.1514786397557
 30
0.0
 10
361.9765644825317
 20
175.3296321966527
 30
0.0
 10
361.9055557427881
 20
175.6782485023338
 30
0.0
 10
361.8506501740861
 20
175.8486872772983
 30
0.0
 10
361.7186735092874
 20
176.0991446392541
 30
0.0
 10
361.6663453491632
 20
176.1814855541854
 30
0.0
 10
361.5380643536079
 20
176.3419841780352
 30
0.0
 10
361.462373436504
 20
176.420216334089
 30
0.0
 10
361.2739258319086
 20
176.567879526833
 30
0.0
 10
361.1595311607892
 20
176.6394435151941
 30
0.0
 10
360.9371500560875
 20
176.7254614571234
 30
0.0
 10
360.8558755072983
 20
176.7497689108592
 30
0.0
 10
360.677149095478
 20
176.7839444969025
 30
0.0
 10
360.5831688796505
 20
176.7926513173516
 30
0.0
 10
360.4919024803086
 20
176.7921872708871
 30
0.0
  0
LINE
  5
1EA
330
167
100
AcDbEntity
  8
$DDT_AUDIT_GENERATED_(12E)
  6
Continuous
 62
     7
100
AcDbLine
 10
333.9919024803
 20
127.3377504954
 30
0.0
 11
333.9919024803
 21
129.697321183
 31
0.0
  0
LINE
  5
1EB
330
167
100
AcDbEntity
  8
$DDT_AUDIT_GENERATED_(12E)
  6
Continuous
 62
     7
100
AcDbLine
 10
333.9919024803
 20
138.8158077501
 30
0.0
 11
333.9919024803
 21
143.264627852
 31
0.0
  0
LINE
  5
1EC
330
167
100
AcDbEntity
  8
$DDT_AUDIT_GENERATED_(12E)
  6
Continuous
 62
     7
100
AcDbLine
 10
333.9919024803
 20
143.6576518795
 30
0.0
 11
333.9919024803
 21
143.264627852
 31
0.0
  0
LINE
  5
1ED
330
167
100
AcDbEntity
  8
$DDT_AUDIT_GENERATED_(12E)
  6
Continuous
 62
     7
100
AcDbLine
 10
333.9919024803
 20
143.6576518795
 30
0.0
 11
333.9919024803
 21
176.1174756643
 31
0.0
  0
LINE
  5
1EE
330
167
100
AcDbEntity
  8
$DDT_AUDIT_GENERATED_(12E)
  6
Continuous
 62
     7
100
AcDbLine
 10
333.9919024803
 20
176.3941746925
 30
0.0
 11
333.9919024803
 21
178.2591720679
 31
0.0
  0
ARC
  5
1EF
330
167
100
AcDbEntity
  8
$DDT_AUDIT_GENERATED_(12E)
  6
Continuous
 62
     7
100
AcDbCircle
 10
326.8386552478
 20
-103.0718348309
 30
0.0
 40
246.6537636559826
100
AcDbArc
 50
82.1581487305
 51
88.2219239181
  0
ARC
  5
1F0
330
167
100
AcDbEntity
  8
$DDT_AUDIT_GENERATED_(12E)
  6
Continuous
 62
     7
100
AcDbCircle
 10
342.8712196095
 20
849.5085993244
 30
0.0
 40
672.9471446636372
100
AcDbArc
 50
269.2865533089
 51
271.5004241718
  0
ARC
  5
1F1
330
167
100
AcDbEntity
  8
$DDT_AUDIT_GENERATED_(12E)
  6
Continuous
 62
     7
100
AcDbCircle
 10
334.4970728782
 20
178.2608965795
 30
0.0
 40
0.505173341378289
100
AcDbArc
 50
109.0665699848
 51
180.1955911374
  0
SPLINE
  5
1F2
330
167
100
AcDbEntity
  8
$DDT_AUDIT_GENERATED_(12E)
  6
Continuous
 62
     7
100
AcDbSpline
210
0.0
220
0.0
230
1.0
 70
     8
 71
     3
 72
    16
 73
    12
 74
     0
 42
0.0000000056955345
 43
0.0000000001
 40
0.0
 40
0.0
 40
0.0
 40
0.0
 40
0.1249999999999997
 40
0.1249999999999997
 40
0.2499999999999993
 40
0.2499999999999993
 40
0.4999999999999996
 40
0.4999999999999996
 40
0.7499999999999998
 40
0.7499999999999998
 40
1.0
 40
1.0
 40
1.0
 40
1.0
 10
385.9919005729597
 20
134.7808660577442
 30
0.0
 10
385.9919005729568
 20
134.7243376645453
 30
0.0
 10
385.9836664482077
 20
134.666286075731
 30
0.0
 10
385.9516493537764
 20
134.5549129898108
 30
0.0
 10
385.9279543936883
 20
134.5005962534699
 30
0.0
 10
385.8337035736541
 20
134.3417412797691
 30
0.0
 10
385.740594646431
 20
134.2432296158229
 30
0.0
 10
385.5038149885659
 20
134.072589381117
 30
0.0
 10
385.3618253927413
 20
134.0013616536864
 30
0.0
 10
385.0423711726369
 20
133.8937419975637
 30
0.0
 10
384.8700300794503
 20
133.8587618960961
 30
0.0
 10
384.6891209124353
 20
133.8437476721337
 30
0.0
  0
ARC
  5
1F3
330
167
100
AcDbEntity
  8
$DDT_AUDIT_GENERATED_(12E)
  6
Continuous
 62
     7
100
AcDbCircle
 10
326.6052137227
 20
-221.3460400594
 30
0.0
 40
359.870624047736
100
AcDbArc
 50
80.74574247
 51
88.7445417127
  0
SPLINE
  5
1F4
330
167
100
AcDbEntity
  8
$DDT_AUDIT_GENERATED_(12E)
  6
Continuous
 62
     7
100
AcDbSpline
210
0.0
220
0.0
230
1.0
 70
     8
 71
     3
 72
    10
 73
     6
 74
     0
 42
0.0000000244333951
 43
0.0000000001
 40
0.0
 40
0.0
 40
0.0
 40
0.0
 40
0.5000000000000001
 40
0.5000000000000001
 40
1.0
 40
1.0
 40
1.0
 40
1.0
 10
334.3321106361553
 20
138.6504521650294
 30
0.0
 10
334.2316454811015
 20
138.6622613141313
 30
0.0
 10
334.1449727391208
 20
138.6849669219625
 30
0.0
 10
334.0243735627622
 20
138.7440305888223
 30
0.0
 10
333.9919024803085
 20
138.7801161586816
 30
0.0
 10
333.9919024803085
 20
138.8158077500967
 30
0.0
  0
ARC
  5
1F5
330
167
100
AcDbEntity
  8
$DDT_AUDIT_GENERATED_(12E)
  6
Continuous
 62
     7
100
AcDbCircle
 10
337.181057049
 20
140.6051299064
 30
0.0
 40
3.455034114974799
100
AcDbArc
 50
214.4542318175
 51
218.8425136579
  0
ARC
  5
1F6
330
167
100
AcDbEntity
  8
$DDT_AUDIT_GENERATED_(12E)
  6
Continuous
 62
     7
100
AcDbCircle
 10
298.5336547739
 20
164.893843438
 30
0.0
 40
44.38744222893076
100
AcDbArc
 50
323.7553324135
 51
324.1236134971
  0
ARC
  5
1F7
330
167
100
AcDbEntity
  8
$DDT_AUDIT_GENERATED_(12E)
  6
Continuous
 62
     7
100
AcDbCircle
 10
342.2046990664
 20
-617.4535083517
 30
0.0
 40
796.2418704032348
100
AcDbArc
 50
88.0951906295
 51
90.555139566
  0
ARC
  5
1F8
330
167
100
AcDbEntity
  8
$DDT_AUDIT_GENERATED_(12E)
  6
Continuous
 62
     7
100
AcDbCircle
 10
334.1621508806
 20
178.0925977417
 30
0.0
 40
0.6677344205522601
100
AcDbArc
 50
59.5989932296
 51
75.2595555059
  0
ARC
  5
1F9
330
167
100
AcDbEntity
  8
$DDT_AUDIT_GENERATED_(12E)
  6
Continuous
 62
     7
100
AcDbCircle
 10
334.4477982957
 20
178.2849301829
 30
0.0
 40
0.4679665223538701
100
AcDbArc
 50
84.8233040218
 51
104.3203882984
  0
ELLIPSE
  5
1FA
330
167
100
AcDbEntity
  8
$DDT_AUDIT_GENERATED_(12E)
  6
Continuous
 62
     7
100
AcDbEllipse
 10
384.4873387542
 20
176.7067675503
 30
0.0
 11
-0.04659925964725648
 21
-0.9989136644376895
 31
0.0
210
0.0
220
0.0
230
1.0
 40
0.185743369
 41
3.099299814876534
 42
3.136431951752383
  0
ARC
  5
1FB
330
167
100
AcDbEntity
  8
$DDT_AUDIT_GENERATED_(12E)
  6
Continuous
 62
     7
100
AcDbCircle
 10
342.2071817021
 20
922.9378554612
 30
0.0
 40
796.1293304301361
100
AcDbArc
 50
269.4446032221
 51
271.8958869312
  0
ARC
  5
1FC
330
167
100
AcDbEntity
  8
$DDT_AUDIT_GENERATED_(12E)
  6
Continuous
 62
     7
100
AcDbCircle
 10
334.4970688078
 20
127.3360269768
 30
0.0
 40
0.5051692676216378
100
AcDbArc
 50
179.8045199153
 51
250.9362466344
  0
ARC
  5
1FD
330
167
100
AcDbEntity
  8
$DDT_AUDIT_GENERATED_(12E)
  6
Continuous
 62
     7
100
AcDbCircle
 10
334.4478217929
 20
127.3119901348
 30
0.0
 40
0.4679681974230884
100
AcDbArc
 50
255.6793146282
 51
275.1736913985
  0
ELLIPSE
  5
1FE
330
167
100
AcDbEntity
  8
$DDT_AUDIT_GENERATED_(12E)
  6
Continuous
 62
     7
100
AcDbEllipse
 10
384.4873402571
 20
128.8901472006
 30
0.0
 11
-0.04660290918184756
 21
0.9989134941804612
 31
0.0
210
0.0
220
0.0
230
1.0
 40
0.1857460276
 41
3.150759814872774
 42
3.179948292279964
  0
LINE
  5
1FF
330
167
100
AcDbEntity
  8
$DDT_AUDIT_GENERATED_(12E)
  6
Continuous
 62
     7
100
AcDbLine
 10
333.9919024803
 20
131.8975685004
 30
0.0
 11
333.9919024803
 21
138.8158077501
 31
0.0
  0
SPLINE
  5
200
330
167
100
AcDbEntity
  8
$DDT_AUDIT_GENERATED_(12E)
  6
Continuous
 62
     7
100
AcDbSpline
210
0.0
220
0.0
230
1.0
 70
     8
 71
     3
 72
    10
 73
     6
 74
     0
 42
0.0000000134062571
 43
0.0000000001
 40
0.0
 40
0.0
 40
0.0
 40
0.0
 40
0.5
 40
0.5
 40
1.0
 40
1.0
 40
1.0
 40
1.0
 10
333.9919024803085
 20
131.8975685004062
 30
0.0
 10
333.9919024803085
 20
131.7854866464648
 30
0.0
 10
334.0459430066832
 20
131.6758428469464
 30
0.0
 10
334.2302171519989
 20
131.5190267150248
 30
0.0
 10
334.359701251075
 20
131.4727761985002
 30
0.0
 10
334.4918378825382
 20
131.4727616908511
 30
0.0
  0
ELLIPSE
  5
201
330
167
100
AcDbEntity
  8
$DDT_AUDIT_GENERATED_(12E)
  6
Continuous
 62
     7
100
AcDbEllipse
 10
333.9648818749
 20
123.0771707865
 30
0.0
 11
8.679999999999744
 21
-4.133956839933099E-13
 31
0.0
210
0.0
220
0.0
230
1.0
 40
0.8660254038
 41
1.014843910026565
 42
1.54522815761429
  0
ELLIPSE
  5
202
330
167
100
AcDbEntity
  8
$DDT_AUDIT_GENERATED_(12E)
  6
Continuous
 62
     7
100
AcDbEllipse
 10
333.9648818749
 20
124.8771707865
 30
0.0
 11
8.680000000000673
 21
1.730722532314023E-12
 31
0.0
210
0.0
220
0.0
230
1.0
 40
0.8660254038
 41
1.014894251980956
 42
1.063314841839442
  0
LINE
  5
203
330
167
100
AcDbEntity
  8
$DDT_AUDIT_GENERATED_(12E)
  6
Continuous
 62
     7
100
AcDbLine
 10
333.9919024803
 20
130.7649628124
 30
0.0
 11
333.9919024803
 21
131.8055572317
 31
0.0
  0
LINE
  5
204
330
167
100
AcDbEntity
  8
$DDT_AUDIT_GENERATED_(12E)
  6
Continuous
 62
     7
100
AcDbLine
 10
333.9919024803
 20
130.7649628124
 30
0.0
 11
333.9919024803
 21
130.2184340452
 31
0.0
  0
LINE
  5
205
330
167
100
AcDbEntity
  8
$DDT_AUDIT_GENERATED_(12E)
  6
Continuous
 62
     7
100
AcDbLine
 10
333.9919024803
 20
129.697321183
 30
0.0
 11
333.9919024803
 21
130.2184340452
 31
0.0
  0
SPLINE
  5
206
330
167
100
AcDbEntity
  8
$DDT_AUDIT_GENERATED_(12E)
  6
Continuous
 62
     7
100
AcDbSpline
210
0.0
220
0.0
230
1.0
 70
     8
 71
     3
 72
    10
 73
     6
 74
     0
 42
0.0000000133390964
 43
0.0000000001
 40
0.8472189946324211
 40
0.8472189946324211
 40
0.8472189946324211
 40
0.8472189946324211
 40
0.875
 40
0.875
 40
1.0
 40
1.0
 40
1.0
 40
1.0
 10
338.4593833549055
 20
131.3314283263259
 30
0.0
 10
338.4660244049036
 20
131.327904784409
 30
0.0
 10
338.4725622592294
 20
131.3242889067851
 30
0.0
 10
338.5078445288368
 20
131.30382964414
 30
0.0
 10
338.5378093048964
 20
131.2837878514506
 30
0.0
 10
338.5454025872666
 20
131.2623820205002
 30
0.0
  0
SPLINE
  5
207
330
167
100
AcDbEntity
  8
$DDT_AUDIT_GENERATED_(12E)
  6
Continuous
 62
     7
100
AcDbSpline
210
0.0
220
0.0
230
1.0
 70
     8
 71
     3
 72
    12
 73
     8
 74
     0
 42
0.0000000045517457
 43
0.0000000001
 40
0.0961710832947782
 40
0.0961710832947782
 40
0.0961710832947782
 40
0.0961710832947782
 40
0.198659291239175
 40
0.4400815766932148
 40
0.6583907935199983
 40
0.8747085505280439
 40
1.0
 40
1.0
 40
1.0
 40
1.0
 10
385.9728330309404
 20
176.3801484762048
 30
0.0
 10
385.9639042175075
 20
176.4527301224503
 30
0.0
 10
385.9229861080833
 20
176.6858492966331
 30
0.0
 10
385.7390179897994
 20
177.0710100872931
 30
0.0
 10
385.3981157111903
 20
177.4200809171282
 30
0.0
 10
385.0275635851089
 20
177.6338508519999
 30
0.0
 10
384.7953483111972
 20
177.6588111308668
 30
0.0
 10
384.696023948104
 20
177.6681070003219
 30
0.0
  0
ARC
  5
208
330
167
100
AcDbEntity
  8
$DDT_AUDIT_GENERATED_(12E)
  6
Continuous
 62
     7
100
AcDbCircle
 10
384.5886589865
 20
176.9812616939
 30
0.0
 40
0.7191490576073655
100
AcDbArc
 50
76.9230440219
 51
94.3582961547
  0
ARC
  5
209
330
167
100
AcDbEntity
  8
$DDT_AUDIT_GENERATED_(12E)
  6
Continuous
 62
     7
100
AcDbCircle
 10
342.1364146672
 20
-695.9288570747
 30
0.0
 40
874.7045859744012
100
AcDbArc
 50
87.2211637845
 51
88.2598968895
  0
SPLINE
  5
20A
330
167
100
AcDbEntity
  8
$DDT_AUDIT_GENERATED_(12E)
  6
Continuous
 62
     7
100
AcDbSpline
210
0.0
220
0.0
230
1.0
 70
     8
 71
     3
 72
    12
 73
     8
 74
     0
 42
0.0000000045342473
 43
0.0000000001
 40
0.0
 40
0.0
 40
0.0
 40
0.0
 40
0.0919554816439205
 40
0.3131014420850816
 40
0.5317132545954797
 40
0.7519271418168881
 40
1.0
 40
1.0
 40
1.0
 40
1.0
 10
384.6969872632442
 20
127.9229819657752
 30
0.0
 10
384.7699463627631
 20
127.9290975278738
 30
0.0
 10
384.982801396192
 20
127.949193359349
 30
0.0
 10
385.3447273999954
 20
128.1373080461265
 30
0.0
 10
385.6908722501205
 20
128.4642529217892
 30
0.0
 10
385.9402370529938
 20
128.9184436510325
 30
0.0
 10
385.9751986507871
 20
129.2354035785367
 30
0.0
 10
385.9919005729597
 20
129.432057669238
 30
0.0
  0
LINE
  5
20B
330
167
100
AcDbEntity
  8
$DDT_AUDIT_GENERATED_(12E)
  6
Continuous
 62
     7
100
AcDbLine
 10
384.5351953316
 20
127.9042053862
 30
0.0
 11
384.7513807972
 21
127.915155049
 31
0.0
  0
ARC
  5
20C
330
167
100
AcDbEntity
  8
$DDT_AUDIT_GENERATED_(12E)
  6
Continuous
 62
     7
100
AcDbCircle
 10
343.5982120693
 20
959.2135223369
 30
0.0
 40
832.3678403137133
100
AcDbArc
 50
271.7193508513
 51
272.8194938261
  0
ARC
  5
20D
330
167
100
AcDbEntity
  8
$DDT_AUDIT_GENERATED_(12E)
  6
Continuous
 62
     7
100
AcDbCircle
 10
337.8762709585
 20
129.7699255292
 30
0.0
 40
1.666568400581061
100
AcDbArc
 50
69.548972563
 51
93.3593142677
  0
LINE
  5
20E
330
167
100
AcDbEntity
  8
$DDT_AUDIT_GENERATED_(12E)
  6
Continuous
 62
     7
100
AcDbLine
 10
334.491841205
 20
131.4361264306
 30
0.0
 11
337.7787009238
 21
131.4357901497
 31
0.0
  0
SPLINE
  5
20F
330
167
100
AcDbEntity
  8
$DDT_AUDIT_GENERATED_(12E)
  6
Continuous
 62
     7
100
AcDbSpline
210
0.0
220
0.0
230
1.0
 70
     8
 71
     3
 72
    12
 73
     8
 74
     0
 42
0.0000000133153667
 43
0.0000000001
 40
0.0
 40
0.0
 40
0.0
 40
0.0
 40
0.0951104198041457
 40
0.327729172182003
 40
0.5599542876811356
 40
0.7999643207825287
 40
1.0
 40
1.0
 40
1.0
 40
1.0
 10
334.0009646151394
 20
131.8819488832006
 30
0.0
 10
333.9992578932527
 20
131.8569233462679
 30
0.0
 10
333.9950479078655
 20
131.7825719123727
 30
0.0
 10
334.0579798228318
 20
131.6516121531596
 30
0.0
 10
334.175604883264
 20
131.5277228103967
 30
0.0
 10
334.3327429869627
 20
131.448578970783
 30
0.0
 10
334.4368402530033
 20
131.4435499541117
 30
0.0
 10
334.4919866771301
 20
131.4420875730181
 30
0.0
  0
LINE
  5
211
330
167
100
AcDbEntity
  8
$DDT_AUDIT_GENERATED_(210)
  6
Continuous
 62
     7
100
AcDbLine
 10
133.2919024803
 20
193.4984598337
 30
0.0
 11
154.1919024803
 21
193.4984598337
 31
0.0
  0
LINE
  5
212
330
167
100
AcDbEntity
  8
$DDT_AUDIT_GENERATED_(210)
  6
Continuous
 62
     7
100
AcDbLine
 10
154.1919024803
 20
192.7984598337
 30
0.0
 11
154.1919024803
 21
193.4984598337
 31
0.0
  0
LINE
  5
213
330
167
100
AcDbEntity
  8
$DDT_AUDIT_GENERATED_(210)
  6
Continuous
 62
     7
100
AcDbLine
 10
133.2919024803
 20
193.4984598337
 30
0.0
 11
133.2919024803
 21
192.7984598337
 31
0.0
  0
LINE
  5
214
330
167
100
AcDbEntity
  8
$DDT_AUDIT_GENERATED_(210)
  6
Continuous
 62
     7
100
AcDbLine
 10
154.1919024803
 20
193.4984598337
 30
0.0
 11
154.1084521055
 21
193.5984598337
 31
0.0
  0
LINE
  5
215
330
167
100
AcDbEntity
  8
$DDT_AUDIT_GENERATED_(210)
  6
Continuous
 62
     7
100
AcDbLine
 10
133.3753528551
 20
193.5984598337
 30
0.0
 11
133.2919024803
 21
193.4984598337
 31
0.0
  0
LINE
  5
216
330
167
100
AcDbEntity
  8
$DDT_AUDIT_GENERATED_(210)
  6
Continuous
 62
     7
100
AcDbLine
 10
283.2919024803
 20
193.4984598337
 30
0.0
 11
304.1919024803
 21
193.4984598337
 31
0.0
  0
LINE
  5
217
330
167
100
AcDbEntity
  8
$DDT_AUDIT_GENERATED_(210)
  6
Continuous
 62
     7
100
AcDbLine
 10
304.1919024803
 20
192.7984598337
 30
0.0
 11
304.1919024803
 21
193.4984598337
 31
0.0
  0
LINE
  5
218
330
167
100
AcDbEntity
  8
$DDT_AUDIT_GENERATED_(210)
  6
Continuous
 62
     7
100
AcDbLine
 10
283.2919024803
 20
193.4984598337
 30
0.0
 11
283.2919024803
 21
192.7984598337
 31
0.0
  0
LINE
  5
219
330
167
100
AcDbEntity
  8
$DDT_AUDIT_GENERATED_(210)
  6
Continuous
 62
     7
100
AcDbLine
 10
304.1919024803
 20
193.4984598337
 30
0.0
 11
304.1084521055
 21
193.5984598337
 31
0.0
  0
LINE
  5
21A
330
167
100
AcDbEntity
  8
$DDT_AUDIT_GENERATED_(210)
  6
Continuous
 62
     7
100
AcDbLine
 10
283.3753528551
 20
193.5984598337
 30
0.0
 11
283.2919024803
 21
193.4984598337
 31
0.0
  0
LINE
  5
21C
330
167
100
AcDbEntity
  8
$DDT_AUDIT_GENERATED_(21B)
  6
Continuous
 62
     7
100
AcDbLine
 10
279.2419024803
 20
193.5984598337
 30
0.0
 11
308.2419024803
 21
193.5984598337
 31
0.0
  0
LINE
  5
21D
330
167
100
AcDbEntity
  8
$DDT_AUDIT_GENERATED_(21B)
  6
Continuous
 62
     7
100
AcDbLine
 10
279.2419024803
 20
210.5984598337
 30
0.0
 11
308.2419024803
 21
210.5984598337
 31
0.0
  0
LINE
  5
21E
330
167
100
AcDbEntity
  8
$DDT_AUDIT_GENERATED_(21B)
  6
Continuous
 62
     7
100
AcDbLine
 10
309.8572835371
 20
207.0984598337
 30
0.0
 11
309.9919024803
 21
207.0984598337
 31
0.0
  0
LINE
  5
21F
330
167
100
AcDbEntity
  8
$DDT_AUDIT_GENERATED_(21B)
  6
Continuous
 62
     7
100
AcDbLine
 10
303.6072835371
 20
207.0984598337
 30
0.0
 11
299.9919024803
 21
207.0984598337
 31
0.0
  0
LINE
  5
220
330
167
100
AcDbEntity
  8
$DDT_AUDIT_GENERATED_(21B)
  6
Continuous
 62
     7
100
AcDbLine
 10
287.4919024803
 20
207.0984598337
 30
0.0
 11
283.8765214235
 21
207.0984598337
 31
0.0
  0
LINE
  5
221
330
167
100
AcDbEntity
  8
$DDT_AUDIT_GENERATED_(21B)
  6
Continuous
 62
     7
100
AcDbLine
 10
277.6265214235
 20
207.0984598337
 30
0.0
 11
277.4919024803
 21
207.0984598337
 31
0.0
  0
SPLINE
  5
222
330
167
100
AcDbEntity
  8
$DDT_AUDIT_GENERATED_(21B)
  6
Continuous
 62
     7
100
AcDbSpline
210
0.0
220
0.0
230
1.0
 70
     8
 71
     3
 72
    14
 73
    10
 74
     0
 42
0.0000000011014719
 43
0.0000000001
 40
0.0
 40
0.0
 40
0.0
 40
0.0
 40
0.25
 40
0.25
 40
0.5
 40
0.5
 40
0.75
 40
0.75
 40
1.0
 40
1.0
 40
1.0
 40
1.0
 10
283.8765214235343
 20
207.0984598336584
 30
0.0
 10
283.5292035749069
 20
208.0762664021115
 30
0.0
 10
283.0312762623236
 20
208.7731248962924
 30
0.0
 10
281.9413681977553
 20
209.679806848162
 30
0.0
 10
281.3474940163503
 20
209.8937539484811
 30
0.0
 10
280.1590889129614
 20
209.894621101523
 30
0.0
 10
279.5735351305644
 20
209.6873025432539
 30
0.0
 10
278.4732533874579
 20
208.7767040473306
 30
0.0
 10
277.973456661284
 20
208.0751892348148
 30
0.0
 10
277.6265214235342
 20
207.0984598336584
 30
0.0
  0
SPLINE
  5
223
330
167
100
AcDbEntity
  8
$DDT_AUDIT_GENERATED_(21B)
  6
Continuous
 62
     7
100
AcDbSpline
210
0.0
220
0.0
230
1.0
 70
     8
 71
     3
 72
    14
 73
    10
 74
     0
 42
0.0000000006969408
 43
0.0000000001
 40
0.0
 40
0.0
 40
0.0
 40
0.0
 40
0.25
 40
0.25
 40
0.5
 40
0.5
 40
0.75
 40
0.75
 40
1.0
 40
1.0
 40
1.0
 40
1.0
 10
299.9919024803008
 20
207.0984598336584
 30
0.0
 10
299.2988141277887
 20
208.0740882764281
 30
0.0
 10
298.2912539599578
 20
208.7800669650755
 30
0.0
 10
296.1006085075841
 20
209.6857807294717
 30
0.0
 10
294.9163942040947
 20
209.8960831261616
 30
0.0
 10
292.5363061952702
 20
209.8922682880246
 30
0.0
 10
291.3532825857266
 20
209.6769690454749
 30
0.0
 10
289.1812795458841
 20
208.7717827308367
 30
0.0
 10
288.1797768326508
 20
208.0667487693647
 30
0.0
 10
287.4919024803008
 20
207.0984598336584
 30
0.0
  0
SPLINE
  5
224
330
167
100
AcDbEntity
  8
$DDT_AUDIT_GENERATED_(21B)
  6
Continuous
 62
     7
100
AcDbSpline
210
0.0
220
0.0
230
1.0
 70
     8
 71
     3
 72
    14
 73
    10
 74
     0
 42
0.0000000011014719
 43
0.0000000001
 40
0.0
 40
0.0
 40
0.0
 40
0.0
 40
0.25
 40
0.25
 40
0.5
 40
0.5
 40
0.75
 40
0.75
 40
1.0
 40
1.0
 40
1.0
 40
1.0
 10
309.8572835370674
 20
207.0984598336584
 30
0.0
 10
309.5099656884402
 20
208.0762664021115
 30
0.0
 10
309.0120383758567
 20
208.7731248962924
 30
0.0
 10
307.9221303112885
 20
209.679806848162
 30
0.0
 10
307.3282561298835
 20
209.8937539484811
 30
0.0
 10
306.1398510264946
 20
209.894621101523
 30
0.0
 10
305.5542972440975
 20
209.6873025432539
 30
0.0
 10
304.454015500991
 20
208.7767040473306
 30
0.0
 10
303.9542187748172
 20
208.0751892348148
 30
0.0
 10
303.6072835370674
 20
207.0984598336584
 30
0.0
  0
LINE
  5
225
330
167
100
AcDbEntity
  8
$DDT_AUDIT_GENERATED_(21B)
  6
Continuous
 62
     7
100
AcDbLine
 10
309.8572835371
 20
197.0984598337
 30
0.0
 11
309.9919024803
 21
197.0984598337
 31
0.0
  0
LINE
  5
226
330
167
100
AcDbEntity
  8
$DDT_AUDIT_GENERATED_(21B)
  6
Continuous
 62
     7
100
AcDbLine
 10
303.6072835371
 20
197.0984598337
 30
0.0
 11
299.9919024803
 21
197.0984598337
 31
0.0
  0
LINE
  5
227
330
167
100
AcDbEntity
  8
$DDT_AUDIT_GENERATED_(21B)
  6
Continuous
 62
     7
100
AcDbLine
 10
287.4919024803
 20
197.0984598337
 30
0.0
 11
283.8765214235
 21
197.0984598337
 31
0.0
  0
LINE
  5
228
330
167
100
AcDbEntity
  8
$DDT_AUDIT_GENERATED_(21B)
  6
Continuous
 62
     7
100
AcDbLine
 10
277.6265214235
 20
197.0984598337
 30
0.0
 11
277.4919024803
 21
197.0984598337
 31
0.0
  0
LINE
  5
229
330
167
100
AcDbEntity
  8
$DDT_AUDIT_GENERATED_(21B)
  6
Continuous
 62
     7
100
AcDbLine
 10
309.8572835371
 20
207.0984598337
 30
0.0
 11
309.8572835371
 21
197.0984598337
 31
0.0
  0
SPLINE
  5
22A
330
167
100
AcDbEntity
  8
$DDT_AUDIT_GENERATED_(21B)
  6
Continuous
 62
     7
100
AcDbSpline
210
0.0
220
0.0
230
1.0
 70
     8
 71
     3
 72
    14
 73
    10
 74
     0
 42
0.0000000011014719
 43
0.0000000001
 40
0.0
 40
0.0
 40
0.0
 40
0.0
 40
0.2499999999999999
 40
0.2499999999999999
 40
0.4999999999999999
 40
0.4999999999999999
 40
0.7499999999999999
 40
0.7499999999999999
 40
1.0
 40
1.0
 40
1.0
 40
1.0
 10
309.8572835370674
 20
197.0984598336584
 30
0.0
 10
309.5099656884402
 20
196.1206532652052
 30
0.0
 10
309.0120383758567
 20
195.4237947710243
 30
0.0
 10
307.9221303112885
 20
194.5171128191546
 30
0.0
 10
307.3282561298835
 20
194.3031657188356
 30
0.0
 10
306.1398510264946
 20
194.3022985657937
 30
0.0
 10
305.5542972440975
 20
194.5096171240627
 30
0.0
 10
304.454015500991
 20
195.4202156199861
 30
0.0
 10
303.9542187748172
 20
196.1217304325019
 30
0.0
 10
303.6072835370674
 20
197.0984598336584
 30
0.0
  0
LINE
  5
22B
330
167
100
AcDbEntity
  8
$DDT_AUDIT_GENERATED_(21B)
  6
Continuous
 62
     7
100
AcDbLine
 10
303.6072835371
 20
197.0984598337
 30
0.0
 11
303.6072835371
 21
207.0984598337
 31
0.0
  0
LINE
  5
22C
330
167
100
AcDbEntity
  8
$DDT_AUDIT_GENERATED_(21B)
  6
Continuous
 62
     7
100
AcDbLine
 10
299.9919024803
 20
207.0984598337
 30
0.0
 11
299.9919024803
 21
197.0984598337
 31
0.0
  0
SPLINE
  5
22D
330
167
100
AcDbEntity
  8
$DDT_AUDIT_GENERATED_(21B)
  6
Continuous
 62
     7
100
AcDbSpline
210
0.0
220
0.0
230
1.0
 70
     8
 71
     3
 72
    14
 73
    10
 74
     0
 42
0.0000000006969408
 43
0.0000000001
 40
0.0
 40
0.0
 40
0.0
 40
0.0
 40
0.25
 40
0.25
 40
0.5
 40
0.5
 40
0.75
 40
0.75
 40
1.0
 40
1.0
 40
1.0
 40
1.0
 10
299.9919024803008
 20
197.0984598336584
 30
0.0
 10
299.2988141277887
 20
196.1228313908886
 30
0.0
 10
298.2912539599578
 20
195.4168527022412
 30
0.0
 10
296.1006085075841
 20
194.511138937845
 30
0.0
 10
294.9163942040947
 20
194.300836541155
 30
0.0
 10
292.5363061952702
 20
194.3046513792921
 30
0.0
 10
291.3532825857266
 20
194.5199506218418
 30
0.0
 10
289.1812795458841
 20
195.42513693648
 30
0.0
 10
288.1797768326508
 20
196.130170897952
 30
0.0
 10
287.4919024803008
 20
197.0984598336584
 30
0.0
  0
LINE
  5
22E
330
167
100
AcDbEntity
  8
$DDT_AUDIT_GENERATED_(21B)
  6
Continuous
 62
     7
100
AcDbLine
 10
287.4919024803
 20
197.0984598337
 30
0.0
 11
287.4919024803
 21
207.0984598337
 31
0.0
  0
LINE
  5
22F
330
167
100
AcDbEntity
  8
$DDT_AUDIT_GENERATED_(21B)
  6
Continuous
 62
     7
100
AcDbLine
 10
283.8765214235
 20
207.0984598337
 30
0.0
 11
283.8765214235
 21
197.0984598337
 31
0.0
  0
SPLINE
  5
230
330
167
100
AcDbEntity
  8
$DDT_AUDIT_GENERATED_(21B)
  6
Continuous
 62
     7
100
AcDbSpline
210
0.0
220
0.0
230
1.0
 70
     8
 71
     3
 72
    14
 73
    10
 74
     0
 42
0.0000000011014719
 43
0.0000000001
 40
0.0
 40
0.0
 40
0.0
 40
0.0
 40
0.2500000000000001
 40
0.2500000000000001
 40
0.5000000000000001
 40
0.5000000000000001
 40
0.7500000000000002
 40
0.7500000000000002
 40
1.0
 40
1.0
 40
1.0
 40
1.0
 10
283.8765214235343
 20
197.0984598336584
 30
0.0
 10
283.5292035749069
 20
196.1206532652052
 30
0.0
 10
283.0312762623236
 20
195.4237947710244
 30
0.0
 10
281.9413681977553
 20
194.5171128191546
 30
0.0
 10
281.3474940163503
 20
194.3031657188356
 30
0.0
 10
280.1590889129614
 20
194.3022985657937
 30
0.0
 10
279.5735351305644
 20
194.5096171240628
 30
0.0
 10
278.4732533874579
 20
195.4202156199861
 30
0.0
 10
277.973456661284
 20
196.1217304325019
 30
0.0
 10
277.6265214235342
 20
197.0984598336584
 30
0.0
  0
LINE
  5
231
330
167
100
AcDbEntity
  8
$DDT_AUDIT_GENERATED_(21B)
  6
Continuous
 62
     7
100
AcDbLine
 10
277.6265214235
 20
197.0984598337
 30
0.0
 11
277.6265214235
 21
207.0984598337
 31
0.0
  0
LINE
  5
232
330
167
100
AcDbEntity
  8
$DDT_AUDIT_GENERATED_(21B)
  6
Continuous
 62
     7
100
AcDbLine
 10
277.4919024803
 20
207.0984598337
 30
0.0
 11
277.4919024803
 21
197.0984598337
 31
0.0
  0
ARC
  5
233
330
167
100
AcDbEntity
  8
$DDT_AUDIT_GENERATED_(21B)
  6
Continuous
 62
     7
100
AcDbCircle
 10
300.3455000839
 20
199.7341610319
 30
0.0
 40
9.999999999999996
100
AcDbArc
 50
322.1519040322
 51
344.7179936136
  0
ARC
  5
234
330
167
100
AcDbEntity
  8
$DDT_AUDIT_GENERATED_(21B)
  6
Continuous
 62
     7
100
AcDbCircle
 10
287.1383048767
 20
199.7341610319
 30
0.0
 40
9.999999999999991
100
AcDbArc
 50
195.2820063864
 51
217.8480959678
  0
ARC
  5
235
330
167
100
AcDbEntity
  8
$DDT_AUDIT_GENERATED_(21B)
  6
Continuous
 62
     7
100
AcDbCircle
 10
300.3455000839
 20
204.4627586354
 30
0.0
 40
9.999999999999993
100
AcDbArc
 50
15.2820063864
 51
37.8480959678
  0
ARC
  5
236
330
167
100
AcDbEntity
  8
$DDT_AUDIT_GENERATED_(21B)
  6
Continuous
 62
     7
100
AcDbCircle
 10
287.1383048767
 20
204.4627586354
 30
0.0
 40
9.999999999999996
100
AcDbArc
 50
142.1519040322
 51
164.7179936136
  0
LINE
  5
237
330
167
100
AcDbEntity
  8
$DDT_AUDIT_GENERATED_(21B)
  6
Continuous
 62
     7
100
AcDbLine
 10
309.9919024803
 20
197.0984598337
 30
0.0
 11
309.9919024803
 21
207.0984598337
 31
0.0
  0
LINE
  5
238
330
167
100
AcDbEntity
  8
$DDT_AUDIT_GENERATED_(21B)
  6
Continuous
 62
     7
100
AcDbLine
 10
129.2419024803
 20
193.5984598337
 30
0.0
 11
158.2419024803
 21
193.5984598337
 31
0.0
  0
LINE
  5
239
330
167
100
AcDbEntity
  8
$DDT_AUDIT_GENERATED_(21B)
  6
Continuous
 62
     7
100
AcDbLine
 10
129.2419024803
 20
210.5984598337
 30
0.0
 11
158.2419024803
 21
210.5984598337
 31
0.0
  0
LINE
  5
23A
330
167
100
AcDbEntity
  8
$DDT_AUDIT_GENERATED_(21B)
  6
Continuous
 62
     7
100
AcDbLine
 10
159.8572835371
 20
207.0984598337
 30
0.0
 11
159.9919024803
 21
207.0984598337
 31
0.0
  0
LINE
  5
23B
330
167
100
AcDbEntity
  8
$DDT_AUDIT_GENERATED_(21B)
  6
Continuous
 62
     7
100
AcDbLine
 10
153.6072835371
 20
207.0984598337
 30
0.0
 11
149.9919024803
 21
207.0984598337
 31
0.0
  0
LINE
  5
23C
330
167
100
AcDbEntity
  8
$DDT_AUDIT_GENERATED_(21B)
  6
Continuous
 62
     7
100
AcDbLine
 10
137.4919024803
 20
207.0984598337
 30
0.0
 11
133.8765214235
 21
207.0984598337
 31
0.0
  0
LINE
  5
23D
330
167
100
AcDbEntity
  8
$DDT_AUDIT_GENERATED_(21B)
  6
Continuous
 62
     7
100
AcDbLine
 10
127.6265214235
 20
207.0984598337
 30
0.0
 11
127.4919024803
 21
207.0984598337
 31
0.0
  0
SPLINE
  5
23E
330
167
100
AcDbEntity
  8
$DDT_AUDIT_GENERATED_(21B)
  6
Continuous
 62
     7
100
AcDbSpline
210
0.0
220
0.0
230
1.0
 70
     8
 71
     3
 72
    14
 73
    10
 74
     0
 42
0.0000000011014719
 43
0.0000000001
 40
0.0
 40
0.0
 40
0.0
 40
0.0
 40
0.25
 40
0.25
 40
0.5
 40
0.5
 40
0.75
 40
0.75
 40
1.0
 40
1.0
 40
1.0
 40
1.0
 10
133.8765214235342
 20
207.0984598336584
 30
0.0
 10
133.529203574907
 20
208.0762664021115
 30
0.0
 10
133.0312762623236
 20
208.7731248962924
 30
0.0
 10
131.9413681977553
 20
209.6798068481621
 30
0.0
 10
131.3474940163503
 20
209.8937539484811
 30
0.0
 10
130.1590889129614
 20
209.894621101523
 30
0.0
 10
129.5735351305644
 20
209.687302543254
 30
0.0
 10
128.4732533874579
 20
208.7767040473306
 30
0.0
 10
127.973456661284
 20
208.0751892348148
 30
0.0
 10
127.6265214235343
 20
207.0984598336584
 30
0.0
  0
SPLINE
  5
23F
330
167
100
AcDbEntity
  8
$DDT_AUDIT_GENERATED_(21B)
  6
Continuous
 62
     7
100
AcDbSpline
210
0.0
220
0.0
230
1.0
 70
     8
 71
     3
 72
    14
 73
    10
 74
     0
 42
0.0000000006969408
 43
0.0000000001
 40
0.0
 40
0.0
 40
0.0
 40
0.0
 40
0.25
 40
0.25
 40
0.5
 40
0.5
 40
0.75
 40
0.75
 40
1.0
 40
1.0
 40
1.0
 40
1.0
 10
149.9919024803008
 20
207.0984598336584
 30
0.0
 10
149.2988141277887
 20
208.0740882764281
 30
0.0
 10
148.2912539599579
 20
208.7800669650755
 30
0.0
 10
146.100608507584
 20
209.6857807294717
 30
0.0
 10
144.9163942040947
 20
209.8960831261617
 30
0.0
 10
142.5363061952702
 20
209.8922682880246
 30
0.0
 10
141.3532825857266
 20
209.6769690454749
 30
0.0
 10
139.1812795458841
 20
208.7717827308367
 30
0.0
 10
138.1797768326508
 20
208.0667487693647
 30
0.0
 10
137.4919024803008
 20
207.0984598336584
 30
0.0
  0
SPLINE
  5
240
330
167
100
AcDbEntity
  8
$DDT_AUDIT_GENERATED_(21B)
  6
Continuous
 62
     7
100
AcDbSpline
210
0.0
220
0.0
230
1.0
 70
     8
 71
     3
 72
    14
 73
    10
 74
     0
 42
0.0000000011014719
 43
0.0000000001
 40
0.0
 40
0.0
 40
0.0
 40
0.0
 40
0.25
 40
0.25
 40
0.5
 40
0.5
 40
0.75
 40
0.75
 40
1.0
 40
1.0
 40
1.0
 40
1.0
 10
159.8572835370674
 20
207.0984598336584
 30
0.0
 10
159.5099656884401
 20
208.0762664021115
 30
0.0
 10
159.0120383758567
 20
208.7731248962924
 30
0.0
 10
157.9221303112885
 20
209.6798068481621
 30
0.0
 10
157.3282561298835
 20
209.8937539484811
 30
0.0
 10
156.1398510264946
 20
209.894621101523
 30
0.0
 10
155.5542972440975
 20
209.687302543254
 30
0.0
 10
154.454015500991
 20
208.7767040473306
 30
0.0
 10
153.9542187748172
 20
208.0751892348148
 30
0.0
 10
153.6072835370674
 20
207.0984598336584
 30
0.0
  0
LINE
  5
241
330
167
100
AcDbEntity
  8
$DDT_AUDIT_GENERATED_(21B)
  6
Continuous
 62
     7
100
AcDbLine
 10
159.8572835371
 20
197.0984598337
 30
0.0
 11
159.9919024803
 21
197.0984598337
 31
0.0
  0
LINE
  5
242
330
167
100
AcDbEntity
  8
$DDT_AUDIT_GENERATED_(21B)
  6
Continuous
 62
     7
100
AcDbLine
 10
153.6072835371
 20
197.0984598337
 30
0.0
 11
149.9919024803
 21
197.0984598337
 31
0.0
  0
LINE
  5
243
330
167
100
AcDbEntity
  8
$DDT_AUDIT_GENERATED_(21B)
  6
Continuous
 62
     7
100
AcDbLine
 10
137.4919024803
 20
197.0984598337
 30
0.0
 11
133.8765214235
 21
197.0984598337
 31
0.0
  0
LINE
  5
244
330
167
100
AcDbEntity
  8
$DDT_AUDIT_GENERATED_(21B)
  6
Continuous
 62
     7
100
AcDbLine
 10
127.6265214235
 20
197.0984598337
 30
0.0
 11
127.4919024803
 21
197.0984598337
 31
0.0
  0
LINE
  5
245
330
167
100
AcDbEntity
  8
$DDT_AUDIT_GENERATED_(21B)
  6
Continuous
 62
     7
100
AcDbLine
 10
159.8572835371
 20
207.0984598337
 30
0.0
 11
159.8572835371
 21
197.0984598337
 31
0.0
  0
SPLINE
  5
246
330
167
100
AcDbEntity
  8
$DDT_AUDIT_GENERATED_(21B)
  6
Continuous
 62
     7
100
AcDbSpline
210
0.0
220
0.0
230
1.0
 70
     8
 71
     3
 72
    14
 73
    10
 74
     0
 42
0.0000000011014719
 43
0.0000000001
 40
0.0
 40
0.0
 40
0.0
 40
0.0
 40
0.2499999999999999
 40
0.2499999999999999
 40
0.4999999999999999
 40
0.4999999999999999
 40
0.7499999999999999
 40
0.7499999999999999
 40
1.0
 40
1.0
 40
1.0
 40
1.0
 10
159.8572835370674
 20
197.0984598336584
 30
0.0
 10
159.5099656884401
 20
196.1206532652052
 30
0.0
 10
159.0120383758567
 20
195.4237947710244
 30
0.0
 10
157.9221303112885
 20
194.5171128191547
 30
0.0
 10
157.3282561298835
 20
194.3031657188356
 30
0.0
 10
156.1398510264945
 20
194.3022985657937
 30
0.0
 10
155.5542972440975
 20
194.5096171240628
 30
0.0
 10
154.454015500991
 20
195.4202156199862
 30
0.0
 10
153.9542187748172
 20
196.121730432502
 30
0.0
 10
153.6072835370674
 20
197.0984598336584
 30
0.0
  0
LINE
  5
247
330
167
100
AcDbEntity
  8
$DDT_AUDIT_GENERATED_(21B)
  6
Continuous
 62
     7
100
AcDbLine
 10
153.6072835371
 20
197.0984598337
 30
0.0
 11
153.6072835371
 21
207.0984598337
 31
0.0
  0
LINE
  5
248
330
167
100
AcDbEntity
  8
$DDT_AUDIT_GENERATED_(21B)
  6
Continuous
 62
     7
100
AcDbLine
 10
149.9919024803
 20
207.0984598337
 30
0.0
 11
149.9919024803
 21
197.0984598337
 31
0.0
  0
SPLINE
  5
249
330
167
100
AcDbEntity
  8
$DDT_AUDIT_GENERATED_(21B)
  6
Continuous
 62
     7
100
AcDbSpline
210
0.0
220
0.0
230
1.0
 70
     8
 71
     3
 72
    14
 73
    10
 74
     0
 42
0.0000000006969408
 43
0.0000000001
 40
0.0
 40
0.0
 40
0.0
 40
0.0
 40
0.25
 40
0.25
 40
0.5
 40
0.5
 40
0.75
 40
0.75
 40
1.0
 40
1.0
 40
1.0
 40
1.0
 10
149.9919024803008
 20
197.0984598336584
 30
0.0
 10
149.2988141277887
 20
196.1228313908886
 30
0.0
 10
148.2912539599579
 20
195.4168527022412
 30
0.0
 10
146.100608507584
 20
194.511138937845
 30
0.0
 10
144.9163942040947
 20
194.3008365411551
 30
0.0
 10
142.5363061952702
 20
194.3046513792921
 30
0.0
 10
141.3532825857266
 20
194.5199506218418
 30
0.0
 10
139.1812795458841
 20
195.4251369364801
 30
0.0
 10
138.1797768326508
 20
196.130170897952
 30
0.0
 10
137.4919024803008
 20
197.0984598336584
 30
0.0
  0
LINE
  5
24A
330
167
100
AcDbEntity
  8
$DDT_AUDIT_GENERATED_(21B)
  6
Continuous
 62
     7
100
AcDbLine
 10
137.4919024803
 20
197.0984598337
 30
0.0
 11
137.4919024803
 21
207.0984598337
 31
0.0
  0
LINE
  5
24B
330
167
100
AcDbEntity
  8
$DDT_AUDIT_GENERATED_(21B)
  6
Continuous
 62
     7
100
AcDbLine
 10
133.8765214235
 20
207.0984598337
 30
0.0
 11
133.8765214235
 21
197.0984598337
 31
0.0
  0
SPLINE
  5
24C
330
167
100
AcDbEntity
  8
$DDT_AUDIT_GENERATED_(21B)
  6
Continuous
 62
     7
100
AcDbSpline
210
0.0
220
0.0
230
1.0
 70
     8
 71
     3
 72
    14
 73
    10
 74
     0
 42
0.0000000011014719
 43
0.0000000001
 40
0.0
 40
0.0
 40
0.0
 40
0.0
 40
0.2500000000000001
 40
0.2500000000000001
 40
0.5000000000000001
 40
0.5000000000000001
 40
0.7500000000000002
 40
0.7500000000000002
 40
1.0
 40
1.0
 40
1.0
 40
1.0
 10
133.8765214235342
 20
197.0984598336584
 30
0.0
 10
133.529203574907
 20
196.1206532652052
 30
0.0
 10
133.0312762623236
 20
195.4237947710244
 30
0.0
 10
131.9413681977553
 20
194.5171128191547
 30
0.0
 10
131.3474940163503
 20
194.3031657188356
 30
0.0
 10
130.1590889129614
 20
194.3022985657937
 30
0.0
 10
129.5735351305644
 20
194.5096171240628
 30
0.0
 10
128.4732533874579
 20
195.4202156199862
 30
0.0
 10
127.973456661284
 20
196.121730432502
 30
0.0
 10
127.6265214235343
 20
197.0984598336584
 30
0.0
  0
LINE
  5
24D
330
167
100
AcDbEntity
  8
$DDT_AUDIT_GENERATED_(21B)
  6
Continuous
 62
     7
100
AcDbLine
 10
127.6265214235
 20
197.0984598337
 30
0.0
 11
127.6265214235
 21
207.0984598337
 31
0.0
  0
LINE
  5
24E
330
167
100
AcDbEntity
  8
$DDT_AUDIT_GENERATED_(21B)
  6
Continuous
 62
     7
100
AcDbLine
 10
127.4919024803
 20
207.0984598337
 30
0.0
 11
127.4919024803
 21
197.0984598337
 31
0.0
  0
ARC
  5
24F
330
167
100
AcDbEntity
  8
$DDT_AUDIT_GENERATED_(21B)
  6
Continuous
 62
     7
100
AcDbCircle
 10
150.3455000839
 20
199.7341610319
 30
0.0
 40
9.999999999999996
100
AcDbArc
 50
322.1519040322
 51
344.7179936136
  0
ARC
  5
250
330
167
100
AcDbEntity
  8
$DDT_AUDIT_GENERATED_(21B)
  6
Continuous
 62
     7
100
AcDbCircle
 10
137.1383048767
 20
199.7341610319
 30
0.0
 40
9.999999999999991
100
AcDbArc
 50
195.2820063864
 51
217.8480959678
  0
ARC
  5
251
330
167
100
AcDbEntity
  8
$DDT_AUDIT_GENERATED_(21B)
  6
Continuous
 62
     7
100
AcDbCircle
 10
150.3455000839
 20
204.4627586354
 30
0.0
 40
9.999999999999993
100
AcDbArc
 50
15.2820063864
 51
37.8480959678
  0
ARC
  5
252
330
167
100
AcDbEntity
  8
$DDT_AUDIT_GENERATED_(21B)
  6
Continuous
 62
     7
100
AcDbCircle
 10
137.1383048767
 20
204.4627586354
 30
0.0
 40
9.999999999999996
100
AcDbArc
 50
142.1519040322
 51
164.7179936136
  0
LINE
  5
253
330
167
100
AcDbEntity
  8
$DDT_AUDIT_GENERATED_(21B)
  6
Continuous
 62
     7
100
AcDbLine
 10
159.9919024803
 20
197.0984598337
 30
0.0
 11
159.9919024803
 21
207.0984598337
 31
0.0
  0
LINE
  5
255
330
167
100
AcDbEntity
  8
$DDT_AUDIT_GENERATED_(254)
  6
Continuous
 62
     7
100
AcDbLine
 10
124.6919024803
 20
210.7984598337
 30
0.0
 11
162.7919024803
 21
210.7984598337
 31
0.0
  0
LINE
  5
256
330
167
100
AcDbEntity
  8
$DDT_AUDIT_GENERATED_(254)
  6
Continuous
 62
     7
100
AcDbLine
 10
162.9919024803
 20
210.9984598337
 30
0.0
 11
162.9919024803
 21
227.7984598337
 31
0.0
  0
LINE
  5
257
330
167
100
AcDbEntity
  8
$DDT_AUDIT_GENERATED_(254)
  6
Continuous
 62
     7
100
AcDbLine
 10
124.4919024803
 20
227.7984598337
 30
0.0
 11
124.4919024803
 21
210.9984598337
 31
0.0
  0
ARC
  5
258
330
167
100
AcDbEntity
  8
$DDT_AUDIT_GENERATED_(254)
  6
Continuous
 62
     7
100
AcDbCircle
 10
124.6919024803
 20
210.9984598337
 30
0.0
 40
0.1999999999999919
100
AcDbArc
 50
180.0
 51
270.0
  0
ARC
  5
259
330
167
100
AcDbEntity
  8
$DDT_AUDIT_GENERATED_(254)
  6
Continuous
 62
     7
100
AcDbCircle
 10
162.7919024803
 20
210.9984598337
 30
0.0
 40
0.1999999999999919
100
AcDbArc
 50
270.0
 51
0.0
  0
LINE
  5
25A
330
167
100
AcDbEntity
  8
$DDT_AUDIT_GENERATED_(15F)
  6
Continuous
 62
     7
100
AcDbLine
 10
166.1556973231
 20
227.7984598337
 30
0.0
 11
121.3281076375
 21
227.7984598337
 31
0.0
  0
LINE
  5
25B
330
167
100
AcDbEntity
  8
$DDT_AUDIT_GENERATED_(15F)
  6
Continuous
 62
     7
100
AcDbLine
 10
178.1539654997
 20
260.7984598337
 30
0.0
 11
109.3298394609
 21
260.7984598337
 31
0.0
  0
ARC
  5
25C
330
167
100
AcDbEntity
  8
$DDT_AUDIT_GENERATED_(15F)
  6
Continuous
 62
     7
100
AcDbCircle
 10
306.1925573315
 20
292.6298735455
 30
0.0
 40
200.0
100
AcDbArc
 50
189.3266153984
 51
197.6531938422
  0
ARC
  5
25D
330
167
100
AcDbEntity
  8
$DDT_AUDIT_GENERATED_(15F)
  6
Continuous
 62
     7
100
AcDbCircle
 10
-18.7087523709
 20
292.6298735455
 30
0.0
 40
200.0
100
AcDbArc
 50
342.3468061578
 51
350.6733846016
  0
ARC
  5
25E
330
167
100
AcDbEntity
  8
$DDT_AUDIT_GENERATED_(15F)
  6
Continuous
 62
     7
100
AcDbCircle
 10
178.1539654997
 20
260.2984598337
 30
0.0
 40
0.4999999999999994
100
AcDbArc
 50
350.6733846016
 51
90.0
  0
ARC
  5
25F
330
167
100
AcDbEntity
  8
$DDT_AUDIT_GENERATED_(15F)
  6
Continuous
 62
     7
100
AcDbCircle
 10
109.3298394609
 20
260.2984598337
 30
0.0
 40
0.5000000000000004
100
AcDbArc
 50
90.0
 51
189.3266153984
  0
ARC
  5
260
330
167
100
AcDbEntity
  8
$DDT_AUDIT_GENERATED_(15F)
  6
Continuous
 62
     7
100
AcDbCircle
 10
166.1556973231
 20
233.7984598337
 30
0.0
 40
5.999999999999991
100
AcDbArc
 50
270.0
 51
342.3468061578
  0
ARC
  5
261
330
167
100
AcDbEntity
  8
$DDT_AUDIT_GENERATED_(15F)
  6
Continuous
 62
     7
100
AcDbCircle
 10
121.3281076375
 20
233.7984598337
 30
0.0
 40
6.000000000000006
100
AcDbArc
 50
197.6531938422
 51
270.0
  0
LINE
  5
262
330
167
100
AcDbEntity
  8
$DDT_AUDIT_GENERATED_(254)
  6
Continuous
 62
     7
100
AcDbLine
 10
274.6919024803
 20
210.7984598337
 30
0.0
 11
312.7919024803
 21
210.7984598337
 31
0.0
  0
LINE
  5
263
330
167
100
AcDbEntity
  8
$DDT_AUDIT_GENERATED_(254)
  6
Continuous
 62
     7
100
AcDbLine
 10
312.9919024803
 20
210.9984598337
 30
0.0
 11
312.9919024803
 21
227.7984598337
 31
0.0
  0
LINE
  5
264
330
167
100
AcDbEntity
  8
$DDT_AUDIT_GENERATED_(254)
  6
Continuous
 62
     7
100
AcDbLine
 10
274.4919024803
 20
227.7984598337
 30
0.0
 11
274.4919024803
 21
210.9984598337
 31
0.0
  0
ARC
  5
265
330
167
100
AcDbEntity
  8
$DDT_AUDIT_GENERATED_(254)
  6
Continuous
 62
     7
100
AcDbCircle
 10
274.6919024803
 20
210.9984598337
 30
0.0
 40
0.1999999999999919
100
AcDbArc
 50
180.0
 51
270.0
  0
ARC
  5
266
330
167
100
AcDbEntity
  8
$DDT_AUDIT_GENERATED_(254)
  6
Continuous
 62
     7
100
AcDbCircle
 10
312.7919024803
 20
210.9984598337
 30
0.0
 40
0.2000000000000057
100
AcDbArc
 50
270.0
 51
0.0
  0
LINE
  5
267
330
167
100
AcDbEntity
  8
$DDT_AUDIT_GENERATED_(15F)
  6
Continuous
 62
     7
100
AcDbLine
 10
271.3281076375
 20
227.7984598337
 30
0.0
 11
316.1556973231
 21
227.7984598337
 31
0.0
  0
LINE
  5
268
330
167
100
AcDbEntity
  8
$DDT_AUDIT_GENERATED_(15F)
  6
Continuous
 62
     7
100
AcDbLine
 10
328.1539654997
 20
260.7984598337
 30
0.0
 11
259.3298394609
 21
260.7984598337
 31
0.0
  0
ARC
  5
269
330
167
100
AcDbEntity
  8
$DDT_AUDIT_GENERATED_(15F)
  6
Continuous
 62
     7
100
AcDbCircle
 10
456.1925573315
 20
292.6298735455
 30
0.0
 40
200.0
100
AcDbArc
 50
189.3266153984
 51
197.6531938422
  0
ARC
  5
26A
330
167
100
AcDbEntity
  8
$DDT_AUDIT_GENERATED_(15F)
  6
Continuous
 62
     7
100
AcDbCircle
 10
131.2912476291
 20
292.6298735455
 30
0.0
 40
200.0
100
AcDbArc
 50
342.3468061578
 51
350.6733846016
  0
ARC
  5
26B
330
167
100
AcDbEntity
  8
$DDT_AUDIT_GENERATED_(15F)
  6
Continuous
 62
     7
100
AcDbCircle
 10
328.1539654997
 20
260.2984598337
 30
0.0
 40
0.4999999999999926
100
AcDbArc
 50
350.6733846016
 51
90.0
  0
ARC
  5
26C
330
167
100
AcDbEntity
  8
$DDT_AUDIT_GENERATED_(15F)
  6
Continuous
 62
     7
100
AcDbCircle
 10
259.3298394609
 20
260.2984598337
 30
0.0
 40
0.5000000000000004
100
AcDbArc
 50
90.0
 51
189.3266153984
  0
ARC
  5
26D
330
167
100
AcDbEntity
  8
$DDT_AUDIT_GENERATED_(15F)
  6
Continuous
 62
     7
100
AcDbCircle
 10
316.1556973231
 20
233.7984598337
 30
0.0
 40
5.999999999999991
100
AcDbArc
 50
270.0
 51
342.3468061578
  0
ARC
  5
26E
330
167
100
AcDbEntity
  8
$DDT_AUDIT_GENERATED_(15F)
  6
Continuous
 62
     7
100
AcDbCircle
 10
271.3281076375
 20
233.7984598337
 30
0.0
 40
6.00000000000002
100
AcDbArc
 50
197.6531938422
 51
270.0
  0
LINE
  5
270
330
167
100
AcDbEntity
  8
$DDT_AUDIT_GENERATED_(26F)
  6
Continuous
 62
     7
100
AcDbLine
 10
129.7419024803
 20
210.7984598337
 30
0.0
 11
129.7419024803
 21
210.5984598337
 31
0.0
  0
LINE
  5
271
330
167
100
AcDbEntity
  8
$DDT_AUDIT_GENERATED_(26F)
  6
Continuous
 62
     7
100
AcDbLine
 10
157.7419024803
 20
210.5984598337
 30
0.0
 11
157.7419024803
 21
210.7984598337
 31
0.0
  0
LINE
  5
272
330
167
100
AcDbEntity
  8
$DDT_AUDIT_GENERATED_(26F)
  6
Continuous
 62
     7
100
AcDbLine
 10
279.7419024803
 20
210.7984598337
 30
0.0
 11
279.7419024803
 21
210.5984598337
 31
0.0
  0
LINE
  5
273
330
167
100
AcDbEntity
  8
$DDT_AUDIT_GENERATED_(26F)
  6
Continuous
 62
     7
100
AcDbLine
 10
307.7419024803
 20
210.5984598337
 30
0.0
 11
307.7419024803
 21
210.7984598337
 31
0.0
  0
ENDBLK
  5
275
330
167
100
AcDbEntity
  8
0
100
AcDbBlockEnd
  0
BLOCK
  5
31B
330
276
100
AcDbEntity
  8
0
100
AcDbBlockBegin
  2
SE2
 70
     0
 10
0.0
 20
0.0
 30
0.0
  3
SE2
  1

  0
SPLINE
  5
278
330
276
100
AcDbEntity
  8
$DDT_AUDIT_GENERATED_(87)
  6
Continuous
 62
     7
100
AcDbSpline
210
0.0
220
0.0
230
1.0
 70
     8
 71
     8
 72
    18
 73
     9
 74
     0
 42
0.0000000003314791
 43
0.0000000001
 40
0.0
 40
0.0
 40
0.0
 40
0.0
 40
0.0
 40
0.0
 40
0.0
 40
0.0
 40
0.0
 40
0.1475649869841891
 40
0.1475649869841891
 40
0.1475649869841891
 40
0.1475649869841891
 40
0.1475649869841891
 40
0.1475649869841891
 40
0.1475649869841891
 40
0.1475649869841891
 40
0.1475649869841891
 10
615.4326110986124
 20
451.4575725346386
 30
0.0
 10
614.9746899248016
 20
451.766445527485
 30
0.0
 10
614.5182889088213
 20
452.0799154951418
 30
0.0
 10
614.06325270941
 20
452.3975758911588
 30
0.0
 10
613.6094259769077
 20
452.7190201672692
 30
0.0
 10
613.1566533569742
 20
453.0438417741939
 30
0.0
 10
612.7047794926606
 20
453.3716341620896
 30
0.0
 10
612.2536490255643
 20
453.7019907807984
 30
0.0
 10
611.8031065964727
 20
454.0345050799875
 30
0.0
  0
SPLINE
  5
279
330
276
100
AcDbEntity
  8
$DDT_AUDIT_GENERATED_(87)
  6
Continuous
 62
     7
100
AcDbSpline
210
0.0
220
0.0
230
1.0
 70
     8
 71
     8
 72
    18
 73
     9
 74
     0
 42
0.0000000003368436
 43
0.0000000001
 40
0.8707333618585155
 40
0.8707333618585155
 40
0.8707333618585155
 40
0.8707333618585155
 40
0.8707333618585155
 40
0.8707333618585155
 40
0.8707333618585155
 40
0.8707333618585155
 40
0.8707333618585155
 40
0.9293955042769102
 40
0.9293955042769102
 40
0.9293955042769102
 40
0.9293955042769102
 40
0.9293955042769102
 40
0.9293955042769102
 40
0.9293955042769102
 40
0.9293955042769102
 40
0.9293955042769102
 10
593.5108474784577
 20
465.842228113099
 30
0.0
 10
593.3086115548195
 20
465.9223270806493
 30
0.0
 10
593.1057466289045
 20
466.0008778638041
 30
0.0
 10
592.902242940402
 20
466.077854921537
 30
0.0
 10
592.6980907290008
 20
466.1532327128218
 30
0.0
 10
592.4932802343905
 20
466.2269856966322
 30
0.0
 10
592.2878016962596
 20
466.2990883319417
 30
0.0
 10
592.0816453542977
 20
466.3695150777241
 30
0.0
 10
591.8748014481939
 20
466.438240392953
 30
0.0
  0
ARC
  5
27A
330
276
100
AcDbEntity
  8
$DDT_AUDIT_GENERATED_(87)
  6
Continuous
 62
     7
100
AcDbCircle
 10
586.8040455591
 20
649.7356974326
 30
0.0
 40
230.0000000003743
100
AcDbArc
 50
259.2730353999
 51
269.2185065032
  0
ARC
  5
27B
330
276
100
AcDbEntity
  8
$DDT_AUDIT_GENERATED_(87)
  6
Continuous
 62
     7
100
AcDbCircle
 10
597.3493293773
 20
413.2567865509
 30
0.0
 40
9.307389995597147
100
AcDbArc
 50
89.0387601218
 51
111.0347521841
  0
ARC
  5
27C
330
276
100
AcDbEntity
  8
$DDT_AUDIT_GENERATED_(87)
  6
Continuous
 62
     7
100
AcDbCircle
 10
594.7790331469
 20
346.7002226523
 30
0.0
 40
75.91162116521231
100
AcDbArc
 50
74.9380443656
 51
87.9417256193
  0
ARC
  5
27D
330
276
100
AcDbEntity
  8
$DDT_AUDIT_GENERATED_(87)
  6
Continuous
 62
     7
100
AcDbCircle
 10
585.4640072579
 20
446.4235318561
 30
0.0
 40
26.72691847817194
100
AcDbArc
 50
268.0749216219
 51
296.7781361743
  0
ARC
  5
27E
330
276
100
AcDbEntity
  8
$DDT_AUDIT_GENERATED_(87)
  6
Continuous
 62
     7
100
AcDbCircle
 10
149.279106163
 20
-499.3121750528
 30
0.0
 40
1020.869939389312
100
AcDbArc
 50
61.6431413855
 51
61.713500304
  0
ARC
  5
27F
330
276
100
AcDbEntity
  8
$DDT_AUDIT_GENERATED_(87)
  6
Continuous
 62
     7
100
AcDbCircle
 10
581.9899066625
 20
373.0096442855
 30
0.0
 40
46.77752203838975
100
AcDbArc
 50
61.6155050806
 51
87.2008143875
  0
LINE
  5
280
330
276
100
AcDbEntity
  8
$DDT_AUDIT_GENERATED_(87)
  6
Continuous
 62
     7
100
AcDbLine
 10
686.9290808251
 20
398.8199722252
 30
0.0
 11
635.1031796123
 21
398.8199722252
 31
0.0
  0
ARC
  5
281
330
276
100
AcDbEntity
  8
$DDT_AUDIT_GENERATED_(87)
  6
Continuous
 62
     7
100
AcDbCircle
 10
416.3111118132
 20
4.9746933095
 30
0.0
 40
450.2753876599808
100
AcDbArc
 50
61.2266032489
 51
65.3334808636
  0
LINE
  5
282
330
276
100
AcDbEntity
  8
$DDT_AUDIT_GENERATED_(87)
  6
Continuous
 62
     7
100
AcDbLine
 10
688.0474695573
 20
402.4780453972
 30
0.0
 11
615.4326109782
 21
451.4575723561
 31
0.0
  0
ARC
  5
283
330
276
100
AcDbEntity
  8
$DDT_AUDIT_GENERATED_(87)
  6
Continuous
 62
     7
100
AcDbCircle
 10
596.9944925506
 20
438.8565683465
 30
0.0
 40
25.73060013403813
100
AcDbArc
 50
286.3257008066
 51
312.8873389189
  0
ARC
  5
284
330
276
100
AcDbEntity
  8
$DDT_AUDIT_GENERATED_(87)
  6
Continuous
 62
     7
100
AcDbCircle
 10
635.1031796123
 20
400.8199722252
 30
0.0
 40
1.99999999999967
100
AcDbArc
 50
241.6433835658
 51
270.0
  0
ARC
  5
285
330
276
100
AcDbEntity
  8
$DDT_AUDIT_GENERATED_(87)
  6
Continuous
 62
     7
100
AcDbCircle
 10
686.9290808251
 20
400.8199722252
 30
0.0
 40
1.999999999999963
100
AcDbArc
 50
270.0
 51
55.9998989151
  0
ARC
  5
286
330
276
100
AcDbEntity
  8
$DDT_AUDIT_GENERATED_(87)
  6
Continuous
 62
     7
100
AcDbCircle
 10
543.8672105542
 20
424.287969123
 30
0.0
 40
0.5000000000288115
100
AcDbArc
 50
187.4819189564
 51
259.2170729155
  0
ARC
  5
287
330
276
100
AcDbEntity
  8
$DDT_AUDIT_GENERATED_(87)
  6
Continuous
 62
     7
100
AcDbCircle
 10
586.8040455591
 20
237.7740210019
 30
0.0
 40
230.0000000003787
100
AcDbArc
 50
90.7814934968
 51
100.7269646001
  0
ARC
  5
288
330
276
100
AcDbEntity
  8
$DDT_AUDIT_GENERATED_(87)
  6
Continuous
 62
     7
100
AcDbCircle
 10
543.8672105542
 20
463.2217493114
 30
0.0
 40
0.4999999999983864
100
AcDbArc
 50
100.7829270834
 51
172.5180810491
  0
LINE
  5
289
330
276
100
AcDbEntity
  8
$DDT_AUDIT_GENERATED_(87)
  6
Continuous
 62
     7
100
AcDbLine
 10
543.7736662514
 20
423.7967976016
 30
0.0
 11
543.9943679514
 21
423.7548763364
 31
0.0
  0
LINE
  5
28A
330
276
100
AcDbEntity
  8
$DDT_AUDIT_GENERATED_(87)
  6
Continuous
 62
     7
100
AcDbLine
 10
543.7736662514
 20
463.7129208328
 30
0.0
 11
543.9943679514
 21
463.754842098
 31
0.0
  0
ARC
  5
28B
330
276
100
AcDbEntity
  8
$DDT_AUDIT_GENERATED_(87)
  6
Continuous
 62
     7
100
AcDbCircle
 10
692.0943679521
 20
443.7548592172
 30
0.0
 40
150.0000000006912
100
AcDbArc
 50
185.6421289208
 51
187.481918951
  0
ARC
  5
28C
330
276
100
AcDbEntity
  8
$DDT_AUDIT_GENERATED_(87)
  6
Continuous
 62
     7
100
AcDbCircle
 10
692.0943679521
 20
443.7548592172
 30
0.0
 40
150.0000000006912
100
AcDbArc
 50
172.518081049
 51
174.3619695078
  0
LINE
  5
28D
330
276
100
AcDbEntity
  8
$DDT_AUDIT_GENERATED_(87)
  6
Continuous
 62
     7
100
AcDbLine
 10
543.9943679514
 20
423.7548763364
 30
0.0
 11
543.9943679514
 21
424.2637889754
 31
0.0
  0
LINE
  5
28E
330
276
100
AcDbEntity
  8
$DDT_AUDIT_GENERATED_(87)
  6
Continuous
 62
     7
100
AcDbLine
 10
543.9943679514
 20
424.2637889754
 30
0.0
 11
543.9943679514
 21
463.245929459
 31
0.0
  0
LINE
  5
28F
330
276
100
AcDbEntity
  8
$DDT_AUDIT_GENERATED_(87)
  6
Continuous
 62
     7
100
AcDbLine
 10
543.9943679514
 20
463.245929459
 30
0.0
 11
543.9943679514
 21
463.754842098
 31
0.0
  0
ARC
  5
290
330
276
100
AcDbEntity
  8
$DDT_AUDIT_GENERATED_(87)
  6
Continuous
 62
     7
100
AcDbCircle
 10
656.1396837088
 20
515.8395581572
 30
0.0
 40
76.15154772490055
100
AcDbArc
 50
234.316040714
 51
237.186615646
  0
LINE
  5
291
330
276
100
AcDbEntity
  8
$DDT_AUDIT_GENERATED_(87)
  6
Continuous
 62
     7
100
AcDbLine
 10
584.0234023056
 20
419.7541719086
 30
0.0
 11
584.2818548287
 21
419.7483232918
 31
0.0
  0
ARC
  5
292
330
276
100
AcDbEntity
  8
$DDT_AUDIT_GENERATED_(AD)
  6
Continuous
 62
     7
100
AcDbCircle
 10
583.9943679514
 20
443.7548592172
 30
0.0
 40
24.0
100
AcDbArc
 50
357.9073011376
 51
358.6939134128
  0
ARC
  5
293
330
276
100
AcDbEntity
  8
$DDT_AUDIT_GENERATED_(AD)
  6
Continuous
 62
     7
100
AcDbCircle
 10
583.9943679514
 20
443.7548592172
 30
0.0
 40
24.0
100
AcDbArc
 50
300.0
 51
357.7401872243
  0
ARC
  5
294
330
276
100
AcDbEntity
  8
$DDT_AUDIT_GENERATED_(BA)
  6
Continuous
 62
     7
100
AcDbCircle
 10
593.6531250175
 20
427.0326664024
 30
0.0
 40
38.79746415375002
100
AcDbArc
 50
149.8186589195
 51
156.312665822
  0
ARC
  5
295
330
276
100
AcDbEntity
  8
$DDT_AUDIT_GENERATED_(BA)
  6
Continuous
 62
     7
100
AcDbCircle
 10
583.9943679514
 20
443.7548592172
 30
0.0
 40
24.0
100
AcDbArc
 50
61.3107346696
 51
178.6895441668
  0
ARC
  5
296
330
276
100
AcDbEntity
  8
$DDT_AUDIT_GENERATED_(BA)
  6
Continuous
 62
     7
100
AcDbCircle
 10
574.3343527517
 20
460.477198005
 30
0.0
 40
38.7974860541721
100
AcDbArc
 50
329.8232964793
 51
336.3118665718
  0
ARC
  5
297
330
276
100
AcDbEntity
  8
$DDT_AUDIT_GENERATED_(BA)
  6
Continuous
 62
     7
100
AcDbCircle
 10
583.9943679514
 20
443.7548592172
 30
0.0
 40
24.0
100
AcDbArc
 50
241.3099779234
 51
358.6939134128
  0
ARC
  5
298
330
276
100
AcDbEntity
  8
$DDT_AUDIT_GENERATED_(BA)
  6
Continuous
 62
     7
100
AcDbCircle
 10
583.9943679514
 20
443.7548592172
 30
0.0
 40
24.00000000000424
100
AcDbArc
 50
64.6924538037
 51
67.1162967365
  0
ARC
  5
299
330
276
100
AcDbEntity
  8
$DDT_AUDIT_GENERATED_(BA)
  6
Continuous
 62
     7
100
AcDbCircle
 10
583.9943679514
 20
443.7548592172
 30
0.0
 40
24.00000000000204
100
AcDbArc
 50
172.8836594399
 51
178.6895441668
  0
ARC
  5
29A
330
276
100
AcDbEntity
  8
$DDT_AUDIT_GENERATED_(BA)
  6
Continuous
 62
     7
100
AcDbCircle
 10
583.9943679514
 20
443.7548592172
 30
0.0
 40
23.99999999999743
100
AcDbArc
 50
352.8904592492
 51
358.6939134128
  0
ARC
  5
29B
330
276
100
AcDbEntity
  8
$DDT_AUDIT_GENERATED_(BA)
  6
Continuous
 62
     7
100
AcDbCircle
 10
583.9943679514
 20
443.7548592172
 30
0.0
 40
23.99999999999314
100
AcDbArc
 50
244.6968094036
 51
247.1154621507
  0
ARC
  5
29C
330
276
100
AcDbEntity
  8
$DDT_AUDIT_GENERATED_(BA)
  6
Continuous
 62
     7
100
AcDbCircle
 10
608.3079338754
 20
440.722768814
 30
0.0
 40
0.501899295718305
100
AcDbArc
 50
149.8409278055
 51
172.9398328672
  0
ARC
  5
29D
330
276
100
AcDbEntity
  8
$DDT_AUDIT_GENERATED_(BA)
  6
Continuous
 62
     7
100
AcDbCircle
 10
574.465785955
 20
421.1816699599
 30
0.0
 40
0.5018929295134641
100
AcDbArc
 50
67.0658811618
 51
90.1651574613
  0
ARC
  5
29E
330
276
100
AcDbEntity
  8
$DDT_AUDIT_GENERATED_(BA)
  6
Continuous
 62
     7
100
AcDbCircle
 10
593.5226206795
 20
466.3281860413
 30
0.0
 40
0.5018916203905941
100
AcDbArc
 50
247.0667095607
 51
270.1638583085
  0
ARC
  5
29F
330
276
100
AcDbEntity
  8
$DDT_AUDIT_GENERATED_(BA)
  6
Continuous
 62
     7
100
AcDbCircle
 10
559.6811596544
 20
446.7898353155
 30
0.0
 40
0.5019016927738246
100
AcDbArc
 50
329.8363235896
 51
352.9330433726
  0
ARC
  5
2A0
330
276
100
AcDbEntity
  8
$DDT_AUDIT_GENERATED_(BA)
  6
Continuous
 62
     7
100
AcDbCircle
 10
582.3912868679
 20
443.3862985603
 30
0.0
 40
27.62432533752967
100
AcDbArc
 50
4.6018831734
 51
16.6223106265
  0
ARC
  5
2A1
330
276
100
AcDbEntity
  8
$DDT_AUDIT_GENERATED_(BA)
  6
Continuous
 62
     7
100
AcDbCircle
 10
608.8881239872
 20
445.2908371811
 30
0.0
 40
1.059206015521183
100
AcDbArc
 50
350.4995350788
 51
358.7990693184
  0
ARC
  5
2A2
330
276
100
AcDbEntity
  8
$DDT_AUDIT_GENERATED_(BA)
  6
Continuous
 62
     7
100
AcDbCircle
 10
609.0048963635
 20
445.2788374449
 30
0.0
 40
0.9420840038360024
100
AcDbArc
 50
335.6223305099
 51
350.0471174648
  0
ARC
  5
2A3
330
276
100
AcDbEntity
  8
$DDT_AUDIT_GENERATED_(BA)
  6
Continuous
 62
     7
100
AcDbCircle
 10
583.4491196178
 20
443.440059945
 30
0.0
 40
25.37040797627051
100
AcDbArc
 50
196.5314895178
 51
223.4685106569
  0
ARC
  5
2A4
330
276
100
AcDbEntity
  8
$DDT_AUDIT_GENERATED_(BA)
  6
Continuous
 62
     7
100
AcDbCircle
 10
585.1004751663
 20
444.9318984759
 30
0.0
 40
27.59525408513185
100
AcDbArc
 50
223.3577321767
 51
235.4186709638
  0
ARC
  5
2A5
330
276
100
AcDbEntity
  8
$DDT_AUDIT_GENERATED_(BA)
  6
Continuous
 62
     7
100
AcDbCircle
 10
574.3404838815
 20
460.4772125546
 30
0.0
 40
38.79384946444128
100
AcDbArc
 50
263.6888787277
 51
270.1829259247
  0
ARC
  5
2A6
330
276
100
AcDbEntity
  8
$DDT_AUDIT_GENERATED_(BA)
  6
Continuous
 62
     7
100
AcDbCircle
 10
570.1682584875
 20
422.856012747
 30
0.0
 40
0.9420748842815865
100
AcDbArc
 50
249.9484613218
 51
264.3789169162
  0
ARC
  5
2A7
330
276
100
AcDbEntity
  8
$DDT_AUDIT_GENERATED_(BA)
  6
Continuous
 62
     7
100
AcDbCircle
 10
570.216264379
 20
422.9631533985
 30
0.0
 40
1.059213715319666
100
AcDbArc
 50
241.1502961114
 51
249.4961771391
  0
ARC
  5
2A8
330
276
100
AcDbEntity
  8
$DDT_AUDIT_GENERATED_(BA)
  6
Continuous
 62
     7
100
AcDbCircle
 10
585.5663191787
 20
444.1241737549
 30
0.0
 40
27.59480087572702
100
AcDbArc
 50
184.6101531845
 51
196.6423698738
  0
ARC
  5
2A9
330
276
100
AcDbEntity
  8
$DDT_AUDIT_GENERATED_(BA)
  6
Continuous
 62
     7
100
AcDbCircle
 10
559.0991702699
 20
442.2185410931
 30
0.0
 40
1.059214280989468
100
AcDbArc
 50
170.5046820581
 51
178.8015081219
  0
ARC
  5
2AA
330
276
100
AcDbEntity
  8
$DDT_AUDIT_GENERATED_(BA)
  6
Continuous
 62
     7
100
AcDbCircle
 10
558.9823801592
 20
442.2305361826
 30
0.0
 40
0.942074853227143
100
AcDbArc
 50
155.6229883034
 51
170.0524434377
  0
ARC
  5
2AB
330
276
100
AcDbEntity
  8
$DDT_AUDIT_GENERATED_(BA)
  6
Continuous
 62
     7
100
AcDbCircle
 10
584.5403724828
 20
444.0703213637
 30
0.0
 40
25.36940730915481
100
AcDbArc
 50
16.5304642954
 51
43.468610067
  0
ARC
  5
2AC
330
276
100
AcDbEntity
  8
$DDT_AUDIT_GENERATED_(BA)
  6
Continuous
 62
     7
100
AcDbCircle
 10
582.8934267645
 20
442.583876312
 30
0.0
 40
27.58734414231022
100
AcDbArc
 50
43.355962999
 51
55.4200175967
  0
ARC
  5
2AD
330
276
100
AcDbEntity
  8
$DDT_AUDIT_GENERATED_(BA)
  6
Continuous
 62
     7
100
AcDbCircle
 10
593.6470141489
 20
427.0326435316
 30
0.0
 40
38.79384780177925
100
AcDbArc
 50
83.6869826565
 51
90.1816007947
  0
ARC
  5
2AE
330
276
100
AcDbEntity
  8
$DDT_AUDIT_GENERATED_(BA)
  6
Continuous
 62
     7
100
AcDbCircle
 10
597.8204801388
 20
464.653700659
 30
0.0
 40
0.9420782190612556
100
AcDbArc
 50
69.948432847
 51
84.3767838068
  0
ARC
  5
2AF
330
276
100
AcDbEntity
  8
$DDT_AUDIT_GENERATED_(BA)
  6
Continuous
 62
     7
100
AcDbCircle
 10
597.7724810755
 20
464.5465645498
 30
0.0
 40
1.059210407459541
100
AcDbArc
 50
61.1545504466
 51
69.4964131286
  0
LINE
  5
2B0
330
276
100
AcDbEntity
  8
$DDT_AUDIT_GENERATED_(BA)
  6
Continuous
 62
     7
100
AcDbLine
 10
608.646772078
 20
452.0412236032
 30
0.0
 11
608.62252587
 21
452.0272250485
 31
0.0
  0
ARC
  5
2B1
330
276
100
AcDbEntity
  8
$DDT_AUDIT_GENERATED_(BA)
  6
Continuous
 62
     7
100
AcDbCircle
 10
582.3364926664
 20
443.1000699312
 30
0.0
 40
27.78432173207203
100
AcDbArc
 50
18.7680368705
 51
19.0819240256
  0
ARC
  5
2B2
330
276
100
AcDbEntity
  8
$DDT_AUDIT_GENERATED_(BA)
  6
Continuous
 62
     7
100
AcDbCircle
 10
582.7001801597
 20
442.7372514405
 30
0.0
 40
27.64860741123307
100
AcDbArc
 50
40.9360300511
 51
41.2293041395
  0
ARC
  5
2B3
330
276
100
AcDbEntity
  8
$DDT_AUDIT_GENERATED_(BA)
  6
Continuous
 62
     7
100
AcDbCircle
 10
582.2132577619
 20
443.2583524768
 30
0.0
 40
27.82701148494029
100
AcDbArc
 50
18.3681118487
 51
21.4011538109
  0
LINE
  5
2B4
330
276
100
AcDbEntity
  8
$DDT_AUDIT_GENERATED_(BA)
  6
Continuous
 62
     7
100
AcDbLine
 10
603.4729869209
 20
460.9475528953
 30
0.0
 11
603.4967423157
 21
460.9612680789
 31
0.0
  0
ARC
  5
2B5
330
276
100
AcDbEntity
  8
$DDT_AUDIT_GENERATED_(BA)
  6
Continuous
 62
     7
100
AcDbCircle
 10
582.648087126
 20
442.4431394868
 30
0.0
 40
27.85838773266548
100
AcDbArc
 50
38.5938193786
 51
41.6233806703
  0
ARC
  5
2B6
330
276
100
AcDbEntity
  8
$DDT_AUDIT_GENERATED_(BA)
  6
Continuous
 62
     7
100
AcDbCircle
 10
583.9943679514
 20
443.7548592172
 30
0.0
 40
8.0
100
AcDbArc
 50
101.7900449016
 51
138.2099550984
  0
CIRCLE
  5
2B7
330
276
100
AcDbEntity
  8
$DDT_AUDIT_GENERATED_(BA)
  6
Continuous
 62
     7
100
AcDbCircle
 10
583.9943679514
 20
443.7548592172
 30
0.0
 40
8.55
  0
ARC
  5
2B8
330
276
100
AcDbEntity
  8
$DDT_AUDIT_GENERATED_(BA)
  6
Continuous
 62
     7
100
AcDbCircle
 10
584.3505154603
 20
443.9585903222
 30
0.0
 40
26.40829049265393
100
AcDbArc
 50
185.8335011872
 51
234.1315324584
  0
ARC
  5
2B9
330
276
100
AcDbEntity
  8
$DDT_AUDIT_GENERATED_(BA)
  6
Continuous
 62
     7
100
AcDbCircle
 10
583.8641114719
 20
443.8022726972
 30
0.0
 40
26.07248231832219
100
AcDbArc
 50
41.1541879984
 51
54.2105703343
  0
ARC
  5
2BA
330
276
100
AcDbEntity
  8
$DDT_AUDIT_GENERATED_(BA)
  6
Continuous
 62
     7
100
AcDbCircle
 10
584.3513539403
 20
443.7030281876
 30
0.0
 40
25.68211938134144
100
AcDbArc
 50
5.6570384205
 51
18.9411360399
  0
ARC
  5
2BB
330
276
100
AcDbEntity
  8
$DDT_AUDIT_GENERATED_(BA)
  6
Continuous
 62
     7
100
AcDbCircle
 10
605.1916413417
 20
445.4564722466
 30
0.0
 40
4.75911710614213
100
AcDbArc
 50
357.7321180267
 51
0.9274286405
  0
ARC
  5
2BC
330
276
100
AcDbEntity
  8
$DDT_AUDIT_GENERATED_(BA)
  6
Continuous
 62
     7
100
AcDbCircle
 10
571.9659513896
 20
426.310966423
 30
0.0
 40
4.836400509477574
100
AcDbArc
 50
239.160492505
 51
242.1374978959
  0
ARC
  5
2BD
330
276
100
AcDbEntity
  8
$DDT_AUDIT_GENERATED_(BA)
  6
Continuous
 62
     7
100
AcDbCircle
 10
562.7725101814
 20
442.0534130749
 30
0.0
 40
4.735978001039109
100
AcDbArc
 50
177.7277107349
 51
180.944166176
  0
ARC
  5
2BE
330
276
100
AcDbEntity
  8
$DDT_AUDIT_GENERATED_(BA)
  6
Continuous
 62
     7
100
AcDbCircle
 10
596.0218785501
 20
461.1965539331
 30
0.0
 40
4.838770513902301
100
AcDbArc
 50
59.1627056244
 51
62.1410046761
  0
LINE
  5
2BF
330
276
100
AcDbEntity
  8
$DDT_AUDIT_GENERATED_(F4)
  6
Continuous
 62
     7
100
AcDbLine
 10
613.8827370662
 20
455.2374144794
 30
0.0
 11
609.2885537555
 21
452.5849615082
 31
0.0
  0
LINE
  5
2C0
330
276
100
AcDbEntity
  8
$DDT_AUDIT_GENERATED_(F4)
  6
Continuous
 62
     7
100
AcDbLine
 10
609.2885537555
 20
452.5849615082
 30
0.0
 11
608.5731150747
 21
452.1719027933
 31
0.0
  0
LINE
  5
2C1
330
276
100
AcDbEntity
  8
$DDT_AUDIT_GENERATED_(F4)
  6
Continuous
 62
     7
100
AcDbLine
 10
604.2885537555
 20
461.245215546
 30
0.0
 11
608.8827370662
 21
463.8976685172
 31
0.0
  0
LINE
  5
2C2
330
276
100
AcDbEntity
  8
$DDT_AUDIT_GENERATED_(F4)
  6
Continuous
 62
     7
100
AcDbLine
 10
603.5736292177
 20
460.8324536717
 30
0.0
 11
604.2885537555
 21
461.245215546
 31
0.0
  0
ARC
  5
2C3
330
276
100
AcDbEntity
  8
$DDT_AUDIT_GENERATED_(F4)
  6
Continuous
 62
     7
100
AcDbCircle
 10
609.3827370662
 20
463.0316431134
 30
0.0
 40
0.9999999999999961
100
AcDbArc
 50
37.2085363488
 51
120.0
  0
ARC
  5
2C4
330
276
100
AcDbEntity
  8
$DDT_AUDIT_GENERATED_(F4)
  6
Continuous
 62
     7
100
AcDbCircle
 10
583.9943659989
 20
443.7548580899
 30
0.0
 40
32.87732464144411
100
AcDbArc
 50
22.7914636512
 51
37.2085363488
  0
ARC
  5
2C5
330
276
100
AcDbEntity
  8
$DDT_AUDIT_GENERATED_(F4)
  6
Continuous
 62
     7
100
AcDbCircle
 10
613.3827370662
 20
456.1034398831
 30
0.0
 40
1.0
100
AcDbArc
 50
300.0
 51
22.7914636512
  0
LINE
  5
2C6
330
276
100
AcDbEntity
  8
$DDT_AUDIT_GENERATED_(10F)
  6
Continuous
 62
     7
100
AcDbLine
 10
572.9943679514
 20
413.2548592172
 30
0.0
 11
590.9943679514
 21
413.2548592172
 31
0.0
  0
LINE
  5
2C7
330
276
100
AcDbEntity
  8
$DDT_AUDIT_GENERATED_(10F)
  6
Continuous
 62
     7
100
AcDbLine
 10
592.4743679514
 20
411.7748592172
 30
0.0
 11
571.5143679514
 21
411.7748592172
 31
0.0
  0
LINE
  5
2C8
330
276
100
AcDbEntity
  8
$DDT_AUDIT_GENERATED_(10F)
  6
Continuous
 62
     7
100
AcDbLine
 10
591.2743679514
 20
404.3548592172
 30
0.0
 11
572.7143679514
 21
404.3548592172
 31
0.0
  0
LINE
  5
2C9
330
276
100
AcDbEntity
  8
$DDT_AUDIT_GENERATED_(10F)
  6
Continuous
 62
     7
100
AcDbLine
 10
592.4743679514
 20
405.5548592172
 30
0.0
 11
571.5143679514
 21
405.5548592172
 31
0.0
  0
LINE
  5
2CA
330
276
100
AcDbEntity
  8
$DDT_AUDIT_GENERATED_(10F)
  6
Continuous
 62
     7
100
AcDbLine
 10
571.5143679514
 20
411.7748592172
 30
0.0
 11
571.5143679514
 21
405.5548592172
 31
0.0
  0
LINE
  5
2CB
330
276
100
AcDbEntity
  8
$DDT_AUDIT_GENERATED_(10F)
  6
Continuous
 62
     7
100
AcDbLine
 10
592.4743679514
 20
405.5548592172
 30
0.0
 11
592.4743679514
 21
411.7748592172
 31
0.0
  0
LINE
  5
2CC
330
276
100
AcDbEntity
  8
$DDT_AUDIT_GENERATED_(10F)
  6
Continuous
 62
     7
100
AcDbLine
 10
572.9943679514
 20
420.1506526135
 30
0.0
 11
572.9943679514
 21
413.2548592172
 31
0.0
  0
LINE
  5
2CD
330
276
100
AcDbEntity
  8
$DDT_AUDIT_GENERATED_(10F)
  6
Continuous
 62
     7
100
AcDbLine
 10
590.9943679514
 20
413.2548592172
 30
0.0
 11
590.9943679514
 21
418.9693369997
 31
0.0
  0
LINE
  5
2CE
330
276
100
AcDbEntity
  8
$DDT_AUDIT_GENERATED_(10F)
  6
Continuous
 62
     7
100
AcDbLine
 10
592.4743679514
 20
411.7748592172
 30
0.0
 11
590.9943679514
 21
413.2548592172
 31
0.0
  0
LINE
  5
2CF
330
276
100
AcDbEntity
  8
$DDT_AUDIT_GENERATED_(10F)
  6
Continuous
 62
     7
100
AcDbLine
 10
572.9943679514
 20
413.2548592172
 30
0.0
 11
571.5143679514
 21
411.7748592172
 31
0.0
  0
LINE
  5
2D0
330
276
100
AcDbEntity
  8
$DDT_AUDIT_GENERATED_(10F)
  6
Continuous
 62
     7
100
AcDbLine
 10
571.5143679514
 20
405.5548592172
 30
0.0
 11
572.7143679514
 21
404.3548592172
 31
0.0
  0
LINE
  5
2D1
330
276
100
AcDbEntity
  8
$DDT_AUDIT_GENERATED_(10F)
  6
Continuous
 62
     7
100
AcDbLine
 10
591.2743679514
 20
404.3548592172
 30
0.0
 11
592.4743679514
 21
405.5548592172
 31
0.0
  0
LINE
  5
2D2
330
276
100
AcDbEntity
  8
$DDT_AUDIT_GENERATED_(10F)
  6
Continuous
 62
     7
100
AcDbLine
 10
591.3093679514
 20
412.9398592172
 30
0.0
 11
591.3093679514
 21
404.3898592172
 31
0.0
  0
LINE
  5
2D3
330
276
100
AcDbEntity
  8
$DDT_AUDIT_GENERATED_(10F)
  6
Continuous
 62
     7
100
AcDbLine
 10
572.6793679514
 20
412.9398592172
 30
0.0
 11
572.6793679514
 21
404.3898592172
 31
0.0
  0
LINE
  5
2D4
330
276
100
AcDbEntity
  8
$DDT_AUDIT_GENERATED_(11E)
  6
Continuous
 62
     7
100
AcDbLine
 10
646.2443679514
 20
386.9548592172
 30
0.0
 11
671.7443679514
 21
386.9548592172
 31
0.0
  0
LINE
  5
2D5
330
276
100
AcDbEntity
  8
$DDT_AUDIT_GENERATED_(11E)
  6
Continuous
 62
     7
100
AcDbLine
 10
672.9943679514
 20
387.6765470537
 30
0.0
 11
664.1905203741
 21
387.6765470537
 31
0.0
  0
LINE
  5
2D6
330
276
100
AcDbEntity
  8
$DDT_AUDIT_GENERATED_(11E)
  6
Continuous
 62
     7
100
AcDbLine
 10
644.9943679514
 20
398.6548592172
 30
0.0
 11
672.9943679514
 21
398.6548592172
 31
0.0
  0
LINE
  5
2D7
330
276
100
AcDbEntity
  8
$DDT_AUDIT_GENERATED_(11E)
  6
Continuous
 62
     7
100
AcDbLine
 10
653.7982155287
 20
387.6765470537
 30
0.0
 11
644.9943679514
 21
387.6765470537
 31
0.0
  0
SPLINE
  5
2D8
330
276
100
AcDbEntity
  8
$DDT_AUDIT_GENERATED_(11E)
  6
Continuous
 62
     7
100
AcDbSpline
210
0.0
220
0.0
230
1.0
 70
     8
 71
     3
 72
    14
 73
    10
 74
     0
 42
0.0000000009541162
 43
0.0000000001
 40
0.0
 40
0.0
 40
0.0
 40
0.0
 40
0.25
 40
0.25
 40
0.5
 40
0.5
 40
0.75
 40
0.75
 40
1.0
 40
1.0
 40
1.0
 40
1.0
 10
664.190520374146
 20
387.676547053701
 30
0.0
 10
663.3404975464974
 20
387.4943993049192
 30
0.0
 10
662.4801112520029
 20
387.3485722946338
 30
0.0
 10
660.7328234486207
 20
387.1498458804748
 30
0.0
 10
659.8571110389639
 20
387.0989022164263
 30
0.0
 10
658.116316948316
 20
387.0994939543618
 30
0.0
 10
657.248917575631
 20
387.1507145825063
 30
0.0
 10
655.5196573362649
 20
387.3472445263938
 30
0.0
 10
654.6575811501066
 20
387.4923972776924
 30
0.0
 10
653.7982155287327
 20
387.676547053701
 30
0.0
  0
ARC
  5
2D9
330
276
100
AcDbEntity
  8
$DDT_AUDIT_GENERATED_(11E)
  6
Continuous
 62
     7
100
AcDbCircle
 10
658.9943679514
 20
378.9548592172
 30
0.0
 40
13.99999999999997
100
AcDbArc
 50
68.2132107017
 51
111.7867892983
  0
LINE
  5
2DA
330
276
100
AcDbEntity
  8
$DDT_AUDIT_GENERATED_(11E)
  6
Continuous
 62
     7
100
AcDbLine
 10
664.1905203741
 20
391.9548592172
 30
0.0
 11
664.1905203741
 21
387.6765470537
 31
0.0
  0
LINE
  5
2DB
330
276
100
AcDbEntity
  8
$DDT_AUDIT_GENERATED_(11E)
  6
Continuous
 62
     7
100
AcDbLine
 10
653.7982155287
 20
387.6765470537
 30
0.0
 11
653.7982155287
 21
391.9548592172
 31
0.0
  0
LINE
  5
2DC
330
276
100
AcDbEntity
  8
$DDT_AUDIT_GENERATED_(11E)
  6
Continuous
 62
     7
100
AcDbLine
 10
664.1905203741
 20
391.9548592172
 30
0.0
 11
653.7982155287
 21
391.9548592172
 31
0.0
  0
LINE
  5
2DD
330
276
100
AcDbEntity
  8
$DDT_AUDIT_GENERATED_(11E)
  6
Continuous
 62
     7
100
AcDbLine
 10
644.9943679514
 20
387.6765470537
 30
0.0
 11
646.2443679514
 21
386.9548592172
 31
0.0
  0
LINE
  5
2DE
330
276
100
AcDbEntity
  8
$DDT_AUDIT_GENERATED_(11E)
  6
Continuous
 62
     7
100
AcDbLine
 10
671.7443679514
 20
386.9548592172
 30
0.0
 11
672.9943679514
 21
387.6765470537
 31
0.0
  0
LINE
  5
2DF
330
276
100
AcDbEntity
  8
$DDT_AUDIT_GENERATED_(11E)
  6
Continuous
 62
     7
100
AcDbLine
 10
672.9943679514
 20
387.6765470537
 30
0.0
 11
672.9943679514
 21
398.6548592172
 31
0.0
  0
LINE
  5
2E0
330
276
100
AcDbEntity
  8
$DDT_AUDIT_GENERATED_(11E)
  6
Continuous
 62
     7
100
AcDbLine
 10
644.9943679514
 20
398.6548592172
 30
0.0
 11
644.9943679514
 21
387.6765470537
 31
0.0
  0
LINE
  5
2E1
330
276
100
AcDbEntity
  8
$DDT_AUDIT_GENERATED_(11E)
  6
Continuous
 62
     7
100
AcDbLine
 10
672.1443679514
 20
398.6548592172
 30
0.0
 11
672.1443679514
 21
398.8199722252
 31
0.0
  0
LINE
  5
2E2
330
276
100
AcDbEntity
  8
$DDT_AUDIT_GENERATED_(11E)
  6
Continuous
 62
     7
100
AcDbLine
 10
645.8443679514
 20
398.8199722252
 30
0.0
 11
645.8443679514
 21
398.6548592172
 31
0.0
  0
LINE
  5
2E4
330
276
100
AcDbEntity
  8
$DDT_AUDIT_GENERATED_(2E3)
  6
Continuous
 62
     7
100
AcDbLine
 10
582.4094311712
 20
451.5000497789
 30
0.0
 11
578.079304558
 21
449.0000500131
 31
0.0
  0
ARC
  5
2E5
330
276
100
AcDbEntity
  8
$DDT_AUDIT_GENERATED_(2E3)
  6
Continuous
 62
     7
100
AcDbCircle
 10
583.9943679514
 20
443.7548592172
 30
0.0
 40
8.500000000000167
100
AcDbArc
 50
137.1046335248
 51
102.8953664752
  0
LINE
  5
2E6
330
276
100
AcDbEntity
  8
$DDT_AUDIT_GENERATED_(2E3)
  6
Continuous
 62
     7
100
AcDbLine
 10
582.0974120197
 20
452.0404828023
 30
0.0
 11
582.4094311712
 21
451.5000497789
 31
0.0
  0
LINE
  5
2E7
330
276
100
AcDbEntity
  8
$DDT_AUDIT_GENERATED_(2E3)
  6
Continuous
 62
     7
100
AcDbLine
 10
578.079304558
 20
449.0000500131
 30
0.0
 11
577.7672854065
 21
449.5404830365
 31
0.0
  0
ARC
  5
2E8
330
276
100
AcDbEntity
  8
$DDT_AUDIT_GENERATED_(12E)
  6
Continuous
 62
     7
100
AcDbCircle
 10
582.8736445179
 20
442.550830603
 30
0.0
 40
27.62432533752914
100
AcDbArc
 50
54.125960958
 51
55.4258492578
  0
ARC
  5
2E9
330
276
100
AcDbEntity
  8
$DDT_AUDIT_GENERATED_(12E)
  6
Continuous
 62
     7
100
AcDbCircle
 10
597.7714419056
 20
464.5454953577
 30
0.0
 40
1.059206015651462
100
AcDbArc
 50
61.1519644237
 51
69.5004649204
  0
ARC
  5
2EA
330
276
100
AcDbEntity
  8
$DDT_AUDIT_GENERATED_(12E)
  6
Continuous
 62
     7
100
AcDbCircle
 10
597.8194360175
 20
464.6526230703
 30
0.0
 40
0.9420840038360306
100
AcDbArc
 50
69.9528825352
 51
84.3776694901
  0
ARC
  5
2EB
330
276
100
AcDbEntity
  8
$DDT_AUDIT_GENERATED_(12E)
  6
Continuous
 62
     7
100
AcDbCircle
 10
583.6453783045
 20
443.5494285933
 30
0.0
 40
26.40272393603783
100
AcDbArc
 50
41.2560879379
 51
42.4217953322
  0
ARC
  5
2EC
330
276
100
AcDbEntity
  8
$DDT_AUDIT_GENERATED_(12E)
  6
Continuous
 62
     7
100
AcDbCircle
 10
596.0185344354
 20
461.1915609203
 30
0.0
 40
4.843310902938627
100
AcDbArc
 50
59.16242063
 51
62.1380205247
  0
LINE
  5
2ED
330
276
100
AcDbEntity
  8
$DDT_AUDIT_GENERATED_(210)
  6
Continuous
 62
     7
100
AcDbLine
 10
543.2943679514
 20
433.3048592172
 30
0.0
 11
543.2943679514
 21
454.2048592172
 31
0.0
  0
LINE
  5
2EE
330
276
100
AcDbEntity
  8
$DDT_AUDIT_GENERATED_(210)
  6
Continuous
 62
     7
100
AcDbLine
 10
543.9943679514
 20
454.2048592172
 30
0.0
 11
543.2943679514
 21
454.2048592172
 31
0.0
  0
LINE
  5
2EF
330
276
100
AcDbEntity
  8
$DDT_AUDIT_GENERATED_(210)
  6
Continuous
 62
     7
100
AcDbLine
 10
543.2943679514
 20
433.3048592172
 30
0.0
 11
543.9943679514
 21
433.3048592172
 31
0.0
  0
LINE
  5
2F0
330
276
100
AcDbEntity
  8
$DDT_AUDIT_GENERATED_(210)
  6
Continuous
 62
     7
100
AcDbLine
 10
543.2943679514
 20
454.2048592172
 30
0.0
 11
543.1943679514
 21
454.1214088424
 31
0.0
  0
LINE
  5
2F1
330
276
100
AcDbEntity
  8
$DDT_AUDIT_GENERATED_(210)
  6
Continuous
 62
     7
100
AcDbLine
 10
543.1943679514
 20
433.388309592
 30
0.0
 11
543.2943679514
 21
433.3048592172
 31
0.0
  0
LINE
  5
2F2
330
276
100
AcDbEntity
  8
$DDT_AUDIT_GENERATED_(21B)
  6
Continuous
 62
     7
100
AcDbLine
 10
539.6943679514
 20
430.8422004436
 30
0.0
 11
539.6943679514
 21
428.7548592172
 31
0.0
  0
LINE
  5
2F3
330
276
100
AcDbEntity
  8
$DDT_AUDIT_GENERATED_(21B)
  6
Continuous
 62
     7
100
AcDbLine
 10
543.1943679514
 20
429.2548592172
 30
0.0
 11
543.1943679514
 21
458.2548592172
 31
0.0
  0
LINE
  5
2F4
330
276
100
AcDbEntity
  8
$DDT_AUDIT_GENERATED_(21B)
  6
Continuous
 62
     7
100
AcDbLine
 10
526.1943679514
 20
429.2548592172
 30
0.0
 11
526.1943679514
 21
458.2548592172
 31
0.0
  0
LINE
  5
2F5
330
276
100
AcDbEntity
  8
$DDT_AUDIT_GENERATED_(21B)
  6
Continuous
 62
     7
100
AcDbLine
 10
529.6943679514
 20
430.8422004436
 30
0.0
 11
529.6943679514
 21
428.7548592172
 31
0.0
  0
LINE
  5
2F6
330
276
100
AcDbEntity
  8
$DDT_AUDIT_GENERATED_(21B)
  6
Continuous
 62
     7
100
AcDbLine
 10
529.6943679514
 20
458.7548592172
 30
0.0
 11
529.6943679514
 21
456.6675179909
 31
0.0
  0
LINE
  5
2F7
330
276
100
AcDbEntity
  8
$DDT_AUDIT_GENERATED_(21B)
  6
Continuous
 62
     7
100
AcDbLine
 10
529.6943679514
 20
445.8422004436
 30
0.0
 11
529.6943679514
 21
441.6675179909
 31
0.0
  0
ARC
  5
2F8
330
276
100
AcDbEntity
  8
$DDT_AUDIT_GENERATED_(21B)
  6
Continuous
 62
     7
100
AcDbCircle
 10
533.4729274706
 20
436.2548592172
 30
0.0
 40
6.601089837288617
100
AcDbArc
 50
124.9187681796
 51
235.0812318204
  0
ARC
  5
2F9
330
276
100
AcDbEntity
  8
$DDT_AUDIT_GENERATED_(21B)
  6
Continuous
 62
     7
100
AcDbCircle
 10
533.4729274706
 20
451.2548592172
 30
0.0
 40
6.601089837288618
100
AcDbArc
 50
124.9187681796
 51
235.0812318204
  0
LINE
  5
2FA
330
276
100
AcDbEntity
  8
$DDT_AUDIT_GENERATED_(21B)
  6
Continuous
 62
     7
100
AcDbLine
 10
529.6943679514
 20
458.7548592172
 30
0.0
 11
526.8986392223
 21
458.7548592172
 31
0.0
  0
LINE
  5
2FB
330
276
100
AcDbEntity
  8
$DDT_AUDIT_GENERATED_(21B)
  6
Continuous
 62
     7
100
AcDbLine
 10
529.6943679514
 20
428.7548592172
 30
0.0
 11
526.8986392223
 21
428.7548592172
 31
0.0
  0
LINE
  5
2FC
330
276
100
AcDbEntity
  8
$DDT_AUDIT_GENERATED_(21B)
  6
Continuous
 62
     7
100
AcDbLine
 10
539.6943679514
 20
458.7548592172
 30
0.0
 11
539.6943679514
 21
456.6675179909
 31
0.0
  0
LINE
  5
2FD
330
276
100
AcDbEntity
  8
$DDT_AUDIT_GENERATED_(21B)
  6
Continuous
 62
     7
100
AcDbLine
 10
539.6943679514
 20
445.8422004436
 30
0.0
 11
539.6943679514
 21
441.6675179909
 31
0.0
  0
LINE
  5
2FE
330
276
100
AcDbEntity
  8
$DDT_AUDIT_GENERATED_(21B)
  6
Continuous
 62
     7
100
AcDbLine
 10
529.6943679514
 20
428.7548592172
 30
0.0
 11
539.6943679514
 21
428.7548592172
 31
0.0
  0
LINE
  5
2FF
330
276
100
AcDbEntity
  8
$DDT_AUDIT_GENERATED_(21B)
  6
Continuous
 62
     7
100
AcDbLine
 10
539.6943679514
 20
428.7548592172
 30
0.0
 11
542.4900966806
 21
428.7548592172
 31
0.0
  0
LINE
  5
300
330
276
100
AcDbEntity
  8
$DDT_AUDIT_GENERATED_(21B)
  6
Continuous
 62
     7
100
AcDbLine
 10
539.6943679514
 20
458.7548592172
 30
0.0
 11
542.4900966806
 21
458.7548592172
 31
0.0
  0
LINE
  5
301
330
276
100
AcDbEntity
  8
$DDT_AUDIT_GENERATED_(21B)
  6
Continuous
 62
     7
100
AcDbLine
 10
539.6943679514
 20
458.7548592172
 30
0.0
 11
529.6943679514
 21
458.7548592172
 31
0.0
  0
LINE
  5
302
330
276
100
AcDbEntity
  8
$DDT_AUDIT_GENERATED_(21B)
  6
Continuous
 62
     7
100
AcDbLine
 10
529.6943679514
 20
456.6675179909
 30
0.0
 11
539.6943679514
 21
456.6675179909
 31
0.0
  0
ARC
  5
303
330
276
100
AcDbEntity
  8
$DDT_AUDIT_GENERATED_(21B)
  6
Continuous
 62
     7
100
AcDbCircle
 10
535.9158084323
 20
451.2548592172
 30
0.0
 40
6.601089837288602
100
AcDbArc
 50
304.9187681795
 51
55.0812318205
  0
LINE
  5
304
330
276
100
AcDbEntity
  8
$DDT_AUDIT_GENERATED_(21B)
  6
Continuous
 62
     7
100
AcDbLine
 10
539.6943679514
 20
445.8422004436
 30
0.0
 11
529.6943679514
 21
445.8422004436
 31
0.0
  0
LINE
  5
305
330
276
100
AcDbEntity
  8
$DDT_AUDIT_GENERATED_(21B)
  6
Continuous
 62
     7
100
AcDbLine
 10
529.6943679514
 20
441.6675179909
 30
0.0
 11
539.6943679514
 21
441.6675179909
 31
0.0
  0
ARC
  5
306
330
276
100
AcDbEntity
  8
$DDT_AUDIT_GENERATED_(21B)
  6
Continuous
 62
     7
100
AcDbCircle
 10
535.9158084323
 20
436.2548592172
 30
0.0
 40
6.601089837288606
100
AcDbArc
 50
304.9187681795
 51
55.0812318205
  0
LINE
  5
307
330
276
100
AcDbEntity
  8
$DDT_AUDIT_GENERATED_(21B)
  6
Continuous
 62
     7
100
AcDbLine
 10
539.6943679514
 20
430.8422004436
 30
0.0
 11
529.6943679514
 21
430.8422004436
 31
0.0
  0
ARC
  5
308
330
276
100
AcDbEntity
  8
$DDT_AUDIT_GENERATED_(21B)
  6
Continuous
 62
     7
100
AcDbCircle
 10
537.0586667532
 20
450.3584568208
 30
0.0
 40
9.999999999999996
100
AcDbArc
 50
52.1519040322
 51
57.104802113
  0
ARC
  5
309
330
276
100
AcDbEntity
  8
$DDT_AUDIT_GENERATED_(21B)
  6
Continuous
 62
     7
100
AcDbCircle
 10
537.0586667532
 20
437.1512616136
 30
0.0
 40
9.999999999999995
100
AcDbArc
 50
302.897465399
 51
307.8480959678
  0
ARC
  5
30A
330
276
100
AcDbEntity
  8
$DDT_AUDIT_GENERATED_(21B)
  6
Continuous
 62
     7
100
AcDbCircle
 10
532.3300691497
 20
450.3584568208
 30
0.0
 40
9.999999999999996
100
AcDbArc
 50
122.897465399
 51
127.8480959678
  0
ARC
  5
30B
330
276
100
AcDbEntity
  8
$DDT_AUDIT_GENERATED_(21B)
  6
Continuous
 62
     7
100
AcDbCircle
 10
532.3300691497
 20
437.1512616136
 30
0.0
 40
9.999999999999996
100
AcDbArc
 50
232.1519040322
 51
237.104802113
  0
LINE
  5
30C
330
276
100
AcDbEntity
  8
$DDT_AUDIT_GENERATED_(254)
  6
Continuous
 62
     7
100
AcDbLine
 10
525.9943679514
 20
424.7048592172
 30
0.0
 11
525.9943679514
 21
462.8048592172
 31
0.0
  0
LINE
  5
30D
330
276
100
AcDbEntity
  8
$DDT_AUDIT_GENERATED_(254)
  6
Continuous
 62
     7
100
AcDbLine
 10
525.7943679514
 20
463.0048592172
 30
0.0
 11
508.9943679514
 21
463.0048592172
 31
0.0
  0
LINE
  5
30E
330
276
100
AcDbEntity
  8
$DDT_AUDIT_GENERATED_(254)
  6
Continuous
 62
     7
100
AcDbLine
 10
508.9943679514
 20
424.5048592172
 30
0.0
 11
525.7943679514
 21
424.5048592172
 31
0.0
  0
ARC
  5
30F
330
276
100
AcDbEntity
  8
$DDT_AUDIT_GENERATED_(254)
  6
Continuous
 62
     7
100
AcDbCircle
 10
525.7943679514
 20
424.7048592172
 30
0.0
 40
0.1999999999999988
100
AcDbArc
 50
270.0
 51
0.0
  0
ARC
  5
310
330
276
100
AcDbEntity
  8
$DDT_AUDIT_GENERATED_(254)
  6
Continuous
 62
     7
100
AcDbCircle
 10
525.7943679514
 20
462.8048592172
 30
0.0
 40
0.1999999999999919
100
AcDbArc
 50
0.0
 51
90.0
  0
LINE
  5
311
330
276
100
AcDbEntity
  8
$DDT_AUDIT_GENERATED_(15F)
  6
Continuous
 62
     7
100
AcDbLine
 10
508.9943679514
 20
421.3410643744
 30
0.0
 11
508.9943679514
 21
466.16865406
 31
0.0
  0
LINE
  5
312
330
276
100
AcDbEntity
  8
$DDT_AUDIT_GENERATED_(15F)
  6
Continuous
 62
     7
100
AcDbLine
 10
475.9943679514
 20
478.1669222366
 30
0.0
 11
475.9943679514
 21
409.3427961978
 31
0.0
  0
ARC
  5
313
330
276
100
AcDbEntity
  8
$DDT_AUDIT_GENERATED_(15F)
  6
Continuous
 62
     7
100
AcDbCircle
 10
444.1629542396
 20
606.2055140684
 30
0.0
 40
200.0
100
AcDbArc
 50
279.3266153984
 51
287.6531938422
  0
ARC
  5
314
330
276
100
AcDbEntity
  8
$DDT_AUDIT_GENERATED_(15F)
  6
Continuous
 62
     7
100
AcDbCircle
 10
444.1629542396
 20
281.304204366
 30
0.0
 40
200.0
100
AcDbArc
 50
72.3468061578
 51
80.6733846016
  0
ARC
  5
315
330
276
100
AcDbEntity
  8
$DDT_AUDIT_GENERATED_(15F)
  6
Continuous
 62
     7
100
AcDbCircle
 10
476.4943679514
 20
478.1669222366
 30
0.0
 40
0.4999999999999994
100
AcDbArc
 50
80.6733846016
 51
180.0
  0
ARC
  5
316
330
276
100
AcDbEntity
  8
$DDT_AUDIT_GENERATED_(15F)
  6
Continuous
 62
     7
100
AcDbCircle
 10
476.4943679514
 20
409.3427961978
 30
0.0
 40
0.5000000000000004
100
AcDbArc
 50
180.0
 51
279.3266153984
  0
ARC
  5
317
330
276
100
AcDbEntity
  8
$DDT_AUDIT_GENERATED_(15F)
  6
Continuous
 62
     7
100
AcDbCircle
 10
502.9943679514
 20
466.16865406
 30
0.0
 40
6.000000000000005
100
AcDbArc
 50
0.0
 51
72.3468061578
  0
ARC
  5
318
330
276
100
AcDbEntity
  8
$DDT_AUDIT_GENERATED_(15F)
  6
Continuous
 62
     7
100
AcDbCircle
 10
502.9943679514
 20
421.3410643744
 30
0.0
 40
6.000000000000006
100
AcDbArc
 50
287.6531938422
 51
0.0
  0
LINE
  5
319
330
276
100
AcDbEntity
  8
$DDT_AUDIT_GENERATED_(26F)
  6
Continuous
 62
     7
100
AcDbLine
 10
525.9943679514
 20
429.7548592172
 30
0.0
 11
526.1943679514
 21
429.7548592172
 31
0.0
  0
LINE
  5
31A
330
276
100
AcDbEntity
  8
$DDT_AUDIT_GENERATED_(26F)
  6
Continuous
 62
     7
100
AcDbLine
 10
526.1943679514
 20
457.7548592172
 30
0.0
 11
525.9943679514
 21
457.7548592172
 31
0.0
  0
ENDBLK
  5
31C
330
276
100
AcDbEntity
  8
0
100
AcDbBlockEnd
  0
ENDSEC
  0
SECTION
  2
ENTITIES
  0
INSERT
  5
5F
330
1F
100
AcDbEntity
  8
Default
100
AcDbBlockReference
  2
SEANNOT_GROUP
 10
0.0
 20
0.0
 30
0.0
  0
INSERT
  5
66
330
1F
100
AcDbEntity
  8
Default
100
AcDbBlockReference
  2
SEANNOT_GROUP1
 10
0.0
 20
0.0
 30
0.0
  0
INSERT
  5
6C
330
1F
100
AcDbEntity
  8
Default
100
AcDbBlockReference
  2
SEANNOT_GROUP2
 10
0.0
 20
0.0
 30
0.0
  0
INSERT
  5
72
330
1F
100
AcDbEntity
  8
Default
100
AcDbBlockReference
  2
SEANNOT_GROUP3
 10
0.0
 20
0.0
 30
0.0
  0
INSERT
  5
7C
330
1F
100
AcDbEntity
  8
Default
100
AcDbBlockReference
  2
SEANNOT_GROUP4
 10
0.0
 20
0.0
 30
0.0
  0
INSERT
  5
86
330
1F
100
AcDbEntity
  8
Default
100
AcDbBlockReference
  2
SE
 10
0.0
 20
0.0
 30
0.0
  0
INSERT
  5
168
330
1F
100
AcDbEntity
  8
Default
100
AcDbBlockReference
  2
SE1
 10
0.0
 20
0.0
 30
0.0
  0
INSERT
  5
277
330
1F
100
AcDbEntity
  8
Default
100
AcDbBlockReference
  2
SE2
 10
0.0
 20
0.0
 30
0.0
  0
TEXT
  5
31E
330
1F
100
AcDbEntity
  8
Default
  6
Continuous
 62
     7
100
AcDbText
 10
5.9362635081
 20
53.4225120485
 30
0.0
 40
10.0
  1
Grohe AG^J
  7
SEACAD_seiso_ttf
 11
5.9362635081
 21
63.4225120485
 31
0.0
100
AcDbText
 73
     3
  0
TEXT
  5
31F
330
1F
100
AcDbEntity
  8
Default
  6
Continuous
 62
     7
100
AcDbText
 10
5.9362635081
 20
37.0588756849
 30
0.0
 40
10.0
  1
 
  7
SEACAD_seiso_ttf
 11
5.9362635081
 21
47.0588756849
 31
0.0
100
AcDbText
 73
     3
  0
TEXT
  5
320
330
1F
100
AcDbEntity
  8
Default
  6
Continuous
 62
     7
100
AcDbText
 10
5.9362635081
 20
20.6952393213
 30
0.0
 40
10.0
  1
ecn: 
  7
SEACAD_seiso_ttf
 11
5.9362635081
 21
30.6952393213
 31
0.0
100
AcDbText
 73
     3
  0
TEXT
  5
321
330
1F
100
AcDbEntity
  8
Default
  6
Continuous
 62
     7
100
AcDbText
 10
5.9362635081
 20
4.3316029576
 30
0.0
 40
10.0
  1
unit: mm
  7
SEACAD_seiso_ttf
 11
5.9362635081
 21
14.3316029576
 31
0.0
100
AcDbText
 73
     3
  0
LINE
  5
322
330
1F
100
AcDbEntity
  8
Default
  6
Continuous
 62
     7
100
AcDbLine
 10
0.0
 20
0.0
 30
0.0
 11
100.0
 21
0.0
 31
0.0
  0
LINE
  5
323
330
1F
100
AcDbEntity
  8
Default
  6
Continuous
 62
     7
100
AcDbLine
 10
0.0
 20
0.0
 30
0.0
 11
0.0
 21
100.0
 31
0.0
  0
TEXT
  5
324
330
1F
100
AcDbEntity
  8
Default
  6
Continuous
 62
     7
100
AcDbText
 10
24.3923665681
 20
-18.2375342018
 30
0.0
 40
10.0
  1
100 mm
  7
SEACAD_seiso_ttf
 11
24.3923665681
 21
-8.2375342018
 31
0.0
100
AcDbText
 73
     3
  0
TEXT
  5
325
330
1F
100
AcDbEntity
  8
Default
  6
Continuous
 62
     7
100
AcDbText
 10
-7.6150308803
 20
24.6231930421
 30
0.0
 40
10.0
  1
100 mm
 50
90.0
  7
SEACAD_seiso_ttf
 11
-17.6150308803
 21
24.6231930421
 31
0.0
100
AcDbText
 73
     3
  0
TEXT
  5
326
330
1F
100
AcDbEntity
  8
Default
  6
Continuous
 62
     7
100
AcDbText
 10
28.4878128572
 20
20.0907663715
 30
0.0
 40
10.0
  1
216529
  7
SEACAD_seiso_ttf
 11
28.4878128572
 21
30.0907663715
 31
0.0
100
AcDbText
 73
     3
  0
TEXT
  5
327
330
1F
100
AcDbEntity
  8
Default
  6
Continuous
 62
     7
100
AcDbText
 10
5.9012241913
 20
36.7242780188
 30
0.0
 40
10.0
  1
34230000
  7
SEACAD_seiso_ttf
 11
5.9012241913
 21
46.7242780188
 31
0.0
100
AcDbText
 73
     3
  0
ENDSEC
  0
SECTION
  2
OBJECTS
  0
DICTIONARY
  5
C
330
0
100
AcDbDictionary
281
     1
  3
ACAD_GROUP
350
D
  3
ACAD_LAYOUT
350
1A
  3
ACAD_MLEADERSTYLE
350
32B
  3
ACAD_MLINESTYLE
350
17
  3
ACAD_PLOTSETTINGS
350
19
  3
ACAD_PLOTSTYLENAME
350
E
  3
ACAD_SCALELIST
350
3B
  3
ACAD_TABLESTYLE
350
32A
  3
ACAD_VISUALSTYLE
350
2A
  3
AcDbVariableDictionary
350
328
  0
DICTIONARY
  5
D
102
{ACAD_REACTORS
330
C
102
}
330
C
100
AcDbDictionary
281
     1
  0
DICTIONARY
  5
1A
102
{ACAD_REACTORS
330
C
102
}
330
C
100
AcDbDictionary
281
     1
  3
Layout1
350
1E
  3
Model
350
22
  0
DICTIONARY
  5
32B
102
{ACAD_REACTORS
330
C
102
}
330
C
100
AcDbDictionary
281
     1
  0
DICTIONARY
  5
17
102
{ACAD_REACTORS
330
C
102
}
330
C
100
AcDbDictionary
281
     1
  3
Standard
350
18
  0
DICTIONARY
  5
19
102
{ACAD_REACTORS
330
C
102
}
330
C
100
AcDbDictionary
281
     1
  0
ACDBDICTIONARYWDFLT
  5
E
102
{ACAD_REACTORS
330
C
102
}
330
C
100
AcDbDictionary
281
     1
  3
Normal
350
F
100
AcDbDictionaryWithDefault
340
F
  0
DICTIONARY
  5
3B
102
{ACAD_REACTORS
330
C
102
}
330
C
100
AcDbDictionary
281
     1
  3
A0
350
3C
  3
A1
350
3D
  3
A2
350
3E
  3
A3
350
3F
  3
A4
350
40
  3
A5
350
41
  3
A6
350
42
  3
A7
350
43
  3
A8
350
44
  3
A9
350
45
  3
B0
350
46
  3
B1
350
47
  3
B2
350
48
  3
B3
350
49
  3
B4
350
4A
  3
B5
350
4B
  3
B6
350
4C
  3
B7
350
4D
  3
B8
350
4E
  3
B9
350
4F
  3
C0
350
50
  3
C1
350
51
  3
C2
350
52
  3
C3
350
53
  3
C4
350
54
  3
C5
350
55
  3
C6
350
56
  3
C7
350
57
  3
C8
350
58
  3
C9
350
59
  3
D0
350
5A
  3
D1
350
5B
  3
D2
350
5C
  0
DICTIONARY
  5
32A
102
{ACAD_REACTORS
330
C
102
}
330
C
100
AcDbDictionary
281
     1
  0
DICTIONARY
  5
2A
102
{ACAD_REACTORS
330
C
102
}
330
C
100
AcDbDictionary
281
     1
  3
2dWireframe
350
2F
  3
3D Hidden
350
31
  3
3dWireframe
350
30
  3
Basic
350
32
  3
Brighten
350
36
  3
ColorChange
350
3A
  3
Conceptual
350
34
  3
Dim
350
35
  3
Facepattern
350
39
  3
Flat
350
2B
  3
FlatWithEdges
350
2C
  3
Gouraud
350
2D
  3
GouraudWithEdges
350
2E
  3
Linepattern
350
38
  3
Realistic
350
33
  3
Thicken
350
37
  0
DICTIONARY
  5
328
102
{ACAD_REACTORS
330
C
102
}
330
C
100
AcDbDictionary
281
     1
  3
CANNOSCALE
350
329
  3
PSOLHEIGHT
350
32D
  3
PSOLWIDTH
350
32C
  0
LAYOUT
  5
1E
102
{ACAD_REACTORS
330
1A
102
}
330
1A
100
AcDbPlotSettings
  1

  2
none_device
  4

  6

 40
0.0
 41
0.0
 42
0.0
 43
0.0
 44
0.0
 45
0.0
 46
0.0
 47
0.0
 48
0.0
 49
0.0
140
0.0
141
0.0
142
1.0
143
1.0
 70
   688
 72
     0
 73
     0
 74
     5
  7

 75
    16
147
1.0
148
0.0
149
0.0
100
AcDbLayout
  1
Layout1
 70
     1
 71
     1
 10
0.0
 20
0.0
 11
1682.0
 21
2378.0
 12
0.0
 22
0.0
 32
0.0
 14
0.0
 24
0.0
 34
0.0
 15
1682.0
 25
2378.0
 35
0.0
146
0.0
 13
0.0
 23
0.0
 33
0.0
 16
1.0
 26
0.0
 36
0.0
 17
0.0
 27
1.0
 37
0.0
 76
     0
330
1B
  0
LAYOUT
  5
22
102
{ACAD_REACTORS
330
1A
102
}
330
1A
100
AcDbPlotSettings
  1

  2
none_device
  4

  6

 40
0.0
 41
0.0
 42
0.0
 43
0.0
 44
0.0
 45
0.0
 46
0.0
 47
0.0
 48
0.0
 49
0.0
140
0.0
141
0.0
142
1.0
143
1.0
 70
  1712
 72
     0
 73
     0
 74
     0
  7

 75
     0
147
1.0
148
0.0
149
0.0
100
AcDbLayout
  1
Model
 70
     1
 71
     0
 10
0.0
 20
0.0
 11
1682.0
 21
2378.0
 12
0.0
 22
0.0
 32
0.0
 14
0.0
 24
0.0
 34
0.0
 15
1682.0
 25
2378.0
 35
0.0
146
0.0
 13
0.0
 23
0.0
 33
0.0
 16
1.0
 26
0.0
 36
0.0
 17
0.0
 27
1.0
 37
0.0
 76
     0
330
1F
331
29
  0
MLINESTYLE
  5
18
102
{ACAD_REACTORS
330
17
102
}
330
17
100
AcDbMlineStyle
  2
Standard
 70
     0
  3

 62
   256
 51
90.0
 52
90.0
 71
     2
 49
0.5
 62
   256
  6
BYLAYER
 49
-0.5
 62
   256
  6
BYLAYER
  0
ACDBPLACEHOLDER
  5
F
102
{ACAD_REACTORS
330
E
102
}
330
E
  0
SCALE
  5
3C
102
{ACAD_REACTORS
330
3B
102
}
330
3B
100
AcDbScale
 70
     0
300
1:1
140
1.0
141
1.0
290
     1
  0
SCALE
  5
3D
102
{ACAD_REACTORS
330
3B
102
}
330
3B
100
AcDbScale
 70
     0
300
1:2
140
1.0
141
2.0
290
     0
  0
SCALE
  5
3E
102
{ACAD_REACTORS
330
3B
102
}
330
3B
100
AcDbScale
 70
     0
300
1:4
140
1.0
141
4.0
290
     0
  0
SCALE
  5
3F
102
{ACAD_REACTORS
330
3B
102
}
330
3B
100
AcDbScale
 70
     0
300
1:5
140
1.0
141
5.0
290
     0
  0
SCALE
  5
40
102
{ACAD_REACTORS
330
3B
102
}
330
3B
100
AcDbScale
 70
     0
300
1:8
140
1.0
141
8.0
290
     0
  0
SCALE
  5
41
102
{ACAD_REACTORS
330
3B
102
}
330
3B
100
AcDbScale
 70
     0
300
1:10
140
1.0
141
10.0
290
     0
  0
SCALE
  5
42
102
{ACAD_REACTORS
330
3B
102
}
330
3B
100
AcDbScale
 70
     0
300
1:16
140
1.0
141
16.0
290
     0
  0
SCALE
  5
43
102
{ACAD_REACTORS
330
3B
102
}
330
3B
100
AcDbScale
 70
     0
300
1:20
140
1.0
141
20.0
290
     0
  0
SCALE
  5
44
102
{ACAD_REACTORS
330
3B
102
}
330
3B
100
AcDbScale
 70
     0
300
1:30
140
1.0
141
30.0
290
     0
  0
SCALE
  5
45
102
{ACAD_REACTORS
330
3B
102
}
330
3B
100
AcDbScale
 70
     0
300
1:40
140
1.0
141
40.0
290
     0
  0
SCALE
  5
46
102
{ACAD_REACTORS
330
3B
102
}
330
3B
100
AcDbScale
 70
     0
300
1:50
140
1.0
141
50.0
290
     0
  0
SCALE
  5
47
102
{ACAD_REACTORS
330
3B
102
}
330
3B
100
AcDbScale
 70
     0
300
1:100
140
1.0
141
100.0
290
     0
  0
SCALE
  5
48
102
{ACAD_REACTORS
330
3B
102
}
330
3B
100
AcDbScale
 70
     0
300
2:1
140
2.0
141
1.0
290
     0
  0
SCALE
  5
49
102
{ACAD_REACTORS
330
3B
102
}
330
3B
100
AcDbScale
 70
     0
300
4:1
140
4.0
141
1.0
290
     0
  0
SCALE
  5
4A
102
{ACAD_REACTORS
330
3B
102
}
330
3B
100
AcDbScale
 70
     0
300
8:1
140
8.0
141
1.0
290
     0
  0
SCALE
  5
4B
102
{ACAD_REACTORS
330
3B
102
}
330
3B
100
AcDbScale
 70
     0
300
10:1
140
10.0
141
1.0
290
     0
  0
SCALE
  5
4C
102
{ACAD_REACTORS
330
3B
102
}
330
3B
100
AcDbScale
 70
     0
300
100:1
140
100.0
141
1.0
290
     0
  0
SCALE
  5
4D
102
{ACAD_REACTORS
330
3B
102
}
330
3B
100
AcDbScale
 70
     0
300
1/128" = 1'-0"
140
0.0078125
141
12.0
290
     0
  0
SCALE
  5
4E
102
{ACAD_REACTORS
330
3B
102
}
330
3B
100
AcDbScale
 70
     0
300
1/64" = 1'-0"
140
0.015625
141
12.0
290
     0
  0
SCALE
  5
4F
102
{ACAD_REACTORS
330
3B
102
}
330
3B
100
AcDbScale
 70
     0
300
1/32" = 1'-0"
140
0.03125
141
12.0
290
     0
  0
SCALE
  5
50
102
{ACAD_REACTORS
330
3B
102
}
330
3B
100
AcDbScale
 70
     0
300
1/16" = 1'-0"
140
0.0625
141
12.0
290
     0
  0
SCALE
  5
51
102
{ACAD_REACTORS
330
3B
102
}
330
3B
100
AcDbScale
 70
     0
300
3/32" = 1'-0"
140
0.09375
141
12.0
290
     0
  0
SCALE
  5
52
102
{ACAD_REACTORS
330
3B
102
}
330
3B
100
AcDbScale
 70
     0
300
1/8" = 1'-0"
140
0.125
141
12.0
290
     0
  0
SCALE
  5
53
102
{ACAD_REACTORS
330
3B
102
}
330
3B
100
AcDbScale
 70
     0
300
3/16" = 1'-0"
140
0.1875
141
12.0
290
     0
  0
SCALE
  5
54
102
{ACAD_REACTORS
330
3B
102
}
330
3B
100
AcDbScale
 70
     0
300
1/4" = 1'-0"
140
0.25
141
12.0
290
     0
  0
SCALE
  5
55
102
{ACAD_REACTORS
330
3B
102
}
330
3B
100
AcDbScale
 70
     0
300
3/8" = 1'-0"
140
0.375
141
12.0
290
     0
  0
SCALE
  5
56
102
{ACAD_REACTORS
330
3B
102
}
330
3B
100
AcDbScale
 70
     0
300
1/2" = 1'-0"
140
0.5
141
12.0
290
     0
  0
SCALE
  5
57
102
{ACAD_REACTORS
330
3B
102
}
330
3B
100
AcDbScale
 70
     0
300
3/4" = 1'-0"
140
0.75
141
12.0
290
     0
  0
SCALE
  5
58
102
{ACAD_REACTORS
330
3B
102
}
330
3B
100
AcDbScale
 70
     0
300
1" = 1'-0"
140
1.0
141
12.0
290
     0
  0
SCALE
  5
59
102
{ACAD_REACTORS
330
3B
102
}
330
3B
100
AcDbScale
 70
     0
300
1-1/2" = 1'-0"
140
1.5
141
12.0
290
     0
  0
SCALE
  5
5A
102
{ACAD_REACTORS
330
3B
102
}
330
3B
100
AcDbScale
 70
     0
300
3" = 1'-0"
140
3.0
141
12.0
290
     0
  0
SCALE
  5
5B
102
{ACAD_REACTORS
330
3B
102
}
330
3B
100
AcDbScale
 70
     0
300
6" = 1'-0"
140
6.0
141
12.0
290
     0
  0
SCALE
  5
5C
102
{ACAD_REACTORS
330
3B
102
}
330
3B
100
AcDbScale
 70
     0
300
1'-0" = 1'-0"
140
12.0
141
12.0
290
     0
  0
VISUALSTYLE
  5
2F
102
{ACAD_REACTORS
330
2A
102
}
330
2A
100
AcDbVisualStyle
  2
2dWireframe
 70
     4
 71
     0
 72
     2
 73
     0
 90
        0
 40
-0.6
 41
-30.0
 62
     5
 63
     7
 74
     1
 91
        4
 64
     7
 65
   257
 75
     1
175
     1
 42
1.0
 92
        0
 66
   257
 43
1.0
 76
     1
 77
     6
 78
     2
 67
     7
 79
     5
170
     0
171
     0
290
     0
174
     0
 93
        1
 44
0.0
173
     0
291
     0
 45
0.0
1001
ACAD
1000
AcDbSavedByObjectVersion
1070
     0
  0
VISUALSTYLE
  5
31
102
{ACAD_REACTORS
330
2A
102
}
330
2A
100
AcDbVisualStyle
  2
3D Hidden
 70
     6
 71
     1
 72
     2
 73
     2
 90
        0
 40
-0.6
 41
-30.0
 62
     5
 63
     7
 74
     2
 91
        2
 64
     7
 65
   257
 75
     2
175
     1
 42
40.0
 92
        0
 66
   257
 43
1.0
 76
     1
 77
     6
 78
     2
 67
     7
 79
     3
170
     0
171
     0
290
     0
174
     0
 93
        1
 44
0.0
173
     0
291
     0
 45
0.0
1001
ACAD
1000
AcDbSavedByObjectVersion
1070
     0
  0
VISUALSTYLE
  5
30
102
{ACAD_REACTORS
330
2A
102
}
330
2A
100
AcDbVisualStyle
  2
3dWireframe
 70
     5
 71
     0
 72
     2
 73
     0
 90
        0
 40
-0.6
 41
-30.0
 62
     5
 63
     7
 74
     1
 91
        4
 64
     7
 65
   257
 75
     1
175
     1
 42
1.0
 92
        0
 66
   257
 43
1.0
 76
     1
 77
     6
 78
     2
 67
     7
 79
     5
170
     0
171
     0
290
     0
174
     0
 93
        1
 44
0.0
173
     0
291
     0
 45
0.0
1001
ACAD
1000
AcDbSavedByObjectVersion
1070
     0
  0
VISUALSTYLE
  5
32
102
{ACAD_REACTORS
330
2A
102
}
330
2A
100
AcDbVisualStyle
  2
Basic
 70
     7
 71
     1
 72
     0
 73
     1
 90
        0
 40
-0.6
 41
-30.0
 62
     5
 63
     7
 74
     0
 91
        4
 64
     7
 65
   257
 75
     1
175
     1
 42
1.0
 92
        8
 66
     7
 43
1.0
 76
     1
 77
     6
 78
     2
 67
     7
 79
     5
170
     0
171
     0
290
     0
174
     0
 93
        1
 44
0.0
173
     0
291
     1
 45
0.0
1001
ACAD
1000
AcDbSavedByObjectVersion
1070
     0
  0
VISUALSTYLE
  5
36
102
{ACAD_REACTORS
330
2A
102
}
330
2A
100
AcDbVisualStyle
  2
Brighten
 70
    12
 71
     2
 72
     2
 73
     0
 90
        0
 40
-0.6
 41
-30.0
 62
     5
 63
     7
 74
     1
 91
        4
 64
     7
 65
   257
 75
     1
175
     1
 42
1.0
 92
        8
 66
     7
 43
1.0
 76
     1
 77
     6
 78
     2
 67
     7
 79
     5
170
     0
171
     0
290
     0
174
     0
 93
        1
 44
50.0
173
     0
291
     1
 45
0.0
1001
ACAD
1000
AcDbSavedByObjectVersion
1070
     0
  0
VISUALSTYLE
  5
3A
102
{ACAD_REACTORS
330
2A
102
}
330
2A
100
AcDbVisualStyle
  2
ColorChange
 70
    16
 71
     2
 72
     2
 73
     3
 90
        0
 40
-0.6
 41
-30.0
 62
     5
 63
     8
 74
     1
 91
        4
 64
     7
 65
   257
 75
     1
175
     1
 42
1.0
 92
        8
 66
     8
 43
1.0
 76
     1
 77
     6
 78
     2
 67
     7
 79
     5
170
     0
171
     0
290
     0
174
     0
 93
        1
 44
0.0
173
     0
291
     1
 45
0.0
1001
ACAD
1000
AcDbSavedByObjectVersion
1070
     0
  0
VISUALSTYLE
  5
34
102
{ACAD_REACTORS
330
2A
102
}
330
2A
100
AcDbVisualStyle
  2
Conceptual
 70
     9
 71
     3
 72
     2
 73
     0
 90
        0
 40
-0.6
 41
-30.0
 62
     5
 63
     7
 74
     2
 91
        2
 64
     7
 65
   257
 75
     1
175
     1
 42
40.0
 92
        8
 66
     7
 43
1.0
 76
     1
 77
     6
 78
     2
 67
     7
 79
     3
170
     0
171
     0
290
     0
174
     0
 93
        1
 44
0.0
173
     0
291
     0
 45
0.0
1001
ACAD
1000
AcDbSavedByObjectVersion
1070
     0
  0
VISUALSTYLE
  5
35
102
{ACAD_REACTORS
330
2A
102
}
330
2A
100
AcDbVisualStyle
  2
Dim
 70
    11
 71
     2
 72
     2
 73
     0
 90
        0
 40
-0.6
 41
-30.0
 62
     5
 63
     7
 74
     1
 91
        4
 64
     7
 65
   257
 75
     1
175
     1
 42
1.0
 92
        8
 66
     7
 43
1.0
 76
     1
 77
     6
 78
     2
 67
     7
 79
     5
170
     0
171
     0
290
     0
174
     0
 93
        1
 44
-50.0
173
     0
291
     1
 45
0.0
1001
ACAD
1000
AcDbSavedByObjectVersion
1070
     0
  0
VISUALSTYLE
  5
39
102
{ACAD_REACTORS
330
2A
102
}
330
2A
100
AcDbVisualStyle
  2
Facepattern
 70
    15
 71
     2
 72
     2
 73
     0
 90
        0
 40
-0.6
 41
-30.0
 62
     5
 63
     7
 74
     1
 91
        4
 64
     7
 65
   257
 75
     1
175
     1
 42
1.0
 92
        8
 66
     7
 43
1.0
 76
     1
 77
     6
 78
     2
 67
     7
 79
     5
170
     0
171
     0
290
     0
174
     0
 93
        1
 44
0.0
173
     0
291
     1
 45
0.0
1001
ACAD
1000
AcDbSavedByObjectVersion
1070
     0
  0
VISUALSTYLE
  5
2B
102
{ACAD_REACTORS
330
2A
102
}
330
2A
100
AcDbVisualStyle
  2
Flat
 70
     0
 71
     2
 72
     1
 73
     1
 90
        2
 40
-0.6
 41
30.0
 62
     5
 63
     7
 74
     0
 91
        4
 64
     7
 65
   257
 75
     1
175
     1
 42
1.0
 92
        8
 66
     7
 43
1.0
 76
     1
 77
     6
 78
     2
 67
     7
 79
     5
170
     0
171
     0
290
     0
174
     0
 93
       13
 44
0.0
173
     0
291
     1
 45
0.0
1001
ACAD
1000
AcDbSavedByObjectVersion
1070
     0
  0
VISUALSTYLE
  5
2C
102
{ACAD_REACTORS
330
2A
102
}
330
2A
100
AcDbVisualStyle
  2
FlatWithEdges
 70
     1
 71
     2
 72
     1
 73
     1
 90
        2
 40
-0.6
 41
30.0
 62
     5
 63
     7
 74
     1
 91
        4
 64
     7
 65
   257
 75
     1
175
     1
 42
1.0
 92
        0
 66
   257
 43
1.0
 76
     1
 77
     6
 78
     2
 67
     7
 79
     5
170
     0
171
     0
290
     0
174
     0
 93
       13
 44
0.0
173
     0
291
     1
 45
0.0
1001
ACAD
1000
AcDbSavedByObjectVersion
1070
     0
  0
VISUALSTYLE
  5
2D
102
{ACAD_REACTORS
330
2A
102
}
330
2A
100
AcDbVisualStyle
  2
Gouraud
 70
     2
 71
     2
 72
     2
 73
     1
 90
        2
 40
-0.6
 41
30.0
 62
     5
 63
     7
 74
     0
 91
        4
 64
     7
 65
   257
 75
     1
175
     1
 42
1.0
 92
        0
 66
     7
 43
1.0
 76
     1
 77
     6
 78
     2
 67
     7
 79
     5
170
     0
171
     0
290
     0
174
     0
 93
       13
 44
0.0
173
     0
291
     1
 45
0.0
1001
ACAD
1000
AcDbSavedByObjectVersion
1070
     0
  0
VISUALSTYLE
  5
2E
102
{ACAD_REACTORS
330
2A
102
}
330
2A
100
AcDbVisualStyle
  2
GouraudWithEdges
 70
     3
 71
     2
 72
     2
 73
     1
 90
        2
 40
-0.6
 41
30.0
 62
     5
 63
     7
 74
     1
 91
        4
 64
     7
 65
   257
 75
     1
175
     1
 42
1.0
 92
        0
 66
   257
 43
1.0
 76
     1
 77
     6
 78
     2
 67
     7
 79
     5
170
     0
171
     0
290
     0
174
     0
 93
       13
 44
0.0
173
     0
291
     1
 45
0.0
1001
ACAD
1000
AcDbSavedByObjectVersion
1070
     0
  0
VISUALSTYLE
  5
38
102
{ACAD_REACTORS
330
2A
102
}
330
2A
100
AcDbVisualStyle
  2
Linepattern
 70
    14
 71
     2
 72
     2
 73
     0
 90
        0
 40
-0.6
 41
-30.0
 62
     5
 63
     7
 74
     1
 91
        4
 64
     7
 65
   257
 75
     7
175
     7
 42
1.0
 92
        8
 66
     7
 43
1.0
 76
     1
 77
     6
 78
     2
 67
     7
 79
     5
170
     0
171
     0
290
     0
174
     0
 93
        1
 44
0.0
173
     0
291
     1
 45
0.0
1001
ACAD
1000
AcDbSavedByObjectVersion
1070
     0
  0
VISUALSTYLE
  5
33
102
{ACAD_REACTORS
330
2A
102
}
330
2A
100
AcDbVisualStyle
  2
Realistic
 70
     8
 71
     2
 72
     2
 73
     0
 90
        0
 40
-0.6
 41
-30.0
 62
     5
 63
     7
 74
     1
 91
        0
 64
     7
 65
   257
 75
     1
175
     1
 42
1.0
 92
        8
 66
     8
 43
1.0
 76
     1
 77
     6
 78
     2
 67
     7
 79
     5
170
     0
171
     0
290
     0
174
     0
 93
       13
 44
0.0
173
     0
291
     0
 45
0.0
1001
ACAD
1000
AcDbSavedByObjectVersion
1070
     0
  0
VISUALSTYLE
  5
37
102
{ACAD_REACTORS
330
2A
102
}
330
2A
100
AcDbVisualStyle
  2
Thicken
 70
    13
 71
     2
 72
     2
 73
     0
 90
        0
 40
-0.6
 41
-30.0
 62
     5
 63
     7
 74
     1
 91
        4
 64
     7
 65
   257
 75
     1
175
     1
 42
1.0
 92
       12
 66
     7
 43
1.0
 76
     1
 77
     6
 78
     2
 67
     7
 79
     5
170
     0
171
     0
290
     0
174
     0
 93
        1
 44
0.0
173
     0
291
     1
 45
0.0
1001
ACAD
1000
AcDbSavedByObjectVersion
1070
     0
  0
DICTIONARYVAR
  5
329
102
{ACAD_REACTORS
330
328
102
}
330
328
100
DictionaryVariables
280
     0
  1
1:1
  0
DICTIONARYVAR
  5
32D
102
{ACAD_REACTORS
330
328
102
}
330
328
100
DictionaryVariables
280
     0
  1
80.000000
  0
DICTIONARYVAR
  5
32C
102
{ACAD_REACTORS
330
328
102
}
330
328
100
DictionaryVariables
280
     0
  1
5.000000
  0
ENDSEC
  0
EOF
