  0
SECTION
  2
HEADER
  9
$ACADVER
  1
AC1009
  9
$DWGCODEPAGE
  3
ansi_1252
  9
$INSBASE
 10
0.0
 20
0.0
 30
0.0
  9
$EXTMIN
 10
1.000000000000000E+20
 20
1.000000000000000E+20
 30
1.000000000000000E+20
  9
$EXTMAX
 10
-1.000000000000000E+20
 20
-1.000000000000000E+20
 30
-1.000000000000000E+20
  9
$LIMMIN
 10
0.0
 20
0.0
  9
$LIMMAX
 10
12.0
 20
9.0
  9
$ORTHOMODE
 70
     0
  9
$REGENMODE
 70
     1
  9
$FILLMODE
 70
     1
  9
$QTEXTMODE
 70
     0
  9
$MIRRTEXT
 70
     1
  9
$DRAGMODE
 70
     2
  9
$LTSCALE
 40
1.0
  9
$OSMODE
 70
    37
  9
$ATTMODE
 70
     1
  9
$TEXTSIZE
 40
0.2
  9
$TRACEWID
 40
0.05
  9
$TEXTSTYLE
  7
STANDARD
  9
$CLAYER
  8
0
  9
$CELTYPE
  6
BYLAYER
  9
$CECOLOR
 62
   256
  9
$DIMSCALE
 40
1.0
  9
$DIMASZ
 40
0.18
  9
$DIMEXO
 40
0.0625
  9
$DIMDLI
 40
0.38
  9
$DIMRND
 40
0.0
  9
$DIMDLE
 40
0.0
  9
$DIMEXE
 40
0.18
  9
$DIMTP
 40
0.0
  9
$DIMTM
 40
0.0
  9
$DIMTXT
 40
0.18
  9
$DIMCEN
 40
0.09
  9
$DIMTSZ
 40
0.0
  9
$DIMTOL
 70
     0
  9
$DIMLIM
 70
     0
  9
$DIMTIH
 70
     1
  9
$DIMTOH
 70
     1
  9
$DIMSE1
 70
     0
  9
$DIMSE2
 70
     0
  9
$DIMTAD
 70
     0
  9
$DIMZIN
 70
     0
  9
$DIMBLK
  1

  9
$DIMASO
 70
     1
  9
$DIMSHO
 70
     1
  9
$DIMPOST
  1

  9
$DIMAPOST
  1

  9
$DIMALT
 70
     0
  9
$DIMALTD
 70
     2
  9
$DIMALTF
 40
25.4
  9
$DIMLFAC
 40
1.0
  9
$DIMTOFL
 70
     0
  9
$DIMTVP
 40
0.0
  9
$DIMTIX
 70
     0
  9
$DIMSOXD
 70
     0
  9
$DIMSAH
 70
     0
  9
$DIMBLK1
  1

  9
$DIMBLK2
  1

  9
$DIMSTYLE
  2
STANDARD
  9
$DIMCLRD
 70
     0
  9
$DIMCLRE
 70
     0
  9
$DIMCLRT
 70
     0
  9
$DIMTFAC
 40
1.0
  9
$DIMGAP
 40
0.09
  9
$LUNITS
 70
     2
  9
$LUPREC
 70
     4
  9
$SKETCHINC
 40
0.1
  9
$FILLETRAD
 40
0.5
  9
$AUNITS
 70
     0
  9
$AUPREC
 70
     0
  9
$MENU
  1
.
  9
$ELEVATION
 40
0.0
  9
$PELEVATION
 40
0.0
  9
$THICKNESS
 40
0.0
  9
$LIMCHECK
 70
     0
  9
$CHAMFERA
 40
0.5
  9
$CHAMFERB
 40
0.5
  9
$SKPOLY
 70
     0
  9
$TDCREATE
 40
2455537.679383137
  9
$TDUPDATE
 40
2455537.679383137
  9
$TDINDWG
 40
0.0000000116
  9
$TDUSRTIMER
 40
0.0000000116
  9
$USRTIMER
 70
     1
  9
$ANGBASE
 50
0.0
  9
$ANGDIR
 70
     0
  9
$PDMODE
 70
     0
  9
$PDSIZE
 40
0.0
  9
$PLINEWID
 40
0.0
  9
$COORDS
 70
     1
  9
$SPLFRAME
 70
     0
  9
$SPLINETYPE
 70
     6
  9
$SPLINESEGS
 70
     8
  9
$ATTDIA
 70
     0
  9
$ATTREQ
 70
     1
  9
$HANDLING
 70
     1
  9
$HANDSEED
  5
67D
  9
$SURFTAB1
 70
     6
  9
$SURFTAB2
 70
     6
  9
$SURFTYPE
 70
     6
  9
$SURFU
 70
     6
  9
$SURFV
 70
     6
  9
$UCSNAME
  2

  9
$UCSORG
 10
0.0
 20
0.0
 30
0.0
  9
$UCSXDIR
 10
1.0
 20
0.0
 30
0.0
  9
$UCSYDIR
 10
0.0
 20
1.0
 30
0.0
  9
$PUCSNAME
  2

  9
$PUCSORG
 10
0.0
 20
0.0
 30
0.0
  9
$PUCSXDIR
 10
1.0
 20
0.0
 30
0.0
  9
$PUCSYDIR
 10
0.0
 20
1.0
 30
0.0
  9
$USERI1
 70
     0
  9
$USERI2
 70
     0
  9
$USERI3
 70
     0
  9
$USERI4
 70
     0
  9
$USERI5
 70
     0
  9
$USERR1
 40
0.0
  9
$USERR2
 40
0.0
  9
$USERR3
 40
0.0
  9
$USERR4
 40
0.0
  9
$USERR5
 40
0.0
  9
$WORLDVIEW
 70
     1
  9
$SHADEDGE
 70
     3
  9
$SHADEDIF
 70
    70
  9
$TILEMODE
 70
     1
  9
$MAXACTVP
 70
    64
  9
$PLIMCHECK
 70
     0
  9
$PEXTMIN
 10
1.000000000000000E+20
 20
1.000000000000000E+20
 30
1.000000000000000E+20
  9
$PEXTMAX
 10
-1.000000000000000E+20
 20
-1.000000000000000E+20
 30
-1.000000000000000E+20
  9
$PLIMMIN
 10
0.0
 20
0.0
  9
$PLIMMAX
 10
12.0
 20
9.0
  9
$UNITMODE
 70
     0
  9
$VISRETAIN
 70
     1
  9
$PLINEGEN
 70
     0
  9
$PSLTSCALE
 70
     1
  0
ENDSEC
  0
SECTION
  2
TABLES
  0
TABLE
  2
VPORT
 70
     1
  0
VPORT
  2
*ACTIVE
 70
     0
 10
0.0
 20
0.0
 11
1.0
 21
1.0
 12
0.0
 22
0.0
 13
0.0
 23
0.0
 14
0.5
 24
0.5
 15
0.5
 25
0.5
 16
923.6594848632812
 26
527.7599487304688
 36
923.6594848632812
 17
62.33349609375
 27
0.8289794921875
 37
139.8355102539062
 40
505.4592226943592
 41
1.972972972850329
 42
50.0
 43
0.0
 44
0.0
 50
0.0
 51
0.0
 71
     0
 72
   100
 73
     1
 74
     3
 75
     0
 76
     0
 77
     0
 78
     0
  0
ENDTAB
  0
TABLE
  2
LTYPE
 70
     1
  0
LTYPE
  2
CONTINUOUS
 70
     0
  3
Solid line
 72
    65
 73
     0
 40
0.0
  0
ENDTAB
  0
TABLE
  2
LAYER
 70
     2
  0
LAYER
  2
0
 70
     0
 62
     7
  6
CONTINUOUS
  0
LAYER
  2
LAYER_1
 70
     0
 62
     7
  6
CONTINUOUS
  0
ENDTAB
  0
TABLE
  2
STYLE
 70
     1
  0
STYLE
  2
STANDARD
 70
     0
 40
0.0
 41
1.0
 50
0.0
 71
     0
 42
0.2
  3
txt
  4

  0
ENDTAB
  0
TABLE
  2
VIEW
 70
     0
  0
ENDTAB
  0
TABLE
  2
UCS
 70
     0
  0
ENDTAB
  0
TABLE
  2
APPID
 70
     1
  0
APPID
  2
ACAD
 70
     0
  0
ENDTAB
  0
TABLE
  2
DIMSTYLE
 70
     1
  0
DIMSTYLE
  2
STANDARD
 70
     0
  3

  4

  5

  6

  7

 40
1.0
 41
0.18
 42
0.0625
 43
0.38
 44
0.18
 45
0.0
 46
0.0
 47
0.0
 48
0.0
140
0.18
141
0.09
142
0.0
143
25.4
144
1.0
145
0.0
146
1.0
147
0.09
 71
     0
 72
     0
 73
     1
 74
     1
 75
     0
 76
     0
 77
     0
 78
     0
170
     0
171
     2
172
     0
173
     0
174
     0
175
     0
176
     0
177
     0
178
     0
  0
ENDTAB
  0
ENDSEC
  0
SECTION
  2
BLOCKS
  0
BLOCK
  8
0
  2
$MODEL_SPACE
 70
     0
 10
0.0
 20
0.0
 30
0.0
  3
$MODEL_SPACE
  1

  0
ENDBLK
  5
21
  8
0
  0
BLOCK
 67
     1
  8
0
  2
$PAPER_SPACE
 70
     0
 10
0.0
 20
0.0
 30
0.0
  3
$PAPER_SPACE
  1

  0
ENDBLK
  5
1D
 67
     1
  8
0
  0
BLOCK
  8
0
  2
E3_NODE
 70
     0
 10
0.0
 20
0.0
 30
0.0
  3
E3_NODE
  1

  0
POLYLINE
  5
3C
  8
0
 62
     9
 66
     1
 10
0.0
 20
0.0
 30
0.0
 70
    64
 71
    12
 72
    10
  0
VERTEX
  5
3D
  8
0
 10
-13.75
 20
276.1839904785156
 30
-3.0
 70
   192
  0
VERTEX
  5
3E
  8
0
 10
-13.75
 20
323.8160095214844
 30
-3.0
 70
   192
  0
VERTEX
  5
3F
  8
0
 10
0.0
 20
327.5
 30
-3.0
 70
   192
  0
VERTEX
  5
40
  8
0
 10
23.81599998474121
 20
286.25
 30
-3.0
 70
   192
  0
VERTEX
  5
41
  8
0
 10
13.75
 20
276.1839904785156
 30
-3.0
 70
   192
  0
VERTEX
  5
42
  8
0
 10
23.81599998474121
 20
313.75
 30
-3.0
 70
   192
  0
VERTEX
  5
43
  8
0
 10
27.5
 20
300.0
 30
-3.0
 70
   192
  0
VERTEX
  5
44
  8
0
 10
-23.81599998474121
 20
313.75
 30
-3.0
 70
   192
  0
VERTEX
  5
45
  8
0
 10
-23.81599998474121
 20
286.25
 30
-3.0
 70
   192
  0
VERTEX
  5
46
  8
0
 10
-27.5
 20
300.0
 30
-3.0
 70
   192
  0
VERTEX
  5
47
  8
0
 10
13.75
 20
323.8160095214844
 30
-3.0
 70
   192
  0
VERTEX
  5
48
  8
0
 10
0.0
 20
272.5
 30
-3.0
 70
   192
  0
VERTEX
  5
49
  8
0
 62
     9
 10
0.0
 20
0.0
 30
0.0
 70
   128
 71
     3
 72
     2
 73
     1
  0
VERTEX
  5
4A
  8
0
 62
     9
 10
0.0
 20
0.0
 30
0.0
 70
   128
 71
     5
 72
     4
 73
     1
  0
VERTEX
  5
4B
  8
0
 62
     9
 10
0.0
 20
0.0
 30
0.0
 70
   128
 71
     7
 72
     6
 73
     1
  0
VERTEX
  5
4C
  8
0
 62
     9
 10
0.0
 20
0.0
 30
0.0
 70
   128
 71
     2
 72
     8
 73
     1
  0
VERTEX
  5
4D
  8
0
 62
     9
 10
0.0
 20
0.0
 30
0.0
 70
   128
 71
    10
 72
     9
 73
     1
  0
VERTEX
  5
4E
  8
0
 62
     9
 10
0.0
 20
0.0
 30
0.0
 70
   128
 71
     1
 72
     4
 73
     7
  0
VERTEX
  5
4F
  8
0
 62
     9
 10
0.0
 20
0.0
 30
0.0
 70
   128
 71
     1
 72
     8
 73
    10
  0
VERTEX
  5
50
  8
0
 62
     9
 10
0.0
 20
0.0
 30
0.0
 70
   128
 71
     6
 72
    11
 73
     1
  0
VERTEX
  5
51
  8
0
 62
     9
 10
0.0
 20
0.0
 30
0.0
 70
   128
 71
     1
 72
    12
 73
     5
  0
VERTEX
  5
52
  8
0
 62
     9
 10
0.0
 20
0.0
 30
0.0
 70
   128
 71
     1
 72
    11
 73
     3
  0
SEQEND
  5
53
  8
0
 62
     9
  0
ENDBLK
  5
57
  8
0
  0
BLOCK
  8
0
  2
E3_NODE_1_
 70
     0
 10
0.0
 20
0.0
 30
0.0
  3
E3_NODE_1_
  1

  0
POLYLINE
  5
59
  8
0
 62
     9
 66
     1
 10
0.0
 20
0.0
 30
0.0
 70
    64
 71
    24
 72
    24
  0
VERTEX
  5
5A
  8
0
 10
13.75
 20
323.8160095214844
 30
-3.0
 70
   192
  0
VERTEX
  5
5B
  8
0
 10
0.0
 20
327.5
 30
-3.0
 70
   192
  0
VERTEX
  5
5C
  8
0
 10
0.0
 20
327.5
 30
3.0
 70
   192
  0
VERTEX
  5
5D
  8
0
 10
23.81599998474121
 20
313.75
 30
-3.0
 70
   192
  0
VERTEX
  5
5E
  8
0
 10
13.75
 20
323.8160095214844
 30
3.0
 70
   192
  0
VERTEX
  5
5F
  8
0
 10
27.5
 20
300.0
 30
-3.0
 70
   192
  0
VERTEX
  5
60
  8
0
 10
23.81599998474121
 20
313.75
 30
3.0
 70
   192
  0
VERTEX
  5
61
  8
0
 10
23.81599998474121
 20
286.25
 30
-3.0
 70
   192
  0
VERTEX
  5
62
  8
0
 10
27.5
 20
300.0
 30
3.0
 70
   192
  0
VERTEX
  5
63
  8
0
 10
13.75
 20
276.1839904785156
 30
-3.0
 70
   192
  0
VERTEX
  5
64
  8
0
 10
23.81599998474121
 20
286.25
 30
3.0
 70
   192
  0
VERTEX
  5
65
  8
0
 10
0.0
 20
272.5
 30
-3.0
 70
   192
  0
VERTEX
  5
66
  8
0
 10
13.75
 20
276.1839904785156
 30
3.0
 70
   192
  0
VERTEX
  5
67
  8
0
 10
-13.75
 20
276.1839904785156
 30
3.0
 70
   192
  0
VERTEX
  5
68
  8
0
 10
-13.75
 20
276.1839904785156
 30
-3.0
 70
   192
  0
VERTEX
  5
69
  8
0
 10
-23.81599998474121
 20
286.25
 30
3.0
 70
   192
  0
VERTEX
  5
6A
  8
0
 10
-23.81599998474121
 20
286.25
 30
-3.0
 70
   192
  0
VERTEX
  5
6B
  8
0
 10
-27.5
 20
300.0
 30
3.0
 70
   192
  0
VERTEX
  5
6C
  8
0
 10
-27.5
 20
300.0
 30
-3.0
 70
   192
  0
VERTEX
  5
6D
  8
0
 10
-23.81599998474121
 20
313.75
 30
3.0
 70
   192
  0
VERTEX
  5
6E
  8
0
 10
-23.81599998474121
 20
313.75
 30
-3.0
 70
   192
  0
VERTEX
  5
6F
  8
0
 10
-13.75
 20
323.8160095214844
 30
3.0
 70
   192
  0
VERTEX
  5
70
  8
0
 10
-13.75
 20
323.8160095214844
 30
-3.0
 70
   192
  0
VERTEX
  5
71
  8
0
 10
0.0
 20
272.5
 30
3.0
 70
   192
  0
VERTEX
  5
72
  8
0
 62
     9
 10
0.0
 20
0.0
 30
0.0
 70
   128
 71
     3
 72
     2
 73
     1
  0
VERTEX
  5
73
  8
0
 62
     9
 10
0.0
 20
0.0
 30
0.0
 70
   128
 71
     5
 72
     1
 73
     4
  0
VERTEX
  5
74
  8
0
 62
     9
 10
0.0
 20
0.0
 30
0.0
 70
   128
 71
     7
 72
     4
 73
     6
  0
VERTEX
  5
75
  8
0
 62
     9
 10
0.0
 20
0.0
 30
0.0
 70
   128
 71
     9
 72
     6
 73
     8
  0
VERTEX
  5
76
  8
0
 62
     9
 10
0.0
 20
0.0
 30
0.0
 70
   128
 71
    11
 72
     8
 73
    10
  0
VERTEX
  5
77
  8
0
 62
     9
 10
0.0
 20
0.0
 30
0.0
 70
   128
 71
    13
 72
    10
 73
    12
  0
VERTEX
  5
78
  8
0
 62
     9
 10
0.0
 20
0.0
 30
0.0
 70
   128
 71
    12
 72
    15
 73
    14
  0
VERTEX
  5
79
  8
0
 62
     9
 10
0.0
 20
0.0
 30
0.0
 70
   128
 71
    15
 72
    17
 73
    16
  0
VERTEX
  5
7A
  8
0
 62
     9
 10
0.0
 20
0.0
 30
0.0
 70
   128
 71
    17
 72
    19
 73
    18
  0
VERTEX
  5
7B
  8
0
 62
     9
 10
0.0
 20
0.0
 30
0.0
 70
   128
 71
    19
 72
    21
 73
    20
  0
VERTEX
  5
7C
  8
0
 62
     9
 10
0.0
 20
0.0
 30
0.0
 70
   128
 71
    21
 72
    23
 73
    22
  0
VERTEX
  5
7D
  8
0
 62
     9
 10
0.0
 20
0.0
 30
0.0
 70
   128
 71
    23
 72
     2
 73
     3
  0
VERTEX
  5
7E
  8
0
 62
     9
 10
0.0
 20
0.0
 30
0.0
 70
   128
 71
     3
 72
    22
 73
    23
  0
VERTEX
  5
7F
  8
0
 62
     9
 10
0.0
 20
0.0
 30
0.0
 70
   128
 71
    22
 72
    20
 73
    21
  0
VERTEX
  5
80
  8
0
 62
     9
 10
0.0
 20
0.0
 30
0.0
 70
   128
 71
    20
 72
    18
 73
    19
  0
VERTEX
  5
81
  8
0
 62
     9
 10
0.0
 20
0.0
 30
0.0
 70
   128
 71
    18
 72
    16
 73
    17
  0
VERTEX
  5
82
  8
0
 62
     9
 10
0.0
 20
0.0
 30
0.0
 70
   128
 71
    16
 72
    14
 73
    15
  0
VERTEX
  5
83
  8
0
 62
     9
 10
0.0
 20
0.0
 30
0.0
 70
   128
 71
    14
 72
    24
 73
    12
  0
VERTEX
  5
84
  8
0
 62
     9
 10
0.0
 20
0.0
 30
0.0
 70
   128
 71
    12
 72
    24
 73
    13
  0
VERTEX
  5
85
  8
0
 62
     9
 10
0.0
 20
0.0
 30
0.0
 70
   128
 71
    10
 72
    13
 73
    11
  0
VERTEX
  5
86
  8
0
 62
     9
 10
0.0
 20
0.0
 30
0.0
 70
   128
 71
     8
 72
    11
 73
     9
  0
VERTEX
  5
87
  8
0
 62
     9
 10
0.0
 20
0.0
 30
0.0
 70
   128
 71
     6
 72
     9
 73
     7
  0
VERTEX
  5
88
  8
0
 62
     9
 10
0.0
 20
0.0
 30
0.0
 70
   128
 71
     4
 72
     7
 73
     5
  0
VERTEX
  5
89
  8
0
 62
     9
 10
0.0
 20
0.0
 30
0.0
 70
   128
 71
     1
 72
     5
 73
     3
  0
SEQEND
  5
8A
  8
0
 62
     9
  0
ENDBLK
  5
8D
  8
0
  0
BLOCK
  8
0
  2
E3_NODE_2_
 70
     0
 10
0.0
 20
0.0
 30
0.0
  3
E3_NODE_2_
  1

  0
POLYLINE
  5
8F
  8
0
 62
     9
 66
     1
 10
0.0
 20
0.0
 30
0.0
 70
    64
 71
    23
 72
    23
  0
VERTEX
  5
90
  8
0
 10
27.5
 20
300.0
 30
3.0
 70
   192
  0
VERTEX
  5
91
  8
0
 10
23.81599998474121
 20
313.75
 30
3.0
 70
   192
  0
VERTEX
  5
92
  8
0
 10
20.46699905395508
 20
309.3469848632812
 30
3.0
 70
   192
  0
VERTEX
  5
93
  8
0
 10
13.75
 20
323.8160095214844
 30
3.0
 70
   192
  0
VERTEX
  5
94
  8
0
 10
12.16399955749512
 20
318.9280090332031
 30
3.0
 70
   192
  0
VERTEX
  5
95
  8
0
 10
-13.75
 20
323.8160095214844
 30
3.0
 70
   192
  0
VERTEX
  5
96
  8
0
 10
-12.16399955749512
 20
318.9280090332031
 30
3.0
 70
   192
  0
VERTEX
  5
97
  8
0
 10
0.0
 20
322.5
 30
3.0
 70
   192
  0
VERTEX
  5
98
  8
0
 10
-23.81599998474121
 20
313.75
 30
3.0
 70
   192
  0
VERTEX
  5
99
  8
0
 10
-20.46699905395508
 20
309.3469848632812
 30
3.0
 70
   192
  0
VERTEX
  5
9A
  8
0
 10
-27.5
 20
300.0
 30
3.0
 70
   192
  0
VERTEX
  5
9B
  8
0
 10
-22.27099990844727
 20
296.7980041503906
 30
3.0
 70
   192
  0
VERTEX
  5
9C
  8
0
 10
-23.81599998474121
 20
286.25
 30
3.0
 70
   192
  0
VERTEX
  5
9D
  8
0
 10
-17.00399971008301
 20
285.2659912109375
 30
3.0
 70
   192
  0
VERTEX
  5
9E
  8
0
 10
0.0
 20
272.5
 30
3.0
 70
   192
  0
VERTEX
  5
9F
  8
0
 10
6.339000225067139
 20
278.4110107421875
 30
3.0
 70
   192
  0
VERTEX
  5
A0
  8
0
 10
-6.339000225067139
 20
278.4110107421875
 30
3.0
 70
   192
  0
VERTEX
  5
A1
  8
0
 10
13.75
 20
276.1839904785156
 30
3.0
 70
   192
  0
VERTEX
  5
A2
  8
0
 10
23.81599998474121
 20
286.25
 30
3.0
 70
   192
  0
VERTEX
  5
A3
  8
0
 10
17.00399971008301
 20
285.2659912109375
 30
3.0
 70
   192
  0
VERTEX
  5
A4
  8
0
 10
22.27099990844727
 20
296.7980041503906
 30
3.0
 70
   192
  0
VERTEX
  5
A5
  8
0
 10
0.0
 20
327.5
 30
3.0
 70
   192
  0
VERTEX
  5
A6
  8
0
 10
-13.75
 20
276.1839904785156
 30
3.0
 70
   192
  0
VERTEX
  5
A7
  8
0
 62
     9
 10
0.0
 20
0.0
 30
0.0
 70
   128
 71
     3
 72
     2
 73
     1
  0
VERTEX
  5
A8
  8
0
 62
     9
 10
0.0
 20
0.0
 30
0.0
 70
   128
 71
     5
 72
     4
 73
     2
  0
VERTEX
  5
A9
  8
0
 62
     9
 10
0.0
 20
0.0
 30
0.0
 70
   128
 71
     8
 72
     7
 73
     6
  0
VERTEX
  5
AA
  8
0
 62
     9
 10
0.0
 20
0.0
 30
0.0
 70
   128
 71
     7
 72
    10
 73
     9
  0
VERTEX
  5
AB
  8
0
 62
     9
 10
0.0
 20
0.0
 30
0.0
 70
   128
 71
    10
 72
    12
 73
    11
  0
VERTEX
  5
AC
  8
0
 62
     9
 10
0.0
 20
0.0
 30
0.0
 70
   128
 71
    12
 72
    14
 73
    13
  0
VERTEX
  5
AD
  8
0
 62
     9
 10
0.0
 20
0.0
 30
0.0
 70
   128
 71
    17
 72
    16
 73
    15
  0
VERTEX
  5
AE
  8
0
 62
     9
 10
0.0
 20
0.0
 30
0.0
 70
   128
 71
    20
 72
    19
 73
    18
  0
VERTEX
  5
AF
  8
0
 62
     9
 10
0.0
 20
0.0
 30
0.0
 70
   128
 71
    21
 72
     1
 73
    19
  0
VERTEX
  5
B0
  8
0
 62
     9
 10
0.0
 20
0.0
 30
0.0
 70
   128
 71
     2
 72
     3
 73
     5
  0
VERTEX
  5
B1
  8
0
 62
     9
 10
0.0
 20
0.0
 30
0.0
 70
   128
 71
     8
 72
    22
 73
     4
  0
VERTEX
  5
B2
  8
0
 62
     9
 10
0.0
 20
0.0
 30
0.0
 70
   128
 71
     9
 72
     6
 73
     7
  0
VERTEX
  5
B3
  8
0
 62
     9
 10
0.0
 20
0.0
 30
0.0
 70
   128
 71
    13
 72
    11
 73
    12
  0
VERTEX
  5
B4
  8
0
 62
     9
 10
0.0
 20
0.0
 30
0.0
 70
   128
 71
    14
 72
    17
 73
    23
  0
VERTEX
  5
B5
  8
0
 62
     9
 10
0.0
 20
0.0
 30
0.0
 70
   128
 71
    16
 72
    18
 73
    15
  0
VERTEX
  5
B6
  8
0
 62
     9
 10
0.0
 20
0.0
 30
0.0
 70
   128
 71
    19
 72
    20
 73
    21
  0
VERTEX
  5
B7
  8
0
 62
     9
 10
0.0
 20
0.0
 30
0.0
 70
   128
 71
     4
 72
     5
 73
     8
  0
VERTEX
  5
B8
  8
0
 62
     9
 10
0.0
 20
0.0
 30
0.0
 70
   128
 71
    11
 72
     9
 73
    10
  0
VERTEX
  5
B9
  8
0
 62
     9
 10
0.0
 20
0.0
 30
0.0
 70
   128
 71
    15
 72
    23
 73
    17
  0
VERTEX
  5
BA
  8
0
 62
     9
 10
0.0
 20
0.0
 30
0.0
 70
   128
 71
     1
 72
    21
 73
     3
  0
VERTEX
  5
BB
  8
0
 62
     9
 10
0.0
 20
0.0
 30
0.0
 70
   128
 71
    23
 72
    13
 73
    14
  0
VERTEX
  5
BC
  8
0
 62
     9
 10
0.0
 20
0.0
 30
0.0
 70
   128
 71
     6
 72
    22
 73
     8
  0
VERTEX
  5
BD
  8
0
 62
     9
 10
0.0
 20
0.0
 30
0.0
 70
   128
 71
    18
 72
    16
 73
    20
  0
SEQEND
  5
BE
  8
0
 62
     9
  0
ENDBLK
  5
C1
  8
0
  0
BLOCK
  8
0
  2
E3_NODE_3_
 70
     0
 10
0.0
 20
0.0
 30
0.0
  3
E3_NODE_3_
  1

  0
POLYLINE
  5
C3
  8
0
 62
     9
 66
     1
 10
0.0
 20
0.0
 30
0.0
 70
    64
 71
    22
 72
    22
  0
VERTEX
  5
C4
  8
0
 10
12.16399955749512
 20
318.9280090332031
 30
3.0
 70
   192
  0
VERTEX
  5
C5
  8
0
 10
0.0
 20
322.5
 30
3.0
 70
   192
  0
VERTEX
  5
C6
  8
0
 10
0.0
 20
322.5
 30
7.0
 70
   192
  0
VERTEX
  5
C7
  8
0
 10
20.46699905395508
 20
309.3469848632812
 30
3.0
 70
   192
  0
VERTEX
  5
C8
  8
0
 10
12.16399955749512
 20
318.9280090332031
 30
7.0
 70
   192
  0
VERTEX
  5
C9
  8
0
 10
22.27099990844727
 20
296.7980041503906
 30
3.0
 70
   192
  0
VERTEX
  5
CA
  8
0
 10
20.46699905395508
 20
309.3469848632812
 30
7.0
 70
   192
  0
VERTEX
  5
CB
  8
0
 10
17.00399971008301
 20
285.2659912109375
 30
3.0
 70
   192
  0
VERTEX
  5
CC
  8
0
 10
22.27099990844727
 20
296.7980041503906
 30
7.0
 70
   192
  0
VERTEX
  5
CD
  8
0
 10
6.339000225067139
 20
278.4110107421875
 30
3.0
 70
   192
  0
VERTEX
  5
CE
  8
0
 10
17.00399971008301
 20
285.2659912109375
 30
7.0
 70
   192
  0
VERTEX
  5
CF
  8
0
 10
-6.339000225067139
 20
278.4110107421875
 30
7.0
 70
   192
  0
VERTEX
  5
D0
  8
0
 10
-6.339000225067139
 20
278.4110107421875
 30
3.0
 70
   192
  0
VERTEX
  5
D1
  8
0
 10
-17.00399971008301
 20
285.2659912109375
 30
7.0
 70
   192
  0
VERTEX
  5
D2
  8
0
 10
-17.00399971008301
 20
285.2659912109375
 30
3.0
 70
   192
  0
VERTEX
  5
D3
  8
0
 10
-22.27099990844727
 20
296.7980041503906
 30
7.0
 70
   192
  0
VERTEX
  5
D4
  8
0
 10
-22.27099990844727
 20
296.7980041503906
 30
3.0
 70
   192
  0
VERTEX
  5
D5
  8
0
 10
-20.46699905395508
 20
309.3469848632812
 30
7.0
 70
   192
  0
VERTEX
  5
D6
  8
0
 10
-20.46699905395508
 20
309.3469848632812
 30
3.0
 70
   192
  0
VERTEX
  5
D7
  8
0
 10
-12.16399955749512
 20
318.9280090332031
 30
7.0
 70
   192
  0
VERTEX
  5
D8
  8
0
 10
-12.16399955749512
 20
318.9280090332031
 30
3.0
 70
   192
  0
VERTEX
  5
D9
  8
0
 10
6.339000225067139
 20
278.4110107421875
 30
7.0
 70
   192
  0
VERTEX
  5
DA
  8
0
 62
     9
 10
0.0
 20
0.0
 30
0.0
 70
   128
 71
     3
 72
     2
 73
     1
  0
VERTEX
  5
DB
  8
0
 62
     9
 10
0.0
 20
0.0
 30
0.0
 70
   128
 71
     5
 72
     1
 73
     4
  0
VERTEX
  5
DC
  8
0
 62
     9
 10
0.0
 20
0.0
 30
0.0
 70
   128
 71
     7
 72
     4
 73
     6
  0
VERTEX
  5
DD
  8
0
 62
     9
 10
0.0
 20
0.0
 30
0.0
 70
   128
 71
     9
 72
     6
 73
     8
  0
VERTEX
  5
DE
  8
0
 62
     9
 10
0.0
 20
0.0
 30
0.0
 70
   128
 71
    11
 72
     8
 73
    10
  0
VERTEX
  5
DF
  8
0
 62
     9
 10
0.0
 20
0.0
 30
0.0
 70
   128
 71
    10
 72
    13
 73
    12
  0
VERTEX
  5
E0
  8
0
 62
     9
 10
0.0
 20
0.0
 30
0.0
 70
   128
 71
    13
 72
    15
 73
    14
  0
VERTEX
  5
E1
  8
0
 62
     9
 10
0.0
 20
0.0
 30
0.0
 70
   128
 71
    15
 72
    17
 73
    16
  0
VERTEX
  5
E2
  8
0
 62
     9
 10
0.0
 20
0.0
 30
0.0
 70
   128
 71
    17
 72
    19
 73
    18
  0
VERTEX
  5
E3
  8
0
 62
     9
 10
0.0
 20
0.0
 30
0.0
 70
   128
 71
    19
 72
    21
 73
    20
  0
VERTEX
  5
E4
  8
0
 62
     9
 10
0.0
 20
0.0
 30
0.0
 70
   128
 71
    21
 72
     2
 73
     3
  0
VERTEX
  5
E5
  8
0
 62
     9
 10
0.0
 20
0.0
 30
0.0
 70
   128
 71
     3
 72
    20
 73
    21
  0
VERTEX
  5
E6
  8
0
 62
     9
 10
0.0
 20
0.0
 30
0.0
 70
   128
 71
    20
 72
    18
 73
    19
  0
VERTEX
  5
E7
  8
0
 62
     9
 10
0.0
 20
0.0
 30
0.0
 70
   128
 71
    18
 72
    16
 73
    17
  0
VERTEX
  5
E8
  8
0
 62
     9
 10
0.0
 20
0.0
 30
0.0
 70
   128
 71
    16
 72
    14
 73
    15
  0
VERTEX
  5
E9
  8
0
 62
     9
 10
0.0
 20
0.0
 30
0.0
 70
   128
 71
    14
 72
    12
 73
    13
  0
VERTEX
  5
EA
  8
0
 62
     9
 10
0.0
 20
0.0
 30
0.0
 70
   128
 71
    12
 72
    22
 73
    10
  0
VERTEX
  5
EB
  8
0
 62
     9
 10
0.0
 20
0.0
 30
0.0
 70
   128
 71
    10
 72
    22
 73
    11
  0
VERTEX
  5
EC
  8
0
 62
     9
 10
0.0
 20
0.0
 30
0.0
 70
   128
 71
     8
 72
    11
 73
     9
  0
VERTEX
  5
ED
  8
0
 62
     9
 10
0.0
 20
0.0
 30
0.0
 70
   128
 71
     6
 72
     9
 73
     7
  0
VERTEX
  5
EE
  8
0
 62
     9
 10
0.0
 20
0.0
 30
0.0
 70
   128
 71
     4
 72
     7
 73
     5
  0
VERTEX
  5
EF
  8
0
 62
     9
 10
0.0
 20
0.0
 30
0.0
 70
   128
 71
     1
 72
     5
 73
     3
  0
SEQEND
  5
F0
  8
0
 62
     9
  0
ENDBLK
  5
F3
  8
0
  0
BLOCK
  8
0
  2
E3_NODE_4_
 70
     0
 10
0.0
 20
0.0
 30
0.0
  3
E3_NODE_4_
  1

  0
POLYLINE
  5
F5
  8
0
 62
     9
 66
     1
 10
0.0
 20
0.0
 30
0.0
 70
    64
 71
    22
 72
    22
  0
VERTEX
  5
F6
  8
0
 10
17.00399971008301
 20
285.2659912109375
 30
7.0
 70
   192
  0
VERTEX
  5
F7
  8
0
 10
22.27099990844727
 20
296.7980041503906
 30
7.0
 70
   192
  0
VERTEX
  5
F8
  8
0
 10
16.33200073242188
 20
297.6520080566406
 30
7.0
 70
   192
  0
VERTEX
  5
F9
  8
0
 10
20.46699905395508
 20
309.3469848632812
 30
7.0
 70
   192
  0
VERTEX
  5
FA
  8
0
 10
15.00899982452393
 20
306.85400390625
 30
7.0
 70
   192
  0
VERTEX
  5
FB
  8
0
 10
-22.27099990844727
 20
296.7980041503906
 30
7.0
 70
   192
  0
VERTEX
  5
FC
  8
0
 10
-16.33200073242188
 20
297.6520080566406
 30
7.0
 70
   192
  0
VERTEX
  5
FD
  8
0
 10
-15.00899982452393
 20
306.85400390625
 30
7.0
 70
   192
  0
VERTEX
  5
FE
  8
0
 10
-17.00399971008301
 20
285.2659912109375
 30
7.0
 70
   192
  0
VERTEX
  5
FF
  8
0
 10
-12.47000026702881
 20
289.1950073242188
 30
7.0
 70
   192
  0
VERTEX
  5
100
  8
0
 10
-6.339000225067139
 20
278.4110107421875
 30
7.0
 70
   192
  0
VERTEX
  5
101
  8
0
 10
-4.64900016784668
 20
284.1679992675781
 30
7.0
 70
   192
  0
VERTEX
  5
102
  8
0
 10
6.339000225067139
 20
278.4110107421875
 30
7.0
 70
   192
  0
VERTEX
  5
103
  8
0
 10
4.64900016784668
 20
284.1679992675781
 30
7.0
 70
   192
  0
VERTEX
  5
104
  8
0
 10
12.47000026702881
 20
289.1950073242188
 30
7.0
 70
   192
  0
VERTEX
  5
105
  8
0
 10
12.16399955749512
 20
318.9280090332031
 30
7.0
 70
   192
  0
VERTEX
  5
106
  8
0
 10
8.920999526977539
 20
313.8810119628906
 30
7.0
 70
   192
  0
VERTEX
  5
107
  8
0
 10
0.0
 20
322.5
 30
7.0
 70
   192
  0
VERTEX
  5
108
  8
0
 10
0.0
 20
316.5
 30
7.0
 70
   192
  0
VERTEX
  5
109
  8
0
 10
-12.16399955749512
 20
318.9280090332031
 30
7.0
 70
   192
  0
VERTEX
  5
10A
  8
0
 10
-8.920999526977539
 20
313.8810119628906
 30
7.0
 70
   192
  0
VERTEX
  5
10B
  8
0
 10
-20.46699905395508
 20
309.3469848632812
 30
7.0
 70
   192
  0
VERTEX
  5
10C
  8
0
 62
     9
 10
0.0
 20
0.0
 30
0.0
 70
   128
 71
     3
 72
     2
 73
     1
  0
VERTEX
  5
10D
  8
0
 62
     9
 10
0.0
 20
0.0
 30
0.0
 70
   128
 71
     5
 72
     4
 73
     2
  0
VERTEX
  5
10E
  8
0
 62
     9
 10
0.0
 20
0.0
 30
0.0
 70
   128
 71
     8
 72
     7
 73
     6
  0
VERTEX
  5
10F
  8
0
 62
     9
 10
0.0
 20
0.0
 30
0.0
 70
   128
 71
     7
 72
    10
 73
     9
  0
VERTEX
  5
110
  8
0
 62
     9
 10
0.0
 20
0.0
 30
0.0
 70
   128
 71
    10
 72
    12
 73
    11
  0
VERTEX
  5
111
  8
0
 62
     9
 10
0.0
 20
0.0
 30
0.0
 70
   128
 71
    14
 72
    13
 73
    11
  0
VERTEX
  5
112
  8
0
 62
     9
 10
0.0
 20
0.0
 30
0.0
 70
   128
 71
    15
 72
     1
 73
    13
  0
VERTEX
  5
113
  8
0
 62
     9
 10
0.0
 20
0.0
 30
0.0
 70
   128
 71
     2
 72
     3
 73
     5
  0
VERTEX
  5
114
  8
0
 62
     9
 10
0.0
 20
0.0
 30
0.0
 70
   128
 71
    17
 72
    16
 73
     4
  0
VERTEX
  5
115
  8
0
 62
     9
 10
0.0
 20
0.0
 30
0.0
 70
   128
 71
    19
 72
    18
 73
    16
  0
VERTEX
  5
116
  8
0
 62
     9
 10
0.0
 20
0.0
 30
0.0
 70
   128
 71
    19
 72
    21
 73
    20
  0
VERTEX
  5
117
  8
0
 62
     9
 10
0.0
 20
0.0
 30
0.0
 70
   128
 71
     8
 72
    22
 73
    20
  0
VERTEX
  5
118
  8
0
 62
     9
 10
0.0
 20
0.0
 30
0.0
 70
   128
 71
     9
 72
     6
 73
     7
  0
VERTEX
  5
119
  8
0
 62
     9
 10
0.0
 20
0.0
 30
0.0
 70
   128
 71
    11
 72
    12
 73
    14
  0
VERTEX
  5
11A
  8
0
 62
     9
 10
0.0
 20
0.0
 30
0.0
 70
   128
 71
     1
 72
    15
 73
     3
  0
VERTEX
  5
11B
  8
0
 62
     9
 10
0.0
 20
0.0
 30
0.0
 70
   128
 71
    16
 72
    17
 73
    19
  0
VERTEX
  5
11C
  8
0
 62
     9
 10
0.0
 20
0.0
 30
0.0
 70
   128
 71
    20
 72
    21
 73
     8
  0
VERTEX
  5
11D
  8
0
 62
     9
 10
0.0
 20
0.0
 30
0.0
 70
   128
 71
    11
 72
     9
 73
    10
  0
VERTEX
  5
11E
  8
0
 62
     9
 10
0.0
 20
0.0
 30
0.0
 70
   128
 71
     4
 72
     5
 73
    17
  0
VERTEX
  5
11F
  8
0
 62
     9
 10
0.0
 20
0.0
 30
0.0
 70
   128
 71
     6
 72
    22
 73
     8
  0
VERTEX
  5
120
  8
0
 62
     9
 10
0.0
 20
0.0
 30
0.0
 70
   128
 71
    20
 72
    18
 73
    19
  0
VERTEX
  5
121
  8
0
 62
     9
 10
0.0
 20
0.0
 30
0.0
 70
   128
 71
    13
 72
    14
 73
    15
  0
SEQEND
  5
122
  8
0
 62
     9
  0
ENDBLK
  5
125
  8
0
  0
BLOCK
  8
0
  2
E3_NODE_5_
 70
     0
 10
0.0
 20
0.0
 30
0.0
  3
E3_NODE_5_
  1

  0
POLYLINE
  5
127
  8
0
 62
     9
 66
     1
 10
0.0
 20
0.0
 30
0.0
 70
    64
 71
     9
 72
     7
  0
VERTEX
  5
128
  8
0
 10
-4.775000095367432
 20
27.08200073242188
 30
-3.0
 70
   192
  0
VERTEX
  5
129
  8
0
 10
-21.06599998474121
 20
-17.67700004577637
 30
-3.0
 70
   192
  0
VERTEX
  5
12A
  8
0
 10
-27.5
 20
0.0
 30
-3.0
 70
   192
  0
VERTEX
  5
12B
  8
0
 10
13.75
 20
-23.81599998474121
 30
-3.0
 70
   192
  0
VERTEX
  5
12C
  8
0
 10
13.75
 20
23.81599998474121
 30
-3.0
 70
   192
  0
VERTEX
  5
12D
  8
0
 10
25.84199905395508
 20
9.406000137329102
 30
-3.0
 70
   192
  0
VERTEX
  5
12E
  8
0
 10
-4.775000095367432
 20
-27.08200073242188
 30
-3.0
 70
   192
  0
VERTEX
  5
12F
  8
0
 10
-21.06599998474121
 20
17.67700004577637
 30
-3.0
 70
   192
  0
VERTEX
  5
130
  8
0
 10
25.84199905395508
 20
-9.406000137329102
 30
-3.0
 70
   192
  0
VERTEX
  5
131
  8
0
 62
     9
 10
0.0
 20
0.0
 30
0.0
 70
   128
 71
     3
 72
     2
 73
     1
  0
VERTEX
  5
132
  8
0
 62
     9
 10
0.0
 20
0.0
 30
0.0
 70
   128
 71
     6
 72
     5
 73
     4
  0
VERTEX
  5
133
  8
0
 62
     9
 10
0.0
 20
0.0
 30
0.0
 70
   128
 71
     2
 72
     7
 73
     1
  0
VERTEX
  5
134
  8
0
 62
     9
 10
0.0
 20
0.0
 30
0.0
 70
   128
 71
     5
 72
     1
 73
     4
  0
VERTEX
  5
135
  8
0
 62
     9
 10
0.0
 20
0.0
 30
0.0
 70
   128
 71
     7
 72
     4
 73
     1
  0
VERTEX
  5
136
  8
0
 62
     9
 10
0.0
 20
0.0
 30
0.0
 70
   128
 71
     1
 72
     8
 73
     3
  0
VERTEX
  5
137
  8
0
 62
     9
 10
0.0
 20
0.0
 30
0.0
 70
   128
 71
     4
 72
     9
 73
     6
  0
SEQEND
  5
138
  8
0
 62
     9
  0
ENDBLK
  5
13B
  8
0
  0
BLOCK
  8
0
  2
E3_NODE_6_
 70
     0
 10
0.0
 20
0.0
 30
0.0
  3
E3_NODE_6_
  1

  0
POLYLINE
  5
13D
  8
0
 62
     9
 66
     1
 10
0.0
 20
0.0
 30
0.0
 70
    64
 71
    18
 72
    18
  0
VERTEX
  5
13E
  8
0
 10
-21.06599998474121
 20
17.67700004577637
 30
3.0
 70
   192
  0
VERTEX
  5
13F
  8
0
 10
-21.06599998474121
 20
17.67700004577637
 30
-3.0
 70
   192
  0
VERTEX
  5
140
  8
0
 10
-27.5
 20
0.0
 30
-3.0
 70
   192
  0
VERTEX
  5
141
  8
0
 10
-4.775000095367432
 20
27.08200073242188
 30
3.0
 70
   192
  0
VERTEX
  5
142
  8
0
 10
-4.775000095367432
 20
27.08200073242188
 30
-3.0
 70
   192
  0
VERTEX
  5
143
  8
0
 10
13.75
 20
23.81599998474121
 30
3.0
 70
   192
  0
VERTEX
  5
144
  8
0
 10
13.75
 20
23.81599998474121
 30
-3.0
 70
   192
  0
VERTEX
  5
145
  8
0
 10
25.84199905395508
 20
9.406000137329102
 30
3.0
 70
   192
  0
VERTEX
  5
146
  8
0
 10
25.84199905395508
 20
9.406000137329102
 30
-3.0
 70
   192
  0
VERTEX
  5
147
  8
0
 10
25.84199905395508
 20
-9.406000137329102
 30
3.0
 70
   192
  0
VERTEX
  5
148
  8
0
 10
25.84199905395508
 20
-9.406000137329102
 30
-3.0
 70
   192
  0
VERTEX
  5
149
  8
0
 10
13.75
 20
-23.81599998474121
 30
3.0
 70
   192
  0
VERTEX
  5
14A
  8
0
 10
13.75
 20
-23.81599998474121
 30
-3.0
 70
   192
  0
VERTEX
  5
14B
  8
0
 10
-4.775000095367432
 20
-27.08200073242188
 30
3.0
 70
   192
  0
VERTEX
  5
14C
  8
0
 10
-4.775000095367432
 20
-27.08200073242188
 30
-3.0
 70
   192
  0
VERTEX
  5
14D
  8
0
 10
-21.06599998474121
 20
-17.67700004577637
 30
3.0
 70
   192
  0
VERTEX
  5
14E
  8
0
 10
-21.06599998474121
 20
-17.67700004577637
 30
-3.0
 70
   192
  0
VERTEX
  5
14F
  8
0
 10
-27.5
 20
0.0
 30
3.0
 70
   192
  0
VERTEX
  5
150
  8
0
 62
     9
 10
0.0
 20
0.0
 30
0.0
 70
   128
 71
     3
 72
     2
 73
     1
  0
VERTEX
  5
151
  8
0
 62
     9
 10
0.0
 20
0.0
 30
0.0
 70
   128
 71
     2
 72
     5
 73
     4
  0
VERTEX
  5
152
  8
0
 62
     9
 10
0.0
 20
0.0
 30
0.0
 70
   128
 71
     5
 72
     7
 73
     6
  0
VERTEX
  5
153
  8
0
 62
     9
 10
0.0
 20
0.0
 30
0.0
 70
   128
 71
     7
 72
     9
 73
     8
  0
VERTEX
  5
154
  8
0
 62
     9
 10
0.0
 20
0.0
 30
0.0
 70
   128
 71
     9
 72
    11
 73
    10
  0
VERTEX
  5
155
  8
0
 62
     9
 10
0.0
 20
0.0
 30
0.0
 70
   128
 71
    11
 72
    13
 73
    12
  0
VERTEX
  5
156
  8
0
 62
     9
 10
0.0
 20
0.0
 30
0.0
 70
   128
 71
    13
 72
    15
 73
    14
  0
VERTEX
  5
157
  8
0
 62
     9
 10
0.0
 20
0.0
 30
0.0
 70
   128
 71
    15
 72
    17
 73
    16
  0
VERTEX
  5
158
  8
0
 62
     9
 10
0.0
 20
0.0
 30
0.0
 70
   128
 71
    17
 72
     3
 73
    18
  0
VERTEX
  5
159
  8
0
 62
     9
 10
0.0
 20
0.0
 30
0.0
 70
   128
 71
    18
 72
    16
 73
    17
  0
VERTEX
  5
15A
  8
0
 62
     9
 10
0.0
 20
0.0
 30
0.0
 70
   128
 71
    16
 72
    14
 73
    15
  0
VERTEX
  5
15B
  8
0
 62
     9
 10
0.0
 20
0.0
 30
0.0
 70
   128
 71
    14
 72
    12
 73
    13
  0
VERTEX
  5
15C
  8
0
 62
     9
 10
0.0
 20
0.0
 30
0.0
 70
   128
 71
    12
 72
    10
 73
    11
  0
VERTEX
  5
15D
  8
0
 62
     9
 10
0.0
 20
0.0
 30
0.0
 70
   128
 71
    10
 72
     8
 73
     9
  0
VERTEX
  5
15E
  8
0
 62
     9
 10
0.0
 20
0.0
 30
0.0
 70
   128
 71
     8
 72
     6
 73
     7
  0
VERTEX
  5
15F
  8
0
 62
     9
 10
0.0
 20
0.0
 30
0.0
 70
   128
 71
     6
 72
     4
 73
     5
  0
VERTEX
  5
160
  8
0
 62
     9
 10
0.0
 20
0.0
 30
0.0
 70
   128
 71
     4
 72
     1
 73
     2
  0
VERTEX
  5
161
  8
0
 62
     9
 10
0.0
 20
0.0
 30
0.0
 70
   128
 71
     1
 72
    18
 73
     3
  0
SEQEND
  5
162
  8
0
 62
     9
  0
ENDBLK
  5
165
  8
0
  0
BLOCK
  8
0
  2
E3_NODE_7_
 70
     0
 10
0.0
 20
0.0
 30
0.0
  3
E3_NODE_7_
  1

  0
POLYLINE
  5
167
  8
0
 62
     9
 66
     1
 10
0.0
 20
0.0
 30
0.0
 70
    64
 71
    17
 72
    17
  0
VERTEX
  5
168
  8
0
 10
25.84199905395508
 20
9.406000137329102
 30
3.0
 70
   192
  0
VERTEX
  5
169
  8
0
 10
13.75
 20
23.81599998474121
 30
3.0
 70
   192
  0
VERTEX
  5
16A
  8
0
 10
15.90999984741211
 20
15.90999984741211
 30
3.0
 70
   192
  0
VERTEX
  5
16B
  8
0
 10
22.5
 20
0.0
 30
3.0
 70
   192
  0
VERTEX
  5
16C
  8
0
 10
-4.775000095367432
 20
27.08200073242188
 30
3.0
 70
   192
  0
VERTEX
  5
16D
  8
0
 10
0.0
 20
22.5
 30
3.0
 70
   192
  0
VERTEX
  5
16E
  8
0
 10
-4.775000095367432
 20
-27.08200073242188
 30
3.0
 70
   192
  0
VERTEX
  5
16F
  8
0
 10
0.0
 20
-22.5
 30
3.0
 70
   192
  0
VERTEX
  5
170
  8
0
 10
-15.90999984741211
 20
-15.90999984741211
 30
3.0
 70
   192
  0
VERTEX
  5
171
  8
0
 10
13.75
 20
-23.81599998474121
 30
3.0
 70
   192
  0
VERTEX
  5
172
  8
0
 10
15.90999984741211
 20
-15.90999984741211
 30
3.0
 70
   192
  0
VERTEX
  5
173
  8
0
 10
-21.06599998474121
 20
17.67700004577637
 30
3.0
 70
   192
  0
VERTEX
  5
174
  8
0
 10
-15.90999984741211
 20
15.90999984741211
 30
3.0
 70
   192
  0
VERTEX
  5
175
  8
0
 10
25.84199905395508
 20
-9.406000137329102
 30
3.0
 70
   192
  0
VERTEX
  5
176
  8
0
 10
-27.5
 20
0.0
 30
3.0
 70
   192
  0
VERTEX
  5
177
  8
0
 10
-22.5
 20
0.0
 30
3.0
 70
   192
  0
VERTEX
  5
178
  8
0
 10
-21.06599998474121
 20
-17.67700004577637
 30
3.0
 70
   192
  0
VERTEX
  5
179
  8
0
 62
     9
 10
0.0
 20
0.0
 30
0.0
 70
   128
 71
     3
 72
     2
 73
     1
  0
VERTEX
  5
17A
  8
0
 62
     9
 10
0.0
 20
0.0
 30
0.0
 70
   128
 71
     1
 72
     4
 73
     3
  0
VERTEX
  5
17B
  8
0
 62
     9
 10
0.0
 20
0.0
 30
0.0
 70
   128
 71
     6
 72
     5
 73
     2
  0
VERTEX
  5
17C
  8
0
 62
     9
 10
0.0
 20
0.0
 30
0.0
 70
   128
 71
     9
 72
     8
 73
     7
  0
VERTEX
  5
17D
  8
0
 62
     9
 10
0.0
 20
0.0
 30
0.0
 70
   128
 71
     8
 72
    11
 73
    10
  0
VERTEX
  5
17E
  8
0
 62
     9
 10
0.0
 20
0.0
 30
0.0
 70
   128
 71
     2
 72
     3
 73
     6
  0
VERTEX
  5
17F
  8
0
 62
     9
 10
0.0
 20
0.0
 30
0.0
 70
   128
 71
    13
 72
    12
 73
     5
  0
VERTEX
  5
180
  8
0
 62
     9
 10
0.0
 20
0.0
 30
0.0
 70
   128
 71
    10
 72
     7
 73
     8
  0
VERTEX
  5
181
  8
0
 62
     9
 10
0.0
 20
0.0
 30
0.0
 70
   128
 71
    11
 72
     4
 73
    14
  0
VERTEX
  5
182
  8
0
 62
     9
 10
0.0
 20
0.0
 30
0.0
 70
   128
 71
     5
 72
     6
 73
    13
  0
VERTEX
  5
183
  8
0
 62
     9
 10
0.0
 20
0.0
 30
0.0
 70
   128
 71
    16
 72
    15
 73
    12
  0
VERTEX
  5
184
  8
0
 62
     9
 10
0.0
 20
0.0
 30
0.0
 70
   128
 71
    16
 72
     9
 73
    17
  0
VERTEX
  5
185
  8
0
 62
     9
 10
0.0
 20
0.0
 30
0.0
 70
   128
 71
    14
 72
    10
 73
    11
  0
VERTEX
  5
186
  8
0
 62
     9
 10
0.0
 20
0.0
 30
0.0
 70
   128
 71
    12
 72
    13
 73
    16
  0
VERTEX
  5
187
  8
0
 62
     9
 10
0.0
 20
0.0
 30
0.0
 70
   128
 71
     7
 72
    17
 73
     9
  0
VERTEX
  5
188
  8
0
 62
     9
 10
0.0
 20
0.0
 30
0.0
 70
   128
 71
    17
 72
    15
 73
    16
  0
VERTEX
  5
189
  8
0
 62
     9
 10
0.0
 20
0.0
 30
0.0
 70
   128
 71
     1
 72
    14
 73
     4
  0
SEQEND
  5
18A
  8
0
 62
     9
  0
ENDBLK
  5
18D
  8
0
  0
BLOCK
  8
0
  2
E3_NODE_8_
 70
     0
 10
0.0
 20
0.0
 30
0.0
  3
E3_NODE_8_
  1

  0
POLYLINE
  5
18F
  8
0
 62
     9
 66
     1
 10
0.0
 20
0.0
 30
0.0
 70
    64
 71
    16
 72
    16
  0
VERTEX
  5
190
  8
0
 10
-15.90999984741211
 20
15.90999984741211
 30
7.0
 70
   192
  0
VERTEX
  5
191
  8
0
 10
-15.90999984741211
 20
15.90999984741211
 30
3.0
 70
   192
  0
VERTEX
  5
192
  8
0
 10
-22.5
 20
0.0
 30
3.0
 70
   192
  0
VERTEX
  5
193
  8
0
 10
0.0
 20
22.5
 30
7.0
 70
   192
  0
VERTEX
  5
194
  8
0
 10
0.0
 20
22.5
 30
3.0
 70
   192
  0
VERTEX
  5
195
  8
0
 10
15.90999984741211
 20
15.90999984741211
 30
7.0
 70
   192
  0
VERTEX
  5
196
  8
0
 10
15.90999984741211
 20
15.90999984741211
 30
3.0
 70
   192
  0
VERTEX
  5
197
  8
0
 10
22.5
 20
0.0
 30
7.0
 70
   192
  0
VERTEX
  5
198
  8
0
 10
22.5
 20
0.0
 30
3.0
 70
   192
  0
VERTEX
  5
199
  8
0
 10
15.90999984741211
 20
-15.90999984741211
 30
7.0
 70
   192
  0
VERTEX
  5
19A
  8
0
 10
15.90999984741211
 20
-15.90999984741211
 30
3.0
 70
   192
  0
VERTEX
  5
19B
  8
0
 10
0.0
 20
-22.5
 30
7.0
 70
   192
  0
VERTEX
  5
19C
  8
0
 10
0.0
 20
-22.5
 30
3.0
 70
   192
  0
VERTEX
  5
19D
  8
0
 10
-15.90999984741211
 20
-15.90999984741211
 30
7.0
 70
   192
  0
VERTEX
  5
19E
  8
0
 10
-15.90999984741211
 20
-15.90999984741211
 30
3.0
 70
   192
  0
VERTEX
  5
19F
  8
0
 10
-22.5
 20
0.0
 30
7.0
 70
   192
  0
VERTEX
  5
1A0
  8
0
 62
     9
 10
0.0
 20
0.0
 30
0.0
 70
   128
 71
     3
 72
     2
 73
     1
  0
VERTEX
  5
1A1
  8
0
 62
     9
 10
0.0
 20
0.0
 30
0.0
 70
   128
 71
     2
 72
     5
 73
     4
  0
VERTEX
  5
1A2
  8
0
 62
     9
 10
0.0
 20
0.0
 30
0.0
 70
   128
 71
     5
 72
     7
 73
     6
  0
VERTEX
  5
1A3
  8
0
 62
     9
 10
0.0
 20
0.0
 30
0.0
 70
   128
 71
     7
 72
     9
 73
     8
  0
VERTEX
  5
1A4
  8
0
 62
     9
 10
0.0
 20
0.0
 30
0.0
 70
   128
 71
     9
 72
    11
 73
    10
  0
VERTEX
  5
1A5
  8
0
 62
     9
 10
0.0
 20
0.0
 30
0.0
 70
   128
 71
    11
 72
    13
 73
    12
  0
VERTEX
  5
1A6
  8
0
 62
     9
 10
0.0
 20
0.0
 30
0.0
 70
   128
 71
    13
 72
    15
 73
    14
  0
VERTEX
  5
1A7
  8
0
 62
     9
 10
0.0
 20
0.0
 30
0.0
 70
   128
 71
    15
 72
     3
 73
    16
  0
VERTEX
  5
1A8
  8
0
 62
     9
 10
0.0
 20
0.0
 30
0.0
 70
   128
 71
    16
 72
    14
 73
    15
  0
VERTEX
  5
1A9
  8
0
 62
     9
 10
0.0
 20
0.0
 30
0.0
 70
   128
 71
    14
 72
    12
 73
    13
  0
VERTEX
  5
1AA
  8
0
 62
     9
 10
0.0
 20
0.0
 30
0.0
 70
   128
 71
    12
 72
    10
 73
    11
  0
VERTEX
  5
1AB
  8
0
 62
     9
 10
0.0
 20
0.0
 30
0.0
 70
   128
 71
    10
 72
     8
 73
     9
  0
VERTEX
  5
1AC
  8
0
 62
     9
 10
0.0
 20
0.0
 30
0.0
 70
   128
 71
     8
 72
     6
 73
     7
  0
VERTEX
  5
1AD
  8
0
 62
     9
 10
0.0
 20
0.0
 30
0.0
 70
   128
 71
     6
 72
     4
 73
     5
  0
VERTEX
  5
1AE
  8
0
 62
     9
 10
0.0
 20
0.0
 30
0.0
 70
   128
 71
     4
 72
     1
 73
     2
  0
VERTEX
  5
1AF
  8
0
 62
     9
 10
0.0
 20
0.0
 30
0.0
 70
   128
 71
     1
 72
    16
 73
     3
  0
SEQEND
  5
1B0
  8
0
 62
     9
  0
ENDBLK
  5
1B3
  8
0
  0
BLOCK
  8
0
  2
E3_NODE_9_
 70
     0
 10
0.0
 20
0.0
 30
0.0
  3
E3_NODE_9_
  1

  0
POLYLINE
  5
1B5
  8
0
 62
     9
 66
     1
 10
0.0
 20
0.0
 30
0.0
 70
    64
 71
     8
 72
     6
  0
VERTEX
  5
1B6
  8
0
 10
0.0
 20
-22.5
 30
7.0
 70
   192
  0
VERTEX
  5
1B7
  8
0
 10
-15.90999984741211
 20
15.90999984741211
 30
7.0
 70
   192
  0
VERTEX
  5
1B8
  8
0
 10
-22.5
 20
0.0
 30
7.0
 70
   192
  0
VERTEX
  5
1B9
  8
0
 10
22.5
 20
0.0
 30
7.0
 70
   192
  0
VERTEX
  5
1BA
  8
0
 10
15.90999984741211
 20
15.90999984741211
 30
7.0
 70
   192
  0
VERTEX
  5
1BB
  8
0
 10
-15.90999984741211
 20
-15.90999984741211
 30
7.0
 70
   192
  0
VERTEX
  5
1BC
  8
0
 10
15.90999984741211
 20
-15.90999984741211
 30
7.0
 70
   192
  0
VERTEX
  5
1BD
  8
0
 10
0.0
 20
22.5
 30
7.0
 70
   192
  0
VERTEX
  5
1BE
  8
0
 62
     9
 10
0.0
 20
0.0
 30
0.0
 70
   128
 71
     3
 72
     2
 73
     1
  0
VERTEX
  5
1BF
  8
0
 62
     9
 10
0.0
 20
0.0
 30
0.0
 70
   128
 71
     5
 72
     4
 73
     2
  0
VERTEX
  5
1C0
  8
0
 62
     9
 10
0.0
 20
0.0
 30
0.0
 70
   128
 71
     1
 72
     6
 73
     3
  0
VERTEX
  5
1C1
  8
0
 62
     9
 10
0.0
 20
0.0
 30
0.0
 70
   128
 71
     4
 72
     7
 73
     2
  0
VERTEX
  5
1C2
  8
0
 62
     9
 10
0.0
 20
0.0
 30
0.0
 70
   128
 71
     2
 72
     8
 73
     5
  0
VERTEX
  5
1C3
  8
0
 62
     9
 10
0.0
 20
0.0
 30
0.0
 70
   128
 71
     2
 72
     7
 73
     1
  0
SEQEND
  5
1C4
  8
0
 62
     9
  0
ENDBLK
  5
1C7
  8
0
  0
BLOCK
  8
0
  2
E3_NODE_10_
 70
     0
 10
0.0
 20
0.0
 30
0.0
  3
E3_NODE_10_
  1

  0
POLYLINE
  5
1C9
  8
0
 62
     9
 66
     1
 10
0.0
 20
0.0
 30
0.0
 70
    64
 71
    12
 72
    12
  0
VERTEX
  5
1CA
  8
0
 10
6.5
 20
-311.2579956054688
 30
39.38399887084961
 70
   192
  0
VERTEX
  5
1CB
  8
0
 10
13.0
 20
-300.0
 30
39.38399887084961
 70
   192
  0
VERTEX
  5
1CC
  8
0
 10
13.0
 20
-300.0
 30
42.88399887084961
 70
   192
  0
VERTEX
  5
1CD
  8
0
 10
-6.5
 20
-311.2579956054688
 30
42.88399887084961
 70
   192
  0
VERTEX
  5
1CE
  8
0
 10
-6.5
 20
-311.2579956054688
 30
39.38399887084961
 70
   192
  0
VERTEX
  5
1CF
  8
0
 10
-13.0
 20
-300.0
 30
42.88399887084961
 70
   192
  0
VERTEX
  5
1D0
  8
0
 10
-13.0
 20
-300.0
 30
39.38399887084961
 70
   192
  0
VERTEX
  5
1D1
  8
0
 10
-6.5
 20
-288.7420043945312
 30
42.88399887084961
 70
   192
  0
VERTEX
  5
1D2
  8
0
 10
-6.5
 20
-288.7420043945312
 30
39.38399887084961
 70
   192
  0
VERTEX
  5
1D3
  8
0
 10
6.5
 20
-288.7420043945312
 30
42.88399887084961
 70
   192
  0
VERTEX
  5
1D4
  8
0
 10
6.5
 20
-288.7420043945312
 30
39.38399887084961
 70
   192
  0
VERTEX
  5
1D5
  8
0
 10
6.5
 20
-311.2579956054688
 30
42.88399887084961
 70
   192
  0
VERTEX
  5
1D6
  8
0
 62
     9
 10
0.0
 20
0.0
 30
0.0
 70
   128
 71
     3
 72
     2
 73
     1
  0
VERTEX
  5
1D7
  8
0
 62
     9
 10
0.0
 20
0.0
 30
0.0
 70
   128
 71
     1
 72
     5
 73
     4
  0
VERTEX
  5
1D8
  8
0
 62
     9
 10
0.0
 20
0.0
 30
0.0
 70
   128
 71
     5
 72
     7
 73
     6
  0
VERTEX
  5
1D9
  8
0
 62
     9
 10
0.0
 20
0.0
 30
0.0
 70
   128
 71
     7
 72
     9
 73
     8
  0
VERTEX
  5
1DA
  8
0
 62
     9
 10
0.0
 20
0.0
 30
0.0
 70
   128
 71
     9
 72
    11
 73
    10
  0
VERTEX
  5
1DB
  8
0
 62
     9
 10
0.0
 20
0.0
 30
0.0
 70
   128
 71
    11
 72
     2
 73
     3
  0
VERTEX
  5
1DC
  8
0
 62
     9
 10
0.0
 20
0.0
 30
0.0
 70
   128
 71
     3
 72
    10
 73
    11
  0
VERTEX
  5
1DD
  8
0
 62
     9
 10
0.0
 20
0.0
 30
0.0
 70
   128
 71
    10
 72
     8
 73
     9
  0
VERTEX
  5
1DE
  8
0
 62
     9
 10
0.0
 20
0.0
 30
0.0
 70
   128
 71
     8
 72
     6
 73
     7
  0
VERTEX
  5
1DF
  8
0
 62
     9
 10
0.0
 20
0.0
 30
0.0
 70
   128
 71
     6
 72
     4
 73
     5
  0
VERTEX
  5
1E0
  8
0
 62
     9
 10
0.0
 20
0.0
 30
0.0
 70
   128
 71
     4
 72
    12
 73
     1
  0
VERTEX
  5
1E1
  8
0
 62
     9
 10
0.0
 20
0.0
 30
0.0
 70
   128
 71
     1
 72
    12
 73
     3
  0
SEQEND
  5
1E2
  8
0
 62
     9
  0
ENDBLK
  5
1E5
  8
0
  0
BLOCK
  8
0
  2
E3_NODE_11_
 70
     0
 10
0.0
 20
0.0
 30
0.0
  3
E3_NODE_11_
  1

  0
POLYLINE
  5
1E7
  8
0
 62
     9
 66
     1
 10
0.0
 20
0.0
 30
0.0
 70
    64
 71
    10
 72
    10
  0
VERTEX
  5
1E8
  8
0
 10
6.5
 20
-288.7420043945312
 30
42.88399887084961
 70
   192
  0
VERTEX
  5
1E9
  8
0
 10
0.0
 20
-294.5
 30
42.88399887084961
 70
   192
  0
VERTEX
  5
1EA
  8
0
 10
5.5
 20
-300.0
 30
42.88399887084961
 70
   192
  0
VERTEX
  5
1EB
  8
0
 10
6.5
 20
-311.2579956054688
 30
42.88399887084961
 70
   192
  0
VERTEX
  5
1EC
  8
0
 10
13.0
 20
-300.0
 30
42.88399887084961
 70
   192
  0
VERTEX
  5
1ED
  8
0
 10
-6.5
 20
-288.7420043945312
 30
42.88399887084961
 70
   192
  0
VERTEX
  5
1EE
  8
0
 10
-13.0
 20
-300.0
 30
42.88399887084961
 70
   192
  0
VERTEX
  5
1EF
  8
0
 10
-5.5
 20
-300.0
 30
42.88399887084961
 70
   192
  0
VERTEX
  5
1F0
  8
0
 10
-6.5
 20
-311.2579956054688
 30
42.88399887084961
 70
   192
  0
VERTEX
  5
1F1
  8
0
 10
0.0
 20
-305.5
 30
42.88399887084961
 70
   192
  0
VERTEX
  5
1F2
  8
0
 62
     9
 10
0.0
 20
0.0
 30
0.0
 70
   128
 71
     3
 72
     2
 73
     1
  0
VERTEX
  5
1F3
  8
0
 62
     9
 10
0.0
 20
0.0
 30
0.0
 70
   128
 71
     3
 72
     5
 73
     4
  0
VERTEX
  5
1F4
  8
0
 62
     9
 10
0.0
 20
0.0
 30
0.0
 70
   128
 71
     2
 72
     6
 73
     1
  0
VERTEX
  5
1F5
  8
0
 62
     9
 10
0.0
 20
0.0
 30
0.0
 70
   128
 71
     8
 72
     7
 73
     6
  0
VERTEX
  5
1F6
  8
0
 62
     9
 10
0.0
 20
0.0
 30
0.0
 70
   128
 71
     8
 72
    10
 73
     9
  0
VERTEX
  5
1F7
  8
0
 62
     9
 10
0.0
 20
0.0
 30
0.0
 70
   128
 71
     1
 72
     5
 73
     3
  0
VERTEX
  5
1F8
  8
0
 62
     9
 10
0.0
 20
0.0
 30
0.0
 70
   128
 71
     9
 72
     7
 73
     8
  0
VERTEX
  5
1F9
  8
0
 62
     9
 10
0.0
 20
0.0
 30
0.0
 70
   128
 71
     6
 72
     2
 73
     8
  0
VERTEX
  5
1FA
  8
0
 62
     9
 10
0.0
 20
0.0
 30
0.0
 70
   128
 71
     4
 72
    10
 73
     3
  0
VERTEX
  5
1FB
  8
0
 62
     9
 10
0.0
 20
0.0
 30
0.0
 70
   128
 71
     4
 72
     9
 73
    10
  0
SEQEND
  5
1FC
  8
0
 62
     9
  0
ENDBLK
  5
1FF
  8
0
  0
BLOCK
  8
0
  2
E3_NODE_12_
 70
     0
 10
0.0
 20
0.0
 30
0.0
  3
E3_NODE_12_
  1

  0
POLYLINE
  5
201
  8
0
 62
     9
 66
     1
 10
0.0
 20
0.0
 30
0.0
 70
    64
 71
     8
 72
     8
  0
VERTEX
  5
202
  8
0
 10
0.0
 20
-305.5
 30
55.33399963378906
 70
   192
  0
VERTEX
  5
203
  8
0
 10
0.0
 20
-305.5
 30
42.88399887084961
 70
   192
  0
VERTEX
  5
204
  8
0
 10
5.5
 20
-300.0
 30
42.88399887084961
 70
   192
  0
VERTEX
  5
205
  8
0
 10
-5.5
 20
-300.0
 30
55.33399963378906
 70
   192
  0
VERTEX
  5
206
  8
0
 10
-5.5
 20
-300.0
 30
42.88399887084961
 70
   192
  0
VERTEX
  5
207
  8
0
 10
0.0
 20
-294.5
 30
55.33399963378906
 70
   192
  0
VERTEX
  5
208
  8
0
 10
0.0
 20
-294.5
 30
42.88399887084961
 70
   192
  0
VERTEX
  5
209
  8
0
 10
5.5
 20
-300.0
 30
55.33399963378906
 70
   192
  0
VERTEX
  5
20A
  8
0
 62
     9
 10
0.0
 20
0.0
 30
0.0
 70
   128
 71
     3
 72
     2
 73
     1
  0
VERTEX
  5
20B
  8
0
 62
     9
 10
0.0
 20
0.0
 30
0.0
 70
   128
 71
     2
 72
     5
 73
     4
  0
VERTEX
  5
20C
  8
0
 62
     9
 10
0.0
 20
0.0
 30
0.0
 70
   128
 71
     5
 72
     7
 73
     6
  0
VERTEX
  5
20D
  8
0
 62
     9
 10
0.0
 20
0.0
 30
0.0
 70
   128
 71
     7
 72
     3
 73
     8
  0
VERTEX
  5
20E
  8
0
 62
     9
 10
0.0
 20
0.0
 30
0.0
 70
   128
 71
     8
 72
     6
 73
     7
  0
VERTEX
  5
20F
  8
0
 62
     9
 10
0.0
 20
0.0
 30
0.0
 70
   128
 71
     6
 72
     4
 73
     5
  0
VERTEX
  5
210
  8
0
 62
     9
 10
0.0
 20
0.0
 30
0.0
 70
   128
 71
     4
 72
     1
 73
     2
  0
VERTEX
  5
211
  8
0
 62
     9
 10
0.0
 20
0.0
 30
0.0
 70
   128
 71
     1
 72
     8
 73
     3
  0
SEQEND
  5
212
  8
0
 62
     9
  0
ENDBLK
  5
215
  8
0
  0
BLOCK
  8
0
  2
E3_NODE_13_
 70
     0
 10
0.0
 20
0.0
 30
0.0
  3
E3_NODE_13_
  1

  0
POLYLINE
  5
217
  8
0
 62
     9
 66
     1
 10
0.0
 20
0.0
 30
0.0
 70
    64
 71
     8
 72
     8
  0
VERTEX
  5
218
  8
0
 10
5.5
 20
-300.0
 30
55.33399963378906
 70
   192
  0
VERTEX
  5
219
  8
0
 10
4.949999809265137
 20
-300.0
 30
55.88399887084961
 70
   192
  0
VERTEX
  5
21A
  8
0
 10
0.0
 20
-304.9500122070312
 30
55.88399887084961
 70
   192
  0
VERTEX
  5
21B
  8
0
 10
-5.5
 20
-300.0
 30
55.33399963378906
 70
   192
  0
VERTEX
  5
21C
  8
0
 10
0.0
 20
-305.5
 30
55.33399963378906
 70
   192
  0
VERTEX
  5
21D
  8
0
 10
-4.949999809265137
 20
-300.0
 30
55.88399887084961
 70
   192
  0
VERTEX
  5
21E
  8
0
 10
0.0
 20
-295.0499877929688
 30
55.88399887084961
 70
   192
  0
VERTEX
  5
21F
  8
0
 10
0.0
 20
-294.5
 30
55.33399963378906
 70
   192
  0
VERTEX
  5
220
  8
0
 62
     9
 10
0.0
 20
0.0
 30
0.0
 70
   128
 71
     3
 72
     2
 73
     1
  0
VERTEX
  5
221
  8
0
 62
     9
 10
0.0
 20
0.0
 30
0.0
 70
   128
 71
     3
 72
     5
 73
     4
  0
VERTEX
  5
222
  8
0
 62
     9
 10
0.0
 20
0.0
 30
0.0
 70
   128
 71
     7
 72
     6
 73
     4
  0
VERTEX
  5
223
  8
0
 62
     9
 10
0.0
 20
0.0
 30
0.0
 70
   128
 71
     7
 72
     8
 73
     1
  0
VERTEX
  5
224
  8
0
 62
     9
 10
0.0
 20
0.0
 30
0.0
 70
   128
 71
     1
 72
     2
 73
     7
  0
VERTEX
  5
225
  8
0
 62
     9
 10
0.0
 20
0.0
 30
0.0
 70
   128
 71
     4
 72
     8
 73
     7
  0
VERTEX
  5
226
  8
0
 62
     9
 10
0.0
 20
0.0
 30
0.0
 70
   128
 71
     4
 72
     6
 73
     3
  0
VERTEX
  5
227
  8
0
 62
     9
 10
0.0
 20
0.0
 30
0.0
 70
   128
 71
     1
 72
     5
 73
     3
  0
SEQEND
  5
228
  8
0
 62
     9
  0
ENDBLK
  5
22B
  8
0
  0
BLOCK
  8
0
  2
E3_NODE_14_
 70
     0
 10
0.0
 20
0.0
 30
0.0
  3
E3_NODE_14_
  1

  0
POLYLINE
  5
22D
  8
0
 62
     9
 66
     1
 10
0.0
 20
0.0
 30
0.0
 70
    64
 71
     8
 72
     8
  0
VERTEX
  5
22E
  8
0
 10
0.0
 20
-304.9500122070312
 30
58.98400115966797
 70
   192
  0
VERTEX
  5
22F
  8
0
 10
0.0
 20
-304.9500122070312
 30
55.88399887084961
 70
   192
  0
VERTEX
  5
230
  8
0
 10
4.949999809265137
 20
-300.0
 30
55.88399887084961
 70
   192
  0
VERTEX
  5
231
  8
0
 10
-4.949999809265137
 20
-300.0
 30
58.98400115966797
 70
   192
  0
VERTEX
  5
232
  8
0
 10
-4.949999809265137
 20
-300.0
 30
55.88399887084961
 70
   192
  0
VERTEX
  5
233
  8
0
 10
0.0
 20
-295.0499877929688
 30
58.98400115966797
 70
   192
  0
VERTEX
  5
234
  8
0
 10
0.0
 20
-295.0499877929688
 30
55.88399887084961
 70
   192
  0
VERTEX
  5
235
  8
0
 10
4.949999809265137
 20
-300.0
 30
58.98400115966797
 70
   192
  0
VERTEX
  5
236
  8
0
 62
     9
 10
0.0
 20
0.0
 30
0.0
 70
   128
 71
     3
 72
     2
 73
     1
  0
VERTEX
  5
237
  8
0
 62
     9
 10
0.0
 20
0.0
 30
0.0
 70
   128
 71
     2
 72
     5
 73
     4
  0
VERTEX
  5
238
  8
0
 62
     9
 10
0.0
 20
0.0
 30
0.0
 70
   128
 71
     5
 72
     7
 73
     6
  0
VERTEX
  5
239
  8
0
 62
     9
 10
0.0
 20
0.0
 30
0.0
 70
   128
 71
     7
 72
     3
 73
     8
  0
VERTEX
  5
23A
  8
0
 62
     9
 10
0.0
 20
0.0
 30
0.0
 70
   128
 71
     8
 72
     6
 73
     7
  0
VERTEX
  5
23B
  8
0
 62
     9
 10
0.0
 20
0.0
 30
0.0
 70
   128
 71
     6
 72
     4
 73
     5
  0
VERTEX
  5
23C
  8
0
 62
     9
 10
0.0
 20
0.0
 30
0.0
 70
   128
 71
     4
 72
     1
 73
     2
  0
VERTEX
  5
23D
  8
0
 62
     9
 10
0.0
 20
0.0
 30
0.0
 70
   128
 71
     1
 72
     8
 73
     3
  0
SEQEND
  5
23E
  8
0
 62
     9
  0
ENDBLK
  5
241
  8
0
  0
BLOCK
  8
0
  2
E3_NODE_15_
 70
     0
 10
0.0
 20
0.0
 30
0.0
  3
E3_NODE_15_
  1

  0
POLYLINE
  5
243
  8
0
 62
     9
 66
     1
 10
0.0
 20
0.0
 30
0.0
 70
    64
 71
     8
 72
     8
  0
VERTEX
  5
244
  8
0
 10
-5.5
 20
-300.0
 30
59.53400039672852
 70
   192
  0
VERTEX
  5
245
  8
0
 10
-4.949999809265137
 20
-300.0
 30
58.98400115966797
 70
   192
  0
VERTEX
  5
246
  8
0
 10
0.0
 20
-304.9500122070312
 30
58.98400115966797
 70
   192
  0
VERTEX
  5
247
  8
0
 10
5.5
 20
-300.0
 30
59.53400039672852
 70
   192
  0
VERTEX
  5
248
  8
0
 10
0.0
 20
-305.5
 30
59.53400039672852
 70
   192
  0
VERTEX
  5
249
  8
0
 10
0.0
 20
-294.5
 30
59.53400039672852
 70
   192
  0
VERTEX
  5
24A
  8
0
 10
4.949999809265137
 20
-300.0
 30
58.98400115966797
 70
   192
  0
VERTEX
  5
24B
  8
0
 10
0.0
 20
-295.0499877929688
 30
58.98400115966797
 70
   192
  0
VERTEX
  5
24C
  8
0
 62
     9
 10
0.0
 20
0.0
 30
0.0
 70
   128
 71
     3
 72
     2
 73
     1
  0
VERTEX
  5
24D
  8
0
 62
     9
 10
0.0
 20
0.0
 30
0.0
 70
   128
 71
     3
 72
     5
 73
     4
  0
VERTEX
  5
24E
  8
0
 62
     9
 10
0.0
 20
0.0
 30
0.0
 70
   128
 71
     7
 72
     4
 73
     6
  0
VERTEX
  5
24F
  8
0
 62
     9
 10
0.0
 20
0.0
 30
0.0
 70
   128
 71
     8
 72
     6
 73
     1
  0
VERTEX
  5
250
  8
0
 62
     9
 10
0.0
 20
0.0
 30
0.0
 70
   128
 71
     1
 72
     2
 73
     8
  0
VERTEX
  5
251
  8
0
 62
     9
 10
0.0
 20
0.0
 30
0.0
 70
   128
 71
     6
 72
     8
 73
     7
  0
VERTEX
  5
252
  8
0
 62
     9
 10
0.0
 20
0.0
 30
0.0
 70
   128
 71
     4
 72
     7
 73
     3
  0
VERTEX
  5
253
  8
0
 62
     9
 10
0.0
 20
0.0
 30
0.0
 70
   128
 71
     1
 72
     5
 73
     3
  0
SEQEND
  5
254
  8
0
 62
     9
  0
ENDBLK
  5
257
  8
0
  0
BLOCK
  8
0
  2
E3_NODE_16_
 70
     0
 10
0.0
 20
0.0
 30
0.0
  3
E3_NODE_16_
  1

  0
POLYLINE
  5
259
  8
0
 62
     9
 66
     1
 10
0.0
 20
0.0
 30
0.0
 70
    64
 71
     8
 72
     8
  0
VERTEX
  5
25A
  8
0
 10
0.0
 20
-305.5
 30
61.38399887084961
 70
   192
  0
VERTEX
  5
25B
  8
0
 10
0.0
 20
-305.5
 30
59.53400039672852
 70
   192
  0
VERTEX
  5
25C
  8
0
 10
5.5
 20
-300.0
 30
59.53400039672852
 70
   192
  0
VERTEX
  5
25D
  8
0
 10
-5.5
 20
-300.0
 30
61.38399887084961
 70
   192
  0
VERTEX
  5
25E
  8
0
 10
-5.5
 20
-300.0
 30
59.53400039672852
 70
   192
  0
VERTEX
  5
25F
  8
0
 10
0.0
 20
-294.5
 30
61.38399887084961
 70
   192
  0
VERTEX
  5
260
  8
0
 10
0.0
 20
-294.5
 30
59.53400039672852
 70
   192
  0
VERTEX
  5
261
  8
0
 10
5.5
 20
-300.0
 30
61.38399887084961
 70
   192
  0
VERTEX
  5
262
  8
0
 62
     9
 10
0.0
 20
0.0
 30
0.0
 70
   128
 71
     3
 72
     2
 73
     1
  0
VERTEX
  5
263
  8
0
 62
     9
 10
0.0
 20
0.0
 30
0.0
 70
   128
 71
     2
 72
     5
 73
     4
  0
VERTEX
  5
264
  8
0
 62
     9
 10
0.0
 20
0.0
 30
0.0
 70
   128
 71
     5
 72
     7
 73
     6
  0
VERTEX
  5
265
  8
0
 62
     9
 10
0.0
 20
0.0
 30
0.0
 70
   128
 71
     7
 72
     3
 73
     8
  0
VERTEX
  5
266
  8
0
 62
     9
 10
0.0
 20
0.0
 30
0.0
 70
   128
 71
     8
 72
     6
 73
     7
  0
VERTEX
  5
267
  8
0
 62
     9
 10
0.0
 20
0.0
 30
0.0
 70
   128
 71
     6
 72
     4
 73
     5
  0
VERTEX
  5
268
  8
0
 62
     9
 10
0.0
 20
0.0
 30
0.0
 70
   128
 71
     4
 72
     1
 73
     2
  0
VERTEX
  5
269
  8
0
 62
     9
 10
0.0
 20
0.0
 30
0.0
 70
   128
 71
     1
 72
     8
 73
     3
  0
SEQEND
  5
26A
  8
0
 62
     9
  0
ENDBLK
  5
26D
  8
0
  0
BLOCK
  8
0
  2
E3_NODE_17_
 70
     0
 10
0.0
 20
0.0
 30
0.0
  3
E3_NODE_17_
  1

  0
POLYLINE
  5
26F
  8
0
 62
     9
 66
     1
 10
0.0
 20
0.0
 30
0.0
 70
    64
 71
     4
 72
     2
  0
VERTEX
  5
270
  8
0
 10
5.5
 20
-300.0
 30
61.38399887084961
 70
   192
  0
VERTEX
  5
271
  8
0
 10
0.0
 20
-294.5
 30
61.38399887084961
 70
   192
  0
VERTEX
  5
272
  8
0
 10
-5.5
 20
-300.0
 30
61.38399887084961
 70
   192
  0
VERTEX
  5
273
  8
0
 10
0.0
 20
-305.5
 30
61.38399887084961
 70
   192
  0
VERTEX
  5
274
  8
0
 62
     9
 10
0.0
 20
0.0
 30
0.0
 70
   128
 71
     3
 72
     2
 73
     1
  0
VERTEX
  5
275
  8
0
 62
     9
 10
0.0
 20
0.0
 30
0.0
 70
   128
 71
     1
 72
     4
 73
     3
  0
SEQEND
  5
276
  8
0
 62
     9
  0
ENDBLK
  5
279
  8
0
  0
BLOCK
  8
0
  2
E3_NODE_18_
 70
     0
 10
0.0
 20
0.0
 30
0.0
  3
E3_NODE_18_
  1

  0
POLYLINE
  5
27B
  8
0
 62
     9
 66
     1
 10
0.0
 20
0.0
 30
0.0
 70
    64
 71
     7
 72
     5
  0
VERTEX
  5
27C
  8
0
 10
-4.005000114440918
 20
317.5490112304688
 30
42.0
 70
   192
  0
VERTEX
  5
27D
  8
0
 10
-4.005000114440918
 20
282.4509887695312
 30
42.0
 70
   192
  0
VERTEX
  5
27E
  8
0
 10
11.22299957275391
 20
285.927001953125
 30
42.0
 70
   192
  0
VERTEX
  5
27F
  8
0
 10
-16.21699905395508
 20
307.8099975585938
 30
42.0
 70
   192
  0
VERTEX
  5
280
  8
0
 10
18.0
 20
300.0
 30
42.0
 70
   192
  0
VERTEX
  5
281
  8
0
 10
11.22299957275391
 20
314.072998046875
 30
42.0
 70
   192
  0
VERTEX
  5
282
  8
0
 10
-16.21699905395508
 20
292.1900024414062
 30
42.0
 70
   192
  0
VERTEX
  5
283
  8
0
 62
     9
 10
0.0
 20
0.0
 30
0.0
 70
   128
 71
     3
 72
     2
 73
     1
  0
VERTEX
  5
284
  8
0
 62
     9
 10
0.0
 20
0.0
 30
0.0
 70
   128
 71
     4
 72
     1
 73
     2
  0
VERTEX
  5
285
  8
0
 62
     9
 10
0.0
 20
0.0
 30
0.0
 70
   128
 71
     1
 72
     5
 73
     3
  0
VERTEX
  5
286
  8
0
 62
     9
 10
0.0
 20
0.0
 30
0.0
 70
   128
 71
     1
 72
     6
 73
     5
  0
VERTEX
  5
287
  8
0
 62
     9
 10
0.0
 20
0.0
 30
0.0
 70
   128
 71
     2
 72
     7
 73
     4
  0
SEQEND
  5
288
  8
0
 62
     9
  0
ENDBLK
  5
28B
  8
0
  0
BLOCK
  8
0
  2
E3_NODE_19_
 70
     0
 10
0.0
 20
0.0
 30
0.0
  3
E3_NODE_19_
  1

  0
POLYLINE
  5
28D
  8
0
 62
     9
 66
     1
 10
0.0
 20
0.0
 30
0.0
 70
    64
 71
    14
 72
    14
  0
VERTEX
  5
28E
  8
0
 10
11.22299957275391
 20
314.072998046875
 30
7.0
 70
   192
  0
VERTEX
  5
28F
  8
0
 10
11.22299957275391
 20
314.072998046875
 30
42.0
 70
   192
  0
VERTEX
  5
290
  8
0
 10
18.0
 20
300.0
 30
42.0
 70
   192
  0
VERTEX
  5
291
  8
0
 10
-4.005000114440918
 20
317.5490112304688
 30
7.0
 70
   192
  0
VERTEX
  5
292
  8
0
 10
-4.005000114440918
 20
317.5490112304688
 30
42.0
 70
   192
  0
VERTEX
  5
293
  8
0
 10
-16.21699905395508
 20
307.8099975585938
 30
7.0
 70
   192
  0
VERTEX
  5
294
  8
0
 10
-16.21699905395508
 20
307.8099975585938
 30
42.0
 70
   192
  0
VERTEX
  5
295
  8
0
 10
-16.21699905395508
 20
292.1900024414062
 30
7.0
 70
   192
  0
VERTEX
  5
296
  8
0
 10
-16.21699905395508
 20
292.1900024414062
 30
42.0
 70
   192
  0
VERTEX
  5
297
  8
0
 10
-4.005000114440918
 20
282.4509887695312
 30
7.0
 70
   192
  0
VERTEX
  5
298
  8
0
 10
-4.005000114440918
 20
282.4509887695312
 30
42.0
 70
   192
  0
VERTEX
  5
299
  8
0
 10
11.22299957275391
 20
285.927001953125
 30
7.0
 70
   192
  0
VERTEX
  5
29A
  8
0
 10
11.22299957275391
 20
285.927001953125
 30
42.0
 70
   192
  0
VERTEX
  5
29B
  8
0
 10
18.0
 20
300.0
 30
7.0
 70
   192
  0
VERTEX
  5
29C
  8
0
 62
     9
 10
0.0
 20
0.0
 30
0.0
 70
   128
 71
     3
 72
     2
 73
     1
  0
VERTEX
  5
29D
  8
0
 62
     9
 10
0.0
 20
0.0
 30
0.0
 70
   128
 71
     2
 72
     5
 73
     4
  0
VERTEX
  5
29E
  8
0
 62
     9
 10
0.0
 20
0.0
 30
0.0
 70
   128
 71
     5
 72
     7
 73
     6
  0
VERTEX
  5
29F
  8
0
 62
     9
 10
0.0
 20
0.0
 30
0.0
 70
   128
 71
     7
 72
     9
 73
     8
  0
VERTEX
  5
2A0
  8
0
 62
     9
 10
0.0
 20
0.0
 30
0.0
 70
   128
 71
     9
 72
    11
 73
    10
  0
VERTEX
  5
2A1
  8
0
 62
     9
 10
0.0
 20
0.0
 30
0.0
 70
   128
 71
    11
 72
    13
 73
    12
  0
VERTEX
  5
2A2
  8
0
 62
     9
 10
0.0
 20
0.0
 30
0.0
 70
   128
 71
    13
 72
     3
 73
    14
  0
VERTEX
  5
2A3
  8
0
 62
     9
 10
0.0
 20
0.0
 30
0.0
 70
   128
 71
    14
 72
    12
 73
    13
  0
VERTEX
  5
2A4
  8
0
 62
     9
 10
0.0
 20
0.0
 30
0.0
 70
   128
 71
    12
 72
    10
 73
    11
  0
VERTEX
  5
2A5
  8
0
 62
     9
 10
0.0
 20
0.0
 30
0.0
 70
   128
 71
    10
 72
     8
 73
     9
  0
VERTEX
  5
2A6
  8
0
 62
     9
 10
0.0
 20
0.0
 30
0.0
 70
   128
 71
     8
 72
     6
 73
     7
  0
VERTEX
  5
2A7
  8
0
 62
     9
 10
0.0
 20
0.0
 30
0.0
 70
   128
 71
     6
 72
     4
 73
     5
  0
VERTEX
  5
2A8
  8
0
 62
     9
 10
0.0
 20
0.0
 30
0.0
 70
   128
 71
     4
 72
     1
 73
     2
  0
VERTEX
  5
2A9
  8
0
 62
     9
 10
0.0
 20
0.0
 30
0.0
 70
   128
 71
     1
 72
    14
 73
     3
  0
SEQEND
  5
2AA
  8
0
 62
     9
  0
ENDBLK
  5
2AD
  8
0
  0
BLOCK
  8
0
  2
E3_NODE_20_
 70
     0
 10
0.0
 20
0.0
 30
0.0
  3
E3_NODE_20_
  1

  0
POLYLINE
  5
2AF
  8
0
 62
     9
 66
     1
 10
0.0
 20
0.0
 30
0.0
 70
    64
 71
     4
 72
     2
  0
VERTEX
  5
2B0
  8
0
 10
-36.12900161743164
 20
9.0
 30
75.41600036621094
 70
   192
  0
VERTEX
  5
2B1
  8
0
 10
-29.82799911499023
 20
9.0
 30
72.20600128173828
 70
   192
  0
VERTEX
  5
2B2
  8
0
 10
-33.03900146484375
 20
9.0
 30
65.90599822998047
 70
   192
  0
VERTEX
  5
2B3
  8
0
 10
-39.3390007019043
 20
9.0
 30
69.11599731445312
 70
   192
  0
VERTEX
  5
2B4
  8
0
 62
     9
 10
0.0
 20
0.0
 30
0.0
 70
   128
 71
     3
 72
     2
 73
     1
  0
VERTEX
  5
2B5
  8
0
 62
     9
 10
0.0
 20
0.0
 30
0.0
 70
   128
 71
     1
 72
     4
 73
     3
  0
SEQEND
  5
2B6
  8
0
 62
     9
  0
ENDBLK
  5
2B9
  8
0
  0
BLOCK
  8
0
  2
E3_NODE_21_
 70
     0
 10
0.0
 20
0.0
 30
0.0
  3
E3_NODE_21_
  1

  0
POLYLINE
  5
2BB
  8
0
 62
     9
 66
     1
 10
0.0
 20
0.0
 30
0.0
 70
    64
 71
     8
 72
     8
  0
VERTEX
  5
2BC
  8
0
 10
-39.3390007019043
 20
-9.0
 30
69.11599731445312
 70
   192
  0
VERTEX
  5
2BD
  8
0
 10
-36.12900161743164
 20
-9.0
 30
75.41600036621094
 70
   192
  0
VERTEX
  5
2BE
  8
0
 10
-36.12900161743164
 20
9.0
 30
75.41600036621094
 70
   192
  0
VERTEX
  5
2BF
  8
0
 10
-33.03900146484375
 20
-9.0
 30
65.90599822998047
 70
   192
  0
VERTEX
  5
2C0
  8
0
 10
-39.3390007019043
 20
9.0
 30
69.11599731445312
 70
   192
  0
VERTEX
  5
2C1
  8
0
 10
-29.82799911499023
 20
9.0
 30
72.20600128173828
 70
   192
  0
VERTEX
  5
2C2
  8
0
 10
-29.82799911499023
 20
-9.0
 30
72.20600128173828
 70
   192
  0
VERTEX
  5
2C3
  8
0
 10
-33.03900146484375
 20
9.0
 30
65.90599822998047
 70
   192
  0
VERTEX
  5
2C4
  8
0
 62
     9
 10
0.0
 20
0.0
 30
0.0
 70
   128
 71
     3
 72
     2
 73
     1
  0
VERTEX
  5
2C5
  8
0
 62
     9
 10
0.0
 20
0.0
 30
0.0
 70
   128
 71
     5
 72
     1
 73
     4
  0
VERTEX
  5
2C6
  8
0
 62
     9
 10
0.0
 20
0.0
 30
0.0
 70
   128
 71
     4
 72
     7
 73
     6
  0
VERTEX
  5
2C7
  8
0
 62
     9
 10
0.0
 20
0.0
 30
0.0
 70
   128
 71
     7
 72
     2
 73
     3
  0
VERTEX
  5
2C8
  8
0
 62
     9
 10
0.0
 20
0.0
 30
0.0
 70
   128
 71
     3
 72
     6
 73
     7
  0
VERTEX
  5
2C9
  8
0
 62
     9
 10
0.0
 20
0.0
 30
0.0
 70
   128
 71
     6
 72
     8
 73
     4
  0
VERTEX
  5
2CA
  8
0
 62
     9
 10
0.0
 20
0.0
 30
0.0
 70
   128
 71
     4
 72
     8
 73
     5
  0
VERTEX
  5
2CB
  8
0
 62
     9
 10
0.0
 20
0.0
 30
0.0
 70
   128
 71
     1
 72
     5
 73
     3
  0
SEQEND
  5
2CC
  8
0
 62
     9
  0
ENDBLK
  5
2CF
  8
0
  0
BLOCK
  8
0
  2
E3_NODE_22_
 70
     0
 10
0.0
 20
0.0
 30
0.0
  3
E3_NODE_22_
  1

  0
POLYLINE
  5
2D1
  8
0
 62
     9
 66
     1
 10
0.0
 20
0.0
 30
0.0
 70
    64
 71
     4
 72
     2
  0
VERTEX
  5
2D2
  8
0
 10
-36.12900161743164
 20
-9.0
 30
75.41600036621094
 70
   192
  0
VERTEX
  5
2D3
  8
0
 10
-39.3390007019043
 20
-9.0
 30
69.11599731445312
 70
   192
  0
VERTEX
  5
2D4
  8
0
 10
-33.03900146484375
 20
-9.0
 30
65.90599822998047
 70
   192
  0
VERTEX
  5
2D5
  8
0
 10
-29.82799911499023
 20
-9.0
 30
72.20600128173828
 70
   192
  0
VERTEX
  5
2D6
  8
0
 62
     9
 10
0.0
 20
0.0
 30
0.0
 70
   128
 71
     3
 72
     2
 73
     1
  0
VERTEX
  5
2D7
  8
0
 62
     9
 10
0.0
 20
0.0
 30
0.0
 70
   128
 71
     1
 72
     4
 73
     3
  0
SEQEND
  5
2D8
  8
0
 62
     9
  0
ENDBLK
  5
2DB
  8
0
  0
BLOCK
  8
0
  2
E3_NODE_23_
 70
     0
 10
0.0
 20
0.0
 30
0.0
  3
E3_NODE_23_
  1

  0
POLYLINE
  5
2DD
  8
0
 62
     9
 66
     1
 10
0.0
 20
0.0
 30
0.0
 70
    64
 71
     9
 72
     7
  0
VERTEX
  5
2DE
  8
0
 10
-17.67700004577637
 20
-278.9339904785156
 30
-3.0
 70
   192
  0
VERTEX
  5
2DF
  8
0
 10
17.67700004577637
 20
-278.9339904785156
 30
-3.0
 70
   192
  0
VERTEX
  5
2E0
  8
0
 10
27.08200073242188
 20
-295.2250061035156
 30
-3.0
 70
   192
  0
VERTEX
  5
2E1
  8
0
 10
-9.406000137329102
 20
-325.8420104980469
 30
-3.0
 70
   192
  0
VERTEX
  5
2E2
  8
0
 10
-23.81599998474121
 20
-313.75
 30
-3.0
 70
   192
  0
VERTEX
  5
2E3
  8
0
 10
23.81599998474121
 20
-313.75
 30
-3.0
 70
   192
  0
VERTEX
  5
2E4
  8
0
 10
9.406000137329102
 20
-325.8420104980469
 30
-3.0
 70
   192
  0
VERTEX
  5
2E5
  8
0
 10
0.0
 20
-272.5
 30
-3.0
 70
   192
  0
VERTEX
  5
2E6
  8
0
 10
-27.08200073242188
 20
-295.2250061035156
 30
-3.0
 70
   192
  0
VERTEX
  5
2E7
  8
0
 62
     9
 10
0.0
 20
0.0
 30
0.0
 70
   128
 71
     3
 72
     2
 73
     1
  0
VERTEX
  5
2E8
  8
0
 62
     9
 10
0.0
 20
0.0
 30
0.0
 70
   128
 71
     5
 72
     4
 73
     1
  0
VERTEX
  5
2E9
  8
0
 62
     9
 10
0.0
 20
0.0
 30
0.0
 70
   128
 71
     7
 72
     6
 73
     1
  0
VERTEX
  5
2EA
  8
0
 62
     9
 10
0.0
 20
0.0
 30
0.0
 70
   128
 71
     2
 72
     8
 73
     1
  0
VERTEX
  5
2EB
  8
0
 62
     9
 10
0.0
 20
0.0
 30
0.0
 70
   128
 71
     1
 72
     4
 73
     7
  0
VERTEX
  5
2EC
  8
0
 62
     9
 10
0.0
 20
0.0
 30
0.0
 70
   128
 71
     1
 72
     9
 73
     5
  0
VERTEX
  5
2ED
  8
0
 62
     9
 10
0.0
 20
0.0
 30
0.0
 70
   128
 71
     1
 72
     6
 73
     3
  0
SEQEND
  5
2EE
  8
0
 62
     9
  0
ENDBLK
  5
2F1
  8
0
  0
BLOCK
  8
0
  2
E3_NODE_24_
 70
     0
 10
0.0
 20
0.0
 30
0.0
  3
E3_NODE_24_
  1

  0
POLYLINE
  5
2F3
  8
0
 62
     9
 66
     1
 10
0.0
 20
0.0
 30
0.0
 70
    64
 71
    18
 72
    18
  0
VERTEX
  5
2F4
  8
0
 10
17.67700004577637
 20
-278.9339904785156
 30
-3.0
 70
   192
  0
VERTEX
  5
2F5
  8
0
 10
0.0
 20
-272.5
 30
-3.0
 70
   192
  0
VERTEX
  5
2F6
  8
0
 10
0.0
 20
-272.5
 30
3.0
 70
   192
  0
VERTEX
  5
2F7
  8
0
 10
27.08200073242188
 20
-295.2250061035156
 30
-3.0
 70
   192
  0
VERTEX
  5
2F8
  8
0
 10
17.67700004577637
 20
-278.9339904785156
 30
3.0
 70
   192
  0
VERTEX
  5
2F9
  8
0
 10
23.81599998474121
 20
-313.75
 30
-3.0
 70
   192
  0
VERTEX
  5
2FA
  8
0
 10
27.08200073242188
 20
-295.2250061035156
 30
3.0
 70
   192
  0
VERTEX
  5
2FB
  8
0
 10
9.406000137329102
 20
-325.8420104980469
 30
-3.0
 70
   192
  0
VERTEX
  5
2FC
  8
0
 10
23.81599998474121
 20
-313.75
 30
3.0
 70
   192
  0
VERTEX
  5
2FD
  8
0
 10
-9.406000137329102
 20
-325.8420104980469
 30
3.0
 70
   192
  0
VERTEX
  5
2FE
  8
0
 10
-9.406000137329102
 20
-325.8420104980469
 30
-3.0
 70
   192
  0
VERTEX
  5
2FF
  8
0
 10
-23.81599998474121
 20
-313.75
 30
3.0
 70
   192
  0
VERTEX
  5
300
  8
0
 10
-23.81599998474121
 20
-313.75
 30
-3.0
 70
   192
  0
VERTEX
  5
301
  8
0
 10
-27.08200073242188
 20
-295.2250061035156
 30
3.0
 70
   192
  0
VERTEX
  5
302
  8
0
 10
-27.08200073242188
 20
-295.2250061035156
 30
-3.0
 70
   192
  0
VERTEX
  5
303
  8
0
 10
-17.67700004577637
 20
-278.9339904785156
 30
3.0
 70
   192
  0
VERTEX
  5
304
  8
0
 10
-17.67700004577637
 20
-278.9339904785156
 30
-3.0
 70
   192
  0
VERTEX
  5
305
  8
0
 10
9.406000137329102
 20
-325.8420104980469
 30
3.0
 70
   192
  0
VERTEX
  5
306
  8
0
 62
     9
 10
0.0
 20
0.0
 30
0.0
 70
   128
 71
     3
 72
     2
 73
     1
  0
VERTEX
  5
307
  8
0
 62
     9
 10
0.0
 20
0.0
 30
0.0
 70
   128
 71
     5
 72
     1
 73
     4
  0
VERTEX
  5
308
  8
0
 62
     9
 10
0.0
 20
0.0
 30
0.0
 70
   128
 71
     7
 72
     4
 73
     6
  0
VERTEX
  5
309
  8
0
 62
     9
 10
0.0
 20
0.0
 30
0.0
 70
   128
 71
     9
 72
     6
 73
     8
  0
VERTEX
  5
30A
  8
0
 62
     9
 10
0.0
 20
0.0
 30
0.0
 70
   128
 71
     8
 72
    11
 73
    10
  0
VERTEX
  5
30B
  8
0
 62
     9
 10
0.0
 20
0.0
 30
0.0
 70
   128
 71
    11
 72
    13
 73
    12
  0
VERTEX
  5
30C
  8
0
 62
     9
 10
0.0
 20
0.0
 30
0.0
 70
   128
 71
    13
 72
    15
 73
    14
  0
VERTEX
  5
30D
  8
0
 62
     9
 10
0.0
 20
0.0
 30
0.0
 70
   128
 71
    15
 72
    17
 73
    16
  0
VERTEX
  5
30E
  8
0
 62
     9
 10
0.0
 20
0.0
 30
0.0
 70
   128
 71
    17
 72
     2
 73
     3
  0
VERTEX
  5
30F
  8
0
 62
     9
 10
0.0
 20
0.0
 30
0.0
 70
   128
 71
     3
 72
    16
 73
    17
  0
VERTEX
  5
310
  8
0
 62
     9
 10
0.0
 20
0.0
 30
0.0
 70
   128
 71
    16
 72
    14
 73
    15
  0
VERTEX
  5
311
  8
0
 62
     9
 10
0.0
 20
0.0
 30
0.0
 70
   128
 71
    14
 72
    12
 73
    13
  0
VERTEX
  5
312
  8
0
 62
     9
 10
0.0
 20
0.0
 30
0.0
 70
   128
 71
    12
 72
    10
 73
    11
  0
VERTEX
  5
313
  8
0
 62
     9
 10
0.0
 20
0.0
 30
0.0
 70
   128
 71
    10
 72
    18
 73
     8
  0
VERTEX
  5
314
  8
0
 62
     9
 10
0.0
 20
0.0
 30
0.0
 70
   128
 71
     8
 72
    18
 73
     9
  0
VERTEX
  5
315
  8
0
 62
     9
 10
0.0
 20
0.0
 30
0.0
 70
   128
 71
     6
 72
     9
 73
     7
  0
VERTEX
  5
316
  8
0
 62
     9
 10
0.0
 20
0.0
 30
0.0
 70
   128
 71
     4
 72
     7
 73
     5
  0
VERTEX
  5
317
  8
0
 62
     9
 10
0.0
 20
0.0
 30
0.0
 70
   128
 71
     1
 72
     5
 73
     3
  0
SEQEND
  5
318
  8
0
 62
     9
  0
ENDBLK
  5
31B
  8
0
  0
BLOCK
  8
0
  2
E3_NODE_25_
 70
     0
 10
0.0
 20
0.0
 30
0.0
  3
E3_NODE_25_
  1

  0
POLYLINE
  5
31D
  8
0
 62
     9
 66
     1
 10
0.0
 20
0.0
 30
0.0
 70
    64
 71
    17
 72
    17
  0
VERTEX
  5
31E
  8
0
 10
9.406000137329102
 20
-325.8420104980469
 30
3.0
 70
   192
  0
VERTEX
  5
31F
  8
0
 10
23.81599998474121
 20
-313.75
 30
3.0
 70
   192
  0
VERTEX
  5
320
  8
0
 10
15.90999984741211
 20
-315.9100036621094
 30
3.0
 70
   192
  0
VERTEX
  5
321
  8
0
 10
-27.08200073242188
 20
-295.2250061035156
 30
3.0
 70
   192
  0
VERTEX
  5
322
  8
0
 10
-22.5
 20
-300.0
 30
3.0
 70
   192
  0
VERTEX
  5
323
  8
0
 10
-15.90999984741211
 20
-284.0899963378906
 30
3.0
 70
   192
  0
VERTEX
  5
324
  8
0
 10
-23.81599998474121
 20
-313.75
 30
3.0
 70
   192
  0
VERTEX
  5
325
  8
0
 10
-15.90999984741211
 20
-315.9100036621094
 30
3.0
 70
   192
  0
VERTEX
  5
326
  8
0
 10
0.0
 20
-322.5
 30
3.0
 70
   192
  0
VERTEX
  5
327
  8
0
 10
27.08200073242188
 20
-295.2250061035156
 30
3.0
 70
   192
  0
VERTEX
  5
328
  8
0
 10
22.5
 20
-300.0
 30
3.0
 70
   192
  0
VERTEX
  5
329
  8
0
 10
17.67700004577637
 20
-278.9339904785156
 30
3.0
 70
   192
  0
VERTEX
  5
32A
  8
0
 10
15.90999984741211
 20
-284.0899963378906
 30
3.0
 70
   192
  0
VERTEX
  5
32B
  8
0
 10
0.0
 20
-272.5
 30
3.0
 70
   192
  0
VERTEX
  5
32C
  8
0
 10
0.0
 20
-277.5
 30
3.0
 70
   192
  0
VERTEX
  5
32D
  8
0
 10
-9.406000137329102
 20
-325.8420104980469
 30
3.0
 70
   192
  0
VERTEX
  5
32E
  8
0
 10
-17.67700004577637
 20
-278.9339904785156
 30
3.0
 70
   192
  0
VERTEX
  5
32F
  8
0
 62
     9
 10
0.0
 20
0.0
 30
0.0
 70
   128
 71
     3
 72
     2
 73
     1
  0
VERTEX
  5
330
  8
0
 62
     9
 10
0.0
 20
0.0
 30
0.0
 70
   128
 71
     6
 72
     5
 73
     4
  0
VERTEX
  5
331
  8
0
 62
     9
 10
0.0
 20
0.0
 30
0.0
 70
   128
 71
     5
 72
     8
 73
     7
  0
VERTEX
  5
332
  8
0
 62
     9
 10
0.0
 20
0.0
 30
0.0
 70
   128
 71
     1
 72
     9
 73
     3
  0
VERTEX
  5
333
  8
0
 62
     9
 10
0.0
 20
0.0
 30
0.0
 70
   128
 71
    11
 72
    10
 73
     2
  0
VERTEX
  5
334
  8
0
 62
     9
 10
0.0
 20
0.0
 30
0.0
 70
   128
 71
    13
 72
    12
 73
    10
  0
VERTEX
  5
335
  8
0
 62
     9
 10
0.0
 20
0.0
 30
0.0
 70
   128
 71
    15
 72
    14
 73
    12
  0
VERTEX
  5
336
  8
0
 62
     9
 10
0.0
 20
0.0
 30
0.0
 70
   128
 71
     7
 72
     4
 73
     5
  0
VERTEX
  5
337
  8
0
 62
     9
 10
0.0
 20
0.0
 30
0.0
 70
   128
 71
     8
 72
     9
 73
    16
  0
VERTEX
  5
338
  8
0
 62
     9
 10
0.0
 20
0.0
 30
0.0
 70
   128
 71
     2
 72
     3
 73
    11
  0
VERTEX
  5
339
  8
0
 62
     9
 10
0.0
 20
0.0
 30
0.0
 70
   128
 71
    12
 72
    13
 73
    15
  0
VERTEX
  5
33A
  8
0
 62
     9
 10
0.0
 20
0.0
 30
0.0
 70
   128
 71
    15
 72
     6
 73
    17
  0
VERTEX
  5
33B
  8
0
 62
     9
 10
0.0
 20
0.0
 30
0.0
 70
   128
 71
    16
 72
     7
 73
     8
  0
VERTEX
  5
33C
  8
0
 62
     9
 10
0.0
 20
0.0
 30
0.0
 70
   128
 71
    10
 72
    11
 73
    13
  0
VERTEX
  5
33D
  8
0
 62
     9
 10
0.0
 20
0.0
 30
0.0
 70
   128
 71
     4
 72
    17
 73
     6
  0
VERTEX
  5
33E
  8
0
 62
     9
 10
0.0
 20
0.0
 30
0.0
 70
   128
 71
    17
 72
    14
 73
    15
  0
VERTEX
  5
33F
  8
0
 62
     9
 10
0.0
 20
0.0
 30
0.0
 70
   128
 71
     1
 72
    16
 73
     9
  0
SEQEND
  5
340
  8
0
 62
     9
  0
ENDBLK
  5
343
  8
0
  0
BLOCK
  8
0
  2
E3_NODE_26_
 70
     0
 10
0.0
 20
0.0
 30
0.0
  3
E3_NODE_26_
  1

  0
POLYLINE
  5
345
  8
0
 62
     9
 66
     1
 10
0.0
 20
0.0
 30
0.0
 70
    64
 71
    16
 72
    16
  0
VERTEX
  5
346
  8
0
 10
15.90999984741211
 20
-284.0899963378906
 30
3.0
 70
   192
  0
VERTEX
  5
347
  8
0
 10
0.0
 20
-277.5
 30
3.0
 70
   192
  0
VERTEX
  5
348
  8
0
 10
0.0
 20
-277.5
 30
7.0
 70
   192
  0
VERTEX
  5
349
  8
0
 10
22.5
 20
-300.0
 30
3.0
 70
   192
  0
VERTEX
  5
34A
  8
0
 10
15.90999984741211
 20
-284.0899963378906
 30
7.0
 70
   192
  0
VERTEX
  5
34B
  8
0
 10
15.90999984741211
 20
-315.9100036621094
 30
3.0
 70
   192
  0
VERTEX
  5
34C
  8
0
 10
22.5
 20
-300.0
 30
7.0
 70
   192
  0
VERTEX
  5
34D
  8
0
 10
0.0
 20
-322.5
 30
3.0
 70
   192
  0
VERTEX
  5
34E
  8
0
 10
15.90999984741211
 20
-315.9100036621094
 30
7.0
 70
   192
  0
VERTEX
  5
34F
  8
0
 10
-15.90999984741211
 20
-315.9100036621094
 30
7.0
 70
   192
  0
VERTEX
  5
350
  8
0
 10
-15.90999984741211
 20
-315.9100036621094
 30
3.0
 70
   192
  0
VERTEX
  5
351
  8
0
 10
-22.5
 20
-300.0
 30
7.0
 70
   192
  0
VERTEX
  5
352
  8
0
 10
-22.5
 20
-300.0
 30
3.0
 70
   192
  0
VERTEX
  5
353
  8
0
 10
-15.90999984741211
 20
-284.0899963378906
 30
7.0
 70
   192
  0
VERTEX
  5
354
  8
0
 10
-15.90999984741211
 20
-284.0899963378906
 30
3.0
 70
   192
  0
VERTEX
  5
355
  8
0
 10
0.0
 20
-322.5
 30
7.0
 70
   192
  0
VERTEX
  5
356
  8
0
 62
     9
 10
0.0
 20
0.0
 30
0.0
 70
   128
 71
     3
 72
     2
 73
     1
  0
VERTEX
  5
357
  8
0
 62
     9
 10
0.0
 20
0.0
 30
0.0
 70
   128
 71
     5
 72
     1
 73
     4
  0
VERTEX
  5
358
  8
0
 62
     9
 10
0.0
 20
0.0
 30
0.0
 70
   128
 71
     7
 72
     4
 73
     6
  0
VERTEX
  5
359
  8
0
 62
     9
 10
0.0
 20
0.0
 30
0.0
 70
   128
 71
     9
 72
     6
 73
     8
  0
VERTEX
  5
35A
  8
0
 62
     9
 10
0.0
 20
0.0
 30
0.0
 70
   128
 71
     8
 72
    11
 73
    10
  0
VERTEX
  5
35B
  8
0
 62
     9
 10
0.0
 20
0.0
 30
0.0
 70
   128
 71
    11
 72
    13
 73
    12
  0
VERTEX
  5
35C
  8
0
 62
     9
 10
0.0
 20
0.0
 30
0.0
 70
   128
 71
    13
 72
    15
 73
    14
  0
VERTEX
  5
35D
  8
0
 62
     9
 10
0.0
 20
0.0
 30
0.0
 70
   128
 71
    15
 72
     2
 73
     3
  0
VERTEX
  5
35E
  8
0
 62
     9
 10
0.0
 20
0.0
 30
0.0
 70
   128
 71
     3
 72
    14
 73
    15
  0
VERTEX
  5
35F
  8
0
 62
     9
 10
0.0
 20
0.0
 30
0.0
 70
   128
 71
    14
 72
    12
 73
    13
  0
VERTEX
  5
360
  8
0
 62
     9
 10
0.0
 20
0.0
 30
0.0
 70
   128
 71
    12
 72
    10
 73
    11
  0
VERTEX
  5
361
  8
0
 62
     9
 10
0.0
 20
0.0
 30
0.0
 70
   128
 71
    10
 72
    16
 73
     8
  0
VERTEX
  5
362
  8
0
 62
     9
 10
0.0
 20
0.0
 30
0.0
 70
   128
 71
     8
 72
    16
 73
     9
  0
VERTEX
  5
363
  8
0
 62
     9
 10
0.0
 20
0.0
 30
0.0
 70
   128
 71
     6
 72
     9
 73
     7
  0
VERTEX
  5
364
  8
0
 62
     9
 10
0.0
 20
0.0
 30
0.0
 70
   128
 71
     4
 72
     7
 73
     5
  0
VERTEX
  5
365
  8
0
 62
     9
 10
0.0
 20
0.0
 30
0.0
 70
   128
 71
     1
 72
     5
 73
     3
  0
SEQEND
  5
366
  8
0
 62
     9
  0
ENDBLK
  5
369
  8
0
  0
BLOCK
  8
0
  2
E3_NODE_27_
 70
     0
 10
0.0
 20
0.0
 30
0.0
  3
E3_NODE_27_
  1

  0
POLYLINE
  5
36B
  8
0
 62
     9
 66
     1
 10
0.0
 20
0.0
 30
0.0
 70
    64
 71
    16
 72
    16
  0
VERTEX
  5
36C
  8
0
 10
22.5
 20
-300.0
 30
7.0
 70
   192
  0
VERTEX
  5
36D
  8
0
 10
16.5
 20
-300.0
 30
7.0
 70
   192
  0
VERTEX
  5
36E
  8
0
 10
11.66699981689453
 20
-311.6669921875
 30
7.0
 70
   192
  0
VERTEX
  5
36F
  8
0
 10
-15.90999984741211
 20
-284.0899963378906
 30
7.0
 70
   192
  0
VERTEX
  5
370
  8
0
 10
-11.66699981689453
 20
-288.3330078125
 30
7.0
 70
   192
  0
VERTEX
  5
371
  8
0
 10
0.0
 20
-283.5
 30
7.0
 70
   192
  0
VERTEX
  5
372
  8
0
 10
-22.5
 20
-300.0
 30
7.0
 70
   192
  0
VERTEX
  5
373
  8
0
 10
-16.5
 20
-300.0
 30
7.0
 70
   192
  0
VERTEX
  5
374
  8
0
 10
15.90999984741211
 20
-315.9100036621094
 30
7.0
 70
   192
  0
VERTEX
  5
375
  8
0
 10
15.90999984741211
 20
-284.0899963378906
 30
7.0
 70
   192
  0
VERTEX
  5
376
  8
0
 10
11.66699981689453
 20
-288.3330078125
 30
7.0
 70
   192
  0
VERTEX
  5
377
  8
0
 10
-15.90999984741211
 20
-315.9100036621094
 30
7.0
 70
   192
  0
VERTEX
  5
378
  8
0
 10
-11.66699981689453
 20
-311.6669921875
 30
7.0
 70
   192
  0
VERTEX
  5
379
  8
0
 10
0.0
 20
-277.5
 30
7.0
 70
   192
  0
VERTEX
  5
37A
  8
0
 10
0.0
 20
-322.5
 30
7.0
 70
   192
  0
VERTEX
  5
37B
  8
0
 10
0.0
 20
-316.5
 30
7.0
 70
   192
  0
VERTEX
  5
37C
  8
0
 62
     9
 10
0.0
 20
0.0
 30
0.0
 70
   128
 71
     3
 72
     2
 73
     1
  0
VERTEX
  5
37D
  8
0
 62
     9
 10
0.0
 20
0.0
 30
0.0
 70
   128
 71
     6
 72
     5
 73
     4
  0
VERTEX
  5
37E
  8
0
 62
     9
 10
0.0
 20
0.0
 30
0.0
 70
   128
 71
     5
 72
     8
 73
     7
  0
VERTEX
  5
37F
  8
0
 62
     9
 10
0.0
 20
0.0
 30
0.0
 70
   128
 71
     1
 72
     9
 73
     3
  0
VERTEX
  5
380
  8
0
 62
     9
 10
0.0
 20
0.0
 30
0.0
 70
   128
 71
    11
 72
    10
 73
     1
  0
VERTEX
  5
381
  8
0
 62
     9
 10
0.0
 20
0.0
 30
0.0
 70
   128
 71
     7
 72
     4
 73
     5
  0
VERTEX
  5
382
  8
0
 62
     9
 10
0.0
 20
0.0
 30
0.0
 70
   128
 71
     8
 72
    13
 73
    12
  0
VERTEX
  5
383
  8
0
 62
     9
 10
0.0
 20
0.0
 30
0.0
 70
   128
 71
     1
 72
     2
 73
    11
  0
VERTEX
  5
384
  8
0
 62
     9
 10
0.0
 20
0.0
 30
0.0
 70
   128
 71
    11
 72
     6
 73
    14
  0
VERTEX
  5
385
  8
0
 62
     9
 10
0.0
 20
0.0
 30
0.0
 70
   128
 71
    12
 72
     7
 73
     8
  0
VERTEX
  5
386
  8
0
 62
     9
 10
0.0
 20
0.0
 30
0.0
 70
   128
 71
    13
 72
    16
 73
    15
  0
VERTEX
  5
387
  8
0
 62
     9
 10
0.0
 20
0.0
 30
0.0
 70
   128
 71
    14
 72
    10
 73
    11
  0
VERTEX
  5
388
  8
0
 62
     9
 10
0.0
 20
0.0
 30
0.0
 70
   128
 71
    15
 72
    12
 73
    13
  0
VERTEX
  5
389
  8
0
 62
     9
 10
0.0
 20
0.0
 30
0.0
 70
   128
 71
     4
 72
    14
 73
     6
  0
VERTEX
  5
38A
  8
0
 62
     9
 10
0.0
 20
0.0
 30
0.0
 70
   128
 71
     9
 72
    16
 73
     3
  0
VERTEX
  5
38B
  8
0
 62
     9
 10
0.0
 20
0.0
 30
0.0
 70
   128
 71
     9
 72
    15
 73
    16
  0
SEQEND
  5
38C
  8
0
 62
     9
  0
ENDBLK
  5
38F
  8
0
  0
BLOCK
  8
0
  2
E3_NODE_28_
 70
     0
 10
0.0
 20
0.0
 30
0.0
  3
E3_NODE_28_
  1

  0
POLYLINE
  5
391
  8
0
 62
     9
 66
     1
 10
0.0
 20
0.0
 30
0.0
 70
    64
 71
     7
 72
     5
  0
VERTEX
  5
392
  8
0
 10
-11.22299957275391
 20
-285.927001953125
 30
42.0
 70
   192
  0
VERTEX
  5
393
  8
0
 10
16.21699905395508
 20
-307.8099975585938
 30
42.0
 70
   192
  0
VERTEX
  5
394
  8
0
 10
16.21699905395508
 20
-292.1900024414062
 30
42.0
 70
   192
  0
VERTEX
  5
395
  8
0
 10
4.005000114440918
 20
-317.5490112304688
 30
42.0
 70
   192
  0
VERTEX
  5
396
  8
0
 10
-18.0
 20
-300.0
 30
42.0
 70
   192
  0
VERTEX
  5
397
  8
0
 10
-11.22299957275391
 20
-314.072998046875
 30
42.0
 70
   192
  0
VERTEX
  5
398
  8
0
 10
4.005000114440918
 20
-282.4509887695312
 30
42.0
 70
   192
  0
VERTEX
  5
399
  8
0
 62
     9
 10
0.0
 20
0.0
 30
0.0
 70
   128
 71
     3
 72
     2
 73
     1
  0
VERTEX
  5
39A
  8
0
 62
     9
 10
0.0
 20
0.0
 30
0.0
 70
   128
 71
     2
 72
     4
 73
     1
  0
VERTEX
  5
39B
  8
0
 62
     9
 10
0.0
 20
0.0
 30
0.0
 70
   128
 71
     6
 72
     5
 73
     1
  0
VERTEX
  5
39C
  8
0
 62
     9
 10
0.0
 20
0.0
 30
0.0
 70
   128
 71
     1
 72
     4
 73
     6
  0
VERTEX
  5
39D
  8
0
 62
     9
 10
0.0
 20
0.0
 30
0.0
 70
   128
 71
     1
 72
     7
 73
     3
  0
SEQEND
  5
39E
  8
0
 62
     9
  0
ENDBLK
  5
3A1
  8
0
  0
BLOCK
  8
0
  2
E3_NODE_29_
 70
     0
 10
0.0
 20
0.0
 30
0.0
  3
E3_NODE_29_
  1

  0
POLYLINE
  5
3A3
  8
0
 62
     9
 66
     1
 10
0.0
 20
0.0
 30
0.0
 70
    64
 71
    14
 72
    14
  0
VERTEX
  5
3A4
  8
0
 10
-11.22299957275391
 20
-314.072998046875
 30
42.0
 70
   192
  0
VERTEX
  5
3A5
  8
0
 10
-18.0
 20
-300.0
 30
42.0
 70
   192
  0
VERTEX
  5
3A6
  8
0
 10
-18.0
 20
-300.0
 30
7.0
 70
   192
  0
VERTEX
  5
3A7
  8
0
 10
-11.22299957275391
 20
-314.072998046875
 30
7.0
 70
   192
  0
VERTEX
  5
3A8
  8
0
 10
4.005000114440918
 20
-317.5490112304688
 30
7.0
 70
   192
  0
VERTEX
  5
3A9
  8
0
 10
4.005000114440918
 20
-317.5490112304688
 30
42.0
 70
   192
  0
VERTEX
  5
3AA
  8
0
 10
16.21699905395508
 20
-307.8099975585938
 30
7.0
 70
   192
  0
VERTEX
  5
3AB
  8
0
 10
16.21699905395508
 20
-307.8099975585938
 30
42.0
 70
   192
  0
VERTEX
  5
3AC
  8
0
 10
16.21699905395508
 20
-292.1900024414062
 30
7.0
 70
   192
  0
VERTEX
  5
3AD
  8
0
 10
16.21699905395508
 20
-292.1900024414062
 30
42.0
 70
   192
  0
VERTEX
  5
3AE
  8
0
 10
4.005000114440918
 20
-282.4509887695312
 30
7.0
 70
   192
  0
VERTEX
  5
3AF
  8
0
 10
4.005000114440918
 20
-282.4509887695312
 30
42.0
 70
   192
  0
VERTEX
  5
3B0
  8
0
 10
-11.22299957275391
 20
-285.927001953125
 30
7.0
 70
   192
  0
VERTEX
  5
3B1
  8
0
 10
-11.22299957275391
 20
-285.927001953125
 30
42.0
 70
   192
  0
VERTEX
  5
3B2
  8
0
 62
     9
 10
0.0
 20
0.0
 30
0.0
 70
   128
 71
     3
 72
     2
 73
     1
  0
VERTEX
  5
3B3
  8
0
 62
     9
 10
0.0
 20
0.0
 30
0.0
 70
   128
 71
     6
 72
     5
 73
     4
  0
VERTEX
  5
3B4
  8
0
 62
     9
 10
0.0
 20
0.0
 30
0.0
 70
   128
 71
     6
 72
     8
 73
     7
  0
VERTEX
  5
3B5
  8
0
 62
     9
 10
0.0
 20
0.0
 30
0.0
 70
   128
 71
     8
 72
    10
 73
     9
  0
VERTEX
  5
3B6
  8
0
 62
     9
 10
0.0
 20
0.0
 30
0.0
 70
   128
 71
    10
 72
    12
 73
    11
  0
VERTEX
  5
3B7
  8
0
 62
     9
 10
0.0
 20
0.0
 30
0.0
 70
   128
 71
    12
 72
    14
 73
    13
  0
VERTEX
  5
3B8
  8
0
 62
     9
 10
0.0
 20
0.0
 30
0.0
 70
   128
 71
    13
 72
    14
 73
     2
  0
VERTEX
  5
3B9
  8
0
 62
     9
 10
0.0
 20
0.0
 30
0.0
 70
   128
 71
     2
 72
     3
 73
    13
  0
VERTEX
  5
3BA
  8
0
 62
     9
 10
0.0
 20
0.0
 30
0.0
 70
   128
 71
    13
 72
    11
 73
    12
  0
VERTEX
  5
3BB
  8
0
 62
     9
 10
0.0
 20
0.0
 30
0.0
 70
   128
 71
    11
 72
     9
 73
    10
  0
VERTEX
  5
3BC
  8
0
 62
     9
 10
0.0
 20
0.0
 30
0.0
 70
   128
 71
     9
 72
     7
 73
     8
  0
VERTEX
  5
3BD
  8
0
 62
     9
 10
0.0
 20
0.0
 30
0.0
 70
   128
 71
     7
 72
     5
 73
     6
  0
VERTEX
  5
3BE
  8
0
 62
     9
 10
0.0
 20
0.0
 30
0.0
 70
   128
 71
     4
 72
     1
 73
     6
  0
VERTEX
  5
3BF
  8
0
 62
     9
 10
0.0
 20
0.0
 30
0.0
 70
   128
 71
     1
 72
     4
 73
     3
  0
SEQEND
  5
3C0
  8
0
 62
     9
  0
ENDBLK
  5
3C3
  8
0
  0
BLOCK
  8
0
  2
E3_NODE_30_
 70
     0
 10
0.0
 20
0.0
 30
0.0
  3
E3_NODE_30_
  1

  0
POLYLINE
  5
3C5
  8
0
 62
     9
 66
     1
 10
0.0
 20
0.0
 30
0.0
 70
    64
 71
    12
 72
    12
  0
VERTEX
  5
3C6
  8
0
 10
-6.5
 20
311.2579956054688
 30
39.38399887084961
 70
   192
  0
VERTEX
  5
3C7
  8
0
 10
-13.0
 20
300.0
 30
39.38399887084961
 70
   192
  0
VERTEX
  5
3C8
  8
0
 10
-13.0
 20
300.0
 30
42.88399887084961
 70
   192
  0
VERTEX
  5
3C9
  8
0
 10
6.5
 20
311.2579956054688
 30
42.88399887084961
 70
   192
  0
VERTEX
  5
3CA
  8
0
 10
6.5
 20
311.2579956054688
 30
39.38399887084961
 70
   192
  0
VERTEX
  5
3CB
  8
0
 10
13.0
 20
300.0
 30
42.88399887084961
 70
   192
  0
VERTEX
  5
3CC
  8
0
 10
13.0
 20
300.0
 30
39.38399887084961
 70
   192
  0
VERTEX
  5
3CD
  8
0
 10
6.5
 20
288.7420043945312
 30
42.88399887084961
 70
   192
  0
VERTEX
  5
3CE
  8
0
 10
6.5
 20
288.7420043945312
 30
39.38399887084961
 70
   192
  0
VERTEX
  5
3CF
  8
0
 10
-6.5
 20
288.7420043945312
 30
39.38399887084961
 70
   192
  0
VERTEX
  5
3D0
  8
0
 10
-6.5
 20
288.7420043945312
 30
42.88399887084961
 70
   192
  0
VERTEX
  5
3D1
  8
0
 10
-6.5
 20
311.2579956054688
 30
42.88399887084961
 70
   192
  0
VERTEX
  5
3D2
  8
0
 62
     9
 10
0.0
 20
0.0
 30
0.0
 70
   128
 71
     3
 72
     2
 73
     1
  0
VERTEX
  5
3D3
  8
0
 62
     9
 10
0.0
 20
0.0
 30
0.0
 70
   128
 71
     1
 72
     5
 73
     4
  0
VERTEX
  5
3D4
  8
0
 62
     9
 10
0.0
 20
0.0
 30
0.0
 70
   128
 71
     5
 72
     7
 73
     6
  0
VERTEX
  5
3D5
  8
0
 62
     9
 10
0.0
 20
0.0
 30
0.0
 70
   128
 71
     7
 72
     9
 73
     8
  0
VERTEX
  5
3D6
  8
0
 62
     9
 10
0.0
 20
0.0
 30
0.0
 70
   128
 71
     8
 72
     9
 73
    10
  0
VERTEX
  5
3D7
  8
0
 62
     9
 10
0.0
 20
0.0
 30
0.0
 70
   128
 71
    11
 72
    10
 73
     2
  0
VERTEX
  5
3D8
  8
0
 62
     9
 10
0.0
 20
0.0
 30
0.0
 70
   128
 71
     2
 72
     3
 73
    11
  0
VERTEX
  5
3D9
  8
0
 62
     9
 10
0.0
 20
0.0
 30
0.0
 70
   128
 71
    10
 72
    11
 73
     8
  0
VERTEX
  5
3DA
  8
0
 62
     9
 10
0.0
 20
0.0
 30
0.0
 70
   128
 71
     8
 72
     6
 73
     7
  0
VERTEX
  5
3DB
  8
0
 62
     9
 10
0.0
 20
0.0
 30
0.0
 70
   128
 71
     6
 72
     4
 73
     5
  0
VERTEX
  5
3DC
  8
0
 62
     9
 10
0.0
 20
0.0
 30
0.0
 70
   128
 71
     4
 72
    12
 73
     1
  0
VERTEX
  5
3DD
  8
0
 62
     9
 10
0.0
 20
0.0
 30
0.0
 70
   128
 71
     1
 72
    12
 73
     3
  0
SEQEND
  5
3DE
  8
0
 62
     9
  0
ENDBLK
  5
3E1
  8
0
  0
BLOCK
  8
0
  2
E3_NODE_31_
 70
     0
 10
0.0
 20
0.0
 30
0.0
  3
E3_NODE_31_
  1

  0
POLYLINE
  5
3E3
  8
0
 62
     9
 66
     1
 10
0.0
 20
0.0
 30
0.0
 70
    64
 71
    10
 72
    10
  0
VERTEX
  5
3E4
  8
0
 10
-6.5
 20
311.2579956054688
 30
42.88399887084961
 70
   192
  0
VERTEX
  5
3E5
  8
0
 10
-13.0
 20
300.0
 30
42.88399887084961
 70
   192
  0
VERTEX
  5
3E6
  8
0
 10
-5.5
 20
300.0
 30
42.88399887084961
 70
   192
  0
VERTEX
  5
3E7
  8
0
 10
-6.5
 20
288.7420043945312
 30
42.88399887084961
 70
   192
  0
VERTEX
  5
3E8
  8
0
 10
0.0
 20
294.5
 30
42.88399887084961
 70
   192
  0
VERTEX
  5
3E9
  8
0
 10
6.5
 20
288.7420043945312
 30
42.88399887084961
 70
   192
  0
VERTEX
  5
3EA
  8
0
 10
13.0
 20
300.0
 30
42.88399887084961
 70
   192
  0
VERTEX
  5
3EB
  8
0
 10
5.5
 20
300.0
 30
42.88399887084961
 70
   192
  0
VERTEX
  5
3EC
  8
0
 10
6.5
 20
311.2579956054688
 30
42.88399887084961
 70
   192
  0
VERTEX
  5
3ED
  8
0
 10
0.0
 20
305.5
 30
42.88399887084961
 70
   192
  0
VERTEX
  5
3EE
  8
0
 62
     9
 10
0.0
 20
0.0
 30
0.0
 70
   128
 71
     3
 72
     2
 73
     1
  0
VERTEX
  5
3EF
  8
0
 62
     9
 10
0.0
 20
0.0
 30
0.0
 70
   128
 71
     3
 72
     5
 73
     4
  0
VERTEX
  5
3F0
  8
0
 62
     9
 10
0.0
 20
0.0
 30
0.0
 70
   128
 71
     8
 72
     7
 73
     6
  0
VERTEX
  5
3F1
  8
0
 62
     9
 10
0.0
 20
0.0
 30
0.0
 70
   128
 71
     8
 72
    10
 73
     9
  0
VERTEX
  5
3F2
  8
0
 62
     9
 10
0.0
 20
0.0
 30
0.0
 70
   128
 71
     4
 72
     2
 73
     3
  0
VERTEX
  5
3F3
  8
0
 62
     9
 10
0.0
 20
0.0
 30
0.0
 70
   128
 71
     6
 72
     5
 73
     8
  0
VERTEX
  5
3F4
  8
0
 62
     9
 10
0.0
 20
0.0
 30
0.0
 70
   128
 71
    10
 72
     1
 73
     9
  0
VERTEX
  5
3F5
  8
0
 62
     9
 10
0.0
 20
0.0
 30
0.0
 70
   128
 71
     6
 72
     4
 73
     5
  0
VERTEX
  5
3F6
  8
0
 62
     9
 10
0.0
 20
0.0
 30
0.0
 70
   128
 71
     1
 72
    10
 73
     3
  0
VERTEX
  5
3F7
  8
0
 62
     9
 10
0.0
 20
0.0
 30
0.0
 70
   128
 71
     9
 72
     7
 73
     8
  0
SEQEND
  5
3F8
  8
0
 62
     9
  0
ENDBLK
  5
3FB
  8
0
  0
BLOCK
  8
0
  2
E3_NODE_32_
 70
     0
 10
0.0
 20
0.0
 30
0.0
  3
E3_NODE_32_
  1

  0
POLYLINE
  5
3FD
  8
0
 62
     9
 66
     1
 10
0.0
 20
0.0
 30
0.0
 70
    64
 71
     8
 72
     8
  0
VERTEX
  5
3FE
  8
0
 10
0.0
 20
305.5
 30
55.33399963378906
 70
   192
  0
VERTEX
  5
3FF
  8
0
 10
0.0
 20
305.5
 30
42.88399887084961
 70
   192
  0
VERTEX
  5
400
  8
0
 10
-5.5
 20
300.0
 30
42.88399887084961
 70
   192
  0
VERTEX
  5
401
  8
0
 10
5.5
 20
300.0
 30
42.88399887084961
 70
   192
  0
VERTEX
  5
402
  8
0
 10
0.0
 20
294.5
 30
42.88399887084961
 70
   192
  0
VERTEX
  5
403
  8
0
 10
5.5
 20
300.0
 30
55.33399963378906
 70
   192
  0
VERTEX
  5
404
  8
0
 10
-5.5
 20
300.0
 30
55.33399963378906
 70
   192
  0
VERTEX
  5
405
  8
0
 10
0.0
 20
294.5
 30
55.33399963378906
 70
   192
  0
VERTEX
  5
406
  8
0
 62
     9
 10
0.0
 20
0.0
 30
0.0
 70
   128
 71
     3
 72
     2
 73
     1
  0
VERTEX
  5
407
  8
0
 62
     9
 10
0.0
 20
0.0
 30
0.0
 70
   128
 71
     1
 72
     2
 73
     4
  0
VERTEX
  5
408
  8
0
 62
     9
 10
0.0
 20
0.0
 30
0.0
 70
   128
 71
     6
 72
     4
 73
     5
  0
VERTEX
  5
409
  8
0
 62
     9
 10
0.0
 20
0.0
 30
0.0
 70
   128
 71
     5
 72
     3
 73
     7
  0
VERTEX
  5
40A
  8
0
 62
     9
 10
0.0
 20
0.0
 30
0.0
 70
   128
 71
     7
 72
     8
 73
     5
  0
VERTEX
  5
40B
  8
0
 62
     9
 10
0.0
 20
0.0
 30
0.0
 70
   128
 71
     5
 72
     8
 73
     6
  0
VERTEX
  5
40C
  8
0
 62
     9
 10
0.0
 20
0.0
 30
0.0
 70
   128
 71
     4
 72
     6
 73
     1
  0
VERTEX
  5
40D
  8
0
 62
     9
 10
0.0
 20
0.0
 30
0.0
 70
   128
 71
     1
 72
     7
 73
     3
  0
SEQEND
  5
40E
  8
0
 62
     9
  0
ENDBLK
  5
411
  8
0
  0
BLOCK
  8
0
  2
E3_NODE_33_
 70
     0
 10
0.0
 20
0.0
 30
0.0
  3
E3_NODE_33_
  1

  0
POLYLINE
  5
413
  8
0
 62
     9
 66
     1
 10
0.0
 20
0.0
 30
0.0
 70
    64
 71
     8
 72
     8
  0
VERTEX
  5
414
  8
0
 10
-5.5
 20
300.0
 30
55.33399963378906
 70
   192
  0
VERTEX
  5
415
  8
0
 10
-4.949999809265137
 20
300.0
 30
55.88399887084961
 70
   192
  0
VERTEX
  5
416
  8
0
 10
0.0
 20
304.9500122070312
 30
55.88399887084961
 70
   192
  0
VERTEX
  5
417
  8
0
 10
0.0
 20
305.5
 30
55.33399963378906
 70
   192
  0
VERTEX
  5
418
  8
0
 10
4.949999809265137
 20
300.0
 30
55.88399887084961
 70
   192
  0
VERTEX
  5
419
  8
0
 10
0.0
 20
294.5
 30
55.33399963378906
 70
   192
  0
VERTEX
  5
41A
  8
0
 10
5.5
 20
300.0
 30
55.33399963378906
 70
   192
  0
VERTEX
  5
41B
  8
0
 10
0.0
 20
295.0499877929688
 30
55.88399887084961
 70
   192
  0
VERTEX
  5
41C
  8
0
 62
     9
 10
0.0
 20
0.0
 30
0.0
 70
   128
 71
     3
 72
     2
 73
     1
  0
VERTEX
  5
41D
  8
0
 62
     9
 10
0.0
 20
0.0
 30
0.0
 70
   128
 71
     5
 72
     3
 73
     4
  0
VERTEX
  5
41E
  8
0
 62
     9
 10
0.0
 20
0.0
 30
0.0
 70
   128
 71
     5
 72
     7
 73
     6
  0
VERTEX
  5
41F
  8
0
 62
     9
 10
0.0
 20
0.0
 30
0.0
 70
   128
 71
     8
 72
     6
 73
     1
  0
VERTEX
  5
420
  8
0
 62
     9
 10
0.0
 20
0.0
 30
0.0
 70
   128
 71
     1
 72
     2
 73
     8
  0
VERTEX
  5
421
  8
0
 62
     9
 10
0.0
 20
0.0
 30
0.0
 70
   128
 71
     6
 72
     8
 73
     5
  0
VERTEX
  5
422
  8
0
 62
     9
 10
0.0
 20
0.0
 30
0.0
 70
   128
 71
     4
 72
     7
 73
     5
  0
VERTEX
  5
423
  8
0
 62
     9
 10
0.0
 20
0.0
 30
0.0
 70
   128
 71
     1
 72
     4
 73
     3
  0
SEQEND
  5
424
  8
0
 62
     9
  0
ENDBLK
  5
427
  8
0
  0
BLOCK
  8
0
  2
E3_NODE_34_
 70
     0
 10
0.0
 20
0.0
 30
0.0
  3
E3_NODE_34_
  1

  0
POLYLINE
  5
429
  8
0
 62
     9
 66
     1
 10
0.0
 20
0.0
 30
0.0
 70
    64
 71
     8
 72
     8
  0
VERTEX
  5
42A
  8
0
 10
0.0
 20
304.9500122070312
 30
58.98400115966797
 70
   192
  0
VERTEX
  5
42B
  8
0
 10
0.0
 20
304.9500122070312
 30
55.88399887084961
 70
   192
  0
VERTEX
  5
42C
  8
0
 10
-4.949999809265137
 20
300.0
 30
55.88399887084961
 70
   192
  0
VERTEX
  5
42D
  8
0
 10
4.949999809265137
 20
300.0
 30
55.88399887084961
 70
   192
  0
VERTEX
  5
42E
  8
0
 10
0.0
 20
295.0499877929688
 30
55.88399887084961
 70
   192
  0
VERTEX
  5
42F
  8
0
 10
4.949999809265137
 20
300.0
 30
58.98400115966797
 70
   192
  0
VERTEX
  5
430
  8
0
 10
-4.949999809265137
 20
300.0
 30
58.98400115966797
 70
   192
  0
VERTEX
  5
431
  8
0
 10
0.0
 20
295.0499877929688
 30
58.98400115966797
 70
   192
  0
VERTEX
  5
432
  8
0
 62
     9
 10
0.0
 20
0.0
 30
0.0
 70
   128
 71
     3
 72
     2
 73
     1
  0
VERTEX
  5
433
  8
0
 62
     9
 10
0.0
 20
0.0
 30
0.0
 70
   128
 71
     1
 72
     2
 73
     4
  0
VERTEX
  5
434
  8
0
 62
     9
 10
0.0
 20
0.0
 30
0.0
 70
   128
 71
     6
 72
     4
 73
     5
  0
VERTEX
  5
435
  8
0
 62
     9
 10
0.0
 20
0.0
 30
0.0
 70
   128
 71
     5
 72
     3
 73
     7
  0
VERTEX
  5
436
  8
0
 62
     9
 10
0.0
 20
0.0
 30
0.0
 70
   128
 71
     7
 72
     8
 73
     5
  0
VERTEX
  5
437
  8
0
 62
     9
 10
0.0
 20
0.0
 30
0.0
 70
   128
 71
     5
 72
     8
 73
     6
  0
VERTEX
  5
438
  8
0
 62
     9
 10
0.0
 20
0.0
 30
0.0
 70
   128
 71
     4
 72
     6
 73
     1
  0
VERTEX
  5
439
  8
0
 62
     9
 10
0.0
 20
0.0
 30
0.0
 70
   128
 71
     1
 72
     7
 73
     3
  0
SEQEND
  5
43A
  8
0
 62
     9
  0
ENDBLK
  5
43D
  8
0
  0
BLOCK
  8
0
  2
E3_NODE_35_
 70
     0
 10
0.0
 20
0.0
 30
0.0
  3
E3_NODE_35_
  1

  0
POLYLINE
  5
43F
  8
0
 62
     9
 66
     1
 10
0.0
 20
0.0
 30
0.0
 70
    64
 71
     8
 72
     8
  0
VERTEX
  5
440
  8
0
 10
5.5
 20
300.0
 30
59.53400039672852
 70
   192
  0
VERTEX
  5
441
  8
0
 10
4.949999809265137
 20
300.0
 30
58.98400115966797
 70
   192
  0
VERTEX
  5
442
  8
0
 10
0.0
 20
304.9500122070312
 30
58.98400115966797
 70
   192
  0
VERTEX
  5
443
  8
0
 10
0.0
 20
305.5
 30
59.53400039672852
 70
   192
  0
VERTEX
  5
444
  8
0
 10
-4.949999809265137
 20
300.0
 30
58.98400115966797
 70
   192
  0
VERTEX
  5
445
  8
0
 10
0.0
 20
294.5
 30
59.53400039672852
 70
   192
  0
VERTEX
  5
446
  8
0
 10
-5.5
 20
300.0
 30
59.53400039672852
 70
   192
  0
VERTEX
  5
447
  8
0
 10
0.0
 20
295.0499877929688
 30
58.98400115966797
 70
   192
  0
VERTEX
  5
448
  8
0
 62
     9
 10
0.0
 20
0.0
 30
0.0
 70
   128
 71
     3
 72
     2
 73
     1
  0
VERTEX
  5
449
  8
0
 62
     9
 10
0.0
 20
0.0
 30
0.0
 70
   128
 71
     5
 72
     3
 73
     4
  0
VERTEX
  5
44A
  8
0
 62
     9
 10
0.0
 20
0.0
 30
0.0
 70
   128
 71
     5
 72
     7
 73
     6
  0
VERTEX
  5
44B
  8
0
 62
     9
 10
0.0
 20
0.0
 30
0.0
 70
   128
 71
     8
 72
     6
 73
     1
  0
VERTEX
  5
44C
  8
0
 62
     9
 10
0.0
 20
0.0
 30
0.0
 70
   128
 71
     1
 72
     2
 73
     8
  0
VERTEX
  5
44D
  8
0
 62
     9
 10
0.0
 20
0.0
 30
0.0
 70
   128
 71
     6
 72
     8
 73
     5
  0
VERTEX
  5
44E
  8
0
 62
     9
 10
0.0
 20
0.0
 30
0.0
 70
   128
 71
     4
 72
     7
 73
     5
  0
VERTEX
  5
44F
  8
0
 62
     9
 10
0.0
 20
0.0
 30
0.0
 70
   128
 71
     1
 72
     4
 73
     3
  0
SEQEND
  5
450
  8
0
 62
     9
  0
ENDBLK
  5
453
  8
0
  0
BLOCK
  8
0
  2
E3_NODE_36_
 70
     0
 10
0.0
 20
0.0
 30
0.0
  3
E3_NODE_36_
  1

  0
POLYLINE
  5
455
  8
0
 62
     9
 66
     1
 10
0.0
 20
0.0
 30
0.0
 70
    64
 71
     8
 72
     8
  0
VERTEX
  5
456
  8
0
 10
0.0
 20
305.5
 30
61.38399887084961
 70
   192
  0
VERTEX
  5
457
  8
0
 10
0.0
 20
305.5
 30
59.53400039672852
 70
   192
  0
VERTEX
  5
458
  8
0
 10
-5.5
 20
300.0
 30
59.53400039672852
 70
   192
  0
VERTEX
  5
459
  8
0
 10
5.5
 20
300.0
 30
59.53400039672852
 70
   192
  0
VERTEX
  5
45A
  8
0
 10
0.0
 20
294.5
 30
59.53400039672852
 70
   192
  0
VERTEX
  5
45B
  8
0
 10
5.5
 20
300.0
 30
61.38399887084961
 70
   192
  0
VERTEX
  5
45C
  8
0
 10
-5.5
 20
300.0
 30
61.38399887084961
 70
   192
  0
VERTEX
  5
45D
  8
0
 10
0.0
 20
294.5
 30
61.38399887084961
 70
   192
  0
VERTEX
  5
45E
  8
0
 62
     9
 10
0.0
 20
0.0
 30
0.0
 70
   128
 71
     3
 72
     2
 73
     1
  0
VERTEX
  5
45F
  8
0
 62
     9
 10
0.0
 20
0.0
 30
0.0
 70
   128
 71
     1
 72
     2
 73
     4
  0
VERTEX
  5
460
  8
0
 62
     9
 10
0.0
 20
0.0
 30
0.0
 70
   128
 71
     6
 72
     4
 73
     5
  0
VERTEX
  5
461
  8
0
 62
     9
 10
0.0
 20
0.0
 30
0.0
 70
   128
 71
     5
 72
     3
 73
     7
  0
VERTEX
  5
462
  8
0
 62
     9
 10
0.0
 20
0.0
 30
0.0
 70
   128
 71
     7
 72
     8
 73
     5
  0
VERTEX
  5
463
  8
0
 62
     9
 10
0.0
 20
0.0
 30
0.0
 70
   128
 71
     5
 72
     8
 73
     6
  0
VERTEX
  5
464
  8
0
 62
     9
 10
0.0
 20
0.0
 30
0.0
 70
   128
 71
     4
 72
     6
 73
     1
  0
VERTEX
  5
465
  8
0
 62
     9
 10
0.0
 20
0.0
 30
0.0
 70
   128
 71
     1
 72
     7
 73
     3
  0
SEQEND
  5
466
  8
0
 62
     9
  0
ENDBLK
  5
469
  8
0
  0
BLOCK
  8
0
  2
E3_NODE_37_
 70
     0
 10
0.0
 20
0.0
 30
0.0
  3
E3_NODE_37_
  1

  0
POLYLINE
  5
46B
  8
0
 62
     9
 66
     1
 10
0.0
 20
0.0
 30
0.0
 70
    64
 71
     4
 72
     2
  0
VERTEX
  5
46C
  8
0
 10
5.5
 20
300.0
 30
61.38399887084961
 70
   192
  0
VERTEX
  5
46D
  8
0
 10
0.0
 20
305.5
 30
61.38399887084961
 70
   192
  0
VERTEX
  5
46E
  8
0
 10
-5.5
 20
300.0
 30
61.38399887084961
 70
   192
  0
VERTEX
  5
46F
  8
0
 10
0.0
 20
294.5
 30
61.38399887084961
 70
   192
  0
VERTEX
  5
470
  8
0
 62
     9
 10
0.0
 20
0.0
 30
0.0
 70
   128
 71
     3
 72
     2
 73
     1
  0
VERTEX
  5
471
  8
0
 62
     9
 10
0.0
 20
0.0
 30
0.0
 70
   128
 71
     1
 72
     4
 73
     3
  0
SEQEND
  5
472
  8
0
 62
     9
  0
ENDBLK
  5
475
  8
0
  0
BLOCK
  8
0
  2
E3_NODE_38_
 70
     0
 10
0.0
 20
0.0
 30
0.0
  3
E3_NODE_38_
  1

  0
POLYLINE
  5
477
  8
0
 62
     9
 66
     1
 10
0.0
 20
0.0
 30
0.0
 70
    64
 71
    12
 72
    12
  0
VERTEX
  5
478
  8
0
 10
7.5
 20
12.98999977111816
 30
92.0
 70
   192
  0
VERTEX
  5
479
  8
0
 10
7.5
 20
12.98999977111816
 30
99.5
 70
   192
  0
VERTEX
  5
47A
  8
0
 10
15.0
 20
0.0
 30
99.5
 70
   192
  0
VERTEX
  5
47B
  8
0
 10
-7.5
 20
12.98999977111816
 30
92.0
 70
   192
  0
VERTEX
  5
47C
  8
0
 10
-7.5
 20
12.98999977111816
 30
99.5
 70
   192
  0
VERTEX
  5
47D
  8
0
 10
-15.0
 20
0.0
 30
92.0
 70
   192
  0
VERTEX
  5
47E
  8
0
 10
-15.0
 20
0.0
 30
99.5
 70
   192
  0
VERTEX
  5
47F
  8
0
 10
-7.5
 20
-12.98999977111816
 30
92.0
 70
   192
  0
VERTEX
  5
480
  8
0
 10
-7.5
 20
-12.98999977111816
 30
99.5
 70
   192
  0
VERTEX
  5
481
  8
0
 10
7.5
 20
-12.98999977111816
 30
92.0
 70
   192
  0
VERTEX
  5
482
  8
0
 10
7.5
 20
-12.98999977111816
 30
99.5
 70
   192
  0
VERTEX
  5
483
  8
0
 10
15.0
 20
0.0
 30
92.0
 70
   192
  0
VERTEX
  5
484
  8
0
 62
     9
 10
0.0
 20
0.0
 30
0.0
 70
   128
 71
     3
 72
     2
 73
     1
  0
VERTEX
  5
485
  8
0
 62
     9
 10
0.0
 20
0.0
 30
0.0
 70
   128
 71
     2
 72
     5
 73
     4
  0
VERTEX
  5
486
  8
0
 62
     9
 10
0.0
 20
0.0
 30
0.0
 70
   128
 71
     5
 72
     7
 73
     6
  0
VERTEX
  5
487
  8
0
 62
     9
 10
0.0
 20
0.0
 30
0.0
 70
   128
 71
     7
 72
     9
 73
     8
  0
VERTEX
  5
488
  8
0
 62
     9
 10
0.0
 20
0.0
 30
0.0
 70
   128
 71
     9
 72
    11
 73
    10
  0
VERTEX
  5
489
  8
0
 62
     9
 10
0.0
 20
0.0
 30
0.0
 70
   128
 71
    11
 72
     3
 73
    12
  0
VERTEX
  5
48A
  8
0
 62
     9
 10
0.0
 20
0.0
 30
0.0
 70
   128
 71
    12
 72
    10
 73
    11
  0
VERTEX
  5
48B
  8
0
 62
     9
 10
0.0
 20
0.0
 30
0.0
 70
   128
 71
    10
 72
     8
 73
     9
  0
VERTEX
  5
48C
  8
0
 62
     9
 10
0.0
 20
0.0
 30
0.0
 70
   128
 71
     8
 72
     6
 73
     7
  0
VERTEX
  5
48D
  8
0
 62
     9
 10
0.0
 20
0.0
 30
0.0
 70
   128
 71
     6
 72
     4
 73
     5
  0
VERTEX
  5
48E
  8
0
 62
     9
 10
0.0
 20
0.0
 30
0.0
 70
   128
 71
     4
 72
     1
 73
     2
  0
VERTEX
  5
48F
  8
0
 62
     9
 10
0.0
 20
0.0
 30
0.0
 70
   128
 71
     1
 72
    12
 73
     3
  0
SEQEND
  5
490
  8
0
 62
     9
  0
ENDBLK
  5
493
  8
0
  0
BLOCK
  8
0
  2
E3_NODE_39_
 70
     0
 10
0.0
 20
0.0
 30
0.0
  3
E3_NODE_39_
  1

  0
POLYLINE
  5
495
  8
0
 62
     9
 66
     1
 10
0.0
 20
0.0
 30
0.0
 70
    64
 71
    12
 72
    12
  0
VERTEX
  5
496
  8
0
 10
7.5
 20
12.98999977111816
 30
99.5
 70
   192
  0
VERTEX
  5
497
  8
0
 10
5.75
 20
9.958999633789062
 30
99.5
 70
   192
  0
VERTEX
  5
498
  8
0
 10
11.5
 20
0.0
 30
99.5
 70
   192
  0
VERTEX
  5
499
  8
0
 10
-7.5
 20
12.98999977111816
 30
99.5
 70
   192
  0
VERTEX
  5
49A
  8
0
 10
-5.75
 20
9.958999633789062
 30
99.5
 70
   192
  0
VERTEX
  5
49B
  8
0
 10
-15.0
 20
0.0
 30
99.5
 70
   192
  0
VERTEX
  5
49C
  8
0
 10
-11.5
 20
0.0
 30
99.5
 70
   192
  0
VERTEX
  5
49D
  8
0
 10
-7.5
 20
-12.98999977111816
 30
99.5
 70
   192
  0
VERTEX
  5
49E
  8
0
 10
-5.75
 20
-9.958999633789062
 30
99.5
 70
   192
  0
VERTEX
  5
49F
  8
0
 10
7.5
 20
-12.98999977111816
 30
99.5
 70
   192
  0
VERTEX
  5
4A0
  8
0
 10
5.75
 20
-9.958999633789062
 30
99.5
 70
   192
  0
VERTEX
  5
4A1
  8
0
 10
15.0
 20
0.0
 30
99.5
 70
   192
  0
VERTEX
  5
4A2
  8
0
 62
     9
 10
0.0
 20
0.0
 30
0.0
 70
   128
 71
     3
 72
     2
 73
     1
  0
VERTEX
  5
4A3
  8
0
 62
     9
 10
0.0
 20
0.0
 30
0.0
 70
   128
 71
     2
 72
     5
 73
     4
  0
VERTEX
  5
4A4
  8
0
 62
     9
 10
0.0
 20
0.0
 30
0.0
 70
   128
 71
     4
 72
     1
 73
     2
  0
VERTEX
  5
4A5
  8
0
 62
     9
 10
0.0
 20
0.0
 30
0.0
 70
   128
 71
     5
 72
     7
 73
     6
  0
VERTEX
  5
4A6
  8
0
 62
     9
 10
0.0
 20
0.0
 30
0.0
 70
   128
 71
     6
 72
     4
 73
     5
  0
VERTEX
  5
4A7
  8
0
 62
     9
 10
0.0
 20
0.0
 30
0.0
 70
   128
 71
     7
 72
     9
 73
     8
  0
VERTEX
  5
4A8
  8
0
 62
     9
 10
0.0
 20
0.0
 30
0.0
 70
   128
 71
     9
 72
    11
 73
    10
  0
VERTEX
  5
4A9
  8
0
 62
     9
 10
0.0
 20
0.0
 30
0.0
 70
   128
 71
    11
 72
     3
 73
    12
  0
VERTEX
  5
4AA
  8
0
 62
     9
 10
0.0
 20
0.0
 30
0.0
 70
   128
 71
     8
 72
     6
 73
     7
  0
VERTEX
  5
4AB
  8
0
 62
     9
 10
0.0
 20
0.0
 30
0.0
 70
   128
 71
    12
 72
    10
 73
    11
  0
VERTEX
  5
4AC
  8
0
 62
     9
 10
0.0
 20
0.0
 30
0.0
 70
   128
 71
    10
 72
     8
 73
     9
  0
VERTEX
  5
4AD
  8
0
 62
     9
 10
0.0
 20
0.0
 30
0.0
 70
   128
 71
     1
 72
    12
 73
     3
  0
SEQEND
  5
4AE
  8
0
 62
     9
  0
ENDBLK
  5
4B1
  8
0
  0
BLOCK
  8
0
  2
E3_NODE_40_
 70
     0
 10
0.0
 20
0.0
 30
0.0
  3
E3_NODE_40_
  1

  0
POLYLINE
  5
4B3
  8
0
 62
     9
 66
     1
 10
0.0
 20
0.0
 30
0.0
 70
    64
 71
    18
 72
    18
  0
VERTEX
  5
4B4
  8
0
 10
-11.5
 20
0.0
 30
99.5
 70
   192
  0
VERTEX
  5
4B5
  8
0
 10
-11.5
 20
0.0
 30
196.5
 70
   192
  0
VERTEX
  5
4B6
  8
0
 10
-8.131999969482422
 20
8.131999969482422
 30
196.5
 70
   192
  0
VERTEX
  5
4B7
  8
0
 10
-5.75
 20
9.958999633789062
 30
99.5
 70
   192
  0
VERTEX
  5
4B8
  8
0
 10
5.75
 20
9.958999633789062
 30
99.5
 70
   192
  0
VERTEX
  5
4B9
  8
0
 10
0.0
 20
11.5
 30
196.5
 70
   192
  0
VERTEX
  5
4BA
  8
0
 10
-5.453000068664551
 20
9.241000175476074
 30
196.5
 70
   192
  0
VERTEX
  5
4BB
  8
0
 10
11.5
 20
0.0
 30
99.5
 70
   192
  0
VERTEX
  5
4BC
  8
0
 10
8.131999969482422
 20
8.131999969482422
 30
196.5
 70
   192
  0
VERTEX
  5
4BD
  8
0
 10
5.453000068664551
 20
9.241000175476074
 30
196.5
 70
   192
  0
VERTEX
  5
4BE
  8
0
 10
11.5
 20
0.0
 30
196.5
 70
   192
  0
VERTEX
  5
4BF
  8
0
 10
8.131999969482422
 20
-8.131999969482422
 30
196.5
 70
   192
  0
VERTEX
  5
4C0
  8
0
 10
5.75
 20
-9.958999633789062
 30
99.5
 70
   192
  0
VERTEX
  5
4C1
  8
0
 10
5.453000068664551
 20
-9.241000175476074
 30
196.5
 70
   192
  0
VERTEX
  5
4C2
  8
0
 10
0.0
 20
-11.5
 30
196.5
 70
   192
  0
VERTEX
  5
4C3
  8
0
 10
-5.75
 20
-9.958999633789062
 30
99.5
 70
   192
  0
VERTEX
  5
4C4
  8
0
 10
-8.131999969482422
 20
-8.131999969482422
 30
196.5
 70
   192
  0
VERTEX
  5
4C5
  8
0
 10
-5.453000068664551
 20
-9.241000175476074
 30
196.5
 70
   192
  0
VERTEX
  5
4C6
  8
0
 62
     9
 10
0.0
 20
0.0
 30
0.0
 70
   128
 71
     3
 72
     2
 73
     1
  0
VERTEX
  5
4C7
  8
0
 62
     9
 10
0.0
 20
0.0
 30
0.0
 70
   128
 71
     1
 72
     4
 73
     3
  0
VERTEX
  5
4C8
  8
0
 62
     9
 10
0.0
 20
0.0
 30
0.0
 70
   128
 71
     6
 72
     4
 73
     5
  0
VERTEX
  5
4C9
  8
0
 62
     9
 10
0.0
 20
0.0
 30
0.0
 70
   128
 71
     6
 72
     7
 73
     4
  0
VERTEX
  5
4CA
  8
0
 62
     9
 10
0.0
 20
0.0
 30
0.0
 70
   128
 71
     9
 72
     5
 73
     8
  0
VERTEX
  5
4CB
  8
0
 62
     9
 10
0.0
 20
0.0
 30
0.0
 70
   128
 71
     9
 72
    10
 73
     5
  0
VERTEX
  5
4CC
  8
0
 62
     9
 10
0.0
 20
0.0
 30
0.0
 70
   128
 71
    12
 72
    11
 73
     8
  0
VERTEX
  5
4CD
  8
0
 62
     9
 10
0.0
 20
0.0
 30
0.0
 70
   128
 71
     8
 72
    13
 73
    12
  0
VERTEX
  5
4CE
  8
0
 62
     9
 10
0.0
 20
0.0
 30
0.0
 70
   128
 71
    15
 72
    14
 73
    13
  0
VERTEX
  5
4CF
  8
0
 62
     9
 10
0.0
 20
0.0
 30
0.0
 70
   128
 71
    13
 72
    16
 73
    15
  0
VERTEX
  5
4D0
  8
0
 62
     9
 10
0.0
 20
0.0
 30
0.0
 70
   128
 71
    17
 72
    16
 73
     1
  0
VERTEX
  5
4D1
  8
0
 62
     9
 10
0.0
 20
0.0
 30
0.0
 70
   128
 71
    17
 72
    18
 73
    16
  0
VERTEX
  5
4D2
  8
0
 62
     9
 10
0.0
 20
0.0
 30
0.0
 70
   128
 71
     1
 72
     2
 73
    17
  0
VERTEX
  5
4D3
  8
0
 62
     9
 10
0.0
 20
0.0
 30
0.0
 70
   128
 71
    16
 72
    18
 73
    15
  0
VERTEX
  5
4D4
  8
0
 62
     9
 10
0.0
 20
0.0
 30
0.0
 70
   128
 71
    13
 72
    14
 73
    12
  0
VERTEX
  5
4D5
  8
0
 62
     9
 10
0.0
 20
0.0
 30
0.0
 70
   128
 71
     8
 72
    11
 73
     9
  0
VERTEX
  5
4D6
  8
0
 62
     9
 10
0.0
 20
0.0
 30
0.0
 70
   128
 71
     5
 72
    10
 73
     6
  0
VERTEX
  5
4D7
  8
0
 62
     9
 10
0.0
 20
0.0
 30
0.0
 70
   128
 71
     4
 72
     7
 73
     3
  0
SEQEND
  5
4D8
  8
0
 62
     9
  0
ENDBLK
  5
4DB
  8
0
  0
BLOCK
  8
0
  2
E3_NODE_41_
 70
     0
 10
0.0
 20
0.0
 30
0.0
  3
E3_NODE_41_
  1

  0
POLYLINE
  5
4DD
  8
0
 62
     9
 66
     1
 10
0.0
 20
0.0
 30
0.0
 70
    64
 71
    96
 72
   168
  0
VERTEX
  5
4DE
  8
0
 10
134.5800018310547
 20
8.131999969482422
 30
226.8580017089844
 70
   192
  0
VERTEX
  5
4DF
  8
0
 10
140.8520050048828
 20
8.131999969482422
 30
208.1119995117188
 70
   192
  0
VERTEX
  5
4E0
  8
0
 10
137.5350036621094
 20
0.0
 30
207.5269927978516
 70
   192
  0
VERTEX
  5
4E1
  8
0
 10
131.5789947509766
 20
0.0
 30
225.3280029296875
 70
   192
  0
VERTEX
  5
4E2
  8
0
 10
120.6780014038086
 20
0.0
 30
240.6109924316406
 70
   192
  0
VERTEX
  5
4E3
  8
0
 10
123.1009979248047
 20
8.131999969482422
 30
242.9510040283203
 70
   192
  0
VERTEX
  5
4E4
  8
0
 10
105.7850036621094
 20
0.0
 30
252.0379943847656
 70
   192
  0
VERTEX
  5
4E5
  8
0
 10
107.4179992675781
 20
8.131999969482422
 30
254.9839935302734
 70
   192
  0
VERTEX
  5
4E6
  8
0
 10
88.2020034790039
 20
0.0
 30
258.6119995117188
 70
   192
  0
VERTEX
  5
4E7
  8
0
 10
88.90299987792969
 20
8.131999969482422
 30
261.9070129394531
 70
   192
  0
VERTEX
  5
4E8
  8
0
 10
69.46600341796875
 20
0.0
 30
259.7579956054688
 70
   192
  0
VERTEX
  5
4E9
  8
0
 10
69.1719970703125
 20
8.131999969482422
 30
263.114013671875
 70
   192
  0
VERTEX
  5
4EA
  8
0
 10
51.21200180053711
 20
0.0
 30
255.3760070800781
 70
   192
  0
VERTEX
  5
4EB
  8
0
 10
49.95100021362305
 20
8.131999969482422
 30
258.4989929199219
 70
   192
  0
VERTEX
  5
4EC
  8
0
 10
35.03799819946289
 20
0.0
 30
245.8489990234375
 70
   192
  0
VERTEX
  5
4ED
  8
0
 10
32.91799926757812
 20
8.131999969482422
 30
248.4660034179688
 70
   192
  0
VERTEX
  5
4EE
  8
0
 10
22.35600090026855
 20
0.0
 30
232.0090026855469
 70
   192
  0
VERTEX
  5
4EF
  8
0
 10
19.56399917602539
 20
8.131999969482422
 30
233.8919982910156
 70
   192
  0
VERTEX
  5
4F0
  8
0
 10
14.27499961853027
 20
0.0
 30
215.0659942626953
 70
   192
  0
VERTEX
  5
4F1
  8
0
 10
11.05399990081787
 20
8.131999969482422
 30
216.0500030517578
 70
   192
  0
VERTEX
  5
4F2
  8
0
 10
8.131999969482422
 20
8.131999969482422
 30
196.5
 70
   192
  0
VERTEX
  5
4F3
  8
0
 10
143.4909973144531
 20
9.241000175476074
 30
208.5769958496094
 70
   192
  0
VERTEX
  5
4F4
  8
0
 10
141.8249969482422
 20
11.5
 30
230.5489959716797
 70
   192
  0
VERTEX
  5
4F5
  8
0
 10
148.8609924316406
 20
11.5
 30
209.5240020751953
 70
   192
  0
VERTEX
  5
4F6
  8
0
 10
128.9499969482422
 20
11.5
 30
248.5989990234375
 70
   192
  0
VERTEX
  5
4F7
  8
0
 10
111.3610000610352
 20
11.5
 30
262.0960083007812
 70
   192
  0
VERTEX
  5
4F8
  8
0
 10
90.59300231933594
 20
11.5
 30
269.8609924316406
 70
   192
  0
VERTEX
  5
4F9
  8
0
 10
68.46299743652344
 20
11.5
 30
271.2149963378906
 70
   192
  0
VERTEX
  5
4FA
  8
0
 10
46.90499877929688
 20
11.5
 30
266.0390014648438
 70
   192
  0
VERTEX
  5
4FB
  8
0
 10
27.80100059509277
 20
11.5
 30
254.7859954833984
 70
   192
  0
VERTEX
  5
4FC
  8
0
 10
12.82199954986572
 20
11.5
 30
238.4389953613281
 70
   192
  0
VERTEX
  5
4FD
  8
0
 10
3.276999950408936
 20
11.5
 30
218.4279937744141
 70
   192
  0
VERTEX
  5
4FE
  8
0
 10
5.453000068664551
 20
9.241000175476074
 30
196.5
 70
   192
  0
VERTEX
  5
4FF
  8
0
 10
154.2299957275391
 20
9.241000175476074
 30
210.4700012207031
 70
   192
  0
VERTEX
  5
500
  8
0
 10
149.0709991455078
 20
8.131999969482422
 30
234.2409973144531
 70
   192
  0
VERTEX
  5
501
  8
0
 10
156.8690032958984
 20
8.131999969482422
 30
210.9360046386719
 70
   192
  0
VERTEX
  5
502
  8
0
 10
134.8000030517578
 20
8.131999969482422
 30
254.2480010986328
 70
   192
  0
VERTEX
  5
503
  8
0
 10
115.3030014038086
 20
8.131999969482422
 30
269.2090148925781
 70
   192
  0
VERTEX
  5
504
  8
0
 10
92.28399658203125
 20
8.131999969482422
 30
277.8150024414062
 70
   192
  0
VERTEX
  5
505
  8
0
 10
67.75499725341797
 20
8.131999969482422
 30
279.3150024414062
 70
   192
  0
VERTEX
  5
506
  8
0
 10
43.85800170898438
 20
8.131999969482422
 30
273.5780029296875
 70
   192
  0
VERTEX
  5
507
  8
0
 10
22.68400001525879
 20
8.131999969482422
 30
261.1050109863281
 70
   192
  0
VERTEX
  5
508
  8
0
 10
6.080999851226807
 20
8.131999969482422
 30
242.9869995117188
 70
   192
  0
VERTEX
  5
509
  8
0
 10
-4.499000072479248
 20
8.131999969482422
 30
220.8049926757812
 70
   192
  0
VERTEX
  5
50A
  8
0
 10
-5.453000068664551
 20
9.241000175476074
 30
196.5
 70
   192
  0
VERTEX
  5
50B
  8
0
 10
0.0
 20
11.5
 30
196.5
 70
   192
  0
VERTEX
  5
50C
  8
0
 10
152.0720062255859
 20
0.0
 30
235.7700042724609
 70
   192
  0
VERTEX
  5
50D
  8
0
 10
160.1860046386719
 20
0.0
 30
211.52099609375
 70
   192
  0
VERTEX
  5
50E
  8
0
 10
137.2230072021484
 20
0.0
 30
256.5880126953125
 70
   192
  0
VERTEX
  5
50F
  8
0
 10
116.9359970092773
 20
0.0
 30
272.1549987792969
 70
   192
  0
VERTEX
  5
510
  8
0
 10
92.98400115966797
 20
0.0
 30
281.1099853515625
 70
   192
  0
VERTEX
  5
511
  8
0
 10
67.46099853515625
 20
0.0
 30
282.6709899902344
 70
   192
  0
VERTEX
  5
512
  8
0
 10
42.59700012207031
 20
0.0
 30
276.7009887695312
 70
   192
  0
VERTEX
  5
513
  8
0
 10
20.56399917602539
 20
0.0
 30
263.7229919433594
 70
   192
  0
VERTEX
  5
514
  8
0
 10
3.288000106811523
 20
0.0
 30
244.8699951171875
 70
   192
  0
VERTEX
  5
515
  8
0
 10
-7.71999979019165
 20
0.0
 30
221.7899932861328
 70
   192
  0
VERTEX
  5
516
  8
0
 10
-11.5
 20
0.0
 30
196.5
 70
   192
  0
VERTEX
  5
517
  8
0
 10
149.0709991455078
 20
-8.131999969482422
 30
234.2409973144531
 70
   192
  0
VERTEX
  5
518
  8
0
 10
156.8690032958984
 20
-8.131999969482422
 30
210.9360046386719
 70
   192
  0
VERTEX
  5
519
  8
0
 10
134.8000030517578
 20
-8.131999969482422
 30
254.2480010986328
 70
   192
  0
VERTEX
  5
51A
  8
0
 10
115.3030014038086
 20
-8.131999969482422
 30
269.2090148925781
 70
   192
  0
VERTEX
  5
51B
  8
0
 10
92.28399658203125
 20
-8.131999969482422
 30
277.8150024414062
 70
   192
  0
VERTEX
  5
51C
  8
0
 10
67.75499725341797
 20
-8.131999969482422
 30
279.3150024414062
 70
   192
  0
VERTEX
  5
51D
  8
0
 10
43.85800170898438
 20
-8.131999969482422
 30
273.5780029296875
 70
   192
  0
VERTEX
  5
51E
  8
0
 10
22.68400001525879
 20
-8.131999969482422
 30
261.1050109863281
 70
   192
  0
VERTEX
  5
51F
  8
0
 10
6.080999851226807
 20
-8.131999969482422
 30
242.9869995117188
 70
   192
  0
VERTEX
  5
520
  8
0
 10
-4.499000072479248
 20
-8.131999969482422
 30
220.8049926757812
 70
   192
  0
VERTEX
  5
521
  8
0
 10
-8.131999969482422
 20
-8.131999969482422
 30
196.5
 70
   192
  0
VERTEX
  5
522
  8
0
 10
154.2299957275391
 20
-9.241000175476074
 30
210.4700012207031
 70
   192
  0
VERTEX
  5
523
  8
0
 10
141.8249969482422
 20
-11.5
 30
230.5489959716797
 70
   192
  0
VERTEX
  5
524
  8
0
 10
148.8609924316406
 20
-11.5
 30
209.5240020751953
 70
   192
  0
VERTEX
  5
525
  8
0
 10
128.9499969482422
 20
-11.5
 30
248.5989990234375
 70
   192
  0
VERTEX
  5
526
  8
0
 10
111.3610000610352
 20
-11.5
 30
262.0960083007812
 70
   192
  0
VERTEX
  5
527
  8
0
 10
90.59300231933594
 20
-11.5
 30
269.8609924316406
 70
   192
  0
VERTEX
  5
528
  8
0
 10
68.46299743652344
 20
-11.5
 30
271.2149963378906
 70
   192
  0
VERTEX
  5
529
  8
0
 10
46.90499877929688
 20
-11.5
 30
266.0390014648438
 70
   192
  0
VERTEX
  5
52A
  8
0
 10
27.80100059509277
 20
-11.5
 30
254.7859954833984
 70
   192
  0
VERTEX
  5
52B
  8
0
 10
12.82199954986572
 20
-11.5
 30
238.4389953613281
 70
   192
  0
VERTEX
  5
52C
  8
0
 10
3.276999950408936
 20
-11.5
 30
218.4279937744141
 70
   192
  0
VERTEX
  5
52D
  8
0
 10
-5.453000068664551
 20
-9.241000175476074
 30
196.5
 70
   192
  0
VERTEX
  5
52E
  8
0
 10
0.0
 20
-11.5
 30
196.5
 70
   192
  0
VERTEX
  5
52F
  8
0
 10
143.4909973144531
 20
-9.241000175476074
 30
208.5769958496094
 70
   192
  0
VERTEX
  5
530
  8
0
 10
134.5800018310547
 20
-8.131999969482422
 30
226.8580017089844
 70
   192
  0
VERTEX
  5
531
  8
0
 10
140.8520050048828
 20
-8.131999969482422
 30
208.1119995117188
 70
   192
  0
VERTEX
  5
532
  8
0
 10
123.1009979248047
 20
-8.131999969482422
 30
242.9510040283203
 70
   192
  0
VERTEX
  5
533
  8
0
 10
107.4179992675781
 20
-8.131999969482422
 30
254.9839935302734
 70
   192
  0
VERTEX
  5
534
  8
0
 10
88.90299987792969
 20
-8.131999969482422
 30
261.9070129394531
 70
   192
  0
VERTEX
  5
535
  8
0
 10
69.1719970703125
 20
-8.131999969482422
 30
263.114013671875
 70
   192
  0
VERTEX
  5
536
  8
0
 10
49.95100021362305
 20
-8.131999969482422
 30
258.4989929199219
 70
   192
  0
VERTEX
  5
537
  8
0
 10
32.91799926757812
 20
-8.131999969482422
 30
248.4660034179688
 70
   192
  0
VERTEX
  5
538
  8
0
 10
19.56399917602539
 20
-8.131999969482422
 30
233.8919982910156
 70
   192
  0
VERTEX
  5
539
  8
0
 10
11.05399990081787
 20
-8.131999969482422
 30
216.0500030517578
 70
   192
  0
VERTEX
  5
53A
  8
0
 10
5.453000068664551
 20
-9.241000175476074
 30
196.5
 70
   192
  0
VERTEX
  5
53B
  8
0
 10
8.131999969482422
 20
-8.131999969482422
 30
196.5
 70
   192
  0
VERTEX
  5
53C
  8
0
 10
11.5
 20
0.0
 30
196.5
 70
   192
  0
VERTEX
  5
53D
  8
0
 10
-8.131999969482422
 20
8.131999969482422
 30
196.5
 70
   192
  0
VERTEX
  5
53E
  8
0
 62
     9
 10
0.0
 20
0.0
 30
0.0
 70
   128
 71
     3
 72
     2
 73
     1
  0
VERTEX
  5
53F
  8
0
 62
     9
 10
0.0
 20
0.0
 30
0.0
 70
   128
 71
     6
 72
     5
 73
     4
  0
VERTEX
  5
540
  8
0
 62
     9
 10
0.0
 20
0.0
 30
0.0
 70
   128
 71
     8
 72
     7
 73
     5
  0
VERTEX
  5
541
  8
0
 62
     9
 10
0.0
 20
0.0
 30
0.0
 70
   128
 71
    10
 72
     9
 73
     7
  0
VERTEX
  5
542
  8
0
 62
     9
 10
0.0
 20
0.0
 30
0.0
 70
   128
 71
    12
 72
    11
 73
     9
  0
VERTEX
  5
543
  8
0
 62
     9
 10
0.0
 20
0.0
 30
0.0
 70
   128
 71
    14
 72
    13
 73
    11
  0
VERTEX
  5
544
  8
0
 62
     9
 10
0.0
 20
0.0
 30
0.0
 70
   128
 71
    16
 72
    15
 73
    13
  0
VERTEX
  5
545
  8
0
 62
     9
 10
0.0
 20
0.0
 30
0.0
 70
   128
 71
    18
 72
    17
 73
    15
  0
VERTEX
  5
546
  8
0
 62
     9
 10
0.0
 20
0.0
 30
0.0
 70
   128
 71
    20
 72
    19
 73
    17
  0
VERTEX
  5
547
  8
0
 62
     9
 10
0.0
 20
0.0
 30
0.0
 70
   128
 71
    19
 72
    20
 73
    21
  0
VERTEX
  5
548
  8
0
 62
     9
 10
0.0
 20
0.0
 30
0.0
 70
   128
 71
     1
 72
     2
 73
    22
  0
VERTEX
  5
549
  8
0
 62
     9
 10
0.0
 20
0.0
 30
0.0
 70
   128
 71
    22
 72
    24
 73
    23
  0
VERTEX
  5
54A
  8
0
 62
     9
 10
0.0
 20
0.0
 30
0.0
 70
   128
 71
    25
 72
     6
 73
     1
  0
VERTEX
  5
54B
  8
0
 62
     9
 10
0.0
 20
0.0
 30
0.0
 70
   128
 71
    26
 72
     8
 73
     6
  0
VERTEX
  5
54C
  8
0
 62
     9
 10
0.0
 20
0.0
 30
0.0
 70
   128
 71
    27
 72
    10
 73
     8
  0
VERTEX
  5
54D
  8
0
 62
     9
 10
0.0
 20
0.0
 30
0.0
 70
   128
 71
    28
 72
    12
 73
    10
  0
VERTEX
  5
54E
  8
0
 62
     9
 10
0.0
 20
0.0
 30
0.0
 70
   128
 71
    29
 72
    14
 73
    12
  0
VERTEX
  5
54F
  8
0
 62
     9
 10
0.0
 20
0.0
 30
0.0
 70
   128
 71
    30
 72
    16
 73
    14
  0
VERTEX
  5
550
  8
0
 62
     9
 10
0.0
 20
0.0
 30
0.0
 70
   128
 71
    31
 72
    18
 73
    16
  0
VERTEX
  5
551
  8
0
 62
     9
 10
0.0
 20
0.0
 30
0.0
 70
   128
 71
    32
 72
    20
 73
    18
  0
VERTEX
  5
552
  8
0
 62
     9
 10
0.0
 20
0.0
 30
0.0
 70
   128
 71
    20
 72
    32
 73
    33
  0
VERTEX
  5
553
  8
0
 62
     9
 10
0.0
 20
0.0
 30
0.0
 70
   128
 71
    33
 72
    21
 73
    20
  0
VERTEX
  5
554
  8
0
 62
     9
 10
0.0
 20
0.0
 30
0.0
 70
   128
 71
    23
 72
    24
 73
    34
  0
VERTEX
  5
555
  8
0
 62
     9
 10
0.0
 20
0.0
 30
0.0
 70
   128
 71
    34
 72
    36
 73
    35
  0
VERTEX
  5
556
  8
0
 62
     9
 10
0.0
 20
0.0
 30
0.0
 70
   128
 71
    37
 72
    25
 73
    23
  0
VERTEX
  5
557
  8
0
 62
     9
 10
0.0
 20
0.0
 30
0.0
 70
   128
 71
    38
 72
    26
 73
    25
  0
VERTEX
  5
558
  8
0
 62
     9
 10
0.0
 20
0.0
 30
0.0
 70
   128
 71
    39
 72
    27
 73
    26
  0
VERTEX
  5
559
  8
0
 62
     9
 10
0.0
 20
0.0
 30
0.0
 70
   128
 71
    40
 72
    28
 73
    27
  0
VERTEX
  5
55A
  8
0
 62
     9
 10
0.0
 20
0.0
 30
0.0
 70
   128
 71
    41
 72
    29
 73
    28
  0
VERTEX
  5
55B
  8
0
 62
     9
 10
0.0
 20
0.0
 30
0.0
 70
   128
 71
    42
 72
    30
 73
    29
  0
VERTEX
  5
55C
  8
0
 62
     9
 10
0.0
 20
0.0
 30
0.0
 70
   128
 71
    43
 72
    31
 73
    30
  0
VERTEX
  5
55D
  8
0
 62
     9
 10
0.0
 20
0.0
 30
0.0
 70
   128
 71
    44
 72
    32
 73
    31
  0
VERTEX
  5
55E
  8
0
 62
     9
 10
0.0
 20
0.0
 30
0.0
 70
   128
 71
    32
 72
    44
 73
    45
  0
VERTEX
  5
55F
  8
0
 62
     9
 10
0.0
 20
0.0
 30
0.0
 70
   128
 71
    45
 72
    46
 73
    32
  0
VERTEX
  5
560
  8
0
 62
     9
 10
0.0
 20
0.0
 30
0.0
 70
   128
 71
    36
 72
    48
 73
    47
  0
VERTEX
  5
561
  8
0
 62
     9
 10
0.0
 20
0.0
 30
0.0
 70
   128
 71
    49
 72
    37
 73
    35
  0
VERTEX
  5
562
  8
0
 62
     9
 10
0.0
 20
0.0
 30
0.0
 70
   128
 71
    50
 72
    38
 73
    37
  0
VERTEX
  5
563
  8
0
 62
     9
 10
0.0
 20
0.0
 30
0.0
 70
   128
 71
    51
 72
    39
 73
    38
  0
VERTEX
  5
564
  8
0
 62
     9
 10
0.0
 20
0.0
 30
0.0
 70
   128
 71
    52
 72
    40
 73
    39
  0
VERTEX
  5
565
  8
0
 62
     9
 10
0.0
 20
0.0
 30
0.0
 70
   128
 71
    53
 72
    41
 73
    40
  0
VERTEX
  5
566
  8
0
 62
     9
 10
0.0
 20
0.0
 30
0.0
 70
   128
 71
    54
 72
    42
 73
    41
  0
VERTEX
  5
567
  8
0
 62
     9
 10
0.0
 20
0.0
 30
0.0
 70
   128
 71
    55
 72
    43
 73
    42
  0
VERTEX
  5
568
  8
0
 62
     9
 10
0.0
 20
0.0
 30
0.0
 70
   128
 71
    56
 72
    44
 73
    43
  0
VERTEX
  5
569
  8
0
 62
     9
 10
0.0
 20
0.0
 30
0.0
 70
   128
 71
    44
 72
    56
 73
    57
  0
VERTEX
  5
56A
  8
0
 62
     9
 10
0.0
 20
0.0
 30
0.0
 70
   128
 71
    59
 72
    58
 73
    47
  0
VERTEX
  5
56B
  8
0
 62
     9
 10
0.0
 20
0.0
 30
0.0
 70
   128
 71
    60
 72
    49
 73
    47
  0
VERTEX
  5
56C
  8
0
 62
     9
 10
0.0
 20
0.0
 30
0.0
 70
   128
 71
    61
 72
    50
 73
    49
  0
VERTEX
  5
56D
  8
0
 62
     9
 10
0.0
 20
0.0
 30
0.0
 70
   128
 71
    62
 72
    51
 73
    50
  0
VERTEX
  5
56E
  8
0
 62
     9
 10
0.0
 20
0.0
 30
0.0
 70
   128
 71
    63
 72
    52
 73
    51
  0
VERTEX
  5
56F
  8
0
 62
     9
 10
0.0
 20
0.0
 30
0.0
 70
   128
 71
    64
 72
    53
 73
    52
  0
VERTEX
  5
570
  8
0
 62
     9
 10
0.0
 20
0.0
 30
0.0
 70
   128
 71
    65
 72
    54
 73
    53
  0
VERTEX
  5
571
  8
0
 62
     9
 10
0.0
 20
0.0
 30
0.0
 70
   128
 71
    66
 72
    55
 73
    54
  0
VERTEX
  5
572
  8
0
 62
     9
 10
0.0
 20
0.0
 30
0.0
 70
   128
 71
    67
 72
    56
 73
    55
  0
VERTEX
  5
573
  8
0
 62
     9
 10
0.0
 20
0.0
 30
0.0
 70
   128
 71
    67
 72
    68
 73
    57
  0
VERTEX
  5
574
  8
0
 62
     9
 10
0.0
 20
0.0
 30
0.0
 70
   128
 71
    70
 72
    58
 73
    69
  0
VERTEX
  5
575
  8
0
 62
     9
 10
0.0
 20
0.0
 30
0.0
 70
   128
 71
    69
 72
    71
 73
    70
  0
VERTEX
  5
576
  8
0
 62
     9
 10
0.0
 20
0.0
 30
0.0
 70
   128
 71
    72
 72
    60
 73
    58
  0
VERTEX
  5
577
  8
0
 62
     9
 10
0.0
 20
0.0
 30
0.0
 70
   128
 71
    73
 72
    61
 73
    60
  0
VERTEX
  5
578
  8
0
 62
     9
 10
0.0
 20
0.0
 30
0.0
 70
   128
 71
    74
 72
    62
 73
    61
  0
VERTEX
  5
579
  8
0
 62
     9
 10
0.0
 20
0.0
 30
0.0
 70
   128
 71
    75
 72
    63
 73
    62
  0
VERTEX
  5
57A
  8
0
 62
     9
 10
0.0
 20
0.0
 30
0.0
 70
   128
 71
    76
 72
    64
 73
    63
  0
VERTEX
  5
57B
  8
0
 62
     9
 10
0.0
 20
0.0
 30
0.0
 70
   128
 71
    77
 72
    65
 73
    64
  0
VERTEX
  5
57C
  8
0
 62
     9
 10
0.0
 20
0.0
 30
0.0
 70
   128
 71
    78
 72
    66
 73
    65
  0
VERTEX
  5
57D
  8
0
 62
     9
 10
0.0
 20
0.0
 30
0.0
 70
   128
 71
    79
 72
    67
 73
    66
  0
VERTEX
  5
57E
  8
0
 62
     9
 10
0.0
 20
0.0
 30
0.0
 70
   128
 71
    79
 72
    81
 73
    80
  0
VERTEX
  5
57F
  8
0
 62
     9
 10
0.0
 20
0.0
 30
0.0
 70
   128
 71
    80
 72
    68
 73
    67
  0
VERTEX
  5
580
  8
0
 62
     9
 10
0.0
 20
0.0
 30
0.0
 70
   128
 71
    83
 72
    70
 73
    82
  0
VERTEX
  5
581
  8
0
 62
     9
 10
0.0
 20
0.0
 30
0.0
 70
   128
 71
    82
 72
    84
 73
    83
  0
VERTEX
  5
582
  8
0
 62
     9
 10
0.0
 20
0.0
 30
0.0
 70
   128
 71
    85
 72
    72
 73
    70
  0
VERTEX
  5
583
  8
0
 62
     9
 10
0.0
 20
0.0
 30
0.0
 70
   128
 71
    86
 72
    73
 73
    72
  0
VERTEX
  5
584
  8
0
 62
     9
 10
0.0
 20
0.0
 30
0.0
 70
   128
 71
    87
 72
    74
 73
    73
  0
VERTEX
  5
585
  8
0
 62
     9
 10
0.0
 20
0.0
 30
0.0
 70
   128
 71
    88
 72
    75
 73
    74
  0
VERTEX
  5
586
  8
0
 62
     9
 10
0.0
 20
0.0
 30
0.0
 70
   128
 71
    89
 72
    76
 73
    75
  0
VERTEX
  5
587
  8
0
 62
     9
 10
0.0
 20
0.0
 30
0.0
 70
   128
 71
    90
 72
    77
 73
    76
  0
VERTEX
  5
588
  8
0
 62
     9
 10
0.0
 20
0.0
 30
0.0
 70
   128
 71
    91
 72
    78
 73
    77
  0
VERTEX
  5
589
  8
0
 62
     9
 10
0.0
 20
0.0
 30
0.0
 70
   128
 71
    92
 72
    79
 73
    78
  0
VERTEX
  5
58A
  8
0
 62
     9
 10
0.0
 20
0.0
 30
0.0
 70
   128
 71
    92
 72
    94
 73
    93
  0
VERTEX
  5
58B
  8
0
 62
     9
 10
0.0
 20
0.0
 30
0.0
 70
   128
 71
    93
 72
    81
 73
    79
  0
VERTEX
  5
58C
  8
0
 62
     9
 10
0.0
 20
0.0
 30
0.0
 70
   128
 71
     3
 72
     4
 73
    83
  0
VERTEX
  5
58D
  8
0
 62
     9
 10
0.0
 20
0.0
 30
0.0
 70
   128
 71
     5
 72
    85
 73
    83
  0
VERTEX
  5
58E
  8
0
 62
     9
 10
0.0
 20
0.0
 30
0.0
 70
   128
 71
     7
 72
    86
 73
    85
  0
VERTEX
  5
58F
  8
0
 62
     9
 10
0.0
 20
0.0
 30
0.0
 70
   128
 71
     9
 72
    87
 73
    86
  0
VERTEX
  5
590
  8
0
 62
     9
 10
0.0
 20
0.0
 30
0.0
 70
   128
 71
    11
 72
    88
 73
    87
  0
VERTEX
  5
591
  8
0
 62
     9
 10
0.0
 20
0.0
 30
0.0
 70
   128
 71
    13
 72
    89
 73
    88
  0
VERTEX
  5
592
  8
0
 62
     9
 10
0.0
 20
0.0
 30
0.0
 70
   128
 71
    15
 72
    90
 73
    89
  0
VERTEX
  5
593
  8
0
 62
     9
 10
0.0
 20
0.0
 30
0.0
 70
   128
 71
    17
 72
    91
 73
    90
  0
VERTEX
  5
594
  8
0
 62
     9
 10
0.0
 20
0.0
 30
0.0
 70
   128
 71
    19
 72
    92
 73
    91
  0
VERTEX
  5
595
  8
0
 62
     9
 10
0.0
 20
0.0
 30
0.0
 70
   128
 71
    19
 72
    95
 73
    94
  0
VERTEX
  5
596
  8
0
 62
     9
 10
0.0
 20
0.0
 30
0.0
 70
   128
 71
    94
 72
    92
 73
    19
  0
VERTEX
  5
597
  8
0
 62
     9
 10
0.0
 20
0.0
 30
0.0
 70
   128
 71
    91
 72
    17
 73
    19
  0
VERTEX
  5
598
  8
0
 62
     9
 10
0.0
 20
0.0
 30
0.0
 70
   128
 71
    90
 72
    15
 73
    17
  0
VERTEX
  5
599
  8
0
 62
     9
 10
0.0
 20
0.0
 30
0.0
 70
   128
 71
    89
 72
    13
 73
    15
  0
VERTEX
  5
59A
  8
0
 62
     9
 10
0.0
 20
0.0
 30
0.0
 70
   128
 71
    88
 72
    11
 73
    13
  0
VERTEX
  5
59B
  8
0
 62
     9
 10
0.0
 20
0.0
 30
0.0
 70
   128
 71
    87
 72
     9
 73
    11
  0
VERTEX
  5
59C
  8
0
 62
     9
 10
0.0
 20
0.0
 30
0.0
 70
   128
 71
    86
 72
     7
 73
     9
  0
VERTEX
  5
59D
  8
0
 62
     9
 10
0.0
 20
0.0
 30
0.0
 70
   128
 71
    85
 72
     5
 73
     7
  0
VERTEX
  5
59E
  8
0
 62
     9
 10
0.0
 20
0.0
 30
0.0
 70
   128
 71
    83
 72
     4
 73
     5
  0
VERTEX
  5
59F
  8
0
 62
     9
 10
0.0
 20
0.0
 30
0.0
 70
   128
 71
    83
 72
    84
 73
     3
  0
VERTEX
  5
5A0
  8
0
 62
     9
 10
0.0
 20
0.0
 30
0.0
 70
   128
 71
    93
 72
    79
 73
    92
  0
VERTEX
  5
5A1
  8
0
 62
     9
 10
0.0
 20
0.0
 30
0.0
 70
   128
 71
    78
 72
    91
 73
    92
  0
VERTEX
  5
5A2
  8
0
 62
     9
 10
0.0
 20
0.0
 30
0.0
 70
   128
 71
    77
 72
    90
 73
    91
  0
VERTEX
  5
5A3
  8
0
 62
     9
 10
0.0
 20
0.0
 30
0.0
 70
   128
 71
    76
 72
    89
 73
    90
  0
VERTEX
  5
5A4
  8
0
 62
     9
 10
0.0
 20
0.0
 30
0.0
 70
   128
 71
    75
 72
    88
 73
    89
  0
VERTEX
  5
5A5
  8
0
 62
     9
 10
0.0
 20
0.0
 30
0.0
 70
   128
 71
    74
 72
    87
 73
    88
  0
VERTEX
  5
5A6
  8
0
 62
     9
 10
0.0
 20
0.0
 30
0.0
 70
   128
 71
    73
 72
    86
 73
    87
  0
VERTEX
  5
5A7
  8
0
 62
     9
 10
0.0
 20
0.0
 30
0.0
 70
   128
 71
    72
 72
    85
 73
    86
  0
VERTEX
  5
5A8
  8
0
 62
     9
 10
0.0
 20
0.0
 30
0.0
 70
   128
 71
    70
 72
    83
 73
    85
  0
VERTEX
  5
5A9
  8
0
 62
     9
 10
0.0
 20
0.0
 30
0.0
 70
   128
 71
    70
 72
    71
 73
    82
  0
VERTEX
  5
5AA
  8
0
 62
     9
 10
0.0
 20
0.0
 30
0.0
 70
   128
 71
    80
 72
    67
 73
    79
  0
VERTEX
  5
5AB
  8
0
 62
     9
 10
0.0
 20
0.0
 30
0.0
 70
   128
 71
    66
 72
    78
 73
    79
  0
VERTEX
  5
5AC
  8
0
 62
     9
 10
0.0
 20
0.0
 30
0.0
 70
   128
 71
    65
 72
    77
 73
    78
  0
VERTEX
  5
5AD
  8
0
 62
     9
 10
0.0
 20
0.0
 30
0.0
 70
   128
 71
    64
 72
    76
 73
    77
  0
VERTEX
  5
5AE
  8
0
 62
     9
 10
0.0
 20
0.0
 30
0.0
 70
   128
 71
    63
 72
    75
 73
    76
  0
VERTEX
  5
5AF
  8
0
 62
     9
 10
0.0
 20
0.0
 30
0.0
 70
   128
 71
    62
 72
    74
 73
    75
  0
VERTEX
  5
5B0
  8
0
 62
     9
 10
0.0
 20
0.0
 30
0.0
 70
   128
 71
    61
 72
    73
 73
    74
  0
VERTEX
  5
5B1
  8
0
 62
     9
 10
0.0
 20
0.0
 30
0.0
 70
   128
 71
    60
 72
    72
 73
    73
  0
VERTEX
  5
5B2
  8
0
 62
     9
 10
0.0
 20
0.0
 30
0.0
 70
   128
 71
    58
 72
    70
 73
    72
  0
VERTEX
  5
5B3
  8
0
 62
     9
 10
0.0
 20
0.0
 30
0.0
 70
   128
 71
    58
 72
    59
 73
    69
  0
VERTEX
  5
5B4
  8
0
 62
     9
 10
0.0
 20
0.0
 30
0.0
 70
   128
 71
    57
 72
    56
 73
    67
  0
VERTEX
  5
5B5
  8
0
 62
     9
 10
0.0
 20
0.0
 30
0.0
 70
   128
 71
    55
 72
    66
 73
    67
  0
VERTEX
  5
5B6
  8
0
 62
     9
 10
0.0
 20
0.0
 30
0.0
 70
   128
 71
    54
 72
    65
 73
    66
  0
VERTEX
  5
5B7
  8
0
 62
     9
 10
0.0
 20
0.0
 30
0.0
 70
   128
 71
    53
 72
    64
 73
    65
  0
VERTEX
  5
5B8
  8
0
 62
     9
 10
0.0
 20
0.0
 30
0.0
 70
   128
 71
    52
 72
    63
 73
    64
  0
VERTEX
  5
5B9
  8
0
 62
     9
 10
0.0
 20
0.0
 30
0.0
 70
   128
 71
    51
 72
    62
 73
    63
  0
VERTEX
  5
5BA
  8
0
 62
     9
 10
0.0
 20
0.0
 30
0.0
 70
   128
 71
    50
 72
    61
 73
    62
  0
VERTEX
  5
5BB
  8
0
 62
     9
 10
0.0
 20
0.0
 30
0.0
 70
   128
 71
    49
 72
    60
 73
    61
  0
VERTEX
  5
5BC
  8
0
 62
     9
 10
0.0
 20
0.0
 30
0.0
 70
   128
 71
    47
 72
    58
 73
    60
  0
VERTEX
  5
5BD
  8
0
 62
     9
 10
0.0
 20
0.0
 30
0.0
 70
   128
 71
    47
 72
    48
 73
    59
  0
VERTEX
  5
5BE
  8
0
 62
     9
 10
0.0
 20
0.0
 30
0.0
 70
   128
 71
    57
 72
    96
 73
    44
  0
VERTEX
  5
5BF
  8
0
 62
     9
 10
0.0
 20
0.0
 30
0.0
 70
   128
 71
    43
 72
    55
 73
    56
  0
VERTEX
  5
5C0
  8
0
 62
     9
 10
0.0
 20
0.0
 30
0.0
 70
   128
 71
    42
 72
    54
 73
    55
  0
VERTEX
  5
5C1
  8
0
 62
     9
 10
0.0
 20
0.0
 30
0.0
 70
   128
 71
    41
 72
    53
 73
    54
  0
VERTEX
  5
5C2
  8
0
 62
     9
 10
0.0
 20
0.0
 30
0.0
 70
   128
 71
    40
 72
    52
 73
    53
  0
VERTEX
  5
5C3
  8
0
 62
     9
 10
0.0
 20
0.0
 30
0.0
 70
   128
 71
    39
 72
    51
 73
    52
  0
VERTEX
  5
5C4
  8
0
 62
     9
 10
0.0
 20
0.0
 30
0.0
 70
   128
 71
    38
 72
    50
 73
    51
  0
VERTEX
  5
5C5
  8
0
 62
     9
 10
0.0
 20
0.0
 30
0.0
 70
   128
 71
    37
 72
    49
 73
    50
  0
VERTEX
  5
5C6
  8
0
 62
     9
 10
0.0
 20
0.0
 30
0.0
 70
   128
 71
    35
 72
    47
 73
    49
  0
VERTEX
  5
5C7
  8
0
 62
     9
 10
0.0
 20
0.0
 30
0.0
 70
   128
 71
    47
 72
    35
 73
    36
  0
VERTEX
  5
5C8
  8
0
 62
     9
 10
0.0
 20
0.0
 30
0.0
 70
   128
 71
    44
 72
    96
 73
    45
  0
VERTEX
  5
5C9
  8
0
 62
     9
 10
0.0
 20
0.0
 30
0.0
 70
   128
 71
    31
 72
    43
 73
    44
  0
VERTEX
  5
5CA
  8
0
 62
     9
 10
0.0
 20
0.0
 30
0.0
 70
   128
 71
    30
 72
    42
 73
    43
  0
VERTEX
  5
5CB
  8
0
 62
     9
 10
0.0
 20
0.0
 30
0.0
 70
   128
 71
    29
 72
    41
 73
    42
  0
VERTEX
  5
5CC
  8
0
 62
     9
 10
0.0
 20
0.0
 30
0.0
 70
   128
 71
    28
 72
    40
 73
    41
  0
VERTEX
  5
5CD
  8
0
 62
     9
 10
0.0
 20
0.0
 30
0.0
 70
   128
 71
    27
 72
    39
 73
    40
  0
VERTEX
  5
5CE
  8
0
 62
     9
 10
0.0
 20
0.0
 30
0.0
 70
   128
 71
    26
 72
    38
 73
    39
  0
VERTEX
  5
5CF
  8
0
 62
     9
 10
0.0
 20
0.0
 30
0.0
 70
   128
 71
    25
 72
    37
 73
    38
  0
VERTEX
  5
5D0
  8
0
 62
     9
 10
0.0
 20
0.0
 30
0.0
 70
   128
 71
    23
 72
    35
 73
    37
  0
VERTEX
  5
5D1
  8
0
 62
     9
 10
0.0
 20
0.0
 30
0.0
 70
   128
 71
    34
 72
    35
 73
    23
  0
VERTEX
  5
5D2
  8
0
 62
     9
 10
0.0
 20
0.0
 30
0.0
 70
   128
 71
    32
 72
    46
 73
    33
  0
VERTEX
  5
5D3
  8
0
 62
     9
 10
0.0
 20
0.0
 30
0.0
 70
   128
 71
    18
 72
    31
 73
    32
  0
VERTEX
  5
5D4
  8
0
 62
     9
 10
0.0
 20
0.0
 30
0.0
 70
   128
 71
    16
 72
    30
 73
    31
  0
VERTEX
  5
5D5
  8
0
 62
     9
 10
0.0
 20
0.0
 30
0.0
 70
   128
 71
    14
 72
    29
 73
    30
  0
VERTEX
  5
5D6
  8
0
 62
     9
 10
0.0
 20
0.0
 30
0.0
 70
   128
 71
    12
 72
    28
 73
    29
  0
VERTEX
  5
5D7
  8
0
 62
     9
 10
0.0
 20
0.0
 30
0.0
 70
   128
 71
    10
 72
    27
 73
    28
  0
VERTEX
  5
5D8
  8
0
 62
     9
 10
0.0
 20
0.0
 30
0.0
 70
   128
 71
     8
 72
    26
 73
    27
  0
VERTEX
  5
5D9
  8
0
 62
     9
 10
0.0
 20
0.0
 30
0.0
 70
   128
 71
     6
 72
    25
 73
    26
  0
VERTEX
  5
5DA
  8
0
 62
     9
 10
0.0
 20
0.0
 30
0.0
 70
   128
 71
     1
 72
    23
 73
    25
  0
VERTEX
  5
5DB
  8
0
 62
     9
 10
0.0
 20
0.0
 30
0.0
 70
   128
 71
    22
 72
    23
 73
     1
  0
VERTEX
  5
5DC
  8
0
 62
     9
 10
0.0
 20
0.0
 30
0.0
 70
   128
 71
    21
 72
    95
 73
    19
  0
VERTEX
  5
5DD
  8
0
 62
     9
 10
0.0
 20
0.0
 30
0.0
 70
   128
 71
    17
 72
    18
 73
    20
  0
VERTEX
  5
5DE
  8
0
 62
     9
 10
0.0
 20
0.0
 30
0.0
 70
   128
 71
    15
 72
    16
 73
    18
  0
VERTEX
  5
5DF
  8
0
 62
     9
 10
0.0
 20
0.0
 30
0.0
 70
   128
 71
    13
 72
    14
 73
    16
  0
VERTEX
  5
5E0
  8
0
 62
     9
 10
0.0
 20
0.0
 30
0.0
 70
   128
 71
    11
 72
    12
 73
    14
  0
VERTEX
  5
5E1
  8
0
 62
     9
 10
0.0
 20
0.0
 30
0.0
 70
   128
 71
     9
 72
    10
 73
    12
  0
VERTEX
  5
5E2
  8
0
 62
     9
 10
0.0
 20
0.0
 30
0.0
 70
   128
 71
     7
 72
     8
 73
    10
  0
VERTEX
  5
5E3
  8
0
 62
     9
 10
0.0
 20
0.0
 30
0.0
 70
   128
 71
     5
 72
     6
 73
     8
  0
VERTEX
  5
5E4
  8
0
 62
     9
 10
0.0
 20
0.0
 30
0.0
 70
   128
 71
     4
 72
     1
 73
     6
  0
VERTEX
  5
5E5
  8
0
 62
     9
 10
0.0
 20
0.0
 30
0.0
 70
   128
 71
     1
 72
     4
 73
     3
  0
SEQEND
  5
5E6
  8
0
 62
     9
  0
ENDBLK
  5
5E9
  8
0
  0
BLOCK
  8
0
  2
E3_NODE_42_
 70
     0
 10
0.0
 20
0.0
 30
0.0
  3
E3_NODE_42_
  1

  0
POLYLINE
  5
5EB
  8
0
 62
     9
 66
     1
 10
0.0
 20
0.0
 30
0.0
 70
    64
 71
    19
 72
    19
  0
VERTEX
  5
5EC
  8
0
 10
164.0059967041016
 20
0.0
 30
189.8549957275391
 70
   192
  0
VERTEX
  5
5ED
  8
0
 10
158.3430023193359
 20
9.958999633789062
 30
188.8560028076172
 70
   192
  0
VERTEX
  5
5EE
  8
0
 10
156.8690032958984
 20
8.131999969482422
 30
210.9360046386719
 70
   192
  0
VERTEX
  5
5EF
  8
0
 10
154.2299957275391
 20
9.241000175476074
 30
210.4700012207031
 70
   192
  0
VERTEX
  5
5F0
  8
0
 10
152.6809997558594
 20
11.5
 30
187.8580017089844
 70
   192
  0
VERTEX
  5
5F1
  8
0
 10
147.0180053710938
 20
9.958999633789062
 30
186.8589935302734
 70
   192
  0
VERTEX
  5
5F2
  8
0
 10
143.4909973144531
 20
9.241000175476074
 30
208.5769958496094
 70
   192
  0
VERTEX
  5
5F3
  8
0
 10
148.8609924316406
 20
11.5
 30
209.5240020751953
 70
   192
  0
VERTEX
  5
5F4
  8
0
 10
141.3560028076172
 20
0.0
 30
185.8609924316406
 70
   192
  0
VERTEX
  5
5F5
  8
0
 10
137.5350036621094
 20
0.0
 30
207.5269927978516
 70
   192
  0
VERTEX
  5
5F6
  8
0
 10
140.8520050048828
 20
8.131999969482422
 30
208.1119995117188
 70
   192
  0
VERTEX
  5
5F7
  8
0
 10
147.0180053710938
 20
-9.958999633789062
 30
186.8589935302734
 70
   192
  0
VERTEX
  5
5F8
  8
0
 10
140.8520050048828
 20
-8.131999969482422
 30
208.1119995117188
 70
   192
  0
VERTEX
  5
5F9
  8
0
 10
143.4909973144531
 20
-9.241000175476074
 30
208.5769958496094
 70
   192
  0
VERTEX
  5
5FA
  8
0
 10
158.3430023193359
 20
-9.958999633789062
 30
188.8560028076172
 70
   192
  0
VERTEX
  5
5FB
  8
0
 10
154.2299957275391
 20
-9.241000175476074
 30
210.4700012207031
 70
   192
  0
VERTEX
  5
5FC
  8
0
 10
148.8609924316406
 20
-11.5
 30
209.5240020751953
 70
   192
  0
VERTEX
  5
5FD
  8
0
 10
160.1860046386719
 20
0.0
 30
211.52099609375
 70
   192
  0
VERTEX
  5
5FE
  8
0
 10
156.8690032958984
 20
-8.131999969482422
 30
210.9360046386719
 70
   192
  0
VERTEX
  5
5FF
  8
0
 62
     9
 10
0.0
 20
0.0
 30
0.0
 70
   128
 71
     3
 72
     2
 73
     1
  0
VERTEX
  5
600
  8
0
 62
     9
 10
0.0
 20
0.0
 30
0.0
 70
   128
 71
     3
 72
     4
 73
     2
  0
VERTEX
  5
601
  8
0
 62
     9
 10
0.0
 20
0.0
 30
0.0
 70
   128
 71
     7
 72
     6
 73
     5
  0
VERTEX
  5
602
  8
0
 62
     9
 10
0.0
 20
0.0
 30
0.0
 70
   128
 71
     4
 72
     8
 73
     5
  0
VERTEX
  5
603
  8
0
 62
     9
 10
0.0
 20
0.0
 30
0.0
 70
   128
 71
     5
 72
     2
 73
     4
  0
VERTEX
  5
604
  8
0
 62
     9
 10
0.0
 20
0.0
 30
0.0
 70
   128
 71
    11
 72
    10
 73
     9
  0
VERTEX
  5
605
  8
0
 62
     9
 10
0.0
 20
0.0
 30
0.0
 70
   128
 71
     9
 72
     6
 73
    11
  0
VERTEX
  5
606
  8
0
 62
     9
 10
0.0
 20
0.0
 30
0.0
 70
   128
 71
    13
 72
    12
 73
     9
  0
VERTEX
  5
607
  8
0
 62
     9
 10
0.0
 20
0.0
 30
0.0
 70
   128
 71
    13
 72
    14
 73
    12
  0
VERTEX
  5
608
  8
0
 62
     9
 10
0.0
 20
0.0
 30
0.0
 70
   128
 71
    17
 72
    16
 73
    15
  0
VERTEX
  5
609
  8
0
 62
     9
 10
0.0
 20
0.0
 30
0.0
 70
   128
 71
    15
 72
    12
 73
    17
  0
VERTEX
  5
60A
  8
0
 62
     9
 10
0.0
 20
0.0
 30
0.0
 70
   128
 71
    19
 72
    18
 73
     1
  0
VERTEX
  5
60B
  8
0
 62
     9
 10
0.0
 20
0.0
 30
0.0
 70
   128
 71
     1
 72
    15
 73
    19
  0
VERTEX
  5
60C
  8
0
 62
     9
 10
0.0
 20
0.0
 30
0.0
 70
   128
 71
    15
 72
    16
 73
    19
  0
VERTEX
  5
60D
  8
0
 62
     9
 10
0.0
 20
0.0
 30
0.0
 70
   128
 71
    12
 72
    14
 73
    17
  0
VERTEX
  5
60E
  8
0
 62
     9
 10
0.0
 20
0.0
 30
0.0
 70
   128
 71
     9
 72
    10
 73
    13
  0
VERTEX
  5
60F
  8
0
 62
     9
 10
0.0
 20
0.0
 30
0.0
 70
   128
 71
     6
 72
     7
 73
    11
  0
VERTEX
  5
610
  8
0
 62
     9
 10
0.0
 20
0.0
 30
0.0
 70
   128
 71
     5
 72
     8
 73
     7
  0
VERTEX
  5
611
  8
0
 62
     9
 10
0.0
 20
0.0
 30
0.0
 70
   128
 71
     1
 72
    18
 73
     3
  0
SEQEND
  5
612
  8
0
 62
     9
  0
ENDBLK
  5
615
  8
0
  0
BLOCK
  8
0
  2
E3_NODE_43_
 70
     0
 10
0.0
 20
0.0
 30
0.0
  3
E3_NODE_43_
  1

  0
POLYLINE
  5
617
  8
0
 62
     9
 66
     1
 10
0.0
 20
0.0
 30
0.0
 70
    64
 71
     7
 72
     5
  0
VERTEX
  5
618
  8
0
 10
147.0180053710938
 20
9.958999633789062
 30
186.8589935302734
 70
   192
  0
VERTEX
  5
619
  8
0
 10
158.3430023193359
 20
-9.958999633789062
 30
188.8560028076172
 70
   192
  0
VERTEX
  5
61A
  8
0
 10
147.0180053710938
 20
-9.958999633789062
 30
186.8589935302734
 70
   192
  0
VERTEX
  5
61B
  8
0
 10
152.6809997558594
 20
11.5
 30
187.8580017089844
 70
   192
  0
VERTEX
  5
61C
  8
0
 10
158.3430023193359
 20
9.958999633789062
 30
188.8560028076172
 70
   192
  0
VERTEX
  5
61D
  8
0
 10
141.3560028076172
 20
0.0
 30
185.8609924316406
 70
   192
  0
VERTEX
  5
61E
  8
0
 10
164.0059967041016
 20
0.0
 30
189.8549957275391
 70
   192
  0
VERTEX
  5
61F
  8
0
 62
     9
 10
0.0
 20
0.0
 30
0.0
 70
   128
 71
     3
 72
     2
 73
     1
  0
VERTEX
  5
620
  8
0
 62
     9
 10
0.0
 20
0.0
 30
0.0
 70
   128
 71
     5
 72
     4
 73
     2
  0
VERTEX
  5
621
  8
0
 62
     9
 10
0.0
 20
0.0
 30
0.0
 70
   128
 71
     1
 72
     6
 73
     3
  0
VERTEX
  5
622
  8
0
 62
     9
 10
0.0
 20
0.0
 30
0.0
 70
   128
 71
     2
 72
     4
 73
     1
  0
VERTEX
  5
623
  8
0
 62
     9
 10
0.0
 20
0.0
 30
0.0
 70
   128
 71
     2
 72
     7
 73
     5
  0
SEQEND
  5
624
  8
0
 62
     9
  0
ENDBLK
  5
627
  8
0
  0
BLOCK
  8
0
  2
E3_NODE_44_
 70
     0
 10
0.0
 20
0.0
 30
0.0
  3
E3_NODE_44_
  1

  0
POLYLINE
  5
629
  8
0
 62
     9
 66
     1
 10
0.0
 20
0.0
 30
0.0
 70
    64
 71
     8
 72
     8
  0
VERTEX
  5
62A
  8
0
 10
-34.73799896240234
 20
-2.0
 30
71.13600158691406
 70
   192
  0
VERTEX
  5
62B
  8
0
 10
-36.63999938964844
 20
0.0
 30
70.51799774169922
 70
   192
  0
VERTEX
  5
62C
  8
0
 10
-17.29500007629395
 20
0.0
 30
10.97999954223633
 70
   192
  0
VERTEX
  5
62D
  8
0
 10
-32.83599853515625
 20
0.0
 30
71.75399780273438
 70
   192
  0
VERTEX
  5
62E
  8
0
 10
-15.19200038909912
 20
-2.0
 30
10.97999954223633
 70
   192
  0
VERTEX
  5
62F
  8
0
 10
-13.08899974822998
 20
0.0
 30
10.97999954223633
 70
   192
  0
VERTEX
  5
630
  8
0
 10
-15.19200038909912
 20
2.0
 30
10.97999954223633
 70
   192
  0
VERTEX
  5
631
  8
0
 10
-34.73799896240234
 20
2.0
 30
71.13600158691406
 70
   192
  0
VERTEX
  5
632
  8
0
 62
     9
 10
0.0
 20
0.0
 30
0.0
 70
   128
 71
     3
 72
     2
 73
     1
  0
VERTEX
  5
633
  8
0
 62
     9
 10
0.0
 20
0.0
 30
0.0
 70
   128
 71
     5
 72
     1
 73
     4
  0
VERTEX
  5
634
  8
0
 62
     9
 10
0.0
 20
0.0
 30
0.0
 70
   128
 71
     7
 72
     6
 73
     4
  0
VERTEX
  5
635
  8
0
 62
     9
 10
0.0
 20
0.0
 30
0.0
 70
   128
 71
     3
 72
     7
 73
     8
  0
VERTEX
  5
636
  8
0
 62
     9
 10
0.0
 20
0.0
 30
0.0
 70
   128
 71
     8
 72
     2
 73
     3
  0
VERTEX
  5
637
  8
0
 62
     9
 10
0.0
 20
0.0
 30
0.0
 70
   128
 71
     4
 72
     8
 73
     7
  0
VERTEX
  5
638
  8
0
 62
     9
 10
0.0
 20
0.0
 30
0.0
 70
   128
 71
     4
 72
     6
 73
     5
  0
VERTEX
  5
639
  8
0
 62
     9
 10
0.0
 20
0.0
 30
0.0
 70
   128
 71
     1
 72
     5
 73
     3
  0
SEQEND
  5
63A
  8
0
 62
     9
  0
ENDBLK
  5
63D
  8
0
  0
BLOCK
  8
0
  2
E3_NODE_45_
 70
     0
 10
0.0
 20
0.0
 30
0.0
  3
E3_NODE_45_
  1

  0
POLYLINE
  5
63F
  8
0
 62
     9
 66
     1
 10
0.0
 20
0.0
 30
0.0
 70
    64
 71
    16
 72
    16
  0
VERTEX
  5
640
  8
0
 10
14.07299995422363
 20
11.22299957275391
 30
92.0
 70
   192
  0
VERTEX
  5
641
  8
0
 10
14.07299995422363
 20
11.22299957275391
 30
0.0
 70
   192
  0
VERTEX
  5
642
  8
0
 10
0.0
 20
18.0
 30
0.0
 70
   192
  0
VERTEX
  5
643
  8
0
 10
18.0
 20
0.0
 30
92.0
 70
   192
  0
VERTEX
  5
644
  8
0
 10
17.54899978637695
 20
-4.005000114440918
 30
92.0
 70
   192
  0
VERTEX
  5
645
  8
0
 10
17.54899978637695
 20
-4.005000114440918
 30
0.0
 70
   192
  0
VERTEX
  5
646
  8
0
 10
18.0
 20
0.0
 30
0.0
 70
   192
  0
VERTEX
  5
647
  8
0
 10
7.809999942779541
 20
-16.21699905395508
 30
92.0
 70
   192
  0
VERTEX
  5
648
  8
0
 10
7.809999942779541
 20
-16.21699905395508
 30
0.0
 70
   192
  0
VERTEX
  5
649
  8
0
 10
-7.809999942779541
 20
-16.21699905395508
 30
92.0
 70
   192
  0
VERTEX
  5
64A
  8
0
 10
-7.809999942779541
 20
-16.21699905395508
 30
0.0
 70
   192
  0
VERTEX
  5
64B
  8
0
 10
-17.54899978637695
 20
-4.005000114440918
 30
0.0
 70
   192
  0
VERTEX
  5
64C
  8
0
 10
-14.07299995422363
 20
11.22299957275391
 30
0.0
 70
   192
  0
VERTEX
  5
64D
  8
0
 10
-17.54899978637695
 20
-4.005000114440918
 30
92.0
 70
   192
  0
VERTEX
  5
64E
  8
0
 10
-14.07299995422363
 20
11.22299957275391
 30
92.0
 70
   192
  0
VERTEX
  5
64F
  8
0
 10
0.0
 20
18.0
 30
92.0
 70
   192
  0
VERTEX
  5
650
  8
0
 62
     9
 10
0.0
 20
0.0
 30
0.0
 70
   128
 71
     3
 72
     2
 73
     1
  0
VERTEX
  5
651
  8
0
 62
     9
 10
0.0
 20
0.0
 30
0.0
 70
   128
 71
     6
 72
     5
 73
     4
  0
VERTEX
  5
652
  8
0
 62
     9
 10
0.0
 20
0.0
 30
0.0
 70
   128
 71
     4
 72
     1
 73
     2
  0
VERTEX
  5
653
  8
0
 62
     9
 10
0.0
 20
0.0
 30
0.0
 70
   128
 71
     2
 72
     7
 73
     4
  0
VERTEX
  5
654
  8
0
 62
     9
 10
0.0
 20
0.0
 30
0.0
 70
   128
 71
     6
 72
     9
 73
     8
  0
VERTEX
  5
655
  8
0
 62
     9
 10
0.0
 20
0.0
 30
0.0
 70
   128
 71
     9
 72
    11
 73
    10
  0
VERTEX
  5
656
  8
0
 62
     9
 10
0.0
 20
0.0
 30
0.0
 70
   128
 71
    10
 72
    11
 73
    12
  0
VERTEX
  5
657
  8
0
 62
     9
 10
0.0
 20
0.0
 30
0.0
 70
   128
 71
    14
 72
    12
 73
    13
  0
VERTEX
  5
658
  8
0
 62
     9
 10
0.0
 20
0.0
 30
0.0
 70
   128
 71
    15
 72
    13
 73
     3
  0
VERTEX
  5
659
  8
0
 62
     9
 10
0.0
 20
0.0
 30
0.0
 70
   128
 71
     3
 72
    16
 73
    15
  0
VERTEX
  5
65A
  8
0
 62
     9
 10
0.0
 20
0.0
 30
0.0
 70
   128
 71
    13
 72
    15
 73
    14
  0
VERTEX
  5
65B
  8
0
 62
     9
 10
0.0
 20
0.0
 30
0.0
 70
   128
 71
    12
 72
    14
 73
    10
  0
VERTEX
  5
65C
  8
0
 62
     9
 10
0.0
 20
0.0
 30
0.0
 70
   128
 71
    10
 72
     8
 73
     9
  0
VERTEX
  5
65D
  8
0
 62
     9
 10
0.0
 20
0.0
 30
0.0
 70
   128
 71
     8
 72
     5
 73
     6
  0
VERTEX
  5
65E
  8
0
 62
     9
 10
0.0
 20
0.0
 30
0.0
 70
   128
 71
     4
 72
     7
 73
     6
  0
VERTEX
  5
65F
  8
0
 62
     9
 10
0.0
 20
0.0
 30
0.0
 70
   128
 71
     1
 72
    16
 73
     3
  0
SEQEND
  5
660
  8
0
 62
     9
  0
ENDBLK
  5
663
  8
0
  0
BLOCK
  8
0
  2
E3_NODE_46_
 70
     0
 10
0.0
 20
0.0
 30
0.0
  3
E3_NODE_46_
  1

  0
POLYLINE
  5
665
  8
0
 62
     9
 66
     1
 10
0.0
 20
0.0
 30
0.0
 70
    64
 71
     8
 72
     6
  0
VERTEX
  5
666
  8
0
 10
14.07299995422363
 20
11.22299957275391
 30
92.0
 70
   192
  0
VERTEX
  5
667
  8
0
 10
0.0
 20
18.0
 30
92.0
 70
   192
  0
VERTEX
  5
668
  8
0
 10
-14.07299995422363
 20
11.22299957275391
 30
92.0
 70
   192
  0
VERTEX
  5
669
  8
0
 10
-17.54899978637695
 20
-4.005000114440918
 30
92.0
 70
   192
  0
VERTEX
  5
66A
  8
0
 10
-7.809999942779541
 20
-16.21699905395508
 30
92.0
 70
   192
  0
VERTEX
  5
66B
  8
0
 10
7.809999942779541
 20
-16.21699905395508
 30
92.0
 70
   192
  0
VERTEX
  5
66C
  8
0
 10
18.0
 20
0.0
 30
92.0
 70
   192
  0
VERTEX
  5
66D
  8
0
 10
17.54899978637695
 20
-4.005000114440918
 30
92.0
 70
   192
  0
VERTEX
  5
66E
  8
0
 62
     9
 10
0.0
 20
0.0
 30
0.0
 70
   128
 71
     3
 72
     2
 73
     1
  0
VERTEX
  5
66F
  8
0
 62
     9
 10
0.0
 20
0.0
 30
0.0
 70
   128
 71
     6
 72
     5
 73
     4
  0
VERTEX
  5
670
  8
0
 62
     9
 10
0.0
 20
0.0
 30
0.0
 70
   128
 71
     1
 72
     7
 73
     4
  0
VERTEX
  5
671
  8
0
 62
     9
 10
0.0
 20
0.0
 30
0.0
 70
   128
 71
     4
 72
     8
 73
     6
  0
VERTEX
  5
672
  8
0
 62
     9
 10
0.0
 20
0.0
 30
0.0
 70
   128
 71
     4
 72
     7
 73
     8
  0
VERTEX
  5
673
  8
0
 62
     9
 10
0.0
 20
0.0
 30
0.0
 70
   128
 71
     1
 72
     4
 73
     3
  0
SEQEND
  5
674
  8
0
 62
     9
  0
ENDBLK
  5
677
  8
0
  0
ENDSEC
  0
SECTION
  2
ENTITIES
  0
INSERT
  5
54
  8
LAYER_1
  2
E3_NODE
 10
0.0
 20
0.0
 30
0.0
  0
INSERT
  5
8B
  8
LAYER_1
  2
E3_NODE_1_
 10
0.0
 20
0.0
 30
0.0
  0
INSERT
  5
BF
  8
LAYER_1
  2
E3_NODE_2_
 10
0.0
 20
0.0
 30
0.0
  0
INSERT
  5
F1
  8
LAYER_1
  2
E3_NODE_3_
 10
0.0
 20
0.0
 30
0.0
  0
INSERT
  5
123
  8
LAYER_1
  2
E3_NODE_4_
 10
0.0
 20
0.0
 30
0.0
  0
INSERT
  5
139
  8
LAYER_1
  2
E3_NODE_5_
 10
0.0
 20
0.0
 30
0.0
  0
INSERT
  5
163
  8
LAYER_1
  2
E3_NODE_6_
 10
0.0
 20
0.0
 30
0.0
  0
INSERT
  5
18B
  8
LAYER_1
  2
E3_NODE_7_
 10
0.0
 20
0.0
 30
0.0
  0
INSERT
  5
1B1
  8
LAYER_1
  2
E3_NODE_8_
 10
0.0
 20
0.0
 30
0.0
  0
INSERT
  5
1C5
  8
LAYER_1
  2
E3_NODE_9_
 10
0.0
 20
0.0
 30
0.0
  0
INSERT
  5
1E3
  8
LAYER_1
  2
E3_NODE_10_
 10
0.0
 20
0.0
 30
0.0
  0
INSERT
  5
1FD
  8
LAYER_1
  2
E3_NODE_11_
 10
0.0
 20
0.0
 30
0.0
  0
INSERT
  5
213
  8
LAYER_1
  2
E3_NODE_12_
 10
0.0
 20
0.0
 30
0.0
  0
INSERT
  5
229
  8
LAYER_1
  2
E3_NODE_13_
 10
0.0
 20
0.0
 30
0.0
  0
INSERT
  5
23F
  8
LAYER_1
  2
E3_NODE_14_
 10
0.0
 20
0.0
 30
0.0
  0
INSERT
  5
255
  8
LAYER_1
  2
E3_NODE_15_
 10
0.0
 20
0.0
 30
0.0
  0
INSERT
  5
26B
  8
LAYER_1
  2
E3_NODE_16_
 10
0.0
 20
0.0
 30
0.0
  0
INSERT
  5
277
  8
LAYER_1
  2
E3_NODE_17_
 10
0.0
 20
0.0
 30
0.0
  0
INSERT
  5
289
  8
LAYER_1
  2
E3_NODE_18_
 10
0.0
 20
0.0
 30
0.0
  0
INSERT
  5
2AB
  8
LAYER_1
  2
E3_NODE_19_
 10
0.0
 20
0.0
 30
0.0
  0
INSERT
  5
2B7
  8
LAYER_1
  2
E3_NODE_20_
 10
0.0
 20
0.0
 30
0.0
  0
INSERT
  5
2CD
  8
LAYER_1
  2
E3_NODE_21_
 10
0.0
 20
0.0
 30
0.0
  0
INSERT
  5
2D9
  8
LAYER_1
  2
E3_NODE_22_
 10
0.0
 20
0.0
 30
0.0
  0
INSERT
  5
2EF
  8
LAYER_1
  2
E3_NODE_23_
 10
0.0
 20
0.0
 30
0.0
  0
INSERT
  5
319
  8
LAYER_1
  2
E3_NODE_24_
 10
0.0
 20
0.0
 30
0.0
  0
INSERT
  5
341
  8
LAYER_1
  2
E3_NODE_25_
 10
0.0
 20
0.0
 30
0.0
  0
INSERT
  5
367
  8
LAYER_1
  2
E3_NODE_26_
 10
0.0
 20
0.0
 30
0.0
  0
INSERT
  5
38D
  8
LAYER_1
  2
E3_NODE_27_
 10
0.0
 20
0.0
 30
0.0
  0
INSERT
  5
39F
  8
LAYER_1
  2
E3_NODE_28_
 10
0.0
 20
0.0
 30
0.0
  0
INSERT
  5
3C1
  8
LAYER_1
  2
E3_NODE_29_
 10
0.0
 20
0.0
 30
0.0
  0
INSERT
  5
3DF
  8
LAYER_1
  2
E3_NODE_30_
 10
0.0
 20
0.0
 30
0.0
  0
INSERT
  5
3F9
  8
LAYER_1
  2
E3_NODE_31_
 10
0.0
 20
0.0
 30
0.0
  0
INSERT
  5
40F
  8
LAYER_1
  2
E3_NODE_32_
 10
0.0
 20
0.0
 30
0.0
  0
INSERT
  5
425
  8
LAYER_1
  2
E3_NODE_33_
 10
0.0
 20
0.0
 30
0.0
  0
INSERT
  5
43B
  8
LAYER_1
  2
E3_NODE_34_
 10
0.0
 20
0.0
 30
0.0
  0
INSERT
  5
451
  8
LAYER_1
  2
E3_NODE_35_
 10
0.0
 20
0.0
 30
0.0
  0
INSERT
  5
467
  8
LAYER_1
  2
E3_NODE_36_
 10
0.0
 20
0.0
 30
0.0
  0
INSERT
  5
473
  8
LAYER_1
  2
E3_NODE_37_
 10
0.0
 20
0.0
 30
0.0
  0
INSERT
  5
491
  8
LAYER_1
  2
E3_NODE_38_
 10
0.0
 20
0.0
 30
0.0
  0
INSERT
  5
4AF
  8
LAYER_1
  2
E3_NODE_39_
 10
0.0
 20
0.0
 30
0.0
  0
INSERT
  5
4D9
  8
LAYER_1
  2
E3_NODE_40_
 10
0.0
 20
0.0
 30
0.0
  0
INSERT
  5
5E7
  8
LAYER_1
  2
E3_NODE_41_
 10
0.0
 20
0.0
 30
0.0
  0
INSERT
  5
613
  8
LAYER_1
  2
E3_NODE_42_
 10
0.0
 20
0.0
 30
0.0
  0
INSERT
  5
625
  8
LAYER_1
  2
E3_NODE_43_
 10
0.0
 20
0.0
 30
0.0
  0
INSERT
  5
63B
  8
LAYER_1
  2
E3_NODE_44_
 10
0.0
 20
0.0
 30
0.0
  0
INSERT
  5
661
  8
LAYER_1
  2
E3_NODE_45_
 10
0.0
 20
0.0
 30
0.0
  0
INSERT
  5
675
  8
LAYER_1
  2
E3_NODE_46_
 10
0.0
 20
0.0
 30
0.0
  0
ENDSEC
  0
EOF
