  0
SECTION
  2
HEADER
  9
$ACADVER
  1
AC1015
  9
$ACADMAINTVER
 70
     6
  9
$DWGCODEPAGE
  3
ANSI_1252
  9
$INSBASE
 10
0.0
 20
0.0
 30
0.0
  9
$EXTMIN
 10
0.0
 20
0.0
 30
0.0
  9
$EXTMAX
 10
1682.0
 20
2378.0
 30
0.0
  9
$LIMMIN
 10
0.0
 20
0.0
  9
$LIMMAX
 10
1682.0
 20
2378.0
  9
$ORTHOMODE
 70
     0
  9
$REGENMODE
 70
     1
  9
$FILLMODE
 70
     1
  9
$QTEXTMODE
 70
     0
  9
$MIRRTEXT
 70
     1
  9
$LTSCALE
 40
1.0
  9
$ATTMODE
 70
     1
  9
$TEXTSIZE
 40
2.5
  9
$TRACEWID
 40
1.0
  9
$TEXTSTYLE
  7
Standard
  9
$CLAYER
  8
0
  9
$CELTYPE
  6
ByLayer
  9
$CECOLOR
 62
   256
  9
$CELTSCALE
 40
1.0
  9
$DISPSILH
 70
     0
  9
$DIMSCALE
 40
1.0
  9
$DIMASZ
 40
2.5
  9
$DIMEXO
 40
0.625
  9
$DIMDLI
 40
3.75
  9
$DIMRND
 40
0.0
  9
$DIMDLE
 40
0.0
  9
$DIMEXE
 40
1.25
  9
$DIMTP
 40
0.0
  9
$DIMTM
 40
0.0
  9
$DIMTXT
 40
2.5
  9
$DIMCEN
 40
2.5
  9
$DIMTSZ
 40
0.0
  9
$DIMTOL
 70
     0
  9
$DIMLIM
 70
     0
  9
$DIMTIH
 70
     0
  9
$DIMTOH
 70
     0
  9
$DIMSE1
 70
     0
  9
$DIMSE2
 70
     0
  9
$DIMTAD
 70
     1
  9
$DIMZIN
 70
     8
  9
$DIMBLK
  1

  9
$DIMASO
 70
     1
  9
$DIMSHO
 70
     1
  9
$DIMPOST
  1

  9
$DIMAPOST
  1

  9
$DIMALT
 70
     0
  9
$DIMALTD
 70
     3
  9
$DIMALTF
 40
0.0393700787
  9
$DIMLFAC
 40
1.0
  9
$DIMTOFL
 70
     1
  9
$DIMTVP
 40
0.0
  9
$DIMTIX
 70
     0
  9
$DIMSOXD
 70
     0
  9
$DIMSAH
 70
     0
  9
$DIMBLK1
  1

  9
$DIMBLK2
  1

  9
$DIMSTYLE
  2
ISO-25
  9
$DIMCLRD
 70
     0
  9
$DIMCLRE
 70
     0
  9
$DIMCLRT
 70
     0
  9
$DIMTFAC
 40
1.0
  9
$DIMGAP
 40
0.625
  9
$DIMJUST
 70
     0
  9
$DIMSD1
 70
     0
  9
$DIMSD2
 70
     0
  9
$DIMTOLJ
 70
     0
  9
$DIMTZIN
 70
     8
  9
$DIMALTZ
 70
     0
  9
$DIMALTTZ
 70
     0
  9
$DIMUPT
 70
     0
  9
$DIMDEC
 70
     2
  9
$DIMTDEC
 70
     2
  9
$DIMALTU
 70
     2
  9
$DIMALTTD
 70
     3
  9
$DIMTXSTY
  7
Standard
  9
$DIMAUNIT
 70
     0
  9
$DIMADEC
 70
     0
  9
$DIMALTRND
 40
0.0
  9
$DIMAZIN
 70
     0
  9
$DIMDSEP
 70
    44
  9
$DIMATFIT
 70
     3
  9
$DIMFRAC
 70
     0
  9
$DIMLDRBLK
  1

  9
$DIMLUNIT
 70
     2
  9
$DIMLWD
 70
    -2
  9
$DIMLWE
 70
    -2
  9
$DIMTMOVE
 70
     0
  9
$LUNITS
 70
     2
  9
$LUPREC
 70
     4
  9
$SKETCHINC
 40
1.0
  9
$FILLETRAD
 40
10.0
  9
$AUNITS
 70
     0
  9
$AUPREC
 70
     0
  9
$MENU
  1
.
  9
$ELEVATION
 40
0.0
  9
$PELEVATION
 40
0.0
  9
$THICKNESS
 40
0.0
  9
$LIMCHECK
 70
     0
  9
$CHAMFERA
 40
10.0
  9
$CHAMFERB
 40
10.0
  9
$CHAMFERC
 40
20.0
  9
$CHAMFERD
 40
0.0
  9
$SKPOLY
 70
     0
  9
$TDCREATE
 40
2455519.637426678
  9
$TDUCREATE
 40
2455519.595760012
  9
$TDUPDATE
 40
2455519.63742669
  9
$TDUUPDATE
 40
2455519.595760023
  9
$TDINDWG
 40
0.0000000116
  9
$TDUSRTIMER
 40
0.0000000116
  9
$USRTIMER
 70
     1
  9
$ANGBASE
 50
0.0
  9
$ANGDIR
 70
     0
  9
$PDMODE
 70
     0
  9
$PDSIZE
 40
0.0
  9
$PLINEWID
 40
0.0
  9
$SPLFRAME
 70
     0
  9
$SPLINETYPE
 70
     6
  9
$SPLINESEGS
 70
     8
  9
$HANDSEED
  5
12B
  9
$SURFTAB1
 70
     6
  9
$SURFTAB2
 70
     6
  9
$SURFTYPE
 70
     6
  9
$SURFU
 70
     6
  9
$SURFV
 70
     6
  9
$UCSBASE
  2

  9
$UCSNAME
  2

  9
$UCSORG
 10
0.0
 20
0.0
 30
0.0
  9
$UCSXDIR
 10
1.0
 20
0.0
 30
0.0
  9
$UCSYDIR
 10
0.0
 20
1.0
 30
0.0
  9
$UCSORTHOREF
  2

  9
$UCSORTHOVIEW
 70
     0
  9
$UCSORGTOP
 10
0.0
 20
0.0
 30
0.0
  9
$UCSORGBOTTOM
 10
0.0
 20
0.0
 30
0.0
  9
$UCSORGLEFT
 10
0.0
 20
0.0
 30
0.0
  9
$UCSORGRIGHT
 10
0.0
 20
0.0
 30
0.0
  9
$UCSORGFRONT
 10
0.0
 20
0.0
 30
0.0
  9
$UCSORGBACK
 10
0.0
 20
0.0
 30
0.0
  9
$PUCSBASE
  2

  9
$PUCSNAME
  2

  9
$PUCSORG
 10
0.0
 20
0.0
 30
0.0
  9
$PUCSXDIR
 10
1.0
 20
0.0
 30
0.0
  9
$PUCSYDIR
 10
0.0
 20
1.0
 30
0.0
  9
$PUCSORTHOREF
  2

  9
$PUCSORTHOVIEW
 70
     0
  9
$PUCSORGTOP
 10
0.0
 20
0.0
 30
0.0
  9
$PUCSORGBOTTOM
 10
0.0
 20
0.0
 30
0.0
  9
$PUCSORGLEFT
 10
0.0
 20
0.0
 30
0.0
  9
$PUCSORGRIGHT
 10
0.0
 20
0.0
 30
0.0
  9
$PUCSORGFRONT
 10
0.0
 20
0.0
 30
0.0
  9
$PUCSORGBACK
 10
0.0
 20
0.0
 30
0.0
  9
$USERI1
 70
     0
  9
$USERI2
 70
     0
  9
$USERI3
 70
     0
  9
$USERI4
 70
     0
  9
$USERI5
 70
     0
  9
$USERR1
 40
0.0
  9
$USERR2
 40
0.0
  9
$USERR3
 40
0.0
  9
$USERR4
 40
0.0
  9
$USERR5
 40
0.0
  9
$WORLDVIEW
 70
     1
  9
$SHADEDGE
 70
     3
  9
$SHADEDIF
 70
    70
  9
$TILEMODE
 70
     1
  9
$MAXACTVP
 70
    64
  9
$PINSBASE
 10
0.0
 20
0.0
 30
0.0
  9
$PLIMCHECK
 70
     0
  9
$PEXTMIN
 10
0.0
 20
0.0
 30
0.0
  9
$PEXTMAX
 10
1682.0
 20
2378.0
 30
0.0
  9
$PLIMMIN
 10
0.0
 20
0.0
  9
$PLIMMAX
 10
1682.0
 20
2378.0
  9
$UNITMODE
 70
     0
  9
$VISRETAIN
 70
     1
  9
$PLINEGEN
 70
     0
  9
$PSLTSCALE
 70
     1
  9
$TREEDEPTH
 70
  3020
  9
$CMLSTYLE
  2
Standard
  9
$CMLJUST
 70
     0
  9
$CMLSCALE
 40
20.0
  9
$PROXYGRAPHICS
 70
     1
  9
$MEASUREMENT
 70
     1
  9
$CELWEIGHT
370
    -1
  9
$ENDCAPS
280
     0
  9
$JOINSTYLE
280
     0
  9
$LWDISPLAY
290
     0
  9
$INSUNITS
 70
     4
  9
$HYPERLINKBASE
  1

  9
$STYLESHEET
  1

  9
$XEDIT
290
     1
  9
$CEPSNTYPE
380
     0
  9
$PSTYLEMODE
290
     1
  9
$FINGERPRINTGUID
  2
{CED70EB4-D201-4AB2-8A59-CAE20F5DA945}
  9
$VERSIONGUID
  2
{FAEB1C32-E019-11D5-929B-00C0DF256EC4}
  9
$EXTNAMES
290
     1
  9
$PSVPSCALE
 40
0.0
  9
$OLESTARTUP
290
     0
  0
ENDSEC
  0
SECTION
  2
CLASSES
  0
CLASS
  1
ACDBDICTIONARYWDFLT
  2
AcDbDictionaryWithDefault
  3
ObjectDBX Classes
 90
        0
280
     0
281
     0
  0
CLASS
  1
VISUALSTYLE
  2
AcDbVisualStyle
  3
ObjectDBX Classes
 90
     4095
280
     0
281
     0
  0
CLASS
  1
SCALE
  2
AcDbScale
  3
ObjectDBX Classes
 90
     1153
280
     0
281
     0
  0
CLASS
  1
DICTIONARYVAR
  2
AcDbDictionaryVar
  3
ObjectDBX Classes
 90
        0
280
     0
281
     0
  0
CLASS
  1
ACDBPLACEHOLDER
  2
AcDbPlaceHolder
  3
ObjectDBX Classes
 90
        0
280
     0
281
     0
  0
CLASS
  1
LAYOUT
  2
AcDbLayout
  3
ObjectDBX Classes
 90
        0
280
     0
281
     0
  0
ENDSEC
  0
SECTION
  2
TABLES
  0
TABLE
  2
VPORT
  5
8
330
0
100
AcDbSymbolTable
 70
     1
  0
VPORT
  5
29
330
8
100
AcDbSymbolTableRecord
100
AcDbViewportTableRecord
  2
*Active
 70
     0
 10
0.0
 20
0.0
 11
1.0
 21
1.0
 12
344.1869158879
 22
148.5
 13
0.0
 23
0.0
 14
10.0
 24
10.0
 15
10.0
 25
10.0
 16
0.0
 26
0.0
 36
1.0
 17
0.0
 27
0.0
 37
0.0
 40
297.0
 41
1.9729729729
 42
50.0
 43
0.0
 44
0.0
 50
0.0
 51
0.0
 71
     0
 72
   100
 73
     1
 74
     3
 75
     0
 76
     0
 77
     0
 78
     0
281
     0
 65
     1
110
0.0
120
0.0
130
0.0
111
1.0
121
0.0
131
0.0
112
0.0
122
1.0
132
0.0
 79
     0
146
0.0
  0
ENDTAB
  0
TABLE
  2
LTYPE
  5
5
330
0
100
AcDbSymbolTable
 70
     2
  0
LTYPE
  5
14
330
5
100
AcDbSymbolTableRecord
100
AcDbLinetypeTableRecord
  2
ByBlock
 70
     0
  3

 72
    65
 73
     0
 40
0.0
  0
LTYPE
  5
15
330
5
100
AcDbSymbolTableRecord
100
AcDbLinetypeTableRecord
  2
ByLayer
 70
     0
  3

 72
    65
 73
     0
 40
0.0
  0
LTYPE
  5
16
330
5
100
AcDbSymbolTableRecord
100
AcDbLinetypeTableRecord
  2
Continuous
 70
     0
  3
Solid line
 72
    65
 73
     0
 40
0.0
  0
LTYPE
  5
60
330
5
100
AcDbSymbolTableRecord
100
AcDbLinetypeTableRecord
  2
CENTER2
 70
     0
  3
Center (.5x) ___ _ ___ _ ___ _ ___ _ ___ _ ___
 72
    65
 73
     4
 40
28.575
 49
19.05
 74
     4
 75
     0
340
0
 46
0.0
 50
0.0
 44
0.0
 45
0.0
 49
-3.175
 74
     4
 75
     0
340
0
 46
0.0
 50
0.0
 44
0.0
 45
0.0
 49
3.175
 74
     4
 75
     0
340
0
 46
0.0
 50
0.0
 44
0.0
 45
0.0
 49
-3.175
 74
     4
 75
     0
340
0
 46
0.0
 50
0.0
 44
0.0
 45
0.0
  0
ENDTAB
  0
TABLE
  2
LAYER
  5
2
330
0
100
AcDbSymbolTable
 70
     8
  0
LAYER
  5
10
330
2
100
AcDbSymbolTableRecord
100
AcDbLayerTableRecord
  2
0
 70
     0
 62
     7
  6
Continuous
370
    -3
390
F
  0
LAYER
  5
5D
330
2
100
AcDbSymbolTableRecord
100
AcDbLayerTableRecord
  2
Default
 70
     0
 62
     7
  6
Continuous
370
    -3
390
F
  0
LAYER
  5
77
330
2
100
AcDbSymbolTableRecord
100
AcDbLayerTableRecord
  2
$DDT_AUDIT_GENERATED_(77)
 70
     0
 62
     7
  6
Continuous
370
    -3
390
F
  0
LAYER
  5
7C
330
2
100
AcDbSymbolTableRecord
100
AcDbLayerTableRecord
  2
$DDT_AUDIT_GENERATED_(7C)
 70
     0
 62
     7
  6
Continuous
370
    -3
390
F
  0
LAYER
  5
87
330
2
100
AcDbSymbolTableRecord
100
AcDbLayerTableRecord
  2
$DDT_AUDIT_GENERATED_(87)
 70
     0
 62
     7
  6
Continuous
370
    -3
390
F
  0
LAYER
  5
97
330
2
100
AcDbSymbolTableRecord
100
AcDbLayerTableRecord
  2
64812038_GRIFF_H
 70
     0
 62
     7
  6
Continuous
370
    -3
390
F
  0
LAYER
  5
A8
330
2
100
AcDbSymbolTableRecord
100
AcDbLayerTableRecord
  2
$DDT_AUDIT_GENERATED_(A8)
 70
     0
 62
     7
  6
Continuous
370
    -3
390
F
  0
LAYER
  5
AF
330
2
100
AcDbSymbolTableRecord
100
AcDbLayerTableRecord
  2
$DDT_AUDIT_GENERATED_(AF)
 70
     0
 62
     7
  6
Continuous
370
    -3
390
F
  0
ENDTAB
  0
TABLE
  2
STYLE
  5
3
330
0
100
AcDbSymbolTable
 70
     2
  0
STYLE
  5
11
330
3
100
AcDbSymbolTableRecord
100
AcDbTextStyleTableRecord
  2
Standard
 70
     0
 40
0.0
 41
1.0
 50
0.0
 71
     0
 42
2.5
  3
txt
  4

  0
STYLE
  5
11A
330
3
100
AcDbSymbolTableRecord
100
AcDbTextStyleTableRecord
  2
SEACAD_seiso_ttf
 70
     0
 40
0.0
 41
1.0
 50
0.0
 71
     0
 42
0.2
  3
seiso.ttf
  4

  0
ENDTAB
  0
TABLE
  2
VIEW
  5
6
330
0
100
AcDbSymbolTable
 70
     0
  0
ENDTAB
  0
TABLE
  2
UCS
  5
7
330
0
100
AcDbSymbolTable
 70
     0
  0
ENDTAB
  0
TABLE
  2
APPID
  5
9
330
0
100
AcDbSymbolTable
 70
     1
  0
APPID
  5
12
330
9
100
AcDbSymbolTableRecord
100
AcDbRegAppTableRecord
  2
ACAD
 70
     0
  0
ENDTAB
  0
TABLE
  2
DIMSTYLE
  5
A
330
0
100
AcDbSymbolTable
 70
     1
100
AcDbDimStyleTable
  0
DIMSTYLE
105
27
330
A
100
AcDbSymbolTableRecord
100
AcDbDimStyleTableRecord
  2
ISO-25
 70
     0
 41
2.5
 42
0.625
 43
3.75
 44
1.25
 73
     0
 74
     0
 77
     1
 78
     8
140
2.5
141
2.5
143
0.0393700787
147
0.625
171
     3
172
     1
271
     2
272
     2
274
     3
278
    44
283
     0
284
     8
340
11
  0
ENDTAB
  0
TABLE
  2
BLOCK_RECORD
  5
1
330
0
100
AcDbSymbolTable
 70
     7
  0
BLOCK_RECORD
  5
1F
330
1
100
AcDbSymbolTableRecord
100
AcDbBlockTableRecord
  2
*Model_Space
340
22
  0
BLOCK_RECORD
  5
1B
330
1
100
AcDbSymbolTableRecord
100
AcDbBlockTableRecord
  2
*Paper_Space
340
1E
  0
BLOCK_RECORD
  5
5E
330
1
100
AcDbSymbolTableRecord
100
AcDbBlockTableRecord
  2
SEANNOT_GROUP
340
0
102
{BLKREFS
331
5F
102
}
  0
BLOCK_RECORD
  5
69
330
1
100
AcDbSymbolTableRecord
100
AcDbBlockTableRecord
  2
SEANNOT_GROUP1
340
0
102
{BLKREFS
331
6A
102
}
  0
BLOCK_RECORD
  5
6F
330
1
100
AcDbSymbolTableRecord
100
AcDbBlockTableRecord
  2
SEANNOT_GROUP2
340
0
102
{BLKREFS
331
70
102
}
  0
BLOCK_RECORD
  5
75
330
1
100
AcDbSymbolTableRecord
100
AcDbBlockTableRecord
  2
SE
340
0
102
{BLKREFS
331
76
102
}
  0
BLOCK_RECORD
  5
A6
330
1
100
AcDbSymbolTableRecord
100
AcDbBlockTableRecord
  2
SE1
340
0
102
{BLKREFS
331
A7
102
}
  0
BLOCK_RECORD
  5
E8
330
1
100
AcDbSymbolTableRecord
100
AcDbBlockTableRecord
  2
SE2
340
0
102
{BLKREFS
331
E9
102
}
  0
ENDTAB
  0
ENDSEC
  0
SECTION
  2
BLOCKS
  0
BLOCK
  5
20
330
1F
100
AcDbEntity
  8
0
100
AcDbBlockBegin
  2
*Model_Space
 70
     0
 10
0.0
 20
0.0
 30
0.0
  3
*Model_Space
  1

  0
ENDBLK
  5
21
330
1F
100
AcDbEntity
  8
0
100
AcDbBlockEnd
  0
BLOCK
  5
1C
330
1B
100
AcDbEntity
 67
     1
  8
0
100
AcDbBlockBegin
  2
*Paper_Space
 70
     0
 10
0.0
 20
0.0
 30
0.0
  3
*Paper_Space
  1

  0
ENDBLK
  5
1D
330
1B
100
AcDbEntity
 67
     1
  8
0
100
AcDbBlockEnd
  0
BLOCK
  5
67
330
5E
100
AcDbEntity
  8
0
100
AcDbBlockBegin
  2
SEANNOT_GROUP
 70
     0
 10
0.0
 20
0.0
 30
0.0
  3
SEANNOT_GROUP
  1

  0
LINE
  5
61
330
5E
100
AcDbEntity
  8
Default
  6
CENTER2
 62
     7
100
AcDbLine
 10
127.8258323125
 20
598.1257687068
 30
0.0
 11
87.8258332066
 21
598.1257687068
 31
0.0
  0
LINE
  5
62
330
5E
100
AcDbEntity
  8
Default
  6
CENTER2
 62
     7
100
AcDbLine
 10
107.8258327595
 20
618.1257682597
 30
0.0
 11
107.8258327595
 21
578.1257691538
 31
0.0
  0
LINE
  5
63
330
5E
100
AcDbEntity
  8
Default
  6
CENTER2
 62
     7
100
AcDbLine
 10
132.8258322007
 20
598.1257687068
 30
0.0
 11
137.5758327595
 21
598.1257687068
 31
0.0
  0
LINE
  5
64
330
5E
100
AcDbEntity
  8
Default
  6
CENTER2
 62
     7
100
AcDbLine
 10
107.8258327595
 20
623.125768148
 30
0.0
 11
107.8258327595
 21
627.8757687068
 31
0.0
  0
LINE
  5
65
330
5E
100
AcDbEntity
  8
Default
  6
CENTER2
 62
     7
100
AcDbLine
 10
82.8258333183
 20
598.1257687068
 30
0.0
 11
78.0758327595
 21
598.1257687068
 31
0.0
  0
LINE
  5
66
330
5E
100
AcDbEntity
  8
Default
  6
CENTER2
 62
     7
100
AcDbLine
 10
107.8258327595
 20
573.1257692656
 30
0.0
 11
107.8258327595
 21
568.3757687068
 31
0.0
  0
ENDBLK
  5
68
330
5E
100
AcDbEntity
  8
0
100
AcDbBlockEnd
  0
BLOCK
  5
6D
330
69
100
AcDbEntity
  8
0
100
AcDbBlockBegin
  2
SEANNOT_GROUP1
 70
     0
 10
0.0
 20
0.0
 30
0.0
  3
SEANNOT_GROUP1
  1

  0
LINE
  5
6B
330
69
100
AcDbEntity
  8
Default
  6
CENTER2
 62
     7
100
AcDbLine
 10
346.7916637795
 20
598.1257463467
 30
0.0
 11
306.7916646736
 21
598.1257463467
 31
0.0
  0
LINE
  5
6C
330
69
100
AcDbEntity
  8
Default
  6
CENTER2
 62
     7
100
AcDbLine
 10
326.7916642266
 20
618.1257458997
 30
0.0
 11
326.7916642266
 21
578.1257467938
 31
0.0
  0
ENDBLK
  5
6E
330
69
100
AcDbEntity
  8
0
100
AcDbBlockEnd
  0
BLOCK
  5
73
330
6F
100
AcDbEntity
  8
0
100
AcDbBlockBegin
  2
SEANNOT_GROUP2
 70
     0
 10
0.0
 20
0.0
 30
0.0
  3
SEANNOT_GROUP2
  1

  0
LINE
  5
71
330
6F
100
AcDbEntity
  8
Default
  6
CENTER2
 62
     7
100
AcDbLine
 10
127.8258551666
 20
250.6400623027
 30
0.0
 11
87.8258560607
 21
250.6400623027
 31
0.0
  0
LINE
  5
72
330
6F
100
AcDbEntity
  8
Default
  6
CENTER2
 62
     7
100
AcDbLine
 10
107.8258556136
 20
270.6400618557
 30
0.0
 11
107.8258556136
 21
230.6400627497
 31
0.0
  0
ENDBLK
  5
74
330
6F
100
AcDbEntity
  8
0
100
AcDbBlockEnd
  0
BLOCK
  5
A4
330
75
100
AcDbEntity
  8
0
100
AcDbBlockBegin
  2
SE
 70
     0
 10
0.0
 20
0.0
 30
0.0
  3
SE
  1

  0
SPLINE
  5
78
330
75
100
AcDbEntity
  8
$DDT_AUDIT_GENERATED_(77)
  6
Continuous
 62
     7
100
AcDbSpline
210
0.0
220
0.0
230
1.0
 70
     8
 71
     5
 72
    17
 73
    11
 74
     0
 42
0.0000000003768171
 43
0.0000000001
 40
0.0
 40
0.0
 40
0.0
 40
0.0
 40
0.0
 40
0.0
 40
0.1000605684203161
 40
0.300030284210314
 40
0.5000000000003119
 40
0.6999697157903098
 40
0.8999394315803076
 40
1.0
 40
1.0
 40
1.0
 40
1.0
 40
1.0
 40
1.0
 10
154.326213687958
 20
604.027265314844
 30
0.0
 10
155.5445242929633
 20
604.0021085042584
 30
0.0
 10
158.399094452523
 20
603.9091278516175
 30
0.0
 10
160.0308123917869
 20
603.6395656833073
 30
0.0
 10
162.2685954070945
 20
602.7105313462079
 30
0.0
 10
164.5412981554167
 20
598.1252897309696
 30
0.0
 10
162.2685954070829
 20
593.5404095834629
 30
0.0
 10
160.0308123917642
 20
592.610565123234
 30
0.0
 10
158.3990944524944
 20
592.3409045567756
 30
0.0
 10
155.5445242929497
 20
592.2479587354834
 30
0.0
 10
154.3262136423062
 20
592.222822579253
 30
0.0
  0
SPLINE
  5
79
330
75
100
AcDbEntity
  8
$DDT_AUDIT_GENERATED_(77)
  6
Continuous
 62
     7
100
AcDbSpline
210
0.0
220
0.0
230
1.0
 70
     8
 71
     5
 72
    17
 73
    11
 74
     0
 42
0.0000000003767949
 43
0.0000000001
 40
0.0
 40
0.0
 40
0.0
 40
0.0
 40
0.0
 40
0.0
 40
0.1000705763963754
 40
0.3000352881980001
 40
0.4999999999996248
 40
0.6999647118012495
 40
0.8999294236028742
 40
1.0
 40
1.0
 40
1.0
 40
1.0
 40
1.0
 40
1.0
 10
61.32621364305886
 20
604.0272788284922
 30
0.0
 10
60.10761742282168
 20
604.0021240138509
 30
0.0
 10
57.25269356469422
 20
603.9091480877397
 30
0.0
 10
55.62093312958192
 20
603.6395988960286
 30
0.0
 10
53.38310171015875
 20
602.7105950964572
 30
0.0
 10
51.11036736362959
 20
598.1252897309712
 30
0.0
 10
53.38310171014751
 20
593.5403458382416
 30
0.0
 10
55.62093312956012
 20
592.6105318815547
 30
0.0
 10
57.25269356466675
 20
592.3408843132721
 30
0.0
 10
60.10761742281268
 20
592.2479432317062
 30
0.0
 10
61.32621364305901
 20
592.2228068642863
 30
0.0
  0
LINE
  5
7A
330
75
100
AcDbEntity
  8
$DDT_AUDIT_GENERATED_(77)
  6
Continuous
 62
     7
100
AcDbLine
 10
61.3262136431
 20
592.2228068643
 30
0.0
 11
107.8258327595
 21
592.2228185807
 31
0.0
  0
LINE
  5
7B
330
75
100
AcDbEntity
  8
$DDT_AUDIT_GENERATED_(77)
  6
Continuous
 62
     7
100
AcDbLine
 10
107.8258327595
 20
592.2228185807
 30
0.0
 11
154.3262136423
 21
592.2228225793
 31
0.0
  0
LINE
  5
7D
330
75
100
AcDbEntity
  8
$DDT_AUDIT_GENERATED_(7C)
  6
Continuous
 62
     7
100
AcDbLine
 10
60.3265945262
 20
591.0272788333
 30
0.0
 11
155.3258327591
 21
591.0272788333
 31
0.0
  0
LINE
  5
7E
330
75
100
AcDbEntity
  8
$DDT_AUDIT_GENERATED_(7C)
  6
Continuous
 62
     7
100
AcDbLine
 10
60.3265945262
 20
592.0272788333
 30
0.0
 11
155.3258327591
 21
592.0272788333
 31
0.0
  0
LINE
  5
7F
330
75
100
AcDbEntity
  8
$DDT_AUDIT_GENERATED_(7C)
  6
Continuous
 62
     7
100
AcDbLine
 10
59.3262136427
 20
604.0272788285
 30
0.0
 11
156.3262136427
 21
604.0272788285
 31
0.0
  0
LINE
  5
80
330
75
100
AcDbEntity
  8
$DDT_AUDIT_GENERATED_(7C)
  6
Continuous
 62
     7
100
AcDbLine
 10
59.3262136427
 20
605.0272788286
 30
0.0
 11
156.3262136427
 21
605.0272788286
 31
0.0
  0
LINE
  5
81
330
75
100
AcDbEntity
  8
$DDT_AUDIT_GENERATED_(7C)
  6
Continuous
 62
     7
100
AcDbLine
 10
155.3258327591
 20
591.0272788333
 30
0.0
 11
155.3258327591
 21
592.0272788333
 31
0.0
  0
LINE
  5
82
330
75
100
AcDbEntity
  8
$DDT_AUDIT_GENERATED_(7C)
  6
Continuous
 62
     7
100
AcDbLine
 10
60.3265945262
 20
592.0272788333
 30
0.0
 11
60.3265945262
 21
591.0272788333
 31
0.0
  0
LINE
  5
83
330
75
100
AcDbEntity
  8
$DDT_AUDIT_GENERATED_(7C)
  6
Continuous
 62
     7
100
AcDbLine
 10
154.3261711195
 20
592.0272788333
 30
0.0
 11
154.3261656049
 21
592.2228528806
 31
0.0
  0
LINE
  5
84
330
75
100
AcDbEntity
  8
$DDT_AUDIT_GENERATED_(7C)
  6
Continuous
 62
     7
100
AcDbLine
 10
61.32626168
 20
592.2228371626
 30
0.0
 11
61.3262561659
 21
592.0272788333
 31
0.0
  0
LINE
  5
85
330
75
100
AcDbEntity
  8
$DDT_AUDIT_GENERATED_(7C)
  6
Continuous
 62
     7
100
AcDbLine
 10
156.3262136427
 20
604.0272788285
 30
0.0
 11
156.3262136427
 21
605.0272788286
 31
0.0
  0
LINE
  5
86
330
75
100
AcDbEntity
  8
$DDT_AUDIT_GENERATED_(7C)
  6
Continuous
 62
     7
100
AcDbLine
 10
59.3262136427
 20
605.0272788286
 30
0.0
 11
59.3262136427
 21
604.0272788285
 31
0.0
  0
LINE
  5
88
330
75
100
AcDbEntity
  8
$DDT_AUDIT_GENERATED_(87)
  6
Continuous
 62
     7
100
AcDbLine
 10
67.8672867409
 20
377.8679941037
 30
0.0
 11
147.7851405445
 21
377.8679941037
 31
0.0
  0
LINE
  5
89
330
75
100
AcDbEntity
  8
$DDT_AUDIT_GENERATED_(87)
  6
Continuous
 62
     7
100
AcDbLine
 10
62.3392939027
 20
605.0546615272
 30
0.0
 11
62.3394813602
 21
605.0272788286
 31
0.0
  0
LINE
  5
8A
330
75
100
AcDbEntity
  8
$DDT_AUDIT_GENERATED_(87)
  6
Continuous
 62
     7
100
AcDbLine
 10
62.4353230507
 20
591.0272788333
 30
0.0
 11
63.8673804685
 21
381.8406114052
 31
0.0
  0
LINE
  5
8B
330
75
100
AcDbEntity
  8
$DDT_AUDIT_GENERATED_(87)
  6
Continuous
 62
     7
100
AcDbLine
 10
151.7850468168
 20
381.8406114052
 30
0.0
 11
153.2171042347
 21
591.0272788333
 31
0.0
  0
LINE
  5
8C
330
75
100
AcDbEntity
  8
$DDT_AUDIT_GENERATED_(87)
  6
Continuous
 62
     7
100
AcDbLine
 10
153.3129459252
 20
605.0272788286
 30
0.0
 11
153.3131333826
 21
605.0546615272
 31
0.0
  0
LINE
  5
8D
330
75
100
AcDbEntity
  8
$DDT_AUDIT_GENERATED_(87)
  6
Continuous
 62
     7
100
AcDbLine
 10
57.826213516
 20
640.0272780892
 30
0.0
 11
57.8262307061
 21
612.2274100643
 31
0.0
  0
LINE
  5
8E
330
75
100
AcDbEntity
  8
$DDT_AUDIT_GENERATED_(87)
  6
Continuous
 62
     7
100
AcDbLine
 10
157.8261965793
 20
612.2274100643
 30
0.0
 11
157.8262137694
 21
640.0272780892
 31
0.0
  0
ARC
  5
8F
330
75
100
AcDbEntity
  8
$DDT_AUDIT_GENERATED_(87)
  6
Continuous
 62
     7
100
AcDbCircle
 10
67.8672867409
 20
381.8679941037
 30
0.0
 40
4.000000000000002
100
AcDbArc
 50
180.3922313278
 51
270.0
  0
ARC
  5
90
330
75
100
AcDbEntity
  8
$DDT_AUDIT_GENERATED_(87)
  6
Continuous
 62
     7
100
AcDbCircle
 10
147.7851405445
 20
381.8679941037
 30
0.0
 40
4.000000000000004
100
AcDbArc
 50
270.0
 51
359.6077686722
  0
ARC
  5
91
330
75
100
AcDbEntity
  8
$DDT_AUDIT_GENERATED_(87)
  6
Continuous
 62
     7
100
AcDbCircle
 10
58.3393876304
 20
605.0272788286
 30
0.0
 40
4.000000000000194
100
AcDbArc
 50
0.3922313278
 51
64.1602641841
  0
ARC
  5
92
330
75
100
AcDbEntity
  8
$DDT_AUDIT_GENERATED_(87)
  6
Continuous
 62
     7
100
AcDbCircle
 10
157.313039655
 20
605.0272788286
 30
0.0
 40
3.999999999999998
100
AcDbArc
 50
115.8397358159
 51
179.6077686722
  0
ARC
  5
93
330
75
100
AcDbEntity
  8
$DDT_AUDIT_GENERATED_(87)
  6
Continuous
 62
     7
100
AcDbCircle
 10
61.8262307061
 20
612.2274125333
 30
0.0
 40
4.000000000000002
100
AcDbArc
 50
180.0000353663
 51
244.1602641841
  0
ARC
  5
94
330
75
100
AcDbEntity
  8
$DDT_AUDIT_GENERATED_(87)
  6
Continuous
 62
     7
100
AcDbCircle
 10
153.8261965793
 20
612.2274125333
 30
0.0
 40
3.99999999999981
100
AcDbArc
 50
295.8397358159
 51
359.9999646337
  0
ARC
  5
95
330
75
100
AcDbEntity
  8
$DDT_AUDIT_GENERATED_(87)
  6
Continuous
 62
     7
100
AcDbCircle
 10
156.8262137694
 20
640.0272786954
 30
0.0
 40
0.9999999999999972
100
AcDbArc
 50
0.0
 51
90.0
  0
ARC
  5
96
330
75
100
AcDbEntity
  8
$DDT_AUDIT_GENERATED_(87)
  6
Continuous
 62
     7
100
AcDbCircle
 10
58.826213516
 20
640.0272786954
 30
0.0
 40
1.000000000000008
100
AcDbArc
 50
90.0
 51
180.0000347321
  0
SPLINE
  5
98
330
75
100
AcDbEntity
  8
64812038_GRIFF_H
  6
Continuous
 62
     7
100
AcDbSpline
210
0.0
220
0.0
230
1.0
 70
     8
 71
     7
 72
    23
 73
    15
 74
     0
 42
0.0000000000522381
 43
0.0000000001
 40
0.0
 40
0.0
 40
0.0
 40
0.0
 40
0.0
 40
0.0
 40
0.0
 40
0.0
 40
0.0801960100911146
 40
0.2120775519494275
 40
0.34395909380774
 40
0.475840635666053
 40
0.607722177524365
 40
0.739603719382678
 40
0.871485261240991
 40
1.0
 40
1.0
 40
1.0
 40
1.0
 40
1.0
 40
1.0
 40
1.0
 40
1.0
 10
58.75670911249233
 20
643.7989850493211
 30
0.0
 10
59.93853013224133
 20
643.8813252077515
 30
0.0
 10
63.15882411345844
 20
644.1275372957276
 30
0.0
 10
68.68861544327845
 20
644.6443534508496
 30
0.0
 10
76.48553040200575
 20
645.6194663132312
 30
0.0
 10
85.53642201860784
 20
647.5024719601873
 30
0.0
 10
93.76534259952844
 20
651.8288570085172
 30
0.0
 10
98.98260467173273
 20
662.8293989207245
 30
0.0
 10
100.4419052209155
 20
684.5217703672329
 30
0.0
 10
100.1257053197042
 20
712.7001576746308
 30
0.0
 10
98.92383988070858
 20
741.0816599973258
 30
0.0
 10
97.89595387919277
 20
764.6876752007418
 30
0.0
 10
97.06256707149255
 20
781.7721772219448
 30
0.0
 10
95.80504311089945
 20
799.8285114049229
 30
0.0
 10
95.35170231493005
 20
805.5373121654238
 30
0.0
  0
ARC
  5
99
330
75
100
AcDbEntity
  8
64812038_GRIFF_H
  6
Continuous
 62
     7
100
AcDbCircle
 10
107.826207332
 20
332.0339848503
 30
0.0
 40
473.6676200183746
100
AcDbArc
 50
88.4908839958
 51
91.5075334177
  0
SPLINE
  5
9A
330
75
100
AcDbEntity
  8
64812038_GRIFF_H
  6
Continuous
 62
     7
100
AcDbSpline
210
0.0
220
0.0
230
1.0
 70
     8
 71
     7
 72
    22
 73
    14
 74
     0
 42
0.0000000000521361
 43
0.0000000001
 40
0.0
 40
0.0
 40
0.0
 40
0.0
 40
0.0
 40
0.0
 40
0.0
 40
0.0
 40
0.1285149812337636
 40
0.2603967741827165
 40
0.3922785671316693
 40
0.5241603600806222
 40
0.6560421530295749
 40
0.7879239459785278
 40
1.0
 40
1.0
 40
1.0
 40
1.0
 40
1.0
 40
1.0
 40
1.0
 40
1.0
 10
120.3007215463474
 20
805.5373117471207
 30
0.0
 10
119.8473841105514
 20
799.8285104872025
 30
0.0
 10
118.5898601904417
 20
781.772176741612
 30
0.0
 10
117.7564733888698
 20
764.6876748033815
 30
0.0
 10
116.7285873925335
 20
741.0816597110463
 30
0.0
 10
115.5267219638904
 20
712.700157516859
 30
0.0
 10
115.2105220679507
 20
684.5217703152184
 30
0.0
 10
116.7970533151069
 20
660.9381259923811
 30
0.0
 10
122.4029271609252
 20
650.905694229022
 30
0.0
 10
131.0539866023294
 20
647.0886128003846
 30
0.0
 10
140.4001171680239
 20
645.3961481971513
 30
0.0
 10
148.2940721281511
 20
644.4919892128698
 30
0.0
 10
153.7702225653302
 20
644.0167485454865
 30
0.0
 10
156.8955210471635
 20
643.7989850493211
 30
0.0
  0
ARC
  5
9B
330
75
100
AcDbEntity
  8
64812038_GRIFF_H
  6
Continuous
 62
     7
100
AcDbCircle
 10
119.553046843
 20
805.5966630865
 30
0.0
 40
0.7500218438279366
100
AcDbArc
 50
355.4613016328
 51
86.3584542761
  0
ARC
  5
9C
330
75
100
AcDbEntity
  8
64812038_GRIFF_H
  6
Continuous
 62
     7
100
AcDbCircle
 10
107.8262229973
 20
-8.1975178622
 30
0.0
 40
814.6277857013982
100
AcDbArc
 50
90.823372913
 51
90.8281724915
  0
SPLINE
  5
9D
330
75
100
AcDbEntity
  8
64812038_GRIFF_H
  6
Continuous
 62
     7
100
AcDbSpline
210
0.0
220
0.0
230
1.0
 70
     8
 71
     3
 72
     8
 73
     4
 74
     0
 42
0.0000000060751056
 43
0.0000000001
 40
0.0
 40
0.0
 40
0.0
 40
0.0
 40
1.0
 40
1.0
 40
1.0
 40
1.0
 10
157.8259130957968
 20
642.8014033615119
 30
0.0
 10
157.8256160893896
 20
643.3266130434729
 30
0.0
 10
157.4194105418844
 20
643.7623106061025
 30
0.0
 10
156.8955210471635
 20
643.7989850493211
 30
0.0
  0
SPLINE
  5
9E
330
75
100
AcDbEntity
  8
64812038_GRIFF_H
  6
Continuous
 62
     7
100
AcDbSpline
210
0.0
220
0.0
230
1.0
 70
     8
 71
     3
 72
     8
 73
     4
 74
     0
 42
0.0000000060734202
 43
0.0000000001
 40
0.0
 40
0.0
 40
0.0
 40
0.0
 40
1.0
 40
1.0
 40
1.0
 40
1.0
 10
58.75670911249233
 20
643.7989850493211
 30
0.0
 10
58.23266797400684
 20
643.7624739113012
 30
0.0
 10
57.82621289762474
 20
643.3267148672157
 30
0.0
 10
57.82621289762474
 20
642.8014033615119
 30
0.0
  0
LINE
  5
9F
330
75
100
AcDbEntity
  8
64812038_GRIFF_H
  6
Continuous
 62
     7
100
AcDbLine
 10
57.8262128976
 20
641.0272786954
 30
0.0
 11
157.8262141377
 21
641.0272786954
 31
0.0
  0
ARC
  5
A0
330
75
100
AcDbEntity
  8
64812038_GRIFF_H
  6
Continuous
 62
     7
100
AcDbCircle
 10
107.8292376892
 20
621.8233228326
 30
0.0
 40
184.8962408259293
100
AcDbArc
 50
86.3499103141
 51
93.6521093407
  0
ARC
  5
A1
330
75
100
AcDbEntity
  8
64812038_GRIFF_H
  6
Continuous
 62
     7
100
AcDbCircle
 10
96.1935619871
 20
805.5211068403
 30
0.0
 40
0.8289899942879858
100
AcDbArc
 50
95.0933356891
 51
178.8481744386
  0
LINE
  5
A2
330
75
100
AcDbEntity
  8
64812038_GRIFF_H
  6
Continuous
 62
     7
100
AcDbLine
 10
57.8262128976
 20
642.8014033615
 30
0.0
 11
57.8262128976
 21
641.0272786954
 31
0.0
  0
LINE
  5
A3
330
75
100
AcDbEntity
  8
64812038_GRIFF_H
  6
Continuous
 62
     7
100
AcDbLine
 10
157.8262143877
 20
641.0272786954
 30
0.0
 11
157.8262143877
 21
642.8014034429
 31
0.0
  0
ENDBLK
  5
A5
330
75
100
AcDbEntity
  8
0
100
AcDbBlockEnd
  0
BLOCK
  5
E6
330
A6
100
AcDbEntity
  8
0
100
AcDbBlockBegin
  2
SE1
 70
     0
 10
0.0
 20
0.0
 30
0.0
  3
SE1
  1

  0
LINE
  5
A9
330
A6
100
AcDbEntity
  8
$DDT_AUDIT_GENERATED_(A8)
  6
Continuous
 62
     7
100
AcDbLine
 10
332.4916642266
 20
627.125768692
 30
0.0
 11
332.4916642266
 21
569.1257674287
 31
0.0
  0
LINE
  5
AA
330
A6
100
AcDbEntity
  8
$DDT_AUDIT_GENERATED_(A8)
  6
Continuous
 62
     7
100
AcDbLine
 10
326.7916642266
 20
628.1257745735
 30
0.0
 11
326.7916642266
 21
568.1257181199
 31
0.0
  0
SPLINE
  5
AB
330
A6
100
AcDbEntity
  8
$DDT_AUDIT_GENERATED_(A8)
  6
Continuous
 62
     7
100
AcDbSpline
210
0.0
220
0.0
230
1.0
 70
     8
 71
     3
 72
    13
 73
     9
 74
     0
 42
0.0000000063014675
 43
0.0000000001
 40
0.0
 40
0.0
 40
0.0
 40
0.0
 40
0.1294353584796121
 40
0.2550301072098068
 40
0.4999999914726229
 40
0.7449698805975513
 40
0.8705646348070479
 40
1.0
 40
1.0
 40
1.0
 40
1.0
 10
331.4916642116558
 20
568.125767360831
 30
0.0
 10
331.565843590618
 20
568.129448370581
 30
0.0
 10
331.689755057371
 20
568.1375216994279
 30
0.0
 10
331.9447005703625
 20
568.2175928028588
 30
0.0
 10
332.2162902881192
 20
568.4011413195623
 30
0.0
 10
332.3998387906927
 20
568.6727310494904
 30
0.0
 10
332.4799098886826
 20
568.9276765732707
 30
0.0
 10
332.4879832170495
 20
569.0515880458312
 30
0.0
 10
332.4916642265568
 20
569.1257674286622
 30
0.0
  0
SPLINE
  5
AC
330
A6
100
AcDbEntity
  8
$DDT_AUDIT_GENERATED_(A8)
  6
Continuous
 62
     7
100
AcDbSpline
210
0.0
220
0.0
230
1.0
 70
     8
 71
     3
 72
    13
 73
     9
 74
     0
 42
0.0000000063014676
 43
0.0000000001
 40
0.0
 40
0.0
 40
0.0
 40
0.0
 40
0.1294353618362314
 40
0.2550301133060648
 40
0.4999999999999997
 40
0.7449698866939336
 40
0.8705646381637674
 40
1.0
 40
1.0
 40
1.0
 40
1.0
 10
332.4916642265568
 20
627.1257686919696
 30
0.0
 10
332.4879832170256
 20
627.1999480709029
 30
0.0
 10
332.4799098886323
 20
627.3238595372804
 30
0.0
 10
332.399838790041
 20
627.5788050489191
 30
0.0
 10
332.21629028526
 20
627.8503947655737
 30
0.0
 10
331.9447005686053
 20
628.0339432703547
 30
0.0
 10
331.6897550569666
 20
628.1140143689461
 30
0.0
 10
331.5658435905892
 20
628.1220876973393
 30
0.0
 10
331.4916642116558
 20
628.1257687068705
 30
0.0
  0
LINE
  5
AD
330
A6
100
AcDbEntity
  8
$DDT_AUDIT_GENERATED_(A8)
  6
Continuous
 62
     7
100
AcDbLine
 10
331.4966642117
 20
628.1257745735
 30
0.0
 11
326.7916642266
 21
628.1257745735
 31
0.0
  0
LINE
  5
AE
330
A6
100
AcDbEntity
  8
$DDT_AUDIT_GENERATED_(A8)
  6
Continuous
 62
     7
100
AcDbLine
 10
326.7916642266
 20
568.1257181199
 30
0.0
 11
331.4966642117
 21
568.1257181199
 31
0.0
  0
LINE
  5
B0
330
A6
100
AcDbEntity
  8
$DDT_AUDIT_GENERATED_(AF)
  6
Continuous
 62
     7
100
AcDbLine
 10
333.4798260189
 20
598.1257687068
 30
0.0
 11
333.4798287683
 21
583.712663735
 31
0.0
  0
LINE
  5
B1
330
A6
100
AcDbEntity
  8
$DDT_AUDIT_GENERATED_(AF)
  6
Continuous
 62
     7
100
AcDbLine
 10
333.4798287683
 20
612.5388736785
 30
0.0
 11
333.4798260189
 21
598.1257687068
 31
0.0
  0
SPLINE
  5
B2
330
A6
100
AcDbEntity
  8
$DDT_AUDIT_GENERATED_(AF)
  6
Continuous
 62
     7
100
AcDbSpline
210
0.0
220
0.0
230
1.0
 70
     8
 71
     3
 72
    17
 73
    13
 74
     0
 42
0.000000001553544
 43
0.0000000001
 40
0.0
 40
0.0
 40
0.0
 40
0.0
 40
0.0833354487014831
 40
0.1663736216528879
 40
0.2494866424919604
 40
0.3752626340111653
 40
0.5000479199939184
 40
0.6246601036732432
 40
0.7502964613493427
 40
0.8754314240554908
 40
0.9377169111661814
 40
1.0
 40
1.0
 40
1.0
 40
1.0
 10
333.4798287682978
 20
612.5388736785392
 30
0.0
 10
333.4797640975815
 20
612.8705674969617
 30
0.0
 10
333.4796349868436
 20
613.5327719094981
 30
0.0
 10
333.4795054766012
 20
614.4387615069785
 30
0.0
 10
333.4794673176634
 20
615.4179247891888
 30
0.0
 10
333.4793620217467
 20
616.406421297151
 30
0.0
 10
333.4793774123628
 20
617.3314816971987
 30
0.0
 10
333.4794660160592
 20
618.060813594729
 30
0.0
 10
333.4796138639554
 20
618.5881992167843
 30
0.0
 10
333.4797450980282
 20
618.8512393346363
 30
0.0
 10
333.4798051387024
 20
618.9605178912983
 30
0.0
 10
333.4798171276216
 20
618.9706851668569
 30
0.0
 10
333.4798287682978
 20
618.9757687067627
 30
0.0
  0
SPLINE
  5
B3
330
A6
100
AcDbEntity
  8
$DDT_AUDIT_GENERATED_(AF)
  6
Continuous
 62
     7
100
AcDbSpline
210
0.0
220
0.0
230
1.0
 70
     8
 71
     3
 72
    17
 73
    13
 74
     0
 42
0.000000001553544
 43
0.0000000001
 40
0.0
 40
0.0
 40
0.0
 40
0.0
 40
0.0627289163599583
 40
0.1254602832760826
 40
0.2499137825791045
 40
0.3746483269236378
 40
0.500297641949969
 40
0.6249459110890658
 40
0.7494413562942406
 40
0.8749659811880093
 40
0.9374489124370873
 40
1.0
 40
1.0
 40
1.0
 40
1.0
 10
333.4798287682978
 20
577.2757687067625
 30
0.0
 10
333.4798170110378
 20
577.2809246561498
 30
0.0
 10
333.4798047889433
 20
577.2912367563455
 30
0.0
 10
333.4797445560358
 20
577.4013923679586
 30
0.0
 10
333.4796135446826
 20
577.6642266357914
 30
0.0
 10
333.4794666423691
 20
578.190413842251
 30
0.0
 10
333.4793753209455
 20
578.91944068758
 30
0.0
 10
333.4793696327533
 20
579.844018386553
 30
0.0
 10
333.4794519817545
 20
580.9529925543275
 30
0.0
 10
333.4795910175417
 20
582.0255787740521
 30
0.0
 10
333.4797156399018
 20
582.962714622602
 30
0.0
 10
333.4797910451312
 20
583.4625898698101
 30
0.0
 10
333.4798287682978
 20
583.712663734953
 30
0.0
  0
LINE
  5
B4
330
A6
100
AcDbEntity
  8
$DDT_AUDIT_GENERATED_(AF)
  6
Continuous
 62
     7
100
AcDbLine
 10
333.436859734
 20
618.9661127578
 30
0.0
 11
332.5832508818
 21
622.7738745159
 31
0.0
  0
LINE
  5
B5
330
A6
100
AcDbEntity
  8
$DDT_AUDIT_GENERATED_(AF)
  6
Continuous
 62
     7
100
AcDbLine
 10
332.5832508818
 20
573.4776628977
 30
0.0
 11
333.436859772
 21
577.285424825
 31
0.0
  0
LINE
  5
B6
330
A6
100
AcDbEntity
  8
$DDT_AUDIT_GENERATED_(AF)
  6
Continuous
 62
     7
100
AcDbLine
 10
332.5966642266
 20
622.7757687068
 30
0.0
 11
332.4916642266
 21
622.7757687068
 31
0.0
  0
LINE
  5
B7
330
A6
100
AcDbEntity
  8
$DDT_AUDIT_GENERATED_(AF)
  6
Continuous
 62
     7
100
AcDbLine
 10
332.4916642266
 20
573.4757687068
 30
0.0
 11
332.5966642266
 21
573.4757687068
 31
0.0
  0
SPLINE
  5
B8
330
A6
100
AcDbEntity
  8
$DDT_AUDIT_GENERATED_(77)
  6
Continuous
 62
     7
100
AcDbSpline
210
0.0
220
0.0
230
1.0
 70
     8
 71
     5
 72
    17
 73
    11
 74
     0
 42
0.0000000003768114
 43
0.0000000001
 40
0.0
 40
0.0
 40
0.0
 40
0.0
 40
0.0
 40
0.0
 40
0.1000631147975687
 40
0.3000315573989724
 40
0.500000000000376
 40
0.6999684426017796
 40
0.8999368852031833
 40
1.0
 40
1.0
 40
1.0
 40
1.0
 40
1.0
 40
1.0
 10
462.05736168318
 20
592.2228185807215
 30
0.0
 10
463.2757449871162
 20
592.2479547907224
 30
0.0
 10
466.1304051345142
 20
592.3408994060818
 30
0.0
 10
467.762133886014
 20
592.6105566653948
 30
0.0
 10
469.9999292167516
 20
593.5403933647659
 30
0.0
 10
472.2726400046029
 20
598.1252897309711
 30
0.0
 10
469.99992921674
 20
602.7105475661857
 30
0.0
 10
467.7621338859918
 20
603.6395741337823
 30
0.0
 10
466.1304051344866
 20
603.9091330004366
 30
0.0
 10
463.2757449871072
 20
604.002112450502
 30
0.0
 10
462.05736168318
 20
604.0272671034592
 30
0.0
  0
LINE
  5
B9
330
A6
100
AcDbEntity
  8
$DDT_AUDIT_GENERATED_(77)
  6
Continuous
 62
     7
100
AcDbLine
 10
333.4782333133
 20
577.4799077751
 30
0.0
 11
333.4780589418
 21
611.8173872413
 31
0.0
  0
ARC
  5
BA
330
A6
100
AcDbEntity
  8
$DDT_AUDIT_GENERATED_(77)
  6
Continuous
 62
     7
100
AcDbCircle
 10
408.2942992503
 20
-6023.6947495184
 30
0.0
 40
6615.921542930471
100
AcDbArc
 50
89.9371014021
 51
90.3398051316
  0
LINE
  5
BB
330
A6
100
AcDbEntity
  8
$DDT_AUDIT_GENERATED_(77)
  6
Continuous
 62
     7
100
AcDbLine
 10
415.5571746087
 20
592.2228068643
 30
0.0
 11
462.0573616832
 21
592.2228185807
 31
0.0
  0
SPLINE
  5
BC
330
A6
100
AcDbEntity
  8
$DDT_AUDIT_GENERATED_(77)
  6
Continuous
 62
     7
100
AcDbSpline
210
0.0
220
0.0
230
1.0
 70
     8
 71
     3
 72
    31
 73
    27
 74
     0
 42
0.0000000002313042
 43
0.0000000001
 40
0.0470797363646893
 40
0.0470797363646893
 40
0.0470797363646893
 40
0.0470797363646893
 40
0.0579817916902238
 40
0.0941031924224066
 40
0.1235791583625193
 40
0.1636755620825142
 40
0.1968947574712216
 40
0.2274184991889643
 40
0.2733024545192391
 40
0.3299116730056578
 40
0.3967545967018502
 40
0.4698137962311966
 40
0.5433788631011859
 40
0.5870840432743571
 40
0.6270982222825772
 40
0.6638585355566534
 40
0.6985437396267427
 40
0.725650737241902
 40
0.7599712668256249
 40
0.801940292163226
 40
0.8262323917943724
 40
0.8531262836171567
 40
0.8829877565221442
 40
0.9162624748535888
 40
0.9541037866907265
 40
1.0
 40
1.0
 40
1.0
 40
1.0
 10
367.057361533945
 20
604.136986719024
 30
0.0
 10
366.8981569624132
 20
604.1367478585818
 30
0.0
 10
366.2113197705293
 20
604.1356796866364
 30
0.0
 10
365.1180179617328
 20
604.1337845804143
 30
0.0
 10
363.5940096711057
 20
604.1307308222089
 30
0.0
 10
362.1150623990586
 20
604.1277826655512
 30
0.0
 10
360.6200411230475
 20
604.1252552405269
 30
0.0
 10
359.0419466047682
 20
604.1226302968623
 30
0.0
 10
357.1270632568994
 20
604.1197934244018
 30
0.0
 10
354.6893958296013
 20
604.1240596374896
 30
0.0
 10
351.8604780149805
 20
604.1659593970471
 30
0.0
 10
348.7905273351719
 20
604.311940137108
 30
0.0
 10
346.0627393567988
 20
604.6207647505018
 30
0.0
 10
343.8523109355016
 20
605.131194185569
 30
0.0
 10
342.2203865084639
 20
605.7360489276759
 30
0.0
 10
340.8131178935377
 20
606.520389370707
 30
0.0
 10
339.6892245264705
 20
607.3941717782316
 30
0.0
 10
338.7014130926649
 20
608.3655415894015
 30
0.0
 10
337.7421648974841
 20
609.5066462596643
 30
0.0
 10
336.9165948982896
 20
610.6988456218379
 30
0.0
 10
336.2290507215301
 20
611.8507615868804
 30
0.0
 10
335.6797213236321
 20
612.8802275278993
 30
0.0
 10
335.1233172258304
 20
614.0529211422393
 30
0.0
 10
334.562152436807
 20
615.3871156049529
 30
0.0
 10
333.9700470380914
 20
616.997985428595
 30
0.0
 10
333.6704632695445
 20
618.0721051523158
 30
0.0
 10
333.4780236231859
 20
618.7729391520879
 30
0.0
  0
SPLINE
  5
BD
330
A6
100
AcDbEntity
  8
$DDT_AUDIT_GENERATED_(77)
  6
Continuous
 62
     7
100
AcDbSpline
210
0.0
220
0.0
230
1.0
 70
     8
 71
     3
 72
    33
 73
    29
 74
     0
 42
0.0000000002313509
 43
0.0000000001
 40
0.0
 40
0.0
 40
0.0
 40
0.0
 40
0.0460334188130958
 40
0.0835492290493495
 40
0.1161149719537026
 40
0.1449109177765053
 40
0.1704002655674395
 40
0.2064699953337354
 40
0.2355365184949951
 40
0.2601915983092036
 40
0.2969878888882542
 40
0.3345379912093808
 40
0.3738000444250157
 40
0.4148927382604911
 40
0.4727083426427057
 40
0.5323052903512115
 40
0.5869626268662966
 40
0.6323107823212872
 40
0.6673120240926663
 40
0.6950705904673935
 40
0.7455773481339147
 40
0.8091305676503318
 40
0.8333639171165607
 40
0.8595678127022649
 40
0.8889606329860682
 40
0.9236477831638629
 40
0.96635594673445
 40
1.0
 40
1.0
 40
1.0
 40
1.0
 10
333.4782333132667
 20
577.4801173098398
 30
0.0
 10
333.6712981056427
 20
578.1829831350892
 30
0.0
 10
333.97022408689
 20
579.2544169589675
 30
0.0
 10
334.5577090038047
 20
580.8526965380092
 30
0.0
 10
335.106327686347
 20
582.1594595583662
 30
0.0
 10
335.6407258940947
 20
583.2917237134499
 30
0.0
 10
336.2478151445317
 20
584.44199978935
 30
0.0
 10
336.921953182645
 20
585.5603471299647
 30
0.0
 10
337.6642190107763
 20
586.6196138147764
 30
0.0
 10
338.4796931311953
 20
587.6367491388467
 30
0.0
 10
339.4651215110505
 20
588.6708756804471
 30
0.0
 10
340.7481602558562
 20
589.6949966796736
 30
0.0
 10
342.2366588234381
 20
590.5270072318335
 30
0.0
 10
344.1121174395852
 20
591.2099606409282
 30
0.0
 10
346.3545050148341
 20
591.668627706915
 30
0.0
 10
348.8194708028374
 20
591.9274690861022
 30
0.0
 10
351.1143732154787
 20
592.0474897449701
 30
0.0
 10
353.0573490809173
 20
592.0923084675698
 30
0.0
 10
354.6134910796075
 20
592.1058355391949
 30
0.0
 10
356.243922619899
 20
592.1096026114861
 30
0.0
 10
358.2853705618302
 20
592.106572186779
 30
0.0
 10
360.2759910702099
 20
592.1077578980804
 30
0.0
 10
361.9169643563045
 20
592.110835615676
 30
0.0
 10
363.0657169168215
 20
592.1124687888146
 30
0.0
 10
364.3670195017788
 20
592.1132118021565
 30
0.0
 10
365.8959725960956
 20
592.1127899809618
 30
0.0
 10
367.5302017423505
 20
592.1115598650255
 30
0.0
 10
368.5518177329155
 20
592.1108435106834
 30
0.0
 10
369.0845421169193
 20
592.110451378944
 30
0.0
  0
LINE
  5
BE
330
A6
100
AcDbEntity
  8
$DDT_AUDIT_GENERATED_(7C)
  6
Continuous
 62
     7
100
AcDbLine
 10
463.0569808012
 20
591.0272788333
 30
0.0
 11
368.0577425683
 21
591.0272788333
 31
0.0
  0
LINE
  5
BF
330
A6
100
AcDbEntity
  8
$DDT_AUDIT_GENERATED_(7C)
  6
Continuous
 62
     7
100
AcDbLine
 10
463.0569808012
 20
592.0272788333
 30
0.0
 11
368.0577425683
 21
592.0272788333
 31
0.0
  0
LINE
  5
C0
330
A6
100
AcDbEntity
  8
$DDT_AUDIT_GENERATED_(7C)
  6
Continuous
 62
     7
100
AcDbLine
 10
464.0573616847
 20
604.0272788285
 30
0.0
 11
367.0573616847
 21
604.0272788285
 31
0.0
  0
LINE
  5
C1
330
A6
100
AcDbEntity
  8
$DDT_AUDIT_GENERATED_(7C)
  6
Continuous
 62
     7
100
AcDbLine
 10
464.0573616847
 20
605.0272788286
 30
0.0
 11
367.0573616847
 21
605.0272788286
 31
0.0
  0
LINE
  5
C2
330
A6
100
AcDbEntity
  8
$DDT_AUDIT_GENERATED_(7C)
  6
Continuous
 62
     7
100
AcDbLine
 10
463.0569808012
 20
591.0272788333
 30
0.0
 11
463.0569808012
 21
592.0272788333
 31
0.0
  0
LINE
  5
C3
330
A6
100
AcDbEntity
  8
$DDT_AUDIT_GENERATED_(7C)
  6
Continuous
 62
     7
100
AcDbLine
 10
368.0577425683
 20
592.0272788333
 30
0.0
 11
368.0577425683
 21
591.0272788333
 31
0.0
  0
LINE
  5
C4
330
A6
100
AcDbEntity
  8
$DDT_AUDIT_GENERATED_(7C)
  6
Continuous
 62
     7
100
AcDbLine
 10
462.0573191615
 20
592.0272788333
 30
0.0
 11
462.0573136469
 21
592.222856902
 31
0.0
  0
LINE
  5
C5
330
A6
100
AcDbEntity
  8
$DDT_AUDIT_GENERATED_(7C)
  6
Continuous
 62
     7
100
AcDbLine
 10
369.0574069352
 20
592.1240011574
 30
0.0
 11
369.057404208
 21
592.0272788333
 31
0.0
  0
LINE
  5
C6
330
A6
100
AcDbEntity
  8
$DDT_AUDIT_GENERATED_(7C)
  6
Continuous
 62
     7
100
AcDbLine
 10
464.0573616847
 20
604.0272788285
 30
0.0
 11
464.0573616847
 21
605.0272788286
 31
0.0
  0
LINE
  5
C7
330
A6
100
AcDbEntity
  8
$DDT_AUDIT_GENERATED_(7C)
  6
Continuous
 62
     7
100
AcDbLine
 10
367.0573616847
 20
605.0272788286
 30
0.0
 11
367.0573616847
 21
604.0272788285
 31
0.0
  0
LINE
  5
C8
330
A6
100
AcDbEntity
  8
$DDT_AUDIT_GENERATED_(87)
  6
Continuous
 62
     7
100
AcDbLine
 10
375.598434783
 20
377.8679941037
 30
0.0
 11
455.5162885865
 21
377.8679941037
 31
0.0
  0
LINE
  5
C9
330
A6
100
AcDbEntity
  8
$DDT_AUDIT_GENERATED_(87)
  6
Continuous
 62
     7
100
AcDbLine
 10
367.8139572103
 20
608.627345681
 30
0.0
 11
463.3007661592
 21
608.627345681
 31
0.0
  0
LINE
  5
CA
330
A6
100
AcDbEntity
  8
$DDT_AUDIT_GENERATED_(87)
  6
Continuous
 62
     7
100
AcDbLine
 10
370.0704419448
 20
605.0546615272
 30
0.0
 11
370.0706294022
 21
605.0272788286
 31
0.0
  0
LINE
  5
CB
330
A6
100
AcDbEntity
  8
$DDT_AUDIT_GENERATED_(87)
  6
Continuous
 62
     7
100
AcDbLine
 10
370.1664710928
 20
591.0272788333
 30
0.0
 11
371.5985285106
 21
381.8406114052
 31
0.0
  0
LINE
  5
CC
330
A6
100
AcDbEntity
  8
$DDT_AUDIT_GENERATED_(87)
  6
Continuous
 62
     7
100
AcDbLine
 10
459.5161948589
 20
381.8406114052
 30
0.0
 11
460.9482522767
 21
591.0272788333
 31
0.0
  0
LINE
  5
CD
330
A6
100
AcDbEntity
  8
$DDT_AUDIT_GENERATED_(87)
  6
Continuous
 62
     7
100
AcDbLine
 10
461.0440939672
 20
605.0272788286
 30
0.0
 11
461.0442814247
 21
605.0546615272
 31
0.0
  0
LINE
  5
CE
330
A6
100
AcDbEntity
  8
$DDT_AUDIT_GENERATED_(87)
  6
Continuous
 62
     7
100
AcDbLine
 10
365.557361558
 20
640.0272780892
 30
0.0
 11
365.5573787482
 21
612.2274100643
 31
0.0
  0
LINE
  5
CF
330
A6
100
AcDbEntity
  8
$DDT_AUDIT_GENERATED_(87)
  6
Continuous
 62
     7
100
AcDbLine
 10
465.5573446213
 20
612.2274100643
 30
0.0
 11
465.5573618114
 21
640.0272780892
 31
0.0
  0
ARC
  5
D0
330
A6
100
AcDbEntity
  8
$DDT_AUDIT_GENERATED_(87)
  6
Continuous
 62
     7
100
AcDbCircle
 10
375.598434783
 20
381.8679941037
 30
0.0
 40
4.000000000000002
100
AcDbArc
 50
180.3922313278
 51
270.0
  0
ARC
  5
D1
330
A6
100
AcDbEntity
  8
$DDT_AUDIT_GENERATED_(87)
  6
Continuous
 62
     7
100
AcDbCircle
 10
455.5162885865
 20
381.8679941037
 30
0.0
 40
4.000000000000004
100
AcDbArc
 50
270.0
 51
359.6077686722
  0
ARC
  5
D2
330
A6
100
AcDbEntity
  8
$DDT_AUDIT_GENERATED_(87)
  6
Continuous
 62
     7
100
AcDbCircle
 10
366.0705356724
 20
605.0272788286
 30
0.0
 40
4.000000000000194
100
AcDbArc
 50
0.3922313278
 51
64.1602641841
  0
ARC
  5
D3
330
A6
100
AcDbEntity
  8
$DDT_AUDIT_GENERATED_(87)
  6
Continuous
 62
     7
100
AcDbCircle
 10
465.0441876971
 20
605.0272788286
 30
0.0
 40
3.999999999999984
100
AcDbArc
 50
115.8397358159
 51
179.6077686722
  0
ARC
  5
D4
330
A6
100
AcDbEntity
  8
$DDT_AUDIT_GENERATED_(87)
  6
Continuous
 62
     7
100
AcDbCircle
 10
369.5573787481
 20
612.2274125333
 30
0.0
 40
4.000000000000002
100
AcDbArc
 50
180.0000353663
 51
244.1602641841
  0
ARC
  5
D5
330
A6
100
AcDbEntity
  8
$DDT_AUDIT_GENERATED_(87)
  6
Continuous
 62
     7
100
AcDbCircle
 10
461.5573446213
 20
612.2274125333
 30
0.0
 40
3.999999999999804
100
AcDbArc
 50
295.8397358159
 51
359.9999646337
  0
ARC
  5
D6
330
A6
100
AcDbEntity
  8
$DDT_AUDIT_GENERATED_(87)
  6
Continuous
 62
     7
100
AcDbCircle
 10
464.5573618114
 20
640.0272786954
 30
0.0
 40
0.9999999999999902
100
AcDbArc
 50
0.0
 51
90.0
  0
ARC
  5
D7
330
A6
100
AcDbEntity
  8
$DDT_AUDIT_GENERATED_(87)
  6
Continuous
 62
     7
100
AcDbCircle
 10
366.557361558
 20
640.0272786954
 30
0.0
 40
1.000000000000008
100
AcDbArc
 50
90.0
 51
180.0000347321
  0
LINE
  5
D8
330
A6
100
AcDbEntity
  8
64812038_GRIFF_H
  6
Continuous
 62
     7
100
AcDbLine
 10
415.5573616847
 20
643.7989850493
 30
0.0
 11
464.6265394775
 21
643.7989747878
 31
0.0
  0
LINE
  5
D9
330
A6
100
AcDbEntity
  8
64812038_GRIFF_H
  6
Continuous
 62
     7
100
AcDbLine
 10
415.5573616847
 20
643.7989850493
 30
0.0
 11
415.5573616847
 21
805.5373121654
 31
0.0
  0
LINE
  5
DA
330
A6
100
AcDbEntity
  8
64812038_GRIFF_H
  6
Continuous
 62
     7
100
AcDbLine
 10
415.5573616847
 20
642.8014033615
 30
0.0
 11
465.5568876533
 21
642.8014033615
 31
0.0
  0
LINE
  5
DB
330
A6
100
AcDbEntity
  8
64812038_GRIFF_H
  6
Continuous
 62
     7
100
AcDbLine
 10
415.5573616847
 20
641.0272786954
 30
0.0
 11
365.5573609396
 21
641.0272786954
 31
0.0
  0
LINE
  5
DC
330
A6
100
AcDbEntity
  8
64812038_GRIFF_H
  6
Continuous
 62
     7
100
AcDbLine
 10
415.5573616847
 20
641.0272786954
 30
0.0
 11
465.5573624297
 21
641.0272786954
 31
0.0
  0
SPLINE
  5
DD
330
A6
100
AcDbEntity
  8
64812038_GRIFF_H
  6
Continuous
 62
     7
100
AcDbSpline
210
0.0
220
0.0
230
1.0
 70
     8
 71
     3
 72
    55
 73
    51
 74
     0
 42
0.0000000000527537
 43
0.0000000001
 40
0.0
 40
0.0
 40
0.0
 40
0.0
 40
0.0229750327090518
 40
0.0486333287986421
 40
0.0724777356678423
 40
0.093919344563929
 40
0.112797513694871
 40
0.1292126406345397
 40
0.143400250653879
 40
0.1556352482192733
 40
0.1661630611934522
 40
0.17515915340556
 40
0.1827169451328935
 40
0.188883771225734
 40
0.1998631678062119
 40
0.2101224597335262
 40
0.2209259595362738
 40
0.2306080337403385
 40
0.239393679473567
 40
0.2494852032373221
 40
0.2614381746654368
 40
0.2755455791201461
 40
0.2921508073486461
 40
0.3071681856763658
 40
0.3241653386990299
 40
0.3433591089790891
 40
0.3649729265749659
 40
0.389230418317447
 40
0.4158367286807367
 40
0.4453883826248631
 40
0.4780440957956789
 40
0.5139203922882395
 40
0.5538179968989932
 40
0.5970953945810856
 40
0.6436340029504
 40
0.6932361509675629
 40
0.7458134848139477
 40
0.7700016245325817
 40
0.7950194615615223
 40
0.8211345136415875
 40
0.848742550704939
 40
0.8783051160086562
 40
0.893647387220271
 40
0.9095381390583122
 40
0.9259152541795914
 40
0.9426310029703708
 40
0.959415068932241
 40
0.9758278827850224
 40
0.9912026432842415
 40
1.0
 40
1.0
 40
1.0
 40
1.0
 10
464.6270573470672
 20
643.8055332314324
 30
0.0
 10
463.0347064614312
 20
643.9215046032804
 30
0.0
 10
460.1910369089371
 20
644.1346473942922
 30
0.0
 10
455.5410965417199
 20
644.6164178452105
 30
0.0
 10
451.1216651353935
 20
645.2051326384253
 30
0.0
 10
447.1222004148796
 20
645.9072897570882
 30
0.0
 10
443.6305363685245
 20
646.7211448922973
 30
0.0
 10
440.6400277929894
 20
647.6426221958495
 30
0.0
 10
438.1258327857173
 20
648.653278206692
 30
0.0
 10
436.0464349108142
 20
649.7217012445499
 30
0.0
 10
434.3546228596469
 20
650.8057147310919
 30
0.0
 10
433.0022512286706
 20
651.8571228622503
 30
0.0
 10
431.9431631868073
 20
652.8279637302365
 30
0.0
 10
430.8661142786594
 20
653.9585131204897
 30
0.0
 10
429.7783227676499
 20
655.3098139529417
 30
0.0
 10
428.664205018893
 20
657.0027853037902
 30
0.0
 10
427.7357030619119
 20
658.7112030104531
 30
0.0
 10
426.968016302021
 20
660.3947179514585
 30
0.0
 10
426.3086142093067
 20
662.074813677556
 30
0.0
 10
425.6833189709129
 20
663.9201226932922
 30
0.0
 10
425.0508199948258
 20
666.115472096122
 30
0.0
 10
424.4196673489774
 20
668.7367316426052
 30
0.0
 10
423.8584845036627
 20
671.5714039420542
 30
0.0
 10
423.3587270448235
 20
674.6023273913519
 30
0.0
 10
422.9146436778298
 20
677.8070665838882
 30
0.0
 10
422.4955021805646
 20
681.4349622805
 30
0.0
 10
422.1043751954727
 20
685.5269668045803
 30
0.0
 10
421.7462508462312
 20
690.0918333882003
 30
0.0
 10
421.4221240878211
 20
695.1618010373868
 30
0.0
 10
421.133302934572
 20
700.7652047594537
 30
0.0
 10
420.8803916752065
 20
706.9564847846436
 30
0.0
 10
420.664121621784
 20
713.8030916678422
 30
0.0
 10
420.4872646776592
 20
721.3220351178629
 30
0.0
 10
420.3508118748347
 20
729.5154854346564
 30
0.0
 10
420.253238127358
 20
738.3225892813149
 30
0.0
 10
420.1889879476793
 20
747.7175128041789
 30
0.0
 10
420.1577076686518
 20
755.7006128811051
 30
0.0
 10
420.1405622931348
 20
762.1306538176331
 30
0.0
 10
420.1307822547733
 20
766.8889786743445
 30
0.0
 10
420.1229006582051
 20
771.8633545654762
 30
0.0
 10
420.116588966618
 20
777.1248472505334
 30
0.0
 10
420.1126722760108
 20
781.7057627049755
 30
0.0
 10
420.1103340603296
 20
785.5464972379926
 30
0.0
 10
420.1090032722225
 20
788.5541190744923
 30
0.0
 10
420.1081514695235
 20
791.6490162031895
 30
0.0
 10
420.1078160902852
 20
794.7983944057194
 30
0.0
 10
420.1080123131815
 20
797.9573625136538
 30
0.0
 10
420.1087477089868
 20
801.0051280899631
 30
0.0
 10
420.1097813416475
 20
803.6311803125055
 30
0.0
 10
420.1107276950571
 20
805.0566602794054
 30
0.0
 10
420.1111380785059
 20
805.6680012457676
 30
0.0
  0
ARC
  5
DE
330
A6
100
AcDbEntity
  8
64812038_GRIFF_H
  6
Continuous
 62
     7
100
AcDbCircle
 10
411.7536666107
 20
805.6685038304
 30
0.0
 40
0.7499965331765649
100
AcDbArc
 50
98.9530391763
 51
180.0386104232
  0
SPLINE
  5
DF
330
A6
100
AcDbEntity
  8
64812038_GRIFF_H
  6
Continuous
 62
     7
100
AcDbSpline
210
0.0
220
0.0
230
1.0
 70
     8
 71
     3
 72
     8
 73
     4
 74
     0
 42
0.0000000012490686
 43
0.0000000001
 40
0.0
 40
0.0
 40
0.0
 40
0.0
 40
1.0
 40
1.0
 40
1.0
 40
1.0
 10
419.5264513336267
 20
806.4016100614683
 30
0.0
 10
416.8803170675728
 20
806.8257770152869
 30
0.0
 10
414.2341837406175
 20
806.8257652233541
 30
0.0
 10
411.5880513527609
 20
806.4015746856705
 30
0.0
  0
ARC
  5
E0
330
A6
100
AcDbEntity
  8
64812038_GRIFF_H
  6
Continuous
 62
     7
100
AcDbCircle
 10
464.5571315615
 20
642.8016309258
 30
0.0
 40
0.9997561228985309
100
AcDbArc
 50
359.9869583477
 51
86.027498887
  0
ARC
  5
E1
330
A6
100
AcDbEntity
  8
64812038_GRIFF_H
  6
Continuous
 62
     7
100
AcDbCircle
 10
366.557591808
 20
642.8016309257
 30
0.0
 40
0.9997561229476483
100
AcDbArc
 50
93.9725011097
 51
180.0130416493
  0
SPLINE
  5
E2
330
A6
100
AcDbEntity
  8
64812038_GRIFF_H
  6
Continuous
 62
     7
100
AcDbSpline
210
0.0
220
0.0
230
1.0
 70
     8
 71
     3
 72
    55
 73
    51
 74
     0
 42
0.0000000000527528
 43
0.0000000001
 40
0.0
 40
0.0
 40
0.0
 40
0.0
 40
0.0081325716026014
 40
0.0227102785196519
 40
0.0383010475475862
 40
0.0542998750380106
 40
0.0702972498727667
 40
0.0860318637866394
 40
0.1013520491023561
 40
0.1281581486213818
 40
0.1533162823927618
 40
0.1770563249416821
 40
0.2168354506701074
 40
0.254340664824818
 40
0.2902485962780953
 40
0.3362166483428826
 40
0.3797599668157068
 40
0.4207292362388565
 40
0.4589917323915312
 40
0.4951770847707074
 40
0.5284750103548111
 40
0.5589411795336603
 40
0.5866750968489614
 40
0.6118086960640275
 40
0.6344964207390524
 40
0.6549068007929595
 40
0.6755589161607152
 40
0.6937563132509371
 40
0.7102202135875072
 40
0.7257562681598015
 40
0.7403883815436737
 40
0.754152644700422
 40
0.7671073992598126
 40
0.7743234954211526
 40
0.7813125575985312
 40
0.788427154702584
 40
0.7954283391715057
 40
0.8040567685414767
 40
0.8142086233540514
 40
0.8258805040295887
 40
0.839220492239184
 40
0.8545450097800821
 40
0.8660828464229944
 40
0.8788379514590283
 40
0.892933221747102
 40
0.9117259883822482
 40
0.9325649271982822
 40
0.9552226753323465
 40
0.9791342276884824
 40
1.0
 40
1.0
 40
1.0
 40
1.0
 10
411.0035900483018
 20
805.6680002113859
 30
0.0
 10
411.0039713767728
 20
805.1028594510886
 30
0.0
 10
411.0048660225121
 20
803.7631923134312
 30
0.0
 10
411.0058756347624
 20
801.2844634905412
 30
0.0
 10
411.0066334794835
 20
798.3877529357844
 30
0.0
 10
411.0069031817002
 20
795.375936382482
 30
0.0
 10
411.0066868764732
 20
792.3621057828911
 30
0.0
 10
411.0059936476045
 20
789.3892554390125
 30
0.0
 10
411.0045562633015
 20
785.7340883393118
 30
0.0
 10
411.0019406624172
 20
781.4834339582818
 30
0.0
 10
410.9976141198629
 20
776.7009332583532
 30
0.0
 10
410.9908679792727
 20
771.0988618915385
 30
0.0
 10
410.9803521917295
 20
764.7167902365597
 30
0.0
 10
410.9628156094017
 20
757.5660380998881
 30
0.0
 10
410.9352127290999
 20
750.024337588467
 30
0.0
 10
410.8904000639267
 20
742.101255605508
 30
0.0
 10
410.8161790442439
 20
733.8586275055836
 30
0.0
 10
410.7117810717636
 20
726.1031444161223
 30
0.0
 10
410.5731823512956
 20
718.8130937041492
 30
0.0
 10
410.3983973737596
 20
712.0085813164745
 30
0.0
 10
410.1867550827224
 20
705.6978809931755
 30
0.0
 10
409.940942523609
 20
699.9227549574185
 30
0.0
 10
409.662691852062
 20
694.665510429452
 30
0.0
 10
409.3537155799154
 20
689.9022904610189
 30
0.0
 10
409.0156043287641
 20
685.6049643670531
 30
0.0
 10
408.6359109693856
 20
681.5953815442365
 30
0.0
 10
408.2106762140972
 20
677.8756260387019
 30
0.0
 10
407.729796869395
 20
674.4141273684908
 30
0.0
 10
407.2049819468441
 20
671.2862121795692
 30
0.0
 10
406.6198682347589
 20
668.3983034511763
 30
0.0
 10
405.9574274120433
 20
665.7021641590237
 30
0.0
 10
405.2085194464499
 20
663.1982342561788
 30
0.0
 10
404.4723409896467
 20
661.1830083363091
 30
0.0
 10
403.7933258633707
 20
659.6067508862474
 30
0.0
 10
403.2051730869797
 20
658.3945634374966
 30
0.0
 10
402.563771619745
 20
657.2249869559446
 30
0.0
 10
401.8038706575749
 20
656.0046522883182
 30
0.0
 10
400.8515181740524
 20
654.6814046769587
 30
0.0
 10
399.5936509052713
 20
653.2217940557618
 30
0.0
 10
397.9676681367941
 20
651.7008783049848
 30
0.0
 10
395.9022991878743
 20
650.1968104144837
 30
0.0
 10
393.6697479430361
 20
648.9716961761371
 30
0.0
 10
391.3672091572186
 20
647.9855215953171
 30
0.0
 10
389.0731542923272
 20
647.1932039943099
 30
0.0
 10
386.2922144827559
 20
646.424494423623
 30
0.0
 10
382.9730342212419
 20
645.7121981564574
 30
0.0
 10
379.0833344604606
 20
645.0737189496355
 30
0.0
 10
374.8814381618023
 20
644.5402183374813
 30
0.0
 10
370.553142958533
 20
644.1043208806057
 30
0.0
 10
367.9339112568702
 20
643.909732172252
 30
0.0
 10
366.4877182366916
 20
643.8049456843415
 30
0.0
  0
ARC
  5
E3
330
A6
100
AcDbEntity
  8
64812038_GRIFF_H
  6
Continuous
 62
     7
100
AcDbCircle
 10
419.3610589208
 20
805.6684976558
 30
0.0
 40
0.7500031166437294
100
AcDbArc
 50
359.9619842516
 51
81.0012409105
  0
LINE
  5
E4
330
A6
100
AcDbEntity
  8
64812038_GRIFF_H
  6
Continuous
 62
     7
100
AcDbLine
 10
465.5573624297
 20
641.0272786954
 30
0.0
 11
465.5573624297
 21
642.8014033615
 31
0.0
  0
LINE
  5
E5
330
A6
100
AcDbEntity
  8
64812038_GRIFF_H
  6
Continuous
 62
     7
100
AcDbLine
 10
365.5573609396
 20
642.8014034429
 30
0.0
 11
365.5573609396
 21
641.0272786954
 31
0.0
  0
ENDBLK
  5
E7
330
A6
100
AcDbEntity
  8
0
100
AcDbBlockEnd
  0
BLOCK
  5
118
330
E8
100
AcDbEntity
  8
0
100
AcDbBlockBegin
  2
SE2
 70
     0
 10
0.0
 20
0.0
 30
0.0
  3
SE2
  1

  0
LINE
  5
EA
330
E8
100
AcDbEntity
  8
$DDT_AUDIT_GENERATED_(A8)
  6
Continuous
 62
     7
100
AcDbLine
 10
136.8258340379
 20
244.9400623027
 30
0.0
 11
78.8258314812
 21
244.9400623027
 31
0.0
  0
LINE
  5
EB
330
E8
100
AcDbEntity
  8
$DDT_AUDIT_GENERATED_(A8)
  6
Continuous
 62
     7
100
AcDbLine
 10
77.8258273868
 20
250.6400623027
 30
0.0
 11
137.8258838404
 21
250.6400623027
 31
0.0
  0
SPLINE
  5
EC
330
E8
100
AcDbEntity
  8
$DDT_AUDIT_GENERATED_(A8)
  6
Continuous
 62
     7
100
AcDbSpline
210
0.0
220
0.0
230
1.0
 70
     8
 71
     3
 72
    13
 73
     9
 74
     0
 42
0.0000000063014675
 43
0.0000000001
 40
0.0
 40
0.0
 40
0.0
 40
0.0
 40
0.1294353584734506
 40
0.2550301071986155
 40
0.4999999914569673
 40
0.7449698805863574
 40
0.8705646348008826
 40
1.0
 40
1.0
 40
1.0
 40
1.0
 10
77.82583141327035
 20
245.9400623175921
 30
0.0
 10
77.82951242302076
 20
245.86588293863
 30
0.0
 10
77.83758575186856
 20
245.7419714718762
 30
0.0
 10
77.91765685530827
 20
245.4870259588822
 30
0.0
 10
78.1012053720338
 20
245.2154362411235
 30
0.0
 10
78.3727951019862
 20
245.031887738554
 30
0.0
 10
78.62774062578872
 20
244.9518166405652
 30
0.0
 10
78.75165209836067
 20
244.9437433121984
 30
0.0
 10
78.82583148119886
 20
244.9400623026911
 30
0.0
  0
SPLINE
  5
ED
330
E8
100
AcDbEntity
  8
$DDT_AUDIT_GENERATED_(A8)
  6
Continuous
 62
     7
100
AcDbSpline
210
0.0
220
0.0
230
1.0
 70
     8
 71
     3
 72
    13
 73
     9
 74
     0
 42
0.0000000063014675
 43
0.0000000001
 40
0.0
 40
0.0
 40
0.0
 40
0.0
 40
0.1294353651990117
 40
0.2550301194134887
 40
0.5000000085429129
 40
0.7449698928013473
 40
0.8705646415265372
 40
1.0
 40
1.0
 40
1.0
 40
1.0
 10
136.8258340378512
 20
244.9400623026911
 30
0.0
 10
136.9000134206893
 20
244.9437433121984
 30
0.0
 10
137.0239248932612
 20
244.9518166405652
 30
0.0
 10
137.2788704170636
 20
245.0318877385541
 30
0.0
 10
137.550460147016
 20
245.2154362411236
 30
0.0
 10
137.7340086637417
 20
245.4870259588822
 30
0.0
 10
137.8140797671815
 20
245.7419714718762
 30
0.0
 10
137.8221530960293
 20
245.86588293863
 30
0.0
 10
137.8258341057797
 20
245.9400623175921
 30
0.0
  0
LINE
  5
EE
330
E8
100
AcDbEntity
  8
$DDT_AUDIT_GENERATED_(A8)
  6
Continuous
 62
     7
100
AcDbLine
 10
137.8258838404
 20
245.9350623176
 30
0.0
 11
137.8258838404
 21
250.6400623027
 31
0.0
  0
LINE
  5
EF
330
E8
100
AcDbEntity
  8
$DDT_AUDIT_GENERATED_(A8)
  6
Continuous
 62
     7
100
AcDbLine
 10
77.8258273868
 20
250.6400623027
 30
0.0
 11
77.8258273868
 21
245.9350623176
 31
0.0
  0
LINE
  5
F0
330
E8
100
AcDbEntity
  8
$DDT_AUDIT_GENERATED_(AF)
  6
Continuous
 62
     7
100
AcDbLine
 10
132.4758327595
 20
244.8400623027
 30
0.0
 11
83.1758327595
 21
244.8400623027
 31
0.0
  0
LINE
  5
F1
330
E8
100
AcDbEntity
  8
$DDT_AUDIT_GENERATED_(AF)
  6
Continuous
 62
     7
100
AcDbLine
 10
92.7598145373
 20
243.951897761
 30
0.0
 11
86.9758333457
 21
243.9519005103
 31
0.0
  0
LINE
  5
F2
330
E8
100
AcDbEntity
  8
$DDT_AUDIT_GENERATED_(AF)
  6
Continuous
 62
     7
100
AcDbLine
 10
128.6758327595
 20
243.951897761
 30
0.0
 11
122.8918509817
 21
243.951897761
 31
0.0
  0
SPLINE
  5
F3
330
E8
100
AcDbEntity
  8
$DDT_AUDIT_GENERATED_(AF)
  6
Continuous
 62
     7
100
AcDbSpline
210
0.0
220
0.0
230
1.0
 70
     8
 71
     3
 72
    17
 73
    13
 74
     0
 42
0.0000000006637454
 43
0.0000000001
 40
0.0
 40
0.0
 40
0.0
 40
0.0
 40
0.0833354487014831
 40
0.1663736216528879
 40
0.2494866424919604
 40
0.3752626340111653
 40
0.5000479199939184
 40
0.6246601036732432
 40
0.7502964613493427
 40
0.8754314240554908
 40
0.9377169111661814
 40
1.0
 40
1.0
 40
1.0
 40
1.0
 10
92.75981453729563
 20
243.9518977609502
 30
0.0
 10
93.08959810281806
 20
243.9519624316665
 30
0.0
 10
93.74798882384373
 20
243.9520915424044
 30
0.0
 10
94.81714626088126
 20
243.9522210526468
 30
0.0
 10
96.13118365508485
 20
243.9522592115845
 30
0.0
 10
97.72524713239652
 20
243.9523645075013
 30
0.0
 10
99.61988480332022
 20
243.9523491168852
 30
0.0
 10
101.5973940387346
 20
243.9522605131888
 30
0.0
 10
103.640216617845
 20
243.9521126652926
 30
0.0
 10
105.3798721076571
 20
243.9519814312198
 30
0.0
 10
106.7773558000183
 20
243.9519213905455
 30
0.0
 10
107.4763449254941
 20
243.9519094016264
 30
0.0
 10
107.8258327595308
 20
243.9518977609502
 30
0.0
  0
SPLINE
  5
F4
330
E8
100
AcDbEntity
  8
$DDT_AUDIT_GENERATED_(AF)
  6
Continuous
 62
     7
100
AcDbSpline
210
0.0
220
0.0
230
1.0
 70
     8
 71
     3
 72
    16
 73
    12
 74
     0
 42
0.0000000006637454
 43
0.0000000001
 40
0.0
 40
0.0
 40
0.0
 40
0.0
 40
0.0625509658289192
 40
0.1251043610270316
 40
0.2505663713252279
 40
0.3750305871579224
 40
0.4997224528208468
 40
0.6253703718972006
 40
0.7500479492199676
 40
0.8748984370948331
 40
1.0
 40
1.0
 40
1.0
 40
1.0
 10
107.8258327595308
 20
243.9518977609502
 30
0.0
 10
108.1768036281619
 20
243.9519094699026
 30
0.0
 10
108.8787589965137
 20
243.951921595379
 30
0.0
 10
110.2809612464503
 20
243.9519819419443
 30
0.0
 10
112.0171715113511
 20
243.952113170929
 30
0.0
 10
114.0555807718349
 20
243.9522604192129
 30
0.0
 10
116.031729011694
 20
243.952349442113
 30
0.0
 10
117.9262022549309
 20
243.9523636682647
 30
0.0
 10
119.7153278675187
 20
243.9522494976159
 30
0.0
 10
121.3925653953142
 20
243.9521998394117
 30
0.0
 10
122.3917545601653
 20
243.9519985211783
 30
0.0
 10
122.8918509817416
 20
243.9518977609502
 30
0.0
  0
LINE
  5
F5
330
E8
100
AcDbEntity
  8
$DDT_AUDIT_GENERATED_(AF)
  6
Continuous
 62
     7
100
AcDbLine
 10
128.6718458355
 20
243.969127797
 30
0.0
 11
132.4742327607
 21
244.8469759888
 31
0.0
  0
LINE
  5
F6
330
E8
100
AcDbEntity
  8
$DDT_AUDIT_GENERATED_(AF)
  6
Continuous
 62
     7
100
AcDbLine
 10
83.1774327462
 20
244.8469759372
 30
0.0
 11
86.9798196922
 21
243.9691278362
 31
0.0
  0
LINE
  5
F7
330
E8
100
AcDbEntity
  8
$DDT_AUDIT_GENERATED_(AF)
  6
Continuous
 62
     7
100
AcDbLine
 10
132.4758327595
 20
244.8350623027
 30
0.0
 11
132.4758327595
 21
244.9400623027
 31
0.0
  0
LINE
  5
F8
330
E8
100
AcDbEntity
  8
$DDT_AUDIT_GENERATED_(AF)
  6
Continuous
 62
     7
100
AcDbLine
 10
83.1758327595
 20
244.9400623027
 30
0.0
 11
83.1758327595
 21
244.8350623027
 31
0.0
  0
SPLINE
  5
F9
330
E8
100
AcDbEntity
  8
$DDT_AUDIT_GENERATED_(77)
  6
Continuous
 62
     7
100
AcDbSpline
210
0.0
220
0.0
230
1.0
 70
     8
 71
     5
 72
    15
 73
     9
 74
     0
 42
0.0000000002421861
 43
0.0000000001
 40
0.5000030376890139
 40
0.5000030376890139
 40
0.5000030376890139
 40
0.5000030376890139
 40
0.5000030376890139
 40
0.5000030376890139
 40
0.625000001354464
 40
0.7500000009029759
 40
0.875000000451488
 40
1.0
 40
1.0
 40
1.0
 40
1.0
 40
1.0
 40
1.0
 10
128.4709888979835
 20
243.9534864300203
 30
0.0
 10
128.4709734169068
 20
243.9534855709947
 30
0.0
 10
128.1525562341686
 20
243.9534822427796
 30
0.0
 10
126.7197556098467
 20
243.9534751382391
 30
0.0
 10
122.9986111863224
 20
243.9535284321454
 30
0.0
 10
117.429590264619
 20
243.9533571065662
 30
0.0
 10
112.6902201908302
 20
243.9536400333148
 30
0.0
 10
109.4472951054613
 20
243.9537029059256
 30
0.0
 10
107.8258328029777
 20
243.953702906062
 30
0.0
  0
SPLINE
  5
FA
330
E8
100
AcDbEntity
  8
$DDT_AUDIT_GENERATED_(77)
  6
Continuous
 62
     7
100
AcDbSpline
210
0.0
220
0.0
230
1.0
 70
     8
 71
     3
 72
    12
 73
     8
 74
     0
 42
0.0000000001751184
 43
0.0000000001
 40
0.7252922533351912
 40
0.7252922533351912
 40
0.7252922533351912
 40
0.7252922533351912
 40
0.75
 40
0.75
 40
0.875
 40
0.875
 40
1.0
 40
1.0
 40
1.0
 40
1.0
 10
92.13885828209428
 20
243.9536453025724
 30
0.0
 10
92.48595875723406
 20
243.9536470295622
 30
0.0
 10
92.84882516061069
 20
243.953648756552
 30
0.0
 10
95.13761547887015
 20
243.9536592206285
 30
0.0
 10
97.42789097131934
 20
243.9536679577152
 30
0.0
 10
102.4216812834598
 20
243.9536854318886
 30
0.0
 10
105.1232311517649
 20
243.9536941689753
 30
0.0
 10
107.8258328029777
 20
243.953702906062
 30
0.0
  0
ARC
  5
FB
330
E8
100
AcDbEntity
  8
$DDT_AUDIT_GENERATED_(77)
  6
Continuous
 62
     7
100
AcDbCircle
 10
107.8253150293
 20
161.8750696508
 30
0.0
 40
55.5250696524902
100
AcDbArc
 50
270.0004480957
 51
359.9996743029
  0
SPLINE
  5
FC
330
E8
100
AcDbEntity
  8
$DDT_AUDIT_GENERATED_(77)
  6
Continuous
 62
     7
100
AcDbSpline
210
0.0
220
0.0
230
1.0
 70
     8
 71
     3
 72
    38
 73
    34
 74
     0
 42
0.0000000001146166
 43
0.0000000001
 40
0.0
 40
0.0
 40
0.0
 40
0.0
 40
0.0422948256579799
 40
0.0826786757108599
 40
0.1211508638447124
 40
0.1577115116818883
 40
0.1923609123623058
 40
0.2250986274521204
 40
0.255924394134135
 40
0.2848384711813356
 40
0.3155416331083394
 40
0.3437477388035799
 40
0.3694565266442422
 40
0.3926680344324163
 40
0.413382341743213
 40
0.4319200459147193
 40
0.4519610179040047
 40
0.4745494311804798
 40
0.4996851066044799
 40
0.5273680901453318
 40
0.5575984918980811
 40
0.5903760322419853
 40
0.625700252691576
 40
0.6635713005714259
 40
0.6987991746197872
 40
0.7359768160865638
 40
0.7751040523556444
 40
0.8161813896588304
 40
0.8504493145649595
 40
0.8859649338643334
 40
0.922728686722954
 40
0.960740556783944
 40
1.0
 40
1.0
 40
1.0
 40
1.0
 10
52.30149528817765
 20
161.8745519205417
 30
0.0
 10
52.32403810051088
 20
160.5223279711394
 30
0.0
 10
52.37161887415898
 20
158.2953343231965
 30
0.0
 10
52.72947578491709
 20
154.720382104978
 30
0.0
 10
53.2612146242785
 20
151.4230776576224
 30
0.0
 10
53.95536183506113
 20
148.3050415406986
 30
0.0
 10
54.77608858748111
 20
145.3965342124698
 30
0.0
 10
55.69577242880111
 20
142.6921841906764
 30
0.0
 10
56.68765912276346
 20
140.1925680028018
 30
0.0
 10
57.77158223997209
 20
137.7963392105364
 30
0.0
 10
58.93181788533168
 20
135.5211582502384
 30
0.0
 10
60.14964243687915
 20
133.3831155164861
 30
0.0
 10
61.34102593912508
 20
131.4831591244854
 30
0.0
 10
62.48189971343611
 20
129.8105475928243
 30
0.0
 10
63.55642974424435
 20
128.3464807137433
 30
0.0
 10
64.61868084791891
 20
126.9888434615052
 30
0.0
 10
65.75639300159794
 20
125.6220388445315
 30
0.0
 10
67.06679359958373
 20
124.1507080046142
 30
0.0
 10
68.5853728984557
 20
122.5691578011727
 30
0.0
 10
70.32895540481634
 20
120.8983146563475
 30
0.0
 10
72.31406308231372
 20
119.1620630022077
 30
0.0
 10
74.55690306136314
 20
117.3879748233592
 30
0.0
 10
77.07286925522564
 20
115.6077509751803
 30
0.0
 10
79.7479493878478
 20
113.9375701232282
 30
0.0
 10
82.56132804618935
 20
112.3977507010865
 30
0.0
 10
85.49077109349449
 20
111.004181448273
 30
0.0
 10
88.65636395846863
 20
109.7251619235095
 30
0.0
 10
91.81665877693221
 20
108.6746164497382
 30
0.0
 10
94.92970033409127
 20
107.8400346922852
 30
0.0
 10
97.9665064963748
 20
107.2022440236279
 30
0.0
 10
101.1218828262736
 20
106.725146784707
 30
0.0
 10
104.4890031930996
 20
106.4109813779056
 30
0.0
 10
106.5706300638605
 20
106.369639274335
 30
0.0
 10
107.8258327595263
 20
106.3502144491932
 30
0.0
  0
SPLINE
  5
FD
330
E8
100
AcDbEntity
  8
$DDT_AUDIT_GENERATED_(77)
  6
Continuous
 62
     7
100
AcDbSpline
210
0.0
220
0.0
230
1.0
 70
     8
 71
     3
 72
    55
 73
    51
 74
     0
 42
0.0000000001050059
 43
0.0000000001
 40
0.0
 40
0.0
 40
0.0
 40
0.0
 40
0.0149584052082546
 40
0.0271578675374864
 40
0.0377041717352144
 40
0.0471863194329259
 40
0.0558669869573582
 40
0.0640737696828668
 40
0.0724968177127271
 40
0.0972183197828218
 40
0.1241829788026709
 40
0.1496524155147939
 40
0.1758962953754734
 40
0.2036811518196383
 40
0.2329128434839255
 40
0.2672756814163193
 40
0.3022512063529874
 40
0.337510591336803
 40
0.3733621832456551
 40
0.4033222853671327
 40
0.4349942644667898
 40
0.4673206421712128
 40
0.4991437545109126
 40
0.5292739797529517
 40
0.5525219144454928
 40
0.5738525737466696
 40
0.5932217898572878
 40
0.6106927267380562
 40
0.626397844156834
 40
0.6419230998051133
 40
0.6666074469567421
 40
0.6919311333233596
 40
0.7089550968814881
 40
0.7264734966217797
 40
0.7444662243163518
 40
0.7629725455584713
 40
0.7821450084243512
 40
0.8022755527932557
 40
0.8218883398918932
 40
0.8386926570335571
 40
0.8561309423665315
 40
0.8728688086372264
 40
0.8913433030215802
 40
0.910040870550815
 40
0.9277148927928953
 40
0.938202596329932
 40
0.9511171167900833
 40
0.96635956095003
 40
0.9829085590497428
 40
1.0
 40
1.0
 40
1.0
 40
1.0
 10
163.3501702308683
 20
161.8745519205417
 30
0.0
 10
163.3506985438278
 20
162.3965943556217
 30
0.0
 10
163.3502691062837
 20
163.1928431786839
 30
0.0
 10
163.3412686557334
 20
164.4107428295532
 30
0.0
 10
163.3164377595629
 20
165.4284231656922
 30
0.0
 10
163.2748903407403
 20
166.3394348576361
 30
0.0
 10
163.2178506696507
 20
167.1739418550211
 30
0.0
 10
163.1457116239776
 20
167.973840127386
 30
0.0
 10
163.0004976636235
 20
169.2777842602746
 30
0.0
 10
162.7142122790897
 20
171.1643406842444
 30
0.0
 10
162.2224360950319
 20
173.5633322167952
 30
0.0
 10
161.6105578305427
 20
175.9841473352788
 30
0.0
 10
160.8908854326068
 20
178.4022772443659
 30
0.0
 10
160.0313620098819
 20
180.9009892021185
 30
0.0
 10
158.9693555971807
 20
183.599654471048
 30
0.0
 10
157.6859550335942
 20
186.453047021626
 30
0.0
 10
156.1675293959571
 20
189.4056509503922
 30
0.0
 10
154.4620259845419
 20
192.3095730977908
 30
0.0
 10
152.6676954058851
 20
194.9701077797413
 30
0.0
 10
150.783717925347
 20
197.4248202359033
 30
0.0
 10
148.8461961681161
 20
199.6918875139581
 30
0.0
 10
146.7718949753539
 20
201.9154696176682
 30
0.0
 10
144.6530611890421
 20
204.0276547169425
 30
0.0
 10
142.677321380794
 20
205.8731992753781
 30
0.0
 10
140.9013113132023
 20
207.4432411676121
 30
0.0
 10
139.3514263356328
 20
208.7527341542666
 30
0.0
 10
137.9189551852579
 20
209.9165763571561
 30
0.0
 10
136.6095393136207
 20
210.9484641659811
 30
0.0
 10
135.3871397814355
 20
211.8935650214224
 30
0.0
 10
133.9814088434814
 20
212.9757166427233
 30
0.0
 10
132.346212333529
 20
214.2598692930192
 30
0.0
 10
130.7504495946775
 20
215.6708446521303
 30
0.0
 10
129.4636973597917
 20
217.0718274674872
 30
0.0
 10
128.4712485628576
 20
218.4157777384235
 30
0.0
 10
127.6387855032571
 20
219.9204202982687
 30
0.0
 10
127.0213339967272
 20
221.5826829111979
 30
0.0
 10
126.6446424454045
 20
223.3838036956007
 30
0.0
 10
126.4906430354838
 20
225.249999013465
 30
0.0
 10
126.4861098127024
 20
227.0450319100682
 30
0.0
 10
126.5532074961177
 20
228.7526076299878
 30
0.0
 10
126.6581777818008
 20
230.366781325628
 30
0.0
 10
126.7953286124634
 20
232.0316321318008
 30
0.0
 10
126.9582472534922
 20
233.7343128603093
 30
0.0
 10
127.1460374952948
 20
235.4642509340864
 30
0.0
 10
127.3266363834011
 20
236.9401384065869
 30
0.0
 10
127.498926121676
 20
238.2315761626352
 30
0.0
 10
127.6717855030231
 20
239.4469667332073
 30
0.0
 10
127.8830370912822
 20
240.8422668926447
 30
0.0
 10
128.1503170722658
 20
242.4009912842218
 30
0.0
 10
128.3497760504081
 20
243.369447376771
 30
0.0
 10
128.4709888987285
 20
243.9534864302599
 30
0.0
  0
SPLINE
  5
FE
330
E8
100
AcDbEntity
  8
$DDT_AUDIT_GENERATED_(77)
  6
Continuous
 62
     7
100
AcDbSpline
210
0.0
220
0.0
230
1.0
 70
     8
 71
     3
 72
    60
 73
    56
 74
     0
 42
0.0000000001050134
 43
0.0000000001
 40
0.0
 40
0.0
 40
0.0
 40
0.0
 40
0.0174029550605472
 40
0.0325034381244536
 40
0.0437084127605628
 40
0.0531794569200447
 40
0.0630903629468847
 40
0.0735110614313876
 40
0.0909217758923835
 40
0.1104904920674842
 40
0.1321244303490736
 40
0.1515884700238926
 40
0.1708515976319155
 40
0.1873745097445454
 40
0.2004793990481898
 40
0.2107793879903306
 40
0.2221697528381775
 40
0.2348617083444994
 40
0.2479092248103373
 40
0.2661430028423683
 40
0.2846816254861681
 40
0.3026560519485241
 40
0.3243521175528601
 40
0.3448334985247256
 40
0.3668911981525035
 40
0.3907647198135292
 40
0.4162662380881736
 40
0.4429450531887178
 40
0.4704871114613653
 40
0.498192846182425
 40
0.5275218898080275
 40
0.5575548570828847
 40
0.5873247931007287
 40
0.6163727846356573
 40
0.652384341522577
 40
0.689370661405499
 40
0.7278463641748597
 40
0.7658144975612474
 40
0.7948634275645861
 40
0.8222424168192594
 40
0.8475688963111874
 40
0.8705791172455408
 40
0.8911556629167356
 40
0.9064969026936158
 40
0.920984201324695
 40
0.934907771138798
 40
0.93999712746925
 40
0.94503145449727
 40
0.9500293124213993
 40
0.9557441603216047
 40
0.9615842538707177
 40
0.9686128949927443
 40
0.9770163541566522
 40
0.9872119282797217
 40
1.0
 40
1.0
 40
1.0
 40
1.0
 10
87.18067662031665
 20
243.9534864302597
 30
0.0
 10
87.30405388056317
 20
243.3587789078047
 30
0.0
 10
87.4963343755237
 20
242.4245834671125
 30
0.0
 10
87.73648781403092
 20
241.0317464902156
 30
0.0
 10
87.90936070637395
 20
239.9147750982779
 30
0.0
 10
88.0505619346394
 20
238.9536442712501
 30
0.0
 10
88.18167922654159
 20
238.0174680776481
 30
0.0
 10
88.33893726026159
 20
236.8302653057601
 30
0.0
 10
88.52032462369085
 20
235.3373388460083
 30
0.0
 10
88.71914075580786
 20
233.4882615365697
 30
0.0
 10
88.89814418683089
 20
231.5717176219483
 30
0.0
 10
89.04491035113786
 20
229.6621291586816
 30
0.0
 10
89.13895160516707
 20
227.9114619152601
 30
0.0
 10
89.16973110934993
 20
226.3601641580718
 30
0.0
 10
89.1381102011362
 20
225.093230418845
 30
0.0
 10
89.0544751427132
 20
223.9919767363992
 30
0.0
 10
88.90716736901932
 20
222.9102379511523
 30
0.0
 10
88.65407936098194
 20
221.7579415072562
 30
0.0
 10
88.22004558083118
 20
220.4294434043425
 30
0.0
 10
87.53768877781698
 20
218.9968581967931
 30
0.0
 10
86.57116864750341
 20
217.5473438664428
 30
0.0
 10
85.36659203895019
 20
216.142722799431
 30
0.0
 10
83.97504911969276
 20
214.8322283700413
 30
0.0
 10
82.39828637951875
 20
213.5401491304445
 30
0.0
 10
80.73089305356982
 20
212.2517520894027
 30
0.0
 10
78.93509444043674
 20
210.869133748813
 30
0.0
 10
77.04509026997141
 20
209.3687021696791
 30
0.0
 10
75.10114945780064
 20
207.7499389451235
 30
0.0
 10
73.1491895161859
 20
206.0329050117677
 30
0.0
 10
71.18519989902252
 20
204.203843974186
 30
0.0
 10
69.22038506794591
 20
202.2613800258682
 30
0.0
 10
67.27562326515229
 20
200.2074829183321
 30
0.0
 10
65.41736593437383
 20
198.0864593052092
 30
0.0
 10
63.54282630741429
 20
195.7314627778552
 30
0.0
 10
61.68067706776922
 20
193.0798417974337
 30
0.0
 10
59.84115660558889
 20
190.0563091003813
 30
0.0
 10
58.16182311000745
 20
186.8708440465584
 30
0.0
 10
56.77410987637366
 20
183.8229925947577
 30
0.0
 10
55.671264756131
 20
181.0374824464943
 30
0.0
 10
54.82101595074651
 20
178.5860913527507
 30
0.0
 10
54.12720895595033
 20
176.2855167487724
 30
0.0
 10
53.57739118108316
 20
174.1687837518084
 30
0.0
 10
53.17470680817091
 20
172.3425746615941
 30
0.0
 10
52.88283336558351
 20
170.7699616268674
 30
0.0
 10
52.67144117361492
 20
169.3977761922173
 30
0.0
 10
52.54382847985863
 20
168.3423553806784
 30
0.0
 10
52.47033768144475
 20
167.5829246547253
 30
0.0
 10
52.43029662361409
 20
167.1048108975304
 30
0.0
 10
52.39500790124237
 20
166.6064374564544
 30
0.0
 10
52.36500135025857
 20
166.0820600635549
 30
0.0
 10
52.33946208835678
 20
165.4931315753074
 30
0.0
 10
52.31960437609229
 20
164.8177684592992
 30
0.0
 10
52.30659784155562
 20
164.0082845372938
 30
0.0
 10
52.30145163382047
 20
162.9944991104577
 30
0.0
 10
52.30119955570575
 20
162.3208609774629
 30
0.0
 10
52.30149528817761
 20
161.8745519205417
 30
0.0
  0
ARC
  5
FF
330
E8
100
AcDbEntity
  8
$DDT_AUDIT_GENERATED_(87)
  6
Continuous
 62
     7
100
AcDbCircle
 10
107.8262136427
 20
161.8743648445
 30
0.0
 40
50.00000012670514
100
AcDbArc
 50
359.6709085409
 51
0.0
  0
ARC
  5
100
330
E8
100
AcDbEntity
  8
$DDT_AUDIT_GENERATED_(87)
  6
Continuous
 62
     7
100
AcDbCircle
 10
107.8262136427
 20
161.8743648445
 30
0.0
 40
50.00000012670514
100
AcDbArc
 50
351.95756078
 51
355.1190215433
  0
ARC
  5
101
330
E8
100
AcDbEntity
  8
$DDT_AUDIT_GENERATED_(87)
  6
Continuous
 62
     7
100
AcDbCircle
 10
107.8262136427
 20
161.8743648445
 30
0.0
 40
50.00000012670514
100
AcDbArc
 50
324.1661075328
 51
346.4720556908
  0
ARC
  5
102
330
E8
100
AcDbEntity
  8
$DDT_AUDIT_GENERATED_(87)
  6
Continuous
 62
     7
100
AcDbCircle
 10
107.8262136427
 20
161.8743648445
 30
0.0
 40
50.00000012670514
100
AcDbArc
 50
319.77393839
 51
323.0992279899
  0
ARC
  5
103
330
E8
100
AcDbEntity
  8
$DDT_AUDIT_GENERATED_(87)
  6
Continuous
 62
     7
100
AcDbCircle
 10
107.8262136427
 20
161.8743648445
 30
0.0
 40
50.00000012670514
100
AcDbArc
 50
283.6255273135
 51
312.1453737028
  0
ARC
  5
104
330
E8
100
AcDbEntity
  8
$DDT_AUDIT_GENERATED_(87)
  6
Continuous
 62
     7
100
AcDbCircle
 10
107.8262136427
 20
161.8743648445
 30
0.0
 40
50.00000012670514
100
AcDbArc
 50
272.9952894462
 51
275.2553310924
  0
ARC
  5
105
330
E8
100
AcDbEntity
  8
$DDT_AUDIT_GENERATED_(87)
  6
Continuous
 62
     7
100
AcDbCircle
 10
107.8262136427
 20
161.8743648445
 30
0.0
 40
50.00000012670514
100
AcDbArc
 50
234.6471902699
 51
264.0993829082
  0
ARC
  5
106
330
E8
100
AcDbEntity
  8
$DDT_AUDIT_GENERATED_(87)
  6
Continuous
 62
     7
100
AcDbCircle
 10
107.8262136427
 20
161.8743648445
 30
0.0
 40
50.00000012670514
100
AcDbArc
 50
228.5808312965
 51
230.6859519186
  0
ARC
  5
107
330
E8
100
AcDbEntity
  8
$DDT_AUDIT_GENERATED_(87)
  6
Continuous
 62
     7
100
AcDbCircle
 10
107.8262136427
 20
161.8743648445
 30
0.0
 40
50.00000012670514
100
AcDbArc
 50
216.4661654937
 51
219.3818076727
  0
ARC
  5
108
330
E8
100
AcDbEntity
  8
$DDT_AUDIT_GENERATED_(87)
  6
Continuous
 62
     7
100
AcDbCircle
 10
107.8262136427
 20
161.8743648445
 30
0.0
 40
50.00000012670514
100
AcDbArc
 50
184.1340720769
 51
215.3410266458
  0
ARC
  5
109
330
E8
100
AcDbEntity
  8
$DDT_AUDIT_GENERATED_(87)
  6
Continuous
 62
     7
100
AcDbCircle
 10
107.8262136427
 20
161.8743648445
 30
0.0
 40
50.00000012670514
100
AcDbArc
 50
171.2329612801
 51
180.0
  0
ARC
  5
10A
330
E8
100
AcDbEntity
  8
$DDT_AUDIT_GENERATED_(87)
  6
Continuous
 62
     7
100
AcDbCircle
 10
107.8262136427
 20
161.8743648445
 30
0.0
 40
50.00000012670514
100
AcDbArc
 50
148.6014148864
 51
170.9966844855
  0
ARC
  5
10B
330
E8
100
AcDbEntity
  8
$DDT_AUDIT_GENERATED_(87)
  6
Continuous
 62
     7
100
AcDbCircle
 10
107.8262136427
 20
161.8743648445
 30
0.0
 40
50.00000012670514
100
AcDbArc
 50
140.070511289
 51
143.0817260896
  0
ARC
  5
10C
330
E8
100
AcDbEntity
  8
$DDT_AUDIT_GENERATED_(87)
  6
Continuous
 62
     7
100
AcDbCircle
 10
107.8262136427
 20
161.8743648445
 30
0.0
 40
50.00000012670514
100
AcDbArc
 50
99.6473841777
 51
130.7471871852
  0
ARC
  5
10D
330
E8
100
AcDbEntity
  8
$DDT_AUDIT_GENERATED_(87)
  6
Continuous
 62
     7
100
AcDbCircle
 10
107.8262136427
 20
161.8743648445
 30
0.0
 40
50.00000012670514
100
AcDbArc
 50
95.5278762529
 51
98.4382026232
  0
ARC
  5
10E
330
E8
100
AcDbEntity
  8
$DDT_AUDIT_GENERATED_(87)
  6
Continuous
 62
     7
100
AcDbCircle
 10
107.8262136427
 20
161.8743648445
 30
0.0
 40
50.00000012670514
100
AcDbArc
 50
84.2360145472
 51
86.2971703779
  0
ARC
  5
10F
330
E8
100
AcDbEntity
  8
$DDT_AUDIT_GENERATED_(87)
  6
Continuous
 62
     7
100
AcDbCircle
 10
107.8262136427
 20
161.8743648445
 30
0.0
 40
50.00000012670514
100
AcDbArc
 50
54.2993345803
 51
80.4061797667
  0
ARC
  5
110
330
E8
100
AcDbEntity
  8
$DDT_AUDIT_GENERATED_(87)
  6
Continuous
 62
     7
100
AcDbCircle
 10
107.8262136427
 20
161.8743648445
 30
0.0
 40
50.00000012670514
100
AcDbArc
 50
50.8721382367
 51
53.8985124871
  0
ARC
  5
111
330
E8
100
AcDbEntity
  8
$DDT_AUDIT_GENERATED_(87)
  6
Continuous
 62
     7
100
AcDbCircle
 10
107.8262136427
 20
161.8743648445
 30
0.0
 40
50.00000012670514
100
AcDbArc
 50
36.7224652751
 51
39.6445806732
  0
ARC
  5
112
330
E8
100
AcDbEntity
  8
$DDT_AUDIT_GENERATED_(87)
  6
Continuous
 62
     7
100
AcDbCircle
 10
107.8262136427
 20
161.8743648445
 30
0.0
 40
50.00000012670514
100
AcDbArc
 50
4.8719082989
 51
31.393706546
  0
ARC
  5
113
330
E8
100
AcDbEntity
  8
$DDT_AUDIT_GENERATED_(87)
  6
Continuous
 62
     7
100
AcDbCircle
 10
107.8262136427
 20
161.8743648445
 30
0.0
 40
50.00000012670514
100
AcDbArc
 50
0.0
 51
2.4625575041
  0
SPLINE
  5
114
330
E8
100
AcDbEntity
  8
64812038_GRIFF_H
  6
Continuous
 62
     7
100
AcDbSpline
210
0.0
220
0.0
230
1.0
 70
     8
 71
     7
 72
    31
 73
    23
 74
     0
 42
0.0000000000630982
 43
0.0000000001
 40
0.0
 40
0.0
 40
0.0
 40
0.0
 40
0.0
 40
0.0
 40
0.0
 40
0.0
 40
0.0625
 40
0.125
 40
0.1875
 40
0.25
 40
0.3125
 40
0.375
 40
0.4375
 40
0.5
 40
0.5625
 40
0.625
 40
0.6875
 40
0.75
 40
0.8125
 40
0.875
 40
0.9375
 40
1.0
 40
1.0
 40
1.0
 40
1.0
 40
1.0
 40
1.0
 40
1.0
 40
1.0
 10
57.82621289762471
 20
161.8743648445601
 30
0.0
 10
57.8262128976242
 20
160.4718599004309
 30
0.0
 10
57.92322350776811
 20
157.6719281044076
 30
0.0
 10
58.35475941006641
 20
153.4712807619929
 30
0.0
 10
59.4861738062256
 20
147.9649826610779
 30
0.0
 10
61.7718383592813
 20
141.2583288060907
 30
0.0
 10
65.75369534399081
 20
133.7827190606524
 30
0.0
 10
71.973532120364
 20
126.0116349016872
 30
0.0
 10
79.7222392576393
 20
119.8113805298568
 30
0.0
 10
88.47362298638541
 20
115.1457050785211
 30
0.0
 10
97.94958311521627
 20
112.2598492370075
 30
0.0
 10
107.8270754610254
 20
111.164078850166
 30
0.0
 10
117.7009635064819
 20
112.2590079180289
 30
0.0
 10
127.1811529313287
 20
115.1475878891405
 30
0.0
 10
135.927059255007
 20
119.8080246009874
 30
0.0
 10
143.6831442870212
 20
126.0172198389081
 30
0.0
 10
149.8929040174786
 20
133.7735808812448
 30
0.0
 10
153.8868385758853
 20
141.2701478311093
 30
0.0
 10
156.1616574357706
 20
147.9539541269576
 30
0.0
 10
157.2991428944347
 20
153.4774557445656
 30
0.0
 10
157.7299723544887
 20
157.6703274608839
 30
0.0
 10
157.8257122345009
 20
160.4730190499999
 30
0.0
 10
157.8259130957968
 20
161.8743648445582
 30
0.0
  0
SPLINE
  5
115
330
E8
100
AcDbEntity
  8
64812038_GRIFF_H
  6
Continuous
 62
     7
100
AcDbSpline
210
0.0
220
0.0
230
1.0
 70
     8
 71
     7
 72
    31
 73
    23
 74
     0
 42
0.0000000000630982
 43
0.0000000001
 40
0.0
 40
0.0
 40
0.0
 40
0.0
 40
0.0
 40
0.0
 40
0.0
 40
0.0
 40
0.0625
 40
0.125
 40
0.1875
 40
0.25
 40
0.3125
 40
0.375
 40
0.4375
 40
0.5
 40
0.5625
 40
0.625
 40
0.6875
 40
0.75
 40
0.8125
 40
0.875
 40
0.9375
 40
1.0
 40
1.0
 40
1.0
 40
1.0
 40
1.0
 40
1.0
 40
1.0
 40
1.0
 10
157.8259130957968
 20
161.8743648445582
 30
0.0
 10
157.8257122344864
 20
163.2757106391946
 30
0.0
 10
157.729972354471
 20
166.0784022284679
 30
0.0
 10
157.2991428944007
 20
170.2712739449725
 30
0.0
 10
156.1616574356896
 20
175.7947755625616
 30
0.0
 10
153.8868385756763
 20
182.4785818577443
 30
0.0
 10
149.8929040181573
 20
189.9751488072762
 30
0.0
 10
143.6831442870091
 20
197.731509850158
 30
0.0
 10
135.9270592544627
 20
203.9407050887459
 30
0.0
 10
127.1811529312068
 20
208.6011417996332
 30
0.0
 10
117.7009635073262
 20
211.4897217711008
 30
0.0
 10
107.8270754610648
 20
212.5846508389729
 30
0.0
 10
97.94958311429035
 20
211.4888804520702
 30
0.0
 10
88.47362298660397
 20
208.6030246103604
 30
0.0
 10
79.72223925806121
 20
203.9373491596999
 30
0.0
 10
71.97353212054527
 20
197.7370947876507
 30
0.0
 10
65.75369534305905
 20
189.9660106274625
 30
0.0
 10
61.77183835981869
 20
182.4904008832349
 30
0.0
 10
59.48617380596843
 20
175.7837470280668
 30
0.0
 10
58.3547594103384
 20
170.2774489276815
 30
0.0
 10
57.92322350771342
 20
166.076801584958
 30
0.0
 10
57.82621289762422
 20
163.2768697888117
 30
0.0
 10
57.82621289762471
 20
161.8743648445601
 30
0.0
  0
SPLINE
  5
116
330
E8
100
AcDbEntity
  8
64812038_GRIFF_H
  6
Continuous
 62
     7
100
AcDbSpline
210
0.0
220
0.0
230
1.0
 70
     8
 71
     3
 72
    32
 73
    28
 74
     0
 42
0.0000000003401354
 43
0.0000000001
 40
0.0
 40
0.0
 40
0.0
 40
0.0
 40
0.0217042815292938
 40
0.0432722951925354
 40
0.064268095955492
 40
0.0838758891295703
 40
0.1014079120425623
 40
0.1166063487833394
 40
0.1414957403428821
 40
0.1870878038798932
 40
0.2341130764662476
 40
0.3015808274463509
 40
0.3741207760744867
 40
0.4507868837521141
 40
0.5308836667137417
 40
0.6151002258872666
 40
0.7027975350835157
 40
0.7474510885750624
 40
0.7930658071684219
 40
0.8408907258859639
 40
0.8793638020606953
 40
0.900106950169718
 40
0.9218860107641941
 40
0.9443211433955877
 40
0.966056253292943
 40
0.9867415146746099
 40
1.0
 40
1.0
 40
1.0
 40
1.0
 10
120.2943714312565
 20
161.870459667714
 30
0.0
 10
120.2892673400636
 20
162.103864703541
 30
0.0
 10
120.2749189768163
 20
162.4968156256589
 30
0.0
 10
120.1432575255179
 20
163.1275006467574
 30
0.0
 10
119.9071073050937
 20
163.6888797481889
 30
0.0
 10
119.5825355396326
 20
164.1608538992978
 30
0.0
 10
119.2210550039962
 20
164.5257476507063
 30
0.0
 10
118.7727935897406
 20
164.8689316545981
 30
0.0
 10
118.0390432513349
 20
165.2805065415271
 30
0.0
 10
116.9447984909068
 20
165.6521112426599
 30
0.0
 10
115.4115448724353
 20
165.973391389814
 30
0.0
 10
113.5950759910075
 20
166.2027513057367
 30
0.0
 10
111.4807433777655
 20
166.3482694444924
 30
0.0
 10
109.2390825534424
 20
166.4161119029049
 30
0.0
 10
106.8823949914585
 20
166.421811626393
 30
0.0
 10
104.4184789467324
 20
166.3633502622164
 30
0.0
 10
102.3039762684186
 20
166.2248127551257
 30
0.0
 10
100.5758051446204
 20
166.0148434217898
 30
0.0
 10
99.2456131826715
 20
165.7779690654868
 30
0.0
 10
97.99748375575963
 20
165.4384926627844
 30
0.0
 10
97.04344608798411
 20
164.9880801990182
 30
0.0
 10
96.4057618580127
 20
164.5132482525436
 30
0.0
 10
95.96975743008245
 20
164.0458870941003
 30
0.0
 10
95.64022420284793
 20
163.4837623003326
 30
0.0
 10
95.4447340027933
 20
162.8805229703955
 30
0.0
 10
95.36547978029503
 20
162.3265673927264
 30
0.0
 10
95.36251760799335
 20
162.0168487906248
 30
0.0
 10
95.36248820932188
 20
161.8742348600651
 30
0.0
  0
SPLINE
  5
117
330
E8
100
AcDbEntity
  8
64812038_GRIFF_H
  6
Continuous
 62
     7
100
AcDbSpline
210
0.0
220
0.0
230
1.0
 70
     8
 71
     3
 72
    34
 73
    30
 74
     0
 42
0.0000000003402884
 43
0.0000000001
 40
0.0
 40
0.0
 40
0.0
 40
0.0
 40
0.016209847234459
 40
0.0384468646616788
 40
0.0602277771029444
 40
0.0805894039999356
 40
0.0986777437879882
 40
0.1144610168139248
 40
0.140055688544598
 40
0.1733415748747625
 40
0.2084834322915619
 40
0.2456598972729905
 40
0.3063083388335786
 40
0.3688526307036578
 40
0.4298254894868715
 40
0.4893881008165363
 40
0.5668035184085762
 40
0.6430873615837648
 40
0.719259670325021
 40
0.7575931299493779
 40
0.7963509966940084
 40
0.8383701090917379
 40
0.8737011132053973
 40
0.8929714873801462
 40
0.9137689787122277
 40
0.9356785867991072
 40
0.9579005380921122
 40
0.9793735367223889
 40
1.0
 40
1.0
 40
1.0
 40
1.0
 10
95.36620209382299
 20
161.8745376077514
 30
0.0
 10
95.36544502704336
 20
161.7002123343514
 30
0.0
 10
95.36789890505533
 20
161.3497340910029
 30
0.0
 10
95.47125099549275
 20
160.753017401834
 30
0.0
 10
95.6905995739931
 20
160.1626373519738
 30
0.0
 10
96.00892176180147
 20
159.6611886444503
 30
0.0
 10
96.37395902568008
 20
159.2736773344454
 30
0.0
 10
96.83022276591296
 20
158.9113058591952
 30
0.0
 10
97.46573368679043
 20
158.5454312168706
 30
0.0
 10
98.32781579378675
 20
158.2175855632688
 30
0.0
 10
99.32880581160988
 20
157.9599826668112
 30
0.0
 10
100.6081751800263
 20
157.7254634619015
 30
0.0
 10
102.1662244291875
 20
157.540465769889
 30
0.0
 10
103.9627991457993
 20
157.4151753064086
 30
0.0
 10
105.7517731681114
 20
157.3495789559983
 30
0.0
 10
107.6870493551166
 20
157.3256212083784
 30
0.0
 10
109.7722428546204
 20
157.342377098587
 30
0.0
 10
112.0183724669157
 20
157.4275953749573
 30
0.0
 10
113.8787231076682
 20
157.5783768330375
 30
0.0
 10
115.3638836142175
 20
157.7808331813156
 30
0.0
 10
116.5085949114237
 20
157.9979481219565
 30
0.0
 10
117.6050674298049
 20
158.3008944516837
 30
0.0
 10
118.4721926793541
 20
158.6896721848543
 30
0.0
 10
119.0850292400697
 20
159.1030097158052
 30
0.0
 10
119.5303600067919
 20
159.5182790204504
 30
0.0
 10
119.9009411890154
 20
160.0409473504512
 30
0.0
 10
120.1483288535941
 20
160.6343335056005
 30
0.0
 10
120.2758364456086
 20
161.2663100864202
 30
0.0
 10
120.2895519754196
 20
161.6486875274391
 30
0.0
 10
120.2943840593315
 20
161.8704596568087
 30
0.0
  0
ENDBLK
  5
119
330
E8
100
AcDbEntity
  8
0
100
AcDbBlockEnd
  0
ENDSEC
  0
SECTION
  2
ENTITIES
  0
INSERT
  5
5F
330
1F
100
AcDbEntity
  8
Default
100
AcDbBlockReference
  2
SEANNOT_GROUP
 10
0.0
 20
0.0
 30
0.0
  0
INSERT
  5
6A
330
1F
100
AcDbEntity
  8
Default
100
AcDbBlockReference
  2
SEANNOT_GROUP1
 10
0.0
 20
0.0
 30
0.0
  0
INSERT
  5
70
330
1F
100
AcDbEntity
  8
Default
100
AcDbBlockReference
  2
SEANNOT_GROUP2
 10
0.0
 20
0.0
 30
0.0
  0
INSERT
  5
76
330
1F
100
AcDbEntity
  8
Default
100
AcDbBlockReference
  2
SE
 10
0.0
 20
0.0
 30
0.0
  0
INSERT
  5
A7
330
1F
100
AcDbEntity
  8
Default
100
AcDbBlockReference
  2
SE1
 10
0.0
 20
0.0
 30
0.0
  0
INSERT
  5
E9
330
1F
100
AcDbEntity
  8
Default
100
AcDbBlockReference
  2
SE2
 10
0.0
 20
0.0
 30
0.0
  0
TEXT
  5
11B
330
1F
100
AcDbEntity
  8
Default
  6
Continuous
 62
     7
100
AcDbText
 10
5.9362635081
 20
53.4225120485
 30
0.0
 40
10.0
  1
Grohe AG^J
  7
SEACAD_seiso_ttf
 11
5.9362635081
 21
63.4225120485
 31
0.0
100
AcDbText
 73
     3
  0
TEXT
  5
11C
330
1F
100
AcDbEntity
  8
Default
  6
Continuous
 62
     7
100
AcDbText
 10
5.9362635081
 20
37.0588756849
 30
0.0
 40
10.0
  1
 
  7
SEACAD_seiso_ttf
 11
5.9362635081
 21
47.0588756849
 31
0.0
100
AcDbText
 73
     3
  0
TEXT
  5
11D
330
1F
100
AcDbEntity
  8
Default
  6
Continuous
 62
     7
100
AcDbText
 10
5.9362635081
 20
20.6952393213
 30
0.0
 40
10.0
  1
ecn: 
  7
SEACAD_seiso_ttf
 11
5.9362635081
 21
30.6952393213
 31
0.0
100
AcDbText
 73
     3
  0
TEXT
  5
11E
330
1F
100
AcDbEntity
  8
Default
  6
Continuous
 62
     7
100
AcDbText
 10
5.9362635081
 20
4.3316029576
 30
0.0
 40
10.0
  1
unit: mm
  7
SEACAD_seiso_ttf
 11
5.9362635081
 21
14.3316029576
 31
0.0
100
AcDbText
 73
     3
  0
LINE
  5
11F
330
1F
100
AcDbEntity
  8
Default
  6
Continuous
 62
     7
100
AcDbLine
 10
0.0
 20
0.0
 30
0.0
 11
100.0
 21
0.0
 31
0.0
  0
LINE
  5
120
330
1F
100
AcDbEntity
  8
Default
  6
Continuous
 62
     7
100
AcDbLine
 10
0.0
 20
0.0
 30
0.0
 11
0.0
 21
100.0
 31
0.0
  0
TEXT
  5
121
330
1F
100
AcDbEntity
  8
Default
  6
Continuous
 62
     7
100
AcDbText
 10
24.3923665681
 20
-18.2375342018
 30
0.0
 40
10.0
  1
100 mm
  7
SEACAD_seiso_ttf
 11
24.3923665681
 21
-8.2375342018
 31
0.0
100
AcDbText
 73
     3
  0
TEXT
  5
122
330
1F
100
AcDbEntity
  8
Default
  6
Continuous
 62
     7
100
AcDbText
 10
-7.6150308803
 20
24.6231930421
 30
0.0
 40
10.0
  1
100 mm
 50
90.0
  7
SEACAD_seiso_ttf
 11
-17.6150308803
 21
24.6231930421
 31
0.0
100
AcDbText
 73
     3
  0
TEXT
  5
123
330
1F
100
AcDbEntity
  8
Default
  6
Continuous
 62
     7
100
AcDbText
 10
28.4878128572
 20
20.0907663715
 30
0.0
 40
10.0
  1
211890
  7
SEACAD_seiso_ttf
 11
28.4878128572
 21
30.0907663715
 31
0.0
100
AcDbText
 73
     3
  0
TEXT
  5
124
330
1F
100
AcDbEntity
  8
Default
  6
Continuous
 62
     7
100
AcDbText
 10
5.9012241913
 20
36.7242780188
 30
0.0
 40
10.0
  1
40380000
  7
SEACAD_seiso_ttf
 11
5.9012241913
 21
46.7242780188
 31
0.0
100
AcDbText
 73
     3
  0
ENDSEC
  0
SECTION
  2
OBJECTS
  0
DICTIONARY
  5
C
330
0
100
AcDbDictionary
281
     1
  3
ACAD_GROUP
350
D
  3
ACAD_LAYOUT
350
1A
  3
ACAD_MLEADERSTYLE
350
128
  3
ACAD_MLINESTYLE
350
17
  3
ACAD_PLOTSETTINGS
350
19
  3
ACAD_PLOTSTYLENAME
350
E
  3
ACAD_SCALELIST
350
3B
  3
ACAD_TABLESTYLE
350
127
  3
ACAD_VISUALSTYLE
350
2A
  3
AcDbVariableDictionary
350
125
  0
DICTIONARY
  5
D
102
{ACAD_REACTORS
330
C
102
}
330
C
100
AcDbDictionary
281
     1
  0
DICTIONARY
  5
1A
102
{ACAD_REACTORS
330
C
102
}
330
C
100
AcDbDictionary
281
     1
  3
Layout1
350
1E
  3
Model
350
22
  0
DICTIONARY
  5
128
102
{ACAD_REACTORS
330
C
102
}
330
C
100
AcDbDictionary
281
     1
  0
DICTIONARY
  5
17
102
{ACAD_REACTORS
330
C
102
}
330
C
100
AcDbDictionary
281
     1
  3
Standard
350
18
  0
DICTIONARY
  5
19
102
{ACAD_REACTORS
330
C
102
}
330
C
100
AcDbDictionary
281
     1
  0
ACDBDICTIONARYWDFLT
  5
E
102
{ACAD_REACTORS
330
C
102
}
330
C
100
AcDbDictionary
281
     1
  3
Normal
350
F
100
AcDbDictionaryWithDefault
340
F
  0
DICTIONARY
  5
3B
102
{ACAD_REACTORS
330
C
102
}
330
C
100
AcDbDictionary
281
     1
  3
A0
350
3C
  3
A1
350
3D
  3
A2
350
3E
  3
A3
350
3F
  3
A4
350
40
  3
A5
350
41
  3
A6
350
42
  3
A7
350
43
  3
A8
350
44
  3
A9
350
45
  3
B0
350
46
  3
B1
350
47
  3
B2
350
48
  3
B3
350
49
  3
B4
350
4A
  3
B5
350
4B
  3
B6
350
4C
  3
B7
350
4D
  3
B8
350
4E
  3
B9
350
4F
  3
C0
350
50
  3
C1
350
51
  3
C2
350
52
  3
C3
350
53
  3
C4
350
54
  3
C5
350
55
  3
C6
350
56
  3
C7
350
57
  3
C8
350
58
  3
C9
350
59
  3
D0
350
5A
  3
D1
350
5B
  3
D2
350
5C
  0
DICTIONARY
  5
127
102
{ACAD_REACTORS
330
C
102
}
330
C
100
AcDbDictionary
281
     1
  0
DICTIONARY
  5
2A
102
{ACAD_REACTORS
330
C
102
}
330
C
100
AcDbDictionary
281
     1
  3
2dWireframe
350
2F
  3
3D Hidden
350
31
  3
3dWireframe
350
30
  3
Basic
350
32
  3
Brighten
350
36
  3
ColorChange
350
3A
  3
Conceptual
350
34
  3
Dim
350
35
  3
Facepattern
350
39
  3
Flat
350
2B
  3
FlatWithEdges
350
2C
  3
Gouraud
350
2D
  3
GouraudWithEdges
350
2E
  3
Linepattern
350
38
  3
Realistic
350
33
  3
Thicken
350
37
  0
DICTIONARY
  5
125
102
{ACAD_REACTORS
330
C
102
}
330
C
100
AcDbDictionary
281
     1
  3
CANNOSCALE
350
126
  3
PSOLHEIGHT
350
12A
  3
PSOLWIDTH
350
129
  0
LAYOUT
  5
1E
102
{ACAD_REACTORS
330
1A
102
}
330
1A
100
AcDbPlotSettings
  1

  2
none_device
  4

  6

 40
0.0
 41
0.0
 42
0.0
 43
0.0
 44
0.0
 45
0.0
 46
0.0
 47
0.0
 48
0.0
 49
0.0
140
0.0
141
0.0
142
1.0
143
1.0
 70
   688
 72
     0
 73
     0
 74
     5
  7

 75
    16
147
1.0
148
0.0
149
0.0
100
AcDbLayout
  1
Layout1
 70
     1
 71
     1
 10
0.0
 20
0.0
 11
1682.0
 21
2378.0
 12
0.0
 22
0.0
 32
0.0
 14
0.0
 24
0.0
 34
0.0
 15
1682.0
 25
2378.0
 35
0.0
146
0.0
 13
0.0
 23
0.0
 33
0.0
 16
1.0
 26
0.0
 36
0.0
 17
0.0
 27
1.0
 37
0.0
 76
     0
330
1B
  0
LAYOUT
  5
22
102
{ACAD_REACTORS
330
1A
102
}
330
1A
100
AcDbPlotSettings
  1

  2
none_device
  4

  6

 40
0.0
 41
0.0
 42
0.0
 43
0.0
 44
0.0
 45
0.0
 46
0.0
 47
0.0
 48
0.0
 49
0.0
140
0.0
141
0.0
142
1.0
143
1.0
 70
  1712
 72
     0
 73
     0
 74
     0
  7

 75
     0
147
1.0
148
0.0
149
0.0
100
AcDbLayout
  1
Model
 70
     1
 71
     0
 10
0.0
 20
0.0
 11
1682.0
 21
2378.0
 12
0.0
 22
0.0
 32
0.0
 14
0.0
 24
0.0
 34
0.0
 15
1682.0
 25
2378.0
 35
0.0
146
0.0
 13
0.0
 23
0.0
 33
0.0
 16
1.0
 26
0.0
 36
0.0
 17
0.0
 27
1.0
 37
0.0
 76
     0
330
1F
331
29
  0
MLINESTYLE
  5
18
102
{ACAD_REACTORS
330
17
102
}
330
17
100
AcDbMlineStyle
  2
Standard
 70
     0
  3

 62
   256
 51
90.0
 52
90.0
 71
     2
 49
0.5
 62
   256
  6
BYLAYER
 49
-0.5
 62
   256
  6
BYLAYER
  0
ACDBPLACEHOLDER
  5
F
102
{ACAD_REACTORS
330
E
102
}
330
E
  0
SCALE
  5
3C
102
{ACAD_REACTORS
330
3B
102
}
330
3B
100
AcDbScale
 70
     0
300
1:1
140
1.0
141
1.0
290
     1
  0
SCALE
  5
3D
102
{ACAD_REACTORS
330
3B
102
}
330
3B
100
AcDbScale
 70
     0
300
1:2
140
1.0
141
2.0
290
     0
  0
SCALE
  5
3E
102
{ACAD_REACTORS
330
3B
102
}
330
3B
100
AcDbScale
 70
     0
300
1:4
140
1.0
141
4.0
290
     0
  0
SCALE
  5
3F
102
{ACAD_REACTORS
330
3B
102
}
330
3B
100
AcDbScale
 70
     0
300
1:5
140
1.0
141
5.0
290
     0
  0
SCALE
  5
40
102
{ACAD_REACTORS
330
3B
102
}
330
3B
100
AcDbScale
 70
     0
300
1:8
140
1.0
141
8.0
290
     0
  0
SCALE
  5
41
102
{ACAD_REACTORS
330
3B
102
}
330
3B
100
AcDbScale
 70
     0
300
1:10
140
1.0
141
10.0
290
     0
  0
SCALE
  5
42
102
{ACAD_REACTORS
330
3B
102
}
330
3B
100
AcDbScale
 70
     0
300
1:16
140
1.0
141
16.0
290
     0
  0
SCALE
  5
43
102
{ACAD_REACTORS
330
3B
102
}
330
3B
100
AcDbScale
 70
     0
300
1:20
140
1.0
141
20.0
290
     0
  0
SCALE
  5
44
102
{ACAD_REACTORS
330
3B
102
}
330
3B
100
AcDbScale
 70
     0
300
1:30
140
1.0
141
30.0
290
     0
  0
SCALE
  5
45
102
{ACAD_REACTORS
330
3B
102
}
330
3B
100
AcDbScale
 70
     0
300
1:40
140
1.0
141
40.0
290
     0
  0
SCALE
  5
46
102
{ACAD_REACTORS
330
3B
102
}
330
3B
100
AcDbScale
 70
     0
300
1:50
140
1.0
141
50.0
290
     0
  0
SCALE
  5
47
102
{ACAD_REACTORS
330
3B
102
}
330
3B
100
AcDbScale
 70
     0
300
1:100
140
1.0
141
100.0
290
     0
  0
SCALE
  5
48
102
{ACAD_REACTORS
330
3B
102
}
330
3B
100
AcDbScale
 70
     0
300
2:1
140
2.0
141
1.0
290
     0
  0
SCALE
  5
49
102
{ACAD_REACTORS
330
3B
102
}
330
3B
100
AcDbScale
 70
     0
300
4:1
140
4.0
141
1.0
290
     0
  0
SCALE
  5
4A
102
{ACAD_REACTORS
330
3B
102
}
330
3B
100
AcDbScale
 70
     0
300
8:1
140
8.0
141
1.0
290
     0
  0
SCALE
  5
4B
102
{ACAD_REACTORS
330
3B
102
}
330
3B
100
AcDbScale
 70
     0
300
10:1
140
10.0
141
1.0
290
     0
  0
SCALE
  5
4C
102
{ACAD_REACTORS
330
3B
102
}
330
3B
100
AcDbScale
 70
     0
300
100:1
140
100.0
141
1.0
290
     0
  0
SCALE
  5
4D
102
{ACAD_REACTORS
330
3B
102
}
330
3B
100
AcDbScale
 70
     0
300
1/128" = 1'-0"
140
0.0078125
141
12.0
290
     0
  0
SCALE
  5
4E
102
{ACAD_REACTORS
330
3B
102
}
330
3B
100
AcDbScale
 70
     0
300
1/64" = 1'-0"
140
0.015625
141
12.0
290
     0
  0
SCALE
  5
4F
102
{ACAD_REACTORS
330
3B
102
}
330
3B
100
AcDbScale
 70
     0
300
1/32" = 1'-0"
140
0.03125
141
12.0
290
     0
  0
SCALE
  5
50
102
{ACAD_REACTORS
330
3B
102
}
330
3B
100
AcDbScale
 70
     0
300
1/16" = 1'-0"
140
0.0625
141
12.0
290
     0
  0
SCALE
  5
51
102
{ACAD_REACTORS
330
3B
102
}
330
3B
100
AcDbScale
 70
     0
300
3/32" = 1'-0"
140
0.09375
141
12.0
290
     0
  0
SCALE
  5
52
102
{ACAD_REACTORS
330
3B
102
}
330
3B
100
AcDbScale
 70
     0
300
1/8" = 1'-0"
140
0.125
141
12.0
290
     0
  0
SCALE
  5
53
102
{ACAD_REACTORS
330
3B
102
}
330
3B
100
AcDbScale
 70
     0
300
3/16" = 1'-0"
140
0.1875
141
12.0
290
     0
  0
SCALE
  5
54
102
{ACAD_REACTORS
330
3B
102
}
330
3B
100
AcDbScale
 70
     0
300
1/4" = 1'-0"
140
0.25
141
12.0
290
     0
  0
SCALE
  5
55
102
{ACAD_REACTORS
330
3B
102
}
330
3B
100
AcDbScale
 70
     0
300
3/8" = 1'-0"
140
0.375
141
12.0
290
     0
  0
SCALE
  5
56
102
{ACAD_REACTORS
330
3B
102
}
330
3B
100
AcDbScale
 70
     0
300
1/2" = 1'-0"
140
0.5
141
12.0
290
     0
  0
SCALE
  5
57
102
{ACAD_REACTORS
330
3B
102
}
330
3B
100
AcDbScale
 70
     0
300
3/4" = 1'-0"
140
0.75
141
12.0
290
     0
  0
SCALE
  5
58
102
{ACAD_REACTORS
330
3B
102
}
330
3B
100
AcDbScale
 70
     0
300
1" = 1'-0"
140
1.0
141
12.0
290
     0
  0
SCALE
  5
59
102
{ACAD_REACTORS
330
3B
102
}
330
3B
100
AcDbScale
 70
     0
300
1-1/2" = 1'-0"
140
1.5
141
12.0
290
     0
  0
SCALE
  5
5A
102
{ACAD_REACTORS
330
3B
102
}
330
3B
100
AcDbScale
 70
     0
300
3" = 1'-0"
140
3.0
141
12.0
290
     0
  0
SCALE
  5
5B
102
{ACAD_REACTORS
330
3B
102
}
330
3B
100
AcDbScale
 70
     0
300
6" = 1'-0"
140
6.0
141
12.0
290
     0
  0
SCALE
  5
5C
102
{ACAD_REACTORS
330
3B
102
}
330
3B
100
AcDbScale
 70
     0
300
1'-0" = 1'-0"
140
12.0
141
12.0
290
     0
  0
VISUALSTYLE
  5
2F
102
{ACAD_REACTORS
330
2A
102
}
330
2A
100
AcDbVisualStyle
  2
2dWireframe
 70
     4
 71
     0
 72
     2
 73
     0
 90
        0
 40
-0.6
 41
-30.0
 62
     5
 63
     7
 74
     1
 91
        4
 64
     7
 65
   257
 75
     1
175
     1
 42
1.0
 92
        0
 66
   257
 43
1.0
 76
     1
 77
     6
 78
     2
 67
     7
 79
     5
170
     0
171
     0
290
     0
174
     0
 93
        1
 44
0.0
173
     0
291
     0
 45
0.0
1001
ACAD
1000
AcDbSavedByObjectVersion
1070
     0
  0
VISUALSTYLE
  5
31
102
{ACAD_REACTORS
330
2A
102
}
330
2A
100
AcDbVisualStyle
  2
3D Hidden
 70
     6
 71
     1
 72
     2
 73
     2
 90
        0
 40
-0.6
 41
-30.0
 62
     5
 63
     7
 74
     2
 91
        2
 64
     7
 65
   257
 75
     2
175
     1
 42
40.0
 92
        0
 66
   257
 43
1.0
 76
     1
 77
     6
 78
     2
 67
     7
 79
     3
170
     0
171
     0
290
     0
174
     0
 93
        1
 44
0.0
173
     0
291
     0
 45
0.0
1001
ACAD
1000
AcDbSavedByObjectVersion
1070
     0
  0
VISUALSTYLE
  5
30
102
{ACAD_REACTORS
330
2A
102
}
330
2A
100
AcDbVisualStyle
  2
3dWireframe
 70
     5
 71
     0
 72
     2
 73
     0
 90
        0
 40
-0.6
 41
-30.0
 62
     5
 63
     7
 74
     1
 91
        4
 64
     7
 65
   257
 75
     1
175
     1
 42
1.0
 92
        0
 66
   257
 43
1.0
 76
     1
 77
     6
 78
     2
 67
     7
 79
     5
170
     0
171
     0
290
     0
174
     0
 93
        1
 44
0.0
173
     0
291
     0
 45
0.0
1001
ACAD
1000
AcDbSavedByObjectVersion
1070
     0
  0
VISUALSTYLE
  5
32
102
{ACAD_REACTORS
330
2A
102
}
330
2A
100
AcDbVisualStyle
  2
Basic
 70
     7
 71
     1
 72
     0
 73
     1
 90
        0
 40
-0.6
 41
-30.0
 62
     5
 63
     7
 74
     0
 91
        4
 64
     7
 65
   257
 75
     1
175
     1
 42
1.0
 92
        8
 66
     7
 43
1.0
 76
     1
 77
     6
 78
     2
 67
     7
 79
     5
170
     0
171
     0
290
     0
174
     0
 93
        1
 44
0.0
173
     0
291
     1
 45
0.0
1001
ACAD
1000
AcDbSavedByObjectVersion
1070
     0
  0
VISUALSTYLE
  5
36
102
{ACAD_REACTORS
330
2A
102
}
330
2A
100
AcDbVisualStyle
  2
Brighten
 70
    12
 71
     2
 72
     2
 73
     0
 90
        0
 40
-0.6
 41
-30.0
 62
     5
 63
     7
 74
     1
 91
        4
 64
     7
 65
   257
 75
     1
175
     1
 42
1.0
 92
        8
 66
     7
 43
1.0
 76
     1
 77
     6
 78
     2
 67
     7
 79
     5
170
     0
171
     0
290
     0
174
     0
 93
        1
 44
50.0
173
     0
291
     1
 45
0.0
1001
ACAD
1000
AcDbSavedByObjectVersion
1070
     0
  0
VISUALSTYLE
  5
3A
102
{ACAD_REACTORS
330
2A
102
}
330
2A
100
AcDbVisualStyle
  2
ColorChange
 70
    16
 71
     2
 72
     2
 73
     3
 90
        0
 40
-0.6
 41
-30.0
 62
     5
 63
     8
 74
     1
 91
        4
 64
     7
 65
   257
 75
     1
175
     1
 42
1.0
 92
        8
 66
     8
 43
1.0
 76
     1
 77
     6
 78
     2
 67
     7
 79
     5
170
     0
171
     0
290
     0
174
     0
 93
        1
 44
0.0
173
     0
291
     1
 45
0.0
1001
ACAD
1000
AcDbSavedByObjectVersion
1070
     0
  0
VISUALSTYLE
  5
34
102
{ACAD_REACTORS
330
2A
102
}
330
2A
100
AcDbVisualStyle
  2
Conceptual
 70
     9
 71
     3
 72
     2
 73
     0
 90
        0
 40
-0.6
 41
-30.0
 62
     5
 63
     7
 74
     2
 91
        2
 64
     7
 65
   257
 75
     1
175
     1
 42
40.0
 92
        8
 66
     7
 43
1.0
 76
     1
 77
     6
 78
     2
 67
     7
 79
     3
170
     0
171
     0
290
     0
174
     0
 93
        1
 44
0.0
173
     0
291
     0
 45
0.0
1001
ACAD
1000
AcDbSavedByObjectVersion
1070
     0
  0
VISUALSTYLE
  5
35
102
{ACAD_REACTORS
330
2A
102
}
330
2A
100
AcDbVisualStyle
  2
Dim
 70
    11
 71
     2
 72
     2
 73
     0
 90
        0
 40
-0.6
 41
-30.0
 62
     5
 63
     7
 74
     1
 91
        4
 64
     7
 65
   257
 75
     1
175
     1
 42
1.0
 92
        8
 66
     7
 43
1.0
 76
     1
 77
     6
 78
     2
 67
     7
 79
     5
170
     0
171
     0
290
     0
174
     0
 93
        1
 44
-50.0
173
     0
291
     1
 45
0.0
1001
ACAD
1000
AcDbSavedByObjectVersion
1070
     0
  0
VISUALSTYLE
  5
39
102
{ACAD_REACTORS
330
2A
102
}
330
2A
100
AcDbVisualStyle
  2
Facepattern
 70
    15
 71
     2
 72
     2
 73
     0
 90
        0
 40
-0.6
 41
-30.0
 62
     5
 63
     7
 74
     1
 91
        4
 64
     7
 65
   257
 75
     1
175
     1
 42
1.0
 92
        8
 66
     7
 43
1.0
 76
     1
 77
     6
 78
     2
 67
     7
 79
     5
170
     0
171
     0
290
     0
174
     0
 93
        1
 44
0.0
173
     0
291
     1
 45
0.0
1001
ACAD
1000
AcDbSavedByObjectVersion
1070
     0
  0
VISUALSTYLE
  5
2B
102
{ACAD_REACTORS
330
2A
102
}
330
2A
100
AcDbVisualStyle
  2
Flat
 70
     0
 71
     2
 72
     1
 73
     1
 90
        2
 40
-0.6
 41
30.0
 62
     5
 63
     7
 74
     0
 91
        4
 64
     7
 65
   257
 75
     1
175
     1
 42
1.0
 92
        8
 66
     7
 43
1.0
 76
     1
 77
     6
 78
     2
 67
     7
 79
     5
170
     0
171
     0
290
     0
174
     0
 93
       13
 44
0.0
173
     0
291
     1
 45
0.0
1001
ACAD
1000
AcDbSavedByObjectVersion
1070
     0
  0
VISUALSTYLE
  5
2C
102
{ACAD_REACTORS
330
2A
102
}
330
2A
100
AcDbVisualStyle
  2
FlatWithEdges
 70
     1
 71
     2
 72
     1
 73
     1
 90
        2
 40
-0.6
 41
30.0
 62
     5
 63
     7
 74
     1
 91
        4
 64
     7
 65
   257
 75
     1
175
     1
 42
1.0
 92
        0
 66
   257
 43
1.0
 76
     1
 77
     6
 78
     2
 67
     7
 79
     5
170
     0
171
     0
290
     0
174
     0
 93
       13
 44
0.0
173
     0
291
     1
 45
0.0
1001
ACAD
1000
AcDbSavedByObjectVersion
1070
     0
  0
VISUALSTYLE
  5
2D
102
{ACAD_REACTORS
330
2A
102
}
330
2A
100
AcDbVisualStyle
  2
Gouraud
 70
     2
 71
     2
 72
     2
 73
     1
 90
        2
 40
-0.6
 41
30.0
 62
     5
 63
     7
 74
     0
 91
        4
 64
     7
 65
   257
 75
     1
175
     1
 42
1.0
 92
        0
 66
     7
 43
1.0
 76
     1
 77
     6
 78
     2
 67
     7
 79
     5
170
     0
171
     0
290
     0
174
     0
 93
       13
 44
0.0
173
     0
291
     1
 45
0.0
1001
ACAD
1000
AcDbSavedByObjectVersion
1070
     0
  0
VISUALSTYLE
  5
2E
102
{ACAD_REACTORS
330
2A
102
}
330
2A
100
AcDbVisualStyle
  2
GouraudWithEdges
 70
     3
 71
     2
 72
     2
 73
     1
 90
        2
 40
-0.6
 41
30.0
 62
     5
 63
     7
 74
     1
 91
        4
 64
     7
 65
   257
 75
     1
175
     1
 42
1.0
 92
        0
 66
   257
 43
1.0
 76
     1
 77
     6
 78
     2
 67
     7
 79
     5
170
     0
171
     0
290
     0
174
     0
 93
       13
 44
0.0
173
     0
291
     1
 45
0.0
1001
ACAD
1000
AcDbSavedByObjectVersion
1070
     0
  0
VISUALSTYLE
  5
38
102
{ACAD_REACTORS
330
2A
102
}
330
2A
100
AcDbVisualStyle
  2
Linepattern
 70
    14
 71
     2
 72
     2
 73
     0
 90
        0
 40
-0.6
 41
-30.0
 62
     5
 63
     7
 74
     1
 91
        4
 64
     7
 65
   257
 75
     7
175
     7
 42
1.0
 92
        8
 66
     7
 43
1.0
 76
     1
 77
     6
 78
     2
 67
     7
 79
     5
170
     0
171
     0
290
     0
174
     0
 93
        1
 44
0.0
173
     0
291
     1
 45
0.0
1001
ACAD
1000
AcDbSavedByObjectVersion
1070
     0
  0
VISUALSTYLE
  5
33
102
{ACAD_REACTORS
330
2A
102
}
330
2A
100
AcDbVisualStyle
  2
Realistic
 70
     8
 71
     2
 72
     2
 73
     0
 90
        0
 40
-0.6
 41
-30.0
 62
     5
 63
     7
 74
     1
 91
        0
 64
     7
 65
   257
 75
     1
175
     1
 42
1.0
 92
        8
 66
     8
 43
1.0
 76
     1
 77
     6
 78
     2
 67
     7
 79
     5
170
     0
171
     0
290
     0
174
     0
 93
       13
 44
0.0
173
     0
291
     0
 45
0.0
1001
ACAD
1000
AcDbSavedByObjectVersion
1070
     0
  0
VISUALSTYLE
  5
37
102
{ACAD_REACTORS
330
2A
102
}
330
2A
100
AcDbVisualStyle
  2
Thicken
 70
    13
 71
     2
 72
     2
 73
     0
 90
        0
 40
-0.6
 41
-30.0
 62
     5
 63
     7
 74
     1
 91
        4
 64
     7
 65
   257
 75
     1
175
     1
 42
1.0
 92
       12
 66
     7
 43
1.0
 76
     1
 77
     6
 78
     2
 67
     7
 79
     5
170
     0
171
     0
290
     0
174
     0
 93
        1
 44
0.0
173
     0
291
     1
 45
0.0
1001
ACAD
1000
AcDbSavedByObjectVersion
1070
     0
  0
DICTIONARYVAR
  5
126
102
{ACAD_REACTORS
330
125
102
}
330
125
100
DictionaryVariables
280
     0
  1
1:1
  0
DICTIONARYVAR
  5
12A
102
{ACAD_REACTORS
330
125
102
}
330
125
100
DictionaryVariables
280
     0
  1
80.000000
  0
DICTIONARYVAR
  5
129
102
{ACAD_REACTORS
330
125
102
}
330
125
100
DictionaryVariables
280
     0
  1
5.000000
  0
ENDSEC
  0
EOF
